  0
SECTION
  2
HEADER
  9
$ACADVER
  1
AC1018
  9
$ACADMAINTVER
 70
   104
  9
$DWGCODEPAGE
  3
ANSI_1252
  9
$LASTSAVEDBY
  1
Administrator
  9
$CUSTOMPROPERTYTAG
  1
AmdtFileType
  9
$CUSTOMPROPERTY
  1
84
  9
$INSBASE
 10
0.0
 20
0.0
 30
0.0
  9
$EXTMIN
 10
-424.7678586870375
 20
-11.11626871957472
 30
0.0
  9
$EXTMAX
 10
285.3249936925102
 20
855.6288994821393
 30
0.0
  9
$LIMMIN
 10
0.0
 20
0.0
  9
$LIMMAX
 10
420.0
 20
297.0
  9
$ORTHOMODE
 70
     0
  9
$REGENMODE
 70
     1
  9
$FILLMODE
 70
     1
  9
$QTEXTMODE
 70
     0
  9
$MIRRTEXT
 70
     1
  9
$LTSCALE
 40
1.0
  9
$ATTMODE
 70
     1
  9
$TEXTSIZE
 40
2.5
  9
$TRACEWID
 40
1.0
  9
$TEXTSTYLE
  7
STANDARD
  9
$CLAYER
  8
0
  9
$CELTYPE
  6
ByLayer
  9
$CECOLOR
 62
   256
  9
$CELTSCALE
 40
1.0
  9
$DISPSILH
 70
     0
  9
$DIMSCALE
 40
1.0
  9
$DIMASZ
 40
2.5
  9
$DIMEXO
 40
1.0
  9
$DIMDLI
 40
10.0
  9
$DIMRND
 40
0.0
  9
$DIMDLE
 40
0.0
  9
$DIMEXE
 40
1.0
  9
$DIMTP
 40
0.1
  9
$DIMTM
 40
0.1
  9
$DIMTXT
 40
3.5
  9
$DIMCEN
 40
0.0
  9
$DIMTSZ
 40
0.0
  9
$DIMTOL
 70
     0
  9
$DIMLIM
 70
     0
  9
$DIMTIH
 70
     0
  9
$DIMTOH
 70
     0
  9
$DIMSE1
 70
     0
  9
$DIMSE2
 70
     0
  9
$DIMTAD
 70
     1
  9
$DIMZIN
 70
     8
  9
$DIMBLK
  1

  9
$DIMASO
 70
     1
  9
$DIMSHO
 70
     1
  9
$DIMPOST
  1

  9
$DIMAPOST
  1
"
  9
$DIMALT
 70
     0
  9
$DIMALTD
 70
     2
  9
$DIMALTF
 40
0.0393701
  9
$DIMLFAC
 40
1.0
  9
$DIMTOFL
 70
     1
  9
$DIMTVP
 40
0.0
  9
$DIMTIX
 70
     0
  9
$DIMSOXD
 70
     0
  9
$DIMSAH
 70
     0
  9
$DIMBLK1
  1

  9
$DIMBLK2
  1

  9
$DIMSTYLE
  2
AM_DIN
  9
$DIMCLRD
 70
   256
  9
$DIMCLRE
 70
   256
  9
$DIMCLRT
 70
     2
  9
$DIMTFAC
 40
0.71
  9
$DIMGAP
 40
1.5
  9
$DIMJUST
 70
     0
  9
$DIMSD1
 70
     0
  9
$DIMSD2
 70
     0
  9
$DIMTOLJ
 70
     0
  9
$DIMTZIN
 70
     8
  9
$DIMALTZ
 70
     0
  9
$DIMALTTZ
 70
     0
  9
$DIMUPT
 70
     0
  9
$DIMDEC
 70
     2
  9
$DIMTDEC
 70
     3
  9
$DIMALTU
 70
     2
  9
$DIMALTTD
 70
     4
  9
$DIMTXSTY
  7
STANDARD
  9
$DIMAUNIT
 70
     0
  9
$DIMADEC
 70
     0
  9
$DIMALTRND
 40
0.0
  9
$DIMAZIN
 70
     2
  9
$DIMDSEP
 70
    46
  9
$DIMATFIT
 70
     3
  9
$DIMFRAC
 70
     0
  9
$DIMLDRBLK
  1

  9
$DIMLUNIT
 70
     2
  9
$DIMLWD
 70
    -1
  9
$DIMLWE
 70
    -1
  9
$DIMTMOVE
 70
     0
  9
$LUNITS
 70
     2
  9
$LUPREC
 70
     2
  9
$SKETCHINC
 40
1.0
  9
$FILLETRAD
 40
0.0
  9
$AUNITS
 70
     0
  9
$AUPREC
 70
     0
  9
$MENU
  1
.
  9
$ELEVATION
 40
0.0
  9
$PELEVATION
 40
0.0
  9
$THICKNESS
 40
0.0
  9
$LIMCHECK
 70
     0
  9
$CHAMFERA
 40
2.5
  9
$CHAMFERB
 40
2.5
  9
$CHAMFERC
 40
20.0
  9
$CHAMFERD
 40
0.0
  9
$SKPOLY
 70
     0
  9
$TDCREATE
 40
2453918.262673241
  9
$TDUCREATE
 40
2453918.179339908
  9
$TDUPDATE
 40
2457544.743983600
  9
$TDUUPDATE
 40
2457544.660650266
  9
$TDINDWG
 40
0.9941143750
  9
$TDUSRTIMER
 40
0.9941102199
  9
$USRTIMER
 70
     1
  9
$ANGBASE
 50
0.0
  9
$ANGDIR
 70
     0
  9
$PDMODE
 70
     0
  9
$PDSIZE
 40
0.0
  9
$PLINEWID
 40
0.0
  9
$SPLFRAME
 70
     0
  9
$SPLINETYPE
 70
     6
  9
$SPLINESEGS
 70
     8
  9
$HANDSEED
  5
642B
  9
$SURFTAB1
 70
     6
  9
$SURFTAB2
 70
     6
  9
$SURFTYPE
 70
     6
  9
$SURFU
 70
     6
  9
$SURFV
 70
     6
  9
$UCSBASE
  2

  9
$UCSNAME
  2

  9
$UCSORG
 10
0.0
 20
0.0
 30
0.0
  9
$UCSXDIR
 10
1.0
 20
0.0
 30
0.0
  9
$UCSYDIR
 10
0.0
 20
1.0
 30
0.0
  9
$UCSORTHOREF
  2

  9
$UCSORTHOVIEW
 70
     0
  9
$UCSORGTOP
 10
0.0
 20
0.0
 30
0.0
  9
$UCSORGBOTTOM
 10
0.0
 20
0.0
 30
0.0
  9
$UCSORGLEFT
 10
0.0
 20
0.0
 30
0.0
  9
$UCSORGRIGHT
 10
0.0
 20
0.0
 30
0.0
  9
$UCSORGFRONT
 10
0.0
 20
0.0
 30
0.0
  9
$UCSORGBACK
 10
0.0
 20
0.0
 30
0.0
  9
$PUCSBASE
  2

  9
$PUCSNAME
  2

  9
$PUCSORG
 10
0.0
 20
0.0
 30
0.0
  9
$PUCSXDIR
 10
1.0
 20
0.0
 30
0.0
  9
$PUCSYDIR
 10
0.0
 20
1.0
 30
0.0
  9
$PUCSORTHOREF
  2

  9
$PUCSORTHOVIEW
 70
     0
  9
$PUCSORGTOP
 10
0.0
 20
0.0
 30
0.0
  9
$PUCSORGBOTTOM
 10
0.0
 20
0.0
 30
0.0
  9
$PUCSORGLEFT
 10
0.0
 20
0.0
 30
0.0
  9
$PUCSORGRIGHT
 10
0.0
 20
0.0
 30
0.0
  9
$PUCSORGFRONT
 10
0.0
 20
0.0
 30
0.0
  9
$PUCSORGBACK
 10
0.0
 20
0.0
 30
0.0
  9
$USERI1
 70
     0
  9
$USERI2
 70
     0
  9
$USERI3
 70
     0
  9
$USERI4
 70
     0
  9
$USERI5
 70
     0
  9
$USERR1
 40
0.0
  9
$USERR2
 40
0.0
  9
$USERR3
 40
0.0
  9
$USERR4
 40
0.0
  9
$USERR5
 40
0.0
  9
$WORLDVIEW
 70
     1
  9
$SHADEDGE
 70
     3
  9
$SHADEDIF
 70
    70
  9
$TILEMODE
 70
     1
  9
$MAXACTVP
 70
    64
  9
$PINSBASE
 10
0.0
 20
0.0
 30
0.0
  9
$PLIMCHECK
 70
     0
  9
$PEXTMIN
 10
1.000000000000000E+20
 20
1.000000000000000E+20
 30
1.000000000000000E+20
  9
$PEXTMAX
 10
-1.000000000000000E+20
 20
-1.000000000000000E+20
 30
-1.000000000000000E+20
  9
$PLIMMIN
 10
0.0
 20
0.0
  9
$PLIMMAX
 10
420.0
 20
297.0
  9
$UNITMODE
 70
     0
  9
$VISRETAIN
 70
     1
  9
$PLINEGEN
 70
     0
  9
$PSLTSCALE
 70
     1
  9
$TREEDEPTH
 70
  3020
  9
$CMLSTYLE
  2
Standard
  9
$CMLJUST
 70
     0
  9
$CMLSCALE
 40
20.0
  9
$PROXYGRAPHICS
 70
     1
  9
$MEASUREMENT
 70
     1
  9
$CELWEIGHT
370
    -1
  9
$ENDCAPS
280
     0
  9
$JOINSTYLE
280
     0
  9
$LWDISPLAY
290
     0
  9
$INSUNITS
 70
     4
  9
$HYPERLINKBASE
  1

  9
$STYLESHEET
  1

  9
$XEDIT
290
     1
  9
$CEPSNTYPE
380
     0
  9
$PSTYLEMODE
290
     1
  9
$FINGERPRINTGUID
  2
{E66C8CC1-E66B-408F-9010-06FD783B68A0}
  9
$VERSIONGUID
  2
{B8744AA2-09D8-4C28-AFE8-44C6AB2BF630}
  9
$EXTNAMES
290
     1
  9
$PSVPSCALE
 40
0.0
  9
$OLESTARTUP
290
     0
  9
$SORTENTS
280
   127
  9
$INDEXCTL
280
     0
  9
$HIDETEXT
280
     1
  9
$XCLIPFRAME
290
     0
  9
$HALOGAP
280
     0
  9
$OBSCOLOR
 70
   257
  9
$OBSLTYPE
280
     0
  9
$INTERSECTIONDISPLAY
280
     0
  9
$INTERSECTIONCOLOR
 70
   257
  9
$DIMASSOC
280
     2
  9
$PROJECTNAME
  1

  0
ENDSEC
  0
SECTION
  2
CLASSES
  0
CLASS
  1
ACDBDICTIONARYWDFLT
  2
AcDbDictionaryWithDefault
  3
ObjectDBX Classes
 90
        0
 91
        1
280
     0
281
     0
  0
CLASS
  1
ACME_DOCUMENT
  2
AcMeDbDoc
  3
AcMeServices
 90
     1024
 91
        2
280
     0
281
     0
  0
CLASS
  1
ACMESCOPE
  2
AcMeScope
  3
AcMeServices
 90
     1024
 91
        1
280
     0
281
     0
  0
CLASS
  1
ACMECOMMANDHISTORY
  2
AcMeCommandHistory
  3
AcMeServices
 90
     1024
 91
        1
280
     0
281
     0
  0
CLASS
  1
ACIMSYSVARMAN
  2
AcImSysVarManager
  3
AcMeServices
 90
     1024
 91
        4
280
     0
281
     0
  0
CLASS
  1
ACIMREALSYSVAR
  2
AcImRealSysVar
  3
AcMeServices
 90
     1024
 91
        1
280
     0
281
     0
  0
CLASS
  1
ACIMINTSYSVAR
  2
AcImIntSysVar
  3
AcMeServices
 90
     1024
 91
       27
280
     0
281
     0
  0
CLASS
  1
ACMEDRAWINGMAN
  2
AcMeDrawingMan
  3
AcMeServices
 90
     1024
 91
        0
280
     0
281
     0
  0
CLASS
  1
ACMEVIEW
  2
AcMeView
  3
AcMeServices
 90
     1024
 91
        0
280
     0
281
     0
  0
CLASS
  1
ACDBENTITYCACHE
  2
AcMeEntityCache
  3
AcMeServices
 90
     1024
 91
        1
280
     0
281
     0
  0
CLASS
  1
GSMANAGER
  2
AcMeGSManager
  3
AcMeServices
 90
        0
 91
        0
280
     0
281
     0
  0
CLASS
  1
AMDTINTERNALREACTOR
  2
AmdtInternalReactor
  3
AcMeServices
 90
     1024
 91
        1
280
     0
281
     0
  0
CLASS
  1
ACMESTATEMGR
  2
AcMeStateMgr
  3
AcMeServices
 90
     1024
 91
        1
280
     0
281
     0
  0
CLASS
  1
ACGREFMASTER
  2
AcGrefMaster
  3
AcAttribServices
 90
     1024
 91
        1
280
     0
281
     0
  0
CLASS
  1
ACME_DATABASE
  2
AcMeDbDatabase
  3
AcMeServices
 90
     1024
 91
        3
280
     0
281
     0
  0
CLASS
  1
ACRFINSADJUSTERMGR
  2
AcRfInsAdjusterMgr
  3
AcMeServices
 90
     1024
 91
        1
280
     0
281
     0
  0
CLASS
  1
ACGREFACADMASTER
  2
AcGrefacadMaster
  3
AcGrefServices
 90
     1024
 91
        1
280
     0
281
     0
  0
CLASS
  1
AMIMASTER
  2
AmiMaster
  3
AmiServices
 90
     1024
 91
        1
280
     0
281
     0
  0
CLASS
  1
AMGSETTINGSOBJ
  2
AmgSettingsObj
  3
"AcadM|Product Description: AutoCAD Mechanical|Company: Autodesk, Inc."
 90
     1024
 91
        2
280
     0
281
     0
  0
CLASS
  1
ACMDATADICTIONARY
  2
AcmDataDictionary
  3
"AcmSymBB|Product Description: AutoCAD Mechanical|Company: Autodesk, Inc."
 90
     1024
 91
        1
280
     0
281
     0
  0
CLASS
  1
ACMDATAENTRYBLOCK
  2
AcmDataEntryBlock
  3
AcmSymBB|Product Description: AutoCAD Mechanical|Company: Autodesk, Inc.
 90
     1024
 91
        0
280
     0
281
     0
  0
CLASS
  1
ACIMSTRSYSVAR
  2
AcImStrSysVar
  3
AcMeServices
 90
     1024
 91
        5
280
     0
281
     0
  0
CLASS
  1
ACMSTANDARDDIN
  2
AcmStandardDIN
  3
"Amdt_StdImp|Product Description: AutoCAD Mechanical|Company: Autodesk, Inc."
 90
     1024
 91
        1
280
     0
281
     0
  0
CLASS
  1
AMGOBJPROPCFG
  2
AmgObjPropCfg
  3
"AmgLay|Product Description: AutoCAD Mechanical|Company: Autodesk, Inc."
 90
     1025
 91
        1
280
     0
281
     0
  0
CLASS
  1
AMDTEDGESTANDARDDIN
  2
AmdtEdgeStdDIN
  3
"Amdt_StdImp|Product Description: AutoCAD Mechanical|Company: Autodesk, Inc."
 90
     1024
 91
        0
280
     0
281
     0
  0
CLASS
  1
ACMSURFSTANDARDDIN
  2
AcmSurfTextStdDIN
  3
"Amdt_StdImp|Product Description: AutoCAD Mechanical|Company: Autodesk, Inc."
 90
     1024
 91
        0
280
     0
281
     0
  0
CLASS
  1
ACMFCFSTANDARDDIN
  2
AcmFCFStdDIN
  3
"Amdt_StdImp|Product Description: AutoCAD Mechanical|Company: Autodesk, Inc."
 90
     1024
 91
        1
280
     0
281
     0
  0
CLASS
  1
ACMWELDSTANDARDDIN
  2
AcmWeldingStdDIN
  3
"Amdt_StdImp|Product Description: AutoCAD Mechanical|Company: Autodesk, Inc."
 90
     1024
 91
        1
280
     0
281
     0
  0
CLASS
  1
ACMIDSTANDARDDIN
  2
AcmIdStdDIN
  3
"Amdt_StdImp|Product Description: AutoCAD Mechanical|Company: Autodesk, Inc."
 90
     1024
 91
        1
280
     0
281
     0
  0
CLASS
  1
ACMDATUMSTANDARDDIN
  2
AcmDatumStdDIN
  3
"Amdt_StdImp|Product Description: AutoCAD Mechanical|Company: Autodesk, Inc."
 90
     1024
 91
        1
280
     0
281
     0
  0
CLASS
  1
ACMBOMSTANDARDDIN
  2
AcmBOMStdDIN
  3
"Amdt_StdImp|Product Description: AutoCAD Mechanical|Company: Autodesk, Inc."
 90
     1024
 91
        1
280
     0
281
     0
  0
CLASS
  1
ACMDETAILSTANDARDDIN
  2
AmdtDetailSymStdDIN
  3
"Amdt_StdImp|Product Description: AutoCAD Mechanical|Company: Autodesk, Inc."
 90
     1024
 91
        1
280
     0
281
     0
  0
CLASS
  1
ACMSECTIONSTANDARDDIN
  2
AmdtSectionSymStdDIN
  3
"Amdt_StdImp|Product Description: AutoCAD Mechanical|Company: Autodesk, Inc."
 90
     1024
 91
        1
280
     0
281
     0
  0
CLASS
  1
ACMCENTERLINESTANDARDDIN
  2
AmdtCenterLineStdDIN
  3
"Amdt_StdImp|Product Description: AutoCAD Mechanical|Company: Autodesk, Inc."
 90
     1024
 91
        1
280
     0
281
     0
  0
CLASS
  1
ACMNOTESTANDARDDIN
  2
AmdtNoteStdDIN
  3
"Amdt_StdImp|Product Description: AutoCAD Mechanical|Company: Autodesk, Inc."
 90
     1024
 91
        1
280
     0
281
     0
  0
CLASS
  1
ACAMGLAYSTD
  2
AcAmgLayStd
  3
"AmgLay|Product Description: AutoCAD Mechanical|Company: Autodesk, Inc."
 90
     1024
 91
        1
280
     0
281
     0
  0
CLASS
  1
ACAMGDIMSTD
  2
AcAmgDimStd
  3
"AmgDim|Product Description: AutoCAD Mechanical|Company: Autodesk, Inc."
 90
     1024
 91
        1
280
     0
281
     0
  0
CLASS
  1
ACAMGHOLECHARTSTDDIN
  2
AcAmgHoleChartStdDIN
  3
AmgDim|Product Description: AutoCAD Mechanical|Company: Autodesk, Inc.
 90
     1024
 91
        1
280
     0
281
     0
  0
CLASS
  1
ACAMGTITLESTD
  2
AcAmgTitleStd
  3
"AmgTitle|Product Description: AutoCAD Mechanical|Company: Autodesk, Inc."
 90
     4095
 91
        1
280
     0
281
     0
  0
CLASS
  1
LAYER_INDEX
  2
AcDbLayerIndex
  3
ObjectDBX Classes
 90
        0
 91
        0
280
     0
281
     0
  0
CLASS
  1
IDBUFFER
  2
AcDbIdBuffer
  3
ObjectDBX Classes
 90
        0
 91
        0
280
     0
281
     0
  0
CLASS
  1
DICTIONARYVAR
  2
AcDbDictionaryVar
  3
ObjectDBX Classes
 90
        0
 91
       13
280
     0
281
     0
  0
CLASS
  1
ACAMGFILTERDAT
  2
AcAmgFilterDat
  3
"AcadM|Product Description: AutoCAD Mechanical|Company: Autodesk, Inc."
 90
     1024
 91
        0
280
     0
281
     0
  0
CLASS
  1
ACMSTANDARDANSI
  2
AcmStandardANSI
  3
"Amdt_StdImp|Product Description: AutoCAD Mechanical|Company: Autodesk, Inc."
 90
     1024
 91
        0
280
     0
281
     0
  0
CLASS
  1
ACMSURFSTANDARDANSI
  2
AcmSurfTextStdANSI
  3
"Amdt_StdImp|Product Description: AutoCAD Mechanical|Company: Autodesk, Inc."
 90
     1024
 91
        0
280
     0
281
     0
  0
CLASS
  1
ACMFCFSTANDARDANSI
  2
AcmFCFStdANSI
  3
"Amdt_StdImp|Product Description: AutoCAD Mechanical|Company: Autodesk, Inc."
 90
     1024
 91
        0
280
     0
281
     0
  0
CLASS
  1
ACMWELDSTANDARDANSI
  2
AcmWeldingStdANSI
  3
"Amdt_StdImp|Product Description: AutoCAD Mechanical|Company: Autodesk, Inc."
 90
     1024
 91
        0
280
     0
281
     0
  0
CLASS
  1
ACMIDSTANDARDANSI
  2
AcmIdStdANSI
  3
"Amdt_StdImp|Product Description: AutoCAD Mechanical|Company: Autodesk, Inc."
 90
     1024
 91
        0
280
     0
281
     0
  0
CLASS
  1
ACMDATUMSTANDARDANSI
  2
AcmDatumStdANSI
  3
"Amdt_StdImp|Product Description: AutoCAD Mechanical|Company: Autodesk, Inc."
 90
     1024
 91
        0
280
     0
281
     0
  0
CLASS
  1
ACMBOMSTANDARDANSI
  2
AcmBOMStdANSI
  3
"Amdt_StdImp|Product Description: AutoCAD Mechanical|Company: Autodesk, Inc."
 90
     1024
 91
        0
280
     0
281
     0
  0
CLASS
  1
ACMDETAILSTANDARDANSI
  2
AmdtDetailSymStdANSI
  3
"Amdt_StdImp|Product Description: AutoCAD Mechanical|Company: Autodesk, Inc."
 90
     1024
 91
        0
280
     0
281
     0
  0
CLASS
  1
ACMSECTIONSTANDARDANSI
  2
AmdtSectionSymStdANSI
  3
"Amdt_StdImp|Product Description: AutoCAD Mechanical|Company: Autodesk, Inc."
 90
     1024
 91
        0
280
     0
281
     0
  0
CLASS
  1
ACMCENTERLINESTANDARDANSI
  2
AmdtCenterLineStdANSI
  3
"Amdt_StdImp|Product Description: AutoCAD Mechanical|Company: Autodesk, Inc."
 90
     1024
 91
        0
280
     0
281
     0
  0
CLASS
  1
ACMNOTESTANDARDANSI
  2
AmdtNoteStdANSI
  3
"Amdt_StdImp|Product Description: AutoCAD Mechanical|Company: Autodesk, Inc."
 90
     1024
 91
        0
280
     0
281
     0
  0
CLASS
  1
ACAMGHOLECHARTSTDANSI
  2
AcAmgHoleChartStdANSI
  3
AmgDim|Product Description: AutoCAD Mechanical|Company: Autodesk, Inc.
 90
     1024
 91
        0
280
     0
281
     0
  0
CLASS
  1
AMDTFORMULAUPDATEDISPATCHER
  2
AmdtFormulaUpdateDispatcher
  3
AcMeServices
 90
     1024
 91
        0
280
     0
281
     0
  0
CLASS
  1
DIMASSOC
  2
AcDbDimAssoc
  3
"AcDbDimAssoc|Product Desc:     AcDim ARX App For Dimension|Company:          Autodesk, Inc.|WEB Address:      www.autodesk.com"
 90
        0
 91
        0
280
     0
281
     0
  0
CLASS
  1
MATERIAL
  2
AcDbMaterial
  3
ObjectDBX Classes
 90
     1153
 91
        3
280
     0
281
     0
  0
CLASS
  1
VISUALSTYLE
  2
AcDbVisualStyle
  3
ObjectDBX Classes
 90
     4095
 91
       24
280
     0
281
     0
  0
CLASS
  1
TABLESTYLE
  2
AcDbTableStyle
  3
ObjectDBX Classes
 90
     4095
 91
        1
280
     0
281
     0
  0
CLASS
  1
SCALE
  2
AcDbScale
  3
ObjectDBX Classes
 90
     1153
 91
       17
280
     0
281
     0
  0
CLASS
  1
MLEADERSTYLE
  2
AcDbMLeaderStyle
  3
ACDB_MLEADERSTYLE_CLASS
 90
     4095
 91
        1
280
     0
281
     0
  0
CLASS
  1
AM_DRAWING_MGR
  2
AcDmDwgMgr
  3
AcMechDwgViewMgmt
 90
     1024
 91
        1
280
     0
281
     0
  0
CLASS
  1
AM_DWG_DOCUMENT
  2
AcDmDwgDocument
  3
AcMechDwgViewMgmt
 90
     1024
 91
        1
280
     0
281
     0
  0
CLASS
  1
AM_DWG_SHEET
  2
AcDmSheet
  3
AcMechDwgViewMgmt
 90
     1024
 91
        2
280
     0
281
     0
  0
CLASS
  1
AM_VIEWDIMPARMAP
  2
AcDmViewDimParMap
  3
AcMechDwgViewMgmt
 90
     1024
 91
        2
280
     0
281
     0
  0
CLASS
  1
AM_DWGMGR_NAME
  2
AcDmDwgMgrName
  3
AcMechDwgViewMgmt
 90
     1024
 91
        1
280
     0
281
     0
  0
CLASS
  1
AMDTMENUSTATEMGR
  2
AmdtMenuStateMgr
  3
McadcomServices
 90
     1024
 91
        1
280
     0
281
     0
  0
CLASS
  1
AMDTMCOMMENUSTATE
  2
AmdtMcomMenuState
  3
McadcomServices
 90
     1024
 91
        1
280
     0
281
     0
  0
CLASS
  1
MAPIAMMOUDLE
  2
MApiAmModule
  3
MApiAmServices
 90
     1024
 91
        1
280
     0
281
     0
  0
CLASS
  1
AMDTDMMENUSTATE
  2
AmdtDmMenuState
  3
AcMechDwgViewMgmt
 90
     1024
 91
        1
280
     0
281
     0
  0
CLASS
  1
AMDTAMMENUSTATE
  2
AmdtAmMenuState
  3
DesignerAssemblies
 90
     1024
 91
        1
280
     0
281
     0
  0
CLASS
  1
ACAMPROJECT
  2
AcAmProject
  3
DesignerAssemblies
 90
     1024
 91
        1
280
     0
281
     0
  0
CLASS
  1
ACAMGRCOMPDEF
  2
AcAmGrCompDef
  3
DesignerAssemblies
 90
     1024
 91
        1
280
     0
281
     0
  0
CLASS
  1
ACAMCOMPDEF
  2
AcAmCompDef
  3
DesignerAssemblies
 90
     1024
 91
        1
280
     0
281
     0
  0
CLASS
  1
ACAMCOMPDEFMGR
  2
AcAmCompDefMgr
  3
DesignerAssemblies
 90
     1024
 91
        1
280
     0
281
     0
  0
CLASS
  1
AMCONTEXTMGR
  2
AcAmContextMgr
  3
DesignerAssemblies
 90
     1024
 91
        1
280
     0
281
     0
  0
CLASS
  1
ACAMCONTEXTMODELER
  2
AcAmContextModeler
  3
DesignerAssemblies
 90
     1024
 91
        1
280
     0
281
     0
  0
CLASS
  1
ACRFATTGENMGR
  2
AcRfAttGeneralMgr
  3
AcAttribServices
 90
     1024
 91
        0
280
     0
281
     0
  0
CLASS
  1
ACRFOBJATTMGR
  2
AcRfObjAttGroupMgr
  3
AcAttribServices
 90
     1024
 91
        0
280
     0
281
     0
  0
CLASS
  1
ACRFMCADAPIATTHOLDER
  2
AcRfMCADAPIAttHolder
  3
AcAttribServices
 90
     1024
 91
        0
280
     0
281
     0
  0
CLASS
  1
AMDTSYSATTR
  2
AmdtSystemAttribute
  3
AcAttribServices
 90
     1024
 91
        0
280
     0
281
     0
  0
CLASS
  1
ACMTHREADLINESTANDARDDIN
  2
AmdtThreadLineStdDIN
  3
"Amdt_StdImp|Product Description: AutoCAD Mechanical|Company: Autodesk, Inc."
 90
     1024
 91
        1
280
     0
281
     0
  0
CLASS
  1
ACMTAPERSTANDARDDIN
  2
AcmTaperStdDIN
  3
"Amdt_StdImp|Product Description: AutoCAD Mechanical|Company: Autodesk, Inc."
 90
     1024
 91
        1
280
     0
281
     0
  0
CLASS
  1
ACMANOOTATIONVIEWSTANDARDDIN
  2
AmdtAnViewStdDIN
  3
"Amdt_StdImp|Product Description: AutoCAD Mechanical|Company: Autodesk, Inc."
 90
     1024
 91
        1
280
     0
281
     0
  0
CLASS
  1
ACMTHREADLINESTANDARDANSI
  2
AmdtThreadLineStdANSI
  3
"Amdt_StdImp|Product Description: AutoCAD Mechanical|Company: Autodesk, Inc."
 90
     1024
 91
        0
280
     0
281
     0
  0
CLASS
  1
ACMTAPERSTANDARDANSI
  2
AcmTaperStdANSI
  3
"Amdt_StdImp|Product Description: AutoCAD Mechanical|Company: Autodesk, Inc."
 90
     1024
 91
        0
280
     0
281
     0
  0
CLASS
  1
ACMANOOTATIONVIEWSTANDARDANSI
  2
AmdtAnViewStdANSI
  3
"Amdt_StdImp|Product Description: AutoCAD Mechanical|Company: Autodesk, Inc."
 90
     1024
 91
        0
280
     0
281
     0
  0
CLASS
  1
ACAMGRCOMPDEFSET
  2
AcAmGrCompDefSet
  3
DesignerAssemblies
 90
     1024
 91
        1
280
     0
281
     0
  0
CLASS
  1
AMDTBROWSERDBTAB
  2
AmdtBrowserDbTab
  3
McadcomServices
 90
     1024
 91
        1
280
     0
281
     0
  0
CLASS
  1
CBROWSERAPPOBJECT
  2
CBrowserAppObject
  3
McadcomServices
 90
     1024
 91
        2
280
     0
281
     0
  0
CLASS
  1
DM_PLACEHOLDER
  2
AcDmSelsetPlaceholder
  3
AcMechDwgViewMgmt
 90
     1024
 91
        1
280
     0
281
     0
  0
CLASS
  1
CELLSTYLEMAP
  2
AcDbCellStyleMap
  3
ObjectDBX Classes
 90
     1152
 91
        3
280
     0
281
     0
  0
CLASS
  1
AMDTEDGESTANDARDDIN13715
  2
AmdtEdgeStdDIN13715
  3
"Amdt_StdImp|Product Description: AutoCAD Mechanical|Company: Autodesk, Inc."
 90
     1024
 91
        1
280
     0
281
     0
  0
CLASS
  1
ACMSURFSTANDARDDIN2002
  2
AcmSurfTextStdDIN2002
  3
"Amdt_StdImp|Product Description: AutoCAD Mechanical|Company: Autodesk, Inc."
 90
     1024
 91
        1
280
     0
281
     0
  0
CLASS
  1
AMDTNOTETEMPLATEDB
  2
AmdtNoteTemplateDB
  3
AcmSymBB|Product Description: AutoCAD Mechanical|Company: Autodesk, Inc.
 90
     1024
 91
        6
280
     0
281
     0
  0
CLASS
  1
CAMSSTRUCTBTNSTATE
  2
StructBtnState
  3
DesignerAssemblies
 90
     1024
 91
        1
280
     0
281
     0
  0
CLASS
  1
SORTENTSTABLE
  2
AcDbSortentsTable
  3
ObjectDBX Classes
 90
        0
 91
        3
280
     0
281
     0
  0
CLASS
  1
IMAGEDEF
  2
AcDbRasterImageDef
  3
ISM
 90
        0
 91
        1
280
     0
281
     0
  0
CLASS
  1
RASTERVARIABLES
  2
AcDbRasterVariables
  3
ISM
 90
        0
 91
        1
280
     0
281
     0
  0
CLASS
  1
IMAGEDEF_REACTOR
  2
AcDbRasterImageDefReactor
  3
ISM
 90
        1
 91
        0
280
     0
281
     0
  0
CLASS
  1
IMAGE
  2
AcDbRasterImage
  3
ISM
 90
     2175
 91
        0
280
     0
281
     1
  0
CLASS
  1
AEC_REFEDIT_STATUS_TRACKER
  2
AecDbRefEditStatusTracker
  3
AecArchBase60|Product Desc: Autodesk Architectural Desktop 2007 |Company: Autodesk,Inc. |WEB Address: www.autodesk.com
 90
      129
 91
        1
280
     0
281
     0
  0
CLASS
  1
NPOCOLLECTION
  2
AcDbImpNonPersistentObjectsCollection
  3
ObjectDBX Classes
 90
     1153
 91
        1
280
     0
281
     0
  0
ENDSEC
  0
SECTION
  2
TABLES
  0
TABLE
  2
VPORT
  5
8
102
{ACAD_XDICTIONARY
360
2972
102
}
330
0
100
AcDbSymbolTable
 70
     1
  0
VPORT
  5
28BF
330
8
100
AcDbSymbolTableRecord
100
AcDbViewportTableRecord
  2
*Active
 70
     0
 10
0.0
 20
0.0
 11
1.0
 21
1.0
 12
-63.71870045537571
 22
407.7162024848576
 13
0.0
 23
0.0
 14
2.5
 24
2.5
 15
10.0
 25
10.0
 16
0.0
 26
0.0
 36
1.0
 17
0.0
 27
0.0
 37
0.0
 40
985.7387788593021
 41
2.251154201292705
 42
50.0
 43
0.0
 44
0.0
 50
0.0
 51
0.0
 71
     0
 72
   100
 73
     1
 74
     3
 75
     0
 76
     0
 77
     0
 78
     0
281
     0
 65
     1
110
0.0
120
0.0
130
0.0
111
1.0
121
0.0
131
0.0
112
0.0
122
1.0
132
0.0
 79
     0
146
0.0
  0
ENDTAB
  0
TABLE
  2
LTYPE
  5
5
330
0
100
AcDbSymbolTable
 70
    25
  0
LTYPE
  5
14
330
5
100
AcDbSymbolTableRecord
100
AcDbLinetypeTableRecord
  2
ByBlock
 70
     0
  3

 72
    65
 73
     0
 40
0.0
  0
LTYPE
  5
15
330
5
100
AcDbSymbolTableRecord
100
AcDbLinetypeTableRecord
  2
ByLayer
 70
     0
  3

 72
    65
 73
     0
 40
0.0
  0
LTYPE
  5
16
330
5
100
AcDbSymbolTableRecord
100
AcDbLinetypeTableRecord
  2
Continuous
 70
     0
  3
Solid line
 72
    65
 73
     0
 40
0.0
  0
LTYPE
  5
50
330
5
100
AcDbSymbolTableRecord
100
AcDbLinetypeTableRecord
  2
Amconstr
 70
     0
  3
_______________________
 72
    65
 73
     2
 40
9999.0
 49
9999.0
 74
     0
 49
0.0
 74
     0
  0
LTYPE
  5
55
330
5
100
AcDbSymbolTableRecord
100
AcDbLinetypeTableRecord
  2
Amzigzag
 70
     0
  3
/\/-/\/-/\/-/\/-/\/-/\/
 72
    65
 73
     2
 40
11.0001
 49
0.0001
 74
     4
 75
   135
340
54
 46
0.04
 50
0.0
 44
0.0
 45
0.0
 49
-11.0
 74
     0
  0
LTYPE
  5
56
330
5
100
AcDbSymbolTableRecord
100
AcDbLinetypeTableRecord
  2
AM_DIN_F_W050
 70
     0
  3
__ __ __ __ __ __ __ __ __ __ __ __ __ __ __
 72
    65
 73
     2
 40
6.25
 49
4.75
 74
     0
 49
-1.5
 74
     0
  0
LTYPE
  5
57
330
5
100
AcDbSymbolTableRecord
100
AcDbLinetypeTableRecord
  2
AM_DIN_G_W050
 70
     0
  3
____ . ____ . ____ . ____ . ____ . ____ . ____
 72
    65
 73
     4
 40
13.75
 49
9.75
 74
     0
 49
-1.5
 74
     0
 49
1.0
 74
     0
 49
-1.5
 74
     0
  0
LTYPE
  5
58
330
5
100
AcDbSymbolTableRecord
100
AcDbLinetypeTableRecord
  2
AM_DIN_K_W050
 70
     0
  3
_____ . . _____ . . _____ . . ____ .. ____
 72
    65
 73
     6
 40
16.25
 49
9.75
 74
     0
 49
-1.5
 74
     0
 49
1.0
 74
     0
 49
-1.5
 74
     0
 49
1.0
 74
     0
 49
-1.5
 74
     0
  0
LTYPE
  5
59
330
5
100
AcDbSymbolTableRecord
100
AcDbLinetypeTableRecord
  2
AM_DIN_G_W050x2
 70
     0
  3
__ . __ . __ . __ . __ . __
 72
    65
 73
     4
 40
6.875
 49
4.75
 74
     0
 49
-0.875
 74
     0
 49
0.375
 74
     0
 49
-0.875
 74
     0
  0
LTYPE
  5
5A
330
5
100
AcDbSymbolTableRecord
100
AcDbLinetypeTableRecord
  2
AM_DIN_F_W050x2
 70
     0
  3
 _ _ _ _ _ _ _ _ _ _ _ _
 72
    65
 73
     2
 40
3.125
 49
2.25
 74
     0
 49
-0.875
 74
     0
  0
LTYPE
  5
68
330
5
100
AcDbSymbolTableRecord
100
AcDbLinetypeTableRecord
  2
ACDINWELD
 70
     0
  3
_ _ _ _ _
 72
    65
 73
     2
 40
2.0
 49
2.0
 74
     0
 49
-1.0
 74
     0
  0
LTYPE
  5
69
330
5
100
AcDbSymbolTableRecord
100
AcDbLinetypeTableRecord
  2
ACDINTGB
 70
     0
  3
__ . . __ . .
 72
    65
 73
     6
 40
9.0
 49
4.0
 74
     0
 49
-1.0
 74
     0
 49
1.0
 74
     0
 49
-1.0
 74
     0
 49
1.0
 74
     0
 49
-1.0
 74
     0
  0
LTYPE
  5
6A
330
5
100
AcDbSymbolTableRecord
100
AcDbLinetypeTableRecord
  2
ACDINTGL
 70
     0
  3
_ _ _ _ _
 72
    65
 73
     2
 40
3.0
 49
2.0
 74
     0
 49
-1.0
 74
     0
  0
LTYPE
  5
6C
330
5
100
AcDbSymbolTableRecord
100
AcDbLinetypeTableRecord
  2
CENTER
 70
     0
  3
__ . __
 72
    65
 73
     4
 40
7.0
 49
4.0
 74
     0
 49
-1.0
 74
     0
 49
1.0
 74
     0
 49
-1.0
 74
     0
  0
LTYPE
  5
33D
330
5
100
AcDbSymbolTableRecord
100
AcDbLinetypeTableRecord
  2
PHANTOM2
 70
     0
  3
Phantom (.5x) ___ _ _ ___ _ _ ___ _ _ ___ _ _
 72
    65
 73
     6
 40
1.25
 49
0.625
 74
     0
 49
-0.125
 74
     0
 49
0.125
 74
     0
 49
-0.125
 74
     0
 49
0.125
 74
     0
 49
-0.125
 74
     0
  0
LTYPE
  5
341
330
5
100
AcDbSymbolTableRecord
100
AcDbLinetypeTableRecord
  2
ACANSTGB
 70
     0
  3
__ . . __ . .
 72
    65
 73
     6
 40
0.35433070866
 49
0.15748031496
 74
     0
 49
-0.03937007874
 74
     0
 49
0.03937007874
 74
     0
 49
-0.03937007874
 74
     0
 49
0.03937007874
 74
     0
 49
-0.03937007874
 74
     0
  0
LTYPE
  5
342
330
5
100
AcDbSymbolTableRecord
100
AcDbLinetypeTableRecord
  2
ACANSTGL
 70
     0
  3
_ _ _ _ _
 72
    65
 73
     2
 40
0.11811023622
 49
0.07874015748
 74
     0
 49
-0.03937007874
 74
     0
  0
LTYPE
  5
2935
330
5
100
AcDbSymbolTableRecord
100
AcDbLinetypeTableRecord
  2
HIDDEN
 70
     0
  3
Verdeckt
 72
    65
 73
     2
 40
9.525
 49
6.349999999999999
 74
     0
 49
-3.174999999999999
 74
     0
  0
LTYPE
  5
2A19
330
5
100
AcDbSymbolTableRecord
100
AcDbLinetypeTableRecord
  2
AM_ISO02W050
 70
     0
  3
__ __ __ __ __ __ __ __ __ __ __ __ __ __ __
 72
    65
 73
     2
 40
7.5
 49
6.0
 74
     0
 49
-1.5
 74
     0
  0
LTYPE
  5
2A1A
330
5
100
AcDbSymbolTableRecord
100
AcDbLinetypeTableRecord
  2
AM_ISO08W050
 70
     0
  3
____ . ____ . ____ . ____ . ____ . ____ . ____
 72
    65
 73
     4
 40
18.0
 49
12.0
 74
     0
 49
-1.5
 74
     0
 49
3.0
 74
     0
 49
-1.5
 74
     0
  0
LTYPE
  5
2A1B
330
5
100
AcDbSymbolTableRecord
100
AcDbLinetypeTableRecord
  2
AM_ISO09W050
 70
     0
  3
_____ . . _____ . . _____ . . ____ .. ____
 72
    65
 73
     6
 40
22.5
 49
12.0
 74
     0
 49
-1.5
 74
     0
 49
3.0
 74
     0
 49
-1.5
 74
     0
 49
3.0
 74
     0
 49
-1.5
 74
     0
  0
LTYPE
  5
2A1C
330
5
100
AcDbSymbolTableRecord
100
AcDbLinetypeTableRecord
  2
AM_ISO08W050x2
 70
     0
  3
__ . __ . __ . __ . __ . __
 72
    65
 73
     4
 40
9.0
 49
6.0
 74
     0
 49
-0.75
 74
     0
 49
1.5
 74
     0
 49
-0.75
 74
     0
  0
LTYPE
  5
2A1D
330
5
100
AcDbSymbolTableRecord
100
AcDbLinetypeTableRecord
  2
AM_ISO02W050x2
 70
     0
  3
 _ _ _ _ _ _ _ _ _ _ _ _
 72
    65
 73
     2
 40
3.75
 49
3.0
 74
     0
 49
-0.75
 74
     0
  0
LTYPE
  5
2D97
330
5
100
AcDbSymbolTableRecord
100
AcDbLinetypeTableRecord
  2
CENTER2
 70
     0
  3
Center (.5x) ___ _ ___ _ ___ _ ___ _ ___ _ ___
 72
    65
 73
     4
 40
1.125
 49
0.75
 74
     0
 49
-0.125
 74
     0
 49
0.125
 74
     0
 49
-0.125
 74
     0
  0
LTYPE
  5
2D98
330
5
100
AcDbSymbolTableRecord
100
AcDbLinetypeTableRecord
  2
HIDDEN2
 70
     0
  3
Hidden (.5x) _ _ _ _ _ _ _ _ _ _ _ _ _ _ _ _ _
 72
    65
 73
     2
 40
0.1875
 49
0.125
 74
     0
 49
-0.0625
 74
     0
  0
LTYPE
  5
2D99
330
5
100
AcDbSymbolTableRecord
100
AcDbLinetypeTableRecord
  2
Amzigzag2
 70
     0
  3
/\/-/\/-/\/-/\/-/\/-/\/
 72
    65
 73
     2
 40
0.4401
 49
0.0001
 74
     4
 75
   136
340
2D9A
 46
0.0016
 50
0.0
 44
0.0
 45
0.0
 49
-0.4400000000000001
 74
     0
  0
ENDTAB
  0
TABLE
  2
LAYER
  5
2
102
{ACAD_XDICTIONARY
360
2967
102
}
330
0
100
AcDbSymbolTable
 70
     1
  0
LAYER
  5
10
102
{ACAD_XDICTIONARY
360
2962
102
}
330
2
100
AcDbSymbolTableRecord
100
AcDbLayerTableRecord
  2
0
 70
     0
 62
     7
  6
Continuous
370
    -3
390
F
  0
ENDTAB
  0
TABLE
  2
STYLE
  5
3
330
0
100
AcDbSymbolTable
 70
     7
  0
STYLE
  5
11
330
3
100
AcDbSymbolTableRecord
100
AcDbTextStyleTableRecord
  2
STANDARD
 70
     0
 40
0.0
 41
1.0
 50
0.0
 71
     0
 42
2.5
  3
ISOCP.SHX
  4

  0
STYLE
  5
54
330
3
100
AcDbSymbolTableRecord
100
AcDbTextStyleTableRecord
  2

 70
     1
 40
0.0
 41
1.0
 50
0.0
 71
     0
 42
2.5
  3
ltypeshp.shx
  4

  0
STYLE
  5
5B
330
3
100
AcDbSymbolTableRecord
100
AcDbTextStyleTableRecord
  2
ACDINTS
 70
     0
 40
1.0
 41
1.0
 50
0.0
 71
     0
 42
2.5
  3
isocp.shx
  4

  0
STYLE
  5
67
330
3
100
AcDbSymbolTableRecord
100
AcDbTextStyleTableRecord
  2
ACDINGDT
 70
     0
 40
0.0
 41
1.0
 50
0.0
 71
     0
 42
2.5
  3
amgdt.shx
  4

  0
STYLE
  5
343
330
3
100
AcDbSymbolTableRecord
100
AcDbTextStyleTableRecord
  2
ACANSTS
 70
     0
 40
1.0
 41
1.0
 50
0.0
 71
     0
 42
0.2
  3
romans.shx
  4

  0
STYLE
  5
344
330
3
100
AcDbSymbolTableRecord
100
AcDbTextStyleTableRecord
  2
ACANSGDT
 70
     0
 40
0.0
 41
1.0
 50
0.0
 71
     0
 42
0.2
  3
amgdtans.shx
  4

  0
STYLE
  5
2D9A
330
3
100
AcDbSymbolTableRecord
100
AcDbTextStyleTableRecord
  2

 70
     1
 40
0.0
 41
1.0
 50
0.0
 71
     0
 42
0.2
  3
genltshp.shx
  4

  0
ENDTAB
  0
TABLE
  2
VIEW
  5
6
330
0
100
AcDbSymbolTable
 70
     2
  0
ENDTAB
  0
TABLE
  2
UCS
  5
7
330
0
100
AcDbSymbolTable
 70
     0
  0
ENDTAB
  0
TABLE
  2
APPID
  5
9
330
0
100
AcDbSymbolTable
 70
    19
  0
APPID
  5
12
330
9
100
AcDbSymbolTableRecord
100
AcDbRegAppTableRecord
  2
ACAD
 70
     0
  0
APPID
  5
2C
330
9
100
AcDbSymbolTableRecord
100
AcDbRegAppTableRecord
  2
MCAD_NO_VIS
 70
     0
  0
APPID
  5
2D
330
9
100
AcDbSymbolTableRecord
100
AcDbRegAppTableRecord
  2
ACAD_TEMP_GRAPHIC
 70
     0
  0
APPID
  5
3E
330
9
100
AcDbSymbolTableRecord
100
AcDbRegAppTableRecord
  2
ACATTRIBSERVICES
 70
     0
  0
APPID
  5
428
330
9
100
AcDbSymbolTableRecord
100
AcDbRegAppTableRecord
  2
DCO15
 70
     0
  0
APPID
  5
217D
330
9
100
AcDbSymbolTableRecord
100
AcDbRegAppTableRecord
  2
GENIUS_GENREC_14
 70
     0
  0
APPID
  5
217E
330
9
100
AcDbSymbolTableRecord
100
AcDbRegAppTableRecord
  2
GENIUS_GENODEF_13
 70
     0
  0
APPID
  5
217F
330
9
100
AcDbSymbolTableRecord
100
AcDbRegAppTableRecord
  2
GENIUS_GENOBJ-N-REC_13
 70
     0
  0
APPID
  5
2937
330
9
100
AcDbSymbolTableRecord
100
AcDbRegAppTableRecord
  2
AD_DRAW
 70
     0
  0
APPID
  5
294E
330
9
100
AcDbSymbolTableRecord
100
AcDbRegAppTableRecord
  2
DESIGNERASSEMBLIES
 70
     0
  0
APPID
  5
295C
330
9
100
AcDbSymbolTableRecord
100
AcDbRegAppTableRecord
  2
ACADM_DIM_EDIT
 70
     0
  0
APPID
  5
295D
330
9
100
AcDbSymbolTableRecord
100
AcDbRegAppTableRecord
  2
AMDT_DM_ADJ
 70
     0
  0
APPID
  5
29A8
330
9
100
AcDbSymbolTableRecord
100
AcDbRegAppTableRecord
  2
ACAD_MLEADERVER
 70
     0
  0
APPID
  5
2A15
330
9
100
AcDbSymbolTableRecord
100
AcDbRegAppTableRecord
  2
ACAD_DSTYLE_DIMBREAK
 70
     0
  0
APPID
  5
2A16
330
9
100
AcDbSymbolTableRecord
100
AcDbRegAppTableRecord
  2
ACAD_DSTYLE_DIMJAG
 70
     0
  0
APPID
  5
2A26
330
9
100
AcDbSymbolTableRecord
100
AcDbRegAppTableRecord
  2
ACAD_PSEXT
 70
     0
  0
APPID
  5
2A6F
330
9
100
AcDbSymbolTableRecord
100
AcDbRegAppTableRecord
  2
ACAD_EXEMPT_FROM_CAD_STANDARDS
 70
     0
  0
APPID
  5
2A86
330
9
100
AcDbSymbolTableRecord
100
AcDbRegAppTableRecord
  2
GENIUS_GENOBJ-N-FIL_13
 70
     0
  0
APPID
  5
357F
330
9
100
AcDbSymbolTableRecord
100
AcDbRegAppTableRecord
  2
ACAD_DSTYLE_DIMJOGGED_JOGANGLE_SYMBOL
 70
     0
  0
ENDTAB
  0
TABLE
  2
DIMSTYLE
  5
A
330
0
100
AcDbSymbolTable
 70
    15
100
AcDbDimStyleTable
 71
     1
340
6F
  0
DIMSTYLE
105
6F
102
{ACAD_REACTORS
330
6278
102
}
330
A
100
AcDbSymbolTableRecord
100
AcDbDimStyleTableRecord
  2
AM_DIN
 70
     0
  4
"
 41
2.5
 42
1.0
 43
10.0
 44
1.0
 47
0.1
 48
0.1
 73
     0
 74
     0
 77
     1
 78
     8
 79
     2
140
3.5
141
0.0
143
0.0393701
146
0.71
147
1.5
172
     1
176
   256
177
   256
178
     2
271
     2
272
     3
274
     4
283
     0
284
     8
340
11
371
    -1
372
    -1
  0
DIMSTYLE
105
70
330
A
100
AcDbSymbolTableRecord
100
AcDbDimStyleTableRecord
  2
AM_DIN$3
 70
     0
  4
"
 41
2.5
 42
1.0
 43
10.0
 44
1.0
 47
0.1
 48
0.1
 73
     0
 77
     1
 78
     8
 79
     2
140
3.5
141
0.0
143
0.0393701
146
0.71
147
1.5
176
   256
177
   256
178
     2
271
     2
272
     3
274
     4
283
     0
284
     8
288
     1
289
     0
340
11
371
    -1
372
    -1
  0
DIMSTYLE
105
71
330
A
100
AcDbSymbolTableRecord
100
AcDbDimStyleTableRecord
  2
AM_DIN$4
 70
     0
  4
"
 41
2.5
 42
1.0
 43
10.0
 44
1.0
 47
0.1
 48
0.1
 73
     0
 77
     1
 78
     8
 79
     2
140
3.5
141
0.0
143
0.0393701
146
0.71
147
1.5
176
   256
177
   256
178
     2
271
     2
272
     3
274
     4
283
     0
284
     8
288
     1
289
     0
340
11
371
    -1
372
    -1
  0
DIMSTYLE
105
72
330
A
100
AcDbSymbolTableRecord
100
AcDbDimStyleTableRecord
  2
AM_DIN$6
 70
     0
  4
"
 41
2.5
 42
1.0
 43
10.0
 44
1.0
 47
0.1
 48
0.1
 73
     0
 74
     0
 78
     8
 79
     2
140
3.5
141
0.0
143
0.0393701
146
0.71
147
1.5
172
     1
176
   256
177
   256
178
     2
271
     2
272
     3
274
     4
283
     0
284
     8
340
11
371
    -1
372
    -1
  0
DIMSTYLE
105
73
330
A
100
AcDbSymbolTableRecord
100
AcDbDimStyleTableRecord
  2
AM_DIN$7
 70
     0
  4
"
 41
2.5
 42
1.0
 43
10.0
 44
1.0
 47
0.1
 48
0.1
 73
     0
 74
     0
 77
     1
 78
     8
 79
     2
140
5.0
141
0.0
143
0.0393701
146
0.71
147
1.5
172
     1
176
   256
177
   256
178
     2
271
     2
272
     3
274
     4
283
     0
284
     8
340
11
371
    -1
372
    -1
  0
DIMSTYLE
105
74
330
A
100
AcDbSymbolTableRecord
100
AcDbDimStyleTableRecord
  2
AM_DIN$SF
 70
     0
  4
"
 41
2.5
 42
1.0
 43
10.0
 44
1.0
 47
0.1
 48
0.1
 73
     0
 74
     0
 75
     1
 76
     1
 77
     1
 78
     8
 79
     2
140
3.5
141
0.0
143
0.0393701
146
0.71
147
1.5
172
     1
176
   256
177
   256
178
     2
271
     2
272
     3
274
     4
283
     0
284
     8
340
11
371
    -1
372
    -1
  0
DIMSTYLE
105
79
330
A
100
AcDbSymbolTableRecord
100
AcDbDimStyleTableRecord
  2
AM_DIN$SH
 70
     0
  4
"
 41
2.5
 42
1.0
 43
10.0
 44
1.0
 47
0.1
 48
0.1
 73
     0
 74
     0
 75
     1
 76
     1
 77
     1
 78
     8
 79
     2
140
3.5
141
0.0
143
0.0393701
144
2.0
146
0.71
147
1.5
172
     1
173
     1
176
   256
177
   256
178
     2
271
     2
272
     3
274
     4
283
     0
284
     8
340
11
343
75
371
    -1
372
    -1
  0
DIMSTYLE
105
92
330
A
100
AcDbSymbolTableRecord
100
AcDbDimStyleTableRecord
  2
STANDARD
 70
     0
279
     2
340
11
  0
DIMSTYLE
105
345
330
A
100
AcDbSymbolTableRecord
100
AcDbDimStyleTableRecord
  2
AM_ANSI
 70
     0
  4
mm
 41
0.1
 42
0.05
 43
0.5
 44
0.1
 47
0.1
 48
0.1
 78
     7
 79
     2
140
0.12
141
0.0
146
0.71
147
0.06
176
   256
177
   256
178
     2
274
     4
284
     7
340
11
371
    -1
372
    -1
  0
DIMSTYLE
105
346
330
A
100
AcDbSymbolTableRecord
100
AcDbDimStyleTableRecord
  2
AM_ANSI$3
 70
     0
  4
mm
 41
0.1
 42
0.05
 43
0.5
 44
0.1
 47
0.1
 48
0.1
 78
     7
 79
     2
140
0.12
141
0.0
146
0.71
147
0.06
176
   256
177
   256
178
     2
274
     4
284
     7
288
     1
289
     0
340
11
371
    -1
372
    -1
  0
DIMSTYLE
105
347
330
A
100
AcDbSymbolTableRecord
100
AcDbDimStyleTableRecord
  2
AM_ANSI$4
 70
     0
  4
mm
 41
0.1
 42
0.05
 43
0.5
 44
0.1
 47
0.1
 48
0.1
 78
     7
 79
     2
140
0.12
141
0.0
146
0.71
147
0.06
176
   256
177
   256
178
     2
274
     4
284
     7
288
     1
289
     0
340
11
371
    -1
372
    -1
  0
DIMSTYLE
105
348
330
A
100
AcDbSymbolTableRecord
100
AcDbDimStyleTableRecord
  2
AM_ANSI$7
 70
     0
  4
mm
 41
0.1
 42
0.05
 43
0.5
 44
0.1
 47
0.1
 48
0.1
 78
     7
 79
     2
140
0.24
141
0.0
146
0.71
147
0.06
176
   256
177
   256
178
     2
274
     4
284
     7
340
11
371
    -1
372
    -1
  0
DIMSTYLE
105
349
330
A
100
AcDbSymbolTableRecord
100
AcDbDimStyleTableRecord
  2
AM_ANSI$SF
 70
     0
  4
mm
 41
0.1
 42
0.05
 43
0.5
 44
0.1
 47
0.1
 48
0.1
 75
     1
 76
     1
 78
     7
 79
     2
140
0.12
141
0.0
146
0.71
147
0.06
176
   256
177
   256
178
     2
274
     4
284
     7
340
11
371
    -1
372
    -1
  0
DIMSTYLE
105
34A
330
A
100
AcDbSymbolTableRecord
100
AcDbDimStyleTableRecord
  2
AM_ANSI$SH
 70
     0
  4
mm
 41
0.1
 42
0.05
 43
0.5
 44
0.1
 47
0.1
 48
0.1
 75
     1
 76
     1
 78
     7
 79
     2
140
0.12
141
0.0
146
0.71
147
0.06
173
     1
176
   256
177
   256
178
     2
274
     4
284
     7
340
11
343
75
371
    -1
372
    -1
  0
ENDTAB
  0
TABLE
  2
BLOCK_RECORD
  5
1
330
0
100
AcDbSymbolTable
 70
     7
  0
BLOCK_RECORD
  5
1F
102
{ACAD_XDICTIONARY
360
81
102
}
330
1
100
AcDbSymbolTableRecord
100
AcDbBlockTableRecord
  2
*Model_Space
340
22
  0
BLOCK_RECORD
  5
1B
330
1
100
AcDbSymbolTableRecord
100
AcDbBlockTableRecord
  2
*Paper_Space
340
1E
  0
BLOCK_RECORD
  5
23
330
1
100
AcDbSymbolTableRecord
100
AcDbBlockTableRecord
  2
*Paper_Space0
340
26
  0
BLOCK_RECORD
  5
75
330
1
100
AcDbSymbolTableRecord
100
AcDbBlockTableRecord
  2
GENAXEH
340
0
  0
BLOCK_RECORD
  5
2D45
330
1
100
AcDbSymbolTableRecord
100
AcDbBlockTableRecord
  2
block 2
340
0
  0
BLOCK_RECORD
  5
634F
102
{ACAD_XDICTIONARY
360
63A3
102
}
330
1
100
AcDbSymbolTableRecord
100
AcDbBlockTableRecord
  2
A$C21083016
340
0
1001
ACAD
1000
DesignCenter Data
1002
{
1070
     1
1070
     4
1002
}
  0
ENDTAB
  0
ENDSEC
  0
SECTION
  2
BLOCKS
  0
BLOCK
  5
20
330
1F
100
AcDbEntity
  8
0
100
AcDbBlockBegin
  2
*Model_Space
 70
     0
 10
0.0
 20
0.0
 30
0.0
  3
*Model_Space
  1

  0
ENDBLK
  5
21
330
1F
100
AcDbEntity
  8
0
100
AcDbBlockEnd
  0
BLOCK
  5
1C
330
1B
100
AcDbEntity
 67
     1
  8
0
100
AcDbBlockBegin
  2
*Paper_Space
 70
     0
 10
0.0
 20
0.0
 30
0.0
  3
*Paper_Space
  1

  0
ENDBLK
  5
1D
330
1B
100
AcDbEntity
 67
     1
  8
0
100
AcDbBlockEnd
  0
BLOCK
  5
24
330
23
100
AcDbEntity
 67
     1
  8
0
100
AcDbBlockBegin
  2
*Paper_Space0
 70
     0
 10
0.0
 20
0.0
 30
0.0
  3
*Paper_Space0
  1

  0
ENDBLK
  5
25
330
23
100
AcDbEntity
 67
     1
  8
0
100
AcDbBlockEnd
  0
BLOCK
  5
77
330
75
100
AcDbEntity
  8
0
100
AcDbBlockBegin
  2
GENAXEH
 70
     0
 10
0.0
 20
0.0
 30
0.0
  3
GENAXEH
  1

  0
LINE
  5
76
330
75
100
AcDbEntity
  8
0
100
AcDbLine
 10
-1.0
 20
0.0
 30
0.0
 11
1.0
 21
0.0
 31
0.0
  0
ENDBLK
  5
78
330
75
100
AcDbEntity
  8
0
100
AcDbBlockEnd
  0
BLOCK
  5
2D46
330
2D45
100
AcDbEntity
  8
0
100
AcDbBlockBegin
  2
block 2
 70
     0
 10
0.0
 20
0.0
 30
0.0
  3
block 2
  1

  0
SPLINE
  5
2D47
330
2D45
100
AcDbEntity
  8
0
 62
   250
420
  1842203
370
     9
100
AcDbSpline
210
0.0
220
0.0
230
1.0
 70
     8
 71
     3
 72
    14
 73
    10
 74
     0
 42
0.0000000001
 43
0.0000000001
 40
0.0
 40
0.0
 40
0.0
 40
0.0
 40
1.0
 40
1.0
 40
1.0
 40
2.0
 40
2.0
 40
2.0
 40
3.0
 40
3.0
 40
3.0
 40
3.0
 10
374.767822171933
 20
293.9212496552523
 30
0.0
 10
374.767822171933
 20
293.9212496552523
 30
0.0
 10
374.0657117120392
 20
-101.7736327870566
 30
0.0
 10
374.0657117120392
 20
-101.7736327870566
 30
0.0
 10
374.0657117120392
 20
-104.4249782725048
 30
0.0
 10
372.547113622141
 20
-106.0786241054248
 30
0.0
 10
370.3284721296402
 20
-106.0786241054248
 30
0.0
 10
370.3284721296402
 20
-106.0786241054248
 30
0.0
 10
-18.48259276881685
 20
-106.0786241054248
 30
0.0
 10
-18.48259276881685
 20
-106.0786241054248
 30
0.0
  0
POLYLINE
  5
2D48
330
2D45
100
AcDbEntity
  8
0
 62
   250
420
  1842203
370
     9
100
AcDb2dPolyline
 66
     1
 10
0.0
 20
0.0
 30
0.0
  0
VERTEX
  5
2D49
330
2D48
100
AcDbEntity
  8
0
 62
   250
420
  1842203
370
     9
100
AcDbVertex
100
AcDb2dVertex
 10
238.4777777181583
 20
277.3467230209411
 30
0.0
  0
VERTEX
  5
2D4A
330
2D48
100
AcDbEntity
  8
0
 62
   250
420
  1842203
370
     9
100
AcDbVertex
100
AcDb2dVertex
 10
238.4777777181583
 20
213.6262369257601
 30
0.0
  0
SEQEND
  5
2D4B
330
2D48
100
AcDbEntity
  8
0
370
     9
  0
POLYLINE
  5
2D4C
330
2D45
100
AcDbEntity
  8
0
 62
   250
420
  1842203
370
     9
100
AcDb2dPolyline
 66
     1
 10
0.0
 20
0.0
 30
0.0
  0
VERTEX
  5
2D4D
330
2D4C
100
AcDbEntity
  8
0
 62
   250
420
  1842203
370
     9
100
AcDbVertex
100
AcDb2dVertex
 10
247.8098523686031
 20
276.8010198960776
 30
0.0
  0
VERTEX
  5
2D4E
330
2D4C
100
AcDbEntity
  8
0
 62
   250
420
  1842203
370
     9
100
AcDbVertex
100
AcDb2dVertex
 10
247.8098523686031
 20
216.6083115777924
 30
0.0
  0
SEQEND
  5
2D4F
330
2D4C
100
AcDbEntity
  8
0
370
     9
  0
SPLINE
  5
2D50
330
2D45
100
AcDbEntity
  8
0
 62
   250
420
  1842203
370
     9
100
AcDbSpline
210
0.0
220
0.0
230
1.0
 70
     8
 71
     3
 72
    26
 73
    22
 74
     0
 42
0.0000000001
 43
0.0000000001
 40
0.0
 40
0.0
 40
0.0
 40
0.0
 40
1.0
 40
1.0
 40
1.0
 40
2.0
 40
2.0
 40
2.0
 40
3.0
 40
3.0
 40
3.0
 40
4.0
 40
4.0
 40
4.0
 40
5.0
 40
5.0
 40
5.0
 40
6.0
 40
6.0
 40
6.0
 40
7.0
 40
7.0
 40
7.0
 40
7.0
 10
243.1631075780981
 20
267.45792094008
 30
0.0
 10
243.1631075780981
 20
267.45792094008
 30
0.0
 10
243.1079860503341
 20
277.3467230209411
 30
0.0
 10
243.1079860503341
 20
277.3467230209411
 30
0.0
 10
243.1079860503341
 20
277.3467230209411
 30
0.0
 10
269.5663193770529
 20
277.3467230209411
 30
0.0
 10
269.5663193770529
 20
277.3467230209411
 30
0.0
 10
275.9604165976766
 20
277.3467230209411
 30
0.0
 10
266.038541600157
 20
290.7963757953565
 30
0.0
 10
285.6618054841401
 20
290.7963757953565
 30
0.0
 10
291.1739582605398
 20
290.7963757953565
 30
0.0
 10
341.9153916245906
 20
293.9212496552523
 30
0.0
 10
374.767822171933
 20
293.9212496552523
 30
0.0
 10
374.767822171933
 20
293.9212496552523
 30
0.0
 10
370.3553438744251
 20
289.9144313511325
 30
0.0
 10
370.3553438744251
 20
289.9144313511325
 30
0.0
 10
370.3553438744251
 20
289.9144313511325
 30
0.0
 10
280.7008679853804
 20
289.0324869069086
 30
0.0
 10
280.7008679853804
 20
289.0324869069086
 30
0.0
 10
280.7008679853804
 20
289.0324869069086
 30
0.0
 10
272.1019096541967
 20
287.2685980184606
 30
0.0
 10
272.1019096541967
 20
278.0081813541091
 30
0.0
  0
POLYLINE
  5
2D51
330
2D45
100
AcDbEntity
  8
0
 62
   250
420
  1842203
370
     9
100
AcDb2dPolyline
 66
     1
 10
0.0
 20
0.0
 30
0.0
  0
VERTEX
  5
2D52
330
2D51
100
AcDbEntity
  8
0
 62
   250
420
  1842203
370
     9
100
AcDbVertex
100
AcDb2dVertex
 10
243.1079860503341
 20
223.5260633121741
 30
0.0
  0
VERTEX
  5
2D53
330
2D51
100
AcDbEntity
  8
0
 62
   250
420
  1842203
370
     9
100
AcDbVertex
100
AcDb2dVertex
 10
243.1079860503341
 20
208.4448133159443
 30
0.0
  0
SEQEND
  5
2D54
330
2D51
100
AcDbEntity
  8
0
370
     9
  0
POLYLINE
  5
2D55
330
2D45
100
AcDbEntity
  8
0
 62
   250
420
  1842203
370
     9
100
AcDb2dPolyline
 66
     1
 10
0.0
 20
0.0
 30
0.0
  0
VERTEX
  5
2D56
330
2D55
100
AcDbEntity
  8
0
 62
   250
420
  1842203
370
     9
100
AcDbVertex
100
AcDb2dVertex
 10
276.6769964586085
 20
281.6462021865329
 30
0.0
  0
VERTEX
  5
2D57
330
2D55
100
AcDbEntity
  8
0
 62
   250
420
  1842203
370
     9
100
AcDbVertex
100
AcDb2dVertex
 10
276.6218749308446
 20
218.3446397023583
 30
0.0
  0
SEQEND
  5
2D58
330
2D55
100
AcDbEntity
  8
0
370
     9
  0
SPLINE
  5
2D59
330
2D45
100
AcDbEntity
  8
0
 62
   250
420
  1842203
370
     9
100
AcDbSpline
210
0.0
220
0.0
230
1.0
 70
    11
 71
     3
 72
    32
 73
    28
 74
     0
 42
0.0000000001
 43
0.0000000001
 40
0.0
 40
0.0
 40
0.0
 40
0.0
 40
1.0
 40
1.0
 40
1.0
 40
2.0
 40
2.0
 40
2.0
 40
3.0
 40
3.0
 40
3.0
 40
4.0
 40
4.0
 40
4.0
 40
5.0
 40
5.0
 40
5.0
 40
6.0
 40
6.0
 40
6.0
 40
7.0
 40
7.0
 40
7.0
 40
8.0
 40
8.0
 40
8.0
 40
9.0
 40
9.0
 40
9.0
 40
9.0
 10
277.0986761460031
 20
217.9312282441283
 30
0.0
 10
277.0986761460031
 20
217.9312282441283
 30
0.0
 10
277.0986761460031
 20
213.6262369257601
 30
0.0
 10
277.0986761460031
 20
210.4787976904359
 30
0.0
 10
277.0986761460031
 20
208.8720051561153
 30
0.0
 10
276.2911457642605
 20
207.8935980383044
 30
0.0
 10
274.1965277092286
 20
207.5766492536614
 30
0.0
 10
239.9192056691869
 20
206.151757760962
 30
0.0
 10
208.8775173088917
 20
206.5155598442045
 30
0.0
 10
206.9482638371519
 20
203.7043619282406
 30
0.0
 10
205.2394964764679
 20
201.2183810260843
 30
0.0
 10
204.219748212834
 20
208.4668619270499
 30
0.0
 10
203.089756893672
 20
211.7521049817842
 30
0.0
 10
202.869270782616
 20
212.8214626204058
 30
0.0
 10
207.433333281475
 20
214.1278428284125
 30
0.0
 10
209.9634114058425
 20
214.2050129672821
 30
0.0
 10
221.9495876181238
 20
214.5688150505245
 30
0.0
 10
226.5632594919703
 20
214.7066188699345
 30
0.0
 10
237.8163193849904
 20
214.9491535920961
 30
0.0
 10
237.8163193849904
 20
214.9491535920961
 30
0.0
 10
247.8098523686031
 20
218.2564452579359
 30
0.0
 10
247.8098523686031
 20
218.2564452579359
 30
0.0
 10
247.8098523686031
 20
218.2564452579359
 30
0.0
 10
277.0986761460031
 20
217.9312282441283
 30
0.0
 10
277.0986761460031
 20
217.9312282441283
 30
0.0
 10
277.0986761460031
 20
217.9312282441283
 30
0.0
 10
277.0986761460031
 20
217.9312282441283
 30
0.0
 10
277.0986761460031
 20
217.9312282441283
 30
0.0
  0
SPLINE
  5
2D5A
330
2D45
100
AcDbEntity
  8
0
 62
   250
420
  1842203
370
     9
100
AcDbSpline
210
0.0
220
0.0
230
1.0
 70
     8
 71
     3
 72
    17
 73
    13
 74
     0
 42
0.0000000001
 43
0.0000000001
 40
0.0
 40
0.0
 40
0.0
 40
0.0
 40
1.0
 40
1.0
 40
1.0
 40
2.0
 40
2.0
 40
2.0
 40
3.0
 40
3.0
 40
3.0
 40
4.0
 40
4.0
 40
4.0
 40
4.0
 10
285.1105902065001
 20
284.1817924636768
 30
0.0
 10
285.1105902065001
 20
284.1817924636768
 30
0.0
 10
291.1877386424809
 20
207.0116535940804
 30
0.0
 10
291.1877386424809
 20
207.0116535940804
 30
0.0
 10
291.3944443715958
 20
203.9248480392966
 30
0.0
 10
288.307638816812
 20
202.4503471716097
 30
0.0
 10
284.143207394242
 20
202.6019313729606
 30
0.0
 10
251.5415797982258
 20
203.7870442198866
 30
0.0
 10
250.6238063609552
 20
203.7457030740636
 30
0.0
 10
211.2918402249548
 20
205.0410589765175
 30
0.0
 10
208.1058159201958
 20
205.0824001223405
 30
0.0
 10
205.7879556777197
 20
201.6648654009727
 30
0.0
 10
204.6882811988279
 20
199.5702473459408
 30
0.0
  0
POLYLINE
  5
2D5B
330
2D45
100
AcDbEntity
  8
0
 62
   250
420
  1842203
370
     9
100
AcDb2dPolyline
 66
     1
 10
0.0
 20
0.0
 30
0.0
  0
VERTEX
  5
2D5C
330
2D5B
100
AcDbEntity
  8
0
 62
   250
420
  1842203
370
     9
100
AcDbVertex
100
AcDb2dVertex
 10
207.6620876216956
 20
245.491992126127
 30
0.0
  0
VERTEX
  5
2D5D
330
2D5B
100
AcDbEntity
  8
0
 62
   250
420
  1842203
370
     9
100
AcDbVertex
100
AcDb2dVertex
 10
309.832595408653
 20
245.491992126127
 30
0.0
  0
SEQEND
  5
2D5E
330
2D5B
100
AcDbEntity
  8
0
370
     9
  0
POLYLINE
  5
2D5F
330
2D45
100
AcDbEntity
  8
0
 62
   250
420
  1842203
370
     9
100
AcDb2dPolyline
 66
     1
 10
0.0
 20
0.0
 30
0.0
  0
VERTEX
  5
2D60
330
2D5F
100
AcDbEntity
  8
0
 62
   250
420
  1842203
370
     9
100
AcDbVertex
100
AcDb2dVertex
 10
286.833137949125
 20
203.4287542894206
 30
0.0
  0
VERTEX
  5
2D61
330
2D5F
100
AcDbEntity
  8
0
 62
   250
420
  1842203
370
     9
100
AcDbVertex
100
AcDb2dVertex
 10
265.487326322517
 20
207.7833549827764
 30
0.0
  0
SEQEND
  5
2D62
330
2D5F
100
AcDbEntity
  8
0
370
     9
  0
POLYLINE
  5
2D63
330
2D45
100
AcDbEntity
  8
0
 62
   250
420
  1842203
370
     9
100
AcDb2dPolyline
 66
     1
 10
0.0
 20
0.0
 30
0.0
  0
VERTEX
  5
2D64
330
2D63
100
AcDbEntity
  8
0
 62
   250
420
  1842203
370
     9
100
AcDbVertex
100
AcDb2dVertex
 10
218.6919053272715
 20
125.5420355588922
 30
0.0
  0
VERTEX
  5
2D65
330
2D63
100
AcDbEntity
  8
0
 62
   250
420
  1842203
370
     9
100
AcDbVertex
100
AcDb2dVertex
 10
218.6919053272715
 20
36.24516058121649
 30
0.0
  0
SEQEND
  5
2D66
330
2D63
100
AcDbEntity
  8
0
370
     9
  0
POLYLINE
  5
2D67
330
2D45
100
AcDbEntity
  8
0
 62
   250
420
  1842203
370
     9
100
AcDb2dPolyline
 66
     1
 10
0.0
 20
0.0
 30
0.0
  0
VERTEX
  5
2D68
330
2D67
100
AcDbEntity
  8
0
 62
   250
420
  1842203
370
     9
100
AcDbVertex
100
AcDb2dVertex
 10
236.556792475583
 20
125.6522786144202
 30
0.0
  0
VERTEX
  5
2D69
330
2D67
100
AcDbEntity
  8
0
 62
   250
420
  1842203
370
     9
100
AcDbVertex
100
AcDb2dVertex
 10
236.556792475583
 20
36.90661891438446
 30
0.0
  0
SEQEND
  5
2D6A
330
2D67
100
AcDbEntity
  8
0
370
     9
  0
POLYLINE
  5
2D6B
330
2D45
100
AcDbEntity
  8
0
 62
   250
420
  1842203
370
     9
100
AcDb2dPolyline
 66
     1
 10
0.0
 20
0.0
 30
0.0
  0
VERTEX
  5
2D6C
330
2D6B
100
AcDbEntity
  8
0
 62
   250
420
  1842203
370
     9
100
AcDbVertex
100
AcDb2dVertex
 10
293.7102375567808
 20
291.1935953048058
 30
0.0
  0
VERTEX
  5
2D6D
330
2D6B
100
AcDbEntity
  8
0
 62
   250
420
  1842203
370
     9
100
AcDbVertex
100
AcDb2dVertex
 10
-153.206496814997
 20
291.1935953048058
 30
0.0
  0
SEQEND
  5
2D6E
330
2D6B
100
AcDbEntity
  8
0
370
     9
  0
POLYLINE
  5
2D6F
330
2D45
100
AcDbEntity
  8
0
 62
   250
420
  1842203
370
     9
100
AcDb2dPolyline
 66
     1
 10
0.0
 20
0.0
 30
0.0
  0
VERTEX
  5
2D70
330
2D6F
100
AcDbEntity
  8
0
 62
   250
420
  1842203
370
     9
100
AcDbVertex
100
AcDb2dVertex
 10
172.7729166234734
 20
235.0133896981911
 30
0.0
  0
VERTEX
  5
2D71
330
2D6F
100
AcDbEntity
  8
0
 62
   250
420
  1842203
370
     9
100
AcDbVertex
100
AcDb2dVertex
 10
-147.3756727062116
 20
246.0376952509906
 30
0.0
  0
SEQEND
  5
2D72
330
2D6F
100
AcDbEntity
  8
0
370
     9
  0
SPLINE
  5
2D73
330
2D45
100
AcDbEntity
  8
0
 62
   250
420
  1842203
370
     9
100
AcDbSpline
210
0.0
220
0.0
230
1.0
 70
     8
 71
     3
 72
    47
 73
    43
 74
     0
 42
0.0000000001
 43
0.0000000001
 40
0.0
 40
0.0
 40
0.0
 40
0.0
 40
1.0
 40
1.0
 40
1.0
 40
2.0
 40
2.0
 40
2.0
 40
3.0
 40
3.0
 40
3.0
 40
4.0
 40
4.0
 40
4.0
 40
5.0
 40
5.0
 40
5.0
 40
6.0
 40
6.0
 40
6.0
 40
7.0
 40
7.0
 40
7.0
 40
8.0
 40
8.0
 40
8.0
 40
9.0
 40
9.0
 40
9.0
 40
10.0
 40
10.0
 40
10.0
 40
11.0
 40
11.0
 40
11.0
 40
12.0
 40
12.0
 40
12.0
 40
13.0
 40
13.0
 40
13.0
 40
14.0
 40
14.0
 40
14.0
 40
14.0
 10
190.4118055079526
 20
4.384917533625992
 30
0.0
 10
190.4118055079526
 20
4.384917533625992
 30
0.0
 10
301.986045931448
 20
0.2370225693851888
 30
0.0
 10
301.986045931448
 20
0.2370225693851888
 30
0.0
 10
311.2381943666349
 20
-0.2452907985497884
 30
0.0
 10
316.3644964486867
 20
-3.888823783750016
 30
0.0
 10
317.9106553024668
 20
-11.43496093464126
 30
0.0
 10
320.2643445379895
 20
-22.90575086232912
 30
0.0
 10
331.4650389796337
 20
-73.82701821070991
 30
0.0
 10
334.1687499164578
 20
-86.40023869367771
 30
0.0
 10
335.8223957493777
 20
-95.2748046636813
 30
0.0
 10
344.3111110250334
 20
-100.9468098705966
 30
0.0
 10
353.1388236964375
 20
-100.9468098705966
 30
0.0
 10
353.1388236964375
 20
-100.9468098705966
 30
0.0
 10
353.1388236964375
 20
-100.9468098705966
 30
0.0
 10
353.1388236964375
 20
-100.9468098705966
 30
0.0
 10
355.6771700499696
 20
-100.9468098705966
 30
0.0
 10
356.2724825498208
 20
-98.43051212817016
 30
0.0
 10
358.6399521672845
 20
-98.43051212817016
 30
0.0
 10
360.9578124097605
 20
-98.43051212817016
 30
0.0
 10
361.2334200485806
 20
-100.9027126483854
 30
0.0
 10
363.3859157077647
 20
-100.9027126483854
 30
0.0
 10
366.1943575473403
 20
-100.9027126483854
 30
0.0
 10
367.6826387969683
 20
-100.9027126483854
 30
0.0
 10
370.1079860185842
 20
-100.9027126483854
 30
0.0
 10
371.5328775112835
 20
-100.9027126483854
 30
0.0
 10
372.822721260961
 20
-100.0014756694441
 30
0.0
 10
372.822721260961
 20
-98.45807289205216
 30
0.0
 10
372.822721260961
 20
-98.45807289205216
 30
0.0
 10
372.822721260961
 20
-92.19351126167385
 30
0.0
 10
372.822721260961
 20
-92.19351126167385
 30
0.0
 10
372.4037976499547
 20
-91.16273869248709
 30
0.0
 10
371.7919486917743
 20
-90.64459633150553
 30
0.0
 10
371.7919486917743
 20
-89.52838539428457
 30
0.0
 10
371.7919486917743
 20
-71.02133244752245
 30
0.0
 10
371.7919486917743
 20
-59.50093314484699
 30
0.0
 10
371.7919486917743
 20
-38.78075085836037
 30
0.0
 10
371.7919486917743
 20
-37.37515190037843
 30
0.0
 10
370.4855684837675
 20
-35.9419921785145
 30
0.0
 10
368.8870441786116
 20
-35.88687065075051
 30
0.0
 10
350.3717230026849
 20
-35.21990016480614
 30
0.0
 10
341.4999131090695
 20
-34.90295138016315
 30
0.0
 10
322.9046657178849
 20
-34.24149304699518
 30
0.0
  0
SPLINE
  5
2D74
330
2D45
100
AcDbEntity
  8
0
 62
   250
420
  1842203
370
     9
100
AcDbSpline
210
0.0
220
0.0
230
1.0
 70
     8
 71
     3
 72
     8
 73
     4
 74
     0
 42
0.0000000001
 43
0.0000000001
 40
0.0
 40
0.0
 40
0.0
 40
0.0
 40
1.0
 40
1.0
 40
1.0
 40
1.0
 10
-145.3912977067077
 20
191.1366535980492
 30
0.0
 10
-154.4312282600033
 20
198.1922091518408
 30
0.0
 10
-161.7761718345559
 20
192.1150607158601
 30
0.0
 10
-156.8565754816192
 20
184.7425563774254
 30
0.0
  0
SPLINE
  5
2D75
330
2D45
100
AcDbEntity
  8
0
 62
   250
420
  1842203
370
     9
100
AcDbSpline
210
0.0
220
0.0
230
1.0
 70
     8
 71
     3
 72
    11
 73
     7
 74
     0
 42
0.0000000001
 43
0.0000000001
 40
0.0
 40
0.0
 40
0.0
 40
0.0
 40
1.0
 40
1.0
 40
1.0
 40
2.0
 40
2.0
 40
2.0
 40
2.0
 10
-1.193381076090543
 20
-90.86508244256151
 30
0.0
 10
-1.193381076090543
 20
-90.86508244256151
 30
0.0
 10
6.303146699813102
 20
2.841514756234065
 30
0.0
 10
6.303146699813102
 20
2.841514756234065
 30
0.0
 10
6.744118921925081
 20
7.361480032881852
 30
0.0
 10
11.06289062223428
 20
11.62788628181525
 30
0.0
 10
15.20802951008688
 20
11.02154947641128
 30
0.0
  0
POLYLINE
  5
2D76
330
2D45
100
AcDbEntity
  8
0
 62
   250
420
  1842203
370
     9
100
AcDb2dPolyline
 66
     1
 10
0.0
 20
0.0
 30
0.0
  0
VERTEX
  5
2D77
330
2D76
100
AcDbEntity
  8
0
 62
   250
420
  1842203
370
     9
100
AcDbVertex
100
AcDb2dVertex
 10
-0.1763888888447917
 20
-100.456228273497
 30
0.0
  0
VERTEX
  5
2D78
330
2D76
100
AcDbEntity
  8
0
 62
   250
420
  1842203
370
     9
100
AcDbVertex
100
AcDb2dVertex
 10
77.12328557099695
 20
-100.456228273497
 30
0.0
  0
SEQEND
  5
2D79
330
2D76
100
AcDbEntity
  8
0
370
     9
  0
POLYLINE
  5
2D7A
330
2D45
100
AcDbEntity
  8
0
 62
   250
420
  1842203
370
     9
100
AcDb2dPolyline
 66
     1
 10
0.0
 20
0.0
 30
0.0
  0
VERTEX
  5
2D7B
330
2D7A
100
AcDbEntity
  8
0
 62
   250
420
  1842203
370
     9
100
AcDbVertex
100
AcDb2dVertex
 10
82.26061195860152
 20
-74.54911022441828
 30
0.0
  0
VERTEX
  5
2D7C
330
2D7A
100
AcDbEntity
  8
0
 62
   250
420
  1842203
370
     9
100
AcDbVertex
100
AcDb2dVertex
 10
79.94550779251362
 20
-98.03088105188116
 30
0.0
  0
SEQEND
  5
2D7D
330
2D7A
100
AcDbEntity
  8
0
370
     9
  0
SPLINE
  5
2D7E
330
2D45
100
AcDbEntity
  8
0
 62
   250
420
  1842203
370
     9
100
AcDbSpline
210
0.0
220
0.0
230
1.0
 70
     8
 71
     3
 72
     8
 73
     4
 74
     0
 42
0.0000000001
 43
0.0000000001
 40
0.0
 40
0.0
 40
0.0
 40
0.0
 40
1.0
 40
1.0
 40
1.0
 40
1.0
 10
-21.69858940429758
 20
143.2139973600298
 30
0.0
 10
43.55151908633434
 20
140.9071614231065
 30
0.0
 10
77.94735241106872
 20
139.5842447567706
 30
0.0
 10
143.6494574293654
 20
143.010047707303
 30
0.0
  0
SPLINE
  5
2D7F
330
2D45
100
AcDbEntity
  8
0
 62
   250
420
  1842203
370
     9
100
AcDbSpline
210
0.0
220
0.0
230
1.0
 70
     8
 71
     3
 72
    11
 73
     7
 74
     0
 42
0.0000000001
 43
0.0000000001
 40
0.0
 40
0.0
 40
0.0
 40
0.0
 40
1.0
 40
1.0
 40
1.0
 40
2.0
 40
2.0
 40
2.0
 40
2.0
 10
166.6626952708343
 20
224.9812716451436
 30
0.0
 10
166.6626952708343
 20
211.8623480373122
 30
0.0
 10
158.4413194048341
 20
204.8067924835205
 30
0.0
 10
153.9930121142795
 20
181.3939235657626
 30
0.0
 10
151.2672525663498
 20
167.0430338124059
 30
0.0
 10
148.8391492683458
 20
146.4551431925529
 30
0.0
 10
148.8391492683458
 20
146.4551431925529
 30
0.0
  0
SPLINE
  5
2D80
330
2D45
100
AcDbEntity
  8
0
 62
   250
420
  1842203
370
     9
100
AcDbSpline
210
0.0
220
0.0
230
1.0
 70
    11
 71
     3
 72
    26
 73
    22
 74
     0
 42
0.0000000001
 43
0.0000000001
 40
0.0
 40
0.0
 40
0.0
 40
0.0
 40
1.0
 40
1.0
 40
1.0
 40
2.0
 40
2.0
 40
2.0
 40
3.0
 40
3.0
 40
3.0
 40
4.0
 40
4.0
 40
4.0
 40
5.0
 40
5.0
 40
5.0
 40
6.0
 40
6.0
 40
6.0
 40
7.0
 40
7.0
 40
7.0
 40
7.0
 10
218.2509331051595
 20
119.7212022270141
 30
0.0
 10
218.2509331051595
 20
119.7212022270141
 30
0.0
 10
226.1305554990229
 20
119.7212022270141
 30
0.0
 10
226.1305554990229
 20
119.7212022270141
 30
0.0
 10
226.1305554990229
 20
119.7212022270141
 30
0.0
 10
236.9894964685304
 20
120.6086588240145
 30
0.0
 10
236.9894964685304
 20
120.6086588240145
 30
0.0
 10
236.9894964685304
 20
120.6086588240145
 30
0.0
 10
236.9536674754838
 20
130.0289279188816
 30
0.0
 10
236.9536674754838
 20
130.0289279188816
 30
0.0
 10
236.9536674754838
 20
131.16443139082
 30
0.0
 10
235.8870659132505
 20
131.729427050401
 30
0.0
 10
234.7846353579705
 20
131.7487195851184
 30
0.0
 10
227.5058376167347
 20
131.867230869811
 30
0.0
 10
227.2329860543029
 20
131.881011251752
 30
0.0
 10
218.2757377926533
 20
131.881011251752
 30
0.0
 10
218.2757377926533
 20
131.881011251752
 30
0.0
 10
218.2509331051595
 20
119.7212022270141
 30
0.0
 10
218.2509331051595
 20
119.7212022270141
 30
0.0
 10
218.2509331051595
 20
119.7212022270141
 30
0.0
 10
218.2509331051595
 20
119.7212022270141
 30
0.0
 10
218.2509331051595
 20
119.7212022270141
 30
0.0
  0
SPLINE
  5
2D81
330
2D45
100
AcDbEntity
  8
0
 62
   250
420
  1842203
370
     9
100
AcDbSpline
210
0.0
220
0.0
230
1.0
 70
    11
 71
     3
 72
    26
 73
    22
 74
     0
 42
0.0000000001
 43
0.0000000001
 40
0.0
 40
0.0
 40
0.0
 40
0.0
 40
1.0
 40
1.0
 40
1.0
 40
2.0
 40
2.0
 40
2.0
 40
3.0
 40
3.0
 40
3.0
 40
4.0
 40
4.0
 40
4.0
 40
5.0
 40
5.0
 40
5.0
 40
6.0
 40
6.0
 40
6.0
 40
7.0
 40
7.0
 40
7.0
 40
7.0
 10
218.2509331051595
 20
41.47619356601984
 30
0.0
 10
218.2509331051595
 20
41.47619356601984
 30
0.0
 10
226.1305554990229
 20
41.47619356601984
 30
0.0
 10
226.1305554990229
 20
41.47619356601984
 30
0.0
 10
226.1305554990229
 20
41.47619356601984
 30
0.0
 10
236.9867403921422
 20
40.58598089263128
 30
0.0
 10
236.9867403921422
 20
40.58598089263128
 30
0.0
 10
236.9867403921422
 20
40.58598089263128
 30
0.0
 10
236.9509113990956
 20
31.17398002692873
 30
0.0
 10
236.9509113990956
 20
31.17398002692873
 30
0.0
 10
236.9509113990956
 20
30.03020832582578
 30
0.0
 10
235.8870659132505
 20
29.47072481902121
 30
0.0
 10
234.7846353579705
 20
29.45143228430381
 30
0.0
 10
227.5058376167347
 20
29.33292099961122
 30
0.0
 10
227.2329860543029
 20
29.31362846489382
 30
0.0
 10
218.2757377926533
 20
29.31362846489382
 30
0.0
 10
218.2757377926533
 20
29.31362846489382
 30
0.0
 10
218.2509331051595
 20
41.47619356601984
 30
0.0
 10
218.2509331051595
 20
41.47619356601984
 30
0.0
 10
218.2509331051595
 20
41.47619356601984
 30
0.0
 10
218.2509331051595
 20
41.47619356601984
 30
0.0
 10
218.2509331051595
 20
41.47619356601984
 30
0.0
  0
POLYLINE
  5
2D82
330
2D45
100
AcDbEntity
  8
0
 62
   250
420
  1842203
370
     9
100
AcDb2dPolyline
 66
     1
 10
0.0
 20
0.0
 30
0.0
  0
VERTEX
  5
2D83
330
2D82
100
AcDbEntity
  8
0
 62
   250
420
  1842203
370
     9
100
AcDbVertex
100
AcDb2dVertex
 10
167.6989799927975
 20
80.5628689034704
 30
0.0
  0
VERTEX
  5
2D84
330
2D82
100
AcDbEntity
  8
0
 62
   250
420
  1842203
370
     9
100
AcDbVertex
100
AcDb2dVertex
 10
288.5253688514798
 20
80.5628689034704
 30
0.0
  0
SEQEND
  5
2D85
330
2D82
100
AcDbEntity
  8
0
370
     9
  0
SPLINE
  5
2D86
330
2D45
100
AcDbEntity
  8
0
 62
   250
420
  1842203
370
     9
100
AcDbSpline
210
0.0
220
0.0
230
1.0
 70
     8
 71
     3
 72
    14
 73
    10
 74
     0
 42
0.0000000001
 43
0.0000000001
 40
0.0
 40
0.0
 40
0.0
 40
0.0
 40
1.0
 40
1.0
 40
1.0
 40
2.0
 40
2.0
 40
2.0
 40
3.0
 40
3.0
 40
3.0
 40
3.0
 10
220.5081596670952
 20
127.3059244473402
 30
0.0
 10
220.5081596670952
 20
127.3059244473402
 30
0.0
 10
197.3571180062163
 20
127.3059244473402
 30
0.0
 10
197.3571180062163
 20
127.3059244473402
 30
0.0
 10
197.3571180062163
 20
127.3059244473402
 30
0.0
 10
164.7251735699298
 20
130.61321611318
 30
0.0
 10
164.7251735699298
 20
130.61321611318
 30
0.0
 10
158.3310763493061
 20
130.61321611318
 30
0.0
 10
155.0541015237365
 20
140.1712890274572
 30
0.0
 10
158.9925346824741
 20
144.5038411097073
 30
0.0
  0
SPLINE
  5
2D87
330
2D45
100
AcDbEntity
  8
0
 62
   250
420
  1842203
370
     9
100
AcDbSpline
210
0.0
220
0.0
230
1.0
 70
     8
 71
     3
 72
    65
 73
    61
 74
     0
 42
0.0000000001
 43
0.0000000001
 40
0.0
 40
0.0
 40
0.0
 40
0.0
 40
1.0
 40
1.0
 40
1.0
 40
2.0
 40
2.0
 40
2.0
 40
3.0
 40
3.0
 40
3.0
 40
4.0
 40
4.0
 40
4.0
 40
5.0
 40
5.0
 40
5.0
 40
6.0
 40
6.0
 40
6.0
 40
7.0
 40
7.0
 40
7.0
 40
8.0
 40
8.0
 40
8.0
 40
9.0
 40
9.0
 40
9.0
 40
10.0
 40
10.0
 40
10.0
 40
11.0
 40
11.0
 40
11.0
 40
12.0
 40
12.0
 40
12.0
 40
13.0
 40
13.0
 40
13.0
 40
14.0
 40
14.0
 40
14.0
 40
15.0
 40
15.0
 40
15.0
 40
16.0
 40
16.0
 40
16.0
 40
17.0
 40
17.0
 40
17.0
 40
18.0
 40
18.0
 40
18.0
 40
19.0
 40
19.0
 40
19.0
 40
20.0
 40
20.0
 40
20.0
 40
20.0
 10
219.5159721673432
 20
33.9300564151286
 30
0.0
 10
219.5159721673432
 20
33.9300564151286
 30
0.0
 10
196.4751735619923
 20
33.48908419301662
 30
0.0
 10
196.4751735619923
 20
33.48908419301662
 30
0.0
 10
189.7503471747846
 20
33.04811197090464
 30
0.0
 10
188.5294053348121
 20
26.65952690305734
 30
0.0
 10
188.5294053348121
 20
21.80332030704917
 30
0.0
 10
188.5294053348121
 20
2.180056423066097
 30
0.0
 10
188.8684027305607
 20
-15.23834635035708
 30
0.0
 10
183.1357638431049
 20
-30.45188801322036
 30
0.0
 10
176.4302299906146
 20
-51.43940970936237
 30
0.0
 10
149.8175563861567
 20
-78.62810327895409
 30
0.0
 10
114.2366102144964
 20
-78.62810327895409
 30
0.0
 10
55.25106335424279
 20
-78.62810327895409
 30
0.0
 10
40.58873696901948
 20
-28.79824218030044
 30
0.0
 10
30.00540363833199
 20
2.621028645178076
 30
0.0
 10
27.80054252777209
 20
8.24342447710581
 30
0.0
 10
25.03619791040762
 20
9.781315101721338
 30
0.0
 10
19.75279947422847
 20
10.4482855876657
 30
0.0
 10
13.55989582994336
 20
11.18691405970327
 30
0.0
 10
12.39131944134661
 20
11.44047308741766
 30
0.0
 10
5.200716144533154
 20
12.32241753164162
 30
0.0
 10
-8.044986977155419
 20
13.94850260067954
 30
0.0
 10
-14.42254773944992
 20
24.22866752866506
 30
0.0
 10
-15.74546440578586
 20
37.01686196991246
 30
0.0
 10
-20.59615884901763
 20
79.35019529266245
 30
0.0
 10
-21.69858940429758
 20
92.35887584496584
 30
0.0
 10
-25.00588107013742
 20
130.943945279764
 30
0.0
 10
-25.5074869727898
 20
136.8199001394061
 30
0.0
 10
-30.29754773548117
 20
139.7633897220036
 30
0.0
 10
-35.80970051188091
 20
141.5272786104515
 30
0.0
 10
-166.1169921459707
 20
181.4352647115856
 30
0.0
 10
-176.477083289214
 20
228.1783202554554
 30
0.0
 10
-178.9051865872181
 20
234.3519313650232
 30
0.0
 10
-180.7324652325947
 20
239.0097004610809
 30
0.0
 10
-177.8027560319382
 20
245.1557508067666
 30
0.0
 10
-172.7315754776504
 20
246.4786674731026
 30
0.0
 10
-172.7315754776504
 20
246.4786674731026
 30
0.0
 10
-142.0647135061505
 20
249.7859591389424
 30
0.0
 10
-142.0647135061505
 20
249.7859591389424
 30
0.0
 10
-142.0647135061505
 20
249.7859591389424
 30
0.0
 10
-145.6117838177637
 20
285.7251952410687
 30
0.0
 10
-145.6117838177637
 20
285.7251952410687
 30
0.0
 10
-146.0527560398757
 20
289.9144313511325
 30
0.0
 10
-148.0812282615908
 20
291.2373480174684
 30
0.0
 10
-151.1239365941634
 20
291.2373480174684
 30
0.0
 10
-163.4711588132988
 20
291.2373480174684
 30
0.0
 10
-168.9833115896986
 20
291.2373480174684
 30
0.0
 10
-183.3149088083379
 20
291.2373480174684
 30
0.0
 10
-186.8426865852338
 20
291.2373480174684
 30
0.0
 10
-187.9451171405137
 20
287.9245441988522
 30
0.0
 10
-187.9451171405137
 20
284.8432507968448
 30
0.0
 10
-187.9451171405137
 20
271.1731119113734
 30
0.0
 10
-187.9451171405137
 20
266.3224174681416
 30
0.0
 10
-187.9451171405137
 20
254.1956813600622
 30
0.0
 10
-187.9451171405137
 20
253.1070311867233
 30
0.0
 10
-187.4324869323085
 20
252.5751084438007
 30
0.0
 10
-187.0631726962898
 20
251.5498480273903
 30
0.0
 10
-139.438172708196
 20
121.0220702822445
 30
0.0
 10
-51.11453720510331
 20
22.24429252916115
 30
0.0
 10
-18.48259276881685
 20
-106.0786241054248
 30
0.0
  0
POLYLINE
  5
2D88
330
2D45
100
AcDbEntity
  8
0
 62
   250
420
  1842203
370
     9
100
AcDb2dPolyline
 66
     1
 10
0.0
 20
0.0
 30
0.0
  0
VERTEX
  5
2D89
330
2D88
100
AcDbEntity
  8
0
 62
   250
420
  1842203
370
     9
100
AcDbVertex
100
AcDb2dVertex
 10
237.2292751143038
 20
-79.37224390376805
 30
0.0
  0
VERTEX
  5
2D8A
330
2D88
100
AcDbEntity
  8
0
 62
   250
420
  1842203
370
     9
100
AcDbVertex
100
AcDb2dVertex
 10
239.3597221623823
 20
-100.125499106913
 30
0.0
  0
SEQEND
  5
2D8B
330
2D88
100
AcDbEntity
  8
0
370
     9
  0
SPLINE
  5
2D8C
330
2D45
100
AcDbEntity
  8
0
 62
   250
420
  1842203
370
     9
100
AcDbSpline
210
0.0
220
0.0
230
1.0
 70
     8
 71
     3
 72
    14
 73
    10
 74
     0
 42
0.0000000001
 43
0.0000000001
 40
0.0
 40
0.0
 40
0.0
 40
0.0
 40
1.0
 40
1.0
 40
1.0
 40
2.0
 40
2.0
 40
2.0
 40
3.0
 40
3.0
 40
3.0
 40
3.0
 10
188.7691839805855
 20
-27.33200954177811
 30
0.0
 10
188.7691839805855
 20
-27.33200954177811
 30
0.0
 10
223.705208277407
 20
-27.33200954177811
 30
0.0
 10
223.705208277407
 20
-27.33200954177811
 30
0.0
 10
229.647308970366
 20
-27.5910807222689
 30
0.0
 10
233.2109157403084
 20
-32.21577690166828
 30
0.0
 10
233.6270832749266
 20
-37.50744356701203
 30
0.0
 10
235.3000216425639
 20
-58.70718314504543
 30
0.0
 10
235.8209200799337
 20
-65.27491317812572
 30
0.0
 10
237.2292751143038
 20
-79.37224390376805
 30
0.0
  0
POLYLINE
  5
2D8D
330
2D45
100
AcDbEntity
  8
0
 62
   250
420
  1842203
370
     9
100
AcDb2dPolyline
 66
     1
 10
0.0
 20
0.0
 30
0.0
  0
VERTEX
  5
2D8E
330
2D8D
100
AcDbEntity
  8
0
 62
   250
420
  1842203
370
     9
100
AcDbVertex
100
AcDb2dVertex
 10
241.4708766757434
 20
-100.9027126483854
 30
0.0
  0
VERTEX
  5
2D8F
330
2D8D
100
AcDbEntity
  8
0
 62
   250
420
  1842203
370
     9
100
AcDbVertex
100
AcDb2dVertex
 10
370.3284721296402
 20
-100.9027126483854
 30
0.0
  0
SEQEND
  5
2D90
330
2D8D
100
AcDbEntity
  8
0
370
     9
  0
SPLINE
  5
2D91
330
2D45
100
AcDbEntity
  8
0
 62
   250
420
  1842203
370
     9
100
AcDbSpline
210
0.0
220
0.0
230
1.0
 70
     8
 71
     3
 72
    20
 73
    16
 74
     0
 42
0.0000000001
 43
0.0000000001
 40
0.0
 40
0.0
 40
0.0
 40
0.0
 40
1.0
 40
1.0
 40
1.0
 40
2.0
 40
2.0
 40
2.0
 40
3.0
 40
3.0
 40
3.0
 40
4.0
 40
4.0
 40
4.0
 40
5.0
 40
5.0
 40
5.0
 40
5.0
 10
118.5333333037
 20
-13.29531249667617
 30
0.0
 10
118.5333333037
 20
-13.29531249667617
 30
0.0
 10
121.1791666363718
 20
45.83630641215203
 30
0.0
 10
121.1791666363718
 20
45.83630641215203
 30
0.0
 10
123.1635416358758
 20
87.72866751279005
 30
0.0
 10
145.0467881581827
 20
126.8511718432872
 30
0.0
 10
158.9925346824741
 20
144.5038411097073
 30
0.0
 10
174.7572916229773
 20
164.4578341602744
 30
0.0
 10
188.7195746055979
 20
177.3783202681554
 30
0.0
 10
200.8848957831121
 20
202.0507160953207
 30
0.0
 10
201.9873263383921
 20
205.1375216501045
 30
0.0
 10
200.5541666165281
 20
209.8779730378083
 30
0.0
 10
196.8031466521881
 20
211.8623480373122
 30
0.0
 10
191.8863063756395
 20
214.4668402241611
 30
0.0
 10
185.2579426620188
 20
216.506336751429
 30
0.0
 10
180.0489582883211
 20
219.4691188687438
 30
0.0
  0
SPLINE
  5
2D92
330
2D45
100
AcDbEntity
  8
0
 62
   250
420
  1842203
370
     9
100
AcDbSpline
210
0.0
220
0.0
230
1.0
 70
    11
 71
     3
 72
    41
 73
    37
 74
     0
 42
0.0000000001
 43
0.0000000001
 40
0.0
 40
0.0
 40
0.0
 40
0.0
 40
1.0
 40
1.0
 40
1.0
 40
2.0
 40
2.0
 40
2.0
 40
3.0
 40
3.0
 40
3.0
 40
4.0
 40
4.0
 40
4.0
 40
5.0
 40
5.0
 40
5.0
 40
6.0
 40
6.0
 40
6.0
 40
7.0
 40
7.0
 40
7.0
 40
8.0
 40
8.0
 40
8.0
 40
9.0
 40
9.0
 40
9.0
 40
10.0
 40
10.0
 40
10.0
 40
11.0
 40
11.0
 40
11.0
 40
12.0
 40
12.0
 40
12.0
 40
12.0
 10
182.4302082877258
 20
223.5150390066213
 30
0.0
 10
182.4302082877258
 20
223.5150390066213
 30
0.0
 10
177.8992187055252
 20
215.390125814208
 30
0.0
 10
177.8992187055252
 20
215.390125814208
 30
0.0
 10
175.7356987407883
 20
216.7350910916496
 30
0.0
 10
173.4922525607936
 20
217.4709634872989
 30
0.0
 10
173.2855468316786
 20
220.0065537644428
 30
0.0
 10
172.8445746095666
 20
225.4222438672556
 30
0.0
 10
172.6902343318274
 20
227.6326171305918
 30
0.0
 10
172.2327256513862
 20
232.9683810181468
 30
0.0
 10
172.0563367625415
 20
235.0409504620731
 30
0.0
 10
169.0935546452266
 20
234.8066839690761
 30
0.0
 10
166.8886935346667
 20
234.8204643510171
 30
0.0
 10
166.8886935346667
 20
234.8204643510171
 30
0.0
 10
168.4183159301176
 20
243.7225910849027
 30
0.0
 10
168.4183159301176
 20
243.7225910849027
 30
0.0
 10
168.4183159301176
 20
243.7225910849027
 30
0.0
 10
177.0723957890652
 20
243.7225910849027
 30
0.0
 10
177.0723957890652
 20
243.7225910849027
 30
0.0
 10
177.0723957890652
 20
243.7225910849027
 30
0.0
 10
177.0200303376894
 20
241.9724825783958
 30
0.0
 10
177.0200303376894
 20
241.9724825783958
 30
0.0
 10
176.9897134974192
 20
241.4901692104608
 30
0.0
 10
177.179882768205
 20
241.4019747660384
 30
0.0
 10
177.4306857195312
 20
241.1373914327712
 30
0.0
 10
179.4426214829171
 20
239.0923827527269
 30
0.0
 10
180.903341968663
 20
237.190690044869
 30
0.0
 10
181.1624131491538
 20
234.0983723373088
 30
0.0
 10
181.5124348504552
 20
229.8925997689158
 30
0.0
 10
181.606141447654
 20
228.7901692136358
 30
0.0
 10
182.033333287825
 20
224.7111761591
 30
0.0
 10
182.033333287825
 20
224.7111761591
 30
0.0
 10
182.10223519753
 20
223.9615233815096
 30
0.0
 10
182.4302082877258
 20
223.5150390066213
 30
0.0
 10
182.4302082877258
 20
223.5150390066213
 30
0.0
 10
182.4302082877258
 20
223.5150390066213
 30
0.0
 10
182.4302082877258
 20
223.5150390066213
 30
0.0
  0
SPLINE
  5
2D93
330
2D45
100
AcDbEntity
  8
0
 62
   250
420
  1842203
370
     9
100
AcDbSpline
210
0.0
220
0.0
230
1.0
 70
     8
 71
     3
 72
    14
 73
    10
 74
     0
 42
0.0000000001
 43
0.0000000001
 40
0.0
 40
0.0
 40
0.0
 40
0.0
 40
1.0
 40
1.0
 40
1.0
 40
2.0
 40
2.0
 40
2.0
 40
3.0
 40
3.0
 40
3.0
 40
3.0
 10
275.9604165976766
 20
291.0168619064125
 30
0.0
 10
275.9604165976766
 20
291.0168619064125
 30
0.0
 10
185.7815971757768
 20
291.0168619064125
 30
0.0
 10
185.7815971757768
 20
291.0168619064125
 30
0.0
 10
181.923090232297
 20
291.0168619064125
 30
0.0
 10
180.2694443993771
 20
288.3379556570822
 30
0.0
 10
179.7182291217371
 20
285.0637369079008
 30
0.0
 10
175.7853081157759
 20
261.8520615664814
 30
0.0
 10
175.6833332894125
 20
260.9976778861395
 30
0.0
 10
172.7729166234734
 20
241.7382160853988
 30
0.0
  0
SPLINE
  5
2D94
330
2D45
100
AcDbEntity
  8
0
 62
   250
420
  1842203
370
     9
100
AcDbSpline
210
0.0
220
0.0
230
1.0
 70
    11
 71
     3
 72
    32
 73
    28
 74
     0
 42
0.0000000001
 43
0.0000000001
 40
0.0
 40
0.0
 40
0.0
 40
0.0
 40
1.0
 40
1.0
 40
1.0
 40
2.0
 40
2.0
 40
2.0
 40
3.0
 40
3.0
 40
3.0
 40
4.0
 40
4.0
 40
4.0
 40
5.0
 40
5.0
 40
5.0
 40
6.0
 40
6.0
 40
6.0
 40
7.0
 40
7.0
 40
7.0
 40
8.0
 40
8.0
 40
8.0
 40
9.0
 40
9.0
 40
9.0
 40
9.0
 10
352.5159504327044
 20
-91.82419702565507
 30
0.0
 10
356.5287976539234
 20
-89.60279945676596
 30
0.0
 10
358.9734374102567
 20
-89.54767792900197
 30
0.0
 10
361.4566622360247
 20
-89.74887150534057
 30
0.0
 10
362.3992403607891
 20
-89.74887150534057
 30
0.0
 10
362.8760415759477
 20
-89.26655813740557
 30
0.0
 10
362.8760415759477
 20
-88.15861542934923
 30
0.0
 10
362.8760415759477
 20
-87.33179251288929
 30
0.0
 10
362.8760415759477
 20
-68.59598522590656
 30
0.0
 10
362.8760415759477
 20
-45.62408853026065
 30
0.0
 10
362.8760415759477
 20
-44.89372828738768
 30
0.0
 10
362.1429252566865
 20
-44.59607203746209
 30
0.0
 10
361.4539061596365
 20
-44.5767795027447
 30
0.0
 10
350.7630858498093
 20
-44.23778210699611
 30
0.0
 10
347.009309809081
 20
-44.12202689869171
 30
0.0
 10
335.3180337703372
 20
-43.75822481544933
 30
0.0
 10
334.4994790830418
 20
-43.73617620434373
 30
0.0
 10
334.1522134581286
 20
-44.3838541555707
 30
0.0
 10
334.281749048374
 20
-44.99845919013927
 30
0.0
 10
337.6965276933537
 20
-61.18213974164891
 30
0.0
 10
339.4025389776494
 20
-67.28684894151162
 30
0.0
 10
341.8885198798057
 20
-81.09479164639298
 30
0.0
 10
343.4319226571976
 20
-89.65240883175356
 30
0.0
 10
350.3744790790731
 20
-93.01482202535741
 30
0.0
 10
352.5159504327044
 20
-91.82419702565507
 30
0.0
 10
352.5159504327044
 20
-91.82419702565507
 30
0.0
 10
352.5159504327044
 20
-91.82419702565507
 30
0.0
 10
352.5159504327044
 20
-91.82419702565507
 30
0.0
  0
SPLINE
  5
2D95
330
2D45
100
AcDbEntity
  8
0
 62
   250
420
  1842203
370
     9
100
AcDbSpline
210
0.0
220
0.0
230
1.0
 70
    11
 71
     3
 72
    20
 73
    16
 74
     0
 42
0.0000000001
 43
0.0000000001
 40
0.0
 40
0.0
 40
0.0
 40
0.0
 40
1.0
 40
1.0
 40
1.0
 40
2.0
 40
2.0
 40
2.0
 40
3.0
 40
3.0
 40
3.0
 40
4.0
 40
4.0
 40
4.0
 40
5.0
 40
5.0
 40
5.0
 40
5.0
 10
116.3670572625749
 20
-88.75668400558861
 30
0.0
 10
116.3670572625749
 20
-84.27254772198741
 30
0.0
 10
120.0050780949987
 20
-80.63452688956358
 30
0.0
 10
124.4947265313763
 20
-80.63452688956358
 30
0.0
 10
128.9816188913657
 20
-80.63452688956358
 30
0.0
 10
132.6196397237895
 20
-84.27254772198741
 30
0.0
 10
132.6196397237895
 20
-88.75668400558861
 30
0.0
 10
132.6196397237895
 20
-93.2490885183544
 30
0.0
 10
128.9816188913657
 20
-96.88710935077823
 30
0.0
 10
124.4947265313763
 20
-96.88710935077823
 30
0.0
 10
120.0050780949987
 20
-96.88710935077823
 30
0.0
 10
116.3670572625749
 20
-93.2490885183544
 30
0.0
 10
116.3670572625749
 20
-88.75668400558861
 30
0.0
 10
116.3670572625749
 20
-88.75668400558861
 30
0.0
 10
116.3670572625749
 20
-88.75668400558861
 30
0.0
 10
116.3670572625749
 20
-88.75668400558861
 30
0.0
  0
ENDBLK
  5
2D96
330
2D45
100
AcDbEntity
  8
0
100
AcDbBlockEnd
  0
BLOCK
  5
63A5
330
634F
100
AcDbEntity
  8
0
100
AcDbBlockBegin
  2
A$C21083016
 70
     0
 10
0.0
 20
0.0
 30
0.0
  3
A$C21083016
  1

  0
LINE
  5
6350
330
634F
100
AcDbEntity
  8
0
  6
AM_DIN_F_W050
 62
     6
 48
5.0
100
AcDbLine
 10
475.5460642648065
 20
27.04205956696912
 30
0.0
 11
491.5429671987381
 21
27.04037673142043
 31
0.0
  0
LINE
  5
6351
330
634F
100
AcDbEntity
  8
0
  6
AM_DIN_F_W050
 62
     6
 48
5.0
100
AcDbLine
 10
492.5430723907874
 20
28.04048193708863
 30
0.0
 11
492.5389173701157
 21
67.53267089380436
 31
0.0
  0
ARC
  5
6352
330
634F
100
AcDbEntity
  8
0
  6
AM_DIN_F_W050
 62
     6
 48
5.0
100
AcDbCircle
 10
491.5430723963221
 20
28.04037672588716
 30
0.0
 40
1.0
100
AcDbArc
 50
269.9939726224145
 51
0.0060281578127578
1001
GENIUS_GENODEF_13
1002
{
1000
HIER
1070
     0
1002
}
1002
{
1000
MANEDIT
1070
     0
1002
}
1002
{
1000
NOSEL
1070
     0
1002
}
1002
{
1000
BEHIND
1070
     0
1002
}
1002
{
1000
OTHER
1070
     0
1002
}
1002
{
1000
REACTOR
1002
}
1001
GENIUS_GENOBJ-N-FIL_13
1002
{
1000
OWNER
1000
GEN
1002
}
  0
ARC
  5
6353
330
634F
100
AcDbEntity
  8
0
  6
AM_DIN_F_W050
 62
     6
 48
5.0
100
AcDbCircle
 10
491.5389173756503
 20
67.53256568260289
 30
0.0
 40
1.0
100
AcDbArc
 50
0.0060281578127578
 51
89.99397262254474
1001
GENIUS_GENOBJ-N-FIL_13
1002
{
1000
OWNER
1000
GEN
1002
}
1001
GENIUS_GENODEF_13
1002
{
1000
HIER
1070
     0
1002
}
1002
{
1000
MANEDIT
1070
     0
1002
}
1002
{
1000
NOSEL
1070
     0
1002
}
1002
{
1000
BEHIND
1070
     0
1002
}
1002
{
1000
OTHER
1070
     0
1002
}
1002
{
1000
REACTOR
1002
}
  0
LINE
  5
6354
330
634F
100
AcDbEntity
  8
0
  6
AM_DIN_F_W050
 62
     6
 48
5.0
100
AcDbLine
 10
474.5420144472533
 20
67.53414330691372
 30
0.0
 11
474.5461694679252
 21
28.04195435023437
 31
0.0
  0
ARC
  5
6355
330
634F
100
AcDbEntity
  8
0
  6
AM_DIN_F_W050
 62
     6
 48
5.0
100
AcDbCircle
 10
475.5461694623904
 20
28.04205956143584
 30
0.0
 40
1.0
100
AcDbArc
 50
180.0060281578129
 51
269.9939726224145
1001
GENIUS_GENOBJ-N-FIL_13
1002
{
1000
OWNER
1000
GEN
1002
}
1001
GENIUS_GENODEF_13
1002
{
1000
HIER
1070
     0
1002
}
1002
{
1000
MANEDIT
1070
     0
1002
}
1002
{
1000
NOSEL
1070
     0
1002
}
1002
{
1000
BEHIND
1070
     0
1002
}
1002
{
1000
OTHER
1070
     0
1002
}
1002
{
1000
REACTOR
1002
}
  0
ARC
  5
6356
330
634F
100
AcDbEntity
  8
0
  6
AM_DIN_F_W050
 62
     6
 48
5.0
100
AcDbCircle
 10
475.5420144417185
 20
67.53424851811519
 30
0.0
 40
1.0
100
AcDbArc
 50
89.99397262254474
 51
180.0060281578129
1001
GENIUS_GENODEF_13
1002
{
1000
HIER
1070
     0
1002
}
1002
{
1000
MANEDIT
1070
     0
1002
}
1002
{
1000
NOSEL
1070
     0
1002
}
1002
{
1000
BEHIND
1070
     0
1002
}
1002
{
1000
OTHER
1070
     0
1002
}
1002
{
1000
REACTOR
1002
}
1001
GENIUS_GENOBJ-N-FIL_13
1002
{
1000
OWNER
1000
GEN
1002
}
  0
LINE
  5
6357
330
634F
100
AcDbEntity
  8
0
  6
AM_DIN_F_W050
 62
     6
 48
5.0
100
AcDbLine
 10
491.539022573232
 20
68.53256567706963
 30
0.0
 11
475.5421196393002
 21
68.53424851258193
 31
0.0
  0
LINE
  5
6358
330
634F
100
AcDbEntity
  8
0
  6
AM_DIN_F_W050
 62
     6
 48
5.0
100
AcDbLine
 10
393.9700792867524
 20
55.17445149882355
 30
0.0
 11
391.7919872451211
 21
59.45490443876166
 31
0.0
  0
CIRCLE
  5
6359
330
634F
100
AcDbEntity
  8
0
  6
AM_DIN_F_W050
 62
     6
 48
5.0
100
AcDbCircle
 10
426.439892970029
 20
54.83439433829961
 30
0.0
 40
8.000000000309997
  0
CIRCLE
  5
635A
330
634F
100
AcDbEntity
  8
0
  6
AM_DIN_F_W050
 62
     6
 48
5.0
100
AcDbCircle
 10
426.439892970029
 20
54.83439433829961
 30
0.0
 40
9.900000000489999
  0
LINE
  5
635B
330
634F
100
AcDbEntity
  8
0
100
AcDbLine
 10
444.860716135329
 20
53.41221736475961
 30
0.0
 11
439.7957800168573
 21
78.94421252426366
 31
0.0
  0
ARC
  5
635C
330
634F
100
AcDbEntity
  8
0
  6
AM_DIN_F_W050
 62
     6
 48
5.0
100
AcDbCircle
 10
-7226.729879010097
 20
-3632.92268247524
 30
0.0
 40
8461.083544421926
100
AcDbArc
 50
25.82504673079835
 51
25.85770031130314
  0
LINE
  5
635D
330
634F
100
AcDbEntity
  8
0
100
AcDbLine
 10
46.88563520285373
 20
28.77974425803115
 30
0.0
 11
337.0579531134943
 21
28.83430164709907
 31
0.0
  0
ARC
  5
635E
330
634F
100
AcDbEntity
  8
0
100
AcDbCircle
 10
337.0579531134826
 20
122.4443016470984
 30
0.0
 40
93.6099999999994
100
AcDbArc
 50
270.0000000000065
 51
291.9534437431747
1001
GENIUS_GENODEF_13
1002
{
1000
HIER
1070
     0
1002
}
1002
{
1000
MANEDIT
1070
     0
1002
}
1002
{
1000
NOSEL
1070
     0
1002
}
1002
{
1000
BEHIND
1070
     0
1002
}
1002
{
1000
OTHER
1070
     0
1002
}
1002
{
1000
REACTOR
1002
}
1001
GENIUS_GENOBJ-N-FIL_13
1002
{
1000
OWNER
1000
GEN
1002
}
  0
LINE
  5
635F
330
634F
100
AcDbEntity
  8
0
100
AcDbLine
 10
86.57537601780234
 20
23.83644758004529
 30
0.0
 11
108.2214646619489
 21
23.83633495499679
 31
0.0
  0
ARC
  5
6360
330
634F
100
AcDbEntity
  8
0
100
AcDbCircle
 10
86.44669811068173
 20
31.88686777517087
 30
0.0
 40
8.05144852320792
100
AcDbArc
 50
202.6535692421069
 51
270.9157376922869
  0
ARC
  5
6361
330
634F
100
AcDbEntity
  8
0
100
AcDbCircle
 10
108.3502385521837
 20
31.88675361535606
 30
0.0
 40
8.05144852320792
100
AcDbArc
 50
269.0835791846316
 51
337.3457476347964
  0
LINE
  5
6362
330
634F
100
AcDbEntity
  8
0
100
AcDbLine
 10
250.2508584405536
 20
23.86722138727717
 30
0.0
 11
273.2435241049025
 21
23.88522477848653
 31
0.0
  0
ARC
  5
6363
330
634F
100
AcDbEntity
  8
0
100
AcDbCircle
 10
250.1221805334335
 20
31.91764158240278
 30
0.0
 40
8.05144852320792
100
AcDbArc
 50
202.6535692421069
 51
270.9157376922803
  0
ARC
  5
6364
330
634F
100
AcDbEntity
  8
0
100
AcDbCircle
 10
273.3722626468762
 20
31.93564343905643
 30
0.0
 40
8.05144852320792
100
AcDbArc
 50
269.0835791846316
 51
337.3457476347964
  0
ARC
  5
6365
330
634F
100
AcDbEntity
  8
0
  6
AM_DIN_F_W050
 62
     6
 48
5.0
100
AcDbCircle
 10
48.23812133987246
 20
1.601217973884391
 30
0.0
 40
34.4899755645231
100
AcDbArc
 50
19.00761866906562
 51
92.41067926973455
  0
LINE
  5
6366
330
634F
100
AcDbEntity
  8
0
100
AcDbLine
 10
531.4579214325781
 20
123.1986697877974
 30
0.0
 11
418.8709976485939
 21
68.84173321532796
 31
0.0
  0
ARC
  5
6367
330
634F
100
AcDbEntity
  8
0
100
AcDbCircle
 10
425.4084285916319
 20
53.86010035057093
 30
0.0
 40
16.34586573508295
100
AcDbArc
 50
113.5746777617971
 51
176.2651938455156
  0
ARC
  5
6368
330
634F
100
AcDbEntity
  8
0
100
AcDbCircle
 10
406.1791957691999
 20
55.19017244505292
 30
0.0
 40
2.930119508267274
100
AcDbArc
 50
295.1120137260462
 51
354.8046646321839
  0
ARC
  5
6369
330
634F
100
AcDbEntity
  8
0
  6
AM_DIN_F_W050
 62
     6
 48
5.0
100
AcDbCircle
 10
384.6161778105571
 20
6.296213096709273
 30
0.0
 40
39.98444131734589
100
AcDbArc
 50
113.0301146294374
 51
170.5888429047195
  0
ARC
  5
636A
330
634F
100
AcDbEntity
  8
0
  6
AM_DIN_F_W050
 62
     6
 48
5.0
100
AcDbCircle
 10
384.8590078685413
 20
56.12493925055004
 30
0.0
 40
2.634647753676065
100
AcDbArc
 50
25.84779144501327
 51
109.015603444721
  0
ARC
  5
636B
330
634F
100
AcDbEntity
  8
0
  6
AM_DIN_F_W050
 62
     6
 48
5.0
100
AcDbCircle
 10
394.2271151243149
 20
60.58773288614716
 30
0.0
 40
2.685730455431485
100
AcDbArc
 50
117.9349271428095
 51
204.9479834266722
  0
ARC
  5
636C
330
634F
100
AcDbEntity
  8
0
100
AcDbCircle
 10
435.927681064343
 20
80.86507370252508
 30
0.0
 40
2.634647753676065
100
AcDbArc
 50
25.84779144501327
 51
109.0156034447209
  0
ARC
  5
636D
330
634F
100
AcDbEntity
  8
0
100
AcDbCircle
 10
445.2957883201166
 20
85.32786733812219
 30
0.0
 40
2.685730455431485
100
AcDbArc
 50
117.9349271428095
 51
204.9479834266722
  0
LINE
  5
636E
330
634F
100
AcDbEntity
  8
0
100
AcDbLine
 10
438.2987466009096
 20
82.01373248878702
 30
0.0
 11
439.8027210081833
 21
78.90922318836235
 31
0.0
  0
LINE
  5
636F
330
634F
100
AcDbEntity
  8
0
100
AcDbLine
 10
442.8606604409229
 20
84.1950388907367
 30
0.0
 11
444.3782968081126
 21
81.15665040064138
 31
0.0
  0
LINE
  5
6370
330
634F
100
AcDbEntity
  8
0
100
AcDbLine
 10
389.7384293502099
 20
28.2805106800687
 30
0.0
 11
377.4359675998743
 21
27.35864489582822
 31
0.0
  0
ARC
  5
6371
330
634F
100
AcDbEntity
  8
0
100
AcDbCircle
 10
459.2219548134928
 20
32.78236979539963
 30
0.0
 40
3.0
100
AcDbArc
 50
270.0
 51
358.9993608586504
1001
GENIUS_GENOBJ-N-FIL_13
1002
{
1000
OWNER
1000
GEN
1002
}
1001
GENIUS_GENODEF_13
1002
{
1000
HIER
1070
     0
1002
}
1002
{
1000
MANEDIT
1070
     0
1002
}
1002
{
1000
NOSEL
1070
     0
1002
}
1002
{
1000
BEHIND
1070
     0
1002
}
1002
{
1000
OTHER
1070
     0
1002
}
1002
{
1000
REACTOR
1002
}
  0
ARC
  5
6372
330
634F
100
AcDbEntity
  8
0
100
AcDbCircle
 10
400.215293761043
 20
23.88471606588557
 30
0.0
 40
11.3616767324662
100
AcDbArc
 50
130.3110237843118
 51
157.2384630932949
  0
ARC
  5
6373
330
634F
100
AcDbEntity
  8
0
100
AcDbCircle
 10
379.8000259665999
 20
45.85718205296332
 30
0.0
 40
18.64979944388926
100
AcDbArc
 50
314.4705761575887
 51
330.7227359223326
  0
ARC
  5
6374
330
634F
100
AcDbEntity
  8
0
100
AcDbCircle
 10
384.2843044044012
 20
43.27718507937866
 30
0.0
 40
13.47673766163869
100
AcDbArc
 50
330.9670327227091
 51
13.14669483749477
  0
ARC
  5
6375
330
634F
100
AcDbEntity
  8
0
100
AcDbCircle
 10
393.596324481478
 20
24.12754280549061
 30
0.0
 40
5.668376929169348
100
AcDbArc
 50
86.03755274220693
 51
132.890516524684
  0
LINE
  5
6376
330
634F
100
AcDbEntity
  8
0
100
AcDbLine
 10
462.2214973147243
 20
32.72997911582518
 30
0.0
 11
463.2262674318777
 21
90.2564455569729
 31
0.0
  0
LINE
  5
6377
330
634F
100
AcDbEntity
  8
0
  6
AM_DIN_G_W050
 62
     4
 48
2.0
100
AcDbLine
 10
426.4710052258193
 20
67.22276972502493
 30
0.0
 11
426.479920228881
 21
42.44604454854025
 31
0.0
  0
LINE
  5
6378
330
634F
100
AcDbEntity
  8
0
  6
AM_DIN_G_W050
 62
     4
 48
2.0
100
AcDbLine
 10
438.8638261175207
 20
54.83441993526557
 30
0.0
 11
414.0870993371795
 21
54.83439433829961
 31
0.0
  0
LWPOLYLINE
  5
6379
330
634F
100
AcDbEntity
  8
0
100
AcDbPolyline
 90
        8
 70
     1
 43
0.0
 10
475.539892970729
 20
69.73439433829963
 10
491.5043872983186
 20
69.73439433829963
 42
0.4142135623730951
 10
492.5043872983186
 20
70.73439433829964
 10
492.5043872983186
 20
82.08325037650217
 42
0.4142135623730951
 10
491.5043872983186
 20
83.08325037650218
 10
475.539892970729
 20
83.08325037650218
 42
0.4142135623730951
 10
474.539892970729
 20
82.08325037650217
 10
474.539892970729
 20
70.73439433829964
 42
0.4142135623730951
1001
GENIUS_GENREC_14
1002
{
1000
PYDIR
1011
474.539892970729
1021
83.08325037650218
1031
0.0
1002
}
1002
{
1000
PXDIR
1011
492.5043872983186
1021
69.73439433829963
1031
0.0
1002
}
1002
{
1000
PORI
1011
474.539892970729
1021
69.73439433829963
1031
0.0
1002
}
1002
{
1000
PINS
1011
474.539892970729
1021
69.73439433829963
1031
0.0
1002
}
1002
{
1000
PINS2
1011
492.5043872983186
1021
83.08325037650218
1031
0.0
1002
}
1002
{
1000
C
1070
     1
1002
}
1001
GENIUS_GENODEF_13
1002
{
1000
HIER
1070
     0
1002
}
1002
{
1000
MANEDIT
1070
     0
1002
}
1002
{
1000
NOSEL
1070
     0
1002
}
1002
{
1000
BEHIND
1070
     0
1002
}
1002
{
1000
OTHER
1070
     0
1002
}
1002
{
1000
REACTOR
1002
}
1001
GENIUS_GENOBJ-N-REC_13
1002
{
1000
OWNER
1000
GEN
1002
}
  0
CIRCLE
  5
637A
330
634F
100
AcDbEntity
  8
0
  6
AM_DIN_F_W050
 62
     6
 48
5.0
100
AcDbCircle
 10
483.5400349205291
 20
61.94064832783966
 30
0.0
 40
4.842439800186997
  0
CIRCLE
  5
637B
330
634F
100
AcDbEntity
  8
0
  6
AM_DIN_F_W050
 62
     6
 48
5.0
100
AcDbCircle
 10
483.548862210729
 20
48.9564428419696
 30
0.0
 40
4.842439800186997
  0
CIRCLE
  5
637C
330
634F
100
AcDbEntity
  8
0
  6
AM_DIN_F_W050
 62
     6
 48
5.0
100
AcDbCircle
 10
483.5502296988291
 20
35.95888966439964
 30
0.0
 40
4.842439800186997
  0
LWPOLYLINE
  5
637D
330
634F
100
AcDbEntity
  8
0
  6
AM_DIN_F_W050
 62
     6
 48
5.0
100
AcDbPolyline
 90
        4
 70
     1
 43
0.0
 10
426.6049895423894
 20
29.78236979539964
 10
437.2724795214197
 20
29.78236979539964
 10
437.2724795214197
 20
36.32508476456986
 10
426.6049895423894
 20
37.22154358001888
1001
GENIUS_GENREC_14
1002
{
1000
PYDIR
1011
426.6049895423894
1021
37.22154358001888
1031
0.0
1002
}
1002
{
1000
PXDIR
1011
437.2724795214197
1021
29.78236979539964
1031
0.0
1002
}
1002
{
1000
PORI
1011
426.6049895423894
1021
29.78236979539964
1031
0.0
1002
}
1002
{
1000
PINS
1011
426.6049895423894
1021
29.78236979539964
1031
0.0
1002
}
1002
{
1000
PINS2
1011
437.2724795214197
1021
36.32508476456986
1031
0.0
1002
}
1002
{
1000
C
1070
     1
1002
}
1001
GENIUS_GENODEF_13
1002
{
1000
HIER
1070
     0
1002
}
1002
{
1000
MANEDIT
1070
     0
1002
}
1002
{
1000
NOSEL
1070
     0
1002
}
1002
{
1000
BEHIND
1070
     0
1002
}
1002
{
1000
OTHER
1070
     0
1002
}
1002
{
1000
REACTOR
1002
}
1001
GENIUS_GENOBJ-N-REC_13
1002
{
1000
OWNER
1000
GEN
1002
}
  0
ARC
  5
637E
330
634F
100
AcDbEntity
  8
0
100
AcDbCircle
 10
425.9131448976336
 20
52.88579373953766
 30
0.0
 40
15.95617044214916
100
AcDbArc
 50
1.885140748610535
 51
117.0764963519693
  0
LINE
  5
637F
330
634F
100
AcDbEntity
  8
0
100
AcDbLine
 10
459.2219548134928
 20
29.78236979539964
 30
0.0
 11
393.988024271286
 21
29.78236979539964
 31
0.0
  0
LINE
  5
6380
330
634F
100
AcDbEntity
  8
0
100
AcDbLine
 10
444.860716135329
 20
53.41221736475961
 30
0.0
 11
441.8606795554109
 21
53.41068755537698
 31
0.0
  0
ARC
  5
6381
330
634F
100
AcDbEntity
  8
0
100
AcDbCircle
 10
426.4754627273502
 20
54.83440713678259
 30
0.0
 40
15.47232192379394
100
AcDbArc
 50
238.1840214543077
 51
354.7203755073752
  0
ARC
  5
6382
330
634F
100
AcDbEntity
  8
0
100
AcDbCircle
 10
401.9781092390175
 20
17.71680012421534
 30
0.0
 40
29.00990673162061
100
AcDbArc
 50
55.71764521988925
 51
104.2109710885651
  0
LINE
  5
6383
330
634F
100
AcDbEntity
  8
0
  6
AM_DIN_F_W050
 62
     6
 48
5.0
100
AcDbLine
 10
412.8056545972684
 20
64.26958709470752
 30
0.0
 11
368.9736689457506
 21
43.09386878120544
 31
0.0
  0
LINE
  5
6384
330
634F
100
AcDbEntity
  8
0
100
AcDbLine
 10
412.8056545972684
 20
64.26958709470752
 30
0.0
 11
418.6502201927285
 21
67.09316154324406
 31
0.0
  0
LINE
  5
6385
330
634F
100
AcDbEntity
  8
0
100
AcDbLine
 10
397.002190209365
 20
6.676530459207789
 30
0.0
 11
422.5096934719261
 21
23.82897938311428
 31
0.0
  0
LINE
  5
6386
330
634F
100
AcDbEntity
  8
0
  6
AM_DIN_F_W050
 62
     6
 48
5.0
100
AcDbLine
 10
342.6832939674223
 20
36.06067017239678
 30
0.0
 11
16.93205222577228
 21
36.06067017239619
 31
0.0
  0
ELLIPSE
  5
6387
330
634F
100
AcDbEntity
  8
0
  6
AM_DIN_F_W050
 62
     6
 48
5.0
100
AcDbEllipse
 10
350.517308880383
 20
25.1512994477241
 30
0.0
 11
3.683002233017375
 21
335.684010257567
 31
0.0
210
0.0
220
0.0
230
1.0
 40
0.9999999908555269
 41
1.55506594165708
 42
1.570958852679244
  0
ARC
  5
6388
330
634F
100
AcDbEntity
  8
0
  6
AM_DIN_F_W050
 62
     6
 48
5.0
100
AcDbCircle
 10
16.93205222577228
 20
34.06067017239619
 30
0.0
 40
2.0
100
AcDbArc
 50
90.00000000070999
 51
178.4701122067582
1001
GENIUS_GENODEF_13
1002
{
1000
HIER
1070
     0
1002
}
1002
{
1000
MANEDIT
1070
     0
1002
}
1002
{
1000
NOSEL
1070
     0
1002
}
1002
{
1000
BEHIND
1070
     0
1002
}
1002
{
1000
OTHER
1070
     0
1002
}
1002
{
1000
REACTOR
1002
}
1001
GENIUS_GENOBJ-N-FIL_13
1002
{
1000
OWNER
1000
GEN
1002
}
  0
ARC
  5
6389
330
634F
100
AcDbEntity
  8
0
  6
AM_DIN_F_W050
 62
     6
 48
5.0
100
AcDbCircle
 10
338.1643127627461
 20
105.6066317160363
 30
0.0
 40
69.69262484766662
100
AcDbArc
 50
273.7177582234342
 51
296.2363393920611
  0
ELLIPSE
  5
638A
330
634F
100
AcDbEntity
  8
0
  6
AM_DIN_F_W050
 62
     6
 48
5.0
100
AcDbEllipse
 10
424.1350861332978
 20
142.0251855289563
 30
0.0
 11
317.4390572807155
 21
-109.2234597546762
 31
0.0
210
0.0
220
0.0
230
1.0
 40
0.9999999908555269
 41
1.534397580045986
 42
1.570796326794674
  0
LINE
  5
638B
330
634F
100
AcDbEntity
  8
0
  6
AM_DIN_F_W050
 62
     6
 48
5.0
100
AcDbLine
 10
546.616226622926
 20
451.5642358103796
 30
0.0
 11
443.0009671199739
 21
134.8720207412288
 31
0.0
  0
ARC
  5
638C
330
634F
100
AcDbEntity
  8
0
  6
AM_DIN_F_W050
 62
     6
 48
5.0
100
AcDbCircle
 10
490.5221304251567
 20
119.3240614499859
 30
0.0
 40
50.0
100
AcDbArc
 50
161.8829550170169
 51
187.4892356834882
1001
GENIUS_GENODEF_13
1002
{
1000
HIER
1070
     0
1002
}
1002
{
1000
MANEDIT
1070
     0
1002
}
1002
{
1000
NOSEL
1070
     0
1002
}
1002
{
1000
BEHIND
1070
     0
1002
}
1002
{
1000
OTHER
1070
     0
1002
}
1002
{
1000
REACTOR
1002
}
1001
GENIUS_GENOBJ-N-FIL_13
1002
{
1000
OWNER
1000
GEN
1002
}
  0
ARC
  5
638D
330
634F
100
AcDbEntity
  8
0
  6
AM_DIN_F_W050
 62
     6
 48
5.0
100
AcDbCircle
 10
543.7593777455281
 20
452.4798855751504
 30
0.0
 40
3.0
100
AcDbArc
 50
342.228805154777
 51
68.9273465662749
  0
LINE
  5
638E
330
634F
100
AcDbEntity
  8
0
  6
AM_DIN_F_W050
 62
     6
 48
5.0
100
AcDbLine
 10
520.7592945239444
 20
421.4978269539832
 30
0.0
 11
429.9506363666235
 21
147.8562280211595
 31
0.0
  0
ARC
  5
638F
330
634F
100
AcDbEntity
  8
0
  6
AM_DIN_F_W050
 62
     6
 48
5.0
100
AcDbCircle
 10
518.7962697133666
 20
118.3725794135672
 30
0.0
 40
93.6099999999994
100
AcDbArc
 50
161.6414442384804
 51
183.5948879816486
1001
GENIUS_GENODEF_13
1002
{
1000
HIER
1070
     0
1002
}
1002
{
1000
MANEDIT
1070
     0
1002
}
1002
{
1000
NOSEL
1070
     0
1002
}
1002
{
1000
BEHIND
1070
     0
1002
}
1002
{
1000
OTHER
1070
     0
1002
}
1002
{
1000
REACTOR
1002
}
1001
GENIUS_GENOBJ-N-FIL_13
1002
{
1000
OWNER
1000
GEN
1002
}
  0
LINE
  5
6390
330
634F
100
AcDbEntity
  8
0
  6
AM_DIN_F_W050
 62
     6
 48
5.0
100
AcDbLine
 10
440.9486621154979
 20
112.8070652284709
 30
0.0
 11
450.8274629836519
 21
37.66103090086154
 31
0.0
  0
LINE
  5
6391
330
634F
100
AcDbEntity
  8
0
  6
AM_DIN_F_W050
 62
     6
 48
5.0
100
AcDbLine
 10
533.3585448891828
 20
459.4642399068588
 30
0.0
 11
520.7592945239444
 21
421.4978269539832
 31
0.0
  0
LINE
  5
6392
330
634F
100
AcDbEntity
  8
0
  6
AM_DIN_F_W050
 62
     6
 48
5.0
100
AcDbLine
 10
427.7918614453855
 20
93.33793979056713
 30
0.0
 11
425.370463608784
 21
112.5030944524457
 31
0.0
  0
ARC
  5
6393
330
634F
100
AcDbEntity
  8
0
  6
AM_DIN_F_W050
 62
     6
 48
5.0
100
AcDbCircle
 10
448.1929884652453
 20
37.63081835683378
 30
0.0
 40
2.634647753676065
100
AcDbArc
 50
277.4892356834916
 51
0.65704768319539
  0
LINE
  5
6394
330
634F
100
AcDbEntity
  8
0
  6
AM_DIN_F_W050
 62
     6
 48
5.0
100
AcDbLine
 10
448.5363882543598
 20
35.01864581835427
 30
0.0
 11
443.7164129899627
 21
34.38500525099156
 31
0.0
  0
ARC
  5
6395
330
634F
100
AcDbEntity
  8
0
  6
AM_DIN_F_W050
 62
     6
 48
5.0
100
AcDbCircle
 10
424.7919438803722
 20
55.9480821868479
 30
0.0
 40
15.9561704421492
100
AcDbArc
 50
253.5265849870852
 51
6.260530776532458
  0
ARC
  5
6396
330
634F
100
AcDbEntity
  8
0
  6
AM_DIN_F_W050
 62
     6
 48
5.0
100
AcDbCircle
 10
426.4642717313392
 20
54.8006437037823
 30
0.0
 40
15.47232192379394
100
AcDbArc
 50
129.8254656927838
 51
246.3618197458469
  0
ARC
  5
6397
330
634F
100
AcDbEntity
  8
0
  6
AM_DIN_F_W050
 62
     6
 48
5.0
100
AcDbCircle
 10
398.4272725876934
 20
90.02140337367663
 30
0.0
 40
29.55128580258157
100
AcDbArc
 50
307.8381461489684
 51
6.443872758571263
  0
LINE
  5
6398
330
634F
100
AcDbEntity
  8
0
  6
AM_DIN_F_W050
 62
     6
 48
5.0
100
AcDbLine
 10
438.0182089293468
 20
77.73008768150964
 30
0.0
 11
443.7164129899627
 21
34.38500525099156
 31
0.0
  0
ARC
  5
6399
330
634F
100
AcDbEntity
  8
0
  6
AM_DIN_F_W050
 62
     6
 48
5.0
100
AcDbCircle
 10
420.7431640671317
 20
75.30016017137445
 30
0.0
 40
17.44510598122156
100
AcDbArc
 50
8.006759382788255
 51
54.57946550030031
  0
ARC
  5
639A
330
634F
100
AcDbEntity
  8
0
  6
AM_DIN_F_W050
 62
     6
 48
5.0
100
AcDbCircle
 10
433.0401145212637
 20
94.40578571526945
 30
0.0
 40
5.355787081967337
100
AcDbArc
 50
191.5008047756892
 51
245.9081802041364
  0
LINE
  5
639B
330
634F
100
AcDbEntity
  8
0
100
AcDbLine
 10
385.4651374594018
 20
23.83334648970874
 30
0.0
 11
429.414249370103
 21
23.82816541920593
 31
0.0
  0
LINE
  5
639C
330
634F
100
AcDbEntity
  8
0
100
AcDbLine
 10
389.7385233987206
 20
44.07958201004817
 30
0.0
 11
407.4227071135127
 21
52.53700832097503
 31
0.0
  0
LINE
  5
639D
330
634F
100
AcDbEntity
  8
0
100
AcDbLine
 10
547.8312127367188
 20
23.81420548670088
 30
0.0
 11
547.8312127367188
 21
23.81420548676117
 31
0.0
  0
LINE
  5
639E
330
634F
100
AcDbEntity
  8
0
  6
AM_DIN_G_W050
 62
     4
 48
2.0
100
AcDbLine
 10
483.5502296988291
 20
35.95888966439964
 30
0.0
 11
483.5502296988291
 21
6.644248188439178
 31
0.0
  0
ARC
  5
639F
330
634F
100
AcDbEntity
  8
0
  6
AM_DIN_F_W050
 62
     6
 48
5.0
100
AcDbCircle
 10
106.7527268090314
 20
35.46702748577877
 30
0.0
 40
6.676548682476148
100
AcDbArc
 50
175.2664493834213
 51
268.9398217263317
  0
ARC
  5
63A0
330
634F
100
AcDbEntity
  8
0
  6
AM_DIN_F_W050
 62
     6
 48
5.0
100
AcDbCircle
 10
113.3631698980013
 20
35.46702748577877
 30
0.0
 40
6.676548682476148
100
AcDbArc
 50
271.0601782736683
 51
4.733550616578486
  0
LINE
  5
63A1
330
634F
100
AcDbEntity
  8
0
  6
AM_DIN_F_W050
 62
     6
 48
5.0
100
AcDbLine
 10
106.6291936621531
 20
28.79162173997602
 30
0.0
 11
113.4867030448797
 21
28.79162173997602
 31
0.0
  0
REGION
  5
63A2
330
634F
100
AcDbEntity
  8
0
100
AcDbModelerGeometry
 70
     1
  1
mogoo nlm m o         
  1
ni ^ *+0;:,4 ^ *+0\^ [ nf ^ LR mniqoqoqkjon QK o  
  1
n fqfffffffffffffffj:rooh n:rono 
  1
>,27:>;:- {rn rn _nm mniqoqoqkjon |
  1
=0;& {rn rn {rn {m {rn {rn |
  1
3*2/ {rn rn {rn {rn {l {n |
  1
,7:33 {rn rn {rn {rn {rn {k {rn {m |
  1
9><: {rn rn {rn {rn {j {l {rn {i 90-(>-; ;0*=3: 0*+ |
  1
300/ {rn rn {rn {rn {h {k |
  1
/3>1:r,*-9><: {rn rn {rn lomqioijhngmjilmf knqfhkmkkkjijikfgf o o o n n o o 90-(>-;@) V V V V |
  1
<0:;8: {rn rn {rn {g {f {rn {no -:):-,:; {j {rn |
  1
<0:;8: {rn rn {rn {nn {h {rn {nm -:):-,:; {j {rn |
  1
<0:;8: {rn rn {rn {h {nl {rn {nk -:):-,:; {j {rn |
  1
:;8: {rn rn {rn {nj o {ni ngmqkingohjigkongn {h {nh 90-(>-; _h *1410(1 |
  1
<0:;8: {rn rn {rn {ng {g {rn {nf -:):-,:; {j {rn |
  1
:;8: {rn rn {rn {mo roqmmlkimihmoilhkffm {nj oqmmlkimihmoilhjogh {g {mn 90-(>-; _h *1410(1 |
  1
<0:;8: {rn rn {rn {f {mm {rn {ml -:):-,:; {j {rn |
  1
:;8: {rn rn {rn {ni roqhhjinmfiginomihng {mk oqhhjinmfiginomifmf {f {mj 90-(>-; _h *1410(1 |
  1
):-+:' {rn rn {rn {no {mi |
  1
):-+:' {rn rn {rn {no {mh |
  1
,+->687+r<*-): {rn rn {rn liiqgjfmgffligmhig joqlnnhkgnojhllfif o oqgfffjjkmknmooiknl oqkljfgnfmoolklfmig o V V |
  1
<0:;8: {rn rn {rn {mg {nn {rn {mf -:):-,:; {j {rn |
  1
:;8: {rn rn {rn {lo o {mo llkqnnhhhhjoflhogj {nn {ln 90-(>-; _h *1410(1 |
  1
):-+:' {rn rn {rn {nf {lm |
  1
:336/,:r<*-): {rn rn {rn lkjqoionflfljnognj fjqlofjnflnnhlhokg o o o n nnqmgjmlhjohjgmhml rkgqhofhghiijmghggk o n V V |
  1
<0:;8: {rn rn {rn {nl {ll {rn {lk -:):-,:; {j {rn |
  1
:;8: {rn rn {rn {mk o {lj lqmllghihgkhionil {nl {li 90-(>-; _h *1410(1 |
  1
):-+:' {rn rn {rn {nk {lh |
  1
:336/,:r<*-): {rn rn {rn jlmqlhkhmfnnmgijkj nmhqninflnomfffnkk o ro ro rn oqfjikjgffmkiionik mqgklkkinglonffhii o n V V |
  1
/061+ {rn rn {rn liiqgjfmgffligmhig joqlnnhkgnojhllfif o |
  1
/061+ {rn rn {rn jlnqoiihglljmhimmf nmfqginhfhlomljnij o |
  1
<0:;8: {rn rn {rn {lg {ng {rn {lf 90-(>-; {j {rn |
  1
:;8: {rn rn {rn {ko roqhijighngggmjojjhn {lo oqhijighngggmjhkki {ng {kn 90-(>-; _h *1410(1 |
  1
):-+:' {rn rn {rn {mf {km |
  1
,+->687+r<*-): {rn rn {rn nnqnjjjjlffmggjlom klqfojkmhlmflfilhj o oqfffffnniklhgnnofh oqookmolhogjiimokkhmi o V V |
  1
/061+ {rn rn {rn lkjqmholhflilfohif kjqloffinofmgllhnh o |
  1
<0:;8: {rn rn {rn {mm {kl {rn {kk -:):-,:; {j {rn |
  1
:;8: {rn rn {rn {lj o {kj jqinjhnnonoofmijfl {mm {ki 90-(>-; _h *1410(1 |
  1
):-+:' {rn rn {rn {ml {kh |
  1
,+->687+r<*-): {rn rn {rn jljqokgkgloomfgokj nmgqjmmkiolggkonmh o oqkjljofhginliiooof roqgfnmjnmfihokffjnk o V V |
  1
/061+ {rn rn {rn jljqokgkgloomfgokj nmgqjmmkiolggkonmh o |
  1
<0:;8: {rn rn {rn {kg {mg {rn {kf -:):-,:; {j {rn |
  1
:;8: {rn rn {rn {ko nqjlklfhjgookjfggn {jo nqjhohfilmihfkgfii {mg {jn 90-(>-; _h *1410(1 |
  1
):-+:' {rn rn {rn {lf {jm |
  1
:336/,:r<*-): {rn rn {rn nnqngilohjffkgjikk koqfojjgkfikmjhinl o ro ro rn rmqnonnjgfokgjoimml mqnknmfnfjfihkimih o n V V |
  1
/061+ {rn rn {rn nnqnjjjjlffmggjlom klqfojkmhlmflfilhj o |
  1
<0:;8: {rn rn {rn {ll {jl {rn {jk -:):-,:; {j {rn |
  1
:;8: {rn rn {rn {kj o {jj nooqhmknioomkomggj {ll {ji 90-(>-; _h *1410(1 |
  1
):-+:' {rn rn {rn {lk {jh |
  1
,+->687+r<*-): {rn rn {rn jliqjnjohhhhmomfnk nmjqikomiljnojffin o roqfoojlhnknlofgnjmn roqklkhhfofoomllijjn o V V |
  1
/061+ {rn rn {rn jliqjnjohhhhmomfnk nmjqikomiljnojffin o |
  1
<0:;8: {rn rn {rn {jg {lg {rn {jf -:):-,:; {j {rn |
  1
:;8: {rn rn {rn {io o {jo lfqojkkmmkjjkjkikm {lg {in 90-(>-; _h *1410(1 |
  1
):-+:' {rn rn {rn {kf {im |
  1
:336/,:r<*-): {rn rn {rn lklqjnjmnffljlnilk mjqofihkmojgifmfgm o o o n lqigloommllonhlhjl lljqigkonomjhjihom o oqffffffffogjjjmifl V V |
  1
/061+ {rn rn {rn gqnghjglgfnfgmjnmg koqfflogkmjiongjm o |
  1
<0:;8: {rn rn {rn {kl {il {rn {ik -:):-,:; {j {rn |
  1
:;8: {rn rn {rn {jj o {ij nngqknifikngfkifih {kl {ii 90-(>-; _h *1410(1 |
  1
):-+:' {rn rn {rn {kk {ih |
  1
,+->687+r<*-): {rn rn {rn jlnqkjhfmnklmjhgmj nmlqnfgiifhghhfhll o oqnimjjjhkfmggloooj roqfgiifflioigljkili o V V |
  1
/061+ {rn rn {rn jlnqkjhfmnklmjhgmj nmlqnfgiifhghhfhll o |
  1
<0:;8: {rn rn {rn {ig {kg {rn {if -:):-,:; {j {rn |
  1
:;8: {rn rn {rn {ho roqjiillmigojnfghgjn {io oqjiillmigojnfghhk {kg {hn 90-(>-; _h *1410(1 |
  1
):-+:' {rn rn {rn {jf {hm |
  1
,+->687+r<*-): {rn rn {rn kiqggjiljmomgjiif mgqhhfhkkmjgolnmhm o rn o o V V |
  1
/061+ {rn rn {rn hqglnmnmhkhkomnojk mgqhhfhkkmjgolnmhm o |
  1
<0:;8: {rn rn {rn {jl {hl {rn {hk -:):-,:; {j {rn |
  1
:;8: {rn rn {rn {ij o {hj liqkihlgggonmikmik {jl {hi 90-(>-; _h *1410(1 |
  1
):-+:' {rn rn {rn {jk {hh |
  1
,+->687+r<*-): {rn rn {rn jkhqglnmnmhlihnggk mlqgnkmojkgihoogmg o roqfffffffflojnmniml oqooonnhgghfkkjmliglhh o V V |
  1
/061+ {rn rn {rn jkhqglnmnmhlihnggk mlqgnkmojkgihoogmg o |
  1
<0:;8: {rn rn {rn {hg {jg {rn {hf -:):-,:; {j {rn |
  1
:;8: {rn rn {rn {go roqiojiljnlllhkomkog {ho oqiojiljnlllhkojnmg {jg {gn 90-(>-; _h *1410(1 |
  1
):-+:' {rn rn {rn {if {gm |
  1
:336/,:r<*-): {rn rn {rn kgqkigfhomkhjmnkk oqhjnkjofjkhgolfjli o o o n nlqhomnfonlgloghkk mkqjonggohjfgjfnjf o n V V |
  1
/061+ {rn rn {rn kiqggjiljmomgjiif mgqhhfhkkmjgolnmhm o |
  1
<0:;8: {rn rn {rn {il {gl {rn {gk -:):-,:; {j {rn |
  1
:;8: {rn rn {rn {hj o {gj mkqjmgilihokggjjnk {il {gi 90-(>-; _h *1410(1 |
  1
):-+:' {rn rn {rn {ik {gh |
  1
,+->687+r<*-): {rn rn {rn kmfqknkmkflhonoloj mlqgmgnijknfmojgi o roqgmfgmfhljhggjiilk roqjjgoniihjomoimfom o V V |
  1
/061+ {rn rn {rn kmfqknkmkflhonoloj mlqgmgnijknfmojgi o |
  1
<0:;8: {rn rn {rn {gg {ig {rn {gf -:):-,:; {j {rn |
  1
:;8: {rn rn {rn {fo o {go mhjqoooohiihoogfgn {ig {fn 90-(>-; _h *1410(1 |
  1
):-+:' {rn rn {rn {hf {fm |
  1
:336/,:r<*-): {rn rn {rn hjqojomgjmojjjnjhj nkqhhfglkkhgkigkom o ro ro rn rnqnlgjighmoohgfjlk rnqikkmgnlglfiiogl o n V V |
  1
/061+ {rn rn {rn hlqnhgnjhgjkhiok nkqohinhlmoggogkh o |
  1
<0:;8: {rn rn {rn {hl {fl {rn {fk -:):-,:; {j {rn |
  1
:;8: {rn rn {rn {gj o {fj gqnoiljgfmmmonfknh {hl {fi 90-(>-; _h *1410(1 |
  1
):-+:' {rn rn {rn {hk {fh |
  1
,+->687+r<*-): {rn rn {rn lffqnjmjmjhjimjnon lqkhghjklhlilfgjf o roqjjgoniihjomoilnig oqgmfgmfhljhggjikji o V V |
  1
/061+ {rn rn {rn lffqnjmjmjhjimjnon lqkhghjklhlilfgjf o |
  1
<0:;8: {rn rn {rn {fg {hg {rn {ff -:):-,:; {j {rn |
  1
:;8: {rn rn {rn {noo roqihmjjnhhkikogjkif {fo oqihmjjnhhkikogholj {hg {non 90-(>-; _h *1410(1 |
  1
):-+:' {rn rn {rn {gf {nom |
  1
,+->687+r<*-): {rn rn {rn ljoqojolinghjilggg nmqhhfglkkhgkigjkk o rn rmqoiholmgliglogink:roni o V V |
  1
/061+ {rn rn {rn hjqojomgjmojjkfohl nmqhhfglkkhgkigkgh o |
  1
<0:;8: {rn rn {rn {gl {nol {rn {nok -:):-,:; {j {rn |
  1
:;8: {rn rn {rn {fj o {noj lqjmjnghfkhonnill {gl {noi 90-(>-; _h *1410(1 |
  1
):-+:' {rn rn {rn {gk {noh |
  1
,+->687+r<*-): {rn rn {rn lgjqkijnlhkjfkonhh mlqglllkikgfhogigg o roqfffffffflojnmninm oqooonnhgghfkkjmknngjg o V V |
  1
/061+ {rn rn {rn lgjqkijnlhkjfkonhh mlqglllkikgfhogigg o |
  1
<0:;8: {rn rn {rn {nog {gg {rn {nof -:):-,:; {j {rn |
  1
:;8: {rn rn {rn {nno roqkolfijljlgfngokgm {noo oqkolfijljlgfngojoj {gg {nnn 90-(>-; _h *1410(1 |
  1
):-+:' {rn rn {rn {ff {nnm |
  1
:336/,:r<*-): {rn rn {rn ljoqojolinghjilgfk niqmhfglkknggkjfog o ro ro rn mqngokkklnokflfojl rmqhlhgmohonnnfnnih o n V V |
  1
/061+ {rn rn {rn ljoqojolinghjilggg nmqhhfglkkhgkigjkk o |
  1
<0:;8: {rn rn {rn {fl {nnl {rn {nnk -:):-,:; {j {rn |
  1
:;8: {rn rn {rn {noj roqllhljnfgfoognmlfi {nnj oqllhljnfgfoognmmil {fl {nni 90-(>-; _h *1410(1 |
  1
):-+:' {rn rn {rn {fk {nnh |
  1
,+->687+r<*-): {rn rn {rn lhhqljghhgjfljmfnh mlqglklomnlniffiom o oqomngfikmmfhmkjgkil oqfffhiomkkjgfnhhon o V V |
  1
/061+ {rn rn {rn lhhqljghhgjfljmfnh mlqglklomnlniffiom o |
  1
<0:;8: {rn rn {rn {nnl {fg {rn {nng -:):-,:; {j {rn |
  1
:;8: {rn rn {rn {nnf o {nno nfqiomjnolgihilg {fg {nmo 90-(>-; _h *1410(1 |
  1
):-+:' {rn rn {rn {nof {nmn |
  1
:336/,:r<*-): {rn rn {rn lgiqmfhffklgknigh lqgnmmmknlnjlhilmg o o o n rmjqiooilokilfnfgmn mlqijognhklimhnghj o n V V |
  1
/061+ {rn rn {rn ljlqkinjffkomglfjn njqkfijfghkgmhnhmm o |
  1
<0:;8: {rn rn {rn {nol {nog {rn {nmm -:):-,:; {j {rn |
  1
:;8: {rn rn {rn {nnj roqogghlolfnfnhinmijg {nml oqogghlolfnfnhinligj {nol {nmk 90-(>-; _h *1410(1 |
  1
):-+:' {rn rn {rn {nok {nmj |
  1
:336/,:r<*-): {rn rn {rn lgmqikfmhinjhmhhof miqhhfnfllolhjlnok o ro ro rn rkqhmhiijofojlnlgoi mqmhmlkoghjkoojhkf o n V V |
  1
/061+ {rn rn {rn lhhqkljfihjffghklj mhqljgikkgfjgmihhn o |
  1
:;8: {rn rn {rn {nmi roqohmijmlmnkoghljjml {nnf oqohmijmlmnkoghljfnm {nog {nmh 90-(>-; _h *1410(1 |
  1
):-+:' {rn rn {rn {nng {nmg |
  1
,+->687+r<*-): {rn rn {rn lgfqhlgjmllfghmnlg kkqohfjgmonookgjmi o roqfomnlghmklhnmgimg roqklnkkiogmliifolng o V V |
  1
/061+ {rn rn {rn lhmqojkllfiglflnk ljqimmnjjiffnmmhjh o |
  1
:;8: {rn rn {rn {nml roqjlfmkmoknlnimfhkf {nmi oqjlfmkmoknlnimflni {nnl {nmf 90-(>-; _h *1410(1 |
  1
):-+:' {rn rn {rn {nnk {nlo |
  1
:336/,:r<*-): {rn rn {rn kljqjjhfnnfoikmoof rljqjnhkmjkighnkog o ro ro rn rjoqjkjfkmllknignlf hoqhilnklmnnffhgmf o n V V |
  1
/061+ {rn rn {rn lhgqfkomofjkjkmlhl loqkggmjffnjjfkfjm o |
  1
):-+:' {rn rn {rn {nmm {nln |
  1
:336/,:r<*-): {rn rn {rn kokqlgklnjfjhhkjfn fqhffiffglffikomoj o o o n rnmqnngglkojngmgnij ljqmjmjiinglmomfg o n V V |
  1
/061+ {rn rn {rn lgfqhlgjmllfghmnlg kkqohfjgmonookgjmi o |
  1
:336/,:r<*-): {rn rn {rn lghqgmhjlggjkjhnnm kjqkimihlmimgijoih o o o n iqmmkijnnfkimnnill rlqmgilmnfjgimnkgfg o n V V |
  1
/061+ {rn rn {rn lfnqkgnkmofkikkojj lfqkkikniflhhhfkgf o |
  1
/061+ {rn rn {rn lfkqgjilhfgkhillgf kjqglgfjinknlhoihl o |
  0
ENDBLK
  5
63A6
330
634F
100
AcDbEntity
  8
0
100
AcDbBlockEnd
  0
ENDSEC
  0
SECTION
  2
ENTITIES
  0
LINE
  5
4E13
330
1F
100
AcDbEntity
  8
0
  6
AM_DIN_F_W050
 62
     6
 48
3.0
100
AcDbLine
 10
-18.82058581746617
 20
91.92190279092745
 30
0.0
 11
-18.82147899005372
 21
194.0784940269887
 31
0.0
  0
LINE
  5
5AA0
330
1F
100
AcDbEntity
  8
0
  6
AM_DIN_F_W050
 62
     6
 48
3.0
100
AcDbLine
 10
-7.897036709614212
 20
193.5058720860203
 30
0.0
 11
-18.82147899005326
 21
194.0784940269985
 31
0.0
  0
LINE
  5
5AA1
330
1F
100
AcDbEntity
  8
0
  6
AM_DIN_F_W050
 62
     6
 48
3.0
100
AcDbLine
 10
-7.897036709614098
 20
92.4942855684684
 30
0.0
 11
-18.82058581746617
 21
91.92190279092745
 31
0.0
  0
LINE
  5
5ABC
330
1F
100
AcDbEntity
  8
0
  6
AM_DIN_F_W050
 62
     6
 48
3.0
100
AcDbLine
 10
-36.21574836826904
 20
38.60730769996737
 30
0.0
 11
-36.04443480010309
 21
31.22409871505568
 31
0.0
  0
ARC
  5
5AD7
330
1F
100
AcDbEntity
  8
0
  6
AM_DIN_F_W050
 62
     6
 48
3.0
100
AcDbCircle
 10
268.2321202189462
 20
451.0000788272438
 30
0.0
 40
5.0
100
AcDbArc
 50
270.0000068612599
 51
359.9999987925804
  0
LINE
  5
5AD9
330
1F
100
AcDbEntity
  8
0
  6
AM_DIN_F_W050
 62
     6
 48
3.0
100
AcDbLine
 10
273.2321202189462
 20
451.0000787218765
 30
0.0
 11
273.2321202189464
 21
771.000078827244
 31
0.0
  0
ARC
  5
5AE0
330
1F
100
AcDbEntity
  8
0
  6
AM_DIN_F_W050
 62
     6
 48
3.0
100
AcDbCircle
 10
139.0633653059058
 20
451.0000788272437
 30
0.0
 40
5.0
100
AcDbArc
 50
181.6709999992891
 51
270.0
  0
LINE
  5
5AE4
330
1F
100
AcDbEntity
  8
0
  6
AM_DIN_F_W050
 62
     6
 48
3.0
100
AcDbLine
 10
236.4804809072173
 20
446.0000788272437
 30
0.0
 11
236.4804809072173
 21
435.0000788272438
 31
0.0
  0
LINE
  5
5AE5
330
1F
100
AcDbEntity
  8
0
  6
AM_DIN_F_W050
 62
     6
 48
3.0
100
AcDbLine
 10
134.0654915683092
 20
450.8542772393134
 30
0.0
 11
123.202274106502
 21
772.0013545844255
 31
0.0
  0
LINE
  5
5B2D
330
1F
100
AcDbEntity
  8
0
  6
AM_DIN_F_W050
 62
     6
 48
3.0
100
AcDbLine
 10
273.2321202189464
 20
810.4596161217529
 30
0.0
 11
273.2321202189464
 21
775.0000788282421
 31
0.0
  0
LINE
  5
5B30
330
1F
100
AcDbEntity
  8
0
  6
AM_DIN_F_W050
 62
     6
 48
3.0
100
AcDbLine
 10
190.2321202489552
 20
829.9579579005071
 30
0.0
 11
190.2321287764923
 21
817.9997371169079
 31
0.0
  0
LINE
  5
5B31
330
1F
100
AcDbEntity
  8
0
  6
AM_DIN_F_W050
 62
     6
 48
3.0
100
AcDbLine
 10
230.2321203581186
 20
829.804891148764
 30
0.0
 11
230.2321287785219
 21
817.9969053895593
 31
0.0
  0
LINE
  5
5B39
330
1F
100
AcDbEntity
  8
0
  6
AM_DIN_F_W050
 62
     6
 48
3.0
100
AcDbLine
 10
124.2942518208706
 20
810.5732091834015
 30
0.0
 11
123.1390310370207
 21
775.0000788609561
 31
0.0
  0
LINE
  5
5B58
330
1F
100
AcDbEntity
  8
0
  6
AM_DIN_F_W050
 62
     6
 48
3.0
100
AcDbLine
 10
162.7321202189462
 20
401.0000788272438
 30
0.0
 11
247.7321202189464
 21
401.0000788272438
 31
0.0
  0
LINE
  5
5B59
330
1F
100
AcDbEntity
  8
0
  6
AM_DIN_F_W050
 62
     6
 48
3.0
100
AcDbLine
 10
162.7321202189462
 20
424.0000788272437
 30
0.0
 11
247.7321202189464
 21
424.0000788272437
 31
0.0
  0
LINE
  5
5B5C
330
1F
100
AcDbEntity
  8
0
  6
AM_DIN_F_W050
 62
     6
 48
3.0
100
AcDbLine
 10
245.9517791309461
 20
421.0000788272417
 30
0.0
 11
163.6170831926175
 21
420.9538110673935
 31
0.0
  0
LINE
  5
5B6A
330
1F
100
AcDbEntity
  8
0
  6
AM_DIN_F_W050
 62
     6
 48
3.0
100
AcDbLine
 10
187.2582998179466
 20
28.85508340524383
 30
0.0
 11
-55.45820744381581
 21
30.97323827390801
 31
0.0
  0
ARC
  5
5B7A
330
1F
100
AcDbEntity
  8
0
  6
AM_DIN_F_W050
 62
     6
 48
3.0
100
AcDbCircle
 10
187.2321202105911
 20
25.85519763550349
 30
0.0
 40
3.000000000555316
100
AcDbArc
 50
0.0
 51
89.49999998365825
  0
LINE
  5
5B7E
330
1F
100
AcDbEntity
  8
0
  6
AM_DIN_F_W050
 62
     6
 48
3.0
100
AcDbLine
 10
-282.5611863956644
 20
223.8238994428312
 30
0.0
 11
-289.9700018222123
 21
0.0000788272437289
 31
0.0
  0
LINE
  5
5B80
330
1F
100
AcDbEntity
  8
0
  6
AM_DIN_F_W050
 62
     6
 48
3.0
100
AcDbLine
 10
268.4925680865465
 20
13.02521930424371
 30
0.0
 11
269.6321202190343
 21
0.0000788272437858
 31
0.0
  0
ARC
  5
5B8B
330
1F
100
AcDbEntity
  8
0
  6
AM_DIN_F_W050
 62
     6
 48
3.0
100
AcDbCircle
 10
6.217506331538597
 20
414.0000788266519
 30
0.0
 40
6.00000000059152
100
AcDbArc
 50
90.00000000105522
 51
175.9999999947797
  0
ARC
  5
5B8C
330
1F
100
AcDbEntity
  8
0
  6
AM_DIN_F_W050
 62
     6
 48
3.0
100
AcDbCircle
 10
-391.9600330012673
 20
414.0470385630727
 30
0.0
 40
5.953072042412308
100
AcDbArc
 50
353.2353245081436
 51
90.18721135371427
  0
ARC
  5
5B8D
330
1F
100
AcDbEntity
  8
0
  6
AM_DIN_F_W050
 62
     6
 48
3.0
100
AcDbCircle
 10
173.442826896312
 20
13.37545881548874
 30
0.0
 40
5.000000003426404
100
AcDbArc
 50
5.000000031266859
 51
89.50000001017034
  0
ARC
  5
5B9A
330
1F
100
AcDbEntity
  8
0
  6
AM_DIN_F_W050
 62
     6
 48
3.0
100
AcDbCircle
 10
263.5115945960463
 20
12.58944059124372
 30
0.0
 40
4.999999999999908
100
AcDbArc
 50
4.999999991526391
 51
89.50000112503252
  0
LINE
  5
5B9C
330
1F
100
AcDbEntity
  8
0
  6
AM_DIN_F_W050
 62
     6
 48
3.0
100
AcDbLine
 10
-33.76814443105355
 20
0.0000788272437858
 30
0.0
 11
-31.61682238285107
 21
30.76517765956021
 31
0.0
  0
LINE
  5
5B9D
330
1F
100
AcDbEntity
  8
0
  6
AM_DIN_F_W050
 62
     6
 48
3.0
100
AcDbLine
 10
32.11995798294652
 20
30.20895520324382
 30
0.0
 11
34.23238485018988
 21
0.0000788272494701
 31
0.0
  0
ARC
  5
5BA0
330
1F
100
AcDbEntity
  8
0
  6
AM_DIN_F_W050
 62
     6
 48
3.0
100
AcDbCircle
 10
-55.41457476805385
 20
35.97304788924396
 30
0.0
 40
5.0
100
AcDbArc
 50
182.0000002923246
 51
269.5000000198241
  0
LINE
  5
5BA4
330
1F
100
AcDbEntity
  8
0
  6
AM_DIN_F_W050
 62
     6
 48
3.0
100
AcDbLine
 10
-189.9363900420997
 20
119.8255813432421
 30
0.0
 11
-190.5277802048215
 21
136.7607798316695
 31
0.0
  0
LINE
  5
5BA9
330
1F
100
AcDbEntity
  8
0
  6
AM_DIN_F_W050
 62
     6
 48
3.0
100
AcDbLine
 10
0.2321220297213498
 20
414.4186176696831
 30
0.0
 11
-3.899665948247746
 21
355.3312967489826
 31
0.0
  0
ARC
  5
5BBB
330
1F
100
AcDbEntity
  8
0
  6
AM_DIN_F_W050
 62
     6
 48
3.0
100
AcDbCircle
 10
-184.9394362981968
 20
120.0000763268041
 30
0.0
 40
4.999999521753275
100
AcDbArc
 50
181.9999715265639
 51
261.1043358095081
  0
ARC
  5
5BC1
330
1F
100
AcDbEntity
  8
0
  6
AM_DIN_F_W050
 62
     6
 48
3.0
100
AcDbCircle
 10
-389.9002134751301
 20
413.6641726753938
 30
0.0
 40
3.864943036023402
100
AcDbArc
 50
271.9286351966749
 51
355.2751704385068
  0
ARC
  5
5BC6
330
1F
100
AcDbEntity
  8
0
  6
AM_DIN_F_W050
 62
     6
 48
3.0
100
AcDbCircle
 10
-95.66314109728523
 20
25.72429195129041
 30
0.0
 40
5.000000144666618
100
AcDbArc
 50
182.0000015840251
 51
269.500001397918
  0
ARC
  5
5BC8
330
1F
100
AcDbEntity
  8
0
  6
AM_DIN_F_W050
 62
     6
 48
3.0
100
AcDbCircle
 10
-47.85054255036789
 20
15.306656980615
 30
0.0
 40
4.999999816491296
100
AcDbArc
 50
4.000008425819079
 51
89.49999843665571
  0
ARC
  5
5BC9
330
1F
100
AcDbEntity
  8
0
  6
AM_DIN_F_W050
 62
     6
 48
3.0
100
AcDbCircle
 10
48.25613197115308
 20
14.46794364307618
 30
0.0
 40
5.000002911133705
100
AcDbArc
 50
89.49997346076715
 51
175.9999528964952
  0
LINE
  5
5BCF
330
1F
100
AcDbEntity
  8
0
  6
AM_DIN_F_W050
 62
     6
 48
3.0
100
AcDbLine
 10
43.26831433856091
 20
14.81672994927146
 30
0.0
 11
42.23223044256451
 21
0.0000788272292338
 31
0.0
  0
LINE
  5
5BD0
330
1F
100
AcDbEntity
  8
0
  6
AM_DIN_F_W050
 62
     6
 48
3.0
100
AcDbLine
 10
-41.76798999305333
 20
0.0000788272437858
 30
0.0
 11
-42.86272236838726
 21
15.65544008157474
 31
0.0
  0
ARC
  5
5BD1
330
1F
100
AcDbEntity
  8
0
  6
AM_DIN_F_W050
 62
     6
 48
3.0
100
AcDbCircle
 10
-66.29196014371814
 20
60.92351973446432
 30
0.0
 40
5.000000123779388
100
AcDbArc
 50
1.999999059427605
 51
90.00000129443057
  0
LINE
  5
5BD2
330
1F
100
AcDbEntity
  8
0
  6
AM_DIN_F_W050
 62
     6
 48
3.0
100
AcDbLine
 10
-71.28666546124623
 20
65.92353329858458
 30
0.0
 11
-66.29196025667875
 21
65.92353330324397
 31
0.0
  0
ELLIPSE
  5
5BD7
330
1F
100
AcDbEntity
  8
0
  6
AM_DIN_F_W050
 62
     6
 48
3.0
100
AcDbEllipse
 10
-186.4767532340054
 20
110.1342191850145
 30
0.0
 11
-4.181252725595544
 21
2.727663857505085
 31
0.0
210
0.0
220
0.0
230
-1.0
 40
0.998221353063273
 41
1.147331219346973
 42
1.99426122301965
  0
LINE
  5
5BE6
330
1F
100
AcDbEntity
  8
0
  6
AM_DIN_F_W050
 62
     6
 48
3.0
100
AcDbLine
 10
-389.770140062071
 20
409.8014190489092
 30
0.0
 11
-407.8710424226976
 21
408.8527909530474
 31
0.0
  0
LINE
  5
5BE9
330
1F
100
AcDbEntity
  8
0
  6
AM_DIN_F_W050
 62
     6
 48
3.0
100
AcDbLine
 10
-100.6600955063302
 20
25.54979431989444
 30
0.0
 11
-101.5977281020539
 21
52.40007882724388
 31
0.0
  0
ARC
  5
5BF5
330
1F
100
AcDbEntity
  8
0
  6
AM_DIN_F_W050
 62
     6
 48
3.0
100
AcDbCircle
 10
-76.52377215247383
 20
94.40007882570728
 30
0.0
 40
5.000000001487774
100
AcDbArc
 50
17.51982822489198
 51
89.99999998729814
  0
ARC
  5
5BF9
330
1F
100
AcDbEntity
  8
0
  6
AM_DIN_F_W050
 62
     6
 48
3.0
100
AcDbCircle
 10
-394.4441407037964
 20
349.6986206151669
 30
0.0
 40
11.00000016900825
100
AcDbArc
 50
17.32879996226305
 51
84.99996561712242
  0
LINE
  5
5BFA
330
1F
100
AcDbEntity
  8
0
  6
AM_DIN_F_W050
 62
     6
 48
3.0
100
AcDbLine
 10
-393.4854208400482
 20
360.6567630630862
 30
0.0
 11
-401.3206662048039
 21
361.3422582084318
 31
0.0
  0
LINE
  5
5BFB
330
1F
100
AcDbEntity
  8
0
  6
AM_DIN_F_W050
 62
     6
 48
3.0
100
AcDbLine
 10
-412.5419301988306
 20
403.0412438917072
 30
0.0
 11
-412.5425080649454
 21
403.0447321193106
 31
0.0
  0
ARC
  5
5BFC
330
1F
100
AcDbEntity
  8
0
  6
AM_DIN_F_W050
 62
     6
 48
3.0
100
AcDbCircle
 10
-407.6093626664366
 20
403.8596432933382
 30
0.0
 40
5.00000000521743
100
AcDbArc
 50
92.99999972624723
 51
189.3800376850349
  0
ARC
  5
5C16
330
1F
100
AcDbEntity
  8
0
  6
AM_DIN_F_W050
 62
     6
 48
3.0
100
AcDbCircle
 10
-400.8848872110027
 20
366.3232316925836
 30
0.0
 40
4.999999994064285
100
AcDbArc
 50
190.8925131405884
 51
264.9999967966334
  0
ARC
  5
5C17
330
1F
100
AcDbEntity
  8
0
  6
AM_DIN_F_W050
 62
     6
 48
3.0
100
AcDbCircle
 10
1056.772533737737
 20
646.8263513565243
 30
0.0
 40
1489.401279270382
100
AcDbArc
 50
189.4205579031462
 51
190.8925159788668
  0
LINE
  5
5C1B
330
1F
100
AcDbEntity
  8
0
  6
AM_DIN_F_W050
 62
     6
 48
3.0
100
AcDbLine
 10
-11.76787978102743
 20
103.124916680946
 30
0.0
 11
-11.76787978104153
 21
182.8752409735426
 31
0.0
  0
LINE
  5
5C2E
330
1F
100
AcDbEntity
  8
0
  6
AM_DIN_F_W050
 62
     6
 48
3.0
100
AcDbLine
 10
-128.1450727770504
 20
110.0000788272438
 30
0.0
 11
-67.76460258248221
 21
110.0000788272438
 31
0.0
  0
ARC
  5
5C2F
330
1F
100
AcDbEntity
  8
0
  6
AM_DIN_F_W050
 62
     6
 48
3.0
100
AcDbCircle
 10
-128.1450727779418
 20
115.0000788777491
 30
0.0
 40
4.999999998550749
100
AcDbArc
 50
184.9999999872749
 51
270.0000000102136
  0
LINE
  5
5C61
330
1F
100
AcDbEntity
  8
0
  6
AM_DIN_F_W050
 62
     6
 48
3.0
100
AcDbLine
 10
116.4801281890952
 20
14.26487519736145
 30
0.0
 11
115.2321202192056
 21
0.0000788272437858
 31
0.0
  0
LINE
  5
5C62
330
1F
100
AcDbEntity
  8
0
  6
AM_DIN_F_W050
 62
     6
 48
3.0
100
AcDbLine
 10
105.2321202186921
 20
0.0000788272437858
 30
0.0
 11
103.9669524494868
 21
14.4610126010449
 31
0.0
  0
ARC
  5
5C63
330
1F
100
AcDbEntity
  8
0
  6
AM_DIN_F_W050
 62
     6
 48
3.0
100
AcDbCircle
 10
121.4611016779463
 20
13.82909646224369
 30
0.0
 40
5.000000000000021
100
AcDbArc
 50
89.49999966041936
 51
174.9999999945207
  0
ARC
  5
5C64
330
1F
100
AcDbEntity
  8
0
  6
AM_DIN_F_W050
 62
     6
 48
3.0
100
AcDbCircle
 10
98.9859789589466
 20
14.02523388624388
 30
0.0
 40
4.99999999999988
100
AcDbArc
 50
5.000000011861566
 51
89.50000000062077
  0
LINE
  5
5C66
330
1F
100
AcDbEntity
  8
0
  6
AM_DIN_F_W050
 62
     6
 48
3.0
100
AcDbLine
 10
280.2321202189464
 20
429.2534400692898
 30
0.0
 11
280.2321202189464
 21
355.645988268675
 31
0.0
  0
LINE
  5
5C6F
330
1F
100
AcDbEntity
  8
0
  6
AM_DIN_F_W050
 62
     6
 48
3.0
100
AcDbLine
 10
162.7321202189462
 20
424.0620404010299
 30
0.0
 11
162.7321202189462
 21
401.0000788272438
 31
0.0
  0
LINE
  5
5C70
330
1F
100
AcDbEntity
  8
0
  6
AM_DIN_F_W050
 62
     6
 48
3.0
100
AcDbLine
 10
247.7321202189464
 20
424.0000788272437
 30
0.0
 11
247.7321202189464
 21
401.0000788272438
 31
0.0
  0
ARC
  5
5C72
330
1F
100
AcDbEntity
  8
0
  6
AM_DIN_F_W050
 62
     6
 48
3.0
100
AcDbCircle
 10
163.6170831926175
 20
425.9538110673934
 30
0.0
 40
5.0
100
AcDbArc
 50
184.3855113382869
 51
270.0
  0
LINE
  5
5CB0
330
1F
100
AcDbEntity
  8
0
  6
AM_DIN_F_W050
 62
     6
 48
3.0
100
AcDbLine
 10
-11.76787978102743
 20
182.8752409735415
 30
0.0
 11
-18.82147899005372
 21
183.4923509413866
 31
0.0
  0
LINE
  5
5CB1
330
1F
100
AcDbEntity
  8
0
  6
AM_DIN_F_W050
 62
     6
 48
3.0
100
AcDbLine
 10
-11.76787978102743
 20
103.124916680946
 30
0.0
 11
-18.82147899005372
 21
102.5078067131008
 31
0.0
  0
LINE
  5
5CCA
330
1F
100
AcDbEntity
  8
0
  6
AM_DIN_F_W050
 62
     6
 48
3.0
100
AcDbLine
 10
-20.00246792104349
 20
97.71252067294756
 30
0.0
 11
-71.755707904367
 21
95.90525766584656
 31
0.0
  0
LINE
  5
5CCD
330
1F
100
AcDbEntity
  8
0
  6
AM_DIN_F_W050
 62
     6
 48
3.0
100
AcDbLine
 10
179.6321202181589
 20
0.0000788272437929
 30
0.0
 11
178.4238003898281
 21
13.81123753359427
 31
0.0
  0
LINE
  5
5CCF
330
1F
100
AcDbEntity
  8
0
  6
AM_DIN_F_W050
 62
     6
 48
3.0
100
AcDbLine
 10
190.2321202189464
 20
25.8551976352436
 30
0.0
 11
190.2321202189464
 21
0.0000788272437858
 31
0.0
  0
ARC
  5
5CD1
330
1F
100
AcDbEntity
  8
0
  6
AM_DIN_F_W050
 62
     6
 48
3.0
100
AcDbCircle
 10
156.2451891789464
 20
433.0000788272437
 30
0.0
 40
2.0
100
AcDbArc
 50
2.999999999666489
 51
89.99999991400512
  0
LINE
  5
5CD2
330
1F
100
AcDbEntity
  8
0
  6
AM_DIN_F_W050
 62
     6
 48
3.0
100
AcDbLine
 10
158.631722589313
 20
425.5714765868413
 30
0.0
 11
158.2424482550079
 21
433.1047507400613
 31
0.0
  0
LINE
  5
5D73
330
1F
100
AcDbEntity
  8
0
  6
AM_DIN_F_W050
 62
     6
 48
3.0
100
AcDbLine
 10
-73.67602667426865
 20
361.0082997971816
 30
0.0
 11
-367.3617819454321
 21
361.0082997971816
 31
0.0
  0
LINE
  5
5D7E
330
1F
100
AcDbEntity
  8
0
  6
AM_DIN_F_W050
 62
     6
 48
3.0
100
AcDbLine
 10
-372.5390235374129
 20
409.7962955138552
 30
0.0
 11
-73.66872764282561
 21
409.5781490870352
 31
0.0
  0
LINE
  5
5D81
330
1F
100
AcDbEntity
  8
0
  6
AM_DIN_F_W050
 62
     6
 48
3.0
100
AcDbLine
 10
-63.67602667426865
 20
399.5781517508286
 30
0.0
 11
-63.67602667426865
 21
371.0082997971816
 31
0.0
  0
ARC
  5
5D82
330
1F
100
AcDbEntity
  8
0
  6
AM_DIN_F_W050
 62
     6
 48
3.0
100
AcDbCircle
 10
-73.67602667426865
 20
399.5781517508286
 30
0.0
 40
10.0
100
AcDbArc
 50
0.0
 51
89.95817962666794
1001
GENIUS_GENODEF_13
1002
{
1000
HIER
1070
     0
1002
}
1002
{
1000
MANEDIT
1070
     0
1002
}
1002
{
1000
NOSEL
1070
     0
1002
}
1002
{
1000
BEHIND
1070
     0
1002
}
1002
{
1000
OTHER
1070
     0
1002
}
1002
{
1000
REACTOR
1002
}
1001
GENIUS_GENOBJ-N-FIL_13
1002
{
1000
OWNER
1000
GEN
1002
}
  0
ARC
  5
5D83
330
1F
100
AcDbEntity
  8
0
  6
AM_DIN_F_W050
 62
     6
 48
3.0
100
AcDbCircle
 10
-73.67602667426865
 20
371.0082997971816
 30
0.0
 40
10.0
100
AcDbArc
 50
270.0
 51
0.0
1001
GENIUS_GENOBJ-N-FIL_13
1002
{
1000
OWNER
1000
GEN
1002
}
1001
GENIUS_GENODEF_13
1002
{
1000
HIER
1070
     0
1002
}
1002
{
1000
MANEDIT
1070
     0
1002
}
1002
{
1000
NOSEL
1070
     0
1002
}
1002
{
1000
BEHIND
1070
     0
1002
}
1002
{
1000
OTHER
1070
     0
1002
}
1002
{
1000
REACTOR
1002
}
  0
ARC
  5
5D8B
330
1F
100
AcDbEntity
  8
0
  6
AM_DIN_F_W050
 62
     6
 48
3.0
100
AcDbCircle
 10
-195.5303934531448
 20
409.7622996674813
 30
0.0
 40
196.784800411255
100
AcDbArc
 50
196.7726938662323
 51
254.6471055451799
  0
LINE
  5
5D8D
330
1F
100
AcDbEntity
  8
0
  6
AM_DIN_G_W050
 62
     4
 48
2.0
100
AcDbLine
 10
45.23211954620875
 20
406.2976344254338
 30
0.0
 11
45.23211954620875
 21
428.6002206709241
 31
0.0
  0
LINE
  5
5D92
330
1F
100
AcDbEntity
  8
0
  6
AM_DIN_F_W050
 62
     6
 48
3.0
100
AcDbLine
 10
-60.41152890225908
 20
35.79855038023687
 30
0.0
 11
-61.29500588205416
 21
61.09801714026625
 31
0.0
  0
ARC
  5
5D93
330
1F
100
AcDbEntity
  8
0
  6
AM_DIN_F_W050
 62
     6
 48
3.0
100
AcDbCircle
 10
-276.5236262747916
 20
223.8238994428312
 30
0.0
 40
6.037560120872853
100
AcDbArc
 50
63.2698730223843
 51
180.0
  0
ARC
  5
5D9B
330
1F
100
AcDbEntity
  8
0
  6
AM_DIN_F_W050
 62
     6
 48
3.0
100
AcDbCircle
 10
-281.2174964079735
 20
93.94361077799789
 30
0.0
 40
133.4482663146395
100
AcDbArc
 50
49.22417881324718
 51
70.84061578934544
  0
ARC
  5
5D9C
330
1F
100
AcDbEntity
  8
0
  6
AM_DIN_F_W050
 62
     6
 48
3.0
100
AcDbCircle
 10
-93.65034774709533
 20
295.4120169911533
 30
0.0
 40
142.0039272888971
100
AcDbArc
 50
224.9999999999998
 51
249.6468937617029
  0
LINE
  5
5D9D
330
1F
100
AcDbEntity
  8
0
  6
AM_DIN_F_W050
 62
     6
 48
3.0
100
AcDbLine
 10
-133.1260462670536
 20
114.5643001652437
 30
0.0
 11
-136.556098573982
 21
153.7697194083434
 31
0.0
  0
ARC
  5
5D9E
330
1F
100
AcDbEntity
  8
0
  6
AM_DIN_F_W050
 62
     6
 48
3.0
100
AcDbCircle
 10
-146.5180450568693
 20
152.8981562883765
 30
0.0
 40
10.0
100
AcDbArc
 50
5.000032740153556
 51
69.64689376170294
1001
GENIUS_GENOBJ-N-FIL_13
1002
{
1000
OWNER
1000
GEN
1002
}
1001
GENIUS_GENODEF_13
1002
{
1000
HIER
1070
     0
1002
}
1002
{
1000
MANEDIT
1070
     0
1002
}
1002
{
1000
NOSEL
1070
     0
1002
}
1002
{
1000
BEHIND
1070
     0
1002
}
1002
{
1000
OTHER
1070
     0
1002
}
1002
{
1000
REACTOR
1002
}
  0
ARC
  5
5D9F
330
1F
100
AcDbEntity
  8
0
  6
AM_DIN_F_W050
 62
     6
 48
3.0
100
AcDbCircle
 10
-334.667873252385
 20
129.5362074416722
 30
0.0
 40
144.3210340524851
100
AcDbArc
 50
2.869370956283581
 51
33.67088690046762
  0
ARC
  5
5DA7
330
1F
100
AcDbEntity
  8
0
  6
AM_DIN_F_W050
 62
     6
 48
3.0
100
AcDbCircle
 10
-155.000041888577
 20
133.8391086435287
 30
0.0
 40
34.43629895913716
100
AcDbArc
 50
217.6198676086527
 51
270.0370335706632
  0
LINE
  5
5DA8
330
1F
100
AcDbEntity
  8
0
  6
AM_DIN_F_W050
 62
     6
 48
3.0
100
AcDbLine
 10
-154.9777837216924
 20
99.40281687776085
 30
0.0
 11
-76.52377215247383
 21
99.40007882719505
 31
0.0
  0
LINE
  5
5DB1
330
1F
100
AcDbEntity
  8
0
  6
AM_DIN_F_W050
 62
     6
 48
3.0
100
AcDbLine
 10
-101.5977281020539
 20
52.40007882724388
 30
0.0
 11
-71.07510071419586
 21
52.40007882724388
 31
0.0
  0
LINE
  5
5DB3
330
1F
100
AcDbEntity
  8
0
  6
AM_DIN_F_W050
 62
     6
 48
3.0
100
AcDbLine
 10
-70.57612774430061
 20
20.50517036595502
 30
0.0
 11
-71.75570804500171
 21
95.90525811319196
 31
0.0
  0
LINE
  5
5DBB
330
1F
100
AcDbEntity
  8
0
  6
AM_DIN_F_W050
 62
     6
 48
3.0
100
AcDbLine
 10
-95.70677365405288
 20
20.72448219024389
 30
0.0
 11
-47.80683958515658
 21
20.30646579853442
 31
0.0
  0
ARC
  5
5DBC
330
1F
100
AcDbEntity
  8
0
  6
AM_DIN_F_W050
 62
     6
 48
3.0
100
AcDbCircle
 10
197.6187354835983
 20
113.2589219647007
 30
0.0
 40
265.4033462141918
100
AcDbArc
 50
160.2154532930193
 51
180.7035429385332
  0
ARC
  5
5DBD
330
1F
100
AcDbEntity
  8
0
  6
AM_DIN_F_W050
 62
     6
 48
3.0
100
AcDbCircle
 10
228.5523375101184
 20
112.7478522851717
 30
0.0
 40
283.7681018428543
100
AcDbArc
 50
164.299241520569
 51
183.2825895398888
  0
LINE
  5
5DC6
330
1F
100
AcDbEntity
  8
0
  6
AM_DIN_F_W050
 62
     6
 48
3.0
100
AcDbLine
 10
-0.3131247630469716
 20
354.9997775894818
 30
0.0
 11
-57.04112114687837
 21
360.2433860440361
 31
0.0
  0
ARC
  5
5DC7
330
1F
100
AcDbEntity
  8
0
  6
AM_DIN_F_W050
 62
     6
 48
3.0
100
AcDbCircle
 10
-222.1164688748891
 20
393.6136016670236
 30
0.0
 40
249.8648006592655
100
AcDbArc
 50
315.9863397153103
 51
347.7275261853375
  0
LINE
  5
5DC8
330
1F
100
AcDbEntity
  8
0
  6
AM_DIN_F_W050
 62
     6
 48
3.0
100
AcDbLine
 10
-0.3131247630469716
 20
354.9997775894818
 30
0.0
 11
14.00311440630082
 21
352.4758314680227
 31
0.0
  0
ARC
  5
5DC9
330
1F
100
AcDbEntity
  8
0
  6
AM_DIN_F_W050
 62
     6
 48
3.0
100
AcDbCircle
 10
12.26689489356749
 20
342.6277076972934
 30
0.0
 40
10.0
100
AcDbArc
 50
347.7275261853371
 51
80.0015258390642
1001
GENIUS_GENOBJ-N-FIL_13
1002
{
1000
OWNER
1000
GEN
1002
}
1001
GENIUS_GENODEF_13
1002
{
1000
HIER
1070
     0
1002
}
1002
{
1000
MANEDIT
1070
     0
1002
}
1002
{
1000
NOSEL
1070
     0
1002
}
1002
{
1000
BEHIND
1070
     0
1002
}
1002
{
1000
OTHER
1070
     0
1002
}
1002
{
1000
REACTOR
1002
}
  0
LINE
  5
5DD1
330
1F
100
AcDbEntity
  8
0
  6
AM_DIN_F_W050
 62
     6
 48
3.0
100
AcDbLine
 10
-20.00246789759478
 20
188.2876369562494
 30
0.0
 11
-43.30649071283562
 21
189.388296802572
 31
0.0
  0
ARC
  5
5DD2
330
1F
100
AcDbEntity
  8
0
  6
AM_DIN_F_W050
 62
     6
 48
3.0
100
AcDbCircle
 10
38.73934154316192
 20
162.1489891235073
 30
0.0
 40
99.66751390636911
100
AcDbArc
 50
144.5184491350894
 51
155.4693375075731
  0
ARC
  5
5DD3
330
1F
100
AcDbEntity
  8
0
  6
AM_DIN_F_W050
 62
     6
 48
3.0
100
AcDbCircle
 10
-42.83471196679932
 20
199.3771618439462
 30
0.0
 40
10.0
100
AcDbArc
 50
155.4693375075731
 51
267.2959031574048
1001
GENIUS_GENODEF_13
1002
{
1000
HIER
1070
     0
1002
}
1002
{
1000
MANEDIT
1070
     0
1002
}
1002
{
1000
NOSEL
1070
     0
1002
}
1002
{
1000
BEHIND
1070
     0
1002
}
1002
{
1000
OTHER
1070
     0
1002
}
1002
{
1000
REACTOR
1002
}
1001
GENIUS_GENOBJ-N-FIL_13
1002
{
1000
OWNER
1000
GEN
1002
}
  0
LINE
  5
5DD4
330
1F
100
AcDbEntity
  8
0
  6
AM_DIN_F_W050
 62
     6
 48
3.0
100
AcDbLine
 10
-20.00246789759478
 20
188.2876369562494
 30
0.0
 11
-20.00246792104349
 21
97.71252067294756
 31
0.0
  0
LINE
  5
5DDC
330
1F
100
AcDbEntity
  8
0
  6
AM_DIN_F_W050
 62
     6
 48
3.0
100
AcDbLine
 10
277.4201968644988
 20
352.6518895436164
 30
0.0
 11
154.0224761331017
 21
344.9005655175444
 31
0.0
  0
ARC
  5
5DDD
330
1F
100
AcDbEntity
  8
0
  6
AM_DIN_F_W050
 62
     6
 48
3.0
100
AcDbCircle
 10
164.9947096598425
 20
207.2550843815468
 30
0.0
 40
138.0821074061574
100
AcDbArc
 50
94.55762263915501
 51
152.269192014527
  0
LINE
  5
5DDE
330
1F
100
AcDbEntity
  8
0
  6
AM_DIN_F_W050
 62
     6
 48
3.0
100
AcDbLine
 10
35.17521101181967
 20
266.2393535719137
 30
0.0
 11
-10.70005695881025
 21
260.4388316051782
 31
0.0
  0
ARC
  5
5DDF
330
1F
100
AcDbEntity
  8
0
  6
AM_DIN_F_W050
 62
     6
 48
3.0
100
AcDbCircle
 10
33.92078714620629
 20
276.1603626317512
 30
0.0
 40
10.0
100
AcDbArc
 50
277.2063037565272
 51
332.2691920145273
1001
GENIUS_GENOBJ-N-FIL_13
1002
{
1000
OWNER
1000
GEN
1002
}
1001
GENIUS_GENODEF_13
1002
{
1000
HIER
1070
     0
1002
}
1002
{
1000
MANEDIT
1070
     0
1002
}
1002
{
1000
NOSEL
1070
     0
1002
}
1002
{
1000
BEHIND
1070
     0
1002
}
1002
{
1000
OTHER
1070
     0
1002
}
1002
{
1000
REACTOR
1002
}
  0
LINE
  5
5DE0
330
1F
100
AcDbEntity
  8
0
  6
AM_DIN_F_W050
 62
     6
 48
3.0
100
AcDbLine
 10
115.4188920227873
 20
301.2201617408373
 30
0.0
 11
64.07872305769592
 21
301.5028007137792
 31
0.0
  0
LINE
  5
5DE1
330
1F
100
AcDbEntity
  8
0
  6
AM_DIN_F_W050
 62
     6
 48
3.0
100
AcDbLine
 10
125.4739433979
 20
311.220010206994
 30
0.0
 11
125.4739433978999
 21
339.5607056521281
 31
0.0
  0
ARC
  5
5DE2
330
1F
100
AcDbEntity
  8
0
  6
AM_DIN_F_W050
 62
     6
 48
3.0
100
AcDbCircle
 10
115.4739433979
 20
311.220010206994
 30
0.0
 40
10.0
100
AcDbArc
 50
269.684577261724
 51
0.0
1001
GENIUS_GENOBJ-N-FIL_13
1002
{
1000
OWNER
1000
GEN
1002
}
1001
GENIUS_GENODEF_13
1002
{
1000
HIER
1070
     0
1002
}
1002
{
1000
MANEDIT
1070
     0
1002
}
1002
{
1000
NOSEL
1070
     0
1002
}
1002
{
1000
BEHIND
1070
     0
1002
}
1002
{
1000
OTHER
1070
     0
1002
}
1002
{
1000
REACTOR
1002
}
  0
LINE
  5
5DEA
330
1F
100
AcDbEntity
  8
0
  6
AM_DIN_G_W050
 62
     4
 48
2.0
100
AcDbLine
 10
8.577091116108704
 20
143.0000788272443
 30
0.0
 11
-44.62289141163023
 21
143.0000788272443
 31
0.0
  0
ARC
  5
5DEB
330
1F
100
AcDbEntity
  8
0
  6
AM_DIN_F_W050
 62
     6
 48
3.0
100
AcDbCircle
 10
-7.897036709614098
 20
187.3538878274229
 30
0.0
 40
6.151984258597394
100
AcDbArc
 50
359.8050976135862
 51
90.0
  0
ARC
  5
5DEC
330
1F
100
AcDbEntity
  8
0
  6
AM_DIN_F_W050
 62
     6
 48
3.0
100
AcDbCircle
 10
-7.897036709614098
 20
98.6462698270658
 30
0.0
 40
6.151984258597394
100
AcDbArc
 50
270.0
 51
0.1949023864128855
  0
ARC
  5
5DED
330
1F
100
AcDbEntity
  8
0
  6
AM_DIN_F_W050
 62
     6
 48
3.0
100
AcDbCircle
 10
-49.24532562652927
 20
253.676321129065
 30
0.0
 40
157.0371207619834
100
AcDbArc
 50
287.8900629321981
 51
315.4591643416531
  0
ARC
  5
5DEE
330
1F
100
AcDbEntity
  8
0
  6
AM_DIN_F_W050
 62
     6
 48
3.0
100
AcDbCircle
 10
-91.88325290413013
 20
346.5375374139483
 30
0.0
 40
184.2941233353428
100
AcDbArc
 50
299.6555647977136
 51
319.862280255422
  0
LINE
  5
5DEF
330
1F
100
AcDbEntity
  8
0
  6
AM_DIN_F_W050
 62
     6
 48
3.0
100
AcDbLine
 10
-1.745052451016704
 20
187.3538878274229
 30
0.0
 11
-1.745052451016704
 21
98.6462698270658
 31
0.0
  0
ARC
  5
5DF0
330
1F
100
AcDbEntity
  8
0
  6
AM_DIN_F_W050
 62
     6
 48
3.0
100
AcDbCircle
 10
1790.474805713155
 20
-1493.321143099126
 30
0.0
 40
2380.029165963354
100
AcDbArc
 50
134.1172346942127
 51
136.5482714577465
  0
ARC
  5
5DF1
330
1F
100
AcDbEntity
  8
0
  6
AM_DIN_F_W050
 62
     6
 48
3.0
100
AcDbCircle
 10
158.184707999417
 20
191.0306670590613
 30
0.0
 40
34.52700643039288
100
AcDbArc
 50
86.80603942755892
 51
135.2408660697463
  0
ARC
  5
5DF2
330
1F
100
AcDbEntity
  8
0
  6
AM_DIN_F_W050
 62
     6
 48
3.0
100
AcDbCircle
 10
147.7993625268918
 20
189.8440883125776
 30
0.0
 40
39.47511820042553
100
AcDbArc
 50
7.925719359566921
 51
41.95908436524624
  0
ARC
  5
5DF4
330
1F
100
AcDbEntity
  8
0
  6
AM_DIN_F_W050
 62
     6
 48
3.0
100
AcDbCircle
 10
157.0420909459647
 20
199.5536222627476
 30
0.0
 40
26.13095126892711
100
AcDbArc
 50
39.6769471135826
 51
83.2611085842481
  0
ARC
  5
5DF5
330
1F
100
AcDbEntity
  8
0
  6
AM_DIN_F_W050
 62
     6
 48
3.0
100
AcDbCircle
 10
75.94543643157419
 20
187.0183060556511
 30
0.0
 40
111.2596710773758
100
AcDbArc
 50
324.4333429481457
 51
4.262231848874479
  0
ARC
  5
5DF6
330
1F
100
AcDbEntity
  8
0
  6
AM_DIN_F_W050
 62
     6
 48
3.0
100
AcDbCircle
 10
160.9460419472507
 20
127.8065456678889
 30
0.0
 40
7.781558893676718
100
AcDbArc
 50
233.9642848328283
 51
315.0000000000003
  0
ARC
  5
5DF7
330
1F
100
AcDbEntity
  8
0
  6
AM_DIN_F_W050
 62
     6
 48
3.0
100
AcDbCircle
 10
109.6909445741242
 20
34.73451571694408
 30
0.0
 40
98.5365185244054
100
AcDbArc
 50
61.72490283881312
 51
88.04970463567711
  0
ARC
  5
5DF8
330
1F
100
AcDbEntity
  8
0
  6
AM_DIN_F_W050
 62
     6
 48
3.0
100
AcDbCircle
 10
120.1325958125211
 20
15.58503815971683
 30
0.0
 40
117.8422872901409
100
AcDbArc
 50
93.44841943884892
 51
110.872796843464
  0
ARC
  5
5DF9
330
1F
100
AcDbEntity
  8
0
  6
AM_DIN_F_W050
 62
     6
 48
3.0
100
AcDbCircle
 10
177.3690641605451
 20
-171.0715206313495
 30
0.0
 40
312.9134849798069
100
AcDbArc
 50
108.4872785144387
 51
124.4587219014912
  0
ARC
  5
5DFA
330
1F
100
AcDbEntity
  8
0
  6
AM_DIN_F_W050
 62
     6
 48
3.0
100
AcDbCircle
 10
40.53188381776045
 20
34.35606537998028
 30
0.0
 40
66.19499369475519
100
AcDbArc
 50
127.4086041058344
 51
171.3915566959189
  0
LINE
  5
5DFB
330
1F
100
AcDbEntity
  8
0
  6
AM_DIN_F_W050
 62
     6
 48
3.0
100
AcDbLine
 10
-27.77491178773107
 20
41.84849780306715
 30
0.0
 11
-33.30221737866202
 21
41.69135328533084
 31
0.0
  0
ARC
  5
5DFE
330
1F
100
AcDbEntity
  8
0
  6
AM_DIN_F_W050
 62
     6
 48
3.0
100
AcDbCircle
 10
-33.21696008078379
 20
38.69256499784564
 30
0.0
 40
3.0
100
AcDbArc
 50
91.62851370743295
 51
181.6285137074357
1001
GENIUS_GENODEF_13
1002
{
1000
HIER
1070
     0
1002
}
1002
{
1000
MANEDIT
1070
     0
1002
}
1002
{
1000
NOSEL
1070
     0
1002
}
1002
{
1000
BEHIND
1070
     0
1002
}
1002
{
1000
OTHER
1070
     0
1002
}
1002
{
1000
REACTOR
1002
}
1001
GENIUS_GENOBJ-N-FIL_13
1002
{
1000
OWNER
1000
GEN
1002
}
  0
ARC
  5
5DFF
330
1F
100
AcDbEntity
  8
0
  6
AM_DIN_F_W050
 62
     6
 48
3.0
100
AcDbCircle
 10
-27.8601690856093
 20
44.84728609055238
 30
0.0
 40
3.0
100
AcDbArc
 50
271.6285137074329
 51
348.7925703217105
1001
GENIUS_GENODEF_13
1002
{
1000
HIER
1070
     0
1002
}
1002
{
1000
MANEDIT
1070
     0
1002
}
1002
{
1000
NOSEL
1070
     0
1002
}
1002
{
1000
BEHIND
1070
     0
1002
}
1002
{
1000
OTHER
1070
     0
1002
}
1002
{
1000
REACTOR
1002
}
1001
GENIUS_GENOBJ-N-FIL_13
1002
{
1000
OWNER
1000
GEN
1002
}
  0
ARC
  5
5E00
330
1F
100
AcDbEntity
  8
0
  6
AM_DIN_F_W050
 62
     6
 48
3.0
100
AcDbCircle
 10
278.5284042190337
 20
26.09634817794955
 30
0.0
 40
305.5125064713102
100
AcDbArc
 50
125.4378305439671
 51
138.6996390809289
  0
ARC
  5
5E01
330
1F
100
AcDbEntity
  8
0
  6
AM_DIN_F_W050
 62
     6
 48
3.0
100
AcDbCircle
 10
157.3646037262265
 20
194.4839957519041
 30
0.0
 40
98.0723679515912
100
AcDbArc
 50
71.09995352887245
 51
124.8049806952158
  0
ARC
  5
5E02
330
1F
100
AcDbEntity
  8
0
  6
AM_DIN_F_W050
 62
     6
 48
3.0
100
AcDbCircle
 10
157.2851393994801
 20
199.4791391054511
 30
0.0
 40
93.38762803807924
100
AcDbArc
 50
10.57932531607055
 51
70.06107498528173
  0
ARC
  5
5E03
330
1F
100
AcDbEntity
  8
0
  6
AM_DIN_F_W050
 62
     6
 48
3.0
100
AcDbCircle
 10
105.3917713222435
 20
189.0609324220333
 30
0.0
 40
146.3133835400961
100
AcDbArc
 50
344.2503715137784
 51
10.85879526924296
  0
ARC
  5
5E04
330
1F
100
AcDbEntity
  8
0
  6
AM_DIN_F_W050
 62
     6
 48
3.0
100
AcDbCircle
 10
-7.207221072055631
 20
211.9497473647169
 30
0.0
 40
261.037406495918
100
AcDbArc
 50
329.6026306821448
 51
346.1237933622598
  0
ARC
  5
5E05
330
1F
100
AcDbEntity
  8
0
  6
AM_DIN_F_W050
 62
     6
 48
3.0
100
AcDbCircle
 10
162.1809196957724
 20
118.725338382088
 30
0.0
 40
67.96982197011181
100
AcDbArc
 50
280.3994220738621
 51
325.1304774727245
  0
ARC
  5
5E0D
330
1F
100
AcDbEntity
  8
0
  6
AM_DIN_F_W050
 62
     6
 48
3.0
100
AcDbCircle
 10
166.5058929760355
 20
118.2993346245266
 30
0.0
 40
66.90064503797728
100
AcDbArc
 50
226.0386156197476
 51
276.8197556678371
  0
ARC
  5
5E0E
330
1F
100
AcDbEntity
  8
0
  6
AM_DIN_F_W050
 62
     6
 48
3.0
100
AcDbCircle
 10
112.5912563330207
 20
61.69739800174932
 30
0.0
 40
11.27834139301629
100
AcDbArc
 50
48.49502563010112
 51
111.9427662731111
  0
ARC
  5
5E0F
330
1F
100
AcDbEntity
  8
0
  6
AM_DIN_F_W050
 62
     6
 48
3.0
100
AcDbCircle
 10
221.6817541652301
 20
-281.2853913852905
 30
0.0
 40
371.1613573925014
100
AcDbArc
 50
107.7744998219929
 51
118.7761386031002
  0
ARC
  5
5E10
330
1F
100
AcDbEntity
  8
0
  6
AM_DIN_F_W050
 62
     6
 48
3.0
100
AcDbCircle
 10
40.18483145201537
 20
30.93516666729905
 30
0.0
 40
8.097503761199178
100
AcDbArc
 50
146.9851129384928
 51
185.1453921384182
  0
ARC
  5
5E19
330
1F
100
AcDbEntity
  8
0
  6
AM_DIN_F_W050
 62
     6
 48
3.0
100
AcDbCircle
 10
63.64116221319204
 20
11.55929441799975
 30
0.0
 40
38.47989085866582
100
AcDbArc
 50
122.4242153053883
 51
141.8159788851977
  0
LINE
  5
5E21
330
1F
100
AcDbEntity
  8
0
  6
AM_DIN_F_W050
 62
     6
 48
3.0
100
AcDbLine
 10
263.5552271753643
 20
17.58925020742123
 30
0.0
 11
190.2321202189464
 21
18.22912982799049
 31
0.0
  0
LINE
  5
5E23
330
1F
100
AcDbEntity
  8
0
  6
AM_DIN_F_W050
 62
     6
 48
3.0
100
AcDbLine
 10
121.5047343554289
 20
18.82890607764843
 30
0.0
 11
173.4864595738238
 21
18.37526843423596
 31
0.0
  0
LINE
  5
5E24
330
1F
100
AcDbEntity
  8
0
  6
AM_DIN_F_W050
 62
     6
 48
3.0
100
AcDbLine
 10
48.25613197115308
 20
19.46794655420989
 30
0.0
 11
99.0296116363843
 21
19.0250435015651
 31
0.0
  0
LINE
  5
5E2C
330
1F
100
AcDbEntity
  8
0
  6
AM_DIN_F_W050
 62
     6
 48
3.0
100
AcDbLine
 10
174.4500995311295
 20
51.87203685691127
 30
0.0
 11
174.4500995311295
 21
28.96685887573991
 31
0.0
  0
LINE
  5
5E2D
330
1F
100
AcDbEntity
  8
0
  6
AM_DIN_F_W050
 62
     6
 48
3.0
100
AcDbLine
 10
163.7600401115076
 20
51.50869984577173
 30
0.0
 11
163.7600401115076
 21
29.06014961093314
 31
0.0
  0
ARC
  5
5E36
330
1F
100
AcDbEntity
  8
0
  6
AM_DIN_F_W050
 62
     6
 48
3.0
100
AcDbCircle
 10
277.2321202189464
 20
355.645988268675
 30
0.0
 40
3.0
100
AcDbArc
 50
273.594356457114
 51
0.0
1001
GENIUS_GENOBJ-N-FIL_13
1002
{
1000
OWNER
1000
GEN
1002
}
1001
GENIUS_GENODEF_13
1002
{
1000
HIER
1070
     0
1002
}
1002
{
1000
MANEDIT
1070
     0
1002
}
1002
{
1000
NOSEL
1070
     0
1002
}
1002
{
1000
BEHIND
1070
     0
1002
}
1002
{
1000
OTHER
1070
     0
1002
}
1002
{
1000
REACTOR
1002
}
  0
LINE
  5
5E82
330
1F
100
AcDbEntity
  8
0
  6
AM_DIN_G_W050
 62
     4
 48
2.0
100
AcDbLine
 10
-0.0069926778387526
 20
-11.11626871957472
 30
0.0
 11
-0.0069926778387526
 21
45.46401530639226
 31
0.0
  0
LINE
  5
5E83
330
1F
100
AcDbEntity
  8
0
100
AcDbLine
 10
-47.77844820493737
 20
31.75085006090054
 30
0.0
 11
-42.72735493634013
 21
79.94053570120112
 31
0.0
  0
ARC
  5
5E84
330
1F
100
AcDbEntity
  8
0
100
AcDbCircle
 10
-0.0069926778387526
 20
71.87971592108188
 30
0.0
 40
43.47420116603802
100
AcDbArc
 50
90.0
 51
169.3146031499202
  0
LINE
  5
5E85
330
1F
100
AcDbEntity
  8
0
100
AcDbLine
 10
-40.8165872635916
 20
24.0211294065634
 30
0.0
 11
40.80260190791387
 21
24.0211294065634
 31
0.0
  0
ARC
  5
5E86
330
1F
100
AcDbEntity
  8
0
100
AcDbCircle
 10
-40.8165872635916
 20
31.0211294065634
 30
0.0
 40
7.0
100
AcDbArc
 50
174.0162839309187
 51
270.0
1001
GENIUS_GENOBJ-N-FIL_13
1002
{
1000
OWNER
1000
GEN
1002
}
1001
GENIUS_GENODEF_13
1002
{
1000
HIER
1070
     0
1002
}
1002
{
1000
MANEDIT
1070
     0
1002
}
1002
{
1000
NOSEL
1070
     0
1002
}
1002
{
1000
BEHIND
1070
     0
1002
}
1002
{
1000
OTHER
1070
     0
1002
}
1002
{
1000
REACTOR
1002
}
  0
ARC
  5
5E87
330
1F
100
AcDbEntity
  8
0
100
AcDbCircle
 10
-0.0069926778392073
 20
-108.3896020929379
 30
0.0
 40
144.9238419316562
100
AcDbArc
 50
90.0
 51
106.3890010382445
  0
ELLIPSE
  5
5E88
330
1F
100
AcDbEntity
  8
0
100
AcDbEllipse
 10
-0.0069926778387526
 20
30.89107309202288
 30
0.0
 11
-12.86967574092796
 21
0.0
 31
0.0
210
0.0
220
0.0
230
1.0
 40
0.1239199382223982
 41
0.0
 42
6.283185307179586
  0
LINE
  5
5E89
330
1F
100
AcDbEntity
  8
0
100
AcDbLine
 10
47.76446284925941
 20
31.75085006090054
 30
0.0
 11
42.7133695806624
 21
79.94053570120112
 31
0.0
  0
ARC
  5
5E8A
330
1F
100
AcDbEntity
  8
0
100
AcDbCircle
 10
-0.0069926778389799
 20
71.87971592108188
 30
0.0
 40
43.47420116603802
100
AcDbArc
 50
10.68539685007974
 51
90.0
  0
ARC
  5
5E8B
330
1F
100
AcDbEntity
  8
0
100
AcDbCircle
 10
40.80260190791387
 20
31.0211294065634
 30
0.0
 40
7.0
100
AcDbArc
 50
270.0
 51
5.983716069081202
1001
GENIUS_GENOBJ-N-FIL_13
1002
{
1000
OWNER
1000
GEN
1002
}
1001
GENIUS_GENODEF_13
1002
{
1000
HIER
1070
     0
1002
}
1002
{
1000
MANEDIT
1070
     0
1002
}
1002
{
1000
NOSEL
1070
     0
1002
}
1002
{
1000
BEHIND
1070
     0
1002
}
1002
{
1000
OTHER
1070
     0
1002
}
1002
{
1000
REACTOR
1002
}
  0
ARC
  5
5E8C
330
1F
100
AcDbEntity
  8
0
100
AcDbCircle
 10
-0.0069926778387526
 20
-108.3896020929379
 30
0.0
 40
144.9238419316562
100
AcDbArc
 50
73.61099896175549
 51
90.0
  0
LINE
  5
5EA0
330
1F
100
AcDbEntity
  8
0
  6
AM_DIN_G_W050
 62
     4
 48
2.0
100
AcDbLine
 10
205.2321202189463
 20
393.4984899959696
 30
0.0
 11
205.2321202189463
 21
438.8571025365259
 31
0.0
  0
ARC
  5
5EA8
330
1F
100
AcDbEntity
  8
0
  6
AM_DIN_F_W050
 62
     6
 48
3.0
100
AcDbCircle
 10
245.9517791309461
 20
426.0000788272438
 30
0.0
 40
5.0
100
AcDbArc
 50
270.0
 51
355.614488661713
  0
ARC
  5
5EA9
330
1F
100
AcDbEntity
  8
0
  6
AM_DIN_F_W050
 62
     6
 48
3.0
100
AcDbCircle
 10
254.2190512589461
 20
433.0000788272437
 30
0.0
 40
2.0
100
AcDbArc
 50
90.00000008599483
 51
177.0000000003334
  0
LINE
  5
5EAA
330
1F
100
AcDbEntity
  8
0
  6
AM_DIN_F_W050
 62
     6
 48
3.0
100
AcDbLine
 10
251.940553607752
 20
427.7383990460865
 30
0.0
 11
252.2217921828846
 21
433.1047507400613
 31
0.0
  0
LINE
  5
5EAB
330
1F
100
AcDbEntity
  8
0
  6
AM_DIN_F_W050
 62
     6
 48
3.0
100
AcDbLine
 10
153.9804809072172
 20
446.0000788272437
 30
0.0
 11
153.9804809072172
 21
435.0000788272438
 31
0.0
  0
LINE
  5
5EAC
330
1F
100
AcDbEntity
  8
0
  6
AM_DIN_F_W050
 62
     6
 48
3.0
100
AcDbLine
 10
139.0633653059058
 20
446.0000788272437
 30
0.0
 11
268.2321202189462
 21
446.0000788272437
 31
0.0
  0
ARC
  5
5EBB
330
1F
100
AcDbEntity
  8
0
  6
AM_DIN_F_W050
 62
     6
 48
3.0
100
AcDbCircle
 10
199.6339295286183
 20
-661.5484188858556
 30
0.0
 40
1479.559298177866
100
AcDbArc
 50
87.36967905377531
 51
92.69825858409374
  0
ARC
  5
5EBE
330
1F
100
AcDbEntity
  8
0
  6
AM_DIN_F_W050
 62
     6
 48
3.0
100
AcDbCircle
 10
130.2910905352367
 20
810.3784646484832
 30
0.0
 40
6.0
100
AcDbArc
 50
92.95231726942253
 51
178.1399999999993
1001
GENIUS_GENOBJ-N-FIL_13
1002
{
1000
OWNER
1000
GEN
1002
}
1001
GENIUS_GENODEF_13
1002
{
1000
HIER
1070
     0
1002
}
1002
{
1000
MANEDIT
1070
     0
1002
}
1002
{
1000
NOSEL
1070
     0
1002
}
1002
{
1000
BEHIND
1070
     0
1002
}
1002
{
1000
OTHER
1070
     0
1002
}
1002
{
1000
REACTOR
1002
}
  0
ARC
  5
5EBF
330
1F
100
AcDbEntity
  8
0
  6
AM_DIN_F_W050
 62
     6
 48
3.0
100
AcDbCircle
 10
267.2321202189464
 20
810.4596161217529
 30
0.0
 40
6.0
100
AcDbArc
 50
0.0
 51
87.12246579426935
1001
GENIUS_GENOBJ-N-FIL_13
1002
{
1000
OWNER
1000
GEN
1002
}
1001
GENIUS_GENODEF_13
1002
{
1000
HIER
1070
     0
1002
}
1002
{
1000
MANEDIT
1070
     0
1002
}
1002
{
1000
NOSEL
1070
     0
1002
}
1002
{
1000
BEHIND
1070
     0
1002
}
1002
{
1000
OTHER
1070
     0
1002
}
1002
{
1000
REACTOR
1002
}
  0
LINE
  5
5EC0
330
1F
100
AcDbEntity
  8
0
  6
AM_DIN_G_W050
 62
     4
 48
2.0
100
AcDbLine
 10
210.2321223778292
 20
808.3636458119398
 30
0.0
 11
210.2321223778292
 21
837.5160275815719
 31
0.0
  0
LINE
  5
600D
330
1F
100
AcDbEntity
  8
0
100
AcDbLine
 10
128.0707927959058
 20
420.0000788272437
 30
0.0
 11
285.2390743054803
 21
420.0000788272437
 31
0.0
  0
LWPOLYLINE
  5
6071
330
1F
100
AcDbEntity
  8
0
100
AcDbPolyline
 90
       12
 70
     1
 43
0.0
 10
285.3249936925102
 20
431.9785609482031
 42
0.4163159578254126
 10
282.3250708633559
 20
435.0000788272438
 10
138.3989629360504
 20
435.0000788272437
 42
0.398959545973618
 10
135.4030743317867
 20
432.1570866959736
 10
135.0611995144916
 20
426.6337266623104
 42
-0.3989595264384417
 10
128.0707927959058
 20
420.0000788272437
 10
-417.767880461886
 20
420.0000788272435
 42
0.4630253474502517
 10
-424.6742324442923
 20
411.8590260217057
 42
0.0581407338871379
 10
-306.9804843900408
 20
2.39633704893913
 10
-298.9715729038032
 20
0.0000788272437546
 10
274.2137761186465
 20
0.0000788272437831
 10
282.2436816876814
 20
2.396341979556382
  0
LINE
  5
6072
330
1F
100
AcDbEntity
  8
0
100
AcDbLine
 10
-306.9804843900408
 20
2.39633704893913
 30
0.0
 11
282.2436816876814
 21
2.396341979556382
 31
0.0
  0
LINE
  5
60D1
330
1F
100
AcDbEntity
  8
0
100
AcDbLine
 10
112.7208242419918
 20
772.0013545894285
 30
0.0
 11
285.2308444616186
 21
772.0013545894286
 31
0.0
  0
LINE
  5
60D2
330
1F
100
AcDbEntity
  8
0
100
AcDbLine
 10
115.6333432845819
 20
775.0000788323911
 30
0.0
 11
282.2321202188003
 21
775.0000788322466
 31
0.0
  0
LWPOLYLINE
  5
60E7
330
1F
100
AcDbEntity
  8
0
100
AcDbPolyline
 90
       14
 70
     1
 43
0.0
 10
285.2321202189464
 20
772.0000788272438
 10
282.2321202189462
 20
775.0000788272438
 10
285.2321202189464
 20
775.0000788272438
 10
285.2321202189464
 20
817.9721332887105
 42
0.3985978018633252
 10
275.767733293009
 20
827.9575652069199
 42
0.0270491295489506
 10
121.9197413432867
 20
827.8811063880382
 42
0.3870456065016046
 10
112.5363943659318
 20
818.2243876433622
 10
111.1327051359058
 20
775.0000788272436
 10
115.6333432847278
 20
775.000078827388
 10
112.7208242419918
 20
772.0013545894285
 10
122.4668501939024
 20
437.9126001420718
 42
0.4056972819559224
 10
125.4655745026111
 20
435.0000788272437
 10
282.2321202189464
 20
435.0000788272438
 42
0.4142135623730951
 10
285.2321202189464
 20
438.0000788272438
  0
LINE
  5
62EE
330
1F
100
AcDbEntity
  8
0
  6
AM_DIN_F_W050
 62
     6
 48
5.0
100
AcDbLine
 10
42.94699283036698
 20
423.2067191422496
 30
0.0
 11
58.94389576429865
 21
423.2050363067009
 31
0.0
  0
LINE
  5
62EF
330
1F
100
AcDbEntity
  8
0
  6
AM_DIN_F_W050
 62
     6
 48
5.0
100
AcDbLine
 10
59.94400095634791
 20
424.2051415123691
 30
0.0
 11
59.93984593567614
 21
463.6973304690848
 31
0.0
  0
ARC
  5
62F0
330
1F
100
AcDbEntity
  8
0
  6
AM_DIN_F_W050
 62
     6
 48
5.0
100
AcDbCircle
 10
58.94400096188258
 20
424.2050363011676
 30
0.0
 40
1.0
100
AcDbArc
 50
269.9939726224145
 51
0.0060281578121468
1001
GENIUS_GENODEF_13
1002
{
1000
HIER
1070
     0
1002
}
1002
{
1000
MANEDIT
1070
     0
1002
}
1002
{
1000
NOSEL
1070
     0
1002
}
1002
{
1000
BEHIND
1070
     0
1002
}
1002
{
1000
OTHER
1070
     0
1002
}
1002
{
1000
REACTOR
1002
}
1001
GENIUS_GENOBJ-N-FIL_13
1002
{
1000
OWNER
1000
GEN
1002
}
  0
ARC
  5
62F1
330
1F
100
AcDbEntity
  8
0
  6
AM_DIN_F_W050
 62
     6
 48
5.0
100
AcDbCircle
 10
58.93984594121082
 20
463.6972252578834
 30
0.0
 40
1.0
100
AcDbArc
 50
0.0060281578121468
 51
89.99397262254474
1001
GENIUS_GENOBJ-N-FIL_13
1002
{
1000
OWNER
1000
GEN
1002
}
1001
GENIUS_GENODEF_13
1002
{
1000
HIER
1070
     0
1002
}
1002
{
1000
MANEDIT
1070
     0
1002
}
1002
{
1000
NOSEL
1070
     0
1002
}
1002
{
1000
BEHIND
1070
     0
1002
}
1002
{
1000
OTHER
1070
     0
1002
}
1002
{
1000
REACTOR
1002
}
  0
LINE
  5
62F2
330
1F
100
AcDbEntity
  8
0
  6
AM_DIN_F_W050
 62
     6
 48
5.0
100
AcDbLine
 10
41.94294301281376
 20
463.6988028821942
 30
0.0
 11
41.94709803348565
 21
424.2066139255149
 31
0.0
  0
ARC
  5
62F3
330
1F
100
AcDbEntity
  8
0
  6
AM_DIN_F_W050
 62
     6
 48
5.0
100
AcDbCircle
 10
42.94709802795091
 20
424.2067191367163
 30
0.0
 40
1.0
100
AcDbArc
 50
180.0060281578121
 51
269.9939726224145
1001
GENIUS_GENOBJ-N-FIL_13
1002
{
1000
OWNER
1000
GEN
1002
}
1001
GENIUS_GENODEF_13
1002
{
1000
HIER
1070
     0
1002
}
1002
{
1000
MANEDIT
1070
     0
1002
}
1002
{
1000
NOSEL
1070
     0
1002
}
1002
{
1000
BEHIND
1070
     0
1002
}
1002
{
1000
OTHER
1070
     0
1002
}
1002
{
1000
REACTOR
1002
}
  0
ARC
  5
62F4
330
1F
100
AcDbEntity
  8
0
  6
AM_DIN_F_W050
 62
     6
 48
5.0
100
AcDbCircle
 10
42.94294300727904
 20
463.6989080933957
 30
0.0
 40
1.0
100
AcDbArc
 50
89.99397262254474
 51
180.0060281578121
1001
GENIUS_GENODEF_13
1002
{
1000
HIER
1070
     0
1002
}
1002
{
1000
MANEDIT
1070
     0
1002
}
1002
{
1000
NOSEL
1070
     0
1002
}
1002
{
1000
BEHIND
1070
     0
1002
}
1002
{
1000
OTHER
1070
     0
1002
}
1002
{
1000
REACTOR
1002
}
1001
GENIUS_GENOBJ-N-FIL_13
1002
{
1000
OWNER
1000
GEN
1002
}
  0
LINE
  5
62F5
330
1F
100
AcDbEntity
  8
0
  6
AM_DIN_F_W050
 62
     6
 48
5.0
100
AcDbLine
 10
58.93995113879248
 20
464.6972252523501
 30
0.0
 11
42.9430482048607
 21
464.6989080878624
 31
0.0
  0
LINE
  5
62F6
330
1F
100
AcDbEntity
  8
0
  6
AM_DIN_F_W050
 62
     6
 48
5.0
100
AcDbLine
 10
-38.6289921476872
 20
451.339111074104
 30
0.0
 11
-40.80708418931846
 21
455.6195640140422
 31
0.0
  0
CIRCLE
  5
62F7
330
1F
100
AcDbEntity
  8
0
  6
AM_DIN_F_W050
 62
     6
 48
5.0
100
AcDbCircle
 10
-6.159178464410501
 20
450.9990539135801
 30
0.0
 40
8.000000000309997
  0
CIRCLE
  5
62F8
330
1F
100
AcDbEntity
  8
0
  6
AM_DIN_F_W050
 62
     6
 48
5.0
100
AcDbCircle
 10
-6.159178464410501
 20
450.9990539135801
 30
0.0
 40
9.900000000489999
  0
LINE
  5
62F9
330
1F
100
AcDbEntity
  8
0
100
AcDbLine
 10
12.26164470088952
 20
449.5768769400401
 30
0.0
 11
7.196708582417841
 21
475.1088720995441
 31
0.0
  0
ARC
  5
62FA
330
1F
100
AcDbEntity
  8
0
  6
AM_DIN_F_W050
 62
     6
 48
5.0
100
AcDbCircle
 10
-7659.328950444535
 20
-3236.758022899959
 30
0.0
 40
8461.083544421926
100
AcDbArc
 50
25.82504673080073
 51
25.8577003113024
  0
LINE
  5
62FB
330
1F
100
AcDbEntity
  8
0
100
AcDbLine
 10
-385.7134362315858
 20
424.9444038333116
 30
0.0
 11
-95.54111832094525
 21
424.9989612223796
 31
0.0
  0
ARC
  5
62FC
330
1F
100
AcDbEntity
  8
0
100
AcDbCircle
 10
-95.54111832095703
 20
518.6089612223788
 30
0.0
 40
93.6099999999994
100
AcDbArc
 50
270.0000000000065
 51
291.9534437431754
1001
GENIUS_GENODEF_13
1002
{
1000
HIER
1070
     0
1002
}
1002
{
1000
MANEDIT
1070
     0
1002
}
1002
{
1000
NOSEL
1070
     0
1002
}
1002
{
1000
BEHIND
1070
     0
1002
}
1002
{
1000
OTHER
1070
     0
1002
}
1002
{
1000
REACTOR
1002
}
1001
GENIUS_GENOBJ-N-FIL_13
1002
{
1000
OWNER
1000
GEN
1002
}
  0
LINE
  5
62FD
330
1F
100
AcDbEntity
  8
0
100
AcDbLine
 10
-346.0236954166372
 20
420.0011071553257
 30
0.0
 11
-324.3776067724907
 21
420.0009945302772
 31
0.0
  0
ARC
  5
62FE
330
1F
100
AcDbEntity
  8
0
100
AcDbCircle
 10
-346.1523733237578
 20
428.0515273504514
 30
0.0
 40
8.05144852320792
100
AcDbArc
 50
202.6535692421047
 51
270.9157376922869
  0
ARC
  5
62FF
330
1F
100
AcDbEntity
  8
0
100
AcDbCircle
 10
-324.2488328822558
 20
428.0514131906365
 30
0.0
 40
8.05144852320792
100
AcDbArc
 50
269.0835791846316
 51
337.3457476347987
  0
LINE
  5
6300
330
1F
100
AcDbEntity
  8
0
100
AcDbLine
 10
-182.3482129938859
 20
420.0318809625576
 30
0.0
 11
-159.355547329537
 21
420.049884353767
 31
0.0
  0
ARC
  5
6301
330
1F
100
AcDbEntity
  8
0
100
AcDbCircle
 10
-182.476890901006
 20
428.0823011576832
 30
0.0
 40
8.05144852320792
100
AcDbArc
 50
202.6535692421047
 51
270.9157376922803
  0
ARC
  5
6302
330
1F
100
AcDbEntity
  8
0
100
AcDbCircle
 10
-159.2268087875633
 20
428.1003030143369
 30
0.0
 40
8.05144852320792
100
AcDbArc
 50
269.0835791846316
 51
337.3457476347987
  0
ARC
  5
6303
330
1F
100
AcDbEntity
  8
0
  6
AM_DIN_F_W050
 62
     6
 48
5.0
100
AcDbCircle
 10
-384.3609500945671
 20
397.7658775491649
 30
0.0
 40
34.4899755645231
100
AcDbArc
 50
19.00761866906466
 51
92.41067926973455
  0
LINE
  5
6304
330
1F
100
AcDbEntity
  8
0
100
AcDbLine
 10
98.85884999813857
 20
519.3633293630778
 30
0.0
 11
-13.72807378584559
 21
465.0063927906084
 31
0.0
  0
ARC
  5
6305
330
1F
100
AcDbEntity
  8
0
100
AcDbCircle
 10
-7.190642842807619
 20
450.0247599258514
 30
0.0
 40
16.34586573508295
100
AcDbArc
 50
113.5746777617976
 51
176.2651938455168
  0
ARC
  5
6306
330
1F
100
AcDbEntity
  8
0
100
AcDbCircle
 10
-26.4198756652396
 20
451.3548320203334
 30
0.0
 40
2.930119508267274
100
AcDbArc
 50
295.1120137260467
 51
354.8046646321832
  0
ARC
  5
6307
330
1F
100
AcDbEntity
  8
0
  6
AM_DIN_F_W050
 62
     6
 48
5.0
100
AcDbCircle
 10
-47.98289362388243
 20
402.4608726719897
 30
0.0
 40
39.98444131734589
100
AcDbArc
 50
113.0301146294373
 51
170.588842904717
  0
ARC
  5
6308
330
1F
100
AcDbEntity
  8
0
  6
AM_DIN_F_W050
 62
     6
 48
5.0
100
AcDbCircle
 10
-47.74006356589825
 20
452.2895988258305
 30
0.0
 40
2.634647753676065
100
AcDbArc
 50
25.8477914450118
 51
109.0156034447213
  0
ARC
  5
6309
330
1F
100
AcDbEntity
  8
0
  6
AM_DIN_F_W050
 62
     6
 48
5.0
100
AcDbCircle
 10
-38.37195631012469
 20
456.7523924614276
 30
0.0
 40
2.685730455431485
100
AcDbArc
 50
117.9349271428092
 51
204.947983426669
  0
ARC
  5
630A
330
1F
100
AcDbEntity
  8
0
100
AcDbCircle
 10
3.328609629903439
 20
477.0297332778055
 30
0.0
 40
2.634647753676065
100
AcDbArc
 50
25.8477914450118
 51
109.0156034447213
  0
ARC
  5
630B
330
1F
100
AcDbEntity
  8
0
100
AcDbCircle
 10
12.696716885677
 20
481.4925269134026
 30
0.0
 40
2.685730455431485
100
AcDbArc
 50
117.9349271428092
 51
204.947983426669
  0
LINE
  5
630C
330
1F
100
AcDbEntity
  8
0
100
AcDbLine
 10
5.699675166470001
 20
478.1783920640675
 30
0.0
 11
7.203649573743746
 21
475.0738827636428
 31
0.0
  0
LINE
  5
630D
330
1F
100
AcDbEntity
  8
0
100
AcDbLine
 10
10.26158900648335
 20
480.3596984660171
 30
0.0
 11
11.77922537367305
 21
477.3213099759218
 31
0.0
  0
LINE
  5
630E
330
1F
100
AcDbEntity
  8
0
100
AcDbLine
 10
-42.86064208422965
 20
424.4451702553491
 30
0.0
 11
-55.16310383456527
 21
423.5233044711087
 31
0.0
  0
ARC
  5
630F
330
1F
100
AcDbEntity
  8
0
100
AcDbCircle
 10
26.62288337905329
 20
428.9470293706801
 30
0.0
 40
3.0
100
AcDbArc
 50
270.0
 51
358.9993608586518
1001
GENIUS_GENOBJ-N-FIL_13
1002
{
1000
OWNER
1000
GEN
1002
}
1001
GENIUS_GENODEF_13
1002
{
1000
HIER
1070
     0
1002
}
1002
{
1000
MANEDIT
1070
     0
1002
}
1002
{
1000
NOSEL
1070
     0
1002
}
1002
{
1000
BEHIND
1070
     0
1002
}
1002
{
1000
OTHER
1070
     0
1002
}
1002
{
1000
REACTOR
1002
}
  0
ARC
  5
6310
330
1F
100
AcDbEntity
  8
0
100
AcDbCircle
 10
-32.38377767339648
 20
420.049375641166
 30
0.0
 40
11.3616767324662
100
AcDbArc
 50
130.3110237843112
 51
157.2384630932934
  0
ARC
  5
6311
330
1F
100
AcDbEntity
  8
0
100
AcDbCircle
 10
-52.79904546783967
 20
442.0218416282438
 30
0.0
 40
18.64979944388926
100
AcDbArc
 50
314.4705761575905
 51
330.7227359223331
  0
ARC
  5
6312
330
1F
100
AcDbEntity
  8
0
100
AcDbCircle
 10
-48.31476703003841
 20
439.4418446546591
 30
0.0
 40
13.47673766163869
100
AcDbArc
 50
330.9670327227077
 51
13.14669483749234
  0
ARC
  5
6313
330
1F
100
AcDbEntity
  8
0
100
AcDbCircle
 10
-39.00274695296161
 20
420.2922023807711
 30
0.0
 40
5.668376929169348
100
AcDbArc
 50
86.03755274220691
 51
132.8905165246833
  0
LINE
  5
6314
330
1F
100
AcDbEntity
  8
0
100
AcDbLine
 10
29.62242588028477
 20
428.8946386911056
 30
0.0
 11
30.62719599743821
 21
486.4211051322534
 31
0.0
  0
LINE
  5
6315
330
1F
100
AcDbEntity
  8
0
  6
AM_DIN_G_W050
 62
     4
 48
2.0
100
AcDbLine
 10
-6.128066208620282
 20
463.3874293003054
 30
0.0
 11
-6.119151205558523
 21
438.6107041238207
 31
0.0
  0
LINE
  5
6316
330
1F
100
AcDbEntity
  8
0
  6
AM_DIN_G_W050
 62
     4
 48
2.0
100
AcDbLine
 10
6.26475468308115
 20
450.999079510546
 30
0.0
 11
-18.51197209726001
 21
450.9990539135801
 31
0.0
  0
LWPOLYLINE
  5
6317
330
1F
100
AcDbEntity
  8
0
100
AcDbPolyline
 90
        8
 70
     1
 43
0.0
 10
42.94082153628949
 20
465.8990539135801
 10
58.90531586387908
 20
465.8990539135801
 42
0.4142135623730951
 10
59.90531586387908
 20
466.89905391358
 10
59.90531586387908
 20
478.2479099517827
 42
0.4142135623730951
 10
58.90531586387908
 20
479.2479099517827
 10
42.94082153628949
 20
479.2479099517827
 42
0.4142135623730951
 10
41.94082153628949
 20
478.2479099517827
 10
41.94082153628949
 20
466.89905391358
 42
0.4142135623730951
1001
GENIUS_GENREC_14
1002
{
1000
PYDIR
1011
41.94082153628949
1021
479.2479099517827
1031
0.0
1002
}
1002
{
1000
PXDIR
1011
59.90531586387908
1021
465.8990539135801
1031
0.0
1002
}
1002
{
1000
PORI
1011
41.94082153628949
1021
465.8990539135801
1031
0.0
1002
}
1002
{
1000
PINS
1011
41.94082153628949
1021
465.8990539135801
1031
0.0
1002
}
1002
{
1000
PINS2
1011
59.90531586387908
1021
479.2479099517827
1031
0.0
1002
}
1002
{
1000
C
1070
     1
1002
}
1001
GENIUS_GENODEF_13
1002
{
1000
HIER
1070
     0
1002
}
1002
{
1000
MANEDIT
1070
     0
1002
}
1002
{
1000
NOSEL
1070
     0
1002
}
1002
{
1000
BEHIND
1070
     0
1002
}
1002
{
1000
OTHER
1070
     0
1002
}
1002
{
1000
REACTOR
1002
}
1001
GENIUS_GENOBJ-N-REC_13
1002
{
1000
OWNER
1000
GEN
1002
}
  0
CIRCLE
  5
6318
330
1F
100
AcDbEntity
  8
0
  6
AM_DIN_F_W050
 62
     6
 48
5.0
100
AcDbCircle
 10
50.94096348608957
 20
458.1053079031201
 30
0.0
 40
4.842439800186997
  0
CIRCLE
  5
6319
330
1F
100
AcDbEntity
  8
0
  6
AM_DIN_F_W050
 62
     6
 48
5.0
100
AcDbCircle
 10
50.94979077628955
 20
445.1211024172501
 30
0.0
 40
4.842439800186997
  0
CIRCLE
  5
631A
330
1F
100
AcDbEntity
  8
0
  6
AM_DIN_F_W050
 62
     6
 48
5.0
100
AcDbCircle
 10
50.95115826438962
 20
432.1235492396801
 30
0.0
 40
4.842439800186997
  0
LWPOLYLINE
  5
631B
330
1F
100
AcDbEntity
  8
0
  6
AM_DIN_F_W050
 62
     6
 48
5.0
100
AcDbPolyline
 90
        4
 70
     1
 43
0.0
 10
-5.994081892050076
 20
425.9470293706801
 10
4.673408086980202
 20
425.9470293706801
 10
4.673408086980202
 20
432.4897443398503
 10
-5.994081892050076
 20
433.3862031552993
1001
GENIUS_GENREC_14
1002
{
1000
PYDIR
1011
-5.994081892050076
1021
433.3862031552993
1031
0.0
1002
}
1002
{
1000
PXDIR
1011
4.673408086980202
1021
425.9470293706801
1031
0.0
1002
}
1002
{
1000
PORI
1011
-5.994081892050076
1021
425.9470293706801
1031
0.0
1002
}
1002
{
1000
PINS
1011
-5.994081892050076
1021
425.9470293706801
1031
0.0
1002
}
1002
{
1000
PINS2
1011
4.673408086980202
1021
432.4897443398503
1031
0.0
1002
}
1002
{
1000
C
1070
     1
1002
}
1001
GENIUS_GENODEF_13
1002
{
1000
HIER
1070
     0
1002
}
1002
{
1000
MANEDIT
1070
     0
1002
}
1002
{
1000
NOSEL
1070
     0
1002
}
1002
{
1000
BEHIND
1070
     0
1002
}
1002
{
1000
OTHER
1070
     0
1002
}
1002
{
1000
REACTOR
1002
}
1001
GENIUS_GENOBJ-N-REC_13
1002
{
1000
OWNER
1000
GEN
1002
}
  0
ARC
  5
631C
330
1F
100
AcDbEntity
  8
0
100
AcDbCircle
 10
-6.685926536805936
 20
449.0504533148182
 30
0.0
 40
15.95617044214916
100
AcDbArc
 50
1.885140748611659
 51
117.0764963519701
  0
LINE
  5
631D
330
1F
100
AcDbEntity
  8
0
100
AcDbLine
 10
26.62288337905329
 20
425.9470293706801
 30
0.0
 11
-38.61104716315356
 21
425.9470293706801
 31
0.0
  0
LINE
  5
631E
330
1F
100
AcDbEntity
  8
0
100
AcDbLine
 10
12.26164470088952
 20
449.5768769400401
 30
0.0
 11
9.261608120971345
 21
449.5753471306574
 31
0.0
  0
ARC
  5
631F
330
1F
100
AcDbEntity
  8
0
100
AcDbCircle
 10
-6.123608707089374
 20
450.999066712063
 30
0.0
 40
15.47232192379394
100
AcDbArc
 50
238.1840214543086
 51
354.7203755073777
  0
ARC
  5
6320
330
1F
100
AcDbEntity
  8
0
100
AcDbCircle
 10
-30.62096219542201
 20
413.8814596994958
 30
0.0
 40
29.00990673162061
100
AcDbArc
 50
55.717645219888
 51
104.2109710885653
  0
LINE
  5
6321
330
1F
100
AcDbEntity
  8
0
  6
AM_DIN_F_W050
 62
     6
 48
5.0
100
AcDbLine
 10
-19.79341683717109
 20
460.434246669988
 30
0.0
 11
-63.6254024886889
 21
439.2585283564859
 31
0.0
  0
LINE
  5
6322
330
1F
100
AcDbEntity
  8
0
100
AcDbLine
 10
-19.79341683717109
 20
460.434246669988
 30
0.0
 11
-13.94885124171105
 21
463.2578211185245
 31
0.0
  0
LINE
  5
6323
330
1F
100
AcDbEntity
  8
0
100
AcDbLine
 10
-35.59688122507453
 20
402.8411900344883
 30
0.0
 11
-10.08937796251337
 21
419.9936389583948
 31
0.0
  0
ELLIPSE
  5
6324
330
1F
100
AcDbEntity
  8
0
  6
AM_DIN_F_W050
 62
     6
 48
5.0
100
AcDbEllipse
 10
-82.08176255405659
 20
421.3159590230046
 30
0.0
 11
3.683002233017375
 21
335.684010257567
 31
0.0
210
0.0
220
0.0
230
1.0
 40
0.9999999908555269
 41
1.55506594165708
 42
1.570958852679244
  0
LINE
  5
6325
330
1F
100
AcDbEntity
  8
0
  6
AM_DIN_F_W050
 62
     6
 48
5.0
100
AcDbLine
 10
-89.91577746701727
 20
432.2253297476773
 30
0.0
 11
-415.6670192086672
 21
432.2253297476766
 31
0.0
  0
ARC
  5
6326
330
1F
100
AcDbEntity
  8
0
  6
AM_DIN_F_W050
 62
     6
 48
5.0
100
AcDbCircle
 10
-415.6670192086672
 20
430.2253297476766
 30
0.0
 40
2.0
100
AcDbArc
 50
90.00000000070999
 51
178.4701122067588
1001
GENIUS_GENODEF_13
1002
{
1000
HIER
1070
     0
1002
}
1002
{
1000
MANEDIT
1070
     0
1002
}
1002
{
1000
NOSEL
1070
     0
1002
}
1002
{
1000
BEHIND
1070
     0
1002
}
1002
{
1000
OTHER
1070
     0
1002
}
1002
{
1000
REACTOR
1002
}
1001
GENIUS_GENOBJ-N-FIL_13
1002
{
1000
OWNER
1000
GEN
1002
}
  0
ARC
  5
6327
330
1F
100
AcDbEntity
  8
0
  6
AM_DIN_F_W050
 62
     6
 48
5.0
100
AcDbCircle
 10
-94.43475867169343
 20
501.7712912913167
 30
0.0
 40
69.69262484766662
100
AcDbArc
 50
273.7177582234342
 51
296.2363393920607
  0
ELLIPSE
  5
6328
330
1F
100
AcDbEntity
  8
0
  6
AM_DIN_F_W050
 62
     6
 48
5.0
100
AcDbEllipse
 10
-8.463985301141804
 20
538.1898451042368
 30
0.0
 11
317.4390572807155
 21
-109.2234597546762
 31
0.0
210
0.0
220
0.0
230
1.0
 40
0.9999999908555269
 41
1.534397580045986
 42
1.570796326794674
  0
LINE
  5
6329
330
1F
100
AcDbEntity
  8
0
  6
AM_DIN_F_W050
 62
     6
 48
5.0
100
AcDbLine
 10
114.0171551884865
 20
847.72889538566
 30
0.0
 11
10.40189568553438
 21
531.0366803165093
 31
0.0
  0
ARC
  5
632A
330
1F
100
AcDbEntity
  8
0
  6
AM_DIN_F_W050
 62
     6
 48
5.0
100
AcDbCircle
 10
57.9230589907172
 20
515.4887210252663
 30
0.0
 40
50.0
100
AcDbArc
 50
161.882955017019
 51
187.4892356834849
1001
GENIUS_GENODEF_13
1002
{
1000
HIER
1070
     0
1002
}
1002
{
1000
MANEDIT
1070
     0
1002
}
1002
{
1000
NOSEL
1070
     0
1002
}
1002
{
1000
BEHIND
1070
     0
1002
}
1002
{
1000
OTHER
1070
     0
1002
}
1002
{
1000
REACTOR
1002
}
1001
GENIUS_GENOBJ-N-FIL_13
1002
{
1000
OWNER
1000
GEN
1002
}
  0
ARC
  5
632B
330
1F
100
AcDbEntity
  8
0
  6
AM_DIN_F_W050
 62
     6
 48
5.0
100
AcDbCircle
 10
111.1603063110885
 20
848.6445451504309
 30
0.0
 40
3.0
100
AcDbArc
 50
342.2288051547738
 51
68.92734656627476
  0
LINE
  5
632C
330
1F
100
AcDbEntity
  8
0
  6
AM_DIN_F_W050
 62
     6
 48
5.0
100
AcDbLine
 10
88.16022308950483
 20
817.6624865292637
 30
0.0
 11
-2.648435067815967
 21
544.0208875964399
 31
0.0
  0
ARC
  5
632D
330
1F
100
AcDbEntity
  8
0
  6
AM_DIN_F_W050
 62
     6
 48
5.0
100
AcDbCircle
 10
86.19719827892708
 20
514.5372389888478
 30
0.0
 40
93.6099999999994
100
AcDbArc
 50
161.6414442384814
 51
183.5948879816486
1001
GENIUS_GENODEF_13
1002
{
1000
HIER
1070
     0
1002
}
1002
{
1000
MANEDIT
1070
     0
1002
}
1002
{
1000
NOSEL
1070
     0
1002
}
1002
{
1000
BEHIND
1070
     0
1002
}
1002
{
1000
OTHER
1070
     0
1002
}
1002
{
1000
REACTOR
1002
}
1001
GENIUS_GENOBJ-N-FIL_13
1002
{
1000
OWNER
1000
GEN
1002
}
  0
LINE
  5
632E
330
1F
100
AcDbEntity
  8
0
  6
AM_DIN_F_W050
 62
     6
 48
5.0
100
AcDbLine
 10
8.349590681058316
 20
508.9717248037514
 30
0.0
 11
18.2283915492124
 21
433.825690476142
 31
0.0
  0
LINE
  5
632F
330
1F
100
AcDbEntity
  8
0
  6
AM_DIN_F_W050
 62
     6
 48
5.0
100
AcDbLine
 10
100.7594734547433
 20
855.6288994821393
 30
0.0
 11
88.16022308950483
 21
817.6624865292637
 31
0.0
  0
LINE
  5
6330
330
1F
100
AcDbEntity
  8
0
  6
AM_DIN_F_W050
 62
     6
 48
5.0
100
AcDbLine
 10
-4.807209989054058
 20
489.5025993658476
 30
0.0
 11
-7.228607825655444
 21
508.6677540277262
 31
0.0
  0
ARC
  5
6331
330
1F
100
AcDbEntity
  8
0
  6
AM_DIN_F_W050
 62
     6
 48
5.0
100
AcDbCircle
 10
15.59391703080575
 20
433.7954779321142
 30
0.0
 40
2.634647753676065
100
AcDbArc
 50
277.4892356834917
 51
0.6570476831921706
  0
LINE
  5
6332
330
1F
100
AcDbEntity
  8
0
  6
AM_DIN_F_W050
 62
     6
 48
5.0
100
AcDbLine
 10
15.93731681992028
 20
431.1833053936346
 30
0.0
 11
11.11734155552312
 21
430.549664826272
 31
0.0
  0
ARC
  5
6333
330
1F
100
AcDbEntity
  8
0
  6
AM_DIN_F_W050
 62
     6
 48
5.0
100
AcDbCircle
 10
-7.807127554067335
 20
452.1127417621285
 30
0.0
 40
15.9561704421492
100
AcDbArc
 50
253.5265849870854
 51
6.260530776534078
  0
ARC
  5
6334
330
1F
100
AcDbEntity
  8
0
  6
AM_DIN_F_W050
 62
     6
 48
5.0
100
AcDbCircle
 10
-6.134799703100384
 20
450.9653032790628
 30
0.0
 40
15.47232192379394
100
AcDbArc
 50
129.8254656927849
 51
246.361819745847
  0
ARC
  5
6335
330
1F
100
AcDbEntity
  8
0
  6
AM_DIN_F_W050
 62
     6
 48
5.0
100
AcDbCircle
 10
-34.17179884674624
 20
486.1860629489571
 30
0.0
 40
29.55128580258157
100
AcDbArc
 50
307.8381461489673
 51
6.443872758570011
  0
LINE
  5
6336
330
1F
100
AcDbEntity
  8
0
  6
AM_DIN_F_W050
 62
     6
 48
5.0
100
AcDbLine
 10
5.419137494907204
 20
473.8947472567901
 30
0.0
 11
11.11734155552312
 21
430.549664826272
 31
0.0
  0
ARC
  5
6337
330
1F
100
AcDbEntity
  8
0
  6
AM_DIN_F_W050
 62
     6
 48
5.0
100
AcDbCircle
 10
-11.85590736730779
 20
471.464819746655
 30
0.0
 40
17.44510598122156
100
AcDbArc
 50
8.006759382786187
 51
54.57946550029937
  0
ARC
  5
6338
330
1F
100
AcDbEntity
  8
0
  6
AM_DIN_F_W050
 62
     6
 48
5.0
100
AcDbCircle
 10
0.441043086824152
 20
490.5704452905498
 30
0.0
 40
5.355787081967337
100
AcDbArc
 50
191.5008047756915
 51
245.9081802041368
  0
LINE
  5
6339
330
1F
100
AcDbEntity
  8
0
100
AcDbLine
 10
-47.13393397503773
 20
419.9980060649893
 30
0.0
 11
-3.184822064336572
 21
419.9928249944863
 31
0.0
  0
LINE
  5
633A
330
1F
100
AcDbEntity
  8
0
100
AcDbLine
 10
-42.86054803571903
 20
440.2442415853286
 30
0.0
 11
-25.17636432092684
 21
448.7016678962555
 31
0.0
  0
LINE
  5
633B
330
1F
100
AcDbEntity
  8
0
100
AcDbLine
 10
115.2321413022793
 20
419.9788650619813
 30
0.0
 11
115.2321413022793
 21
419.9788650620416
 31
0.0
  0
ARC
  5
633D
330
1F
100
AcDbEntity
  8
0
  6
AM_DIN_F_W050
 62
     6
 48
5.0
100
AcDbCircle
 10
-325.8463446254082
 20
431.6316870610592
 30
0.0
 40
6.676548682476148
100
AcDbArc
 50
175.2664493834189
 51
268.9398217263316
  0
ARC
  5
633E
330
1F
100
AcDbEntity
  8
0
  6
AM_DIN_F_W050
 62
     6
 48
5.0
100
AcDbCircle
 10
-319.2359015364382
 20
431.6316870610592
 30
0.0
 40
6.676548682476148
100
AcDbArc
 50
271.0601782736684
 51
4.733550616581124
  0
LINE
  5
633F
330
1F
100
AcDbEntity
  8
0
  6
AM_DIN_F_W050
 62
     6
 48
5.0
100
AcDbLine
 10
-325.9698777722865
 20
424.9562813152564
 30
0.0
 11
-319.1123683895598
 21
424.9562813152564
 31
0.0
  0
REGION
  5
6340
330
1F
100
AcDbEntity
  8
0
100
AcDbModelerGeometry
 70
     1
  1
mogoo nlm m o         
  1
ni ^ *+0;:,4 ^ *+0\^ [ nf ^ LR mniqoqoqkjon QK o  
  1
n fqfffffffffffffffj:rooh n:rono 
  1
>,27:>;:- {rn rn _nm mniqoqoqkjon |
  1
=0;& {rn rn {rn {m {rn {rn |
  1
3*2/ {rn rn {rn {rn {l {n |
  1
,7:33 {rn rn {rn {rn {rn {k {rn {m |
  1
9><: {rn rn {rn {rn {j {l {rn {i 90-(>-; ;0*=3: 0*+ |
  1
300/ {rn rn {rn {rn {h {k |
  1
/3>1:r,*-9><: {rn rn {rn rnmfqffmkffioggoiih klgqnlgfokolngkjkh o o o n n o o 90-(>-;@) V V V V |
  1
<0:;8: {rn rn {rn {g {f {rn {no -:):-,:; {j {rn |
  1
<0:;8: {rn rn {rn {nn {h {rn {nm -:):-,:; {j {rn |
  1
<0:;8: {rn rn {rn {h {nl {rn {nk -:):-,:; {j {rn |
  1
:;8: {rn rn {rn {nj o {ni ngmqkingohjigkongn {h {nh 90-(>-; _h *1410(1 |
  1
<0:;8: {rn rn {rn {ng {g {rn {nf -:):-,:; {j {rn |
  1
:;8: {rn rn {rn {mo roqmmlkimihmoilhkffm {nj oqmmlkimihmoilhjogh {g {mn 90-(>-; _h *1410(1 |
  1
<0:;8: {rn rn {rn {f {mm {rn {ml -:):-,:; {j {rn |
  1
:;8: {rn rn {rn {ni roqhhjinmfiginomihng {mk oqhhjinmfiginomifmf {f {mj 90-(>-; _h *1410(1 |
  1
):-+:' {rn rn {rn {no {mi |
  1
):-+:' {rn rn {rn {no {mh |
  1
,+->687+r<*-): {rn rn {rn rijqhlfhgnkfhinnggh kkiqkhikohignonkkj o oqgfffjjkmknmooiknl oqkljfgnfmoolklfmig o V V |
  1
<0:;8: {rn rn {rn {mg {nn {rn {mf -:):-,:; {j {rn |
  1
:;8: {rn rn {rn {lo o {mo llkqnnhhhhjoflhogj {nn {ln 90-(>-; _h *1410(1 |
  1
):-+:' {rn rn {rn {nf {lm |
  1
:336/,:r<*-): {rn rn {rn rghqjlgghhkffllnkm kfnqkhknhggghonhji o o o n nnqmgjmlhjohjgmhml rkgqhofhghiijmghggk o n V V |
  1
<0:;8: {rn rn {rn {nl {ll {rn {lk -:):-,:; {j {rn |
  1
:;8: {rn rn {rn {mk o {lj lqmllghihgkhionil {nl {li 90-(>-; _h *1410(1 |
  1
):-+:' {rn rn {rn {nk {lh |
  1
:336/,:r<*-): {rn rn {rn ffqhhjijhihgkmjggh jmlqlmijfoiojmhmol o ro ro rn oqfjikjgffmkiionik mqgklkkinglonffhii o n V V |
  1
/061+ {rn rn {rn rijqhlfhgnkfhinnggh kkiqkhikohignonkkj o |
  1
/061+ {rn rn {rn fgqkihhnnfnglmmhmn jmiqomikjighhilmm o |
  1
<0:;8: {rn rn {rn {lg {ng {rn {lf 90-(>-; {j {rn |
  1
:;8: {rn rn {rn {ko roqhijighngggmjojjhn {lo oqhijighngggmjhkki {ng {kn 90-(>-; _h *1410(1 |
  1
):-+:' {rn rn {rn {mf {km |
  1
,+->687+r<*-): {rn rn {rn rkmnqkkljnhkknjjkmi kkoqohoogifokihigg o oqfffffnniklhgnnofh oqookmolhogjiimokkhmi o V V |
  1
/061+ {rn rn {rn rghqlmgifmohojlnghm kknqkhkimoiignnkmi o |
  1
<0:;8: {rn rn {rn {mm {kl {rn {kk -:):-,:; {j {rn |
  1
:;8: {rn rn {rn {lj o {kj jqinjhnnonoofmijfl {mm {ki 90-(>-; _h *1410(1 |
  1
):-+:' {rn rn {rn {ml {kh |
  1
,+->687+r<*-): {rn rn {rn nomqkkfknnjigjkogg jmkqighnnffilignij o oqkjljofhginliiooof roqgfnmjnmfihokffjnk o V V |
  1
/061+ {rn rn {rn nomqkkfknnjigjkogg jmkqighnnffilignij o |
  1
<0:;8: {rn rn {rn {kg {mg {rn {kf -:):-,:; {j {rn |
  1
:;8: {rn rn {rn {ko nqjlklfhjgookjfggn {jo nqjhohfilmihfkgfii {mg {jn 90-(>-; _h *1410(1 |
  1
):-+:' {rn rn {rn {lf {jm |
  1
:336/,:r<*-): {rn rn {rn rkmnqknmhilglkfjlfm klhqohomkkjlfjlgnm o ro ro rn rmqnonnjgfokgjoimml mqnknmfnfjfihkimih o n V V |
  1
/061+ {rn rn {rn rkmnqkkljnhkknjjkmi kkoqohoogifokihigg o |
  1
<0:;8: {rn rn {rn {ll {jl {rn {jk -:):-,:; {j {rn |
  1
:;8: {rn rn {rn {kj o {jj nooqhmknioomkomggj {ll {ji 90-(>-; _h *1410(1 |
  1
):-+:' {rn rn {rn {lk {jh |
  1
,+->687+r<*-): {rn rn {rn nolqfniooillhjgfjg jmnqgokfmlogjggoof o roqfoojlhnknlofgnjmn roqklkhhfofoomllijjn o V V |
  1
/061+ {rn rn {rn nolqfniooillhjgfjg jmnqgokfmlogjggoof o |
  1
<0:;8: {rn rn {rn {jg {lg {rn {jf -:):-,:; {j {rn |
  1
:;8: {rn rn {rn {io o {jo lfqojkkmmkjjkjkikm {lg {in 90-(>-; _h *1410(1 |
  1
):-+:' {rn rn {rn {kf {im |
  1
:336/,:r<*-): {rn rn {rn rgfqoglgjnkffnmlmmh kmnqminkonillfhlkl o o o n lqigloommllonhlhjl lljqigkonomjhjihom o oqffffffffogjjjmifl V V |
  1
/061+ {rn rn {rn rkmkqknnkghjkmkjhoj klhqnjhhklglnmff o |
  1
<0:;8: {rn rn {rn {kl {il {rn {ik -:):-,:; {j {rn |
  1
:;8: {rn rn {rn {jj o {ij nngqknifikngfkifih {kl {ii 90-(>-; _h *1410(1 |
  1
):-+:' {rn rn {rn {kk {ih |
  1
,+->687+r<*-): {rn rn {rn fgqgjggkfffgnlgig jnfqlillmflilohhgn o oqnimjjjhkfmggloooj roqfgiifflioigljkili o V V |
  1
/061+ {rn rn {rn fgqgjggkfffgnlgig jnfqlillmflilohhgn o |
  1
<0:;8: {rn rn {rn {ig {kg {rn {if -:):-,:; {j {rn |
  1
:;8: {rn rn {rn {ho roqjiillmigojnfghgjn {io oqjiillmigojnfghhk {kg {hn 90-(>-; _h *1410(1 |
  1
):-+:' {rn rn {rn {jf {hm |
  1
,+->687+r<*-): {rn rn {rn rlgjqhnlklimlnjgmgm kmkqfkkkolglllnngn o rn o o V V |
  1
/061+ {rn rn {rn rkmkqhihgjgigholhki kmkqfkkkolglllnngn o |
  1
<0:;8: {rn rn {rn {jl {hl {rn {hk -:):-,:; {j {rn |
  1
:;8: {rn rn {rn {ij o {hj liqkihlgggonmikmik {jl {hi 90-(>-; _h *1410(1 |
  1
):-+:' {rn rn {rn {jk {hh |
  1
,+->687+r<*-): {rn rn {rn nnjqmlmnknlommhfmh knfqfhggijoinfgnlh o roqfffffffflojnmniml oqooonnhgghfkkjmliglhh o V V |
  1
/061+ {rn rn {rn nnjqmlmnknlommhfmh knfqfhggijoinfgnlh o |
  1
<0:;8: {rn rn {rn {hg {jg {rn {hf -:):-,:; {j {rn |
  1
:;8: {rn rn {rn {go roqiojiljnlllhkomkog {ho oqiojiljnlllhkojnmg {jg {gn 90-(>-; _h *1410(1 |
  1
):-+:' {rn rn {rn {if {gm |
  1
:336/,:r<*-): {rn rn {rn rlgkqnlononngifngng lfiqfninnojlooiogj o o o n nlqhomnfonlgloghkk mkqjonggohjfgjfnjf o n V V |
  1
/061+ {rn rn {rn rlgjqhnlklimlnjgmgm kmkqfkkkolglllnngn o |
  1
<0:;8: {rn rn {rn {il {gl {rn {gk -:):-,:; {j {rn |
  1
:;8: {rn rn {rn {hj o {gj mkqjmgilihokggjjnk {il {gi 90-(>-; _h *1410(1 |
  1
):-+:' {rn rn {rn {ik {gh |
  1
,+->687+r<*-): {rn rn {rn rlqngkgmmoikllijnjl knfqffmgmkffkkgik o roqgmfgmfhljhggjiilk roqjjgoniihjomoimfom o V V |
  1
/061+ {rn rn {rn rlqngkgmmoikllijnjl knfqffmgmkffkkgik o |
  1
<0:;8: {rn rn {rn {gg {ig {rn {gf -:):-,:; {j {rn |
  1
:;8: {rn rn {rn {fo o {go mhjqoooohiihoogfgn {ig {fn 90-(>-; _h *1410(1 |
  1
):-+:' {rn rn {rn {hf {fm |
  1
:336/,:r<*-): {rn rn {rn rljhqjkghgimmggggoj knoqfkkkfkojlhkggg o ro ro rn rnqnlgjighmoohgfjlk rnqikkmgnlglfiiogl o n V V |
  1
/061+ {rn rn {rn rljfqkmofnljhfihfnn knoqmkoglmhgkoggfm o |
  1
<0:;8: {rn rn {rn {hl {fl {rn {fk -:):-,:; {j {rn |
  1
:;8: {rn rn {rn {gj o {fj gqnoiljgfmmmonfknh {hl {fi 90-(>-; _h *1410(1 |
  1
):-+:' {rn rn {rn {hk {fh |
  1
,+->687+r<*-): {rn rn {rn rllqkkijkjihgnggjji lffqiklknlfkgfmolk o roqjjgoniihjomoilnig oqgmfgmfhljhggjikji o V V |
  1
/061+ {rn rn {rn rllqkkijkjihgnggjji lffqiklknlfkgfmolk o |
  1
<0:;8: {rn rn {rn {fg {hg {rn {ff -:):-,:; {j {rn |
  1
:;8: {rn rn {rn {noo roqihmjjnhhkikogjkif {fo oqihmjjnhhkikogholj {hg {non 90-(>-; _h *1410(1 |
  1
):-+:' {rn rn {rn {gf {nom |
  1
,+->687+r<*-): {rn rn {rn rgmqjkghofjjggooign kogqfkkkfkojlhkf o rn rmqoiholmgliglogink:roni o V V |
  1
/061+ {rn rn {rn rljhqjkghgimmggfojj kogqfkkkfkojlhkf o |
  1
<0:;8: {rn rn {rn {gl {nol {rn {nok -:):-,:; {j {rn |
  1
:;8: {rn rn {rn {fj o {noj lqjmjnghfkhonnill {gl {noi 90-(>-; _h *1410(1 |
  1
):-+:' {rn rn {rn {gk {noh |
  1
,+->687+r<*-): {rn rn {rn rkhqnllfllfhjolhhfm knfqffgooioikfgfnh o roqfffffffflojnmninm oqooonnhgghfkkjmknngjg o V V |
  1
/061+ {rn rn {rn rkhqnllfllfhjolhhfm knfqffgooioikfgfnh o |
  1
<0:;8: {rn rn {rn {nog {gg {rn {nof -:):-,:; {j {rn |
  1
:;8: {rn rn {rn {nno roqkolfijljlgfngokgm {noo oqkolfijljlgfngojoj {gg {nnn 90-(>-; _h *1410(1 |
  1
):-+:' {rn rn {rn {ff {nnm |
  1
:336/,:r<*-): {rn rn {rn rgmqjkghofjjggooimk knmqkkkkflffknmilf o ro ro rn mqngokkklnokflfojl rmqhlhgmohonnnfnnih o n V V |
  1
/061+ {rn rn {rn rgmqjkghofjjggooign kogqfkkkfkojlhkf o |
  1
<0:;8: {rn rn {rn {fl {nnl {rn {nnk -:):-,:; {j {rn |
  1
:;8: {rn rn {rn {noj roqllhljnfgfoognmlfi {nnj oqllhljnfgfoognmmil {fl {nni 90-(>-; _h *1410(1 |
  1
):-+:' {rn rn {rn {fk {nnh |
  1
,+->687+r<*-): {rn rn {rn rjjqmkomfmgkofnolff knfqffgfinhoifgoog o oqomngfikmmfhmkjgkil oqfffhiomkkjgfnhhon o V V |
  1
/061+ {rn rn {rn rjjqmkomfmgkofnolff knfqffgfinhoifgoog o |
  1
<0:;8: {rn rn {rn {nnl {fg {rn {nng -:):-,:; {j {rn |
  1
:;8: {rn rn {rn {nnf o {nno nfqiomjnolgihilg {fg {nmo 90-(>-; _h *1410(1 |
  1
):-+:' {rn rn {rn {nof {nmn |
  1
:336/,:r<*-): {rn rn {rn rkiqlonohhojomhogim lffqfhigglhoigngnn o o o n rmjqiooilokilfnfgmn mlqijognhklimhnghj o n V V |
  1
/061+ {rn rn {rn rhfqnlhkhmolniooojj knnqiinmjglmljjmm o |
  1
<0:;8: {rn rn {rn {nol {nog {rn {nmm -:):-,:; {j {rn |
  1
:;8: {rn rn {rn {nnj roqogghlolfnfnhinmijg {nml oqogghlolfnfnhinligj {nol {nmk 90-(>-; _h *1410(1 |
  1
):-+:' {rn rn {rn {nok {nmj |
  1
:336/,:r<*-): {rn rn {rn rkfqfkfhfjmhhnimkg kmmqfklgjmghfollin o ro ro rn rkqhmhiijofojlnlgoi mqmhmlkoghjkoojhkf o n V V |
  1
/061+ {rn rn {rn rjjqnilnolglkjijmm kmlqjmllokkhnnohmm o |
  1
:;8: {rn rn {rn {nmi roqohmijmlmnkoghljjml {nnf oqohmijmlmnkoghljfnm {nog {nmh 90-(>-; _h *1410(1 |
  1
):-+:' {rn rn {rn {nng {nmg |
  1
,+->687+r<*-): {rn rn {rn rkmqgiojkgoljhngngm kkoqmkkmknjgjlmfon o roqfomnlghmklhnmgimg roqklnkkiogmliifolng o V V |
  1
/061+ {rn rn {rn rioqjkkhlnhjojognil klnqhgignjmhkkoll o |
  1
:;8: {rn rn {rn {nml roqjlfmkmoknlnimfhkf {nmi oqjlfmkmoknlnimflni {nnl {nmf 90-(>-; _h *1410(1 |
  1
):-+:' {rn rn {rn {nnk {nlo |
  1
:336/,:r<*-): {rn rn {rn mqfjggkokhnfgojmmi lioqikhmlknoijiilh o ro ro rn rjoqjkjfkmllknignlf hoqhilnklmnnffhgmf o n V V |
  1
/061+ {rn rn {rn rjlqijgginggfonjglf kmiqijmfnfkfoghjkf o |
  1
):-+:' {rn rn {rn {nmm {nln |
  1
:336/,:r<*-): {rn rn {rn rmgqmnkhjjkhiiflijk kojqfikljfknjmkkkh o o o n rnmqnngglkojngmgnij ljqmjmjiinglmomfg o n V V |
  1
/061+ {rn rn {rn rkmqgiojkgoljhngngm kkoqmkkmknjgjlmfon o |
  1
:336/,:r<*-): {rn rn {rn rkkqhhnjlmjhfgigkkf kknqimhllmglgnkjin o o o n iqmmkijnnfkimnnill rlqmgilmnfjgimnkgfg o n V V |
  1
/061+ {rn rn {rn rknqnnhijokghfffonj kljqinnohijnloiool o |
  1
/061+ {rn rn {rn rlhqhkmifnjgigojihh kkmqoolinjhniijnnj o |
  0
LINE
  5
6343
330
1F
100
AcDbEntity
  8
0
100
AcDbLine
 10
-346.1523733237578
 20
420.0000788272435
 30
0.0
 11
-346.088030261257
 21
420.0000788272435
 31
0.0
  0
ENDSEC
  0
SECTION
  2
OBJECTS
  0
DICTIONARY
  5
C
330
0
100
AcDbDictionary
281
     1
  3
ACAD_COLOR
350
28F3
  3
ACAD_GROUP
350
D
  3
ACAD_IMAGE_DICT
350
384F
  3
ACAD_IMAGE_VARS
350
3851
  3
ACAD_LAYOUT
350
1A
  3
ACAD_MATERIAL
350
28C1
  3
ACAD_MLEADERSTYLE
350
2908
  3
ACAD_MLINESTYLE
350
17
  3
ACAD_PLOTSETTINGS
350
19
  3
ACAD_PLOTSTYLENAME
350
E
  3
ACAD_SCALELIST
350
28F6
  3
ACAD_TABLESTYLE
350
28F4
  3
ACAD_VISUALSTYLE
350
28DA
  3
ACDB_RECOMPOSE_DATA
350
63F6
  3
AcDbVariableDictionary
350
86
  3
AcmDictionary
350
45
  3
AEC_PROPERTY_SET_DEFS
350
3B50
  3
AMG
350
41
  3
AMGSNAPSETTINGS
350
332
  3
ASE_INDEX_DICTIONARY
350
3BD5
  0
DICTIONARY
  5
2972
330
8
100
AcDbDictionary
280
     1
281
     1
  0
DICTIONARY
  5
2967
330
2
100
AcDbDictionary
280
     1
281
     1
  3
ACAD_LAYERSTATES
360
2968
  0
DICTIONARY
  5
2962
330
10
100
AcDbDictionary
280
     1
281
     1
  3
ADSK_XREC_LAYER_RECONCILED
360
2963
  0
DICTIONARY
  5
81
330
1F
100
AcDbDictionary
280
     1
281
     1
  3
ACAD_SORTENTS
360
2A85
  0
DICTIONARY
  5
63A3
330
634F
100
AcDbDictionary
280
     1
281
     1
  3
ACAD_SORTENTS
360
63A4
  0
DICTIONARY
  5
28F3
102
{ACAD_REACTORS
330
C
102
}
330
C
100
AcDbDictionary
281
     1
  0
DICTIONARY
  5
D
102
{ACAD_REACTORS
330
C
102
}
330
C
100
AcDbDictionary
281
     1
  0
DICTIONARY
  5
384F
102
{ACAD_REACTORS
330
C
102
}
330
C
100
AcDbDictionary
281
     1
  3
Unbenannt
350
3850
  0
RASTERVARIABLES
  5
3851
102
{ACAD_REACTORS
330
C
102
}
330
C
100
AcDbRasterVariables
 90
        0
 70
     1
 71
     1
 72
     1
  0
DICTIONARY
  5
1A
102
{ACAD_REACTORS
330
C
102
}
330
C
100
AcDbDictionary
281
     1
  3
Layout1
350
1E
  3
Layout2
350
26
  3
Model
350
22
  0
DICTIONARY
  5
28C1
102
{ACAD_REACTORS
330
C
102
}
330
C
100
AcDbDictionary
281
     1
  3
ByBlock
350
28CA
  3
ByLayer
350
28C2
  3
Global
350
28D2
  0
DICTIONARY
  5
2908
102
{ACAD_REACTORS
330
C
102
}
330
C
100
AcDbDictionary
281
     1
  3
Standard
350
2909
  0
DICTIONARY
  5
17
102
{ACAD_REACTORS
330
C
102
}
330
C
100
AcDbDictionary
281
     1
  3
Standard
350
18
  0
DICTIONARY
  5
19
102
{ACAD_REACTORS
330
C
102
}
330
C
100
AcDbDictionary
281
     1
  0
ACDBDICTIONARYWDFLT
  5
E
102
{ACAD_REACTORS
330
C
102
}
330
C
100
AcDbDictionary
281
     1
  3
Normal
350
F
100
AcDbDictionaryWithDefault
340
F
  0
DICTIONARY
  5
28F6
102
{ACAD_REACTORS
330
C
102
}
330
C
100
AcDbDictionary
281
     1
  3
A0
350
28F7
  3
A1
350
28F8
  3
A2
350
28F9
  3
A3
350
28FA
  3
A4
350
28FB
  3
A5
350
28FC
  3
A6
350
28FD
  3
A7
350
28FE
  3
A8
350
28FF
  3
A9
350
2900
  3
B0
350
2901
  3
B1
350
2902
  3
B2
350
2903
  3
B3
350
2904
  3
B4
350
2905
  3
B5
350
2906
  3
B6
350
2907
  0
DICTIONARY
  5
28F4
102
{ACAD_REACTORS
330
C
102
}
330
C
100
AcDbDictionary
281
     1
  3
Standard
350
28F5
  0
DICTIONARY
  5
28DA
102
{ACAD_REACTORS
330
C
102
}
330
C
100
AcDbDictionary
281
     1
  3
2dWireframe
350
28E0
  3
Basic
350
28DF
  3
Brighten
350
28E6
  3
ColorChange
350
28EA
  3
Conceptual
350
28E3
  3
Dim
350
28E5
  3
EdgeColorOff
350
28F2
  3
Facepattern
350
28E9
  3
Flat
350
28DB
  3
FlatWithEdges
350
28DC
  3
Gouraud
350
28DD
  3
GouraudWithEdges
350
28DE
  3
Hidden
350
28E2
  3
JitterOff
350
28F0
  3
Linepattern
350
28E8
  3
OverhangOff
350
28F1
  3
Realistic
350
28E4
  3
Shaded
350
28EF
  3
Shaded with edges
350
28EE
  3
Shades of Gray
350
28EB
  3
Sketchy
350
28EC
  3
Thicken
350
28E7
  3
Wireframe
350
28E1
  3
X-Ray
350
28ED
  0
XRECORD
  5
63F6
102
{ACAD_REACTORS
330
C
102
}
330
C
100
AcDbXrecord
280
     1
 90
        1
330
28F5
  0
DICTIONARY
  5
86
102
{ACAD_REACTORS
330
C
102
}
330
C
100
AcDbDictionary
281
     1
  3
CANNOSCALE
350
29AB
  3
CMLEADERSTYLE
350
29AA
  3
CTABLESTYLE
350
29A9
  3
DIMASSOC
350
89
  3
HIDETEXT
350
88
  3
INDEXCTL
350
87
  3
LAYEREVAL
350
2A32
  3
LAYERNOTIFY
350
2A33
  3
LIGHTINGUNITS
350
2A31
  3
MSLTSCALE
350
2A30
  3
XCLIPFRAME
350
63F4
  0
DICTIONARY
  5
45
102
{ACAD_REACTORS
330
C
102
}
330
C
100
AcDbDictionary
281
     1
  3
AcmStdDictionary
350
4A
  3
AMDTSECTSYM_ARROWCOLOR
350
2956
  0
DICTIONARY
  5
3B50
102
{ACAD_REACTORS
330
C
102
}
330
C
100
AcDbDictionary
281
     1
  0
DICTIONARY
  5
41
102
{ACAD_REACTORS
330
C
102
}
330
C
100
AcDbDictionary
281
     1
  0
DICTIONARY
  5
332
102
{ACAD_REACTORS
330
C
102
}
330
C
100
AcDbDictionary
281
     1
  0
DICTIONARY
  5
3BD5
102
{ACAD_REACTORS
330
C
102
}
330
C
100
AcDbDictionary
281
     1
  3
ASEBlockHierarchyIndexRecord
350
3BD6
1001
DCO15
1040
1828540201.377
  0
DICTIONARY
  5
2968
102
{ACAD_REACTORS
330
2967
102
}
330
2967
100
AcDbDictionary
281
     1
  0
XRECORD
  5
2963
102
{ACAD_REACTORS
330
2962
102
}
330
2962
100
AcDbXrecord
280
     1
290
     1
  0
SORTENTSTABLE
  5
2A85
102
{ACAD_REACTORS
330
81
102
}
330
81
100
AcDbSortentsTable
330
1F
331
5CB1
  5
5CD0
331
5AA0
  5
5AA0
331
5DD2
  5
5DE0
331
5EA0
  5
5EA9
331
5E0D
  5
5E23
331
5E8C
  5
5E9E
331
5E88
  5
5E8C
331
5BE6
  5
5BF9
331
5B8B
  5
5B9A
331
5C61
  5
5C64
331
5DC6
  5
5DD4
331
5E05
  5
5E22
331
5E01
  5
5E0F
331
5E84
  5
5E88
331
5DF9
  5
5E02
331
5BD2
  5
5BE9
331
5DF5
  5
5DFE
331
5DF1
  5
5DF9
331
5E2C
  5
5E83
331
5DED
  5
5DF5
331
5E24
  5
5E82
331
5BC6
  5
5BCF
331
5BF9
  5
5BFC
331
5AD7
  5
5AD7
331
5EBF
  5
5EBE
331
5EBB
  5
5EBB
331
5DE1
  5
5DEF
331
5DDD
  5
5DEB
331
5D9E
  5
5DB0
331
5EAB
  5
5EAD
331
5E10
  5
5E2D
331
5BF5
  5
5BFB
331
5CB0
  5
5CCF
331
5D93
  5
5D9F
331
5C70
  5
5CCA
331
4E13
  5
4E13
331
5DD1
  5
5DDF
331
5DC9
  5
5DDD
331
5E8B
  5
5E9D
331
5BE9
  5
5BFA
331
5D8B
  5
5D90
331
5B9A
  5
5BA0
331
5D83
  5
5D8E
331
5C64
  5
5C6B
331
5E04
  5
5E21
331
5E87
  5
5E8B
331
5E00
  5
5E0E
331
5E83
  5
5E87
331
5DBD
  5
5DD3
331
5DF8
  5
5E01
331
5BD1
  5
5BE6
331
5B7E
  5
5B8C
331
5BC9
  5
5BD1
331
5D73
  5
5D83
331
5B7A
  5
5B8B
331
5DF4
  5
5DFB
331
5DB1
  5
5DC7
331
5DF0
  5
5DF8
331
5DEC
  5
5DF4
331
5E23
  5
5DD1
331
5BC1
  5
5BC9
331
5B6A
  5
5B80
331
5CCF
  5
5CD4
331
5BFC
  5
5C1B
331
5EBE
  5
5EBF
331
5DE0
  5
5DEE
331
5DDC
  5
5DEA
331
5D9D
  5
5DB1
331
5EAA
  5
5EAC
331
5BA9
  5
5BC6
331
5D92
  5
5D9E
331
5B39
  5
5B52
331
5DD4
  5
5DE2
331
5E0F
  5
5E2C
331
5DC8
  5
5DDE
331
5E8A
  5
5E9C
331
5C6F
  5
5C7E
331
5B9D
  5
5BA9
331
5B8D
  5
5B9D
331
5D82
  5
5D8F
331
5C63
  5
5C67
331
5B31
  5
5B33
331
5B2D
  5
5B2F
331
5E03
  5
5E19
331
5E86
  5
5E8A
331
5DFF
  5
5E04
331
5E82
  5
5E86
331
5DBC
  5
5DD2
331
5E36
  5
5C72
331
5DFB
  5
5E05
331
5D7E
  5
5D8B
331
5C2F
  5
5C63
331
5BD0
  5
5BD7
331
5BC8
  5
5BD0
331
5C1B
  5
5C5F
331
5AE5
  5
5AE5
331
5AD9
  5
5AD9
331
5DF7
  5
5E00
331
5DEF
  5
5DF7
331
5DEB
  5
5DF2
331
5DA8
  5
5DBD
331
5C17
  5
5C2F
331
5CD2
  5
5D7E
331
5B59
  5
5B7A
331
5CCA
  5
5CD2
331
5BFB
  5
5C17
331
5DDF
  5
5DEC
331
5D9C
  5
5DA8
331
5EA9
  5
5EAB
331
5BA4
  5
5BC1
331
5BA0
  5
5BBB
331
5C72
  5
5CCD
331
5AA1
  5
5AA1
331
5DD3
  5
5DE1
331
5E0E
  5
5E24
331
5E89
  5
5E9B
331
5B9C
  5
5BA4
331
5D8D
  5
5D91
331
5B8C
  5
5B9C
331
5C66
  5
5C71
331
5D81
  5
5D8D
331
5C62
  5
5C66
331
5B30
  5
5B32
331
5DC7
  5
5DDC
331
5E02
  5
5E10
331
5E85
  5
5E89
331
5DFE
  5
5E0D
331
5DFA
  5
5E03
331
5DBB
  5
5DC9
331
5BD7
  5
5BF5
331
5C2E
  5
5C62
331
5B80
  5
5B8D
331
5BCF
  5
5BD2
331
5AE4
  5
5AE4
331
5AE0
  5
5AE0
331
5DF6
  5
5DFF
331
5DF2
  5
5DFA
331
5E2D
  5
5E84
331
5DB3
  5
5DC8
331
5DEE
  5
5DF6
331
5DEA
  5
5DF1
331
5EC0
  5
5EC0
331
5E21
  5
5E80
331
5C16
  5
5C2E
331
5CD1
  5
5D73
331
5BBB
  5
5BC8
331
5B5C
  5
5B7E
331
5CCD
  5
5CD3
331
5B58
  5
5B5D
331
5BFA
  5
5C16
331
5ABC
  5
5ABC
331
5DA7
  5
5DBB
331
5DE2
  5
5DF0
331
5DDE
  5
5DED
331
5D9F
  5
5DB3
331
5E19
  5
5E36
331
5D9B
  5
5DA7
331
5EAC
  5
5EAE
331
5EA8
  5
5EAA
  0
SORTENTSTABLE
  5
63A4
102
{ACAD_REACTORS
330
63A3
102
}
330
63A3
100
AcDbSortentsTable
330
634F
331
6386
  5
6387
331
6387
  5
6386
  0
IMAGEDEF
  5
3850
102
{ACAD_REACTORS
330
384F
102
}
330
384F
100
AcDbRasterImageDef
 90
        0
  1
C:\Users\Administrator\Desktop\Unbenannt.JPG
 10
1054.0
 20
929.0
 11
0.0009487666034156
 21
0.0009487666034156
280
     1
281
     0
  0
LAYOUT
  5
1E
102
{ACAD_REACTORS
330
1A
102
}
330
1A
100
AcDbPlotSettings
  1

  2
Epson Stylus COLOR 440 ESC/P 2
  4

  6

 40
0.0
 41
0.0
 42
0.0
 43
0.0
 44
0.0
 45
0.0
 46
0.0
 47
0.0
 48
0.0
 49
0.0
140
0.0
141
0.0
142
1.0
143
1.0
 70
   688
 72
     0
 73
     0
 74
     5
  7

 75
    16
147
1.0
 76
     0
 77
     2
 78
   300
148
0.0
149
0.0
100
AcDbLayout
  1
Layout1
 70
     1
 71
     1
 10
0.0
 20
0.0
 11
420.0
 21
297.0
 12
0.0
 22
0.0
 32
0.0
 14
1.000000000000000E+20
 24
1.000000000000000E+20
 34
1.000000000000000E+20
 15
-1.000000000000000E+20
 25
-1.000000000000000E+20
 35
-1.000000000000000E+20
146
0.0
 13
0.0
 23
0.0
 33
0.0
 16
1.0
 26
0.0
 36
0.0
 17
0.0
 27
1.0
 37
0.0
 76
     0
330
1B
  0
LAYOUT
  5
26
102
{ACAD_REACTORS
330
1A
102
}
330
1A
100
AcDbPlotSettings
  1

  2
Epson Stylus COLOR 440 ESC/P 2
  4

  6

 40
0.0
 41
0.0
 42
0.0
 43
0.0
 44
0.0
 45
0.0
 46
0.0
 47
0.0
 48
0.0
 49
0.0
140
0.0
141
0.0
142
1.0
143
1.0
 70
   688
 72
     0
 73
     0
 74
     5
  7

 75
    16
147
1.0
 76
     0
 77
     2
 78
   300
148
0.0
149
0.0
100
AcDbLayout
  1
Layout2
 70
     1
 71
     2
 10
0.0
 20
0.0
 11
12.0
 21
9.0
 12
0.0
 22
0.0
 32
0.0
 14
0.0
 24
0.0
 34
0.0
 15
0.0
 25
0.0
 35
0.0
146
0.0
 13
0.0
 23
0.0
 33
0.0
 16
1.0
 26
0.0
 36
0.0
 17
0.0
 27
1.0
 37
0.0
 76
     0
330
23
  0
LAYOUT
  5
22
102
{ACAD_XDICTIONARY
360
296D
102
}
102
{ACAD_REACTORS
330
1A
102
}
330
1A
100
AcDbPlotSettings
  1

  2
none_device
  4
ISO_A4_(210.00_x_297.00_MM)
  6

 40
7.5
 41
20.0
 42
7.5
 43
20.0
 44
210.0
 45
297.0
 46
0.0
 47
0.0
 48
0.0
 49
0.0
140
0.0
141
0.0
142
1.0
143
10.11828613724116
 70
 11952
 72
     1
 73
     1
 74
     0
  7

 75
     0
147
0.0988309666712646
 76
     0
 77
     2
 78
   300
148
1435.980100457849
149
751.845180125117
100
AcDbLayout
  1
Model
 70
     1
 71
     0
 10
0.0
 20
0.0
 11
12.0
 21
9.0
 12
0.0
 22
0.0
 32
0.0
 14
0.0
 24
0.0
 34
0.0
 15
0.0
 25
0.0
 35
0.0
146
0.0
 13
0.0
 23
0.0
 33
0.0
 16
1.0
 26
0.0
 36
0.0
 17
0.0
 27
1.0
 37
0.0
 76
     0
330
1F
331
28BF
1001
ACAD_PSEXT
1000
Kein
1000
Kein
1000
Nicht anwendbar
1000
Das Layout wird erst geplottet, wenn ein neuer Plotter-Konfigurationsname ausgewählt wird.
1070
     0
  0
MATERIAL
  5
28CA
102
{ACAD_XDICTIONARY
360
28CB
102
}
102
{ACAD_REACTORS
330
28C1
102
}
330
28C1
100
AcDbMaterial
  1
ByBlock
 72
     0
 43
0.0008202099737533
 43
0.0
 43
0.0
 43
0.0
 43
0.0
 43
0.0008202099737533
 43
0.0
 43
0.0
 43
0.0
 43
0.0
 43
1.0
 43
0.0
 43
0.0
 43
0.0
 43
0.0
 43
1.0
 77
     0
 47
0.0008202099737533
 47
0.0
 47
0.0
 47
0.0
 47
0.0
 47
0.0008202099737533
 47
0.0
 47
0.0
 47
0.0
 47
0.0
 47
1.0
 47
0.0
 47
0.0
 47
0.0
 47
0.0
 47
1.0
171
     0
 49
0.0008202099737533
 49
0.0
 49
0.0
 49
0.0
 49
0.0
 49
0.0008202099737533
 49
0.0
 49
0.0
 49
0.0
 49
0.0
 49
1.0
 49
0.0
 49
0.0
 49
0.0
 49
0.0
 49
1.0
175
     0
142
0.0008202099737533
142
0.0
142
0.0
142
0.0
142
0.0
142
0.0008202099737533
142
0.0
142
0.0
142
0.0
142
0.0
142
1.0
142
0.0
142
0.0
142
0.0
142
0.0
142
1.0
179
     0
144
0.0008202099737533
144
0.0
144
0.0
144
0.0
144
0.0
144
0.0008202099737533
144
0.0
144
0.0
144
0.0
144
0.0
144
1.0
144
0.0
144
0.0
144
0.0
144
0.0
144
1.0
147
0.0008202099737533
147
0.0
147
0.0
147
0.0
147
0.0
147
0.0008202099737533
147
0.0
147
0.0
147
0.0
147
0.0
147
1.0
147
0.0
147
0.0
147
0.0
147
0.0
147
1.0
  0
MATERIAL
  5
28C2
102
{ACAD_XDICTIONARY
360
28C3
102
}
102
{ACAD_REACTORS
330
28C1
102
}
330
28C1
100
AcDbMaterial
  1
ByLayer
 72
     0
 43
0.0008202099737533
 43
0.0
 43
0.0
 43
0.0
 43
0.0
 43
0.0008202099737533
 43
0.0
 43
0.0
 43
0.0
 43
0.0
 43
1.0
 43
0.0
 43
0.0
 43
0.0
 43
0.0
 43
1.0
 77
     0
 47
0.0008202099737533
 47
0.0
 47
0.0
 47
0.0
 47
0.0
 47
0.0008202099737533
 47
0.0
 47
0.0
 47
0.0
 47
0.0
 47
1.0
 47
0.0
 47
0.0
 47
0.0
 47
0.0
 47
1.0
171
     0
 49
0.0008202099737533
 49
0.0
 49
0.0
 49
0.0
 49
0.0
 49
0.0008202099737533
 49
0.0
 49
0.0
 49
0.0
 49
0.0
 49
1.0
 49
0.0
 49
0.0
 49
0.0
 49
0.0
 49
1.0
175
     0
142
0.0008202099737533
142
0.0
142
0.0
142
0.0
142
0.0
142
0.0008202099737533
142
0.0
142
0.0
142
0.0
142
0.0
142
1.0
142
0.0
142
0.0
142
0.0
142
0.0
142
1.0
179
     0
144
0.0008202099737533
144
0.0
144
0.0
144
0.0
144
0.0
144
0.0008202099737533
144
0.0
144
0.0
144
0.0
144
0.0
144
1.0
144
0.0
144
0.0
144
0.0
144
0.0
144
1.0
147
0.0008202099737533
147
0.0
147
0.0
147
0.0
147
0.0
147
0.0008202099737533
147
0.0
147
0.0
147
0.0
147
0.0
147
1.0
147
0.0
147
0.0
147
0.0
147
0.0
147
1.0
  0
MATERIAL
  5
28D2
102
{ACAD_XDICTIONARY
360
28D3
102
}
102
{ACAD_REACTORS
330
28C1
102
}
330
28C1
100
AcDbMaterial
  1
Global
 72
     0
 43
0.0008202099737533
 43
0.0
 43
0.0
 43
0.0
 43
0.0
 43
0.0008202099737533
 43
0.0
 43
0.0
 43
0.0
 43
0.0
 43
1.0
 43
0.0
 43
0.0
 43
0.0
 43
0.0
 43
1.0
 77
     0
 47
0.0008202099737533
 47
0.0
 47
0.0
 47
0.0
 47
0.0
 47
0.0008202099737533
 47
0.0
 47
0.0
 47
0.0
 47
0.0
 47
1.0
 47
0.0
 47
0.0
 47
0.0
 47
0.0
 47
1.0
171
     0
 49
0.0008202099737533
 49
0.0
 49
0.0
 49
0.0
 49
0.0
 49
0.0008202099737533
 49
0.0
 49
0.0
 49
0.0
 49
0.0
 49
1.0
 49
0.0
 49
0.0
 49
0.0
 49
0.0
 49
1.0
175
     0
142
0.0008202099737533
142
0.0
142
0.0
142
0.0
142
0.0
142
0.0008202099737533
142
0.0
142
0.0
142
0.0
142
0.0
142
1.0
142
0.0
142
0.0
142
0.0
142
0.0
142
1.0
179
     0
144
0.0008202099737533
144
0.0
144
0.0
144
0.0
144
0.0
144
0.0008202099737533
144
0.0
144
0.0
144
0.0
144
0.0
144
1.0
144
0.0
144
0.0
144
0.0
144
0.0
144
1.0
147
0.0008202099737533
147
0.0
147
0.0
147
0.0
147
0.0
147
0.0008202099737533
147
0.0
147
0.0
147
0.0
147
0.0
147
1.0
147
0.0
147
0.0
147
0.0
147
0.0
147
1.0
  0
MLEADERSTYLE
  5
2909
102
{ACAD_REACTORS
330
2908
102
}
330
2908
100
AcDbMLeaderStyle
170
     2
171
     1
172
     0
 90
        2
 40
0.0
 41
0.0
173
     1
 91
-1056964608
340
14
 92
       -2
290
     1
 42
2.0
291
     1
 43
0.36
  3
Standard
 44
4.0
300

342
11
174
     1
178
     6
175
     1
176
     0
 93
-1056964608
 45
4.0
292
     0
297
     0
 46
4.0
 94
-1056964608
 47
1.0
 49
1.0
140
1.0
293
     1
141
0.0
294
     1
177
     0
142
1.0
295
     0
296
     0
143
0.125
1001
ACAD_MLEADERVER
1070
     2
  0
MLINESTYLE
  5
18
102
{ACAD_REACTORS
330
17
102
}
330
17
100
AcDbMlineStyle
  2
STANDARD
 70
     0
  3

 62
   256
 51
90.0
 52
90.0
 71
     2
 49
0.5
 62
   256
  6
BYLAYER
 49
-0.5
 62
   256
  6
BYLAYER
  0
ACDBPLACEHOLDER
  5
F
102
{ACAD_REACTORS
330
E
102
}
330
E
  0
SCALE
  5
28F7
102
{ACAD_REACTORS
330
28F6
102
}
330
28F6
100
AcDbScale
 70
     0
300
1:1
140
1.0
141
1.0
290
     1
  0
SCALE
  5
28F8
102
{ACAD_REACTORS
330
28F6
102
}
330
28F6
100
AcDbScale
 70
     0
300
1:2
140
1.0
141
2.0
290
     0
  0
SCALE
  5
28F9
102
{ACAD_REACTORS
330
28F6
102
}
330
28F6
100
AcDbScale
 70
     0
300
1:4
140
1.0
141
4.0
290
     0
  0
SCALE
  5
28FA
102
{ACAD_REACTORS
330
28F6
102
}
330
28F6
100
AcDbScale
 70
     0
300
1:5
140
1.0
141
5.0
290
     0
  0
SCALE
  5
28FB
102
{ACAD_REACTORS
330
28F6
102
}
330
28F6
100
AcDbScale
 70
     0
300
1:8
140
1.0
141
8.0
290
     0
  0
SCALE
  5
28FC
102
{ACAD_REACTORS
330
28F6
102
}
330
28F6
100
AcDbScale
 70
     0
300
1:10
140
1.0
141
10.0
290
     0
  0
SCALE
  5
28FD
102
{ACAD_REACTORS
330
28F6
102
}
330
28F6
100
AcDbScale
 70
     0
300
1:16
140
1.0
141
16.0
290
     0
  0
SCALE
  5
28FE
102
{ACAD_REACTORS
330
28F6
102
}
330
28F6
100
AcDbScale
 70
     0
300
1:20
140
1.0
141
20.0
290
     0
  0
SCALE
  5
28FF
102
{ACAD_REACTORS
330
28F6
102
}
330
28F6
100
AcDbScale
 70
     0
300
1:30
140
1.0
141
30.0
290
     0
  0
SCALE
  5
2900
102
{ACAD_REACTORS
330
28F6
102
}
330
28F6
100
AcDbScale
 70
     0
300
1:40
140
1.0
141
40.0
290
     0
  0
SCALE
  5
2901
102
{ACAD_REACTORS
330
28F6
102
}
330
28F6
100
AcDbScale
 70
     0
300
1:50
140
1.0
141
50.0
290
     0
  0
SCALE
  5
2902
102
{ACAD_REACTORS
330
28F6
102
}
330
28F6
100
AcDbScale
 70
     0
300
1:100
140
1.0
141
100.0
290
     0
  0
SCALE
  5
2903
102
{ACAD_REACTORS
330
28F6
102
}
330
28F6
100
AcDbScale
 70
     0
300
2:1
140
2.0
141
1.0
290
     0
  0
SCALE
  5
2904
102
{ACAD_REACTORS
330
28F6
102
}
330
28F6
100
AcDbScale
 70
     0
300
4:1
140
4.0
141
1.0
290
     0
  0
SCALE
  5
2905
102
{ACAD_REACTORS
330
28F6
102
}
330
28F6
100
AcDbScale
 70
     0
300
8:1
140
8.0
141
1.0
290
     0
  0
SCALE
  5
2906
102
{ACAD_REACTORS
330
28F6
102
}
330
28F6
100
AcDbScale
 70
     0
300
10:1
140
10.0
141
1.0
290
     0
  0
SCALE
  5
2907
102
{ACAD_REACTORS
330
28F6
102
}
330
28F6
100
AcDbScale
 70
     0
300
100:1
140
100.0
141
1.0
290
     0
  0
TABLESTYLE
  5
28F5
102
{ACAD_XDICTIONARY
360
296F
102
}
102
{ACAD_REACTORS
330
28F4
102
}
330
28F4
100
AcDbTableStyle
  3
Standard
 70
     0
 71
     0
 40
1.5
 41
1.5
280
     0
281
     0
  7
STANDARD
140
4.5
170
     2
 62
     0
 63
     7
283
     0
274
    -2
284
     1
 64
     0
275
    -2
285
     1
 65
     0
276
    -2
286
     1
 66
     0
277
    -2
287
     1
 67
     0
278
    -2
288
     1
 68
     0
279
    -2
289
     1
 69
     0
  7
STANDARD
140
6.0
170
     5
 62
     0
 63
     7
283
     0
274
    -2
284
     1
 64
     0
275
    -2
285
     1
 65
     0
276
    -2
286
     1
 66
     0
277
    -2
287
     1
 67
     0
278
    -2
288
     1
 68
     0
279
    -2
289
     1
 69
     0
  7
STANDARD
140
4.5
170
     5
 62
     0
 63
     7
283
     0
274
    -2
284
     1
 64
     0
275
    -2
285
     1
 65
     0
276
    -2
286
     1
 66
     0
277
    -2
287
     1
 67
     0
278
    -2
288
     1
 68
     0
279
    -2
289
     1
 69
     0
  0
VISUALSTYLE
  5
28E0
102
{ACAD_XDICTIONARY
360
6404
102
}
102
{ACAD_REACTORS
330
28DA
102
}
330
28DA
100
AcDbVisualStyle
  2
2dWireframe
 70
     4
 71
     0
 72
     2
 73
     0
 90
        0
 40
-0.6
 41
-30.0
 62
     5
 63
     7
421
 16777215
 74
     1
 91
        4
 64
     7
 65
   257
 75
     1
175
     1
 42
1.0
 92
        0
 66
   257
 43
1.0
 76
     1
 77
     6
 78
     2
 67
     7
 79
     5
170
     0
171
     0
290
     0
174
     0
 93
        1
 44
0.0
173
     0
291
     0
 45
0.0
1001
ACAD
1000
AcDbSavedByObjectVersion
1070
     0
  0
VISUALSTYLE
  5
28DF
102
{ACAD_XDICTIONARY
360
6402
102
}
102
{ACAD_REACTORS
330
28DA
102
}
330
28DA
100
AcDbVisualStyle
  2
Basic
 70
     7
 71
     1
 72
     0
 73
     1
 90
        0
 40
-0.6
 41
-30.0
 62
     5
 63
     7
421
 16777215
 74
     0
 91
        4
 64
     7
 65
   257
 75
     1
175
     1
 42
1.0
 92
        8
 66
     7
 43
1.0
 76
     1
 77
     6
 78
     2
 67
     7
 79
     5
170
     0
171
     0
290
     0
174
     0
 93
        1
 44
0.0
173
     0
291
     1
 45
0.0
1001
ACAD
1000
AcDbSavedByObjectVersion
1070
     0
  0
VISUALSTYLE
  5
28E6
102
{ACAD_XDICTIONARY
360
6410
102
}
102
{ACAD_REACTORS
330
28DA
102
}
330
28DA
100
AcDbVisualStyle
  2
Brighten
 70
    12
 71
     2
 72
     2
 73
     0
 90
        0
 40
-0.6
 41
-30.0
 62
     5
 63
     7
421
 16777215
 74
     1
 91
        4
 64
     7
 65
   257
 75
     1
175
     1
 42
1.0
 92
        8
 66
     7
 43
1.0
 76
     1
 77
     6
 78
     2
 67
     7
 79
     5
170
     0
171
     0
290
     0
174
     0
 93
        1
 44
50.0
173
     0
291
     1
 45
0.0
1001
ACAD
1000
AcDbSavedByObjectVersion
1070
     0
  0
VISUALSTYLE
  5
28EA
102
{ACAD_XDICTIONARY
360
6418
102
}
102
{ACAD_REACTORS
330
28DA
102
}
330
28DA
100
AcDbVisualStyle
  2
ColorChange
 70
    16
 71
     2
 72
     2
 73
     3
 90
        0
 40
-0.6
 41
-30.0
 62
     5
 63
     8
421
  8421504
 74
     1
 91
        4
 64
     7
 65
   257
 75
     1
175
     1
 42
1.0
 92
        8
 66
     8
424
  8421504
 43
1.0
 76
     1
 77
     6
 78
     2
 67
     7
 79
     5
170
     0
171
     0
290
     0
174
     0
 93
        1
 44
0.0
173
     0
291
     1
 45
0.0
1001
ACAD
1000
AcDbSavedByObjectVersion
1070
     0
  0
VISUALSTYLE
  5
28E3
102
{ACAD_XDICTIONARY
360
640A
102
}
102
{ACAD_REACTORS
330
28DA
102
}
330
28DA
100
AcDbVisualStyle
  2
Conceptual
 70
     9
 71
     3
 72
     2
 73
     0
 90
        0
 40
-0.6
 41
-30.0
 62
     5
 63
     7
421
 16777215
 74
     2
 91
        2
 64
     7
 65
   257
 75
     1
175
     1
 42
179.0
 92
        8
 66
     7
 43
1.0
 76
     1
 77
     6
 78
     2
 67
     7
 79
     3
170
     0
171
     0
290
     0
174
     0
 93
        1
 44
0.0
173
     0
291
     0
 45
0.0
1001
ACAD
1000
AcDbSavedByObjectVersion
1070
     0
  0
VISUALSTYLE
  5
28E5
102
{ACAD_XDICTIONARY
360
640E
102
}
102
{ACAD_REACTORS
330
28DA
102
}
330
28DA
100
AcDbVisualStyle
  2
Dim
 70
    11
 71
     2
 72
     2
 73
     0
 90
        0
 40
-0.6
 41
-30.0
 62
     5
 63
     7
421
 16777215
 74
     1
 91
        4
 64
     7
 65
   257
 75
     1
175
     1
 42
1.0
 92
        8
 66
     7
 43
1.0
 76
     1
 77
     6
 78
     2
 67
     7
 79
     5
170
     0
171
     0
290
     0
174
     0
 93
        1
 44
-50.0
173
     0
291
     1
 45
0.0
1001
ACAD
1000
AcDbSavedByObjectVersion
1070
     0
  0
VISUALSTYLE
  5
28F2
102
{ACAD_XDICTIONARY
360
6428
102
}
102
{ACAD_REACTORS
330
28DA
102
}
330
28DA
100
AcDbVisualStyle
  2
EdgeColorOff
 70
    22
 71
     2
 72
     2
 73
     0
 90
        0
 40
-0.6
 41
-30.0
 62
     5
 63
     7
421
 16777215
 74
     1
 91
        4
 64
     7
 65
   257
 75
     1
175
     1
 42
1.0
 92
        8
 66
     7
 43
1.0
 76
     1
 77
     6
 78
     2
 67
     7
 79
     5
170
     0
171
     0
290
     0
174
     0
 93
        1
 44
0.0
173
     0
291
     1
 45
0.0
1001
ACAD
1000
AcDbSavedByObjectVersion
1070
     0
  0
VISUALSTYLE
  5
28E9
102
{ACAD_XDICTIONARY
360
6416
102
}
102
{ACAD_REACTORS
330
28DA
102
}
330
28DA
100
AcDbVisualStyle
  2
Facepattern
 70
    15
 71
     2
 72
     2
 73
     0
 90
        0
 40
-0.6
 41
-30.0
 62
     5
 63
     7
421
 16777215
 74
     1
 91
        4
 64
     7
 65
   257
 75
     1
175
     1
 42
1.0
 92
        8
 66
     7
 43
1.0
 76
     1
 77
     6
 78
     2
 67
     7
 79
     5
170
     0
171
     0
290
     0
174
     0
 93
        1
 44
0.0
173
     0
291
     1
 45
0.0
1001
ACAD
1000
AcDbSavedByObjectVersion
1070
     0
  0
VISUALSTYLE
  5
28DB
102
{ACAD_XDICTIONARY
360
63FA
102
}
102
{ACAD_REACTORS
330
28DA
102
}
330
28DA
100
AcDbVisualStyle
  2
Flat
 70
     0
 71
     2
 72
     1
 73
     1
 90
        2
 40
-0.6
 41
30.0
 62
     5
 63
     7
421
 16777215
 74
     0
 91
        0
 64
     7
 65
   257
 75
     1
175
     1
 42
1.0
 92
        8
 66
     7
 43
1.0
 76
     1
 77
     6
 78
     2
 67
     7
 79
     5
170
     0
171
     0
290
     0
174
     0
 93
       13
 44
0.0
173
     0
291
     1
 45
0.0
1001
ACAD
1000
AcDbSavedByObjectVersion
1070
     0
  0
VISUALSTYLE
  5
28DC
102
{ACAD_XDICTIONARY
360
63FC
102
}
102
{ACAD_REACTORS
330
28DA
102
}
330
28DA
100
AcDbVisualStyle
  2
FlatWithEdges
 70
     1
 71
     2
 72
     1
 73
     1
 90
        2
 40
-0.6
 41
30.0
 62
     5
 63
     7
421
 16777215
 74
     1
 91
        0
 64
     7
 65
   257
 75
     1
175
     1
 42
1.0
 92
        0
 66
   257
 43
1.0
 76
     1
 77
     6
 78
     2
 67
     7
 79
     5
170
     0
171
     0
290
     0
174
     0
 93
       13
 44
0.0
173
     0
291
     1
 45
0.0
1001
ACAD
1000
AcDbSavedByObjectVersion
1070
     0
  0
VISUALSTYLE
  5
28DD
102
{ACAD_XDICTIONARY
360
63FE
102
}
102
{ACAD_REACTORS
330
28DA
102
}
330
28DA
100
AcDbVisualStyle
  2
Gouraud
 70
     2
 71
     2
 72
     2
 73
     1
 90
        2
 40
-0.6
 41
30.0
 62
     5
 63
     7
421
 16777215
 74
     0
 91
        0
 64
     7
 65
   257
 75
     1
175
     1
 42
1.0
 92
        0
 66
     7
 43
1.0
 76
     1
 77
     6
 78
     2
 67
     7
 79
     5
170
     0
171
     0
290
     0
174
     0
 93
       13
 44
0.0
173
     0
291
     1
 45
0.0
1001
ACAD
1000
AcDbSavedByObjectVersion
1070
     0
  0
VISUALSTYLE
  5
28DE
102
{ACAD_XDICTIONARY
360
6400
102
}
102
{ACAD_REACTORS
330
28DA
102
}
330
28DA
100
AcDbVisualStyle
  2
GouraudWithEdges
 70
     3
 71
     2
 72
     2
 73
     1
 90
        2
 40
-0.6
 41
30.0
 62
     5
 63
     7
421
 16777215
 74
     1
 91
        0
 64
     7
 65
   257
 75
     1
175
     1
 42
1.0
 92
        0
 66
   257
 43
1.0
 76
     1
 77
     6
 78
     2
 67
     7
 79
     5
170
     0
171
     0
290
     0
174
     0
 93
       13
 44
0.0
173
     0
291
     1
 45
0.0
1001
ACAD
1000
AcDbSavedByObjectVersion
1070
     0
  0
VISUALSTYLE
  5
28E2
102
{ACAD_XDICTIONARY
360
6408
102
}
102
{ACAD_REACTORS
330
28DA
102
}
330
28DA
100
AcDbVisualStyle
  2
Hidden
 70
     6
 71
     1
 72
     2
 73
     2
 90
        0
 40
-0.6
 41
-30.0
 62
     5
 63
     7
421
 16777215
 74
     2
 91
        2
 64
     7
 65
   257
 75
     2
175
     1
 42
40.0
 92
        0
 66
   257
 43
1.0
 76
     1
 77
     6
 78
     2
 67
     7
 79
     3
170
     0
171
     0
290
     0
174
     0
 93
        1
 44
0.0
173
     0
291
     0
 45
0.0
1001
ACAD
1000
AcDbSavedByObjectVersion
1070
     0
  0
VISUALSTYLE
  5
28F0
102
{ACAD_XDICTIONARY
360
6424
102
}
102
{ACAD_REACTORS
330
28DA
102
}
330
28DA
100
AcDbVisualStyle
  2
JitterOff
 70
    20
 71
     2
 72
     2
 73
     0
 90
        0
 40
-0.6
 41
-30.0
 62
     5
 63
     7
421
 16777215
 74
     1
 91
        4
 64
     7
 65
   257
 75
     1
175
     1
 42
1.0
 92
       10
 66
     7
 43
1.0
 76
     1
 77
     6
 78
     2
 67
     7
 79
     5
170
     0
171
     0
290
     0
174
     0
 93
        1
 44
0.0
173
     0
291
     1
 45
0.0
1001
ACAD
1000
AcDbSavedByObjectVersion
1070
     0
  0
VISUALSTYLE
  5
28E8
102
{ACAD_XDICTIONARY
360
6414
102
}
102
{ACAD_REACTORS
330
28DA
102
}
330
28DA
100
AcDbVisualStyle
  2
Linepattern
 70
    14
 71
     2
 72
     2
 73
     0
 90
        0
 40
-0.6
 41
-30.0
 62
     5
 63
     7
421
 16777215
 74
     1
 91
        4
 64
     7
 65
   257
 75
     7
175
     7
 42
1.0
 92
        8
 66
     7
 43
1.0
 76
     1
 77
     6
 78
     2
 67
     7
 79
     5
170
     0
171
     0
290
     0
174
     0
 93
        1
 44
0.0
173
     0
291
     1
 45
0.0
1001
ACAD
1000
AcDbSavedByObjectVersion
1070
     0
  0
VISUALSTYLE
  5
28F1
102
{ACAD_XDICTIONARY
360
6426
102
}
102
{ACAD_REACTORS
330
28DA
102
}
330
28DA
100
AcDbVisualStyle
  2
OverhangOff
 70
    21
 71
     2
 72
     2
 73
     0
 90
        0
 40
-0.6
 41
-30.0
 62
     5
 63
     7
421
 16777215
 74
     1
 91
        4
 64
     7
 65
   257
 75
     1
175
     1
 42
1.0
 92
        9
 66
     7
 43
1.0
 76
     1
 77
     6
 78
     2
 67
     7
 79
     5
170
     0
171
     0
290
     0
174
     0
 93
        1
 44
0.0
173
     0
291
     1
 45
0.0
1001
ACAD
1000
AcDbSavedByObjectVersion
1070
     0
  0
VISUALSTYLE
  5
28E4
102
{ACAD_XDICTIONARY
360
640C
102
}
102
{ACAD_REACTORS
330
28DA
102
}
330
28DA
100
AcDbVisualStyle
  2
Realistic
 70
     8
 71
     2
 72
     2
 73
     0
 90
        2
 40
-0.6
 41
30.0
 62
     5
 63
     7
421
 16777215
 74
     0
 91
        0
 64
     7
 65
   257
 75
     1
175
     1
 42
1.0
 92
        8
 66
   257
 43
1.0
 76
     1
 77
     6
 78
     2
 67
     7
 79
     3
170
     0
171
     0
290
     0
174
     0
 93
       13
 44
0.0
173
     0
291
     0
 45
0.0
1001
ACAD
1000
AcDbSavedByObjectVersion
1070
     0
  0
VISUALSTYLE
  5
28EF
102
{ACAD_XDICTIONARY
360
6422
102
}
102
{ACAD_REACTORS
330
28DA
102
}
330
28DA
100
AcDbVisualStyle
  2
Shaded
 70
    27
 71
     2
 72
     2
 73
     1
 90
        2
 40
-0.6
 41
30.0
 62
     5
 63
     7
421
 16777215
 74
     0
 91
        4
 64
     7
 65
   257
 75
     1
175
     1
 42
1.0
 92
        8
 66
   257
 43
1.0
 76
     1
 77
     6
 78
     2
 67
     8
425
  7895160
 79
     3
170
     0
171
     0
290
     0
174
     0
 93
        5
 44
0.0
173
     0
291
     0
 45
0.0
1001
ACAD
1000
AcDbSavedByObjectVersion
1070
     0
  0
VISUALSTYLE
  5
28EE
102
{ACAD_XDICTIONARY
360
6420
102
}
102
{ACAD_REACTORS
330
28DA
102
}
330
28DA
100
AcDbVisualStyle
  2
Shaded with edges
 70
    26
 71
     2
 72
     2
 73
     1
 90
        2
 40
-0.6
 41
30.0
 62
     5
 63
     7
421
 16777215
 74
     1
 91
       10
 64
     7
 65
   257
 75
     2
175
     1
 42
1.0
 92
        8
 66
   257
 43
1.0
 76
     1
 77
     6
 78
     2
 67
     7
 79
     3
170
     0
171
     0
290
     0
174
     0
 93
        5
 44
0.0
173
     0
291
     0
 45
0.0
1001
ACAD
1000
AcDbSavedByObjectVersion
1070
     0
  0
VISUALSTYLE
  5
28EB
102
{ACAD_XDICTIONARY
360
641A
102
}
102
{ACAD_REACTORS
330
28DA
102
}
330
28DA
100
AcDbVisualStyle
  2
Shades of Gray
 70
    23
 71
     2
 72
     2
 73
     3
 90
        0
 40
-0.6
 41
-30.0
 62
     5
 63
     7
421
 16777215
 74
     2
 91
        2
 64
     7
 65
     7
 75
     1
175
     1
 42
40.0
 92
        8
 66
     7
 43
1.0
 76
     1
 77
     6
 78
     2
 67
     7
 79
     3
170
     0
171
     0
290
     0
174
     0
 93
        1
 44
0.0
173
     0
291
     0
 45
0.0
1001
ACAD
1000
AcDbSavedByObjectVersion
1070
     0
  0
VISUALSTYLE
  5
28EC
102
{ACAD_XDICTIONARY
360
641C
102
}
102
{ACAD_REACTORS
330
28DA
102
}
330
28DA
100
AcDbVisualStyle
  2
Sketchy
 70
    24
 71
     1
 72
     2
 73
     2
 90
        0
 40
-0.6
 41
-30.0
 62
     5
 63
     7
421
 16777215
 74
     2
 91
        2
 64
     7
 65
     7
 75
     1
175
     1
 42
40.0
 92
       11
 66
     7
 43
1.0
 76
     1
 77
     6
 78
     2
 67
     7
 79
     6
170
     0
171
     0
290
     0
174
     0
 93
        1
 44
0.0
173
     0
291
     0
 45
0.0
1001
ACAD
1000
AcDbSavedByObjectVersion
1070
     0
  0
VISUALSTYLE
  5
28E7
102
{ACAD_XDICTIONARY
360
6412
102
}
102
{ACAD_REACTORS
330
28DA
102
}
330
28DA
100
AcDbVisualStyle
  2
Thicken
 70
    13
 71
     2
 72
     2
 73
     0
 90
        0
 40
-0.6
 41
-30.0
 62
     5
 63
     7
421
 16777215
 74
     1
 91
        4
 64
     7
 65
   257
 75
     1
175
     1
 42
1.0
 92
       12
 66
     7
 43
1.0
 76
     1
 77
     6
 78
     2
 67
     7
 79
     5
170
     0
171
     0
290
     0
174
     0
 93
        1
 44
0.0
173
     0
291
     1
 45
0.0
1001
ACAD
1000
AcDbSavedByObjectVersion
1070
     0
  0
VISUALSTYLE
  5
28E1
102
{ACAD_XDICTIONARY
360
6406
102
}
102
{ACAD_REACTORS
330
28DA
102
}
330
28DA
100
AcDbVisualStyle
  2
Wireframe
 70
     5
 71
     0
 72
     2
 73
     0
 90
        0
 40
-0.6
 41
-30.0
 62
     5
 63
     7
421
 16777215
 74
     1
 91
        4
 64
     7
 65
   257
 75
     1
175
     1
 42
1.0
 92
        0
 66
   257
 43
1.0
 76
     1
 77
     6
 78
     2
 67
     7
 79
     3
170
     0
171
     0
290
     0
174
     0
 93
        1
 44
0.0
173
     0
291
     0
 45
0.0
1001
ACAD
1000
AcDbSavedByObjectVersion
1070
     0
  0
VISUALSTYLE
  5
28ED
102
{ACAD_XDICTIONARY
360
641E
102
}
102
{ACAD_REACTORS
330
28DA
102
}
330
28DA
100
AcDbVisualStyle
  2
X-Ray
 70
    25
 71
     2
 72
     2
 73
     1
 90
        1
 40
0.5
 41
-30.0
 62
     5
 63
     7
421
 16777215
 74
     1
 91
        0
 64
     7
 65
   257
 75
     1
175
     1
 42
1.0
 92
        8
 66
     7
 43
1.0
 76
     1
 77
     6
 78
     2
 67
     7
 79
     3
170
     0
171
     0
290
     0
174
     0
 93
       13
 44
0.0
173
     0
291
     0
 45
0.0
1001
ACAD
1000
AcDbSavedByObjectVersion
1070
     0
  0
DICTIONARYVAR
  5
29AB
102
{ACAD_REACTORS
330
86
102
}
330
86
100
DictionaryVariables
280
     0
  1
1:1
  0
DICTIONARYVAR
  5
29AA
102
{ACAD_REACTORS
330
86
102
}
330
86
100
DictionaryVariables
280
     0
  1
STANDARD
  0
DICTIONARYVAR
  5
29A9
102
{ACAD_REACTORS
330
86
102
}
330
86
100
DictionaryVariables
280
     0
  1
STANDARD
  0
DICTIONARYVAR
  5
89
102
{ACAD_REACTORS
330
86
102
}
330
86
100
DictionaryVariables
280
     0
  1
2
  0
DICTIONARYVAR
  5
88
102
{ACAD_REACTORS
330
86
102
}
330
86
100
DictionaryVariables
280
     0
  1
1
  0
DICTIONARYVAR
  5
87
102
{ACAD_REACTORS
330
86
102
}
330
86
100
DictionaryVariables
280
     0
  1
1
  0
DICTIONARYVAR
  5
2A32
102
{ACAD_REACTORS
330
86
102
}
330
86
100
DictionaryVariables
280
     0
  1
1
  0
DICTIONARYVAR
  5
2A33
102
{ACAD_REACTORS
330
86
102
}
330
86
100
DictionaryVariables
280
     0
  1
15
  0
DICTIONARYVAR
  5
2A31
102
{ACAD_REACTORS
330
86
102
}
330
86
100
DictionaryVariables
280
     0
  1
0
  0
DICTIONARYVAR
  5
2A30
102
{ACAD_REACTORS
330
86
102
}
330
86
100
DictionaryVariables
280
     0
  1
0
  0
DICTIONARYVAR
  5
63F4
102
{ACAD_REACTORS
330
86
102
}
330
86
100
DictionaryVariables
280
     0
  1
2
  0
DICTIONARY
  5
4A
102
{ACAD_REACTORS
330
45
102
}
330
45
100
AcDbDictionary
281
     1
  0
XRECORD
  5
2956
102
{ACAD_REACTORS
330
45
102
}
330
45
100
AcDbXrecord
280
     1
 90
-1023410169
  0
XRECORD
  5
3BD6
102
{ACAD_REACTORS
330
3BD5
102
}
330
3BD5
100
AcDbXrecord
280
     1
  0
DICTIONARY
  5
296D
330
22
100
AcDbDictionary
280
     1
281
     1
  3
ADSK_XREC_LAYOUTTHUMBNAIL
360
296E
  0
DICTIONARY
  5
28CB
330
28CA
100
AcDbDictionary
280
     1
281
     1
  3
ACAD_XREC_ROUNDTRIP
360
63F8
  3
BUMPTILE
360
28CD
  3
DIFFUSETILE
360
28CC
  3
OPACITYTILE
360
28D0
  3
REFLECTIONTILE
360
28CF
  3
REFRACTIONTILE
360
28D1
  3
SPECULARTILE
360
28CE
  0
DICTIONARY
  5
28C3
330
28C2
100
AcDbDictionary
280
     1
281
     1
  3
ACAD_XREC_ROUNDTRIP
360
63F7
  3
BUMPTILE
360
28C5
  3
DIFFUSETILE
360
28C4
  3
OPACITYTILE
360
28C8
  3
REFLECTIONTILE
360
28C7
  3
REFRACTIONTILE
360
28C9
  3
SPECULARTILE
360
28C6
  0
DICTIONARY
  5
28D3
330
28D2
100
AcDbDictionary
280
     1
281
     1
  3
ACAD_XREC_ROUNDTRIP
360
63F9
  3
BUMPTILE
360
28D5
  3
DIFFUSETILE
360
28D4
  3
OPACITYTILE
360
28D8
  3
REFLECTIONTILE
360
28D7
  3
REFRACTIONTILE
360
28D9
  3
SPECULARTILE
360
28D6
  0
DICTIONARY
  5
296F
330
28F5
100
AcDbDictionary
280
     1
281
     1
  3
ACAD_ROUNDTRIP_2008_TABLESTYLE_CELLSTYLEMAP
360
63F5
  3
ACAD_XREC_ROUNDTRIP
360
642A
  0
DICTIONARY
  5
6404
330
28E0
100
AcDbDictionary
280
     1
281
     1
  3
ACAD_XREC_ROUNDTRIP
360
6405
  0
DICTIONARY
  5
6402
330
28DF
100
AcDbDictionary
280
     1
281
     1
  3
ACAD_XREC_ROUNDTRIP
360
6403
  0
DICTIONARY
  5
6410
330
28E6
100
AcDbDictionary
280
     1
281
     1
  3
ACAD_XREC_ROUNDTRIP
360
6411
  0
DICTIONARY
  5
6418
330
28EA
100
AcDbDictionary
280
     1
281
     1
  3
ACAD_XREC_ROUNDTRIP
360
6419
  0
DICTIONARY
  5
640A
330
28E3
100
AcDbDictionary
280
     1
281
     1
  3
ACAD_XREC_ROUNDTRIP
360
640B
  0
DICTIONARY
  5
640E
330
28E5
100
AcDbDictionary
280
     1
281
     1
  3
ACAD_XREC_ROUNDTRIP
360
640F
  0
DICTIONARY
  5
6428
330
28F2
100
AcDbDictionary
280
     1
281
     1
  3
ACAD_XREC_ROUNDTRIP
360
6429
  0
DICTIONARY
  5
6416
330
28E9
100
AcDbDictionary
280
     1
281
     1
  3
ACAD_XREC_ROUNDTRIP
360
6417
  0
DICTIONARY
  5
63FA
330
28DB
100
AcDbDictionary
280
     1
281
     1
  3
ACAD_XREC_ROUNDTRIP
360
63FB
  0
DICTIONARY
  5
63FC
330
28DC
100
AcDbDictionary
280
     1
281
     1
  3
ACAD_XREC_ROUNDTRIP
360
63FD
  0
DICTIONARY
  5
63FE
330
28DD
100
AcDbDictionary
280
     1
281
     1
  3
ACAD_XREC_ROUNDTRIP
360
63FF
  0
DICTIONARY
  5
6400
330
28DE
100
AcDbDictionary
280
     1
281
     1
  3
ACAD_XREC_ROUNDTRIP
360
6401
  0
DICTIONARY
  5
6408
330
28E2
100
AcDbDictionary
280
     1
281
     1
  3
ACAD_XREC_ROUNDTRIP
360
6409
  0
DICTIONARY
  5
6424
330
28F0
100
AcDbDictionary
280
     1
281
     1
  3
ACAD_XREC_ROUNDTRIP
360
6425
  0
DICTIONARY
  5
6414
330
28E8
100
AcDbDictionary
280
     1
281
     1
  3
ACAD_XREC_ROUNDTRIP
360
6415
  0
DICTIONARY
  5
6426
330
28F1
100
AcDbDictionary
280
     1
281
     1
  3
ACAD_XREC_ROUNDTRIP
360
6427
  0
DICTIONARY
  5
640C
330
28E4
100
AcDbDictionary
280
     1
281
     1
  3
ACAD_XREC_ROUNDTRIP
360
640D
  0
DICTIONARY
  5
6422
330
28EF
100
AcDbDictionary
280
     1
281
     1
  3
ACAD_XREC_ROUNDTRIP
360
6423
  0
DICTIONARY
  5
6420
330
28EE
100
AcDbDictionary
280
     1
281
     1
  3
ACAD_XREC_ROUNDTRIP
360
6421
  0
DICTIONARY
  5
641A
330
28EB
100
AcDbDictionary
280
     1
281
     1
  3
ACAD_XREC_ROUNDTRIP
360
641B
  0
DICTIONARY
  5
641C
330
28EC
100
AcDbDictionary
280
     1
281
     1
  3
ACAD_XREC_ROUNDTRIP
360
641D
  0
DICTIONARY
  5
6412
330
28E7
100
AcDbDictionary
280
     1
281
     1
  3
ACAD_XREC_ROUNDTRIP
360
6413
  0
DICTIONARY
  5
6406
330
28E1
100
AcDbDictionary
280
     1
281
     1
  3
ACAD_XREC_ROUNDTRIP
360
6407
  0
DICTIONARY
  5
641E
330
28ED
100
AcDbDictionary
280
     1
281
     1
  3
ACAD_XREC_ROUNDTRIP
360
641F
  0
XRECORD
  5
296E
102
{ACAD_REACTORS
330
296D
102
}
330
296D
100
AcDbXrecord
280
     1
310
28000000000100007100000001000800000000000071000000000000000000000001000000000000FFFFFF0000000000FFFFFF000000000000000000000000000000000000000000000000000000000000000000330000006600000099000000CC000000FF00000000330000333300006633000099330000CC330000FF3300
310
0000660000336600006666000099660000CC660000FF66000000990000339900006699000099990000CC990000FF99000000CC000033CC000066CC000099CC0000CCCC0000FFCC000000FF000033FF000066FF000099FF0000CCFF0000FFFF000000003300330033006600330099003300CC003300FF003300003333003333
310
33006633330099333300CC333300FF33330000663300336633006666330099663300CC663300FF66330000993300339933006699330099993300CC993300FF99330000CC330033CC330066CC330099CC3300CCCC3300FFCC330000FF330033FF330066FF330099FF3300CCFF3300FFFF330000006600330066006600660099
310
006600CC006600FF00660000336600333366006633660099336600CC336600FF33660000666600336666006666660099666600CC666600FF66660000996600339966006699660099996600CC996600FF99660000CC660033CC660066CC660099CC6600CCCC6600FFCC660000FF660033FF660066FF660099FF6600CCFF6600
310
FFFF660000009900330099006600990099009900CC009900FF00990000339900333399006633990099339900CC339900FF33990000669900336699006666990099669900CC669900FF66990000999900339999006699990099999900CC999900FF99990000CC990033CC990066CC990099CC9900CCCC9900FFCC990000FF99
310
0033FF990066FF990099FF9900CCFF9900FFFF99000000CC003300CC006600CC009900CC00CC00CC00FF00CC000033CC003333CC006633CC009933CC00CC33CC00FF33CC000066CC003366CC006666CC009966CC00CC66CC00FF66CC000099CC003399CC006699CC009999CC00CC99CC00FF99CC0000CCCC0033CCCC0066CC
310
CC0099CCCC00CCCCCC00FFCCCC0000FFCC0033FFCC0066FFCC0099FFCC00CCFFCC00FFFFCC000000FF003300FF006600FF009900FF00CC00FF00FF00FF000033FF003333FF006633FF009933FF00CC33FF00FF33FF000066FF003366FF006666FF009966FF00CC66FF00FF66FF000099FF003399FF006699FF009999FF00CC
310
99FF00FF99FF0000CCFF0033CCFF0066CCFF0099CCFF00CCCCFF00FFCCFF0000FFFF0033FFFF0066FFFF0099FFFF00CCFFFF00FFFFFF00000000000D0D0D001A1A1A00282828003535350043434300505050005D5D5D006B6B6B00787878008686860093939300A1A1A100AEAEAE00BBBBBB00C9C9C900D6D6D600E4E4E400
310
F1F1F100FFFFFF000000000000000000000000000000000000000000000000000000000000000000000000000000000000000000000000000000000000000000000000000000000000000000000000000000000000000000000000000000000000000000000000000000000000000000000000000000000000000000000000
310
00000000000000000000000000000000000000000000000000000000000000000000000000000000000000000000000000000000000000000000000000000000000000000000000000000000000000000000000000000000000000000000000000000000000000000000000000000000000000000000000000000000000000
310
00000000000000000000000000000000000000000000000000000000000000000000000000000000000000000000000000000000000000000000000000000000000000000000000000000000000000000000000000000000000000000000000000000000000000000000000000000000000000000000000000000000000000
310
00000000000000000000000000000000000000000000000000000000000000000000000000000000000000000000000000000000000000000000000000000000000000000000000000000000000000000000000000000000000000000000000000000000000000000000000000000000000000000000000000000000000000
310
00000000000000000000000000000000000000000000000000000000000000000000000000000000000000000000000000000000000000000000000000000000000000000000000000000000000000000000000000000000000000000000000000000000000000000000000000000000000000000000000000000000000000
310
00000000000000000000000000000000000000000000000000000000000000000000000000000000000000000000000000000000000000000000000000000000000000000000000000000000000000000000000000000000000000000000000000000000000000000000000000000000000000000000000000000000000000
310
00000000000000000000000000000000000000000000000000000000000000000000000000000000000000000000000000000000000000000000000000000000000000000000000000000000000000000000000000000000000000000000000000000000000000000000000000000000000000000000000000000000000000
310
00000000000000000000000000000000000000000000000000000000000000000000000000000000000000000000000000000000000000000000000000000000000000000000000000000000000000000000000000000000000000000000000000000000000000000000000000000000000000000000000000000000000000
310
00000000000000000000000000000000000000000000000000000000000000000000000000000000000000000000000000000000000000000000000000000000000000000000000000000000000000000000000000000000000000000000000000000000000000000000000000000000000000000000000000000000000000
310
00000000000000000000000000000000000000000000000000000000000000000000000000000000000000000000000000000000000000000000000000000000000000000000000000000000000000000000000000000000000000000000000000000000000000000000000000000000000000000000000000000000000000
310
00000000000000000000000000000000000000000000000000000000000000000000000000000000000000000000000000000000000000000000000000000000000000000000000000000000000000000000000000000000000000000000000000000000000000000000000000000000000000000000000000000000000000
310
00000000000000000000000000000000000000000000000000000000000000000000000000000000000000000000000000000000000000000000000000000000000000000000000000000000000000000000000000000000000000000000000000000000000000000000000000000000000000000000000000000000000000
310
00000000000000000000000000000000000000000000000000000000000000000000000000000000000000000000000000000000000000000000000000000000000000000000000000000000000000000000000000000000000000000000000000000000000000000000000000000000000000000000000000000000000000
310
00000000000000000000000000000000000000000000000000000000000000000000000000000000000000000000000000000000000000000000000000000000000000000000000000000000000000000000000000000000000000000000000000000000000000000000000000000000000000000000000000000000000000
310
00000000000000000000000000000000000000000000000000000000000000000000000000000000000000000000000000000000000000000000000000000000000000000000000000000000000000000000000000000000000000000000000000000000000000000000000000000000000000000000000000000000000000
310
00000000000000000000000000000000000000000000000000000000000000000000000000000000000000000000000000000000000000000000000000000000000000000000000000000000000000000000000000000000000000000000000000000000000000000000000000000000000000000000000000000000000000
310
00000000000000000000000000000000000000000000000000000000000000000000000000000000000000000000000000000000000000000000000000000000000000000000000000000000000000000000000000000000000000000000000000000000000000000000000000000000000000000000000000000000000000
310
0000000000000000000000000000000000000000000000000000000000000000000000000000000000000000000000000000000000000000000000000000000000000000000000002D000000000000000000000000000000000000000000000000000000000000000000000000000000000000000000000000000000000000
310
00000000000000000000000000000000000000000000000000000000000000000000000000000000000000000000000000000000000000000000000000000000000000000000000000000000000000000000000000000000000000000000000000000000000000000000000000000000000000000000000000000000000000
310
00000000000000000000000000000000000000000000000000000000000000000000000000000000000000000000000000000000000000000000000000000000000000000000000000002D00000000000000000000000000000000000000000000000000000000000000000000000000000000000000000000000000000000
310
00000000000000000000000000000000000000000000000000000000000000000000000000000000000000000000000000000000000000000000000000000000000000000000000000000000000000000000000000000000000000000000000000000000000000000000000000000000000000000000000000000000000000
310
0000000000000000000000000000000000000000000000000000000000000000000000000000000000E2E2E2E2E2E2E2E2E2E2E2E2E2E2E2E2E2E2E2E2E2E2E2E2E2E2E2E2E2E2E2E2E2E2E2E2E2E2E2E2E2E2E2E2E2E2E2E2E2E2E2E2E2E2E2E2E2E2E2E2E2E2E2E2E2E2E2E2000000000000000000000000000000000000
310
00000000000000000000000000000000000000000000000000000000000000000000000000000000000000000000000000000000000000000000000000000000000000000000000000000000000000000000000000000000000000000000000000000000000000000000000000000000000000000000000000000000000000
310
00000000000000000000000000000000000000000000000000000000000000000000000000000000000000E200C3000000000000000000000000000000000000000000000000000000C3C30000002D000000C3C3000000000000C3C3000000000000C300C30000000000000000C3E200000000000000000000000000000000
310
00000000000000000000000000000000000000000000000000000000000000000000000000000000000000000000000000000000000000000000000000000000000000000000000000000000000000000000000000000000000000000000000000000000000000000000000000000000000000000000000000000000000000
310
0000000000000000000000000000000000000000000000000000000000000000000000000000000000000000E20000C30000000000000000000000000000000000000000C3C3C3C3C3C3C3E2E2E2E2E2E2E2E2E2E2E2C3C3C3C3C3C3C3C3C3C3C3C3C3C3C300C3C3C3C3C3C3C3C3C300E20000000000000000000000000000
310
00000000000000000000000000000000000000000000000000000000000000000000000000000000000000000000000000000000000000000000000000000000000000000000000000000000000000000000000000000000000000000000000000000000000000000000000000000000000000000000000000000000000000
310
00000000000000000000000000000000000000000000000000000000000000000000000000000000000000000000E20000C30000000000000000000000000000000000000000C3000000C3C3E2E2C3C3E2E2E2E2C3C3E2E2C3C3C3C3C3C3C3C3C3C3C3C3C3C3C3C3C3000000000000000000E2000000000000000000000000
310
00000000000000000000000000000000000000000000000000000000000000000000000000000000000000000000000000000000000000000000000000000000000000000000000000000000000000000000000000000000000000000000000000000000000000000000000000000000000000000000000000000000000000
310
0000000000000000000000000000000000000000000000000000000000000000000000000000000000000000000000E2000000C30000000000000000000000000000000000000000C3000000C3C3E200E2E2E2E2E2E2E2E2C3E200000000000000000000000000C3C30000000000000000000000E200000000000000000000
310
00000000000000000000000000000000000000000000000000000000000000000000000000000000000000000000000000000000000000000000000000000000000000000000000000000000000000000000000000000000000000000000000000000000000000000000000000000000000000000000000000000000000000
310
00000000000000000000000000000000000000000000000000000000000000000000000000000000000000000000000000E2000000C30000000000000000000000000000000000000000C3000000C3C3E20000C300002D00000000E2C3000000000000000000000000C3C30000000000000000000000E20000000000000000
310
00000000000000000000000000000000000000000000000000000000000000000000000000000000000000000000000000000000000000000000000000000000000000000000000000000000000000000000000000000000000000000000000000000000000000000000000000000000000000000000000000000000000000
310
0000000000000000000000000000000000000000000000000000000000000000000000000000000000000000000000000000E200000000C30000000000000000000000000000000000000000C3C3C3C3C3C3E20000C300000000000000E200C3C300000000000000C3C3C3C3C3C3C3000000000000000000E2000000000000
310
00000000000000000000000000000000000000000000000000000000000000000000000000000000000000000000000000000000000000000000000000000000000000000000000000000000000000000000000000000000000000000000000000000000000000000000000000000000000000000000000000000000000000
310
00000000000000000000000000000000000000000000000000000000000000000000000000000000000000000000000000000000E200000000C3000000000000000000000000000000000000000000000000C3C300E20000C3000000000000E2000000C3C3C30000C3C300000000000000C30000000000000000E200000000
310
00000000000000000000000000000000000000000000000000000000000000000000000000000000000000000000000000000000000000000000000000000000000000000000000000000000000000000000000000000000000000000000000000000000000000000000000000000000000000000000000000000000000000
310
0000000000000000000000000000000000000000000000000000000000000000000000000000000000000000000000000000000000E20000000000C3000000000000000000000000000000000000000000000000C30000E20000C3C30000000000E2000000000000C3C3C3000000000000000000C300000000000000E20000
310
00000000000000000000000000000000000000000000000000000000000000000000000000000000000000000000000000000000000000000000000000000000000000000000000000000000000000000000000000000000000000000000000000000000000000000000000000000000000000000000000000000000000000
310
00000000000000000000000000000000000000000000000000000000000000000000000000000000000000000000000000000000000000E20000000000C3000000000000000000000000000000000000000000000000C30000E200000000C300000000E200000000000000000000000000000000000000C3000000000000E2
310
00000000000000000000000000000000000000000000000000000000000000000000000000000000000000000000000000000000000000000000000000000000000000000000000000000000000000000000000000000000000000000000000000000000000000000000000000000000000000000000000000000000000000
310
000000000000000000000000000000000000000000000000000000000000000000000000000000000000000000000000000000000000000000E20000000000C3000000000000000000000000000000000000000000000000C30000E20000C3C3C3C30000E20000000000000000000000000000000000000000C30000000000
310
00E20000000000000000000000000000000000000000000000000000000000000000000000000000000000000000000000000000000000000000000000000000000000000000000000000000000000000000000000000000000000000000000000000000000000000000000000000000000000000000000000000000000000
310
00000000000000000000000000000000000000000000000000000000000000000000000000000000000000000000000000000000000000000000E2000000000000C300000000000000000000000000C3C3C3C3C3C3C3C3C3C3C3C3C3C3C3E2C3C300C300C3C3E2000000000000000000000000000000000000000000C30000
310
000000E2000000000000000000000000000000000000000000000000000000000000000000000000000000000000000000000000000000000000000000000000000000000000000000000000000000000000000000000000000000000000000000000000000000000000000000000000000000000000000000000000000000
310
000000000000000000000000000000000000000000000000000000000000000000000000000000000000000000000000000000000000000000000000E2000000000000C30000000000000000000000C3C300000000C3C3C3C3C3C3C3C300C30000E2C300C3C3E2E2C3C30000000000000000000000000000000000000000C3
310
0000000000E200000000000000000000000000000000000000000000000000000000000000000000000000000000000000000000000000000000000000000000000000000000000000000000000000000000000000000000000000000000000000000000000000000000000000000000000000000000000000000000000000
310
0000000000000000000000000000000000000000000000000000000000000000000000000000000000000000000000000000000000000000000000000000E2000000000000C300000000000000000000C3C30000000000C3000000000000C300C3000000E2E2E2E2C3C300C3C3C300000000000000000000C3C30000000000
310
0000C300000000E20000000000000000000000000000000000000000000000000000000000000000000000000000000000000000000000000000000000000000000000000000000000000000000000000000000000000000000000000000000000000000000000000000000000000000000000000000000000000000000000
310
000000000000000000000000000000000000000000000000000000000000000000000000000000000000000000000000000000000000000000000000000000E200000000000000C300000000000000000000C30000000000C300000000000000C300C3000000C300C3000000C3C30000C3C3C3C3000000C3C3C300C3000000
310
00000000C300000000E2000000000000000000000000000000000000000000000000000000000000000000000000000000000000000000000000000000000000000000000000000000000000000000000000000000000000000000000000000000000000000000000000000000000000000000000000000000000000000000
310
0000000000000000000000000000000000000000000000000000000000000000000000000000000000000000000000000000000000000000000000000000000000E200000000000000C300000000000000000000C30000000000C300000000000000C300C3000000C300C30000000000C300000000C3C3C3C3C300000000C3
310
00000000000000C3000000E200000000000000000000000000000000000000000000000000000000000000000000000000000000000000000000000000000000000000000000000000000000000000000000000000000000000000000000000000000000000000000000000000000000000000000000000000000000000000
310
00000000000000000000000000000000000000000000000000000000000000000000000000000000000000000000000000000000000000000000000000000000000000E200000000000000C300000000000000000000C30000000000C300000000000000C300C32D2D2D2D2DC32D0000000000C30000000000000000000000
310
00C300000000000000C3000000E20000000000000000000000000000000000000000000000000000000000000000000000000000000000000000000000000000000000000000000000000000000000000000000000000000000000000000000000000000000000000000000000000000000000000000000000000000000000
310
0000000000000000000000000000000000000000000000000000000000000000000000000000000000000000000000000000000000000000000000000000000000000000E20000000000000000C300000000000000000000C30000000000C300000000000000C300C3000000C300C300000000000000C30000000000000000
310
00000000C3000000000000C3000000E2000000000000000000000000000000000000000000000000000000000000000000000000000000000000000000000000000000000000000000000000000000000000000000000000000000000000000000000000000000000000000000000000000000000000000000000000000000
310
00000000000000000000000000000000000000000000000000000000000000000000000000000000000000000000000000000000000000000000000000000000000000000000E20000000000000000C3000000000000000000C3C300000000C3C30000000000000000C3C3000000C300C30000000000000000C30000000000
310
000000000000C3000000000000C3000000E200000000000000000000000000000000000000000000000000000000000000000000000000000000000000000000000000000000000000000000000000000000000000000000000000000000000000000000000000000000000000000000000000000000000000000000000000
310
000000000000000000000000000000000000000000000000000000000000000000000000000000000000000000000000000000000000000000000000000000000000000000000000E20000000000000000C3000000000000000000C3000000C3C300000000000000000000C3C3000000C300C3000000000000000000C30000
310
0000000000000000C300000000000000C30000E20000000000000000000000000000000000000000000000000000000000000000000000000000000000000000000000000000000000000000000000000000000000000000000000000000000000000000000000000000000000000000000000000000000000000000000000
310
00000000000000000000000000000000000000000000000000000000000000000000000000000000000000000000000000000000000000000000000000000000000000000000000000E2000000000000000000C3000000000000000000C300C3C3000000000000000000000000C3C3C30000C300C300000000000000000000
310
C3000000000000000000C300000000000000C30000E2000000000000000000000000000000000000000000000000000000000000000000000000000000000000000000000000000000000000000000000000000000000000000000000000000000000000000000000000000000000000000000000000000000000000000000
310
000000000000000000000000000000000000000000000000000000000000000000000000000000000000000000000000000000000000000000000000000000000000000000000000000000E2000000000000000000C3000000000000000000C3C3C300000000000000000000000000C3C3C3C3C3C3C3C30000000000000000
310
000000C30000000000000000C300000000000000C30000E200000000000000000000000000000000000000000000000000000000000000000000000000000000000000000000000000000000000000000000000000000000000000000000000000000000000000000000000000000000000000000000000000000000000000
310
0000000000000000000000000000000000000000000000000000000000000000000000000000000000000000000000000000000000000000000000000000000000000000000000000000000000E2000000000000000000C30000000000000000C300C3000000000000000000000000000000C3000000C3C300C30000000000
310
000000000000C300000000000000C300000000000000C30000E20000000000000000000000000000000000000000000000000000000000000000000000000000000000000000000000000000000000000000000000000000000000000000000000000000000000000000000000000000000000000000000000000000000000
310
000000000000000000000000000000000000000000000000000000000000000000000000000000000000000000000000000000000000000000000000000000000000000000000000000000000000E200000000000000000000C300000000000000C3C3C300000000000000000000000000000000C300000000000000C3C300
310
000000000000000000C3000000000000C300000000000000C30000E2000000000000000000000000000000000000000000000000000000000000000000000000000000000000000000000000000000000000000000000000000000000000000000000000000000000000000000000000000000000000000000000000000000
310
0000000000000000000000000000000000000000000000000000000000000000000000000000000000000000000000000000000000000000000000000000000000000000000000000000000000000000E200000000000000000000C3000000000000C300000000000000000000000000000000000000C3C300000000000000
310
00C300000000000000000000C300000000C300000000000000C3000000E200000000000000000000000000000000000000000000000000000000000000000000000000000000000000000000000000000000000000000000000000000000000000000000000000000000000000000000000000000000000000000000000000
310
00000000000000000000000000000000000000000000000000000000000000000000000000000000000000000000000000000000000000000000000000000000000000000000000000000000000000000000E200000000000000000000C300C3C3C300C3000000000000000000000000000000000000000000C30000000000
310
00000000C300000000000000000000C3C3C3C3C300000000000000C300000000E200000000000000000000000000000000000000000000000000000000000000000000000000000000000000000000000000000000000000000000000000000000000000000000000000000000000000000000000000000000000000000000
310
0000000000000000000000000000000000000000000000000000000000000000000000000000000000000000000000000000000000000000000000000000000000000000000000000000000000000000000000E2000000000000000000000000C3C30000000000000000000000000000000000000000000000000000C30000
310
000000000000C300000000000000000000000000000000000000000000C300000000E20000000000000000000000000000000000000000000000000000000000000000000000000000000000000000000000000000000000000000000000000000000000000000000000000000000000000000000000000000000000000000
310
00000000000000000000000000000000000000000000000000000000000000000000000000000000000000000000000000000000000000000000000000000000000000000000000000000000000000000000000000E200000000000000000000C3C30000000000000000000000000000000000000000000000000000000000
310
C30000000000000000C3C300000000000000000000000000000000000000C30000000000E2000000000000000000000000000000000000000000000000000000000000000000000000000000000000000000000000000000000000000000000000000000000000000000000000000000000000000000000000000000000000
310
000000000000000000000000000000000000000000000000000000000000000000000000000000000000000000000000000000000000000000000000000000000000000000000000000000000000000000000000000000E20000000000000000C3C30000000000000000000000000000000000000000000000000000000000
310
0000C300000000000000000000C3000000000000000000000000000000000000C30000000000E200000000000000000000000000000000000000000000000000000000000000000000000000000000000000000000000000000000000000000000000000000000000000000000000000000000000000000000000000000000
310
0000000000000000000000000000000000000000000000000000000000000000000000000000000000000000000000000000000000000000000000000000000000000000000000000000000000000000000000000000000000E200000000000000C30000000000000000000000000000000000000000000000000000000000
310
0000000000C3C3C30000000000000000C300000000000000000000000000000000C3000000000000E20000000000000000000000000000000000000000000000000000000000000000000000000000000000000000000000000000000000000000000000000000000000000000000000000000000000000000000000000000
310
000000000000000000000000000000000000000000000000000000000000000000000000000000000000000000000000000000000000000000000000000000000000000000000000000000000000000000000000000000000000E200000000000000C300000000000000000000000000000000000000000000000000000000
310
0000000000000000C300C3C3C3C30000000000C30000000000000000000000000000C300000000000000E2000000000000000000000000000000000000000000000000000000000000000000000000000000000000000000000000000000000000000000000000000000000000000000000000000000000000000000000000
310
0000000000000000000000000000000000000000000000000000000000000000000000000000000000000000000000000000000000000000000000000000000000000000000000000000000000000000000000000000000000000000E2000000000000C3000000000000000000000000000000000000000000000000000000
310
00000000000000000000C3C300000000C30000000000C3000000000000000000000000C30000000000000000E200000000000000000000000000000000000000000000000000000000000000000000000000000000000000000000000000000000000000000000000000000000000000000000000000000000000000000000
310
00000000000000000000000000000000000000000000000000000000000000000000000000000000000000000000000000000000000000000000000000000000000000000000000000000000000000000000000000000000000000000000E20000000000C30000000000000000000000000000000000000000000000000000
310
00000000000000000000000000C300000000C3C30000000000C3C30000000000000000C3C3000000000000000000E20000000000000000000000000000000000000000000000000000000000000000000000000000000000000000000000000000000000000000000000000000000000000000000000000000000000000000
310
000000000000000000000000000000000000000000000000000000000000000000000000000000000000000000000000000000000000000000000000000000000000000000000000000000000000000000000000000000000000000000000000E200000000C300000000000000000000000000000000000000000000000000
310
000000000000000000000000000000C3C300000000C3C3000000000000C3C3C3C3C3C3C3C30000000000000000000000E2000000000000000000000000000000000000000000000000000000000000000000000000000000000000000000000000000000000000000000000000000000000000000000000000000000000000
310
0000000000000000000000000000000000000000000000000000000000000000000000000000000000000000000000000000000000000000000000000000000000000000000000000000000000000000000000000000000000000000000000000000E2000000C3000000000000000000000000000000000000000000000000
310
000000000000000000000000000000000000C30000000000C3C3C3C3C3C3C3C3000000000000000000000000000000000000E200000000000000000000000000000000000000000000000000000000000000000000000000000000000000000000000000000000000000000000000000000000000000000000000000000000
310
000000000000000000000000000000000000000000000000000000000000000000000000000000000000000000000000000000000000000000000000000000000000000000000000000000000000000000000000000000000000000000000000000000E200000000C300000000000000000000000000000000000000000000
310
0000000000000000000000000000000000000000C3C30000000000C3C300000000C3000000000000000000000000000000000000E20000000000000000000000000000000000000000000000000000000000000000000000000000000000000000000000000000000000000000000000000000000000000000000000000000
310
0000000000000000000000000000000000000000000000000000000000000000000000000000000000000000000000000000000000000000000000000000000000000000000000000000000000000000000000000000000000000000000000000000000000E2000000C3000000000000000000000000000000000000000000
310
0000000000000000000000000000000000000000000000C300000000000000C3000000C3000000000000000000000000000000000000E2000000000000000000000000000000000000000000000000000000000000000000000000000000000000000000000000000000000000000000000000000000000000000000000000
310
00000000000000000000000000000000000000000000000000000000000000000000000000000000000000000000000000000000000000000000000000000000000000000000000000000000000000000000000000000000000000000000000000000000000000E2000000C300000000000000000000000000000000000000
310
00000000000000000000000000000000000000000000000000C30000000000000000C3C300C3000000000000000000000000000000000000E200000000000000000000000000000000000000000000000000000000000000000000000000000000000000000000000000000000000000000000000000000000000000000000
310
000000000000000000000000000000000000000000000000000000000000000000000000000000000000000000000000000000000000000000000000000000000000000000000000000000000000000000000000000000000000000000000000000000000000000000E20000C3000000000000000000000000000000000000
310
000000000000000000000000000000000000000000000000000000C3000000000000000000C3C3C3C30000000000000000000000000000000000E20000000000000000000000000000000000000000000000000000000000000000000000000000000000000000000000000000000000000000000000000000000000000000
310
0000000000000000000000000000000000000000000000000000000000000000000000000000000000000000000000000000000000000000000000000000000000000000000000000000000000000000000000000000000000000000000000000000000000000000000000E20000C300000000000000000000000000000000
310
0000000000000000000000000000000000000000000000000000000000C300000000000000000000000000C3C3C3C3C3C3C3C3C3C3C3C3C300000000E2000000000000000000000000000000000000000000000000000000000000000000000000000000000000000000000000000000000000000000000000000000000000
310
000000000000000000000000000000000000000000000000000000000000000000000000000000000000000000000000000000000000000000000000000000000000000000000000000000000000000000000000000000000000000000000000000000000000000000000000E20000C3C30000000000000000000000000000
310
000000000000000000000000000000000000000000000000C3C3C3C3C3C3C30000000000000000000000000000000000000000000000000000C3C3C3C3C3E200000000000000000000000000000000000000000000000000000000000000000000000000000000000000000000000000000000000000000000000000000000
310
0000000000000000000000000000000000000000000000000000000000000000000000000000000000000000000000000000000000000000000000000000000000000000000000000000000000000000000000000000000000000000000000000000000000000000000000000000E2C3C3C30000C3C3C3C3C3C3C3C3C3C3C3
310
C3C3C3C3C3C3C3C3C3C3C3C3C3C3C3C3C3C3C3C3C3C3C3C3C3C300000000C30000000000000000000000000000000000000000000000000000000000000000C3E20000000000000000000000000000000000000000000000000000000000000000000000000000000000000000000000000000000000000000000000000000
310
00000000000000000000000000000000000000000000000000000000000000000000000000000000000000000000000000000000000000000000000000000000000000000000000000000000000000000000000000000000000000000000000000000000000000000000000000000000E2C300000000000000000000000000
310
0000000000000000000000000000000000000000000000000000C30000000000C30000000000000000000000000000000000000000000000000000000000000000C3E2000000000000000000000000000000000000000000000000000000000000000000000000000000000000000000000000000000000000000000000000
310
000000000000000000000000000000000000000000000000000000000000000000000000000000000000000000000000000000000000000000000000000000000000000000000000000000000000000000000000000000000000000000000000000000000000000000000000000000000000E2C30000000000000000000000
310
00000000000000000000000000000000000000000000000000000000C3000000000000C300000000000000000000000000000000000000000000000000000000000000C3E200000000000000000000000000000000000000000000000000000000000000000000000000000000000000000000000000000000000000000000
310
00000000000000000000000000000000000000000000000000000000000000000000000000000000000000000000000000000000000000000000000000000000000000000000000000000000000000000000000000000000000000000000000000000000000000000000000000000000000000E200C3000000000000000000
310
000000000000000000000000000000000000000000000000000000000000C3000000000000C3000000000000000000000000000000000000000000002D0000000000000000C3E20000000000000000000000000000000000000000000000000000000000000000000000000000000000000000000000000000000000000000
310
000000000000000000000000000000000000000000000000000000000000000000000000000000000000000000000000000000000000000000000000000000000000000000000000000000000000000000000000000000000000000000000000000000000000000000000000000000000000000000E2C3C300000000000000
310
0000000000000000000000000000000000000000000000000000000000000000C30000E2000000C3000000000000000000000000000000000000C3C3C3C32DC3C3C3C3C3000000C3E2000000000000000000000000000000000000000000000000000000000000000000000000000000000000000000000000000000000000
310
0000000000000000000000000000000000000000000000000000000000000000000000000000000000000000000000000000000000000000000000000000000000000000000000000000000000000000000000000000000000000000000000000000000000000000000000000000000000000000000000E200C3C3C300C3C3
310
E2E2E2E2E2E2E2E2E2E2E2E2E2E2E2E2E2E2E2E2E2E2E2E2E2E2E2E2E2E2E2E2E2C30000E200E2E200C3000000002D00000000000000000000000000C30000002D00000000C3000000C3E200000000000000000000000000000000000000000000000000000000000000000000000000000000000000000000000000000000
310
00000000000000000000000000000000000000000000000000000000000000000000000000000000000000000000000000000000000000000000000000000000000000000000000000000000000000000000000000000000000000000000000000000000000000000000000000000000000000000000000000E2E2E2E2E2E2
310
E2E2C3E2E2E2E2E2E2E2E2E2E2E2E2E2E2E2E2E2E2E2E2E2E2E2E2E2E2E2E2E2E2C3E2E2E2E2E2E2E2E2E2E2E2E2E2E2E2E2E2E2E2E2E2E2E2E2E2E2E2E2E2E2E2E2E2E2E2E2E2E2E2E2E2E2E20000000000000000000000000000000000000000000000000000000000000000000000000000000000000000000000000000
310
000000000000000000000000000000000000000000000000000000000000000000000000000000000000000000000000000000000000000000000000000000000000000000000000000000000000000000000000000000000000000000000000000000000000000000000000000000000000000000000000000000E2E2E2E2
310
E2E2E2C3E2E2E2C3C3C3E2E2E2E2E2E2E2E2E2E2E2E2E2E2E2E2E2E2E2E2E2E2E2E2E2C3E2E2E2E2E2E2E2E2E2E2E2E2E200C3C3C30000000000E200E20000C3C3C3C3C32DC3C3C3C3C3C30000C3E2000000000000000000000000000000000000000000000000000000000000000000000000000000000000000000000000
310
0000000000000000000000000000000000000000000000000000000000000000000000000000000000000000000000000000000000000000000000000000000000000000000000000000000000000000000000000000000000000000000000000000000000000000000000000000000000000000000000000000000000E2C3
310
C3C3C3C3C3C3C3C3C3C3C3C3C3C3C3C3C3C3C3C3C3C3C3C3C3C3C3C3C3C3C3C3C3C3C3C3C3C3C3E2E200E2E200C3C3C3C3C3E200C3C3C30000000000E2E2E2E2E2E2E2E2E2E2E2E2E2E2E2E2E2E2E2E2E200000000000000000000000000000000000000000000000000000000000000000000000000000000000000000000
310
00000000000000000000000000000000000000000000000000000000000000000000000000000000000000000000000000000000000000000000000000000000000000000000000000000000000000000000000000000000000000000000000000000000000000000000000000000000000000000000000000000000000000
310
E2E2E2E2E2E2E2E2E2E2E2E2E2E2E2E2E2E2E2E2E2E2E2E2E2E2E2E2E2E2E2E2E2E2E2E2E2E2E2E2E2E2E2E2E2E2E2C32DC3C3C3E200C3C3C300000000E200E200C3C3C3C3C3C3C3C3C3C3C3C3C3C3C3C300E20000000000000000000000000000000000000000000000000000000000000000000000000000000000000000
310
00000000000000000000000000000000000000000000000000000000000000000000000000000000000000000000000000000000000000000000000000000000000000000000000000000000000000000000000000000000000000000000000000000000000000000000000000000000000000000000000000000000000000
310
000000000000000000000000000000000000000000000000000000000000000000000000000000000000000000E2E2E2E22D2D2DC3C3E200C3C3C300000000E200E2C3000000000000000000000000000000C300E2000000000000000000000000000000000000000000000000000000000000000000000000000000000000
310
00000000000000000000000000000000000000000000000000000000000000000000000000000000000000000000000000000000000000000000000000000000000000000000000000000000000000000000000000000000000000000000000000000000000000000000000000000000000000000000000000000000000000
310
000000000000000000000000000000000000000000000000000000000000000000000000000000000000000000000000C3E2E2C32DE2C3C3E200C3C3C300000000E200E2C3000000000000000000000000000000C300E200000000000000000000000000000000000000000000000000000000000000000000000000000000
310
00000000000000000000000000000000000000000000000000000000000000000000000000000000000000000000000000000000000000000000000000000000000000000000000000000000000000000000000000000000000000000000000000000000000000000000000000000000000000000000000000000000000000
310
0000000000000000000000000000000000000000000000000000000000000000000000000000000000000000000000000000000000E2E2C3E2C3E200E2E2E200000000E200E2C3000000000000000000000000000000C300E20000000000000000000000000000000000000000000000000000000000000000000000000000
310
00000000000000000000000000000000000000000000000000000000000000000000000000000000000000000000000000000000000000000000000000000000000000000000000000000000000000000000000000000000000000000000000000000000000000000000000000000000000000000000000000000000000000
310
0000000000000000000000000000000000000000000000000000000000000000000000000000000000000000000000000000000000000000C3E2E200E200E2E2E200000000E200E2C3000000000000000000000000000000C300E2000000000000000000000000000000000000000000000000000000000000000000000000
310
00000000000000000000000000000000000000000000000000000000000000000000000000000000000000000000000000000000000000000000000000000000000000000000000000000000000000000000000000000000000000000000000000000000000000000000000000000000000000000000000000000000000000
310
00000000000000000000000000000000000000000000000000000000000000000000000000000000000000000000000000000000000000000000C3C3C3E2E20000000000000000E200E2C3000000000000000000000000000000C300E200000000000000000000000000000000000000000000000000000000000000000000
310
00000000000000000000000000000000000000000000000000000000000000000000000000000000000000000000000000000000000000000000000000000000000000000000000000000000000000000000000000000000000000000000000000000000000000000000000000000000000000000000000000000000000000
310
000000000000000000000000000000000000000000000000000000000000000000000000000000000000000000000000000000000000000000000000C300C30000E2E20000000000E20000E2C3000000000000000000000000000000C300E20000000000000000000000000000000000000000000000000000000000000000
310
00000000000000000000000000000000000000000000000000000000000000000000000000000000000000000000000000000000000000000000000000000000000000000000000000000000000000000000000000000000000000000000000000000000000000000000000000000000000000000000000000000000000000
310
0000000000000000000000000000000000000000000000000000000000000000000000000000000000000000000000000000000000000000000000000000C300C300000000E2E2000000E20000E2C3000000000000000000000000000000C300E2000000000000000000000000000000000000000000000000000000000000
310
00000000000000000000000000000000000000000000000000000000000000000000000000000000000000000000000000000000000000000000000000000000000000000000000000000000000000000000000000000000000000000000000000000000000000000000000000000000000000000000000000000000000000
310
00000000000000000000000000000000000000000000000000000000000000000000000000000000000000000000000000000000000000000000000000000000C300C3000000000000E2E200E20000E2C3000000000000000000000000000000C300E200000000000000000000000000000000000000000000000000000000
310
00000000000000000000000000000000000000000000000000000000000000000000000000000000000000000000000000000000000000000000000000000000000000000000000000000000000000000000000000000000000000000000000000000000000000000000000000000000000000000000000000000000000000
310
000000000000000000000000000000000000000000000000000000000000000000000000000000000000000000000000000000000000000000000000000000000000C300C30000000000000000E2E2E200E2C3000000000000000000000000000000C300E20000000000000000000000000000000000000000000000000000
310
00000000000000000000000000000000000000000000000000000000000000000000000000000000000000000000000000000000000000000000000000000000000000000000000000000000000000000000000000000000000000000000000000000000000000000000000000000000000000000000000000000000000000
310
0000000000000000000000000000000000000000000000000000000000000000000000000000000000000000000000000000000000000000000000000000000000000000C300C3000000000000000000000000E2C3000000000000000000000000000000C300E2000000000000000000000000000000000000000000000000
310
00000000000000000000000000000000000000000000000000000000000000000000000000000000000000000000000000000000000000000000000000000000000000000000000000000000000000000000000000000000000000000000000000000000000000000000000000000000000000000000000000000000000000
310
0000000000000000000000000000000000000000000000000000000000000000000000000000000000000000000000000000000000000000000000000000000000000000000000C300C30000000000000000000000E2C3000000000000000000000000000000C300E200000000000000000000000000000000000000000000
310
00000000000000000000000000000000000000000000000000000000000000000000000000000000000000000000000000000000000000000000000000000000000000000000000000000000000000000000000000000000000000000000000000000000000000000000000000000000000000000000000000000000000000
310
00000000000000000000000000000000000000000000000000000000000000000000000000000000000000000000000000000000000000000000000000000000000000000000000000C300C30000000000000000000000E2C3000000000000000000000000000000C300E20000000000000000000000000000000000000000
310
00000000000000000000000000000000000000000000000000000000000000000000000000000000000000000000000000000000000000000000000000000000000000000000000000000000000000000000000000000000000000000000000000000000000000000000000000000000000000000000000000000000000000
310
000000000000000000000000000000000000000000000000000000000000000000000000000000000000000000000000000000000000000000000000000000000000000000000000000000C300C30000000000000000000000E2C3000000000000000000000000000000C300E2000000000000000000000000000000000000
310
00000000000000000000000000000000000000000000000000000000000000000000000000000000000000000000000000000000000000000000000000000000000000000000000000000000000000000000000000000000000000000000000000000000000000000000000000000000000000000000000000000000000000
310
0000000000000000000000000000000000000000000000000000000000000000000000000000000000000000000000000000000000000000000000000000000000000000000000000000000000C300C30000000000000000000000E2C3000000000000000000000000000000C300E200000000000000000000000000000000
310
00000000000000000000000000000000000000000000000000000000000000000000000000000000000000000000000000000000000000000000000000000000000000000000000000000000000000000000000000000000000000000000000000000000000000000000000000000000000000000000000000000000000000
310
00000000000000000000000000000000000000000000000000000000000000000000000000000000000000000000000000000000000000000000000000000000000000000000000000000000000000C30000C300000000000000000000E2C3000000000000000000000000000000C300E20000000000000000000000000000
310
00000000000000000000000000000000000000000000000000000000000000000000000000000000000000000000000000000000000000000000000000000000000000000000000000000000000000000000000000000000000000000000000000000000000000000000000000000000000000000000000000000000000000
310
00000000000000000000000000000000000000000000000000000000000000000000000000000000000000000000000000000000000000000000000000000000000000000000000000000000000000000000C300C300000000000000000000E2C3000000000000000000000000000000C300E2000000000000000000000000
310
00000000000000000000000000000000000000000000000000000000000000000000000000000000000000000000000000000000000000000000000000000000000000000000000000000000000000000000000000000000000000000000000000000000000000000000000000000000000000000000000000000000000000
310
000000000000000000000000000000000000000000000000000000000000000000000000000000000000000000000000000000000000000000000000000000000000000000000000000000000000000000000000C300C300000000000000000000E2C3000000000000000000000000000000C300E200000000000000000000
310
00000000000000000000000000000000000000000000000000000000000000000000000000000000000000000000000000000000000000000000000000000000000000000000000000000000000000000000000000000000000000000000000000000000000000000000000000000000000000000000000000000000000000
310
0000000000000000000000000000000000000000000000000000000000000000000000000000000000000000000000000000000000000000000000000000000000000000000000000000000000000000000000000000C30000C30000000000000000E200C3000000000000000000000000000000C300E20000000000000000
310
00000000000000000000000000000000000000000000000000000000000000000000000000000000000000000000000000000000000000000000000000000000000000000000000000000000000000000000000000000000000000000000000000000000000000000000000000000000000000000000000000000000000000
310
0000000000000000000000000000000000000000000000000000000000000000000000000000000000000000000000000000000000000000000000000000000000000000000000000000000000000000000000000000000000C300C30000000000000000E200C3000000000000000000000000000000C300E2000000000000
310
00000000000000000000000000000000000000000000000000000000000000000000000000000000000000000000000000000000000000000000000000000000000000000000000000000000000000000000000000000000000000000000000000000000000000000000000000000000000000000000000000000000000000
310
00000000000000000000000000000000000000000000000000000000000000000000000000000000000000000000000000000000000000000000000000000000000000000000000000000000000000000000000000000000000000C300C30000000000000000E200C3000000000000000000000000000000C300E200000000
310
00000000000000000000000000000000000000000000000000000000000000000000000000000000000000000000000000000000000000000000000000000000000000000000000000000000000000000000000000000000000000000000000000000000000000000000000000000000000000000000000000000000000000
310
00000000000000000000000000000000000000000000000000000000000000000000000000000000000000000000000000000000000000000000000000000000000000000000000000000000000000000000000000000000000000000000C3C30000000000000000E200C3000000000000000000000000000000C300E20000
310
00000000000000000000000000000000000000000000000000000000000000000000000000000000000000000000000000000000000000000000000000000000000000000000000000000000000000000000000000000000000000000000000000000000000000000000000000000000000000000000000000000000000000
310
000000000000000000000000000000000000000000000000000000000000000000000000000000000000000000000000000000000000000000000000000000000000000000000000000000000000000000000000000000000000000000000000C300C300000000000000E200C3000000000000000000000000000000C300E2
310
00000000000000000000000000000000000000000000000000000000000000000000000000000000000000000000000000000000000000000000000000000000000000000000000000000000000000000000000000000000000000000000000000000000000000000000000000000000000000000000000000000000000000
310
0000000000000000000000000000000000000000000000000000000000000000000000000000000000000000000000000000000000000000000000000000000000000000000000000000000000000000000000000000000000000000000000000000C300C300000000000000E2C300000000000000000000000000000000C3
310
00E20000000000000000000000000000000000000000000000000000000000000000000000000000000000000000000000000000000000000000000000000000000000000000000000000000000000000000000000000000000000000000000000000000000000000000000000000000000000000000000000000000000000
310
0000000000000000000000000000000000000000000000000000000000000000000000000000000000000000000000000000000000000000000000000000000000000000000000000000000000000000000000000000000000000000000000000000000000C3C300000000000000E2C3000000000000000000000000000000
310
00C300E2000000000000000000000000000000000000000000000000000000000000000000000000000000000000000000000000000000000000000000000000000000000000000000000000000000000000000000000000000000000000000000000000000000000000000000000000000000000000000000000000000000
310
00000000000000000000000000000000000000000000000000000000000000000000000000000000000000000000000000000000000000000000000000000000000000000000000000000000000000000000000000000000000000000000000000000000000000C300C3000000000000E2C300000000000000000000000000
310
000000C300E200000000000000000000000000000000000000000000000000000000000000000000000000000000000000000000000000000000000000000000000000000000000000000000000000000000000000000000000000000000000000000000000000000000000000000000000000000000000000000000000000
310
00000000000000000000000000000000000000000000000000000000000000000000000000000000000000000000000000000000000000000000000000000000000000000000000000000000000000000000000000000000000000000000000000000000000000000000C3C3000000000000E2C30000000000000000000000
310
0000000000C300E20000000000000000000000000000000000000000000000000000000000000000000000000000000000000000000000000000000000000000000000000000000000000000000000000000000000000000000000000000000000000000000000000000000000000000000000000000000000000000000000
310
000000000000000000000000000000000000000000000000000000000000000000000000000000000000000000000000000000000000000000000000000000000000000000000000000000000000000000000000000000000000000000000000000000000000000000000000C300C30000000000E2C3000000000000000000
310
00000000000000C300E2000000000000000000000000000000000000000000000000000000000000000000000000000000000000000000000000000000000000000000000000000000000000000000000000000000000000000000000000000000000000000000000000000000000000000000000000000000000000000000
310
0000000000000000000000000000000000000000000000000000000000000000000000000000000000000000000000000000000000000000000000000000000000000000000000000000000000000000000000000000000000000000000000000000000000000000000000000000C300C30000000000E2C300000000000000
310
000000000000000000C300E200000000000000000000000000000000000000000000000000000000000000000000000000000000000000000000000000000000000000000000000000000000000000000000000000000000000000000000000000000000000000000000000000000000000000000000000000000000000000
310
0000000000000000000000000000000000000000000000000000000000000000000000000000000000000000000000000000000000000000000000000000000000000000000000000000000000000000000000000000000000000000000000000000000000000000000000000000000000C3C30000000000E2C30000000000
310
0000000000000000000000C300E20000000000000000000000000000000000000000000000000000000000000000000000000000000000000000000000000000000000000000000000000000000000000000000000000000000000000000000000000000000000000000000000000000000000000000000000000000000000
310
00000000000000000000000000000000000000000000000000000000000000000000000000000000000000000000000000000000000000000000000000000000000000000000000000000000000000000000000000000000000000000000000000000000000000000000000000000000000000C300C300000000E2C3000000
310
00000000000000000000000000C300E2000000000000000000000000000000000000000000000000000000000000000000000000000000000000000000000000000000000000000000000000000000000000000000000000000000000000000000000000000000000000000000000000000000000000000000000000000000
310
000000000000000000000000000000000000000000000000000000000000000000000000000000000000000000000000000000000000000000000000000000000000000000000000000000000000000000000000000000000000000000000000000000000000000000000000000000000000000000C300C300000000E2C300
310
000000000000000000000000000000C300E200000000000000000000000000000000000000000000000000000000000000000000000000000000000000000000000000000000000000000000000000000000000000000000000000000000000000000000000000000000000000000000000000000000000000000000000000
310
000000000000000000000000000000000000000000000000000000000000000000000000000000000000000000000000000000000000000000000000000000000000000000000000000000000000000000000000000000000000000000000000000000000000000000000000000000000000000000000000C300C3000000E2
310
C300000000000000000000000000000000C300E20000000000000000000000000000000000000000000000000000000000000000000000000000000000000000000000000000000000000000000000000000000000000000000000000000000000000000000000000000000000000000000000000000000000000000000000
310
0000000000000000000000000000000000000000000000000000000000000000000000000000000000000000000000000000000000000000000000000000000000000000000000000000000000000000000000000000000000000000000000000000000000000000000000000000000000000000000000000000C300C30000
310
00E2C300000000000000000000000000000000C300E2000000000000000000000000000000000000000000000000000000000000000000000000000000000000000000000000000000000000000000000000000000000000000000000000000000000000000000000000000000000000000000000000000000000000000000
310
00000000000000000000000000000000000000000000000000000000000000000000000000000000000000000000000000000000000000000000000000000000000000000000000000000000000000000000000000000000000000000000000000000000000000000000000000000000000000000000000000000000C300C3
310
000000E2C300000000000000000000000000000000C300E200000000000000000000000000000000000000000000000000000000000000000000000000000000000000000000000000000000000000000000000000000000000000000000000000000000000000000000000000000000000000000000000000000000000000
310
000000000000000000000000000000000000000000000000000000000000000000000000000000000000000000000000000000000000000000000000000000000000000000000000000000000000000000000000000000000000000000000000000000000000000000000000000000000000000000000000000000000000C3
310
0000C30000E2C300000000000000000000000000000000C300E20000000000000000000000000000000000000000000000000000000000000000000000000000000000000000000000000000000000000000000000000000000000000000000000000000000000000000000000000000000000000000000000000000000000
310
00000000000000000000000000000000000000000000000000000000000000000000000000000000000000000000000000000000000000000000000000000000000000000000000000000000000000000000000000000000000000000000000000000000000000000000000000000000000000000000000000000000000000
310
0000C300C30000E2C300000000000000000000000000000000C300E2000000000000000000000000000000000000000000000000000000000000000000000000000000000000000000000000000000000000000000000000000000000000000000000000000000000000000000000000000000000000000000000000000000
310
00000000000000000000000000000000000000000000000000000000000000000000000000000000000000000000000000000000000000000000000000000000000000000000000000000000000000000000000000000000000000000000000000000000000000000000000000000000000000000000000000000000000000
310
00000000C300C30000E2E2E2E2E2E2E2E2E2E2E2E2E2E2E2E2E2E2E2E2E200000000000000000000000000000000000000000000000000000000000000000000000000000000000000000000000000000000000000000000000000000000000000000000000000000000000000000000000000000000000000000000000000
310
00000000000000000000000000000000000000000000000000000000000000000000000000000000000000000000000000000000000000000000000000000000000000000000000000000000000000000000000000000000000000000000000000000000000000000000000000000000000000000000000000000000000000
310
000000000000C30000C300E2E2E2E2E2E2E2E2E2E2E2E2E2E2E2E2E2E2E2E2E20000000000000000000000000000000000000000000000000000000000000000000000000000000000000000000000000000000000000000000000000000000000000000000000000000000000000000000000000000000000000000000000
310
00000000000000000000000000000000000000000000000000000000000000000000000000000000000000000000000000000000000000000000000000000000000000000000000000000000000000000000000000000000000000000000000000000000000000000000000000000000000000000000000000000000000000
310
000000000000000000C300C300E2C300000000000000000000000000000000C300E2000000000000000000000000000000000000000000000000000000000000000000000000000000000000000000000000000000000000000000000000000000000000000000000000000000000000000000000000000000000000000000
310
00000000000000000000000000000000000000000000000000000000000000000000000000000000000000000000000000000000000000000000000000000000000000000000000000000000000000000000000000000000000000000000000000000000000000000000000000000000000000000000000000000000000000
310
0000000000000000000000C300C300E2C300000000000000000000000000000000C300E200000000000000000000000000000000000000000000000000000000000000000000000000000000000000000000000000000000000000000000000000000000000000000000000000000000000000000000000000000000000000
310
00000000000000000000000000000000000000000000000000000000000000000000000000000000000000000000000000000000000000000000000000000000000000000000000000000000000000000000000000000000000000000000000000000000000000000000000000000000000000000000000000000000000000
310
00000000000000000000000000C300C300E2C300000000000000000000000000000000C300E20000000000000000000000000000000000000000000000000000000000000000000000000000000000000000000000000000000000000000000000000000000000000000000000000000000000000000000000000000000000
310
00000000000000000000000000000000000000000000000000000000000000000000000000000000000000000000000000000000000000000000000000000000000000000000000000000000000000000000000000000000000000000000000000000000000000000000000000000000000000000000000000000000000000
310
00000000000000000000000000000000C300C3E2C3C3C3000000000000002D00000000C3C3C300E2000000000000000000000000000000000000000000000000000000000000000000000000000000000000000000000000000000000000000000000000000000000000000000000000000000000000000000000000000000
310
00000000000000000000000000000000000000000000000000000000000000000000000000000000000000000000000000000000000000000000000000000000000000000000000000000000000000000000000000000000000000000000000000000000000000000000000000000000000000000000000000000000000000
310
000000000000000000000000000000000000C300C3E2000000C3C3C3C3C3C3C32DC3C3C3C3000000E2E200000000000000000000000000000000000000000000000000000000000000000000000000000000000000000000000000000000000000000000000000000000000000000000000000000000000000000000000000
310
00000000000000000000000000000000000000000000000000000000000000000000000000000000000000000000000000000000000000000000000000000000000000000000000000000000000000000000000000000000000000000000000000000000000000000000000000000000000000000000000000000000000000
310
000000000000000000000000000000000000000000C3C3E2E2E2E2E2E2E2E2E2E2E2E2E2E2E2E2E2E2E2E2000000000000000000000000000000000000000000000000000000000000000000000000000000000000000000000000000000000000000000000000000000000000000000000000000000000000000000000000
310
00000000000000000000000000000000000000000000000000000000000000000000000000000000000000000000000000000000000000000000000000000000000000000000000000000000000000000000000000000000000000000000000000000000000000000000000000000000000000000000000000000000000000
310
0000000000000000000000000000000000000000000000C300C3000000000000000000002D000000000000000000000000000000000000000000000000000000000000000000000000000000000000000000000000000000000000000000000000000000000000000000000000000000000000000000000000000000000000
310
00000000000000000000000000000000000000000000000000000000000000000000000000000000000000000000000000000000000000000000000000000000000000000000000000000000000000000000000000000000000000000000000000000000000000000000000000000000000000000000000000000000000000
310
00000000000000000000000000000000000000000000000000C300C3000000000000000000000000000000000000000000000000000000000000000000000000000000000000000000000000000000000000000000000000000000000000000000000000000000000000000000000000000000000000000000000000000000
310
00000000000000000000000000000000000000000000000000000000000000000000000000000000000000000000000000000000000000000000000000000000000000000000000000000000000000000000000000000000000000000000000000000000000000000000000000000000000000000000000000000000000000
310
000000000000000000000000000000000000000000000000000000C3C30000000000000000000000000000000000000000000000000000000000000000000000000000000000000000000000000000000000000000000000000000000000000000000000000000000000000000000000000000000000000000000000000000
310
00000000000000000000000000000000000000000000000000000000000000000000000000000000000000000000000000000000000000000000000000000000000000000000000000000000000000000000000000000000000000000000000000000000000000000000000000000000000000000000000000000000000000
310
00000000000000000000000000000000000000000000000000000000000000000000000000000000000000000000000000000000000000000000000000000000000000000000000000000000000000000000000000000000000000000000000000000000000000000000000000000000000000000000000000000000000000
310
00000000000000000000000000000000000000000000000000000000000000000000000000000000000000000000000000000000000000000000000000000000000000000000000000000000000000000000000000000000000000000000000000000000000000000000000000000000000000000000000000000000000000
310
00000000000000000000000000000000000000000000000000000000000000000000000000000000000000000000000000000000000000000000000000000000000000000000000000000000000000000000000000000000000000000000000000000000000000000000000000000000000000000000000000000000000000
310
00000000000000000000000000000000000000000000000000000000000000000000000000000000000000000000000000000000000000000000000000000000000000000000000000000000000000000000000000000000000000000000000000000000000000000000000000000000000000000000000000000000000000
310
00000000000000000000000000000000000000000000000000000000000000000000000000000000000000000000000000000000000000000000000000000000000000000000000000000000000000000000000000000000000000000000000000000000000000000000000000000000000000000000000000000000000000
310
00000000000000000000000000000000000000000000000000000000000000000000000000000000000000000000000000000000000000000000000000000000000000000000000000000000000000000000000000000000000000000000000000000000000000000000000000000000000000000000000000000000000000
310
00000000000000000000000000000000000000000000000000000000000000000000000000000000000000000000000000000000000000000000000000000000000000000000000000000000000000000000000000000000000000000000000000000000000000000000000000000000000000000000000000000000000000
310
00000000000000000000000000000000000000000000000000000000000000000000000000000000000000000000000000000000000000000000000000000000000000000000000000000000000000000000000000000000000000000000000000000000000000000000000000000000000000000000000000000000000000
310
00000000000000000000000000000000000000000000000000000000000000000000000000000000000000000000000000000000000000000000000000000000000000000000000000000000000000000000000000000000000000000000000000000000000000000000000000000000000000000000000000000000000000
310
0000000000000000000000000000000000000000
  0
XRECORD
  5
63F8
102
{ACAD_REACTORS
330
28CB
102
}
330
28CB
100
AcDbXrecord
280
     1
102
MATERIAL
148
0.0
149
0.0
149
0.0
 93
        0
 94
      127
282
     0
 72
     0
 77
     0
171
     0
175
     0
179
     0
273
     0
  0
XRECORD
  5
28CD
102
{ACAD_REACTORS
330
28CB
102
}
330
28CB
100
AcDbXrecord
280
     1
270
     1
271
     1
  0
XRECORD
  5
28CC
102
{ACAD_REACTORS
330
28CB
102
}
330
28CB
100
AcDbXrecord
280
     1
270
     1
271
     1
  0
XRECORD
  5
28D0
102
{ACAD_REACTORS
330
28CB
102
}
330
28CB
100
AcDbXrecord
280
     1
270
     1
271
     1
  0
XRECORD
  5
28CF
102
{ACAD_REACTORS
330
28CB
102
}
330
28CB
100
AcDbXrecord
280
     1
270
     1
271
     1
  0
XRECORD
  5
28D1
102
{ACAD_REACTORS
330
28CB
102
}
330
28CB
100
AcDbXrecord
280
     1
270
     1
271
     1
  0
XRECORD
  5
28CE
102
{ACAD_REACTORS
330
28CB
102
}
330
28CB
100
AcDbXrecord
280
     1
270
     1
271
     1
  0
XRECORD
  5
63F7
102
{ACAD_REACTORS
330
28C3
102
}
330
28C3
100
AcDbXrecord
280
     1
102
MATERIAL
148
0.0
149
0.0
149
0.0
 93
        0
 94
      127
282
     0
 72
     0
 77
     0
171
     0
175
     0
179
     0
273
     0
  0
XRECORD
  5
28C5
102
{ACAD_REACTORS
330
28C3
102
}
330
28C3
100
AcDbXrecord
280
     1
270
     1
271
     1
  0
XRECORD
  5
28C4
102
{ACAD_REACTORS
330
28C3
102
}
330
28C3
100
AcDbXrecord
280
     1
270
     1
271
     1
  0
XRECORD
  5
28C8
102
{ACAD_REACTORS
330
28C3
102
}
330
28C3
100
AcDbXrecord
280
     1
270
     1
271
     1
  0
XRECORD
  5
28C7
102
{ACAD_REACTORS
330
28C3
102
}
330
28C3
100
AcDbXrecord
280
     1
270
     1
271
     1
  0
XRECORD
  5
28C9
102
{ACAD_REACTORS
330
28C3
102
}
330
28C3
100
AcDbXrecord
280
     1
270
     1
271
     1
  0
XRECORD
  5
28C6
102
{ACAD_REACTORS
330
28C3
102
}
330
28C3
100
AcDbXrecord
280
     1
270
     1
271
     1
  0
XRECORD
  5
63F9
102
{ACAD_REACTORS
330
28D3
102
}
330
28D3
100
AcDbXrecord
280
     1
102
MATERIAL
148
0.0
149
0.0
149
0.0
 93
        0
 94
      127
282
     0
 72
     0
 77
     0
171
     0
175
     0
179
     0
273
     0
  0
XRECORD
  5
28D5
102
{ACAD_REACTORS
330
28D3
102
}
330
28D3
100
AcDbXrecord
280
     1
270
     1
271
     1
  0
XRECORD
  5
28D4
102
{ACAD_REACTORS
330
28D3
102
}
330
28D3
100
AcDbXrecord
280
     1
270
     1
271
     1
  0
XRECORD
  5
28D8
102
{ACAD_REACTORS
330
28D3
102
}
330
28D3
100
AcDbXrecord
280
     1
270
     1
271
     1
  0
XRECORD
  5
28D7
102
{ACAD_REACTORS
330
28D3
102
}
330
28D3
100
AcDbXrecord
280
     1
270
     1
271
     1
  0
XRECORD
  5
28D9
102
{ACAD_REACTORS
330
28D3
102
}
330
28D3
100
AcDbXrecord
280
     1
270
     1
271
     1
  0
XRECORD
  5
28D6
102
{ACAD_REACTORS
330
28D3
102
}
330
28D3
100
AcDbXrecord
280
     1
270
     1
271
     1
  0
CELLSTYLEMAP
  5
63F5
102
{ACAD_REACTORS
330
296F
102
}
330
296F
100
AcDbCellStyleMap
 90
        3
300
CELLSTYLE
  1
TABLEFORMAT_BEGIN
 90
        5
170
     1
 91
        0
 92
    32768
 62
   257
 93
        1
300
CONTENTFORMAT
  1
CONTENTFORMAT_BEGIN
 90
        0
 91
        0
 92
      512
 93
        0
300

 40
0.0
140
1.0
 94
        5
 62
     0
340
11
144
6.0
309
CONTENTFORMAT_END
171
     1
301
MARGIN
  1
CELLMARGIN_BEGIN
 40
1.5
 40
1.5
 40
1.5
 40
1.5
 40
4.5
 40
4.5
309
CELLMARGIN_END
 94
        6
 95
        1
302
GRIDFORMAT
  1
GRIDFORMAT_BEGIN
 90
        0
 91
        1
 62
     0
 92
       -2
340
0
 93
        0
 40
1.125
309
GRIDFORMAT_END
 95
        2
302
GRIDFORMAT
  1
GRIDFORMAT_BEGIN
 90
        0
 91
        1
 62
     0
 92
       -2
340
0
 93
        0
 40
1.125
309
GRIDFORMAT_END
 95
        4
302
GRIDFORMAT
  1
GRIDFORMAT_BEGIN
 90
        0
 91
        1
 62
     0
 92
       -2
340
0
 93
        0
 40
1.125
309
GRIDFORMAT_END
 95
        8
302
GRIDFORMAT
  1
GRIDFORMAT_BEGIN
 90
        0
 91
        1
 62
     0
 92
       -2
340
0
 93
        0
 40
1.125
309
GRIDFORMAT_END
 95
       16
302
GRIDFORMAT
  1
GRIDFORMAT_BEGIN
 90
        0
 91
        1
 62
     0
 92
       -2
340
0
 93
        0
 40
1.125
309
GRIDFORMAT_END
 95
       32
302
GRIDFORMAT
  1
GRIDFORMAT_BEGIN
 90
        0
 91
        1
 62
     0
 92
       -2
340
0
 93
        0
 40
1.125
309
GRIDFORMAT_END
309
TABLEFORMAT_END
  1
CELLSTYLE_BEGIN
 90
        1
 91
        1
300
_TITLE
309
CELLSTYLE_END
300
CELLSTYLE
  1
TABLEFORMAT_BEGIN
 90
        5
170
     1
 91
        0
 92
        0
 62
   257
 93
        1
300
CONTENTFORMAT
  1
CONTENTFORMAT_BEGIN
 90
        0
 91
        0
 92
      512
 93
        0
300

 40
0.0
140
1.0
 94
        5
 62
     0
340
11
144
4.5
309
CONTENTFORMAT_END
171
     1
301
MARGIN
  1
CELLMARGIN_BEGIN
 40
1.5
 40
1.5
 40
1.5
 40
1.5
 40
4.5
 40
4.5
309
CELLMARGIN_END
 94
        6
 95
        1
302
GRIDFORMAT
  1
GRIDFORMAT_BEGIN
 90
        0
 91
        1
 62
     0
 92
       -2
340
0
 93
        0
 40
1.125
309
GRIDFORMAT_END
 95
        2
302
GRIDFORMAT
  1
GRIDFORMAT_BEGIN
 90
        0
 91
        1
 62
     0
 92
       -2
340
0
 93
        0
 40
1.125
309
GRIDFORMAT_END
 95
        4
302
GRIDFORMAT
  1
GRIDFORMAT_BEGIN
 90
        0
 91
        1
 62
     0
 92
       -2
340
0
 93
        0
 40
1.125
309
GRIDFORMAT_END
 95
        8
302
GRIDFORMAT
  1
GRIDFORMAT_BEGIN
 90
        0
 91
        1
 62
     0
 92
       -2
340
0
 93
        0
 40
1.125
309
GRIDFORMAT_END
 95
       16
302
GRIDFORMAT
  1
GRIDFORMAT_BEGIN
 90
        0
 91
        1
 62
     0
 92
       -2
340
0
 93
        0
 40
1.125
309
GRIDFORMAT_END
 95
       32
302
GRIDFORMAT
  1
GRIDFORMAT_BEGIN
 90
        0
 91
        1
 62
     0
 92
       -2
340
0
 93
        0
 40
1.125
309
GRIDFORMAT_END
309
TABLEFORMAT_END
  1
CELLSTYLE_BEGIN
 90
        2
 91
        1
300
_HEADER
309
CELLSTYLE_END
300
CELLSTYLE
  1
TABLEFORMAT_BEGIN
 90
        5
170
     1
 91
        0
 92
        0
 62
   257
 93
        1
300
CONTENTFORMAT
  1
CONTENTFORMAT_BEGIN
 90
        0
 91
        0
 92
      512
 93
        0
300

 40
0.0
140
1.0
 94
        2
 62
     0
340
11
144
4.5
309
CONTENTFORMAT_END
171
     1
301
MARGIN
  1
CELLMARGIN_BEGIN
 40
1.5
 40
1.5
 40
1.5
 40
1.5
 40
4.5
 40
4.5
309
CELLMARGIN_END
 94
        6
 95
        1
302
GRIDFORMAT
  1
GRIDFORMAT_BEGIN
 90
        0
 91
        1
 62
     0
 92
       -2
340
0
 93
        0
 40
1.125
309
GRIDFORMAT_END
 95
        2
302
GRIDFORMAT
  1
GRIDFORMAT_BEGIN
 90
        0
 91
        1
 62
     0
 92
       -2
340
0
 93
        0
 40
1.125
309
GRIDFORMAT_END
 95
        4
302
GRIDFORMAT
  1
GRIDFORMAT_BEGIN
 90
        0
 91
        1
 62
     0
 92
       -2
340
0
 93
        0
 40
1.125
309
GRIDFORMAT_END
 95
        8
302
GRIDFORMAT
  1
GRIDFORMAT_BEGIN
 90
        0
 91
        1
 62
     0
 92
       -2
340
0
 93
        0
 40
1.125
309
GRIDFORMAT_END
 95
       16
302
GRIDFORMAT
  1
GRIDFORMAT_BEGIN
 90
        0
 91
        1
 62
     0
 92
       -2
340
0
 93
        0
 40
1.125
309
GRIDFORMAT_END
 95
       32
302
GRIDFORMAT
  1
GRIDFORMAT_BEGIN
 90
        0
 91
        1
 62
     0
 92
       -2
340
0
 93
        0
 40
1.125
309
GRIDFORMAT_END
309
TABLEFORMAT_END
  1
CELLSTYLE_BEGIN
 90
        3
 91
        2
300
_DATA
309
CELLSTYLE_END
  0
XRECORD
  5
642A
102
{ACAD_REACTORS
330
296F
102
}
330
296F
100
AcDbXrecord
280
     1
102
ACAD_ROUNDTRIP_PRE2007_TABLESTYLE
 90
      512
 91
        0
  1

 92
      512
 93
        0
  2

 94
      512
 95
        0
  3

  0
XRECORD
  5
6405
102
{ACAD_REACTORS
330
6404
102
}
330
6404
100
AcDbXrecord
280
     1
102
RTVSPropertyOp0
 70
     1
102
RTVSPropertyOp1
 70
     1
102
RTVSPropertyOp2
 70
     1
102
RTVSPropertyOp3
 70
     1
102
RTVSPropertyOp4
 70
     1
102
RTVSPropertyOp5
 70
     1
102
RTVSPropertyOp6
 70
     1
102
RTVSPropertyOp7
 70
     1
102
RTVSPropertyOp8
 70
     1
102
RTVSPropertyOp9
 70
     1
102
RTVSPropertyOp10
 70
     1
102
RTVSPropertyOp11
 70
     1
102
RTVSPropertyOp12
 70
     1
102
RTVSPropertyOp13
 70
     1
102
RTVSPropertyOp14
 70
     1
102
RTVSPropertyOp15
 70
     1
102
RTVSPropertyOp16
 70
     1
102
RTVSPropertyOp17
 70
     1
102
RTVSPropertyOp18
 70
     1
102
RTVSPropertyOp19
 70
     1
102
RTVSPropertyOp20
 70
     1
102
RTVSPropertyOp21
 70
     1
102
RTVSPropertyOp22
 70
     1
102
RTVSPropertyOp23
 70
     1
102
RTVSPropertyOp24
 70
     1
102
RTVSPropertyOp25
 70
     1
102
RTVSPropertyOp26
 70
     1
102
RTVSPropertyOp27
 70
     1
102
RTVSPropertyOp28
 70
     1
102
RTVSPropertyOp29
 70
     1
102
RTVSPropertyOp30
 70
     1
102
RTVSPropertyOp31
 70
     1
102
RTVSPropertyOp32
 70
     1
  0
XRECORD
  5
6403
102
{ACAD_REACTORS
330
6402
102
}
330
6402
100
AcDbXrecord
280
     1
102
RTVSPropertyOp0
 70
     1
102
RTVSPropertyOp1
 70
     1
102
RTVSPropertyOp2
 70
     1
102
RTVSPropertyOp3
 70
     1
102
RTVSPropertyOp4
 70
     1
102
RTVSPropertyOp5
 70
     1
102
RTVSPropertyOp6
 70
     1
102
RTVSPropertyOp7
 70
     1
102
RTVSPropertyOp8
 70
     1
102
RTVSPropertyOp9
 70
     1
102
RTVSPropertyOp10
 70
     1
102
RTVSPropertyOp11
 70
     1
102
RTVSPropertyOp12
 70
     1
102
RTVSPropertyOp13
 70
     1
102
RTVSPropertyOp14
 70
     1
102
RTVSPropertyOp15
 70
     1
102
RTVSPropertyOp16
 70
     1
102
RTVSPropertyOp17
 70
     1
102
RTVSPropertyOp18
 70
     1
102
RTVSPropertyOp19
 70
     1
102
RTVSPropertyOp20
 70
     1
102
RTVSPropertyOp21
 70
     1
102
RTVSPropertyOp22
 70
     1
102
RTVSPropertyOp23
 70
     1
102
RTVSPropertyOp24
 70
     1
102
RTVSPropertyOp25
 70
     1
102
RTVSPropertyOp26
 70
     1
102
RTVSPropertyOp27
 70
     1
102
RTVSPropertyOp28
 70
     1
102
RTVSPropertyOp29
 70
     1
102
RTVSPropertyOp30
 70
     1
102
RTVSPropertyOp31
 70
     1
102
RTVSPropertyOp32
 70
     1
  0
XRECORD
  5
6411
102
{ACAD_REACTORS
330
6410
102
}
330
6410
100
AcDbXrecord
280
     1
102
RTVSPropertyOp0
 70
     1
102
RTVSPropertyOp1
 70
     1
102
RTVSPropertyOp2
 70
     1
102
RTVSPropertyOp3
 70
     1
102
RTVSPropertyOp4
 70
     1
102
RTVSPropertyOp5
 70
     1
102
RTVSPropertyOp6
 70
     1
102
RTVSPropertyOp7
 70
     1
102
RTVSPropertyOp8
 70
     1
102
RTVSPropertyOp9
 70
     1
102
RTVSPropertyOp10
 70
     1
102
RTVSPropertyOp11
 70
     1
102
RTVSPropertyOp12
 70
     1
102
RTVSPropertyOp13
 70
     1
102
RTVSPropertyOp14
 70
     1
102
RTVSPropertyOp15
 70
     1
102
RTVSPropertyOp16
 70
     1
102
RTVSPropertyOp17
 70
     1
102
RTVSPropertyOp18
 70
     1
102
RTVSPropertyOp19
 70
     1
102
RTVSPropertyOp20
 70
     1
102
RTVSPropertyOp21
 70
     1
102
RTVSPropertyOp22
 70
     1
102
RTVSPropertyOp23
 70
     1
102
RTVSPropertyOp24
 70
     1
102
RTVSPropertyOp25
 70
     1
102
RTVSPropertyOp26
 70
     1
102
RTVSPropertyOp27
 70
     1
102
RTVSPropertyOp28
 70
     1
102
RTVSPropertyOp29
 70
     1
102
RTVSPropertyOp30
 70
     1
102
RTVSPropertyOp31
 70
     1
102
RTVSPropertyOp32
 70
     1
  0
XRECORD
  5
6419
102
{ACAD_REACTORS
330
6418
102
}
330
6418
100
AcDbXrecord
280
     1
102
RTVSPropertyOp0
 70
     1
102
RTVSPropertyOp1
 70
     1
102
RTVSPropertyOp2
 70
     1
102
RTVSPropertyOp3
 70
     1
102
RTVSPropertyOp4
 70
     1
102
RTVSPropertyOp5
 70
     1
102
RTVSPropertyOp6
 70
     1
102
RTVSPropertyOp7
 70
     1
102
RTVSPropertyOp8
 70
     1
102
RTVSPropertyOp9
 70
     1
102
RTVSPropertyOp10
 70
     1
102
RTVSPropertyOp11
 70
     1
102
RTVSPropertyOp12
 70
     1
102
RTVSPropertyOp13
 70
     1
102
RTVSPropertyOp14
 70
     1
102
RTVSPropertyOp15
 70
     1
102
RTVSPropertyOp16
 70
     1
102
RTVSPropertyOp17
 70
     1
102
RTVSPropertyOp18
 70
     1
102
RTVSPropertyOp19
 70
     1
102
RTVSPropertyOp20
 70
     1
102
RTVSPropertyOp21
 70
     1
102
RTVSPropertyOp22
 70
     1
102
RTVSPropertyOp23
 70
     1
102
RTVSPropertyOp24
 70
     1
102
RTVSPropertyOp25
 70
     1
102
RTVSPropertyOp26
 70
     1
102
RTVSPropertyOp27
 70
     1
102
RTVSPropertyOp28
 70
     1
102
RTVSPropertyOp29
 70
     1
102
RTVSPropertyOp30
 70
     1
102
RTVSPropertyOp31
 70
     1
102
RTVSPropertyOp32
 70
     1
  0
XRECORD
  5
640B
102
{ACAD_REACTORS
330
640A
102
}
330
640A
100
AcDbXrecord
280
     1
102
RTVSPropertyOp0
 70
     1
102
RTVSPropertyOp1
 70
     1
102
RTVSPropertyOp2
 70
     1
102
RTVSPropertyOp3
 70
     1
102
RTVSPropertyOp4
 70
     1
102
RTVSPropertyOp5
 70
     1
102
RTVSPropertyOp6
 70
     1
102
RTVSPropertyOp7
 70
     1
102
RTVSPropertyOp8
 70
     1
102
RTVSPropertyOp9
 70
     1
102
RTVSPropertyOp10
 70
     1
102
RTVSPropertyOp11
 70
     1
102
RTVSPropertyOp12
 70
     1
102
RTVSPropertyOp13
 70
     1
102
RTVSPropertyOp14
 70
     1
102
RTVSPropertyOp15
 70
     1
102
RTVSPropertyOp16
 70
     1
102
RTVSPropertyOp17
 70
     1
102
RTVSPropertyOp18
 70
     1
102
RTVSPropertyOp19
 70
     1
102
RTVSPropertyOp20
 70
     1
102
RTVSPropertyOp21
 70
     1
102
RTVSPropertyOp22
 70
     1
102
RTVSPropertyOp23
 70
     1
102
RTVSPropertyOp24
 70
     1
102
RTVSPropertyOp25
 70
     1
102
RTVSPropertyOp26
 70
     1
102
RTVSPropertyOp27
 70
     1
102
RTVSPropertyOp28
 70
     1
102
RTVSPropertyOp29
 70
     1
102
RTVSPropertyOp30
 70
     1
102
RTVSPropertyOp31
 70
     1
102
RTVSPropertyOp32
 70
     1
  0
XRECORD
  5
640F
102
{ACAD_REACTORS
330
640E
102
}
330
640E
100
AcDbXrecord
280
     1
102
RTVSPropertyOp0
 70
     1
102
RTVSPropertyOp1
 70
     1
102
RTVSPropertyOp2
 70
     1
102
RTVSPropertyOp3
 70
     1
102
RTVSPropertyOp4
 70
     1
102
RTVSPropertyOp5
 70
     1
102
RTVSPropertyOp6
 70
     1
102
RTVSPropertyOp7
 70
     1
102
RTVSPropertyOp8
 70
     1
102
RTVSPropertyOp9
 70
     1
102
RTVSPropertyOp10
 70
     1
102
RTVSPropertyOp11
 70
     1
102
RTVSPropertyOp12
 70
     1
102
RTVSPropertyOp13
 70
     1
102
RTVSPropertyOp14
 70
     1
102
RTVSPropertyOp15
 70
     1
102
RTVSPropertyOp16
 70
     1
102
RTVSPropertyOp17
 70
     1
102
RTVSPropertyOp18
 70
     1
102
RTVSPropertyOp19
 70
     1
102
RTVSPropertyOp20
 70
     1
102
RTVSPropertyOp21
 70
     1
102
RTVSPropertyOp22
 70
     1
102
RTVSPropertyOp23
 70
     1
102
RTVSPropertyOp24
 70
     1
102
RTVSPropertyOp25
 70
     1
102
RTVSPropertyOp26
 70
     1
102
RTVSPropertyOp27
 70
     1
102
RTVSPropertyOp28
 70
     1
102
RTVSPropertyOp29
 70
     1
102
RTVSPropertyOp30
 70
     1
102
RTVSPropertyOp31
 70
     1
102
RTVSPropertyOp32
 70
     1
  0
XRECORD
  5
6429
102
{ACAD_REACTORS
330
6428
102
}
330
6428
100
AcDbXrecord
280
     1
102
RTVSPropertyOp0
 70
     0
102
RTVSPropertyOp1
 70
     0
102
RTVSPropertyOp2
 70
     0
102
RTVSPropertyOp3
 70
     0
102
RTVSPropertyOp4
 70
     0
102
RTVSPropertyOp5
 70
     0
102
RTVSPropertyOp6
 70
     0
102
RTVSPropertyOp7
 70
     0
102
RTVSPropertyOp8
 70
     0
102
RTVSPropertyOp9
 70
     0
102
RTVSPropertyOp10
 70
     0
102
RTVSPropertyOp11
 70
     0
102
RTVSPropertyOp12
 70
     0
102
RTVSPropertyOp13
 70
     0
102
RTVSPropertyOp14
 70
     2
102
RTVSPropertyOp15
 70
     0
102
RTVSPropertyOp16
 70
     0
102
RTVSPropertyOp17
 70
     0
102
RTVSPropertyOp18
 70
     0
102
RTVSPropertyOp19
 70
     0
102
RTVSPropertyOp20
 70
     0
102
RTVSPropertyOp21
 70
     0
102
RTVSPropertyOp22
 70
     0
102
RTVSPropertyOp23
 70
     0
102
RTVSPropertyOp24
 70
     0
102
RTVSPropertyOp25
 70
     0
102
RTVSPropertyOp26
 70
     0
102
RTVSPropertyOp27
 70
     0
102
RTVSPropertyOp28
 70
     1
102
RTVSPropertyOp29
 70
     1
102
RTVSPropertyOp30
 70
     1
102
RTVSPropertyOp31
 70
     1
102
RTVSPropertyOp32
 70
     1
  0
XRECORD
  5
6417
102
{ACAD_REACTORS
330
6416
102
}
330
6416
100
AcDbXrecord
280
     1
102
RTVSPropertyOp0
 70
     1
102
RTVSPropertyOp1
 70
     1
102
RTVSPropertyOp2
 70
     1
102
RTVSPropertyOp3
 70
     1
102
RTVSPropertyOp4
 70
     1
102
RTVSPropertyOp5
 70
     1
102
RTVSPropertyOp6
 70
     1
102
RTVSPropertyOp7
 70
     1
102
RTVSPropertyOp8
 70
     1
102
RTVSPropertyOp9
 70
     1
102
RTVSPropertyOp10
 70
     1
102
RTVSPropertyOp11
 70
     1
102
RTVSPropertyOp12
 70
     1
102
RTVSPropertyOp13
 70
     1
102
RTVSPropertyOp14
 70
     1
102
RTVSPropertyOp15
 70
     1
102
RTVSPropertyOp16
 70
     1
102
RTVSPropertyOp17
 70
     1
102
RTVSPropertyOp18
 70
     1
102
RTVSPropertyOp19
 70
     1
102
RTVSPropertyOp20
 70
     1
102
RTVSPropertyOp21
 70
     1
102
RTVSPropertyOp22
 70
     1
102
RTVSPropertyOp23
 70
     1
102
RTVSPropertyOp24
 70
     1
102
RTVSPropertyOp25
 70
     1
102
RTVSPropertyOp26
 70
     1
102
RTVSPropertyOp27
 70
     1
102
RTVSPropertyOp28
 70
     1
102
RTVSPropertyOp29
 70
     1
102
RTVSPropertyOp30
 70
     1
102
RTVSPropertyOp31
 70
     1
102
RTVSPropertyOp32
 70
     1
  0
XRECORD
  5
63FB
102
{ACAD_REACTORS
330
63FA
102
}
330
63FA
100
AcDbXrecord
280
     1
102
RTVSPropertyOp0
 70
     1
102
RTVSPropertyOp1
 70
     1
102
RTVSPropertyOp2
 70
     1
102
RTVSPropertyOp3
 70
     1
102
RTVSPropertyOp4
 70
     1
102
RTVSPropertyOp5
 70
     1
102
RTVSPropertyOp6
 70
     1
102
RTVSPropertyOp7
 70
     1
102
RTVSPropertyOp8
 70
     1
102
RTVSPropertyOp9
 70
     1
102
RTVSPropertyOp10
 70
     1
102
RTVSPropertyOp11
 70
     1
102
RTVSPropertyOp12
 70
     1
102
RTVSPropertyOp13
 70
     1
102
RTVSPropertyOp14
 70
     1
102
RTVSPropertyOp15
 70
     1
102
RTVSPropertyOp16
 70
     1
102
RTVSPropertyOp17
 70
     1
102
RTVSPropertyOp18
 70
     1
102
RTVSPropertyOp19
 70
     1
102
RTVSPropertyOp20
 70
     1
102
RTVSPropertyOp21
 70
     1
102
RTVSPropertyOp22
 70
     1
102
RTVSPropertyOp23
 70
     1
102
RTVSPropertyOp24
 70
     1
102
RTVSPropertyOp25
 70
     1
102
RTVSPropertyOp26
 70
     1
102
RTVSPropertyOp27
 70
     1
102
RTVSPropertyOp28
 70
     1
102
RTVSPropertyOp29
 70
     1
102
RTVSPropertyOp30
 70
     1
102
RTVSPropertyOp31
 70
     1
102
RTVSPropertyOp32
 70
     1
  0
XRECORD
  5
63FD
102
{ACAD_REACTORS
330
63FC
102
}
330
63FC
100
AcDbXrecord
280
     1
102
RTVSPropertyOp0
 70
     1
102
RTVSPropertyOp1
 70
     1
102
RTVSPropertyOp2
 70
     1
102
RTVSPropertyOp3
 70
     1
102
RTVSPropertyOp4
 70
     1
102
RTVSPropertyOp5
 70
     1
102
RTVSPropertyOp6
 70
     1
102
RTVSPropertyOp7
 70
     1
102
RTVSPropertyOp8
 70
     1
102
RTVSPropertyOp9
 70
     1
102
RTVSPropertyOp10
 70
     1
102
RTVSPropertyOp11
 70
     1
102
RTVSPropertyOp12
 70
     1
102
RTVSPropertyOp13
 70
     1
102
RTVSPropertyOp14
 70
     1
102
RTVSPropertyOp15
 70
     1
102
RTVSPropertyOp16
 70
     1
102
RTVSPropertyOp17
 70
     1
102
RTVSPropertyOp18
 70
     1
102
RTVSPropertyOp19
 70
     1
102
RTVSPropertyOp20
 70
     1
102
RTVSPropertyOp21
 70
     1
102
RTVSPropertyOp22
 70
     1
102
RTVSPropertyOp23
 70
     1
102
RTVSPropertyOp24
 70
     1
102
RTVSPropertyOp25
 70
     1
102
RTVSPropertyOp26
 70
     1
102
RTVSPropertyOp27
 70
     1
102
RTVSPropertyOp28
 70
     1
102
RTVSPropertyOp29
 70
     1
102
RTVSPropertyOp30
 70
     1
102
RTVSPropertyOp31
 70
     1
102
RTVSPropertyOp32
 70
     1
  0
XRECORD
  5
63FF
102
{ACAD_REACTORS
330
63FE
102
}
330
63FE
100
AcDbXrecord
280
     1
102
RTVSPropertyOp0
 70
     1
102
RTVSPropertyOp1
 70
     1
102
RTVSPropertyOp2
 70
     1
102
RTVSPropertyOp3
 70
     1
102
RTVSPropertyOp4
 70
     1
102
RTVSPropertyOp5
 70
     1
102
RTVSPropertyOp6
 70
     1
102
RTVSPropertyOp7
 70
     1
102
RTVSPropertyOp8
 70
     1
102
RTVSPropertyOp9
 70
     1
102
RTVSPropertyOp10
 70
     1
102
RTVSPropertyOp11
 70
     1
102
RTVSPropertyOp12
 70
     1
102
RTVSPropertyOp13
 70
     1
102
RTVSPropertyOp14
 70
     1
102
RTVSPropertyOp15
 70
     1
102
RTVSPropertyOp16
 70
     1
102
RTVSPropertyOp17
 70
     1
102
RTVSPropertyOp18
 70
     1
102
RTVSPropertyOp19
 70
     1
102
RTVSPropertyOp20
 70
     1
102
RTVSPropertyOp21
 70
     1
102
RTVSPropertyOp22
 70
     1
102
RTVSPropertyOp23
 70
     1
102
RTVSPropertyOp24
 70
     1
102
RTVSPropertyOp25
 70
     1
102
RTVSPropertyOp26
 70
     1
102
RTVSPropertyOp27
 70
     1
102
RTVSPropertyOp28
 70
     1
102
RTVSPropertyOp29
 70
     1
102
RTVSPropertyOp30
 70
     1
102
RTVSPropertyOp31
 70
     1
102
RTVSPropertyOp32
 70
     1
  0
XRECORD
  5
6401
102
{ACAD_REACTORS
330
6400
102
}
330
6400
100
AcDbXrecord
280
     1
102
RTVSPropertyOp0
 70
     1
102
RTVSPropertyOp1
 70
     1
102
RTVSPropertyOp2
 70
     1
102
RTVSPropertyOp3
 70
     1
102
RTVSPropertyOp4
 70
     1
102
RTVSPropertyOp5
 70
     1
102
RTVSPropertyOp6
 70
     1
102
RTVSPropertyOp7
 70
     1
102
RTVSPropertyOp8
 70
     1
102
RTVSPropertyOp9
 70
     1
102
RTVSPropertyOp10
 70
     1
102
RTVSPropertyOp11
 70
     1
102
RTVSPropertyOp12
 70
     1
102
RTVSPropertyOp13
 70
     1
102
RTVSPropertyOp14
 70
     1
102
RTVSPropertyOp15
 70
     1
102
RTVSPropertyOp16
 70
     1
102
RTVSPropertyOp17
 70
     1
102
RTVSPropertyOp18
 70
     1
102
RTVSPropertyOp19
 70
     1
102
RTVSPropertyOp20
 70
     1
102
RTVSPropertyOp21
 70
     1
102
RTVSPropertyOp22
 70
     1
102
RTVSPropertyOp23
 70
     1
102
RTVSPropertyOp24
 70
     1
102
RTVSPropertyOp25
 70
     1
102
RTVSPropertyOp26
 70
     1
102
RTVSPropertyOp27
 70
     1
102
RTVSPropertyOp28
 70
     1
102
RTVSPropertyOp29
 70
     1
102
RTVSPropertyOp30
 70
     1
102
RTVSPropertyOp31
 70
     1
102
RTVSPropertyOp32
 70
     1
  0
XRECORD
  5
6409
102
{ACAD_REACTORS
330
6408
102
}
330
6408
100
AcDbXrecord
280
     1
102
RTVSPropertyOp0
 70
     1
102
RTVSPropertyOp1
 70
     1
102
RTVSPropertyOp2
 70
     1
102
RTVSPropertyOp3
 70
     1
102
RTVSPropertyOp4
 70
     1
102
RTVSPropertyOp5
 70
     1
102
RTVSPropertyOp6
 70
     1
102
RTVSPropertyOp7
 70
     1
102
RTVSPropertyOp8
 70
     1
102
RTVSPropertyOp9
 70
     1
102
RTVSPropertyOp10
 70
     1
102
RTVSPropertyOp11
 70
     1
102
RTVSPropertyOp12
 70
     1
102
RTVSPropertyOp13
 70
     1
102
RTVSPropertyOp14
 70
     1
102
RTVSPropertyOp15
 70
     1
102
RTVSPropertyOp16
 70
     1
102
RTVSPropertyOp17
 70
     1
102
RTVSPropertyOp18
 70
     1
102
RTVSPropertyOp19
 70
     1
102
RTVSPropertyOp20
 70
     1
102
RTVSPropertyOp21
 70
     1
102
RTVSPropertyOp22
 70
     1
102
RTVSPropertyOp23
 70
     1
102
RTVSPropertyOp24
 70
     1
102
RTVSPropertyOp25
 70
     1
102
RTVSPropertyOp26
 70
     1
102
RTVSPropertyOp27
 70
     1
102
RTVSPropertyOp28
 70
     1
102
RTVSPropertyOp29
 70
     1
102
RTVSPropertyOp30
 70
     1
102
RTVSPropertyOp31
 70
     1
102
RTVSPropertyOp32
 70
     1
  0
XRECORD
  5
6425
102
{ACAD_REACTORS
330
6424
102
}
330
6424
100
AcDbXrecord
280
     1
102
RTVSPropertyOp0
 70
     0
102
RTVSPropertyOp1
 70
     0
102
RTVSPropertyOp2
 70
     0
102
RTVSPropertyOp3
 70
     0
102
RTVSPropertyOp4
 70
     0
102
RTVSPropertyOp5
 70
     0
102
RTVSPropertyOp6
 70
     0
102
RTVSPropertyOp7
 70
     0
102
RTVSPropertyOp8
 70
     0
102
RTVSPropertyOp9
 70
     0
102
RTVSPropertyOp10
 70
     0
102
RTVSPropertyOp11
 70
     0
102
RTVSPropertyOp12
 70
     0
102
RTVSPropertyOp13
 70
     0
102
RTVSPropertyOp14
 70
     2
102
RTVSPropertyOp15
 70
     0
102
RTVSPropertyOp16
 70
     0
102
RTVSPropertyOp17
 70
     0
102
RTVSPropertyOp18
 70
     0
102
RTVSPropertyOp19
 70
     0
102
RTVSPropertyOp20
 70
     0
102
RTVSPropertyOp21
 70
     0
102
RTVSPropertyOp22
 70
     0
102
RTVSPropertyOp23
 70
     0
102
RTVSPropertyOp24
 70
     0
102
RTVSPropertyOp25
 70
     0
102
RTVSPropertyOp26
 70
     0
102
RTVSPropertyOp27
 70
     0
102
RTVSPropertyOp28
 70
     1
102
RTVSPropertyOp29
 70
     1
102
RTVSPropertyOp30
 70
     1
102
RTVSPropertyOp31
 70
     1
102
RTVSPropertyOp32
 70
     1
  0
XRECORD
  5
6415
102
{ACAD_REACTORS
330
6414
102
}
330
6414
100
AcDbXrecord
280
     1
102
RTVSPropertyOp0
 70
     1
102
RTVSPropertyOp1
 70
     1
102
RTVSPropertyOp2
 70
     1
102
RTVSPropertyOp3
 70
     1
102
RTVSPropertyOp4
 70
     1
102
RTVSPropertyOp5
 70
     1
102
RTVSPropertyOp6
 70
     1
102
RTVSPropertyOp7
 70
     1
102
RTVSPropertyOp8
 70
     1
102
RTVSPropertyOp9
 70
     1
102
RTVSPropertyOp10
 70
     1
102
RTVSPropertyOp11
 70
     1
102
RTVSPropertyOp12
 70
     1
102
RTVSPropertyOp13
 70
     1
102
RTVSPropertyOp14
 70
     1
102
RTVSPropertyOp15
 70
     1
102
RTVSPropertyOp16
 70
     1
102
RTVSPropertyOp17
 70
     1
102
RTVSPropertyOp18
 70
     1
102
RTVSPropertyOp19
 70
     1
102
RTVSPropertyOp20
 70
     1
102
RTVSPropertyOp21
 70
     1
102
RTVSPropertyOp22
 70
     1
102
RTVSPropertyOp23
 70
     1
102
RTVSPropertyOp24
 70
     1
102
RTVSPropertyOp25
 70
     1
102
RTVSPropertyOp26
 70
     1
102
RTVSPropertyOp27
 70
     1
102
RTVSPropertyOp28
 70
     1
102
RTVSPropertyOp29
 70
     1
102
RTVSPropertyOp30
 70
     1
102
RTVSPropertyOp31
 70
     1
102
RTVSPropertyOp32
 70
     1
  0
XRECORD
  5
6427
102
{ACAD_REACTORS
330
6426
102
}
330
6426
100
AcDbXrecord
280
     1
102
RTVSPropertyOp0
 70
     0
102
RTVSPropertyOp1
 70
     0
102
RTVSPropertyOp2
 70
     0
102
RTVSPropertyOp3
 70
     0
102
RTVSPropertyOp4
 70
     0
102
RTVSPropertyOp5
 70
     0
102
RTVSPropertyOp6
 70
     0
102
RTVSPropertyOp7
 70
     0
102
RTVSPropertyOp8
 70
     0
102
RTVSPropertyOp9
 70
     0
102
RTVSPropertyOp10
 70
     0
102
RTVSPropertyOp11
 70
     0
102
RTVSPropertyOp12
 70
     0
102
RTVSPropertyOp13
 70
     0
102
RTVSPropertyOp14
 70
     2
102
RTVSPropertyOp15
 70
     0
102
RTVSPropertyOp16
 70
     0
102
RTVSPropertyOp17
 70
     0
102
RTVSPropertyOp18
 70
     0
102
RTVSPropertyOp19
 70
     0
102
RTVSPropertyOp20
 70
     0
102
RTVSPropertyOp21
 70
     0
102
RTVSPropertyOp22
 70
     0
102
RTVSPropertyOp23
 70
     0
102
RTVSPropertyOp24
 70
     0
102
RTVSPropertyOp25
 70
     0
102
RTVSPropertyOp26
 70
     0
102
RTVSPropertyOp27
 70
     0
102
RTVSPropertyOp28
 70
     1
102
RTVSPropertyOp29
 70
     1
102
RTVSPropertyOp30
 70
     1
102
RTVSPropertyOp31
 70
     1
102
RTVSPropertyOp32
 70
     1
  0
XRECORD
  5
640D
102
{ACAD_REACTORS
330
640C
102
}
330
640C
100
AcDbXrecord
280
     1
102
RTVSPropertyOp0
 70
     1
102
RTVSPropertyOp1
 70
     1
102
RTVSPropertyOp2
 70
     1
102
RTVSPropertyOp3
 70
     1
102
RTVSPropertyOp4
 70
     1
102
RTVSPropertyOp5
 70
     1
102
RTVSPropertyOp6
 70
     1
102
RTVSPropertyOp7
 70
     1
102
RTVSPropertyOp8
 70
     1
102
RTVSPropertyOp9
 70
     1
102
RTVSPropertyOp10
 70
     1
102
RTVSPropertyOp11
 70
     1
102
RTVSPropertyOp12
 70
     1
102
RTVSPropertyOp13
 70
     1
102
RTVSPropertyOp14
 70
     1
102
RTVSPropertyOp15
 70
     1
102
RTVSPropertyOp16
 70
     1
102
RTVSPropertyOp17
 70
     1
102
RTVSPropertyOp18
 70
     1
102
RTVSPropertyOp19
 70
     1
102
RTVSPropertyOp20
 70
     1
102
RTVSPropertyOp21
 70
     1
102
RTVSPropertyOp22
 70
     1
102
RTVSPropertyOp23
 70
     1
102
RTVSPropertyOp24
 70
     1
102
RTVSPropertyOp25
 70
     1
102
RTVSPropertyOp26
 70
     1
102
RTVSPropertyOp27
 70
     1
102
RTVSPropertyOp28
 70
     1
102
RTVSPropertyOp29
 70
     1
102
RTVSPropertyOp30
 70
     1
102
RTVSPropertyOp31
 70
     1
102
RTVSPropertyOp32
 70
     1
  0
XRECORD
  5
6423
102
{ACAD_REACTORS
330
6422
102
}
330
6422
100
AcDbXrecord
280
     1
102
RTVSPropertyOp0
 70
     1
102
RTVSPropertyOp1
 70
     1
102
RTVSPropertyOp2
 70
     1
102
RTVSPropertyOp3
 70
     1
102
RTVSPropertyOp4
 70
     1
102
RTVSPropertyOp5
 70
     1
102
RTVSPropertyOp6
 70
     1
102
RTVSPropertyOp7
 70
     1
102
RTVSPropertyOp8
 70
     1
102
RTVSPropertyOp9
 70
     1
102
RTVSPropertyOp10
 70
     1
102
RTVSPropertyOp11
 70
     1
102
RTVSPropertyOp12
 70
     1
102
RTVSPropertyOp13
 70
     1
102
RTVSPropertyOp14
 70
     1
102
RTVSPropertyOp15
 70
     1
102
RTVSPropertyOp16
 70
     1
102
RTVSPropertyOp17
 70
     1
102
RTVSPropertyOp18
 70
     1
102
RTVSPropertyOp19
 70
     1
102
RTVSPropertyOp20
 70
     1
102
RTVSPropertyOp21
 70
     1
102
RTVSPropertyOp22
 70
     1
102
RTVSPropertyOp23
 70
     1
102
RTVSPropertyOp24
 70
     1
102
RTVSPropertyOp25
 70
     1
102
RTVSPropertyOp26
 70
     1
102
RTVSPropertyOp27
 70
     1
102
RTVSPropertyOp28
 70
     1
102
RTVSPropertyOp29
 70
     1
102
RTVSPropertyOp30
 70
     1
102
RTVSPropertyOp31
 70
     1
102
RTVSPropertyOp32
 70
     1
  0
XRECORD
  5
6421
102
{ACAD_REACTORS
330
6420
102
}
330
6420
100
AcDbXrecord
280
     1
102
RTVSPropertyOp0
 70
     1
102
RTVSPropertyOp1
 70
     1
102
RTVSPropertyOp2
 70
     1
102
RTVSPropertyOp3
 70
     1
102
RTVSPropertyOp4
 70
     1
102
RTVSPropertyOp5
 70
     1
102
RTVSPropertyOp6
 70
     1
102
RTVSPropertyOp7
 70
     1
102
RTVSPropertyOp8
 70
     1
102
RTVSPropertyOp9
 70
     1
102
RTVSPropertyOp10
 70
     1
102
RTVSPropertyOp11
 70
     1
102
RTVSPropertyOp12
 70
     1
102
RTVSPropertyOp13
 70
     1
102
RTVSPropertyOp14
 70
     1
102
RTVSPropertyOp15
 70
     1
102
RTVSPropertyOp16
 70
     1
102
RTVSPropertyOp17
 70
     1
102
RTVSPropertyOp18
 70
     1
102
RTVSPropertyOp19
 70
     1
102
RTVSPropertyOp20
 70
     1
102
RTVSPropertyOp21
 70
     1
102
RTVSPropertyOp22
 70
     1
102
RTVSPropertyOp23
 70
     1
102
RTVSPropertyOp24
 70
     1
102
RTVSPropertyOp25
 70
     1
102
RTVSPropertyOp26
 70
     1
102
RTVSPropertyOp27
 70
     1
102
RTVSPropertyOp28
 70
     1
102
RTVSPropertyOp29
 70
     1
102
RTVSPropertyOp30
 70
     1
102
RTVSPropertyOp31
 70
     1
102
RTVSPropertyOp32
 70
     1
  0
XRECORD
  5
641B
102
{ACAD_REACTORS
330
641A
102
}
330
641A
100
AcDbXrecord
280
     1
102
RTVSPropertyOp0
 70
     1
102
RTVSPropertyOp1
 70
     1
102
RTVSPropertyOp2
 70
     1
102
RTVSPropertyOp3
 70
     1
102
RTVSPropertyOp4
 70
     1
102
RTVSPropertyOp5
 70
     1
102
RTVSPropertyOp6
 70
     1
102
RTVSPropertyOp7
 70
     1
102
RTVSPropertyOp8
 70
     1
102
RTVSPropertyOp9
 70
     1
102
RTVSPropertyOp10
 70
     1
102
RTVSPropertyOp11
 70
     1
102
RTVSPropertyOp12
 70
     1
102
RTVSPropertyOp13
 70
     1
102
RTVSPropertyOp14
 70
     1
102
RTVSPropertyOp15
 70
     1
102
RTVSPropertyOp16
 70
     1
102
RTVSPropertyOp17
 70
     1
102
RTVSPropertyOp18
 70
     1
102
RTVSPropertyOp19
 70
     1
102
RTVSPropertyOp20
 70
     1
102
RTVSPropertyOp21
 70
     1
102
RTVSPropertyOp22
 70
     1
102
RTVSPropertyOp23
 70
     1
102
RTVSPropertyOp24
 70
     1
102
RTVSPropertyOp25
 70
     1
102
RTVSPropertyOp26
 70
     1
102
RTVSPropertyOp27
 70
     1
102
RTVSPropertyOp28
 70
     1
102
RTVSPropertyOp29
 70
     1
102
RTVSPropertyOp30
 70
     1
102
RTVSPropertyOp31
 70
     1
102
RTVSPropertyOp32
 70
     1
  0
XRECORD
  5
641D
102
{ACAD_REACTORS
330
641C
102
}
330
641C
100
AcDbXrecord
280
     1
102
RTVSPropertyOp0
 70
     1
102
RTVSPropertyOp1
 70
     1
102
RTVSPropertyOp2
 70
     1
102
RTVSPropertyOp3
 70
     1
102
RTVSPropertyOp4
 70
     1
102
RTVSPropertyOp5
 70
     1
102
RTVSPropertyOp6
 70
     1
102
RTVSPropertyOp7
 70
     1
102
RTVSPropertyOp8
 70
     1
102
RTVSPropertyOp9
 70
     1
102
RTVSPropertyOp10
 70
     1
102
RTVSPropertyOp11
 70
     1
102
RTVSPropertyOp12
 70
     1
102
RTVSPropertyOp13
 70
     1
102
RTVSPropertyOp14
 70
     1
102
RTVSPropertyOp15
 70
     1
102
RTVSPropertyOp16
 70
     1
102
RTVSPropertyOp17
 70
     1
102
RTVSPropertyOp18
 70
     1
102
RTVSPropertyOp19
 70
     1
102
RTVSPropertyOp20
 70
     1
102
RTVSPropertyOp21
 70
     1
102
RTVSPropertyOp22
 70
     1
102
RTVSPropertyOp23
 70
     1
102
RTVSPropertyOp24
 70
     1
102
RTVSPropertyOp25
 70
     1
102
RTVSPropertyOp26
 70
     1
102
RTVSPropertyOp27
 70
     1
102
RTVSPropertyOp28
 70
     1
102
RTVSPropertyOp29
 70
     1
102
RTVSPropertyOp30
 70
     1
102
RTVSPropertyOp31
 70
     1
102
RTVSPropertyOp32
 70
     1
  0
XRECORD
  5
6413
102
{ACAD_REACTORS
330
6412
102
}
330
6412
100
AcDbXrecord
280
     1
102
RTVSPropertyOp0
 70
     1
102
RTVSPropertyOp1
 70
     1
102
RTVSPropertyOp2
 70
     1
102
RTVSPropertyOp3
 70
     1
102
RTVSPropertyOp4
 70
     1
102
RTVSPropertyOp5
 70
     1
102
RTVSPropertyOp6
 70
     1
102
RTVSPropertyOp7
 70
     1
102
RTVSPropertyOp8
 70
     1
102
RTVSPropertyOp9
 70
     1
102
RTVSPropertyOp10
 70
     1
102
RTVSPropertyOp11
 70
     1
102
RTVSPropertyOp12
 70
     1
102
RTVSPropertyOp13
 70
     1
102
RTVSPropertyOp14
 70
     1
102
RTVSPropertyOp15
 70
     1
102
RTVSPropertyOp16
 70
     1
102
RTVSPropertyOp17
 70
     1
102
RTVSPropertyOp18
 70
     1
102
RTVSPropertyOp19
 70
     1
102
RTVSPropertyOp20
 70
     1
102
RTVSPropertyOp21
 70
     1
102
RTVSPropertyOp22
 70
     1
102
RTVSPropertyOp23
 70
     1
102
RTVSPropertyOp24
 70
     1
102
RTVSPropertyOp25
 70
     1
102
RTVSPropertyOp26
 70
     1
102
RTVSPropertyOp27
 70
     1
102
RTVSPropertyOp28
 70
     1
102
RTVSPropertyOp29
 70
     1
102
RTVSPropertyOp30
 70
     1
102
RTVSPropertyOp31
 70
     1
102
RTVSPropertyOp32
 70
     1
  0
XRECORD
  5
6407
102
{ACAD_REACTORS
330
6406
102
}
330
6406
100
AcDbXrecord
280
     1
102
RTVSPropertyOp0
 70
     1
102
RTVSPropertyOp1
 70
     1
102
RTVSPropertyOp2
 70
     1
102
RTVSPropertyOp3
 70
     1
102
RTVSPropertyOp4
 70
     1
102
RTVSPropertyOp5
 70
     1
102
RTVSPropertyOp6
 70
     1
102
RTVSPropertyOp7
 70
     1
102
RTVSPropertyOp8
 70
     1
102
RTVSPropertyOp9
 70
     1
102
RTVSPropertyOp10
 70
     1
102
RTVSPropertyOp11
 70
     1
102
RTVSPropertyOp12
 70
     1
102
RTVSPropertyOp13
 70
     1
102
RTVSPropertyOp14
 70
     1
102
RTVSPropertyOp15
 70
     1
102
RTVSPropertyOp16
 70
     1
102
RTVSPropertyOp17
 70
     1
102
RTVSPropertyOp18
 70
     1
102
RTVSPropertyOp19
 70
     1
102
RTVSPropertyOp20
 70
     1
102
RTVSPropertyOp21
 70
     1
102
RTVSPropertyOp22
 70
     1
102
RTVSPropertyOp23
 70
     1
102
RTVSPropertyOp24
 70
     1
102
RTVSPropertyOp25
 70
     1
102
RTVSPropertyOp26
 70
     1
102
RTVSPropertyOp27
 70
     1
102
RTVSPropertyOp28
 70
     1
102
RTVSPropertyOp29
 70
     1
102
RTVSPropertyOp30
 70
     1
102
RTVSPropertyOp31
 70
     1
102
RTVSPropertyOp32
 70
     1
  0
XRECORD
  5
641F
102
{ACAD_REACTORS
330
641E
102
}
330
641E
100
AcDbXrecord
280
     1
102
RTVSPropertyOp0
 70
     1
102
RTVSPropertyOp1
 70
     1
102
RTVSPropertyOp2
 70
     1
102
RTVSPropertyOp3
 70
     1
102
RTVSPropertyOp4
 70
     1
102
RTVSPropertyOp5
 70
     1
102
RTVSPropertyOp6
 70
     1
102
RTVSPropertyOp7
 70
     1
102
RTVSPropertyOp8
 70
     1
102
RTVSPropertyOp9
 70
     1
102
RTVSPropertyOp10
 70
     1
102
RTVSPropertyOp11
 70
     1
102
RTVSPropertyOp12
 70
     1
102
RTVSPropertyOp13
 70
     1
102
RTVSPropertyOp14
 70
     1
102
RTVSPropertyOp15
 70
     1
102
RTVSPropertyOp16
 70
     1
102
RTVSPropertyOp17
 70
     1
102
RTVSPropertyOp18
 70
     1
102
RTVSPropertyOp19
 70
     1
102
RTVSPropertyOp20
 70
     1
102
RTVSPropertyOp21
 70
     1
102
RTVSPropertyOp22
 70
     1
102
RTVSPropertyOp23
 70
     1
102
RTVSPropertyOp24
 70
     1
102
RTVSPropertyOp25
 70
     1
102
RTVSPropertyOp26
 70
     1
102
RTVSPropertyOp27
 70
     1
102
RTVSPropertyOp28
 70
     1
102
RTVSPropertyOp29
 70
     1
102
RTVSPropertyOp30
 70
     1
102
RTVSPropertyOp31
 70
     1
102
RTVSPropertyOp32
 70
     1
  0
ENDSEC
  0
EOF
