ISO-10303-21;
HEADER;
FILE_DESCRIPTION (( 'STEP AP214' ),
    '1' );
FILE_NAME ('13800811.STEP',
    '2020-06-29T07:21:15',
    ( '' ),
    ( '' ),
    'SwSTEP 2.0',
    'SolidWorks 2017',
    '' );
FILE_SCHEMA (( 'AUTOMOTIVE_DESIGN' ));
ENDSEC;

DATA;
#1 = CARTESIAN_POINT ( 'NONE',  ( 24.00000000000000000, 5.614472560783095600, 165.1368177086996500 ) ) ;
#2 = EDGE_CURVE ( 'NONE', #281, #134, #345, .T. ) ;
#3 = DIRECTION ( 'NONE',  ( 0.0000000000000000000, 1.000000000000000000, 3.469446951953860700E-016 ) ) ;
#4 = AXIS2_PLACEMENT_3D ( 'NONE', #72, #132, #333 ) ;
#5 = DIRECTION ( 'NONE',  ( 0.0000000000000000000, -0.6560590289904613100, -0.7547095802228119800 ) ) ;
#6 = ORIENTED_EDGE ( 'NONE', *, *, #149, .F. ) ;
#7 = ADVANCED_FACE ( 'NONE', ( #261 ), #189, .F. ) ;
#8 = ORIENTED_EDGE ( 'NONE', *, *, #195, .T. ) ;
#9 = DIRECTION ( 'NONE',  ( 0.0000000000000000000, -3.469446951953860200E-016, 1.000000000000000000 ) ) ;
#10 = ADVANCED_FACE ( 'NONE', ( #115 ), #152, .T. ) ;
#11 = FACE_OUTER_BOUND ( 'NONE', #353, .T. ) ;
#12 = ADVANCED_FACE ( 'NONE', ( #35 ), #304, .T. ) ;
#13 = VECTOR ( 'NONE', #5, 1000.000000000000100 ) ;
#14 = DIRECTION ( 'NONE',  ( 0.0000000000000000000, 0.7547095802228082100, -0.6560590289904656400 ) ) ;
#15 = SHAPE_REPRESENTATION ( 'Planungsmodell_Auslauf-+-09.11.81.102.90-1_K2_80x48', ( #81 ), #135 ) ;
#16 = ORIENTED_EDGE ( 'NONE', *, *, #144, .T. ) ;
#17 =( NAMED_UNIT ( * ) SI_UNIT ( $, .STERADIAN. ) SOLID_ANGLE_UNIT ( ) );
#18 = DIRECTION ( 'NONE',  ( 0.0000000000000000000, 0.6560590289904612000, 0.7547095802228120900 ) ) ;
#19 = AXIS2_PLACEMENT_3D ( 'NONE', #109, #307, #136 ) ;
#20 = DIRECTION ( 'NONE',  ( 1.000000000000000000, 0.0000000000000000000, 0.0000000000000000000 ) ) ;
#21 = LINE ( 'NONE', #214, #118 ) ;
#22 = ORIENTED_EDGE ( 'NONE', *, *, #119, .F. ) ;
#23 = PRODUCT_CONTEXT ( 'NONE', #196, 'mechanical' ) ;
#24 =( NAMED_UNIT ( * ) PLANE_ANGLE_UNIT ( ) SI_UNIT ( $, .RADIAN. ) );
#25 = ITEM_DEFINED_TRANSFORMATION ( 'NONE', 'NONE', #110,  #81 ) ;
#26 = VERTEX_POINT ( 'NONE', #321 ) ;
#27 = EDGE_CURVE ( 'NONE', #73, #213, #100, .T. ) ;
#28 = ORIENTED_EDGE ( 'NONE', *, *, #221, .T. ) ;
#29 = CARTESIAN_POINT ( 'NONE',  ( 24.00000000000000000, 5.614472560783095600, 165.1368177086996500 ) ) ;
#30 = CARTESIAN_POINT ( 'NONE',  ( 24.00000000000000000, -57.65067031568683800, 90.74396039976149100 ) ) ;
#31 = AXIS2_PLACEMENT_3D ( 'NONE', #212, #150, #206 ) ;
#32 = SHAPE_REPRESENTATION_RELATIONSHIP ( 'NONE' , 'NONE' ,  #15, #60 ) ;
#33 = DIRECTION ( 'NONE',  ( -1.000000000000000000, -0.0000000000000000000, -0.0000000000000000000 ) ) ;
#34 = CIRCLE ( 'NONE', #75, 97.65067031568396800 ) ;
#35 = FACE_OUTER_BOUND ( 'NONE', #293, .T. ) ;
#36 = EDGE_LOOP ( 'NONE', ( #234, #92, #259, #222 ) ) ;
#37 = DIRECTION ( 'NONE',  ( 0.0000000000000000000, 0.0000000000000000000, -1.000000000000000000 ) ) ;
#38 = EDGE_CURVE ( 'NONE', #158, #281, #79, .T. ) ;
#39 = FILL_AREA_STYLE ('',( #154 ) ) ;
#40 = ORIENTED_EDGE ( 'NONE', *, *, #71, .T. ) ;
#41 = ADVANCED_FACE ( 'NONE', ( #335 ), #174, .F. ) ;
#42 = LINE ( 'NONE', #243, #342 ) ;
#43 = DIRECTION ( 'NONE',  ( 0.0000000000000000000, 0.0000000000000000000, 1.000000000000000000 ) ) ;
#44 = VERTEX_POINT ( 'NONE', #256 ) ;
#45 = VERTEX_POINT ( 'NONE', #204 ) ;
#46 = FILL_AREA_STYLE_COLOUR ( '', #56 ) ;
#47 = DIRECTION ( 'NONE',  ( -1.000000000000000000, -0.0000000000000000000, -0.0000000000000000000 ) ) ;
#48 = EDGE_CURVE ( 'NONE', #73, #158, #266, .T. ) ;
#49 = APPLICATION_CONTEXT ( 'automotive_design' ) ;
#50 = VECTOR ( 'NONE', #47, 1000.000000000000000 ) ;
#51 = LINE ( 'NONE', #332, #271 ) ;
#52 = AXIS2_PLACEMENT_3D ( 'NONE', #30, #61, #123 ) ;
#53 = ORIENTED_EDGE ( 'NONE', *, *, #149, .T. ) ;
#54 =( NAMED_UNIT ( * ) SI_UNIT ( $, .STERADIAN. ) SOLID_ANGLE_UNIT ( ) );
#55 = DIRECTION ( 'NONE',  ( 0.0000000000000000000, -0.7547095802228268600, 0.6560590289904441000 ) ) ;
#56 = COLOUR_RGB ( '',0.7529411764705882200, 0.7529411764705882200, 0.7529411764705882200 ) ;
#57 = AXIS2_PLACEMENT_3D ( 'NONE', #246, #77, #248 ) ;
#58 = ORIENTED_EDGE ( 'NONE', *, *, #175, .T. ) ;
#59 = CARTESIAN_POINT ( 'NONE',  ( 24.00000000000000000, 6.413933631888385300, 164.4418568021876000 ) ) ;
#60 = ADVANCED_BREP_SHAPE_REPRESENTATION ( '', ( #249, #81 ), #135 ) ;
#61 = DIRECTION ( 'NONE',  ( -1.000000000000000000, -0.0000000000000000000, -0.0000000000000000000 ) ) ;
#62 = VECTOR ( 'NONE', #267, 1000.000000000000000 ) ;
#63 = DIRECTION ( 'NONE',  ( -1.000000000000000000, -0.0000000000000000000, 0.0000000000000000000 ) ) ;
#64 = CARTESIAN_POINT ( 'NONE',  ( 24.00000000000000000, -39.99999999999715800, 9.999999999999023000 ) ) ;
#65 = PRODUCT_DEFINITION_CONTEXT ( 'detailed design', #370, 'design' ) ;
#66 = AXIS2_PLACEMENT_3D ( 'NONE', #166, #283, #116 ) ;
#67 = PRODUCT ( 'Planungsmodell_Auslauf-+-09.11.81.102.90-1_K2_80x48', 'Planungsmodell_Auslauf-+-09.11.81.102.90-1_K2_80x48', '', ( #23 ) ) ;
#68 = ADVANCED_FACE ( 'NONE', ( #325 ), #349, .F. ) ;
#69 = VERTEX_POINT ( 'NONE', #93 ) ;
#70 = CARTESIAN_POINT ( 'NONE',  ( 24.00000000000000000, -39.99999999999715800, 0.0000000000000000000 ) ) ;
#71 = EDGE_CURVE ( 'NONE', #181, #346, #317, .T. ) ;
#72 = CARTESIAN_POINT ( 'NONE',  ( -24.00000000000000000, -57.65067031568683800, 90.74396039976149100 ) ) ;
#73 = VERTEX_POINT ( 'NONE', #260 ) ;
#74 = CARTESIAN_POINT ( 'NONE',  ( -24.00000000000000000, 5.614472560783095600, 165.1368177086996500 ) ) ;
#75 = AXIS2_PLACEMENT_3D ( 'NONE', #297, #294, #153 ) ;
#76 = CARTESIAN_POINT ( 'NONE',  ( 24.00000000000000000, -4.226412874075006000, 153.8161740053561200 ) ) ;
#77 = DIRECTION ( 'NONE',  ( 0.0000000000000000000, -1.000000000000000000, -7.646672983347173200E-017 ) ) ;
#78 = CARTESIAN_POINT ( 'NONE',  ( 0.0000000000000000000, 0.0000000000000000000, 0.0000000000000000000 ) ) ;
#79 = LINE ( 'NONE', #59, #299 ) ;
#80 = ORIENTED_EDGE ( 'NONE', *, *, #144, .F. ) ;
#81 = AXIS2_PLACEMENT_3D ( 'NONE', #78, #194, #20 ) ;
#82 = FILL_AREA_STYLE ('',( #46 ) ) ;
#83 = CIRCLE ( 'NONE', #19, 82.65067031568213500 ) ;
#84 = DIRECTION ( 'NONE',  ( 0.0000000000000000000, 0.7547095802228268600, -0.6560590289904442200 ) ) ;
#85 = EDGE_CURVE ( 'NONE', #45, #26, #147, .T. ) ;
#86 = VECTOR ( 'NONE', #208, 1000.000000000000000 ) ;
#87 = ORIENTED_EDGE ( 'NONE', *, *, #330, .T. ) ;
#88 = CARTESIAN_POINT ( 'NONE',  ( 0.0000000000000000000, 0.0000000000000000000, 0.0000000000000000000 ) ) ;
#89 = CARTESIAN_POINT ( 'NONE',  ( 0.0000000000000000000, 0.0000000000000000000, 0.0000000000000000000 ) ) ;
#90 = ORIENTED_EDGE ( 'NONE', *, *, #48, .T. ) ;
#91 = LINE ( 'NONE', #190, #233 ) ;
#92 = ORIENTED_EDGE ( 'NONE', *, *, #38, .F. ) ;
#93 = CARTESIAN_POINT ( 'NONE',  ( -24.00000000000000000, -4.226412874075006000, 153.8161740053561200 ) ) ;
#94 = DIRECTION ( 'NONE',  ( 0.0000000000000000000, 0.0000000000000000000, 1.000000000000000000 ) ) ;
#95 = STYLED_ITEM ( 'NONE', ( #205 ), #249 ) ;
#96 = CARTESIAN_POINT ( 'NONE',  ( 24.00000000000000000, -3.426951802969743900, 153.1212130988440100 ) ) ;
#97 = FACE_OUTER_BOUND ( 'NONE', #247, .T. ) ;
#98 = CARTESIAN_POINT ( 'NONE',  ( -24.00000000000000000, -39.99999999999715800, 0.0000000000000000000 ) ) ;
#99 = UNCERTAINTY_MEASURE_WITH_UNIT (LENGTH_MEASURE( 1.000000000000000100E-005 ), #312, 'distance_accuracy_value', 'NONE');
#100 = LINE ( 'NONE', #29, #163 ) ;
#101 = EDGE_LOOP ( 'NONE', ( #363, #373, #148, #28 ) ) ;
#102 = CARTESIAN_POINT ( 'NONE',  ( -24.00000000000000000, -57.65067031568683800, 90.74396039976149100 ) ) ;
#103 = PRESENTATION_LAYER_ASSIGNMENT (  '', '', ( #188 ) ) ;
#104 = ADVANCED_FACE ( 'NONE', ( #97 ), #264, .T. ) ;
#105 = DIRECTION ( 'NONE',  ( 0.0000000000000000000, -0.6560590289904613100, -0.7547095802228119800 ) ) ;
#106 = SHAPE_DEFINITION_REPRESENTATION ( #274, #15 ) ;
#107 = CARTESIAN_POINT ( 'NONE',  ( 24.00000000000000000, -39.99999999999715800, 0.0000000000000000000 ) ) ;
#108 = ORIENTED_EDGE ( 'NONE', *, *, #27, .T. ) ;
#109 = CARTESIAN_POINT ( 'NONE',  ( 24.00000000000000000, -57.65067031568683800, 90.74396039976149100 ) ) ;
#110 = AXIS2_PLACEMENT_3D ( 'NONE', #88, #227, #316 ) ;
#111 = VECTOR ( 'NONE', #84, 1000.000000000000000 ) ;
#112 =( NAMED_UNIT ( * ) PLANE_ANGLE_UNIT ( ) SI_UNIT ( $, .RADIAN. ) );
#113 = ORIENTED_EDGE ( 'NONE', *, *, #357, .F. ) ;
#114 =( NAMED_UNIT ( * ) SI_UNIT ( $, .STERADIAN. ) SOLID_ANGLE_UNIT ( ) );
#115 = FACE_OUTER_BOUND ( 'NONE', #36, .T. ) ;
#116 = DIRECTION ( 'NONE',  ( 1.000000000000000000, 0.0000000000000000000, 0.0000000000000000000 ) ) ;
#117 = DIRECTION ( 'NONE',  ( 0.0000000000000000000, 0.7547095802228268600, -0.6560590289904442200 ) ) ;
#118 = VECTOR ( 'NONE', #105, 1000.000000000000100 ) ;
#119 = EDGE_CURVE ( 'NONE', #331, #44, #236, .T. ) ;
#120 = ORIENTED_EDGE ( 'NONE', *, *, #320, .F. ) ;
#121 = ORIENTED_EDGE ( 'NONE', *, *, #350, .T. ) ;
#122 = DIRECTION ( 'NONE',  ( 0.0000000000000000000, 0.0000000000000000000, 1.000000000000000000 ) ) ;
#123 = DIRECTION ( 'NONE',  ( 0.0000000000000000000, 0.0000000000000000000, 1.000000000000000000 ) ) ;
#124 = VECTOR ( 'NONE', #220, 1000.000000000000000 ) ;
#125 = CARTESIAN_POINT ( 'NONE',  ( 24.00000000000000000, -57.65067031568683800, 90.74396039976149100 ) ) ;
#126 = ORIENTED_EDGE ( 'NONE', *, *, #38, .T. ) ;
#127 = EDGE_CURVE ( 'NONE', #158, #202, #34, .T. ) ;
#128 = CIRCLE ( 'NONE', #4, 82.65067031568213500 ) ;
#129 = CARTESIAN_POINT ( 'NONE',  ( -24.00000000000000000, -39.99999999999716500, 9.999999999999023000 ) ) ;
#130 = ORIENTED_EDGE ( 'NONE', *, *, #175, .F. ) ;
#131 = ORIENTED_EDGE ( 'NONE', *, *, #127, .F. ) ;
#132 = DIRECTION ( 'NONE',  ( -1.000000000000000000, -0.0000000000000000000, 0.0000000000000000000 ) ) ;
#133 = FACE_OUTER_BOUND ( 'NONE', #308, .T. ) ;
#134 = VERTEX_POINT ( 'NONE', #183 ) ;
#135 =( GEOMETRIC_REPRESENTATION_CONTEXT ( 3 ) GLOBAL_UNCERTAINTY_ASSIGNED_CONTEXT ( ( #230 ) ) GLOBAL_UNIT_ASSIGNED_CONTEXT ( ( #276, #112, #17 ) ) REPRESENTATION_CONTEXT ( 'NONE', 'WORKASPACE' ) );
#136 = DIRECTION ( 'NONE',  ( 0.0000000000000000000, 0.0000000000000000000, 1.000000000000000000 ) ) ;
#137 = PRODUCT_RELATED_PRODUCT_CATEGORY ( 'part', '', ( #291 ) ) ;
#138 = ORIENTED_EDGE ( 'NONE', *, *, #269, .F. ) ;
#139 = PLANE ( 'NONE',  #173 ) ;
#140 = AXIS2_PLACEMENT_3D ( 'NONE', #102, #180, #355 ) ;
#141 = LINE ( 'NONE', #295, #226 ) ;
#142 = SURFACE_SIDE_STYLE ('',( #338 ) ) ;
#143 = DIRECTION ( 'NONE',  ( -1.000000000000000000, -0.0000000000000000000, -0.0000000000000000000 ) ) ;
#144 = EDGE_CURVE ( 'NONE', #73, #181, #328, .T. ) ;
#145 = SHAPE_REPRESENTATION ( '13800811', ( #66, #110 ), #364 ) ;
#146 = VECTOR ( 'NONE', #339, 1000.000000000000000 ) ;
#147 = LINE ( 'NONE', #98, #242 ) ;
#148 = ORIENTED_EDGE ( 'NONE', *, *, #71, .F. ) ;
#149 = EDGE_CURVE ( 'NONE', #44, #26, #217, .T. ) ;
#150 = DIRECTION ( 'NONE',  ( -0.0000000000000000000, 0.6560590289904655300, 0.7547095802228083200 ) ) ;
#151 = PRODUCT_DEFINITION_FORMATION_WITH_SPECIFIED_SOURCE ( 'ANY', '', #67, .NOT_KNOWN. ) ;
#152 = CYLINDRICAL_SURFACE ( 'NONE', #52, 97.65067031568396800 ) ;
#153 = DIRECTION ( 'NONE',  ( 0.0000000000000000000, 0.0000000000000000000, 1.000000000000000000 ) ) ;
#154 = FILL_AREA_STYLE_COLOUR ( '', #197 ) ;
#155 = MECHANICAL_DESIGN_GEOMETRIC_PRESENTATION_REPRESENTATION (  '', ( #188 ), #209 ) ;
#156 = SURFACE_STYLE_USAGE ( .BOTH. , #329 ) ;
#157 = LINE ( 'NONE', #244, #50 ) ;
#158 = VERTEX_POINT ( 'NONE', #235 ) ;
#159 = DIRECTION ( 'NONE',  ( -1.000000000000000000, -0.0000000000000000000, -0.0000000000000000000 ) ) ;
#160 = CARTESIAN_POINT ( 'NONE',  ( -24.00000000000000000, -3.426951802969743900, 153.1212130988440100 ) ) ;
#161 = CONTEXT_DEPENDENT_SHAPE_REPRESENTATION ( #199, #191 ) ;
#162 = CARTESIAN_POINT ( 'NONE',  ( 24.00000000000000000, -57.65067031568683800, 90.74396039976149100 ) ) ;
#163 = VECTOR ( 'NONE', #232, 1000.000000000000000 ) ;
#164 = EDGE_CURVE ( 'NONE', #198, #331, #306, .T. ) ;
#165 = ORIENTED_EDGE ( 'NONE', *, *, #200, .F. ) ;
#166 = CARTESIAN_POINT ( 'NONE',  ( 0.0000000000000000000, 0.0000000000000000000, 0.0000000000000000000 ) ) ;
#167 = PLANE ( 'NONE',  #57 ) ;
#168 = VECTOR ( 'NONE', #178, 1000.000000000000000 ) ;
#169 = CLOSED_SHELL ( 'NONE', ( #219, #356, #10, #12, #360, #68, #7, #41, #336, #104 ) ) ;
#170 = APPLICATION_PROTOCOL_DEFINITION ( 'draft international standard', 'automotive_design', 1998, #285 ) ;
#171 = UNCERTAINTY_MEASURE_WITH_UNIT (LENGTH_MEASURE( 1.000000000000000100E-005 ), #343, 'distance_accuracy_value', 'NONE');
#172 = SURFACE_STYLE_USAGE ( .BOTH. , #142 ) ;
#173 = AXIS2_PLACEMENT_3D ( 'NONE', #365, #192, #18 ) ;
#174 = PLANE ( 'NONE',  #369 ) ;
#175 = EDGE_CURVE ( 'NONE', #231, #45, #141, .T. ) ;
#176 = DIRECTION ( 'NONE',  ( -0.0000000000000000000, 1.000000000000000000, 0.0000000000000000000 ) ) ;
#177 = ORIENTED_EDGE ( 'NONE', *, *, #250, .T. ) ;
#178 = DIRECTION ( 'NONE',  ( 0.0000000000000000000, 1.000000000000000000, 3.469446951953860700E-016 ) ) ;
#179 = SHAPE_DEFINITION_REPRESENTATION ( #237, #145 ) ;
#180 = DIRECTION ( 'NONE',  ( -1.000000000000000000, -0.0000000000000000000, 0.0000000000000000000 ) ) ;
#181 = VERTEX_POINT ( 'NONE', #76 ) ;
#182 = CARTESIAN_POINT ( 'NONE',  ( 24.00000000000000000, 5.614472560783095600, 165.1368177086996500 ) ) ;
#183 = CARTESIAN_POINT ( 'NONE',  ( -24.00000000000000000, 39.99999999999715100, 90.74396039975380300 ) ) ;
#184 = VECTOR ( 'NONE', #159, 1000.000000000000000 ) ;
#185 = VECTOR ( 'NONE', #33, 1000.000000000000000 ) ;
#186 = UNCERTAINTY_MEASURE_WITH_UNIT (LENGTH_MEASURE( 1.000000000000000100E-005 ), #216, 'distance_accuracy_value', 'NONE');
#187 = ORIENTED_EDGE ( 'NONE', *, *, #48, .F. ) ;
#188 = STYLED_ITEM ( 'NONE', ( #257 ), #60 ) ;
#189 = CYLINDRICAL_SURFACE ( 'NONE', #215, 82.65067031568213500 ) ;
#190 = CARTESIAN_POINT ( 'NONE',  ( -24.00000000000000000, -4.226412874075006000, 153.8161740053561200 ) ) ;
#191 = PRODUCT_DEFINITION_SHAPE ( 'NONE', 'NONE',  #375 ) ;
#192 = DIRECTION ( 'NONE',  ( 0.0000000000000000000, 0.7547095802228120900, -0.6560590289904612000 ) ) ;
#193 = LINE ( 'NONE', #301, #184 ) ;
#194 = DIRECTION ( 'NONE',  ( 0.0000000000000000000, 0.0000000000000000000, 1.000000000000000000 ) ) ;
#195 = EDGE_CURVE ( 'NONE', #346, #207, #371, .T. ) ;
#196 = APPLICATION_CONTEXT ( 'automotive_design' ) ;
#197 = COLOUR_RGB ( '',0.7529411764705882200, 0.7529411764705882200, 0.7529411764705882200 ) ;
#198 = VERTEX_POINT ( 'NONE', #352 ) ;
#199 =( REPRESENTATION_RELATIONSHIP ('NONE','NONE', #145, #15 ) REPRESENTATION_RELATIONSHIP_WITH_TRANSFORMATION ( #25 )SHAPE_REPRESENTATION_RELATIONSHIP( ) );
#200 = EDGE_CURVE ( 'NONE', #331, #45, #51, .T. ) ;
#201 = DIRECTION ( 'NONE',  ( 0.0000000000000000000, -0.0000000000000000000, 1.000000000000000000 ) ) ;
#202 = VERTEX_POINT ( 'NONE', #241 ) ;
#203 = ORIENTED_EDGE ( 'NONE', *, *, #85, .T. ) ;
#204 = CARTESIAN_POINT ( 'NONE',  ( -24.00000000000000000, -39.99999999999715800, 0.0000000000000000000 ) ) ;
#205 = PRESENTATION_STYLE_ASSIGNMENT (( #156 ) ) ;
#206 = DIRECTION ( 'NONE',  ( 0.0000000000000000000, -0.7547095802228083200, 0.6560590289904655300 ) ) ;
#207 = VERTEX_POINT ( 'NONE', #160 ) ;
#208 = DIRECTION ( 'NONE',  ( 0.0000000000000000000, 0.7547095802228082100, -0.6560590289904656400 ) ) ;
#209 =( GEOMETRIC_REPRESENTATION_CONTEXT ( 3 ) GLOBAL_UNCERTAINTY_ASSIGNED_CONTEXT ( ( #171 ) ) GLOBAL_UNIT_ASSIGNED_CONTEXT ( ( #343, #24, #54 ) ) REPRESENTATION_CONTEXT ( 'NONE', 'WORKASPACE' ) );
#210 = DIRECTION ( 'NONE',  ( -1.000000000000000000, -0.0000000000000000000, -0.0000000000000000000 ) ) ;
#211 = CARTESIAN_POINT ( 'NONE',  ( 24.00000000000000000, 39.99999999999715800, 2.775557561562891400E-014 ) ) ;
#212 = CARTESIAN_POINT ( 'NONE',  ( 24.00000000000000000, -4.226412874075006000, 153.8161740053561200 ) ) ;
#213 = VERTEX_POINT ( 'NONE', #74 ) ;
#214 = CARTESIAN_POINT ( 'NONE',  ( -24.00000000000000000, 5.614472560783095600, 165.1368177086996500 ) ) ;
#215 = AXIS2_PLACEMENT_3D ( 'NONE', #125, #210, #122 ) ;
#216 =( LENGTH_UNIT ( ) NAMED_UNIT ( * ) SI_UNIT ( .MILLI., .METRE. ) );
#217 = LINE ( 'NONE', #211, #185 ) ;
#218 = EDGE_LOOP ( 'NONE', ( #203, #6, #22, #358 ) ) ;
#219 = ADVANCED_FACE ( 'NONE', ( #251 ), #326, .F. ) ;
#220 = DIRECTION ( 'NONE',  ( -1.000000000000000000, -0.0000000000000000000, -0.0000000000000000000 ) ) ;
#221 = EDGE_CURVE ( 'NONE', #181, #69, #303, .T. ) ;
#222 = ORIENTED_EDGE ( 'NONE', *, *, #320, .T. ) ;
#223 = EDGE_CURVE ( 'NONE', #26, #134, #42, .T. ) ;
#224 = PLANE ( 'NONE',  #290 ) ;
#225 = LINE ( 'NONE', #279, #146 ) ;
#226 = VECTOR ( 'NONE', #354, 1000.000000000000000 ) ;
#227 = DIRECTION ( 'NONE',  ( 0.0000000000000000000, -1.000000000000000000, 0.0000000000000000000 ) ) ;
#228 = ORIENTED_EDGE ( 'NONE', *, *, #221, .F. ) ;
#229 = APPLICATION_PROTOCOL_DEFINITION ( 'draft international standard', 'automotive_design', 1998, #370 ) ;
#230 = UNCERTAINTY_MEASURE_WITH_UNIT (LENGTH_MEASURE( 1.000000000000000100E-005 ), #276, 'distance_accuracy_value', 'NONE');
#231 = VERTEX_POINT ( 'NONE', #129 ) ;
#232 = DIRECTION ( 'NONE',  ( -1.000000000000000000, -0.0000000000000000000, -0.0000000000000000000 ) ) ;
#233 = VECTOR ( 'NONE', #14, 1000.000000000000000 ) ;
#234 = ORIENTED_EDGE ( 'NONE', *, *, #2, .F. ) ;
#235 = CARTESIAN_POINT ( 'NONE',  ( 24.00000000000000000, 6.413933631888385300, 164.4418568021876000 ) ) ;
#236 = LINE ( 'NONE', #263, #168 ) ;
#237 = PRODUCT_DEFINITION_SHAPE ( 'NONE', 'NONE',  #310 ) ;
#238 = ORIENTED_EDGE ( 'NONE', *, *, #164, .T. ) ;
#239 = AXIS2_PLACEMENT_3D ( 'NONE', #292, #63, #94 ) ;
#240 = CARTESIAN_POINT ( 'NONE',  ( 24.00000000000000000, 5.614472560783095600, 165.1368177086996500 ) ) ;
#241 = CARTESIAN_POINT ( 'NONE',  ( 24.00000000000000000, 39.99999999999715100, 90.74396039975380300 ) ) ;
#242 = VECTOR ( 'NONE', #3, 1000.000000000000000 ) ;
#243 = CARTESIAN_POINT ( 'NONE',  ( -24.00000000000000000, 39.99999999999715800, 2.775557561562891400E-014 ) ) ;
#244 = CARTESIAN_POINT ( 'NONE',  ( 24.00000000000000000, -39.99999999999716500, 9.999999999999023000 ) ) ;
#245 = DIRECTION ( 'NONE',  ( 0.0000000000000000000, -1.000000000000000000, -3.469446951953860200E-016 ) ) ;
#246 = CARTESIAN_POINT ( 'NONE',  ( 24.00000000000000000, 39.99999999999715800, 2.775557561562891400E-014 ) ) ;
#247 = EDGE_LOOP ( 'NONE', ( #258, #130, #340, #284, #138, #87, #318, #252 ) ) ;
#248 = DIRECTION ( 'NONE',  ( 0.0000000000000000000, 7.646672983347173200E-017, -1.000000000000000000 ) ) ;
#249 = MANIFOLD_SOLID_BREP ( 'Aufsatz-Linear austragen1', #169 ) ;
#250 = EDGE_CURVE ( 'NONE', #207, #231, #128, .T. ) ;
#251 = FACE_OUTER_BOUND ( 'NONE', #218, .T. ) ;
#252 = ORIENTED_EDGE ( 'NONE', *, *, #223, .F. ) ;
#253 = PRODUCT_CONTEXT ( 'NONE', #285, 'mechanical' ) ;
#254 = SURFACE_STYLE_FILL_AREA ( #39 ) ;
#255 = PRODUCT_DEFINITION ( 'UNKNOWN', '', #151, #314 ) ;
#256 = CARTESIAN_POINT ( 'NONE',  ( 24.00000000000000000, 39.99999999999715800, 2.775557561562891400E-014 ) ) ;
#257 = PRESENTATION_STYLE_ASSIGNMENT (( #172 ) ) ;
#258 = ORIENTED_EDGE ( 'NONE', *, *, #85, .F. ) ;
#259 = ORIENTED_EDGE ( 'NONE', *, *, #127, .T. ) ;
#260 = CARTESIAN_POINT ( 'NONE',  ( 24.00000000000000000, 5.614472560783095600, 165.1368177086996500 ) ) ;
#261 = FACE_OUTER_BOUND ( 'NONE', #289, .T. ) ;
#262 = AXIS2_PLACEMENT_3D ( 'NONE', #240, #359, #55 ) ;
#263 = CARTESIAN_POINT ( 'NONE',  ( 24.00000000000000000, -39.99999999999715800, 0.0000000000000000000 ) ) ;
#264 = PLANE ( 'NONE',  #140 ) ;
#265 = LINE ( 'NONE', #337, #111 ) ;
#266 = LINE ( 'NONE', #1, #351 ) ;
#267 = DIRECTION ( 'NONE',  ( -1.000000000000000000, -0.0000000000000000000, -0.0000000000000000000 ) ) ;
#268 = EDGE_LOOP ( 'NONE', ( #319, #228, #80, #108 ) ) ;
#269 = EDGE_CURVE ( 'NONE', #213, #69, #21, .T. ) ;
#270 =( NAMED_UNIT ( * ) PLANE_ANGLE_UNIT ( ) SI_UNIT ( $, .RADIAN. ) );
#271 = VECTOR ( 'NONE', #275, 1000.000000000000000 ) ;
#272 = CARTESIAN_POINT ( 'NONE',  ( 24.00000000000000000, -4.226412874075006000, 153.8161740053561200 ) ) ;
#273 = ORIENTED_EDGE ( 'NONE', *, *, #361, .T. ) ;
#274 = PRODUCT_DEFINITION_SHAPE ( 'NONE', 'NONE',  #255 ) ;
#275 = DIRECTION ( 'NONE',  ( -1.000000000000000000, -0.0000000000000000000, -0.0000000000000000000 ) ) ;
#276 =( LENGTH_UNIT ( ) NAMED_UNIT ( * ) SI_UNIT ( .MILLI., .METRE. ) );
#277 = DIRECTION ( 'NONE',  ( -1.000000000000000000, -0.0000000000000000000, 0.0000000000000000000 ) ) ;
#278 =( GEOMETRIC_REPRESENTATION_CONTEXT ( 3 ) GLOBAL_UNCERTAINTY_ASSIGNED_CONTEXT ( ( #186 ) ) GLOBAL_UNIT_ASSIGNED_CONTEXT ( ( #216, #270, #302 ) ) REPRESENTATION_CONTEXT ( 'NONE', 'WORKASPACE' ) );
#279 = CARTESIAN_POINT ( 'NONE',  ( 24.00000000000000000, 39.99999999999715800, 2.775557561562891400E-014 ) ) ;
#280 = ORIENTED_EDGE ( 'NONE', *, *, #361, .F. ) ;
#281 = VERTEX_POINT ( 'NONE', #334 ) ;
#282 = DIRECTION ( 'NONE',  ( 0.0000000000000000000, 0.0000000000000000000, 1.000000000000000000 ) ) ;
#283 = DIRECTION ( 'NONE',  ( 0.0000000000000000000, 0.0000000000000000000, 1.000000000000000000 ) ) ;
#284 = ORIENTED_EDGE ( 'NONE', *, *, #348, .F. ) ;
#285 = APPLICATION_CONTEXT ( 'automotive_design' ) ;
#286 = DIRECTION ( 'NONE',  ( 1.000000000000000000, 0.0000000000000000000, 0.0000000000000000000 ) ) ;
#287 = AXIS2_PLACEMENT_3D ( 'NONE', #89, #282, #286 ) ;
#288 = ORIENTED_EDGE ( 'NONE', *, *, #330, .F. ) ;
#289 = EDGE_LOOP ( 'NONE', ( #177, #324, #113, #8 ) ) ;
#290 = AXIS2_PLACEMENT_3D ( 'NONE', #162, #277, #43 ) ;
#291 = PRODUCT ( '13800811', '13800811', '', ( #253 ) ) ;
#292 = CARTESIAN_POINT ( 'NONE',  ( -24.00000000000000000, -57.65067031568683800, 90.74396039976149100 ) ) ;
#293 = EDGE_LOOP ( 'NONE', ( #288, #313, #90, #126 ) ) ;
#294 = DIRECTION ( 'NONE',  ( -1.000000000000000000, -0.0000000000000000000, 0.0000000000000000000 ) ) ;
#295 = CARTESIAN_POINT ( 'NONE',  ( -24.00000000000000000, -39.99999999999715800, 9.999999999999023000 ) ) ;
#296 = PRODUCT_DEFINITION_FORMATION_WITH_SPECIFIED_SOURCE ( 'ANY', '', #291, .NOT_KNOWN. ) ;
#297 = CARTESIAN_POINT ( 'NONE',  ( 24.00000000000000000, -57.65067031568683800, 90.74396039976149100 ) ) ;
#298 = CARTESIAN_POINT ( 'NONE',  ( 24.00000000000000000, -4.226412874075006000, 153.8161740053561200 ) ) ;
#299 = VECTOR ( 'NONE', #143, 1000.000000000000000 ) ;
#300 = ORIENTED_EDGE ( 'NONE', *, *, #164, .F. ) ;
#301 = CARTESIAN_POINT ( 'NONE',  ( 24.00000000000000000, 39.99999999999715100, 90.74396039975380300 ) ) ;
#302 =( NAMED_UNIT ( * ) SI_UNIT ( $, .STERADIAN. ) SOLID_ANGLE_UNIT ( ) );
#303 = LINE ( 'NONE', #272, #124 ) ;
#304 = PLANE ( 'NONE',  #262 ) ;
#305 = PRESENTATION_LAYER_ASSIGNMENT (  '', '', ( #95 ) ) ;
#306 = LINE ( 'NONE', #64, #322 ) ;
#307 = DIRECTION ( 'NONE',  ( -1.000000000000000000, -0.0000000000000000000, 0.0000000000000000000 ) ) ;
#308 = EDGE_LOOP ( 'NONE', ( #323, #273, #131, #187, #16, #40, #367, #238 ) ) ;
#309 = EDGE_LOOP ( 'NONE', ( #58, #165, #300, #121 ) ) ;
#310 = PRODUCT_DEFINITION ( 'UNKNOWN', '', #296, #65 ) ;
#311 = MECHANICAL_DESIGN_GEOMETRIC_PRESENTATION_REPRESENTATION (  '', ( #95 ), #278 ) ;
#312 =( LENGTH_UNIT ( ) NAMED_UNIT ( * ) SI_UNIT ( .MILLI., .METRE. ) );
#313 = ORIENTED_EDGE ( 'NONE', *, *, #27, .F. ) ;
#314 = PRODUCT_DEFINITION_CONTEXT ( 'detailed design', #49, 'design' ) ;
#315 = APPLICATION_PROTOCOL_DEFINITION ( 'draft international standard', 'automotive_design', 1998, #49 ) ;
#316 = DIRECTION ( 'NONE',  ( 1.000000000000000000, 0.0000000000000000000, 0.0000000000000000000 ) ) ;
#317 = LINE ( 'NONE', #298, #86 ) ;
#318 = ORIENTED_EDGE ( 'NONE', *, *, #2, .T. ) ;
#319 = ORIENTED_EDGE ( 'NONE', *, *, #269, .T. ) ;
#320 = EDGE_CURVE ( 'NONE', #202, #134, #193, .T. ) ;
#321 = CARTESIAN_POINT ( 'NONE',  ( -24.00000000000000000, 39.99999999999715800, 2.775557561562891400E-014 ) ) ;
#322 = VECTOR ( 'NONE', #37, 1000.000000000000000 ) ;
#323 = ORIENTED_EDGE ( 'NONE', *, *, #119, .T. ) ;
#324 = ORIENTED_EDGE ( 'NONE', *, *, #350, .F. ) ;
#325 = FACE_OUTER_BOUND ( 'NONE', #101, .T. ) ;
#326 = PLANE ( 'NONE',  #374 ) ;
#327 = FACE_OUTER_BOUND ( 'NONE', #268, .T. ) ;
#328 = LINE ( 'NONE', #182, #13 ) ;
#329 = SURFACE_SIDE_STYLE ('',( #254 ) ) ;
#330 = EDGE_CURVE ( 'NONE', #213, #281, #265, .T. ) ;
#331 = VERTEX_POINT ( 'NONE', #107 ) ;
#332 = CARTESIAN_POINT ( 'NONE',  ( 24.00000000000000000, -39.99999999999715800, 0.0000000000000000000 ) ) ;
#333 = DIRECTION ( 'NONE',  ( 0.0000000000000000000, 0.0000000000000000000, 1.000000000000000000 ) ) ;
#334 = CARTESIAN_POINT ( 'NONE',  ( -24.00000000000000000, 6.413933631888385300, 164.4418568021876000 ) ) ;
#335 = FACE_OUTER_BOUND ( 'NONE', #309, .T. ) ;
#336 = ADVANCED_FACE ( 'NONE', ( #133 ), #224, .F. ) ;
#337 = CARTESIAN_POINT ( 'NONE',  ( -24.00000000000000000, 5.614472560783095600, 165.1368177086996500 ) ) ;
#338 = SURFACE_STYLE_FILL_AREA ( #82 ) ;
#339 = DIRECTION ( 'NONE',  ( 0.0000000000000000000, -7.646672983347173200E-017, 1.000000000000000000 ) ) ;
#340 = ORIENTED_EDGE ( 'NONE', *, *, #250, .F. ) ;
#341 =( NAMED_UNIT ( * ) PLANE_ANGLE_UNIT ( ) SI_UNIT ( $, .RADIAN. ) );
#342 = VECTOR ( 'NONE', #362, 1000.000000000000000 ) ;
#343 =( LENGTH_UNIT ( ) NAMED_UNIT ( * ) SI_UNIT ( .MILLI., .METRE. ) );
#344 = ORIENTED_EDGE ( 'NONE', *, *, #223, .T. ) ;
#345 = CIRCLE ( 'NONE', #239, 97.65067031568396800 ) ;
#346 = VERTEX_POINT ( 'NONE', #368 ) ;
#347 = CARTESIAN_POINT ( 'NONE',  ( 24.00000000000000000, -39.99999999999715800, 9.999999999999023000 ) ) ;
#348 = EDGE_CURVE ( 'NONE', #69, #207, #91, .T. ) ;
#349 = PLANE ( 'NONE',  #31 ) ;
#350 = EDGE_CURVE ( 'NONE', #198, #231, #157, .T. ) ;
#351 = VECTOR ( 'NONE', #117, 1000.000000000000000 ) ;
#352 = CARTESIAN_POINT ( 'NONE',  ( 24.00000000000000000, -39.99999999999716500, 9.999999999999023000 ) ) ;
#353 = EDGE_LOOP ( 'NONE', ( #344, #120, #280, #53 ) ) ;
#354 = DIRECTION ( 'NONE',  ( 0.0000000000000000000, 0.0000000000000000000, -1.000000000000000000 ) ) ;
#355 = DIRECTION ( 'NONE',  ( 0.0000000000000000000, 0.0000000000000000000, 1.000000000000000000 ) ) ;
#356 = ADVANCED_FACE ( 'NONE', ( #11 ), #167, .F. ) ;
#357 = EDGE_CURVE ( 'NONE', #346, #198, #83, .T. ) ;
#358 = ORIENTED_EDGE ( 'NONE', *, *, #200, .T. ) ;
#359 = DIRECTION ( 'NONE',  ( -0.0000000000000000000, 0.6560590289904442200, 0.7547095802228269700 ) ) ;
#360 = ADVANCED_FACE ( 'NONE', ( #327 ), #139, .F. ) ;
#361 = EDGE_CURVE ( 'NONE', #44, #202, #225, .T. ) ;
#362 = DIRECTION ( 'NONE',  ( 0.0000000000000000000, -7.646672983347173200E-017, 1.000000000000000000 ) ) ;
#363 = ORIENTED_EDGE ( 'NONE', *, *, #348, .T. ) ;
#364 =( GEOMETRIC_REPRESENTATION_CONTEXT ( 3 ) GLOBAL_UNCERTAINTY_ASSIGNED_CONTEXT ( ( #99 ) ) GLOBAL_UNIT_ASSIGNED_CONTEXT ( ( #312, #341, #114 ) ) REPRESENTATION_CONTEXT ( 'NONE', 'WORKASPACE' ) );
#365 = CARTESIAN_POINT ( 'NONE',  ( 24.00000000000000000, 5.614472560783095600, 165.1368177086996500 ) ) ;
#366 = PRODUCT_RELATED_PRODUCT_CATEGORY ( 'part', '', ( #67 ) ) ;
#367 = ORIENTED_EDGE ( 'NONE', *, *, #357, .T. ) ;
#368 = CARTESIAN_POINT ( 'NONE',  ( 24.00000000000000000, -3.426951802969743900, 153.1212130988440100 ) ) ;
#369 = AXIS2_PLACEMENT_3D ( 'NONE', #347, #176, #201 ) ;
#370 = APPLICATION_CONTEXT ( 'automotive_design' ) ;
#371 = LINE ( 'NONE', #96, #62 ) ;
#372 = APPLICATION_PROTOCOL_DEFINITION ( 'draft international standard', 'automotive_design', 1998, #196 ) ;
#373 = ORIENTED_EDGE ( 'NONE', *, *, #195, .F. ) ;
#374 = AXIS2_PLACEMENT_3D ( 'NONE', #70, #9, #245 ) ;
#375 = NEXT_ASSEMBLY_USAGE_OCCURRENCE ( 'NAUO1', ' ', ' ', #310, #255, $ ) ;
ENDSEC;
END-ISO-10303-21;
