  0
SECTION
  2
HEADER
  9
$ACADVER
  1
AC1018
  9
$ACADMAINTVER
 70
   104
  9
$DWGCODEPAGE
  3
ANSI_1252
  9
$LASTSAVEDBY
  1
Administrator
  9
$CUSTOMPROPERTYTAG
  1
AmdtFileType
  9
$CUSTOMPROPERTY
  1
84
  9
$INSBASE
 10
0.0
 20
0.0
 30
0.0
  9
$EXTMIN
 10
-625.0190371704857
 20
-187.483999582498
 30
0.0
  9
$EXTMAX
 10
15.82340918560761
 20
194.8262531021262
 30
0.0
  9
$LIMMIN
 10
0.0
 20
0.0
  9
$LIMMAX
 10
420.0
 20
297.0
  9
$ORTHOMODE
 70
     0
  9
$REGENMODE
 70
     1
  9
$FILLMODE
 70
     1
  9
$QTEXTMODE
 70
     0
  9
$MIRRTEXT
 70
     1
  9
$LTSCALE
 40
1.0
  9
$ATTMODE
 70
     1
  9
$TEXTSIZE
 40
2.5
  9
$TRACEWID
 40
1.0
  9
$TEXTSTYLE
  7
STANDARD
  9
$CLAYER
  8
0
  9
$CELTYPE
  6
ByLayer
  9
$CECOLOR
 62
   256
  9
$CELTSCALE
 40
1.0
  9
$DISPSILH
 70
     0
  9
$DIMSCALE
 40
1.0
  9
$DIMASZ
 40
3.5
  9
$DIMEXO
 40
1.0
  9
$DIMDLI
 40
10.0
  9
$DIMRND
 40
0.0
  9
$DIMDLE
 40
0.0
  9
$DIMEXE
 40
1.0
  9
$DIMTP
 40
0.1
  9
$DIMTM
 40
0.1
  9
$DIMTXT
 40
3.5
  9
$DIMCEN
 40
0.0
  9
$DIMTSZ
 40
0.0
  9
$DIMTOL
 70
     0
  9
$DIMLIM
 70
     0
  9
$DIMTIH
 70
     0
  9
$DIMTOH
 70
     0
  9
$DIMSE1
 70
     0
  9
$DIMSE2
 70
     0
  9
$DIMTAD
 70
     1
  9
$DIMZIN
 70
     8
  9
$DIMBLK
  1

  9
$DIMASO
 70
     1
  9
$DIMSHO
 70
     1
  9
$DIMPOST
  1

  9
$DIMAPOST
  1
"
  9
$DIMALT
 70
     0
  9
$DIMALTD
 70
     2
  9
$DIMALTF
 40
0.0393701
  9
$DIMLFAC
 40
1.0
  9
$DIMTOFL
 70
     1
  9
$DIMTVP
 40
0.0
  9
$DIMTIX
 70
     0
  9
$DIMSOXD
 70
     0
  9
$DIMSAH
 70
     0
  9
$DIMBLK1
  1

  9
$DIMBLK2
  1

  9
$DIMSTYLE
  2
AM_DIN
  9
$DIMCLRD
 70
   256
  9
$DIMCLRE
 70
   256
  9
$DIMCLRT
 70
   140
  9
$DIMTFAC
 40
0.71
  9
$DIMGAP
 40
1.5
  9
$DIMJUST
 70
     0
  9
$DIMSD1
 70
     0
  9
$DIMSD2
 70
     0
  9
$DIMTOLJ
 70
     0
  9
$DIMTZIN
 70
     8
  9
$DIMALTZ
 70
     0
  9
$DIMALTTZ
 70
     0
  9
$DIMUPT
 70
     0
  9
$DIMDEC
 70
     2
  9
$DIMTDEC
 70
     3
  9
$DIMALTU
 70
     2
  9
$DIMALTTD
 70
     4
  9
$DIMTXSTY
  7
STANDARD
  9
$DIMAUNIT
 70
     0
  9
$DIMADEC
 70
     0
  9
$DIMALTRND
 40
0.0
  9
$DIMAZIN
 70
     2
  9
$DIMDSEP
 70
    46
  9
$DIMATFIT
 70
     3
  9
$DIMFRAC
 70
     0
  9
$DIMLDRBLK
  1

  9
$DIMLUNIT
 70
     2
  9
$DIMLWD
 70
    -1
  9
$DIMLWE
 70
    -1
  9
$DIMTMOVE
 70
     0
  9
$LUNITS
 70
     2
  9
$LUPREC
 70
     2
  9
$SKETCHINC
 40
1.0
  9
$FILLETRAD
 40
0.0
  9
$AUNITS
 70
     0
  9
$AUPREC
 70
     0
  9
$MENU
  1
.
  9
$ELEVATION
 40
0.0
  9
$PELEVATION
 40
0.0
  9
$THICKNESS
 40
0.0
  9
$LIMCHECK
 70
     0
  9
$CHAMFERA
 40
2.5
  9
$CHAMFERB
 40
2.5
  9
$CHAMFERC
 40
20.0
  9
$CHAMFERD
 40
0.0
  9
$SKPOLY
 70
     0
  9
$TDCREATE
 40
2453918.262673241
  9
$TDUCREATE
 40
2453918.179339908
  9
$TDUPDATE
 40
2455727.635345672
  9
$TDUUPDATE
 40
2455727.552012338
  9
$TDINDWG
 40
0.2629735069
  9
$TDUSRTIMER
 40
0.2629693519
  9
$USRTIMER
 70
     1
  9
$ANGBASE
 50
0.0
  9
$ANGDIR
 70
     0
  9
$PDMODE
 70
     0
  9
$PDSIZE
 40
0.0
  9
$PLINEWID
 40
0.0
  9
$SPLFRAME
 70
     0
  9
$SPLINETYPE
 70
     6
  9
$SPLINESEGS
 70
     8
  9
$HANDSEED
  5
4C09
  9
$SURFTAB1
 70
     6
  9
$SURFTAB2
 70
     6
  9
$SURFTYPE
 70
     6
  9
$SURFU
 70
     6
  9
$SURFV
 70
     6
  9
$UCSBASE
  2

  9
$UCSNAME
  2

  9
$UCSORG
 10
0.0
 20
0.0
 30
0.0
  9
$UCSXDIR
 10
1.0
 20
0.0
 30
0.0
  9
$UCSYDIR
 10
0.0
 20
1.0
 30
0.0
  9
$UCSORTHOREF
  2

  9
$UCSORTHOVIEW
 70
     0
  9
$UCSORGTOP
 10
0.0
 20
0.0
 30
0.0
  9
$UCSORGBOTTOM
 10
0.0
 20
0.0
 30
0.0
  9
$UCSORGLEFT
 10
0.0
 20
0.0
 30
0.0
  9
$UCSORGRIGHT
 10
0.0
 20
0.0
 30
0.0
  9
$UCSORGFRONT
 10
0.0
 20
0.0
 30
0.0
  9
$UCSORGBACK
 10
0.0
 20
0.0
 30
0.0
  9
$PUCSBASE
  2

  9
$PUCSNAME
  2

  9
$PUCSORG
 10
0.0
 20
0.0
 30
0.0
  9
$PUCSXDIR
 10
1.0
 20
0.0
 30
0.0
  9
$PUCSYDIR
 10
0.0
 20
1.0
 30
0.0
  9
$PUCSORTHOREF
  2

  9
$PUCSORTHOVIEW
 70
     0
  9
$PUCSORGTOP
 10
0.0
 20
0.0
 30
0.0
  9
$PUCSORGBOTTOM
 10
0.0
 20
0.0
 30
0.0
  9
$PUCSORGLEFT
 10
0.0
 20
0.0
 30
0.0
  9
$PUCSORGRIGHT
 10
0.0
 20
0.0
 30
0.0
  9
$PUCSORGFRONT
 10
0.0
 20
0.0
 30
0.0
  9
$PUCSORGBACK
 10
0.0
 20
0.0
 30
0.0
  9
$USERI1
 70
     0
  9
$USERI2
 70
     0
  9
$USERI3
 70
     0
  9
$USERI4
 70
     0
  9
$USERI5
 70
     0
  9
$USERR1
 40
0.0
  9
$USERR2
 40
0.0
  9
$USERR3
 40
0.0
  9
$USERR4
 40
0.0
  9
$USERR5
 40
0.0
  9
$WORLDVIEW
 70
     1
  9
$SHADEDGE
 70
     3
  9
$SHADEDIF
 70
    70
  9
$TILEMODE
 70
     1
  9
$MAXACTVP
 70
    64
  9
$PINSBASE
 10
0.0
 20
0.0
 30
0.0
  9
$PLIMCHECK
 70
     0
  9
$PEXTMIN
 10
1.000000000000000E+20
 20
1.000000000000000E+20
 30
1.000000000000000E+20
  9
$PEXTMAX
 10
-1.000000000000000E+20
 20
-1.000000000000000E+20
 30
-1.000000000000000E+20
  9
$PLIMMIN
 10
0.0
 20
0.0
  9
$PLIMMAX
 10
420.0
 20
297.0
  9
$UNITMODE
 70
     0
  9
$VISRETAIN
 70
     1
  9
$PLINEGEN
 70
     0
  9
$PSLTSCALE
 70
     1
  9
$TREEDEPTH
 70
  3020
  9
$CMLSTYLE
  2
Standard
  9
$CMLJUST
 70
     0
  9
$CMLSCALE
 40
20.0
  9
$PROXYGRAPHICS
 70
     1
  9
$MEASUREMENT
 70
     1
  9
$CELWEIGHT
370
    -1
  9
$ENDCAPS
280
     0
  9
$JOINSTYLE
280
     0
  9
$LWDISPLAY
290
     0
  9
$INSUNITS
 70
     4
  9
$HYPERLINKBASE
  1

  9
$STYLESHEET
  1

  9
$XEDIT
290
     1
  9
$CEPSNTYPE
380
     0
  9
$PSTYLEMODE
290
     1
  9
$FINGERPRINTGUID
  2
{E66C8CC1-E66B-408F-9010-06FD783B68A0}
  9
$VERSIONGUID
  2
{37E357DA-CA8B-4C99-A274-59EF17727FDF}
  9
$EXTNAMES
290
     1
  9
$PSVPSCALE
 40
0.0
  9
$OLESTARTUP
290
     0
  9
$SORTENTS
280
   127
  9
$INDEXCTL
280
     0
  9
$HIDETEXT
280
     1
  9
$XCLIPFRAME
290
     0
  9
$HALOGAP
280
     0
  9
$OBSCOLOR
 70
   257
  9
$OBSLTYPE
280
     0
  9
$INTERSECTIONDISPLAY
280
     0
  9
$INTERSECTIONCOLOR
 70
   257
  9
$DIMASSOC
280
     2
  9
$PROJECTNAME
  1

  0
ENDSEC
  0
SECTION
  2
CLASSES
  0
CLASS
  1
ACDBDICTIONARYWDFLT
  2
AcDbDictionaryWithDefault
  3
ObjectDBX Classes
 90
        0
 91
        1
280
     0
281
     0
  0
CLASS
  1
ACME_DOCUMENT
  2
AcMeDbDoc
  3
AcMeServices
 90
     1024
 91
        2
280
     0
281
     0
  0
CLASS
  1
ACMESCOPE
  2
AcMeScope
  3
AcMeServices
 90
     1024
 91
        1
280
     0
281
     0
  0
CLASS
  1
ACMECOMMANDHISTORY
  2
AcMeCommandHistory
  3
AcMeServices
 90
     1024
 91
        1
280
     0
281
     0
  0
CLASS
  1
ACIMSYSVARMAN
  2
AcImSysVarManager
  3
AcMeServices
 90
     1024
 91
        4
280
     0
281
     0
  0
CLASS
  1
ACIMREALSYSVAR
  2
AcImRealSysVar
  3
AcMeServices
 90
     1024
 91
        1
280
     0
281
     0
  0
CLASS
  1
ACIMINTSYSVAR
  2
AcImIntSysVar
  3
AcMeServices
 90
     1024
 91
       27
280
     0
281
     0
  0
CLASS
  1
ACMEDRAWINGMAN
  2
AcMeDrawingMan
  3
AcMeServices
 90
     1024
 91
        0
280
     0
281
     0
  0
CLASS
  1
ACMEVIEW
  2
AcMeView
  3
AcMeServices
 90
     1024
 91
        0
280
     0
281
     0
  0
CLASS
  1
ACDBENTITYCACHE
  2
AcMeEntityCache
  3
AcMeServices
 90
     1024
 91
        1
280
     0
281
     0
  0
CLASS
  1
GSMANAGER
  2
AcMeGSManager
  3
AcMeServices
 90
     1024
 91
        0
280
     0
281
     0
  0
CLASS
  1
AMDTINTERNALREACTOR
  2
AmdtInternalReactor
  3
AcMeServices
 90
     1024
 91
        1
280
     0
281
     0
  0
CLASS
  1
ACMESTATEMGR
  2
AcMeStateMgr
  3
AcMeServices
 90
     1024
 91
        1
280
     0
281
     0
  0
CLASS
  1
ACGREFMASTER
  2
AcGrefMaster
  3
AcAttribServices
 90
     1024
 91
        1
280
     0
281
     0
  0
CLASS
  1
ACME_DATABASE
  2
AcMeDbDatabase
  3
AcMeServices
 90
     1024
 91
        1
280
     0
281
     0
  0
CLASS
  1
ACRFINSADJUSTERMGR
  2
AcRfInsAdjusterMgr
  3
AcMeServices
 90
     1024
 91
        1
280
     0
281
     0
  0
CLASS
  1
ACGREFACADMASTER
  2
AcGrefacadMaster
  3
AcGrefServices
 90
     1024
 91
        1
280
     0
281
     0
  0
CLASS
  1
AMIMASTER
  2
AmiMaster
  3
AmiServices
 90
     1024
 91
        1
280
     0
281
     0
  0
CLASS
  1
AMGSETTINGSOBJ
  2
AmgSettingsObj
  3
"AcadM|Product Description: AutoCAD Mechanical|Company: Autodesk, Inc."
 90
     1024
 91
        2
280
     0
281
     0
  0
CLASS
  1
ACMDATADICTIONARY
  2
AcmDataDictionary
  3
"AcmSymBB|Product Description: AutoCAD Mechanical|Company: Autodesk, Inc."
 90
     1024
 91
        1
280
     0
281
     0
  0
CLASS
  1
ACMDATAENTRYBLOCK
  2
AcmDataEntryBlock
  3
AcmSymBB|Product Description: AutoCAD Mechanical|Company: Autodesk, Inc.
 90
     1024
 91
        0
280
     0
281
     0
  0
CLASS
  1
ACIMSTRSYSVAR
  2
AcImStrSysVar
  3
AcMeServices
 90
     1024
 91
        5
280
     0
281
     0
  0
CLASS
  1
ACMSTANDARDDIN
  2
AcmStandardDIN
  3
"Amdt_StdImp|Product Description: AutoCAD Mechanical|Company: Autodesk, Inc."
 90
     1024
 91
        1
280
     0
281
     0
  0
CLASS
  1
AMGOBJPROPCFG
  2
AmgObjPropCfg
  3
"AmgLay|Product Description: AutoCAD Mechanical|Company: Autodesk, Inc."
 90
     1025
 91
        1
280
     0
281
     0
  0
CLASS
  1
AMDTEDGESTANDARDDIN
  2
AmdtEdgeStdDIN
  3
"Amdt_StdImp|Product Description: AutoCAD Mechanical|Company: Autodesk, Inc."
 90
     1024
 91
        0
280
     0
281
     0
  0
CLASS
  1
ACMSURFSTANDARDDIN
  2
AcmSurfTextStdDIN
  3
"Amdt_StdImp|Product Description: AutoCAD Mechanical|Company: Autodesk, Inc."
 90
     1024
 91
        0
280
     0
281
     0
  0
CLASS
  1
ACMFCFSTANDARDDIN
  2
AcmFCFStdDIN
  3
"Amdt_StdImp|Product Description: AutoCAD Mechanical|Company: Autodesk, Inc."
 90
     1024
 91
        1
280
     0
281
     0
  0
CLASS
  1
ACMWELDSTANDARDDIN
  2
AcmWeldingStdDIN
  3
"Amdt_StdImp|Product Description: AutoCAD Mechanical|Company: Autodesk, Inc."
 90
     1024
 91
        1
280
     0
281
     0
  0
CLASS
  1
ACMIDSTANDARDDIN
  2
AcmIdStdDIN
  3
"Amdt_StdImp|Product Description: AutoCAD Mechanical|Company: Autodesk, Inc."
 90
     1024
 91
        1
280
     0
281
     0
  0
CLASS
  1
ACMDATUMSTANDARDDIN
  2
AcmDatumStdDIN
  3
"Amdt_StdImp|Product Description: AutoCAD Mechanical|Company: Autodesk, Inc."
 90
     1024
 91
        1
280
     0
281
     0
  0
CLASS
  1
ACMBOMSTANDARDDIN
  2
AcmBOMStdDIN
  3
"Amdt_StdImp|Product Description: AutoCAD Mechanical|Company: Autodesk, Inc."
 90
     1024
 91
        1
280
     0
281
     0
  0
CLASS
  1
ACMDETAILSTANDARDDIN
  2
AmdtDetailSymStdDIN
  3
"Amdt_StdImp|Product Description: AutoCAD Mechanical|Company: Autodesk, Inc."
 90
     1024
 91
        1
280
     0
281
     0
  0
CLASS
  1
ACMSECTIONSTANDARDDIN
  2
AmdtSectionSymStdDIN
  3
"Amdt_StdImp|Product Description: AutoCAD Mechanical|Company: Autodesk, Inc."
 90
     1024
 91
        1
280
     0
281
     0
  0
CLASS
  1
ACMCENTERLINESTANDARDDIN
  2
AmdtCenterLineStdDIN
  3
"Amdt_StdImp|Product Description: AutoCAD Mechanical|Company: Autodesk, Inc."
 90
     1024
 91
        1
280
     0
281
     0
  0
CLASS
  1
ACMNOTESTANDARDDIN
  2
AmdtNoteStdDIN
  3
"Amdt_StdImp|Product Description: AutoCAD Mechanical|Company: Autodesk, Inc."
 90
     1024
 91
        1
280
     0
281
     0
  0
CLASS
  1
ACAMGLAYSTD
  2
AcAmgLayStd
  3
"AmgLay|Product Description: AutoCAD Mechanical|Company: Autodesk, Inc."
 90
     1024
 91
        1
280
     0
281
     0
  0
CLASS
  1
ACAMGDIMSTD
  2
AcAmgDimStd
  3
"AmgDim|Product Description: AutoCAD Mechanical|Company: Autodesk, Inc."
 90
     1024
 91
        1
280
     0
281
     0
  0
CLASS
  1
ACAMGHOLECHARTSTDDIN
  2
AcAmgHoleChartStdDIN
  3
AmgDim|Product Description: AutoCAD Mechanical|Company: Autodesk, Inc.
 90
     1024
 91
        1
280
     0
281
     0
  0
CLASS
  1
ACAMGTITLESTD
  2
AcAmgTitleStd
  3
"AmgTitle|Product Description: AutoCAD Mechanical|Company: Autodesk, Inc."
 90
     4095
 91
        1
280
     0
281
     0
  0
CLASS
  1
LAYER_INDEX
  2
AcDbLayerIndex
  3
ObjectDBX Classes
 90
        0
 91
        0
280
     0
281
     0
  0
CLASS
  1
IDBUFFER
  2
AcDbIdBuffer
  3
ObjectDBX Classes
 90
        0
 91
        0
280
     0
281
     0
  0
CLASS
  1
DICTIONARYVAR
  2
AcDbDictionaryVar
  3
ObjectDBX Classes
 90
        0
 91
       10
280
     0
281
     0
  0
CLASS
  1
ACAMGFILTERDAT
  2
AcAmgFilterDat
  3
"AcadM|Product Description: AutoCAD Mechanical|Company: Autodesk, Inc."
 90
     1024
 91
        0
280
     0
281
     0
  0
CLASS
  1
ACMSTANDARDANSI
  2
AcmStandardANSI
  3
"Amdt_StdImp|Product Description: AutoCAD Mechanical|Company: Autodesk, Inc."
 90
     1024
 91
        0
280
     0
281
     0
  0
CLASS
  1
ACMSURFSTANDARDANSI
  2
AcmSurfTextStdANSI
  3
"Amdt_StdImp|Product Description: AutoCAD Mechanical|Company: Autodesk, Inc."
 90
     1024
 91
        0
280
     0
281
     0
  0
CLASS
  1
ACMFCFSTANDARDANSI
  2
AcmFCFStdANSI
  3
"Amdt_StdImp|Product Description: AutoCAD Mechanical|Company: Autodesk, Inc."
 90
     1024
 91
        0
280
     0
281
     0
  0
CLASS
  1
ACMWELDSTANDARDANSI
  2
AcmWeldingStdANSI
  3
"Amdt_StdImp|Product Description: AutoCAD Mechanical|Company: Autodesk, Inc."
 90
     1024
 91
        0
280
     0
281
     0
  0
CLASS
  1
ACMIDSTANDARDANSI
  2
AcmIdStdANSI
  3
"Amdt_StdImp|Product Description: AutoCAD Mechanical|Company: Autodesk, Inc."
 90
     1024
 91
        0
280
     0
281
     0
  0
CLASS
  1
ACMDATUMSTANDARDANSI
  2
AcmDatumStdANSI
  3
"Amdt_StdImp|Product Description: AutoCAD Mechanical|Company: Autodesk, Inc."
 90
     1024
 91
        0
280
     0
281
     0
  0
CLASS
  1
ACMBOMSTANDARDANSI
  2
AcmBOMStdANSI
  3
"Amdt_StdImp|Product Description: AutoCAD Mechanical|Company: Autodesk, Inc."
 90
     1024
 91
        0
280
     0
281
     0
  0
CLASS
  1
ACMDETAILSTANDARDANSI
  2
AmdtDetailSymStdANSI
  3
"Amdt_StdImp|Product Description: AutoCAD Mechanical|Company: Autodesk, Inc."
 90
     1024
 91
        0
280
     0
281
     0
  0
CLASS
  1
ACMSECTIONSTANDARDANSI
  2
AmdtSectionSymStdANSI
  3
"Amdt_StdImp|Product Description: AutoCAD Mechanical|Company: Autodesk, Inc."
 90
     1024
 91
        0
280
     0
281
     0
  0
CLASS
  1
ACMCENTERLINESTANDARDANSI
  2
AmdtCenterLineStdANSI
  3
"Amdt_StdImp|Product Description: AutoCAD Mechanical|Company: Autodesk, Inc."
 90
     1024
 91
        0
280
     0
281
     0
  0
CLASS
  1
ACMNOTESTANDARDANSI
  2
AmdtNoteStdANSI
  3
"Amdt_StdImp|Product Description: AutoCAD Mechanical|Company: Autodesk, Inc."
 90
     1024
 91
        0
280
     0
281
     0
  0
CLASS
  1
ACAMGHOLECHARTSTDANSI
  2
AcAmgHoleChartStdANSI
  3
AmgDim|Product Description: AutoCAD Mechanical|Company: Autodesk, Inc.
 90
     1024
 91
        0
280
     0
281
     0
  0
CLASS
  1
AMDTFORMULAUPDATEDISPATCHER
  2
AmdtFormulaUpdateDispatcher
  3
AcMeServices
 90
     1024
 91
        0
280
     0
281
     0
  0
CLASS
  1
DIMASSOC
  2
AcDbDimAssoc
  3
"AcDbDimAssoc|Product Desc:     AcDim ARX App For Dimension|Company:          Autodesk, Inc.|WEB Address:      www.autodesk.com"
 90
        0
 91
        0
280
     0
281
     0
  0
CLASS
  1
MATERIAL
  2
AcDbMaterial
  3
ObjectDBX Classes
 90
     1153
 91
        3
280
     0
281
     0
  0
CLASS
  1
VISUALSTYLE
  2
AcDbVisualStyle
  3
ObjectDBX Classes
 90
     4095
 91
       26
280
     0
281
     0
  0
CLASS
  1
TABLESTYLE
  2
AcDbTableStyle
  3
ObjectDBX Classes
 90
     4095
 91
        1
280
     0
281
     0
  0
CLASS
  1
SCALE
  2
AcDbScale
  3
ObjectDBX Classes
 90
     1153
 91
       17
280
     0
281
     0
  0
CLASS
  1
MLEADERSTYLE
  2
AcDbMLeaderStyle
  3
ACDB_MLEADERSTYLE_CLASS
 90
     4095
 91
        1
280
     0
281
     0
  0
CLASS
  1
AM_DRAWING_MGR
  2
AcDmDwgMgr
  3
AcMechDwgViewMgmt
 90
     1024
 91
        1
280
     0
281
     0
  0
CLASS
  1
AM_DWG_DOCUMENT
  2
AcDmDwgDocument
  3
AcMechDwgViewMgmt
 90
     1024
 91
        1
280
     0
281
     0
  0
CLASS
  1
AM_DWG_SHEET
  2
AcDmSheet
  3
AcMechDwgViewMgmt
 90
     1024
 91
        2
280
     0
281
     0
  0
CLASS
  1
AM_VIEWDIMPARMAP
  2
AcDmViewDimParMap
  3
AcMechDwgViewMgmt
 90
     1024
 91
        2
280
     0
281
     0
  0
CLASS
  1
AM_DWGMGR_NAME
  2
AcDmDwgMgrName
  3
AcMechDwgViewMgmt
 90
     1024
 91
        1
280
     0
281
     0
  0
CLASS
  1
AMDTMENUSTATEMGR
  2
AmdtMenuStateMgr
  3
McadcomServices
 90
     1024
 91
        1
280
     0
281
     0
  0
CLASS
  1
AMDTMCOMMENUSTATE
  2
AmdtMcomMenuState
  3
McadcomServices
 90
     1024
 91
        1
280
     0
281
     0
  0
CLASS
  1
MAPIAMMOUDLE
  2
MApiAmModule
  3
MApiAmServices
 90
     1024
 91
        1
280
     0
281
     0
  0
CLASS
  1
AMDTADMENUSTATE
  2
AmdtAdMenuState
  3
DesignerServices
 90
     1024
 91
        0
280
     0
281
     0
  0
CLASS
  1
ADAPPL
  2
AcAdAppl
  3
DesignerAssemblies
 90
     1024
 91
        0
280
     0
281
     0
  0
CLASS
  1
DEPMGR
  2
AcAdDepMgr
  3
DesignerAssemblies
 90
     1024
 91
        0
280
     0
281
     0
  0
CLASS
  1
PARAMMGR
  2
AcAdParamMgr
  3
DesignerAssemblies
 90
     1024
 91
        0
280
     0
281
     0
  0
CLASS
  1
PARAMSCOPE
  2
AcAdParamScope
  3
DesignerAssemblies
 90
     1024
 91
        0
280
     0
281
     0
  0
CLASS
  1
NAMEDAPPL
  2
AcAdNamedAppl
  3
DesignerAssemblies
 90
     1024
 91
        0
280
     0
281
     0
  0
CLASS
  1
AMDTDMMENUSTATE
  2
AmdtDmMenuState
  3
AcMechDwgViewMgmt
 90
     1024
 91
        1
280
     0
281
     0
  0
CLASS
  1
AMDTAMMENUSTATE
  2
AmdtAmMenuState
  3
DesignerAssemblies
 90
     1024
 91
        1
280
     0
281
     0
  0
CLASS
  1
ACAMPROJECT
  2
AcAmProject
  3
DesignerAssemblies
 90
     1024
 91
        1
280
     0
281
     0
  0
CLASS
  1
ACAMGRCOMPDEF
  2
AcAmGrCompDef
  3
DesignerAssemblies
 90
     1024
 91
        1
280
     0
281
     0
  0
CLASS
  1
ACCMCONTEXT
  2
AcCmContext
  3
DesignerAssemblies
 90
     1024
 91
        0
280
     0
281
     0
  0
CLASS
  1
ACAMCOMPDEF
  2
AcAmCompDef
  3
DesignerAssemblies
 90
     1024
 91
        1
280
     0
281
     0
  0
CLASS
  1
ACAMCOMPDEFMGR
  2
AcAmCompDefMgr
  3
DesignerAssemblies
 90
     1024
 91
        1
280
     0
281
     0
  0
CLASS
  1
AMCONTEXTMGR
  2
AcAmContextMgr
  3
DesignerAssemblies
 90
     1024
 91
        1
280
     0
281
     0
  0
CLASS
  1
ACAMCONTEXTMODELER
  2
AcAmContextModeler
  3
DesignerAssemblies
 90
     1024
 91
        1
280
     0
281
     0
  0
CLASS
  1
ACRFATTGENMGR
  2
AcRfAttGeneralMgr
  3
AcAttribServices
 90
     1024
 91
        0
280
     0
281
     0
  0
CLASS
  1
ACRFOBJATTMGR
  2
AcRfObjAttGroupMgr
  3
AcAttribServices
 90
     1024
 91
        0
280
     0
281
     0
  0
CLASS
  1
ACRFMCADAPIATTHOLDER
  2
AcRfMCADAPIAttHolder
  3
AcAttribServices
 90
     1024
 91
        0
280
     0
281
     0
  0
CLASS
  1
AMDTSYSATTR
  2
AmdtSystemAttribute
  3
AcAttribServices
 90
     1024
 91
        0
280
     0
281
     0
  0
CLASS
  1
ACMTHREADLINESTANDARDDIN
  2
AmdtThreadLineStdDIN
  3
"Amdt_StdImp|Product Description: AutoCAD Mechanical|Company: Autodesk, Inc."
 90
     1024
 91
        1
280
     0
281
     0
  0
CLASS
  1
ACMTAPERSTANDARDDIN
  2
AcmTaperStdDIN
  3
"Amdt_StdImp|Product Description: AutoCAD Mechanical|Company: Autodesk, Inc."
 90
     1024
 91
        1
280
     0
281
     0
  0
CLASS
  1
ACMANOOTATIONVIEWSTANDARDDIN
  2
AmdtAnViewStdDIN
  3
"Amdt_StdImp|Product Description: AutoCAD Mechanical|Company: Autodesk, Inc."
 90
     1024
 91
        1
280
     0
281
     0
  0
CLASS
  1
ACMTHREADLINESTANDARDANSI
  2
AmdtThreadLineStdANSI
  3
"Amdt_StdImp|Product Description: AutoCAD Mechanical|Company: Autodesk, Inc."
 90
     1024
 91
        0
280
     0
281
     0
  0
CLASS
  1
ACMTAPERSTANDARDANSI
  2
AcmTaperStdANSI
  3
"Amdt_StdImp|Product Description: AutoCAD Mechanical|Company: Autodesk, Inc."
 90
     1024
 91
        0
280
     0
281
     0
  0
CLASS
  1
ACMANOOTATIONVIEWSTANDARDANSI
  2
AmdtAnViewStdANSI
  3
"Amdt_StdImp|Product Description: AutoCAD Mechanical|Company: Autodesk, Inc."
 90
     1024
 91
        0
280
     0
281
     0
  0
CLASS
  1
CATALOGSTATE
  2
AcAmCatalogState
  3
DesignerAssemblies
 90
     1024
 91
        0
280
     0
281
     0
  0
CLASS
  1
ACAMGRCOMPDEFSET
  2
AcAmGrCompDefSet
  3
DesignerAssemblies
 90
     1024
 91
        1
280
     0
281
     0
  0
CLASS
  1
AMDTBROWSERDBTAB
  2
AmdtBrowserDbTab
  3
McadcomServices
 90
     1024
 91
        1
280
     0
281
     0
  0
CLASS
  1
CBROWSERAPPOBJECT
  2
CBrowserAppObject
  3
McadcomServices
 90
     1024
 91
        2
280
     0
281
     0
  0
CLASS
  1
DM_PLACEHOLDER
  2
AcDmSelsetPlaceholder
  3
AcMechDwgViewMgmt
 90
     1024
 91
        1
280
     0
281
     0
  0
CLASS
  1
SORTENTSTABLE
  2
AcDbSortentsTable
  3
ObjectDBX Classes
 90
        0
 91
        1
280
     0
281
     0
  0
CLASS
  1
CAMSSTRUCTBTNSTATE
  2
StructBtnState
  3
DesignerAssemblies
 90
     1024
 91
        0
280
     0
281
     0
  0
CLASS
  1
CELLSTYLEMAP
  2
AcDbCellStyleMap
  3
ObjectDBX Classes
 90
     1152
 91
        3
280
     0
281
     0
  0
CLASS
  1
AMDTEDGESTANDARDDIN13715
  2
AmdtEdgeStdDIN13715
  3
"Amdt_StdImp|Product Description: AutoCAD Mechanical|Company: Autodesk, Inc."
 90
     1024
 91
        1
280
     0
281
     0
  0
CLASS
  1
ACMSURFSTANDARDDIN2002
  2
AcmSurfTextStdDIN2002
  3
"Amdt_StdImp|Product Description: AutoCAD Mechanical|Company: Autodesk, Inc."
 90
     1024
 91
        1
280
     0
281
     0
  0
CLASS
  1
AMDTNOTETEMPLATEDB
  2
AmdtNoteTemplateDB
  3
AcmSymBB|Product Description: AutoCAD Mechanical|Company: Autodesk, Inc.
 90
     1024
 91
        6
280
     0
281
     0
  0
CLASS
  1
AEC_REFEDIT_STATUS_TRACKER
  2
AecDbRefEditStatusTracker
  3
AecArchBase60|Product Desc: Autodesk Architectural Desktop 2007 |Company: Autodesk,Inc. |WEB Address: www.autodesk.com
 90
      129
 91
        0
280
     0
281
     0
  0
CLASS
  1
NPOCOLLECTION
  2
AcDbImpNonPersistentObjectsCollection
  3
ObjectDBX Classes
 90
     1153
 91
        0
280
     0
281
     0
  0
ENDSEC
  0
SECTION
  2
TABLES
  0
TABLE
  2
VPORT
  5
8
102
{ACAD_XDICTIONARY
360
3C5C
102
}
330
0
100
AcDbSymbolTable
 70
     1
  0
VPORT
  5
3AB9
330
8
100
AcDbSymbolTableRecord
100
AcDbViewportTableRecord
  2
*Active
 70
     0
 10
0.0
 20
0.0
 11
1.0
 21
1.0
 12
-300.4703017124971
 22
-11.99429638359132
 13
0.0
 23
0.0
 14
2.5
 24
2.5
 15
10.0
 25
10.0
 16
0.0
 26
0.0
 36
1.0
 17
0.0
 27
0.0
 37
0.0
 40
464.7522990246327
 41
2.270321361058601
 42
50.0
 43
0.0
 44
0.0
 50
0.0
 51
0.0
 71
     0
 72
   100
 73
     1
 74
     3
 75
     0
 76
     0
 77
     0
 78
     0
281
     0
 65
     1
110
0.0
120
0.0
130
0.0
111
1.0
121
0.0
131
0.0
112
0.0
122
1.0
132
0.0
 79
     0
146
0.0
  0
ENDTAB
  0
TABLE
  2
LTYPE
  5
5
330
0
100
AcDbSymbolTable
 70
    23
  0
LTYPE
  5
14
330
5
100
AcDbSymbolTableRecord
100
AcDbLinetypeTableRecord
  2
ByBlock
 70
     0
  3

 72
    65
 73
     0
 40
0.0
  0
LTYPE
  5
15
330
5
100
AcDbSymbolTableRecord
100
AcDbLinetypeTableRecord
  2
ByLayer
 70
     0
  3

 72
    65
 73
     0
 40
0.0
  0
LTYPE
  5
16
330
5
100
AcDbSymbolTableRecord
100
AcDbLinetypeTableRecord
  2
Continuous
 70
     0
  3
Solid line
 72
    65
 73
     0
 40
0.0
  0
LTYPE
  5
50
330
5
100
AcDbSymbolTableRecord
100
AcDbLinetypeTableRecord
  2
Amconstr
 70
     0
  3
_______________________
 72
    65
 73
     2
 40
9999.0
 49
9999.0
 74
     0
 49
0.0
 74
     0
  0
LTYPE
  5
55
330
5
100
AcDbSymbolTableRecord
100
AcDbLinetypeTableRecord
  2
Amzigzag
 70
     0
  3
/\/-/\/-/\/-/\/-/\/-/\/
 72
    65
 73
     2
 40
11.0001
 49
0.0001
 74
     4
 75
   135
340
54
 46
0.04
 50
0.0
 44
0.0
 45
0.0
 49
-11.0
 74
     0
  0
LTYPE
  5
56
330
5
100
AcDbSymbolTableRecord
100
AcDbLinetypeTableRecord
  2
AM_DIN_F_W050
 70
     0
  3
__ __ __ __ __ __ __ __ __ __ __ __ __ __ __
 72
    65
 73
     2
 40
6.25
 49
4.75
 74
     0
 49
-1.5
 74
     0
  0
LTYPE
  5
57
330
5
100
AcDbSymbolTableRecord
100
AcDbLinetypeTableRecord
  2
AM_DIN_G_W050
 70
     0
  3
____ . ____ . ____ . ____ . ____ . ____ . ____
 72
    65
 73
     4
 40
13.75
 49
9.75
 74
     0
 49
-1.5
 74
     0
 49
1.0
 74
     0
 49
-1.5
 74
     0
  0
LTYPE
  5
58
330
5
100
AcDbSymbolTableRecord
100
AcDbLinetypeTableRecord
  2
AM_DIN_K_W050
 70
     0
  3
_____ . . _____ . . _____ . . ____ .. ____
 72
    65
 73
     6
 40
16.25
 49
9.75
 74
     0
 49
-1.5
 74
     0
 49
1.0
 74
     0
 49
-1.5
 74
     0
 49
1.0
 74
     0
 49
-1.5
 74
     0
  0
LTYPE
  5
59
330
5
100
AcDbSymbolTableRecord
100
AcDbLinetypeTableRecord
  2
AM_DIN_G_W050x2
 70
     0
  3
__ . __ . __ . __ . __ . __
 72
    65
 73
     4
 40
6.875
 49
4.75
 74
     0
 49
-0.875
 74
     0
 49
0.375
 74
     0
 49
-0.875
 74
     0
  0
LTYPE
  5
5A
330
5
100
AcDbSymbolTableRecord
100
AcDbLinetypeTableRecord
  2
AM_DIN_F_W050x2
 70
     0
  3
 _ _ _ _ _ _ _ _ _ _ _ _
 72
    65
 73
     2
 40
3.125
 49
2.25
 74
     0
 49
-0.875
 74
     0
  0
LTYPE
  5
68
330
5
100
AcDbSymbolTableRecord
100
AcDbLinetypeTableRecord
  2
ACDINWELD
 70
     0
  3
_ _ _ _ _
 72
    65
 73
     2
 40
2.0
 49
2.0
 74
     0
 49
-1.0
 74
     0
  0
LTYPE
  5
69
330
5
100
AcDbSymbolTableRecord
100
AcDbLinetypeTableRecord
  2
ACDINTGB
 70
     0
  3
__ . . __ . .
 72
    65
 73
     6
 40
9.0
 49
4.0
 74
     0
 49
-1.0
 74
     0
 49
1.0
 74
     0
 49
-1.0
 74
     0
 49
1.0
 74
     0
 49
-1.0
 74
     0
  0
LTYPE
  5
6A
330
5
100
AcDbSymbolTableRecord
100
AcDbLinetypeTableRecord
  2
ACDINTGL
 70
     0
  3
_ _ _ _ _
 72
    65
 73
     2
 40
3.0
 49
2.0
 74
     0
 49
-1.0
 74
     0
  0
LTYPE
  5
6C
330
5
100
AcDbSymbolTableRecord
100
AcDbLinetypeTableRecord
  2
CENTER
 70
     0
  3
__ . __
 72
    65
 73
     4
 40
7.0
 49
4.0
 74
     0
 49
-1.0
 74
     0
 49
1.0
 74
     0
 49
-1.0
 74
     0
  0
LTYPE
  5
33D
330
5
100
AcDbSymbolTableRecord
100
AcDbLinetypeTableRecord
  2
PHANTOM2
 70
     0
  3
Phantom (.5x) ___ _ _ ___ _ _ ___ _ _ ___ _ _
 72
    65
 73
     6
 40
1.25
 49
0.625
 74
     0
 49
-0.125
 74
     0
 49
0.125
 74
     0
 49
-0.125
 74
     0
 49
0.125
 74
     0
 49
-0.125
 74
     0
  0
LTYPE
  5
341
330
5
100
AcDbSymbolTableRecord
100
AcDbLinetypeTableRecord
  2
ACANSTGB
 70
     0
  3
__ . . __ . .
 72
    65
 73
     6
 40
0.35433070866
 49
0.15748031496
 74
     0
 49
-0.03937007874
 74
     0
 49
0.03937007874
 74
     0
 49
-0.03937007874
 74
     0
 49
0.03937007874
 74
     0
 49
-0.03937007874
 74
     0
  0
LTYPE
  5
342
330
5
100
AcDbSymbolTableRecord
100
AcDbLinetypeTableRecord
  2
ACANSTGL
 70
     0
  3
_ _ _ _ _
 72
    65
 73
     2
 40
0.11811023622
 49
0.07874015748
 74
     0
 49
-0.03937007874
 74
     0
  0
LTYPE
  5
3B2A
330
5
100
AcDbSymbolTableRecord
100
AcDbLinetypeTableRecord
  2
HIDDEN
 70
     0
  3
Verdeckt
 72
    65
 73
     2
 40
9.525
 49
6.349999999999999
 74
     0
 49
-3.174999999999999
 74
     0
  0
LTYPE
  5
3CDD
330
5
100
AcDbSymbolTableRecord
100
AcDbLinetypeTableRecord
  2
AM_ISO02W050
 70
     0
  3
__ __ __ __ __ __ __ __ __ __ __ __ __ __ __
 72
    65
 73
     2
 40
7.5
 49
6.0
 74
     0
 49
-1.5
 74
     0
  0
LTYPE
  5
3CDE
330
5
100
AcDbSymbolTableRecord
100
AcDbLinetypeTableRecord
  2
AM_ISO08W050
 70
     0
  3
____ . ____ . ____ . ____ . ____ . ____ . ____
 72
    65
 73
     4
 40
18.0
 49
12.0
 74
     0
 49
-1.5
 74
     0
 49
3.0
 74
     0
 49
-1.5
 74
     0
  0
LTYPE
  5
3CDF
330
5
100
AcDbSymbolTableRecord
100
AcDbLinetypeTableRecord
  2
AM_ISO09W050
 70
     0
  3
_____ . . _____ . . _____ . . ____ .. ____
 72
    65
 73
     6
 40
22.5
 49
12.0
 74
     0
 49
-1.5
 74
     0
 49
3.0
 74
     0
 49
-1.5
 74
     0
 49
3.0
 74
     0
 49
-1.5
 74
     0
  0
LTYPE
  5
3CE0
330
5
100
AcDbSymbolTableRecord
100
AcDbLinetypeTableRecord
  2
AM_ISO08W050x2
 70
     0
  3
__ . __ . __ . __ . __ . __
 72
    65
 73
     4
 40
9.0
 49
6.0
 74
     0
 49
-0.75
 74
     0
 49
1.5
 74
     0
 49
-0.75
 74
     0
  0
LTYPE
  5
3CE1
330
5
100
AcDbSymbolTableRecord
100
AcDbLinetypeTableRecord
  2
AM_ISO02W050x2
 70
     0
  3
 _ _ _ _ _ _ _ _ _ _ _ _
 72
    65
 73
     2
 40
3.75
 49
3.0
 74
     0
 49
-0.75
 74
     0
  0
LTYPE
  5
4923
330
5
100
AcDbSymbolTableRecord
100
AcDbLinetypeTableRecord
  2
CENTER2
 70
     0
  3
Center (.5x) ___ _ ___ _ ___ _ ___ _ ___ _ ___
 72
    65
 73
     4
 40
1.125
 49
0.75
 74
     0
 49
-0.125
 74
     0
 49
0.125
 74
     0
 49
-0.125
 74
     0
  0
ENDTAB
  0
TABLE
  2
LAYER
  5
2
102
{ACAD_XDICTIONARY
360
4023
102
}
330
0
100
AcDbSymbolTable
 70
     1
  0
LAYER
  5
10
102
{ACAD_XDICTIONARY
360
3B84
102
}
330
2
100
AcDbSymbolTableRecord
100
AcDbLayerTableRecord
  2
0
 70
     0
 62
     7
  6
Continuous
370
    -3
390
F
  0
ENDTAB
  0
TABLE
  2
STYLE
  5
3
330
0
100
AcDbSymbolTable
 70
     7
  0
STYLE
  5
11
330
3
100
AcDbSymbolTableRecord
100
AcDbTextStyleTableRecord
  2
STANDARD
 70
     0
 40
0.0
 41
1.0
 50
0.0
 71
     0
 42
2.5
  3
ISOCP.SHX
  4

  0
STYLE
  5
54
330
3
100
AcDbSymbolTableRecord
100
AcDbTextStyleTableRecord
  2

 70
     1
 40
0.0
 41
1.0
 50
0.0
 71
     0
 42
2.5
  3
ltypeshp.shx
  4

  0
STYLE
  5
5B
330
3
100
AcDbSymbolTableRecord
100
AcDbTextStyleTableRecord
  2
ACDINTS
 70
     0
 40
1.0
 41
1.0
 50
0.0
 71
     0
 42
2.5
  3
isocp.shx
  4

  0
STYLE
  5
67
330
3
100
AcDbSymbolTableRecord
100
AcDbTextStyleTableRecord
  2
ACDINGDT
 70
     0
 40
0.0
 41
1.0
 50
0.0
 71
     0
 42
2.5
  3
amgdt.shx
  4

  0
STYLE
  5
343
330
3
100
AcDbSymbolTableRecord
100
AcDbTextStyleTableRecord
  2
ACANSTS
 70
     0
 40
1.0
 41
1.0
 50
0.0
 71
     0
 42
0.2
  3
romans.shx
  4

  0
STYLE
  5
344
330
3
100
AcDbSymbolTableRecord
100
AcDbTextStyleTableRecord
  2
ACANSGDT
 70
     0
 40
0.0
 41
1.0
 50
0.0
 71
     0
 42
0.2
  3
amgdtans.shx
  4

  0
STYLE
  5
4015
330
3
100
AcDbSymbolTableRecord
100
AcDbTextStyleTableRecord
  2

 70
     1
 40
0.0
 41
1.0
 50
0.0
 71
     0
 42
0.2
  3
genltshp.shx
  4

  0
ENDTAB
  0
TABLE
  2
VIEW
  5
6
330
0
100
AcDbSymbolTable
 70
     1
  0
ENDTAB
  0
TABLE
  2
UCS
  5
7
330
0
100
AcDbSymbolTable
 70
     0
  0
ENDTAB
  0
TABLE
  2
APPID
  5
9
330
0
100
AcDbSymbolTable
 70
    20
  0
APPID
  5
12
330
9
100
AcDbSymbolTableRecord
100
AcDbRegAppTableRecord
  2
ACAD
 70
     0
  0
APPID
  5
2C
330
9
100
AcDbSymbolTableRecord
100
AcDbRegAppTableRecord
  2
MCAD_NO_VIS
 70
     0
  0
APPID
  5
2D
330
9
100
AcDbSymbolTableRecord
100
AcDbRegAppTableRecord
  2
ACAD_TEMP_GRAPHIC
 70
     0
  0
APPID
  5
3E
330
9
100
AcDbSymbolTableRecord
100
AcDbRegAppTableRecord
  2
ACATTRIBSERVICES
 70
     0
  0
APPID
  5
3A3E
330
9
100
AcDbSymbolTableRecord
100
AcDbRegAppTableRecord
  2
DCO15
 70
     0
  0
APPID
  5
3AFC
330
9
100
AcDbSymbolTableRecord
100
AcDbRegAppTableRecord
  2
ACAD_MLEADERVER
 70
     0
  0
APPID
  5
3B2C
330
9
100
AcDbSymbolTableRecord
100
AcDbRegAppTableRecord
  2
AD_DRAW
 70
     0
  0
APPID
  5
3B4B
330
9
100
AcDbSymbolTableRecord
100
AcDbRegAppTableRecord
  2
DESIGNERASSEMBLIES
 70
     0
  0
APPID
  5
3B5A
330
9
100
AcDbSymbolTableRecord
100
AcDbRegAppTableRecord
  2
ACADM_DIM_EDIT
 70
     0
  0
APPID
  5
3B5B
330
9
100
AcDbSymbolTableRecord
100
AcDbRegAppTableRecord
  2
AMDT_DM_ADJ
 70
     0
  0
APPID
  5
3B76
330
9
100
AcDbSymbolTableRecord
100
AcDbRegAppTableRecord
  2
ACAD_EXEMPT_FROM_CAD_STANDARDS
 70
     0
  0
APPID
  5
3BA8
330
9
100
AcDbSymbolTableRecord
100
AcDbRegAppTableRecord
  2
GENIUS_GENODEF_13
 70
     0
  0
APPID
  5
3BA9
330
9
100
AcDbSymbolTableRecord
100
AcDbRegAppTableRecord
  2
GENIUS_GENOBJ-N-FIL_13
 70
     0
  0
APPID
  5
3CF0
330
9
100
AcDbSymbolTableRecord
100
AcDbRegAppTableRecord
  2
ACAD_DSTYLE_DIMJOGGED_JOGANGLE_SYMBOL
 70
     0
  0
APPID
  5
3CF1
330
9
100
AcDbSymbolTableRecord
100
AcDbRegAppTableRecord
  2
ACAD_DSTYLE_DIM_LINETYPE
 70
     0
  0
APPID
  5
3CF2
330
9
100
AcDbSymbolTableRecord
100
AcDbRegAppTableRecord
  2
ACAD_DSTYLE_DIM_EXT1_LINETYPE
 70
     0
  0
APPID
  5
3CF3
330
9
100
AcDbSymbolTableRecord
100
AcDbRegAppTableRecord
  2
ACAD_DSTYLE_DIM_EXT2_LINETYPE
 70
     0
  0
APPID
  5
3F8E
330
9
100
AcDbSymbolTableRecord
100
AcDbRegAppTableRecord
  2
ACAD_DSTYLE_DIMBREAK
 70
     0
  0
APPID
  5
3F8F
330
9
100
AcDbSymbolTableRecord
100
AcDbRegAppTableRecord
  2
ACAD_DSTYLE_DIMJAG
 70
     0
  0
APPID
  5
4924
330
9
100
AcDbSymbolTableRecord
100
AcDbRegAppTableRecord
  2
ACAD_PSEXT
 70
     0
  0
ENDTAB
  0
TABLE
  2
DIMSTYLE
  5
A
330
0
100
AcDbSymbolTable
 70
    15
100
AcDbDimStyleTable
 71
     1
340
6F
  0
DIMSTYLE
105
6F
102
{ACAD_REACTORS
330
4B5C
102
}
330
A
100
AcDbSymbolTableRecord
100
AcDbDimStyleTableRecord
  2
AM_DIN
 70
     0
  4
"
 41
3.5
 42
1.0
 43
10.0
 44
1.0
 47
0.1
 48
0.1
 73
     0
 74
     0
 77
     1
 78
     8
 79
     2
140
3.5
141
0.0
143
0.0393701
146
0.71
147
1.5
172
     1
176
   256
177
   256
178
   140
271
     2
272
     3
274
     4
283
     0
284
     8
340
11
371
    -1
372
    -1
1001
ACAD_DSTYLE_DIMJOGGED_JOGANGLE_SYMBOL
1070
   384
1040
1.570796326794896
1001
ACAD_DSTYLE_DIM_LINETYPE
1070
   380
1005
14
1001
ACAD_DSTYLE_DIM_EXT1_LINETYPE
1070
   381
1005
14
1001
ACAD_DSTYLE_DIM_EXT2_LINETYPE
1070
   382
1005
14
  0
DIMSTYLE
105
70
330
A
100
AcDbSymbolTableRecord
100
AcDbDimStyleTableRecord
  2
AM_DIN$3
 70
     0
  4
"
 41
3.5
 42
1.0
 43
10.0
 44
1.0
 47
0.1
 48
0.1
 73
     0
 77
     1
 78
     8
 79
     2
140
3.5
141
0.0
143
0.0393701
146
0.71
147
1.5
176
   256
177
   256
178
   140
271
     2
272
     3
274
     4
283
     0
284
     8
288
     1
289
     0
340
11
371
    -1
372
    -1
1001
ACAD_DSTYLE_DIMJOGGED_JOGANGLE_SYMBOL
1070
   384
1040
1.570796326794896
1001
ACAD_DSTYLE_DIM_LINETYPE
1070
   380
1005
14
1001
ACAD_DSTYLE_DIM_EXT1_LINETYPE
1070
   381
1005
14
1001
ACAD_DSTYLE_DIM_EXT2_LINETYPE
1070
   382
1005
14
  0
DIMSTYLE
105
71
330
A
100
AcDbSymbolTableRecord
100
AcDbDimStyleTableRecord
  2
AM_DIN$4
 70
     0
  4
"
 41
3.5
 42
1.0
 43
10.0
 44
1.0
 47
0.1
 48
0.1
 73
     0
 74
     0
 77
     1
 78
     8
 79
     2
140
3.5
141
0.0
143
0.0393701
146
0.71
147
1.5
172
     1
176
   256
177
   256
178
   140
271
     2
272
     3
274
     4
283
     0
284
     8
340
11
371
    -1
372
    -1
1001
ACAD_DSTYLE_DIMJOGGED_JOGANGLE_SYMBOL
1070
   384
1040
1.570796326794896
1001
ACAD_DSTYLE_DIM_LINETYPE
1070
   380
1005
14
1001
ACAD_DSTYLE_DIM_EXT1_LINETYPE
1070
   381
1005
14
1001
ACAD_DSTYLE_DIM_EXT2_LINETYPE
1070
   382
1005
14
  0
DIMSTYLE
105
72
330
A
100
AcDbSymbolTableRecord
100
AcDbDimStyleTableRecord
  2
AM_DIN$6
 70
     0
  4
"
 41
3.5
 42
1.0
 43
10.0
 44
1.0
 47
0.1
 48
0.1
 73
     0
 74
     0
 78
     8
 79
     2
140
3.5
141
0.0
143
0.0393701
146
0.71
147
1.5
172
     1
176
   256
177
   256
178
   140
271
     2
272
     3
274
     4
283
     0
284
     8
340
11
371
    -1
372
    -1
1001
ACAD_DSTYLE_DIMJOGGED_JOGANGLE_SYMBOL
1070
   384
1040
1.570796326794896
1001
ACAD_DSTYLE_DIM_LINETYPE
1070
   380
1005
14
1001
ACAD_DSTYLE_DIM_EXT1_LINETYPE
1070
   381
1005
14
1001
ACAD_DSTYLE_DIM_EXT2_LINETYPE
1070
   382
1005
14
  0
DIMSTYLE
105
73
330
A
100
AcDbSymbolTableRecord
100
AcDbDimStyleTableRecord
  2
AM_DIN$7
 70
     0
  4
"
 41
3.5
 42
1.0
 43
10.0
 44
1.0
 47
0.1
 48
0.1
 73
     0
 74
     0
 77
     1
 78
     8
 79
     2
140
3.5
141
0.0
143
0.0393701
146
0.71
147
1.5
172
     1
176
   256
177
   256
178
   140
271
     2
272
     3
274
     4
283
     0
284
     8
340
11
371
    -1
372
    -1
1001
ACAD_DSTYLE_DIMJOGGED_JOGANGLE_SYMBOL
1070
   384
1040
1.570796326794896
1001
ACAD_DSTYLE_DIM_LINETYPE
1070
   380
1005
14
1001
ACAD_DSTYLE_DIM_EXT1_LINETYPE
1070
   381
1005
14
1001
ACAD_DSTYLE_DIM_EXT2_LINETYPE
1070
   382
1005
14
  0
DIMSTYLE
105
74
330
A
100
AcDbSymbolTableRecord
100
AcDbDimStyleTableRecord
  2
AM_DIN$SF
 70
     0
  4
"
 41
3.5
 42
1.0
 43
10.0
 44
1.0
 47
0.1
 48
0.1
 73
     0
 74
     0
 75
     1
 76
     1
 77
     1
 78
     8
 79
     2
140
3.5
141
0.0
143
0.0393701
146
0.71
147
1.5
172
     1
176
   256
177
   256
178
   140
271
     2
272
     3
274
     4
283
     0
284
     8
340
11
371
    -1
372
    -1
1001
ACAD_DSTYLE_DIMJOGGED_JOGANGLE_SYMBOL
1070
   384
1040
1.570796326794896
1001
ACAD_DSTYLE_DIM_LINETYPE
1070
   380
1005
14
1001
ACAD_DSTYLE_DIM_EXT1_LINETYPE
1070
   381
1005
14
1001
ACAD_DSTYLE_DIM_EXT2_LINETYPE
1070
   382
1005
14
  0
DIMSTYLE
105
79
330
A
100
AcDbSymbolTableRecord
100
AcDbDimStyleTableRecord
  2
AM_DIN$SH
 70
     0
  4
"
 41
3.5
 42
1.0
 43
10.0
 44
1.0
 47
0.1
 48
0.1
 73
     0
 74
     0
 75
     1
 76
     1
 77
     1
 78
     8
 79
     2
140
3.5
141
0.0
143
0.0393701
144
2.0
146
0.71
147
1.5
172
     1
173
     1
176
   256
177
   256
178
   140
271
     2
272
     3
274
     4
283
     0
284
     8
340
11
343
75
371
    -1
372
    -1
1001
ACAD_DSTYLE_DIMJOGGED_JOGANGLE_SYMBOL
1070
   384
1040
1.570796326794896
1001
ACAD_DSTYLE_DIM_LINETYPE
1070
   380
1005
14
1001
ACAD_DSTYLE_DIM_EXT1_LINETYPE
1070
   381
1005
14
1001
ACAD_DSTYLE_DIM_EXT2_LINETYPE
1070
   382
1005
14
  0
DIMSTYLE
105
92
330
A
100
AcDbSymbolTableRecord
100
AcDbDimStyleTableRecord
  2
STANDARD
 70
     0
279
     2
340
11
  0
DIMSTYLE
105
345
330
A
100
AcDbSymbolTableRecord
100
AcDbDimStyleTableRecord
  2
AM_ANSI
 70
     0
  4
mm
 41
0.1
 42
0.05
 43
0.5
 44
0.1
 47
0.1
 48
0.1
 78
     7
 79
     2
140
0.12
141
0.0
146
0.71
147
0.06
176
   256
177
   256
178
     2
274
     4
284
     7
340
11
371
    -1
372
    -1
  0
DIMSTYLE
105
346
330
A
100
AcDbSymbolTableRecord
100
AcDbDimStyleTableRecord
  2
AM_ANSI$3
 70
     0
  4
mm
 41
0.1
 42
0.05
 43
0.5
 44
0.1
 47
0.1
 48
0.1
 78
     7
 79
     2
140
0.12
141
0.0
146
0.71
147
0.06
176
   256
177
   256
178
     2
274
     4
284
     7
288
     1
289
     0
340
11
371
    -1
372
    -1
  0
DIMSTYLE
105
347
330
A
100
AcDbSymbolTableRecord
100
AcDbDimStyleTableRecord
  2
AM_ANSI$4
 70
     0
  4
mm
 41
0.1
 42
0.05
 43
0.5
 44
0.1
 47
0.1
 48
0.1
 78
     7
 79
     2
140
0.12
141
0.0
146
0.71
147
0.06
176
   256
177
   256
178
     2
274
     4
284
     7
288
     1
289
     0
340
11
371
    -1
372
    -1
  0
DIMSTYLE
105
348
330
A
100
AcDbSymbolTableRecord
100
AcDbDimStyleTableRecord
  2
AM_ANSI$7
 70
     0
  4
mm
 41
0.1
 42
0.05
 43
0.5
 44
0.1
 47
0.1
 48
0.1
 78
     7
 79
     2
140
0.24
141
0.0
146
0.71
147
0.06
176
   256
177
   256
178
     2
274
     4
284
     7
340
11
371
    -1
372
    -1
  0
DIMSTYLE
105
349
330
A
100
AcDbSymbolTableRecord
100
AcDbDimStyleTableRecord
  2
AM_ANSI$SF
 70
     0
  4
mm
 41
0.1
 42
0.05
 43
0.5
 44
0.1
 47
0.1
 48
0.1
 75
     1
 76
     1
 78
     7
 79
     2
140
0.12
141
0.0
146
0.71
147
0.06
176
   256
177
   256
178
     2
274
     4
284
     7
340
11
371
    -1
372
    -1
  0
DIMSTYLE
105
34A
330
A
100
AcDbSymbolTableRecord
100
AcDbDimStyleTableRecord
  2
AM_ANSI$SH
 70
     0
  4
mm
 41
0.1
 42
0.05
 43
0.5
 44
0.1
 47
0.1
 48
0.1
 75
     1
 76
     1
 78
     7
 79
     2
140
0.12
141
0.0
146
0.71
147
0.06
173
     1
176
   256
177
   256
178
     2
274
     4
284
     7
340
11
343
75
371
    -1
372
    -1
  0
ENDTAB
  0
TABLE
  2
BLOCK_RECORD
  5
1
330
0
100
AcDbSymbolTable
 70
    29
  0
BLOCK_RECORD
  5
1F
102
{ACAD_XDICTIONARY
360
81
102
}
330
1
100
AcDbSymbolTableRecord
100
AcDbBlockTableRecord
  2
*Model_Space
340
22
  0
BLOCK_RECORD
  5
1B
330
1
100
AcDbSymbolTableRecord
100
AcDbBlockTableRecord
  2
*Paper_Space
340
1E
  0
BLOCK_RECORD
  5
23
330
1
100
AcDbSymbolTableRecord
100
AcDbBlockTableRecord
  2
*Paper_Space0
340
26
  0
BLOCK_RECORD
  5
75
330
1
100
AcDbSymbolTableRecord
100
AcDbBlockTableRecord
  2
GENAXEH
340
0
  0
BLOCK_RECORD
  5
3F9A
330
1
100
AcDbSymbolTableRecord
100
AcDbBlockTableRecord
  2
AI9-BLK55
340
0
  0
BLOCK_RECORD
  5
3F9F
330
1
100
AcDbSymbolTableRecord
100
AcDbBlockTableRecord
  2
AI9-BLK56
340
0
102
{BLKREFS
331
3F9D
102
}
  0
BLOCK_RECORD
  5
3FA3
330
1
100
AcDbSymbolTableRecord
100
AcDbBlockTableRecord
  2
AI9-BLK57
340
0
102
{BLKREFS
331
3FA1
102
}
  0
BLOCK_RECORD
  5
3FA9
330
1
100
AcDbSymbolTableRecord
100
AcDbBlockTableRecord
  2
AI9-BLK58
340
0
102
{BLKREFS
331
3FA7
102
}
  0
BLOCK_RECORD
  5
3FAE
330
1
100
AcDbSymbolTableRecord
100
AcDbBlockTableRecord
  2
AI9-BLK59
340
0
102
{BLKREFS
331
3FAC
102
}
  0
BLOCK_RECORD
  5
3FB3
330
1
100
AcDbSymbolTableRecord
100
AcDbBlockTableRecord
  2
AI9-BLK60
340
0
102
{BLKREFS
331
3FB1
102
}
  0
BLOCK_RECORD
  5
3FB9
330
1
100
AcDbSymbolTableRecord
100
AcDbBlockTableRecord
  2
AI9-BLK61
340
0
102
{BLKREFS
331
3FB7
102
}
  0
BLOCK_RECORD
  5
3FBF
330
1
100
AcDbSymbolTableRecord
100
AcDbBlockTableRecord
  2
AI9-BLK62
340
0
102
{BLKREFS
331
3FB0
102
}
  0
BLOCK_RECORD
  5
3FC4
330
1
100
AcDbSymbolTableRecord
100
AcDbBlockTableRecord
  2
AI9-BLK63
340
0
102
{BLKREFS
331
3FC2
102
}
  0
BLOCK_RECORD
  5
3FC8
330
1
100
AcDbSymbolTableRecord
100
AcDbBlockTableRecord
  2
AI9-BLK64
340
0
102
{BLKREFS
331
3FC6
102
}
  0
BLOCK_RECORD
  5
3FCC
330
1
100
AcDbSymbolTableRecord
100
AcDbBlockTableRecord
  2
AI9-BLK65
340
0
102
{BLKREFS
331
3FC1
102
}
  0
BLOCK_RECORD
  5
3FD0
330
1
100
AcDbSymbolTableRecord
100
AcDbBlockTableRecord
  2
AI9-BLK66
340
0
102
{BLKREFS
331
3FAB
102
}
  0
BLOCK_RECORD
  5
3FD5
330
1
100
AcDbSymbolTableRecord
100
AcDbBlockTableRecord
  2
AI9-BLK67
340
0
102
{BLKREFS
331
3FD3
102
}
  0
BLOCK_RECORD
  5
3FDB
330
1
100
AcDbSymbolTableRecord
100
AcDbBlockTableRecord
  2
AI9-BLK68
340
0
102
{BLKREFS
331
3FD9
102
}
  0
BLOCK_RECORD
  5
3FE1
330
1
100
AcDbSymbolTableRecord
100
AcDbBlockTableRecord
  2
AI9-BLK69
340
0
102
{BLKREFS
331
3FD2
102
}
  0
BLOCK_RECORD
  5
3FE6
330
1
100
AcDbSymbolTableRecord
100
AcDbBlockTableRecord
  2
AI9-BLK70
340
0
102
{BLKREFS
331
3FE4
102
}
  0
BLOCK_RECORD
  5
3FEA
330
1
100
AcDbSymbolTableRecord
100
AcDbBlockTableRecord
  2
AI9-BLK71
340
0
102
{BLKREFS
331
3FE8
102
}
  0
BLOCK_RECORD
  5
3FEE
330
1
100
AcDbSymbolTableRecord
100
AcDbBlockTableRecord
  2
AI9-BLK72
340
0
102
{BLKREFS
331
3FE3
102
}
  0
BLOCK_RECORD
  5
3FF2
330
1
100
AcDbSymbolTableRecord
100
AcDbBlockTableRecord
  2
AI9-BLK73
340
0
102
{BLKREFS
331
3FA6
102
}
  0
BLOCK_RECORD
  5
3FF7
330
1
100
AcDbSymbolTableRecord
100
AcDbBlockTableRecord
  2
AI9-BLK74
340
0
102
{BLKREFS
331
3FF5
102
}
  0
BLOCK_RECORD
  5
3FFC
330
1
100
AcDbSymbolTableRecord
100
AcDbBlockTableRecord
  2
AI9-BLK75
340
0
102
{BLKREFS
331
3FFA
102
}
  0
BLOCK_RECORD
  5
4000
330
1
100
AcDbSymbolTableRecord
100
AcDbBlockTableRecord
  2
AI9-BLK76
340
0
102
{BLKREFS
331
3FA5
102
}
  0
BLOCK_RECORD
  5
4005
330
1
100
AcDbSymbolTableRecord
100
AcDbBlockTableRecord
  2
AI9-BLK77
340
0
102
{BLKREFS
331
4003
102
}
  0
BLOCK_RECORD
  5
400A
330
1
100
AcDbSymbolTableRecord
100
AcDbBlockTableRecord
  2
AI9-BLK78
340
0
102
{BLKREFS
331
4008
102
}
  0
BLOCK_RECORD
  5
400E
330
1
100
AcDbSymbolTableRecord
100
AcDbBlockTableRecord
  2
AI9-BLK79
340
0
102
{BLKREFS
331
3F9C
102
}
  0
ENDTAB
  0
ENDSEC
  0
SECTION
  2
BLOCKS
  0
BLOCK
  5
20
330
1F
100
AcDbEntity
  8
0
100
AcDbBlockBegin
  2
*Model_Space
 70
     0
 10
0.0
 20
0.0
 30
0.0
  3
*Model_Space
  1

  0
ENDBLK
  5
21
330
1F
100
AcDbEntity
  8
0
100
AcDbBlockEnd
  0
BLOCK
  5
1C
330
1B
100
AcDbEntity
 67
     1
  8
0
100
AcDbBlockBegin
  2
*Paper_Space
 70
     0
 10
0.0
 20
0.0
 30
0.0
  3
*Paper_Space
  1

  0
ENDBLK
  5
1D
330
1B
100
AcDbEntity
 67
     1
  8
0
100
AcDbBlockEnd
  0
BLOCK
  5
24
330
23
100
AcDbEntity
 67
     1
  8
0
100
AcDbBlockBegin
  2
*Paper_Space0
 70
     0
 10
0.0
 20
0.0
 30
0.0
  3
*Paper_Space0
  1

  0
ENDBLK
  5
25
330
23
100
AcDbEntity
 67
     1
  8
0
100
AcDbBlockEnd
  0
BLOCK
  5
77
330
75
100
AcDbEntity
  8
0
100
AcDbBlockBegin
  2
GENAXEH
 70
     0
 10
0.0
 20
0.0
 30
0.0
  3
GENAXEH
  1

  0
LINE
  5
76
330
75
100
AcDbEntity
  8
0
100
AcDbLine
 10
-1.0
 20
0.0
 30
0.0
 11
1.0
 21
0.0
 31
0.0
  0
ENDBLK
  5
78
330
75
100
AcDbEntity
  8
0
100
AcDbBlockEnd
  0
BLOCK
  5
3F9B
330
3F9A
100
AcDbEntity
  8
0
 62
     7
100
AcDbBlockBegin
  2
AI9-BLK55
 70
     0
 10
0.0
 20
0.0
 30
0.0
  3
AI9-BLK55
  1

  0
INSERT
  5
3F9C
330
3F9A
100
AcDbEntity
  8
0
 62
     7
100
AcDbBlockReference
  2
AI9-BLK79
 10
-72.99537217881944
 20
0.18603515625
 30
0.0
  0
INSERT
  5
3F9D
330
3F9A
100
AcDbEntity
  8
0
 62
     7
100
AcDbBlockReference
  2
AI9-BLK56
 10
0.0
 20
0.0
 30
0.0
  0
ENDBLK
  5
3F9E
330
3F9A
100
AcDbEntity
  8
0
100
AcDbBlockEnd
  0
BLOCK
  5
3FA0
330
3F9F
100
AcDbEntity
  8
0
 62
     7
100
AcDbBlockBegin
  2
AI9-BLK56
 70
     0
 10
0.0
 20
0.0
 30
0.0
  3
AI9-BLK56
  1

  0
INSERT
  5
3FA1
330
3F9F
100
AcDbEntity
  8
0
 62
     7
100
AcDbBlockReference
  2
AI9-BLK57
 10
0.0
 20
0.0
 30
0.0
  0
ENDBLK
  5
3FA2
330
3F9F
100
AcDbEntity
  8
0
100
AcDbBlockEnd
  0
BLOCK
  5
3FA4
330
3FA3
100
AcDbEntity
  8
0
 62
     7
100
AcDbBlockBegin
  2
AI9-BLK57
 70
     0
 10
0.0
 20
0.0
 30
0.0
  3
AI9-BLK57
  1

  0
INSERT
  5
3FA5
330
3FA3
100
AcDbEntity
  8
0
 62
     7
100
AcDbBlockReference
  2
AI9-BLK76
 10
307.8806043836805
 20
110.2582139756944
 30
0.0
  0
INSERT
  5
3FA6
330
3FA3
100
AcDbEntity
  8
0
 62
     7
100
AcDbBlockReference
  2
AI9-BLK73
 10
273.4551432291667
 20
-0.2845648871527778
 30
0.0
  0
INSERT
  5
3FA7
330
3FA3
100
AcDbEntity
  8
0
 62
     7
100
AcDbBlockReference
  2
AI9-BLK58
 10
0.0
 20
0.0
 30
0.0
  0
ENDBLK
  5
3FA8
330
3FA3
100
AcDbEntity
  8
0
100
AcDbBlockEnd
  0
BLOCK
  5
3FAA
330
3FA9
100
AcDbEntity
  8
0
 62
     7
100
AcDbBlockBegin
  2
AI9-BLK58
 70
     0
 10
0.0
 20
0.0
 30
0.0
  3
AI9-BLK58
  1

  0
INSERT
  5
3FAB
330
3FA9
100
AcDbEntity
  8
0
 62
     7
100
AcDbBlockReference
  2
AI9-BLK66
 10
0.0027560763888889
 20
100.1558159722222
 30
0.0
  0
INSERT
  5
3FAC
330
3FA9
100
AcDbEntity
  8
0
 62
     7
100
AcDbBlockReference
  2
AI9-BLK59
 10
-0.0013780381944444
 20
-100.155126953125
 30
0.0
  0
ENDBLK
  5
3FAD
330
3FA9
100
AcDbEntity
  8
0
100
AcDbBlockEnd
  0
BLOCK
  5
3FAF
330
3FAE
100
AcDbEntity
  8
0
 62
     7
100
AcDbBlockBegin
  2
AI9-BLK59
 70
     0
 10
0.0
 20
0.0
 30
0.0
  3
AI9-BLK59
  1

  0
INSERT
  5
3FB0
330
3FAE
100
AcDbEntity
  8
0
 62
     7
100
AcDbBlockReference
  2
AI9-BLK62
 10
-133.1115993923611
 20
37.9759765625
 30
0.0
  0
INSERT
  5
3FB1
330
3FAE
100
AcDbEntity
  8
0
 62
     7
100
AcDbBlockReference
  2
AI9-BLK60
 10
0.0
 20
0.0
 30
0.0
  0
ENDBLK
  5
3FB2
330
3FAE
100
AcDbEntity
  8
0
100
AcDbBlockEnd
  0
BLOCK
  5
3FB4
330
3FB3
100
AcDbEntity
  8
0
 62
     7
100
AcDbBlockBegin
  2
AI9-BLK60
 70
     0
 10
0.0
 20
0.0
 30
0.0
  3
AI9-BLK60
  1

  0
SPLINE
  5
3FB5
330
3FB3
100
AcDbEntity
  8
0
 62
     7
100
AcDbSpline
210
0.0
220
0.0
230
1.0
 70
     8
 71
     3
 72
    20
 73
    16
 74
     0
 42
0.0000000001
 43
0.0000000001
 40
0.0
 40
0.0
 40
0.0
 40
0.0
 40
1.0
 40
1.0
 40
1.0
 40
2.0
 40
2.0
 40
2.0
 40
3.0
 40
3.0
 40
3.0
 40
4.0
 40
4.0
 40
4.0
 40
5.0
 40
5.0
 40
5.0
 40
5.0
 10
358.030859375
 20
100.1558159722222
 30
0.0
 10
358.030859375
 20
2.692686631944444
 30
0.0
 10
358.0088107638888
 20
-11.97790798611111
 30
0.0
 10
358.0088107638888
 20
-94.78422309027775
 30
0.0
 10
358.0088107638888
 20
-97.36528862847222
 30
0.0
 10
358.030859375
 20
-99.97942708333333
 30
0.0
 10
353.8995008680555
 20
-99.97942708333333
 30
0.0
 10
353.8995008680555
 20
-99.97942708333333
 30
0.0
 10
259.0298394097222
 20
-99.84437934027777
 30
0.0
 10
259.0298394097222
 20
-99.84437934027777
 30
0.0
 10
228.7915473090277
 20
-99.84437934027777
 30
0.0
 10
193.2243815104166
 20
-71.42234157986111
 30
0.0
 10
189.2074001736111
 20
-34.28834635416666
 30
0.0
 10
183.3714084201388
 20
19.6701171875
 30
0.0
 10
182.8133029513888
 20
41.27775607638888
 30
0.0
 10
182.8133029513888
 20
100.1558159722222
 30
0.0
  0
SPLINE
  5
3FB6
330
3FB3
100
AcDbEntity
  8
0
 62
     7
100
AcDbSpline
210
0.0
220
0.0
230
1.0
 70
     8
 71
     3
 72
    11
 73
     7
 74
     0
 42
0.0000000001
 43
0.0000000001
 40
0.0
 40
0.0
 40
0.0
 40
0.0
 40
1.0
 40
1.0
 40
1.0
 40
2.0
 40
2.0
 40
2.0
 40
2.0
 10
217.0575520833333
 20
-83.72271050347221
 30
0.0
 10
217.0575520833333
 20
-83.72271050347221
 30
0.0
 10
-191.0140082465277
 20
-81.31252170138889
 30
0.0
 10
-191.0140082465277
 20
-81.31252170138889
 30
0.0
 10
-278.76748046875
 20
-81.31252170138889
 30
0.0
 10
-358.030859375
 20
3.79236111111111
 30
0.0
 10
-358.030859375
 20
100.1558159722222
 30
0.0
  0
INSERT
  5
3FB7
330
3FB3
100
AcDbEntity
  8
0
 62
     7
100
AcDbBlockReference
  2
AI9-BLK61
 10
112.2115831163194
 20
30.98794487847222
 30
0.0
  0
ENDBLK
  5
3FB8
330
3FB3
100
AcDbEntity
  8
0
100
AcDbBlockEnd
  0
BLOCK
  5
3FBA
330
3FB9
100
AcDbEntity
  8
0
 62
     7
100
AcDbBlockBegin
  2
AI9-BLK61
 70
     0
 10
0.0
 20
0.0
 30
0.0
  3
AI9-BLK61
  1

  0
CIRCLE
  5
3FBB
330
3FB9
100
AcDbEntity
  8
0
 62
     7
100
AcDbCircle
 10
-0.0006890190972222
 20
-0.0013780381944444
 30
0.0
 40
7.496527777777776
  0
LINE
  5
3FBC
330
3FB9
100
AcDbEntity
  8
0
 62
     7
100
AcDbLine
 10
0.0020670572916667
 20
16.02245008680555
 30
0.0
 11
0.0020670572916667
 21
-16.02245008680555
 31
0.0
  0
LINE
  5
3FBD
330
3FB9
100
AcDbEntity
  8
0
 62
     7
100
AcDbLine
 10
16.02313910590277
 20
-0.0013780381944444
 30
0.0
 11
-16.02313910590277
 21
-0.0013780381944444
 31
0.0
  0
ENDBLK
  5
3FBE
330
3FB9
100
AcDbEntity
  8
0
100
AcDbBlockEnd
  0
BLOCK
  5
3FC0
330
3FBF
100
AcDbEntity
  8
0
 62
     7
100
AcDbBlockBegin
  2
AI9-BLK62
 70
     0
 10
0.0
 20
0.0
 30
0.0
  3
AI9-BLK62
  1

  0
INSERT
  5
3FC1
330
3FBF
100
AcDbEntity
  8
0
 62
     7
100
AcDbBlockReference
  2
AI9-BLK65
 10
0.0
 20
0.0
 30
0.0
  0
INSERT
  5
3FC2
330
3FBF
100
AcDbEntity
  8
0
 62
     7
100
AcDbBlockReference
  2
AI9-BLK63
 10
-0.9756510416666666
 20
1.998155381944444
 30
0.0
  0
ENDBLK
  5
3FC3
330
3FBF
100
AcDbEntity
  8
0
100
AcDbBlockEnd
  0
BLOCK
  5
3FC5
330
3FC4
100
AcDbEntity
  8
0
 62
     7
100
AcDbBlockBegin
  2
AI9-BLK63
 70
     0
 10
0.0
 20
0.0
 30
0.0
  3
AI9-BLK63
  1

  0
INSERT
  5
3FC6
330
3FC4
100
AcDbEntity
  8
0
 62
     7
100
AcDbBlockReference
  2
AI9-BLK64
 10
0.0
 20
0.0
 30
0.0
  0
ENDBLK
  5
3FC7
330
3FC4
100
AcDbEntity
  8
0
100
AcDbBlockEnd
  0
BLOCK
  5
3FC9
330
3FC8
100
AcDbEntity
  8
0
 62
     7
100
AcDbBlockBegin
  2
AI9-BLK64
 70
     0
 10
0.0
 20
0.0
 30
0.0
  3
AI9-BLK64
  1

  0
SPLINE
  5
3FCA
330
3FC8
100
AcDbEntity
  8
0
 62
     7
100
AcDbSpline
210
0.0
220
0.0
230
1.0
 70
     8
 71
     3
 72
    14
 73
    10
 74
     0
 42
0.0000000001
 43
0.0000000001
 40
0.0
 40
0.0
 40
0.0
 40
0.0
 40
1.0
 40
1.0
 40
1.0
 40
2.0
 40
2.0
 40
2.0
 40
3.0
 40
3.0
 40
3.0
 40
3.0
 10
172.4614800347222
 20
60.18168402777777
 30
0.0
 10
172.4614800347222
 20
-4.869986979166665
 30
0.0
 10
122.1079644097222
 20
-60.00529513888888
 30
0.0
 10
46.71136067708332
 20
-60.00529513888888
 30
0.0
 10
8.787749565972221
 20
-60.00529513888888
 30
0.0
 10
-10.45241970486111
 20
-59.87162543402777
 30
0.0
 10
-53.12199435763888
 20
-59.87162543402777
 30
0.0
 10
-116.6784939236111
 20
-59.87162543402777
 30
0.0
 10
-172.4614800347222
 20
-9.720681423611109
 30
0.0
 10
-172.4614800347222
 20
60.18168402777777
 30
0.0
  0
ENDBLK
  5
3FCB
330
3FC8
100
AcDbEntity
  8
0
100
AcDbBlockEnd
  0
BLOCK
  5
3FCD
330
3FCC
100
AcDbEntity
  8
0
 62
     7
100
AcDbBlockBegin
  2
AI9-BLK65
 70
     0
 10
0.0
 20
0.0
 30
0.0
  3
AI9-BLK65
  1

  0
SPLINE
  5
3FCE
330
3FCC
100
AcDbEntity
  8
0
 62
     7
100
AcDbSpline
210
0.0
220
0.0
230
1.0
 70
     8
 71
     3
 72
    14
 73
    10
 74
     0
 42
0.0000000001
 43
0.0000000001
 40
0.0
 40
0.0
 40
0.0
 40
0.0
 40
1.0
 40
1.0
 40
1.0
 40
2.0
 40
2.0
 40
2.0
 40
3.0
 40
3.0
 40
3.0
 40
3.0
 10
177.3493815104166
 20
62.17983940972222
 30
0.0
 10
177.3493815104166
 20
-5.729882812499999
 30
0.0
 10
121.3982747395833
 20
-62.00345052083332
 30
0.0
 10
50.13578559027777
 20
-62.00345052083332
 30
0.0
 10
12.21217447916666
 20
-62.00345052083332
 30
0.0
 10
-11.57138671875
 20
-62.00345052083332
 30
0.0
 10
-51.69985894097222
 20
-62.00345052083332
 30
0.0
 10
-126.2324327256944
 20
-62.00345052083332
 30
0.0
 10
-177.3493815104166
 20
-3.312803819444444
 30
0.0
 10
-177.3493815104166
 20
62.17983940972222
 30
0.0
  0
ENDBLK
  5
3FCF
330
3FCC
100
AcDbEntity
  8
0
100
AcDbBlockEnd
  0
BLOCK
  5
3FD1
330
3FD0
100
AcDbEntity
  8
0
 62
     7
100
AcDbBlockBegin
  2
AI9-BLK66
 70
     0
 10
0.0
 20
0.0
 30
0.0
  3
AI9-BLK66
  1

  0
INSERT
  5
3FD2
330
3FD0
100
AcDbEntity
  8
0
 62
     7
100
AcDbBlockReference
  2
AI9-BLK69
 10
-133.1122884114583
 20
-37.97459852430555
 30
0.0
  0
INSERT
  5
3FD3
330
3FD0
100
AcDbEntity
  8
0
 62
     7
100
AcDbBlockReference
  2
AI9-BLK67
 10
0.0
 20
0.0
 30
0.0
  0
ENDBLK
  5
3FD4
330
3FD0
100
AcDbEntity
  8
0
100
AcDbBlockEnd
  0
BLOCK
  5
3FD6
330
3FD5
100
AcDbEntity
  8
0
 62
     7
100
AcDbBlockBegin
  2
AI9-BLK67
 70
     0
 10
0.0
 20
0.0
 30
0.0
  3
AI9-BLK67
  1

  0
SPLINE
  5
3FD7
330
3FD5
100
AcDbEntity
  8
0
 62
     7
100
AcDbSpline
210
0.0
220
0.0
230
1.0
 70
     8
 71
     3
 72
    20
 73
    16
 74
     0
 42
0.0000000001
 43
0.0000000001
 40
0.0
 40
0.0
 40
0.0
 40
0.0
 40
1.0
 40
1.0
 40
1.0
 40
2.0
 40
2.0
 40
2.0
 40
3.0
 40
3.0
 40
3.0
 40
4.0
 40
4.0
 40
4.0
 40
5.0
 40
5.0
 40
5.0
 40
5.0
 10
358.0294813368055
 20
-100.155126953125
 30
0.0
 10
358.0294813368055
 20
-2.691997612847222
 30
0.0
 10
358.0074327256944
 20
11.97721896701389
 30
0.0
 10
358.0074327256944
 20
94.78353407118055
 30
0.0
 10
358.0074327256944
 20
97.36735568576388
 30
0.0
 10
358.0294813368055
 20
99.9787380642361
 30
0.0
 10
353.8995008680555
 20
99.9787380642361
 30
0.0
 10
353.8995008680555
 20
99.9787380642361
 30
0.0
 10
259.0284613715277
 20
99.84644639756943
 30
0.0
 10
259.0284613715277
 20
99.84644639756943
 30
0.0
 10
228.7929253472222
 20
99.84644639756943
 30
0.0
 10
193.2243815104166
 20
71.42165256076388
 30
0.0
 10
189.2087782118055
 20
34.28903537326389
 30
0.0
 10
183.3727864583333
 20
-19.66942816840277
 30
0.0
 10
182.8119249131944
 20
-41.27568901909722
 30
0.0
 10
182.8119249131944
 20
-100.155126953125
 30
0.0
  0
SPLINE
  5
3FD8
330
3FD5
100
AcDbEntity
  8
0
 62
     7
100
AcDbSpline
210
0.0
220
0.0
230
1.0
 70
     8
 71
     3
 72
    11
 73
     7
 74
     0
 42
0.0000000001
 43
0.0000000001
 40
0.0
 40
0.0
 40
0.0
 40
0.0
 40
1.0
 40
1.0
 40
1.0
 40
2.0
 40
2.0
 40
2.0
 40
2.0
 10
217.0561740451389
 20
83.72339952256943
 30
0.0
 10
217.0561740451389
 20
83.72339952256943
 30
0.0
 10
-191.0126302083333
 20
81.3132107204861
 30
0.0
 10
-191.0126302083333
 20
81.3132107204861
 30
0.0
 10
-278.7661024305555
 20
81.3132107204861
 30
0.0
 10
-358.0294813368055
 20
-3.791672092013888
 30
0.0
 10
-358.0294813368055
 20
-100.155126953125
 30
0.0
  0
INSERT
  5
3FD9
330
3FD5
100
AcDbEntity
  8
0
 62
     7
100
AcDbBlockReference
  2
AI9-BLK68
 10
112.210205078125
 20
-30.98587782118055
 30
0.0
  0
ENDBLK
  5
3FDA
330
3FD5
100
AcDbEntity
  8
0
100
AcDbBlockEnd
  0
BLOCK
  5
3FDC
330
3FDB
100
AcDbEntity
  8
0
 62
     7
100
AcDbBlockBegin
  2
AI9-BLK68
 70
     0
 10
0.0
 20
0.0
 30
0.0
  3
AI9-BLK68
  1

  0
CIRCLE
  5
3FDD
330
3FDB
100
AcDbEntity
  8
0
 62
     7
100
AcDbCircle
 10
0.0006890190972222
 20
0.0
 30
0.0
 40
7.496527777777776
  0
LINE
  5
3FDE
330
3FDB
100
AcDbEntity
  8
0
 62
     7
100
AcDbLine
 10
0.0020670572916667
 20
-16.02245008680555
 30
0.0
 11
0.0020670572916667
 21
16.02245008680555
 31
0.0
  0
LINE
  5
3FDF
330
3FDB
100
AcDbEntity
  8
0
 62
     7
100
AcDbLine
 10
16.02313910590277
 20
0.0
 30
0.0
 11
-16.02313910590277
 21
0.0
 31
0.0
  0
ENDBLK
  5
3FE0
330
3FDB
100
AcDbEntity
  8
0
100
AcDbBlockEnd
  0
BLOCK
  5
3FE2
330
3FE1
100
AcDbEntity
  8
0
 62
     7
100
AcDbBlockBegin
  2
AI9-BLK69
 70
     0
 10
0.0
 20
0.0
 30
0.0
  3
AI9-BLK69
  1

  0
INSERT
  5
3FE3
330
3FE1
100
AcDbEntity
  8
0
 62
     7
100
AcDbBlockReference
  2
AI9-BLK72
 10
0.0
 20
0.0
 30
0.0
  0
INSERT
  5
3FE4
330
3FE1
100
AcDbEntity
  8
0
 62
     7
100
AcDbBlockReference
  2
AI9-BLK70
 10
-0.973583984375
 20
-1.998844401041666
 30
0.0
  0
ENDBLK
  5
3FE5
330
3FE1
100
AcDbEntity
  8
0
100
AcDbBlockEnd
  0
BLOCK
  5
3FE7
330
3FE6
100
AcDbEntity
  8
0
 62
     7
100
AcDbBlockBegin
  2
AI9-BLK70
 70
     0
 10
0.0
 20
0.0
 30
0.0
  3
AI9-BLK70
  1

  0
INSERT
  5
3FE8
330
3FE6
100
AcDbEntity
  8
0
 62
     7
100
AcDbBlockReference
  2
AI9-BLK71
 10
0.0
 20
0.0
 30
0.0
  0
ENDBLK
  5
3FE9
330
3FE6
100
AcDbEntity
  8
0
100
AcDbBlockEnd
  0
BLOCK
  5
3FEB
330
3FEA
100
AcDbEntity
  8
0
 62
     7
100
AcDbBlockBegin
  2
AI9-BLK71
 70
     0
 10
0.0
 20
0.0
 30
0.0
  3
AI9-BLK71
  1

  0
SPLINE
  5
3FEC
330
3FEA
100
AcDbEntity
  8
0
 62
     7
100
AcDbSpline
210
0.0
220
0.0
230
1.0
 70
     8
 71
     3
 72
    14
 73
    10
 74
     0
 42
0.0000000001
 43
0.0000000001
 40
0.0
 40
0.0
 40
0.0
 40
0.0
 40
1.0
 40
1.0
 40
1.0
 40
2.0
 40
2.0
 40
2.0
 40
3.0
 40
3.0
 40
3.0
 40
3.0
 10
172.4614800347222
 20
-60.18168402777777
 30
0.0
 10
172.4614800347222
 20
4.869986979166665
 30
0.0
 10
122.1079644097222
 20
60.00529513888888
 30
0.0
 10
46.71136067708332
 20
60.00529513888888
 30
0.0
 10
8.786371527777777
 20
60.00529513888888
 30
0.0
 10
-10.45517578125
 20
59.87300347222221
 30
0.0
 10
-53.12337239583333
 20
59.87300347222221
 30
0.0
 10
-116.6784939236111
 20
59.87300347222221
 30
0.0
 10
-172.4614800347222
 20
9.720681423611109
 30
0.0
 10
-172.4614800347222
 20
-60.18168402777777
 30
0.0
  0
ENDBLK
  5
3FED
330
3FEA
100
AcDbEntity
  8
0
100
AcDbBlockEnd
  0
BLOCK
  5
3FEF
330
3FEE
100
AcDbEntity
  8
0
 62
     7
100
AcDbBlockBegin
  2
AI9-BLK72
 70
     0
 10
0.0
 20
0.0
 30
0.0
  3
AI9-BLK72
  1

  0
SPLINE
  5
3FF0
330
3FEE
100
AcDbEntity
  8
0
 62
     7
100
AcDbSpline
210
0.0
220
0.0
230
1.0
 70
     8
 71
     3
 72
    14
 73
    10
 74
     0
 42
0.0000000001
 43
0.0000000001
 40
0.0
 40
0.0
 40
0.0
 40
0.0
 40
1.0
 40
1.0
 40
1.0
 40
2.0
 40
2.0
 40
2.0
 40
3.0
 40
3.0
 40
3.0
 40
3.0
 10
177.3486924913194
 20
-62.18052842881943
 30
0.0
 10
177.3486924913194
 20
5.729193793402777
 30
0.0
 10
121.3989637586805
 20
62.00413953993055
 30
0.0
 10
50.13785264756943
 20
62.00413953993055
 30
0.0
 10
12.21424153645833
 20
62.00413953993055
 30
0.0
 10
-11.57069769965278
 20
62.00413953993055
 30
0.0
 10
-51.69916992187499
 20
62.00413953993055
 30
0.0
 10
-126.2331217447916
 20
62.00413953993055
 30
0.0
 10
-177.3486924913194
 20
3.312114800347222
 30
0.0
 10
-177.3486924913194
 20
-62.18052842881943
 30
0.0
  0
ENDBLK
  5
3FF1
330
3FEE
100
AcDbEntity
  8
0
100
AcDbBlockEnd
  0
BLOCK
  5
3FF3
330
3FF2
100
AcDbEntity
  8
0
 62
     7
100
AcDbBlockBegin
  2
AI9-BLK73
 70
     0
 10
0.0
 20
0.0
 30
0.0
  3
AI9-BLK73
  1

  0
LINE
  5
3FF4
330
3FF2
100
AcDbEntity
  8
0
 62
     7
100
AcDbLine
 10
-0.5677517361111111
 20
-34.53501519097222
 30
0.0
 11
-0.5677517361111111
 21
34.53501519097222
 31
0.0
  0
INSERT
  5
3FF5
330
3FF2
100
AcDbEntity
  8
0
 62
     7
100
AcDbBlockReference
  2
AI9-BLK74
 10
0.0
 20
0.2576931423611111
 30
0.0
  0
ENDBLK
  5
3FF6
330
3FF2
100
AcDbEntity
  8
0
100
AcDbBlockEnd
  0
BLOCK
  5
3FF8
330
3FF7
100
AcDbEntity
  8
0
 62
     7
100
AcDbBlockBegin
  2
AI9-BLK74
 70
     0
 10
0.0
 20
0.0
 30
0.0
  3
AI9-BLK74
  1

  0
LINE
  5
3FF9
330
3FF7
100
AcDbEntity
  8
0
 62
     7
100
AcDbLine
 10
-34.22909071180555
 20
0.0275607638888889
 30
0.0
 11
34.22909071180555
 21
0.0275607638888889
 31
0.0
  0
INSERT
  5
3FFA
330
3FF7
100
AcDbEntity
  8
0
 62
     7
100
AcDbBlockReference
  2
AI9-BLK75
 10
-1.081070963541666
 20
0.0
 30
0.0
  0
ENDBLK
  5
3FFB
330
3FF7
100
AcDbEntity
  8
0
100
AcDbBlockEnd
  0
BLOCK
  5
3FFD
330
3FFC
100
AcDbEntity
  8
0
 62
     7
100
AcDbBlockBegin
  2
AI9-BLK75
 70
     0
 10
0.0
 20
0.0
 30
0.0
  3
AI9-BLK75
  1

  0
CIRCLE
  5
3FFE
330
3FFC
100
AcDbEntity
  8
0
 62
     7
100
AcDbCircle
 10
0.0
 20
0.0
 30
0.0
 40
18.66897243923611
  0
ENDBLK
  5
3FFF
330
3FFC
100
AcDbEntity
  8
0
100
AcDbBlockEnd
  0
BLOCK
  5
4001
330
4000
100
AcDbEntity
  8
0
 62
     7
100
AcDbBlockBegin
  2
AI9-BLK76
 70
     0
 10
0.0
 20
0.0
 30
0.0
  3
AI9-BLK76
  1

  0
LINE
  5
4002
330
4000
100
AcDbEntity
  8
0
 62
     7
100
AcDbLine
 10
-0.4513075086805556
 20
-24.63863389756944
 30
0.0
 11
-0.4513075086805556
 21
24.63863389756944
 31
0.0
  0
INSERT
  5
4003
330
4000
100
AcDbEntity
  8
0
 62
     7
100
AcDbBlockReference
  2
AI9-BLK77
 10
0.0
 20
0.204638671875
 30
0.0
  0
ENDBLK
  5
4004
330
4000
100
AcDbEntity
  8
0
100
AcDbBlockEnd
  0
BLOCK
  5
4006
330
4005
100
AcDbEntity
  8
0
 62
     7
100
AcDbBlockBegin
  2
AI9-BLK77
 70
     0
 10
0.0
 20
0.0
 30
0.0
  3
AI9-BLK77
  1

  0
LINE
  5
4007
330
4005
100
AcDbEntity
  8
0
 62
     7
100
AcDbLine
 10
-24.39609917534722
 20
0.0220486111111111
 30
0.0
 11
24.39609917534722
 21
0.0220486111111111
 31
0.0
  0
INSERT
  5
4008
330
4005
100
AcDbEntity
  8
0
 62
     7
100
AcDbBlockReference
  2
AI9-BLK78
 10
-0.859206814236111
 20
0.0
 30
0.0
  0
ENDBLK
  5
4009
330
4005
100
AcDbEntity
  8
0
100
AcDbBlockEnd
  0
BLOCK
  5
400B
330
400A
100
AcDbEntity
  8
0
 62
     7
100
AcDbBlockBegin
  2
AI9-BLK78
 70
     0
 10
0.0
 20
0.0
 30
0.0
  3
AI9-BLK78
  1

  0
CIRCLE
  5
400C
330
400A
100
AcDbEntity
  8
0
 62
     7
100
AcDbCircle
 10
0.0
 20
-0.0013780381944444
 30
0.0
 40
14.83595920138889
  0
ENDBLK
  5
400D
330
400A
100
AcDbEntity
  8
0
100
AcDbBlockEnd
  0
BLOCK
  5
400F
330
400E
100
AcDbEntity
  8
0
 62
     7
100
AcDbBlockBegin
  2
AI9-BLK79
 70
     0
 10
0.0
 20
0.0
 30
0.0
  3
AI9-BLK79
  1

  0
SPLINE
  5
4010
330
400E
100
AcDbEntity
  8
0
 62
     7
100
AcDbSpline
210
0.0
220
0.0
230
1.0
 70
     8
 71
     3
 72
    17
 73
    13
 74
     0
 42
0.0000000001
 43
0.0000000001
 40
0.0
 40
0.0
 40
0.0
 40
0.0
 40
1.0
 40
1.0
 40
1.0
 40
2.0
 40
2.0
 40
2.0
 40
3.0
 40
3.0
 40
3.0
 40
4.0
 40
4.0
 40
4.0
 40
4.0
 10
47.35008138020833
 20
-0.0861273871527778
 30
0.0
 10
47.35008138020833
 20
-0.0861273871527778
 30
0.0
 10
47.35008138020833
 20
30.10944552951389
 30
0.0
 10
47.35008138020833
 20
30.10944552951389
 30
0.0
 10
47.35008138020833
 20
32.81591254340277
 30
0.0
 10
45.17967122395833
 20
34.56050889756944
 30
0.0
 10
42.51454535590277
 20
34.56050889756944
 30
0.0
 10
23.97855360243056
 20
34.56050889756944
 30
0.0
 10
10.94369032118055
 20
34.52881401909722
 30
0.0
 10
-13.97813042534722
 20
34.52881401909722
 30
0.0
 10
-29.59268120659722
 20
34.52881401909722
 30
0.0
 10
-47.34732530381943
 20
21.24039171006944
 30
0.0
 10
-47.34732530381943
 20
-0.1067979600694444
 30
0.0
  0
SPLINE
  5
4011
330
400E
100
AcDbEntity
  8
0
 62
     7
100
AcDbSpline
210
0.0
220
0.0
230
1.0
 70
     8
 71
     3
 72
    17
 73
    13
 74
     0
 42
0.0000000001
 43
0.0000000001
 40
0.0
 40
0.0
 40
0.0
 40
0.0
 40
1.0
 40
1.0
 40
1.0
 40
2.0
 40
2.0
 40
2.0
 40
3.0
 40
3.0
 40
3.0
 40
4.0
 40
4.0
 40
4.0
 40
4.0
 10
47.34456922743055
 20
0.0847493489583333
 30
0.0
 10
47.34456922743055
 20
0.0847493489583333
 30
0.0
 10
47.34456922743055
 20
-30.10944552951389
 30
0.0
 10
47.34456922743055
 20
-30.10944552951389
 30
0.0
 10
47.34456922743055
 20
-32.81729058159722
 30
0.0
 10
45.17553710937499
 20
-34.56050889756944
 30
0.0
 10
42.50903320312499
 20
-34.56050889756944
 30
0.0
 10
23.97304144965278
 20
-34.56050889756944
 30
0.0
 10
10.94093424479166
 20
-34.53019205729166
 30
0.0
 10
-13.98226453993055
 20
-34.53019205729166
 30
0.0
 10
-29.59681532118056
 20
-34.53019205729166
 30
0.0
 10
-47.35008138020833
 20
-21.24176974826389
 30
0.0
 10
-47.35008138020833
 20
0.105419921875
 30
0.0
  0
SPLINE
  5
4012
330
400E
100
AcDbEntity
  8
0
 62
     7
100
AcDbSpline
210
0.0
220
0.0
230
1.0
 70
     8
 71
     3
 72
    17
 73
    13
 74
     0
 42
0.0000000001
 43
0.0000000001
 40
0.0
 40
0.0
 40
0.0
 40
0.0
 40
1.0
 40
1.0
 40
1.0
 40
2.0
 40
2.0
 40
2.0
 40
3.0
 40
3.0
 40
3.0
 40
4.0
 40
4.0
 40
4.0
 40
4.0
 10
-44.20402018229166
 20
0.142626953125
 30
0.0
 10
-44.20402018229166
 20
7.815543619791665
 30
0.0
 10
-42.93622504340277
 20
14.033251953125
 30
0.0
 10
-38.47138129340277
 20
14.033251953125
 30
0.0
 10
-38.47138129340277
 20
14.033251953125
 30
0.0
 10
-38.03040907118055
 20
14.033251953125
 30
0.0
 10
-35.99091254340277
 20
14.033251953125
 30
0.0
 10
-35.439697265625
 20
14.033251953125
 30
0.0
 10
-35.43831922743056
 20
13.07964952256944
 30
0.0
 10
-35.43831922743056
 20
12.40992296006944
 30
0.0
 10
-35.43831922743056
 20
7.56887478298611
 30
0.0
 10
-35.439697265625
 20
5.365391710069443
 30
0.0
 10
-35.439697265625
 20
0.1839680989583333
 30
0.0
  0
SPLINE
  5
4013
330
400E
100
AcDbEntity
  8
0
 62
     7
100
AcDbSpline
210
0.0
220
0.0
230
1.0
 70
     8
 71
     3
 72
    17
 73
    13
 74
     0
 42
0.0000000001
 43
0.0000000001
 40
0.0
 40
0.0
 40
0.0
 40
0.0
 40
1.0
 40
1.0
 40
1.0
 40
2.0
 40
2.0
 40
2.0
 40
3.0
 40
3.0
 40
3.0
 40
4.0
 40
4.0
 40
4.0
 40
4.0
 10
-44.20677625868054
 20
0.1839680989583333
 30
0.0
 10
-44.20677625868054
 20
-7.486192491319443
 30
0.0
 10
-42.93898111979166
 20
-13.70665690104166
 30
0.0
 10
-38.47413736979166
 20
-13.70665690104166
 30
0.0
 10
-38.47413736979166
 20
-13.70665690104166
 30
0.0
 10
-38.03316514756944
 20
-13.70665690104166
 30
0.0
 10
-35.99366861979166
 20
-13.70665690104166
 30
0.0
 10
-35.44245334201388
 20
-13.70665690104166
 30
0.0
 10
-35.44107530381944
 20
-12.75029839409722
 30
0.0
 10
-35.44107530381944
 20
-12.08057183159722
 30
0.0
 10
-35.44107530381944
 20
-7.239523654513888
 30
0.0
 10
-35.44245334201388
 20
-5.03879665798611
 30
0.0
 10
-35.44245334201388
 20
0.142626953125
 30
0.0
  0
ENDBLK
  5
4014
330
400E
100
AcDbEntity
  8
0
100
AcDbBlockEnd
  0
ENDSEC
  0
SECTION
  2
ENTITIES
  0
LINE
  5
3E5E
330
1F
100
AcDbEntity
  8
0
  6
AM_DIN_G_W050
 62
     4
 48
2.0
100
AcDbLine
 10
-150.0190474422708
 20
59.50955606720609
 30
0.0
 11
-150.0190474422708
 21
80.52241056072208
 31
0.0
  0
LINE
  5
3E5F
330
1F
100
AcDbEntity
  8
0
  6
AM_DIN_G_W050
 62
     4
 48
2.0
100
AcDbLine
 10
-160.2756174400567
 20
70.38460395555111
 30
0.0
 11
-139.8010996012414
 21
70.38460395555111
 31
0.0
  0
CIRCLE
  5
3E60
330
1F
100
AcDbEntity
  8
0
  6
AM_DIN_F_W050
 62
     6
 48
5.0
100
AcDbCircle
 10
-150.0190474422708
 20
70.38460395555111
 30
0.0
 40
8.0
  0
LINE
  5
40AF
330
1F
100
AcDbEntity
  8
0
  6
AM_DIN_G_W050
 62
     4
 48
2.0
100
AcDbLine
 10
15.82340918560761
 20
0.0159833139637001
 30
0.0
 11
-8.385371491837634
 21
0.0159833139637575
 31
0.0
  0
LINE
  5
469B
330
1F
100
AcDbEntity
  8
0
  6
AM_DIN_G_W050
 62
     4
 48
2.0
100
AcDbLine
 10
-150.0190474422711
 20
-59.47758943927793
 30
0.0
 11
-150.0190474422712
 21
-80.49044393279393
 31
0.0
  0
LINE
  5
469C
330
1F
100
AcDbEntity
  8
0
  6
AM_DIN_G_W050
 62
     4
 48
2.0
100
AcDbLine
 10
-160.275617440057
 20
-70.35263732762292
 30
0.0
 11
-139.8010996012418
 21
-70.352637327623
 31
0.0
  0
CIRCLE
  5
469D
330
1F
100
AcDbEntity
  8
0
  6
AM_DIN_F_W050
 62
     6
 48
5.0
100
AcDbCircle
 10
-150.0190474422712
 20
-70.35263732762295
 30
0.0
 40
8.0
  0
CIRCLE
  5
49F0
330
1F
100
AcDbEntity
  8
0
  6
AM_DIN_F_W050
 62
     6
 48
5.0
100
AcDbCircle
 10
-226.16680192743
 20
-78.1019041215512
 30
0.0
 40
3.968060980902777
  0
SPLINE
  5
49F1
330
1F
100
AcDbEntity
  8
0
  6
AM_DIN_F_W050
 62
     6
 48
5.0
100
AcDbSpline
210
0.0
220
0.0
230
1.0
 70
     8
 71
     3
 72
     8
 73
     4
 74
     0
 42
0.0000000001
 43
0.0000000001
 40
0.0
 40
0.0
 40
0.0
 40
0.0
 40
1.0
 40
1.0
 40
1.0
 40
1.0
 10
-226.2026309204855
 20
-71.75534921703726
 30
0.0
 10
-234.5066890802079
 20
-72.16600459898174
 30
0.0
 10
-234.5011769274299
 20
-84.00197465106504
 30
0.0
 10
-226.2026309204855
 20
-84.41125199481502
 30
0.0
  0
SPLINE
  5
49F2
330
1F
100
AcDbEntity
  8
0
  6
AM_DIN_F_W050
 62
     6
 48
5.0
100
AcDbSpline
210
0.0
220
0.0
230
1.0
 70
    24
 71
     3
 72
     8
 73
     4
 74
     0
 42
0.0000000001
 43
0.0000000001
 40
0.0
 40
0.0
 40
0.0
 40
0.0
 40
1.0
 40
1.0
 40
1.0
 40
1.0
 10
-226.2026309204855
 20
-84.41125199481502
 30
0.0
 10
-226.2026309204855
 20
-84.41125199481502
 30
0.0
 10
-219.8126678128467
 20
-84.41125199481502
 30
0.0
 10
-219.8126678128467
 20
-84.41125199481502
 30
0.0
  0
SPLINE
  5
49F3
330
1F
100
AcDbEntity
  8
0
  6
AM_DIN_F_W050
 62
     6
 48
5.0
100
AcDbSpline
210
0.0
220
0.0
230
1.0
 70
     8
 71
     3
 72
     8
 73
     4
 74
     0
 42
0.0000000001
 43
0.0000000001
 40
1.0
 40
1.0
 40
1.0
 40
1.0
 40
2.0
 40
2.0
 40
2.0
 40
2.0
 10
-219.8126678128467
 20
-84.41125199481502
 30
0.0
 10
-219.8126678128467
 20
-84.41125199481502
 30
0.0
 10
-217.2329803128466
 20
-84.35923105297474
 30
0.0
 10
-217.2329803128466
 20
-86.86967213370389
 30
0.0
  0
SPLINE
  5
49F4
330
1F
100
AcDbEntity
  8
0
  6
AM_DIN_F_W050
 62
     6
 48
5.0
100
AcDbSpline
210
0.0
220
0.0
230
1.0
 70
    24
 71
     3
 72
     8
 73
     4
 74
     0
 42
0.0000000001
 43
0.0000000001
 40
2.0
 40
2.0
 40
2.0
 40
2.0
 40
3.0
 40
3.0
 40
3.0
 40
3.0
 10
-217.2329803128466
 20
-86.86967213370389
 30
0.0
 10
-217.2329803128466
 20
-86.86967213370389
 30
0.0
 10
-217.2329803128466
 20
-90.97898202953723
 30
0.0
 10
-217.2329803128466
 20
-90.97898202953723
 30
0.0
  0
CIRCLE
  5
49F5
330
1F
100
AcDbEntity
  8
0
  6
AM_DIN_F_W050
 62
     6
 48
5.0
100
AcDbCircle
 10
-226.16680192743
 20
77.08035499303226
 30
0.0
 40
3.968060980902777
  0
LINE
  5
49F6
330
1F
100
AcDbEntity
  8
0
  6
AM_DIN_F_W050
 62
     6
 48
5.0
100
AcDbLine
 10
-538.938752882291
 20
-132.2677624114817
 30
0.0
 11
-538.5680606079857
 21
-131.5305119774538
 31
0.0
  0
SPLINE
  5
49F7
330
1F
100
AcDbEntity
  8
0
  6
AM_DIN_F_W050
 62
     6
 48
5.0
100
AcDbSpline
210
0.0
220
0.0
230
1.0
 70
    24
 71
     3
 72
     8
 73
     4
 74
     0
 42
0.0000000001
 43
0.0000000001
 40
1.0
 40
1.0
 40
1.0
 40
1.0
 40
2.0
 40
2.0
 40
2.0
 40
2.0
 10
-152.3494299656245
 20
-156.6666208114922
 30
0.0
 10
-152.3494299656245
 20
-156.6666208114922
 30
0.0
 10
-235.049636128819
 20
-157.5148001718983
 30
0.0
 10
-235.049636128819
 20
-157.5148001718983
 30
0.0
  0
SPLINE
  5
49F8
330
1F
100
AcDbEntity
  8
0
  6
AM_DIN_F_W050
 62
     6
 48
5.0
100
AcDbSpline
210
0.0
220
0.0
230
1.0
 70
     8
 71
     3
 72
     8
 73
     4
 74
     0
 42
0.0000000001
 43
0.0000000001
 40
2.0
 40
2.0
 40
2.0
 40
2.0
 40
3.0
 40
3.0
 40
3.0
 40
3.0
 10
-235.049636128819
 20
-157.5148001718983
 30
0.0
 10
-239.9582081774299
 20
-157.8014321163427
 30
0.0
 10
-246.3950245836802
 20
-157.7683591996761
 30
0.0
 10
-247.2149573093745
 20
-150.2084416649539
 30
0.0
  0
SPLINE
  5
49F9
330
1F
100
AcDbEntity
  8
0
  6
AM_DIN_F_W050
 62
     6
 48
5.0
100
AcDbSpline
210
0.0
220
0.0
230
1.0
 70
     8
 71
     3
 72
     8
 73
     4
 74
     0
 42
0.0000000001
 43
0.0000000001
 40
0.0
 40
0.0
 40
0.0
 40
0.0
 40
1.0
 40
1.0
 40
1.0
 40
1.0
 10
-246.6003522746521
 20
152.572732380185
 30
0.0
 10
-244.016530660069
 20
157.0196616336571
 30
0.0
 10
-239.9582081774299
 20
158.1427627621295
 30
0.0
 10
-235.049636128819
 20
157.8575088558794
 30
0.0
  0
SPLINE
  5
49FA
330
1F
100
AcDbEntity
  8
0
  6
AM_DIN_F_W050
 62
     6
 48
5.0
100
AcDbSpline
210
0.0
220
0.0
230
1.0
 70
    24
 71
     3
 72
     8
 73
     4
 74
     0
 42
0.0000000001
 43
0.0000000001
 40
1.0
 40
1.0
 40
1.0
 40
1.0
 40
2.0
 40
2.0
 40
2.0
 40
2.0
 10
-235.049636128819
 20
157.8575088558794
 30
0.0
 10
-235.049636128819
 20
157.8575088558794
 30
0.0
 10
-151.2070363024299
 20
156.9976130225462
 30
0.0
 10
-151.2070363024299
 20
156.9976130225462
 30
0.0
  0
SPLINE
  5
49FB
330
1F
100
AcDbEntity
  8
0
  6
AM_DIN_F_W050
 62
     6
 48
5.0
100
AcDbSpline
210
0.0
220
0.0
230
1.0
 70
     8
 71
     3
 72
     8
 73
     4
 74
     0
 42
0.0000000001
 43
0.0000000001
 40
0.0
 40
0.0
 40
0.0
 40
0.0
 40
1.0
 40
1.0
 40
1.0
 40
1.0
 10
-247.2149573093745
 20
150.1156902794906
 30
0.0
 10
-249.0904672920135
 20
130.8493382829627
 30
0.0
 10
-254.6536074829853
 20
109.8576824669905
 30
0.0
 10
-261.2240935940965
 20
91.74612647740726
 30
0.0
  0
SPLINE
  5
49FC
330
1F
100
AcDbEntity
  8
0
  6
AM_DIN_F_W050
 62
     6
 48
5.0
100
AcDbSpline
210
0.0
220
0.0
230
1.0
 70
     8
 71
     3
 72
     8
 73
     4
 74
     0
 42
0.0000000001
 43
0.0000000001
 40
1.0
 40
1.0
 40
1.0
 40
1.0
 40
2.0
 40
2.0
 40
2.0
 40
2.0
 10
-261.2240935940965
 20
91.74612647740726
 30
0.0
 10
-268.0577850003467
 20
73.08059913365726
 30
0.0
 10
-277.2038244968746
 20
54.65485043574055
 30
0.0
 10
-281.1312333510411
 20
34.97508698087943
 30
0.0
  0
LINE
  5
49FD
330
1F
100
AcDbEntity
  8
0
  6
AM_DIN_F_W050
 62
     6
 48
5.0
100
AcDbLine
 10
-322.0506994968744
 20
-164.2175779496761
 30
0.0
 11
-322.0506994968744
 21
-163.1110132795372
 31
0.0
  0
SPLINE
  5
49FE
330
1F
100
AcDbEntity
  8
0
  6
AM_DIN_F_W050
 62
     6
 48
5.0
100
AcDbSpline
210
0.0
220
0.0
230
1.0
 70
     8
 71
     3
 72
     8
 73
     4
 74
     0
 42
0.0000000001
 43
0.0000000001
 40
0.0
 40
0.0
 40
0.0
 40
0.0
 40
1.0
 40
1.0
 40
1.0
 40
1.0
 10
-322.0506994968744
 20
163.1409072933793
 30
0.0
 10
-321.3768388197911
 20
175.9222115468515
 30
0.0
 10
-339.5600527954855
 20
177.7922093767127
 30
0.0
 10
-341.4658796184024
 20
165.1073677968516
 30
0.0
  0
SPLINE
  5
49FF
330
1F
100
AcDbEntity
  8
0
  6
AM_DIN_F_W050
 62
     6
 48
5.0
100
AcDbSpline
210
0.0
220
0.0
230
1.0
 70
     8
 71
     3
 72
     8
 73
     4
 74
     0
 42
0.0000000001
 43
0.0000000001
 40
0.0
 40
0.0
 40
0.0
 40
0.0
 40
1.0
 40
1.0
 40
1.0
 40
1.0
 10
-341.4658796184024
 20
133.894802692685
 30
0.0
 10
-339.3974442885412
 20
121.1727540815738
 30
0.0
 10
-321.4581430732635
 20
123.0854710954627
 30
0.0
 10
-322.0506994968744
 20
135.9839085954627
 30
0.0
  0
SPLINE
  5
4A00
330
1F
100
AcDbEntity
  8
0
  6
AM_DIN_F_W050
 62
     6
 48
5.0
100
AcDbSpline
210
0.0
220
0.0
230
1.0
 70
     8
 71
     3
 72
     8
 73
     4
 74
     0
 42
0.0000000001
 43
0.0000000001
 40
0.0
 40
0.0
 40
0.0
 40
0.0
 40
1.0
 40
1.0
 40
1.0
 40
1.0
 10
-538.4467932468744
 20
131.3151151926849
 30
0.0
 10
-540.6626786635408
 20
136.3794055572683
 30
0.0
 10
-547.3751027086798
 20
138.5263890642127
 30
0.0
 10
-552.0866152954856
 20
135.6145943593516
 30
0.0
  0
SPLINE
  5
4A01
330
1F
100
AcDbEntity
  8
0
  6
AM_DIN_F_W050
 62
     6
 48
5.0
100
AcDbSpline
210
0.0
220
0.0
230
1.0
 70
     8
 71
     3
 72
     8
 73
     4
 74
     0
 42
0.0000000001
 43
0.0000000001
 40
0.0
 40
0.0
 40
0.0
 40
0.0
 40
1.0
 40
1.0
 40
1.0
 40
1.0
 10
-540.6585445489579
 20
96.1696290815739
 30
0.0
 10
-537.336094462152
 20
92.15402578296274
 30
0.0
 10
-532.3586205038188
 20
91.08466814407389
 30
0.0
 10
-527.7559729343745
 20
93.58856354337941
 30
0.0
  0
SPLINE
  5
4A02
330
1F
100
AcDbEntity
  8
0
  6
AM_DIN_F_W050
 62
     6
 48
5.0
100
AcDbSpline
210
0.0
220
0.0
230
1.0
 70
     8
 71
     3
 72
     8
 73
     4
 74
     0
 42
0.0000000001
 43
0.0000000001
 40
0.0
 40
0.0
 40
0.0
 40
0.0
 40
1.0
 40
1.0
 40
1.0
 40
1.0
 10
-281.1312333510411
 20
-35.06783836634277
 30
0.0
 10
-277.1046057468745
 20
-54.57810312328724
 30
0.0
 10
-268.1776743232633
 20
-73.29048376564841
 30
0.0
 10
-261.2240935940965
 20
-91.71761050175945
 30
0.0
  0
SPLINE
  5
4A03
330
1F
100
AcDbEntity
  8
0
  6
AM_DIN_F_W050
 62
     6
 48
5.0
100
AcDbSpline
210
0.0
220
0.0
230
1.0
 70
     8
 71
     3
 72
     8
 73
     4
 74
     0
 42
0.0000000001
 43
0.0000000001
 40
1.0
 40
1.0
 40
1.0
 40
1.0
 40
2.0
 40
2.0
 40
2.0
 40
2.0
 10
-261.2240935940965
 20
-91.71761050175945
 30
0.0
 10
-254.6866803996524
 20
-109.7464841996761
 30
0.0
 10
-249.0615284899302
 20
-131.0165037309261
 30
0.0
 10
-247.2149573093745
 20
-150.2084416649539
 30
0.0
  0
LINE
  5
4A04
330
1F
100
AcDbEntity
  8
0
  6
AM_DIN_F_W050
 62
     6
 48
5.0
100
AcDbLine
 10
-282.2364199829856
 20
26.24934913365716
 30
0.0
 11
-280.7619191149299
 21
19.73811866490716
 31
0.0
  0
LINE
  5
4A05
330
1F
100
AcDbEntity
  8
0
  6
AM_DIN_F_W050
 62
     6
 48
5.0
100
AcDbLine
 10
-280.7619191149299
 20
19.73811866490716
 30
0.0
 11
-279.6567324829855
 21
13.22413211976827
 31
0.0
  0
LINE
  5
4A06
330
1F
100
AcDbEntity
  8
0
  6
AM_DIN_F_W050
 62
     6
 48
5.0
100
AcDbLine
 10
-271.9153882063679
 20
21.23905325104356
 30
0.0
 11
-270.8102015744235
 21
14.72506670590466
 31
0.0
  0
LINE
  5
4A07
330
1F
100
AcDbEntity
  8
0
  6
AM_DIN_F_W050
 62
     6
 48
5.0
100
AcDbLine
 10
-279.6567324829855
 20
13.22413211976827
 30
0.0
 11
-278.9181040107635
 21
6.588878213518269
 31
0.0
  0
LINE
  5
4A08
330
1F
100
AcDbEntity
  8
0
  6
AM_DIN_F_W050
 62
     6
 48
5.0
100
AcDbLine
 10
-278.9181040107635
 20
6.588878213518269
 30
0.0
 11
-278.6741912503464
 21
-0.0463756927317303
 31
0.0
  0
LINE
  5
4A09
330
1F
100
AcDbEntity
  8
0
  6
AM_DIN_F_W050
 62
     6
 48
5.0
100
AcDbLine
 10
-269.9512059086107
 20
6.918502505124094
 30
0.0
 11
-269.7072931481939
 21
0.2832485988740944
 31
0.0
  0
LINE
  5
4A0A
330
1F
100
AcDbEntity
  8
0
  6
AM_DIN_F_W050
 62
     6
 48
5.0
100
AcDbLine
 10
-282.2364199829856
 20
-26.34347855731501
 30
0.0
 11
-280.7619191149299
 21
-19.83087005037062
 31
0.0
  0
LINE
  5
4A0B
330
1F
100
AcDbEntity
  8
0
  6
AM_DIN_F_W050
 62
     6
 48
5.0
100
AcDbLine
 10
-273.484963008324
 20
-28.324870635793
 30
0.0
 11
-272.0104621402686
 21
-21.81226212884862
 31
0.0
  0
LINE
  5
4A0C
330
1F
100
AcDbEntity
  8
0
  6
AM_DIN_F_W050
 62
     6
 48
5.0
100
AcDbLine
 10
-280.7619191149299
 20
-19.83087005037062
 30
0.0
 11
-279.6567324829855
 21
-13.31826154342612
 31
0.0
  0
LINE
  5
4A0D
330
1F
100
AcDbEntity
  8
0
  6
AM_DIN_F_W050
 62
     6
 48
5.0
100
AcDbLine
 10
-279.6567324829855
 20
-13.31826154342612
 30
0.0
 11
-279.0421274482635
 21
-6.683007637176118
 31
0.0
  0
LINE
  5
4A0E
330
1F
100
AcDbEntity
  8
0
  6
AM_DIN_F_W050
 62
     6
 48
5.0
100
AcDbLine
 10
-270.7220250469893
 20
-14.14585853542077
 30
0.0
 11
-270.1074200122671
 21
-7.510604629170772
 31
0.0
  0
LINE
  5
4A0F
330
1F
100
AcDbEntity
  8
0
  6
AM_DIN_F_W050
 62
     6
 48
5.0
100
AcDbLine
 10
-279.0421274482635
 20
-6.683007637176118
 30
0.0
 11
-278.6741912503464
 21
-0.0463756927317303
 31
0.0
  0
SPLINE
  5
4A10
330
1F
100
AcDbEntity
  8
0
  6
AM_DIN_F_W050
 62
     6
 48
5.0
100
AcDbSpline
210
0.0
220
0.0
230
1.0
 70
     8
 71
     3
 72
     8
 73
     4
 74
     0
 42
0.0000000001
 43
0.0000000001
 40
0.0
 40
0.0
 40
0.0
 40
0.0
 40
1.0
 40
1.0
 40
1.0
 40
1.0
 10
-282.2364199829856
 20
26.24934913365716
 30
0.0
 10
-288.1798987156246
 20
50.44769982810162
 30
0.0
 10
-301.4076873440965
 20
71.53857439407393
 30
0.0
 10
-320.6988440281246
 20
87.32262387324052
 30
0.0
  0
SPLINE
  5
4A11
330
1F
100
AcDbEntity
  8
0
  6
AM_DIN_F_W050
 62
     6
 48
5.0
100
AcDbSpline
210
0.0
220
0.0
230
1.0
 70
     8
 71
     3
 72
    14
 73
    10
 74
     0
 42
0.0000000001
 43
0.0000000001
 40
0.0
 40
0.0
 40
0.0
 40
0.0
 40
0.1912457121316808
 40
0.1912457121316808
 40
0.5737371363950424
 40
0.5737371363950424
 40
0.9562285606584037
 40
0.9562285606584037
 40
1.0
 40
1.0
 40
1.0
 40
1.0
 10
-273.5224589995935
 20
28.38962895833656
 30
0.0
 10
-274.7447111280874
 20
33.36592095378073
 30
0.0
 10
-276.2553591402621
 20
38.22747522595999
 30
0.0
 10
-281.6271579097661
 20
52.40958255006233
 30
0.0
 10
-286.3292569746538
 20
61.3272695668134
 30
0.0
 10
-297.8149033900065
 20
77.77772326424458
 30
0.0
 10
-304.5980749671823
 20
85.3098195450295
 30
0.0
 10
-313.2109445904641
 20
92.76855149446312
 30
0.0
 10
-314.1077379009989
 20
93.52348713874375
 30
0.0
 10
-315.0167490606752
 20
94.26724125138987
 30
0.0
  0
SPLINE
  5
4A12
330
1F
100
AcDbEntity
  8
0
  6
AM_DIN_F_W050
 62
     6
 48
5.0
100
AcDbSpline
210
0.0
220
0.0
230
1.0
 70
     8
 71
     3
 72
     8
 73
     4
 74
     0
 42
0.0000000001
 43
0.0000000001
 40
1.0
 40
1.0
 40
1.0
 40
1.0
 40
2.0
 40
2.0
 40
2.0
 40
2.0
 10
-320.6988440281246
 20
87.32262387324052
 30
0.0
 10
-348.3739850871523
 20
109.6978300364349
 30
0.0
 10
-377.7399790107631
 20
113.5232640642127
 30
0.0
 10
-412.4927242364576
 20
114.9715822065738
 30
0.0
  0
SPLINE
  5
4A13
330
1F
100
AcDbEntity
  8
0
  6
AM_DIN_F_W050
 62
     6
 48
5.0
100
AcDbSpline
210
0.0
220
0.0
230
1.0
 70
     8
 71
     3
 72
    18
 73
    14
 74
     0
 42
0.0000000001
 43
0.0000000001
 40
1.0
 40
1.0
 40
1.0
 40
1.0
 40
1.13527136842071
 40
1.13527136842071
 40
1.338837131409928
 40
1.338837131409928
 40
1.542402894399147
 40
1.542402894399147
 40
1.745968657388365
 40
1.745968657388365
 40
1.949534420377584
 40
1.949534420377584
 40
2.0
 40
2.0
 40
2.0
 40
2.0
 10
-315.0574157968383
 20
94.30031699197646
 30
0.0
 10
-319.0749178827102
 20
97.54844632366504
 30
0.0
 10
-323.1462160125313
 20
100.4483764095717
 30
0.0
 10
-333.4777263102401
 20
106.9156441154076
 30
0.0
 10
-339.8050166202931
 20
110.0787188158453
 30
0.0
 10
-352.6623457659328
 20
115.2054580467564
 30
0.0
 10
-359.1901949464288
 20
117.1699664506108
 30
0.0
 10
-372.4302948961797
 20
120.2035357419812
 30
0.0
 10
-379.1427214447683
 20
121.2741727218694
 30
0.0
 10
-392.7924898392214
 20
122.8398477965937
 30
0.0
 10
-399.7308005243108
 20
123.3353419950121
 30
0.0
 10
-408.5762594416085
 20
123.7823992449254
 30
0.0
 10
-410.3427434747834
 20
123.8627252172662
 30
0.0
 10
-412.1191013173258
 20
123.9367548018062
 30
0.0
  0
SPLINE
  5
4A14
330
1F
100
AcDbEntity
  8
0
  6
AM_DIN_F_W050
 62
     6
 48
5.0
100
AcDbSpline
210
0.0
220
0.0
230
1.0
 70
     8
 71
     3
 72
     8
 73
     4
 74
     0
 42
0.0000000001
 43
0.0000000001
 40
2.0
 40
2.0
 40
2.0
 40
2.0
 40
3.0
 40
3.0
 40
3.0
 40
3.0
 10
-412.4927242364576
 20
114.9715822065738
 30
0.0
 10
-460.317539774652
 20
115.6247723107405
 30
0.0
 10
-500.4735727607632
 20
106.6440973975461
 30
0.0
 10
-537.0949377781242
 20
74.17338342185162
 30
0.0
  0
SPLINE
  5
4A15
330
1F
100
AcDbEntity
  8
0
  6
AM_DIN_F_W050
 62
     6
 48
5.0
100
AcDbSpline
210
0.0
220
0.0
230
1.0
 70
     8
 71
     3
 72
    16
 73
    12
 74
     0
 42
0.0000000001
 43
0.0000000001
 40
2.0
 40
2.0
 40
2.0
 40
2.0
 40
2.125513557983383
 40
2.125513557983383
 40
2.352315729777927
 40
2.352315729777927
 40
2.579117901572471
 40
2.579117901572471
 40
2.805920073367015
 40
2.805920073367015
 40
3.0
 40
3.0
 40
3.0
 40
3.0
 10
-412.3701832819026
 20
123.9436999868118
 30
0.0
 10
-418.5224052152436
 20
124.0277268762053
 30
0.0
 10
-424.5737939881831
 20
123.9566051525917
 30
0.0
 10
-441.3020600106899
 20
123.2347541093355
 30
0.0
 10
-451.7726017641355
 20
122.1626875572094
 30
0.0
 10
-472.1893379714547
 20
118.427340950244
 30
0.0
 10
-482.1356284678361
 20
115.7621114293044
 30
0.0
 10
-501.5130469265679
 20
108.4817634269423
 30
0.0
 10
-510.9413663136422
 20
103.8658774674815
 30
0.0
 10
-527.9429338227516
 20
93.22583427205923
 30
0.0
 10
-535.5868344046989
 20
87.50269254732968
 30
0.0
 10
-543.0478816829492
 20
80.88727741967542
 30
0.0
  0
SPLINE
  5
4A16
330
1F
100
AcDbEntity
  8
0
  6
AM_DIN_F_W050
 62
     6
 48
5.0
100
AcDbSpline
210
0.0
220
0.0
230
1.0
 70
     8
 71
     3
 72
     8
 73
     4
 74
     0
 42
0.0000000001
 43
0.0000000001
 40
3.0
 40
3.0
 40
3.0
 40
3.0
 40
4.0
 40
4.0
 40
4.0
 40
4.0
 10
-537.0949377781242
 20
74.17338342185162
 30
0.0
 10
-559.3075354343743
 20
53.71502838712938
 30
0.0
 10
-574.2289330038186
 20
30.9525934912961
 30
0.0
 10
-574.2055063545133
 20
-0.0463756927317303
 30
0.0
  0
SPLINE
  5
4A17
330
1F
100
AcDbEntity
  8
0
  6
AM_DIN_F_W050
 62
     6
 48
5.0
100
AcDbSpline
210
0.0
220
0.0
230
1.0
 70
     8
 71
     3
 72
    16
 73
    12
 74
     0
 42
0.0000000001
 43
0.0000000001
 40
3.0
 40
3.0
 40
3.0
 40
3.0
 40
3.137130688332326
 40
3.137130688332326
 40
3.358736061777655
 40
3.358736061777655
 40
3.580341435222984
 40
3.580341435222984
 40
3.801946808668314
 40
3.801946808668314
 40
4.0
 40
4.0
 40
4.0
 40
4.0
 10
-543.1737978430946
 20
80.77348751637266
 30
0.0
 10
-546.3523846160344
 20
77.84593002328616
 30
0.0
 10
-549.4080261076101
 20
74.85481623601045
 30
0.0
 10
-557.021878367846
 20
66.81117639566396
 30
0.0
 10
-561.3475036172162
 20
61.62287950734377
 30
0.0
 10
-569.023260694764
 20
50.64651738121385
 30
0.0
 10
-572.3725071912806
 20
44.8565294689988
 30
0.0
 10
-577.8353894333092
 20
32.56825708895018
 30
0.0
 10
-579.9459911107287
 20
26.07057828837013
 30
0.0
 10
-582.5457390044435
 20
13.07712192571624
 30
0.0
 10
-583.1835295573216
 20
6.657225183544155
 30
0.0
 10
-583.1784583640298
 20
-0.0531567633768344
 30
0.0
  0
SPLINE
  5
4A18
330
1F
100
AcDbEntity
  8
0
  6
AM_DIN_F_W050
 62
     6
 48
5.0
100
AcDbSpline
210
0.0
220
0.0
230
1.0
 70
     8
 71
     3
 72
     8
 73
     4
 74
     0
 42
0.0000000001
 43
0.0000000001
 40
4.0
 40
4.0
 40
4.0
 40
4.0
 40
5.0
 40
5.0
 40
5.0
 40
5.0
 10
-574.2055063545133
 20
-0.0463756927317303
 30
0.0
 10
-574.2316890802078
 20
-28.53731536287064
 30
0.0
 10
-561.5096404690964
 20
-50.44261050175949
 30
0.0
 10
-541.5184403822911
 20
-69.96665564064833
 30
0.0
  0
SPLINE
  5
4A19
330
1F
100
AcDbEntity
  8
0
  6
AM_DIN_F_W050
 62
     6
 48
5.0
100
AcDbSpline
210
0.0
220
0.0
230
1.0
 70
     8
 71
     3
 72
    18
 73
    14
 74
     0
 42
0.0000000001
 43
0.0000000001
 40
4.0
 40
4.0
 40
4.0
 40
4.0
 40
4.179723964022012
 40
4.179723964022012
 40
4.359447928044025
 40
4.359447928044025
 40
4.539171892066037
 40
4.539171892066037
 40
4.71889585608805
 40
4.71889585608805
 40
4.898619820110062
 40
4.898619820110062
 40
5.0
 40
5.0
 40
5.0
 40
5.0
 10
-583.1784571373648
 20
-0.0381296920122776
 30
0.0
 10
-583.1836046707691
 20
-5.639458804432067
 30
0.0
 10
-582.7373171869205
 20
-11.05025172111648
 30
0.0
 10
-580.9963372844765
 20
-21.4899933674201
 30
0.0
 10
-579.7016103997723
 20
-26.51803591756421
 30
0.0
 10
-576.3466526673796
 20
-36.18818054120961
 30
0.0
 10
-574.287076819696
 20
-40.82973960047918
 30
0.0
 10
-569.5049745992521
 20
-49.74555808325046
 30
0.0
 10
-566.7830480053383
 20
-54.02002115700061
 30
0.0
 10
-560.7766195836354
 20
-62.24848687585773
 30
0.0
 10
-557.4922544994972
 20
-66.20294791400761
 30
0.0
 10
-551.9827590875379
 20
-72.18669114949282
 30
0.0
 10
-549.919850744603
 20
-74.3038537766474
 30
0.0
 10
-547.7878297263812
 20
-76.38605366540236
 30
0.0
  0
SPLINE
  5
4A1A
330
1F
100
AcDbEntity
  8
0
  6
AM_DIN_F_W050
 62
     6
 48
5.0
100
AcDbSpline
210
0.0
220
0.0
230
1.0
 70
     8
 71
     3
 72
     8
 73
     4
 74
     0
 42
0.0000000001
 43
0.0000000001
 40
5.0
 40
5.0
 40
5.0
 40
5.0
 40
6.0
 40
6.0
 40
6.0
 40
6.0
 10
-541.5184403822911
 20
-69.96665564064833
 30
0.0
 10
-504.4202741496522
 20
-105.6261499982872
 30
0.0
 10
-462.6478023614579
 20
-115.7037433142594
 30
0.0
 10
-412.4927242364576
 20
-114.9416881927316
 30
0.0
  0
SPLINE
  5
4A1B
330
1F
100
AcDbEntity
  8
0
  6
AM_DIN_F_W050
 62
     6
 48
5.0
100
AcDbSpline
210
0.0
220
0.0
230
1.0
 70
     8
 71
     3
 72
    18
 73
    14
 74
     0
 42
0.0000000001
 43
0.0000000001
 40
5.0
 40
5.0
 40
5.0
 40
5.0
 40
5.13716711808632
 40
5.13716711808632
 40
5.345783023864414
 40
5.345783023864414
 40
5.554398929642507
 40
5.554398929642507
 40
5.763014835420601
 40
5.763014835420601
 40
5.971630741198694
 40
5.971630741198694
 40
6.0
 40
6.0
 40
6.0
 40
6.0
 10
-547.7366024210495
 20
-76.43568760901482
 30
0.0
 10
-542.3986907773531
 20
-81.56659432139321
 30
0.0
 10
-536.9457515232063
 20
-86.21409263479407
 30
0.0
 10
-522.8963152954054
 20
-96.78083288653096
 30
0.0
 10
-514.140915743193
 20
-102.0998065135241
 30
0.0
 10
-496.0854235330613
 20
-110.8368515694776
 30
0.0
 10
-486.7878178879368
 20
-114.2544079200199
 30
0.0
 10
-467.6778016946407
 20
-119.4589475243989
 30
0.0
 10
-457.8663536097185
 20
-121.2474808744888
 30
0.0
 10
-437.709599722463
 20
-123.5084542531346
 30
0.0
 10
-427.3635025914636
 20
-123.9819233374733
 30
0.0
 10
-415.2689140603428
 20
-123.9490191184249
 30
0.0
 10
-413.8155008832988
 20
-123.9357766776635
 30
0.0
 10
-412.3564051020414
 20
-123.9136072093968
 30
0.0
  0
SPLINE
  5
4A1C
330
1F
100
AcDbEntity
  8
0
  6
AM_DIN_F_W050
 62
     6
 48
5.0
100
AcDbSpline
210
0.0
220
0.0
230
1.0
 70
     8
 71
     3
 72
     8
 73
     4
 74
     0
 42
0.0000000001
 43
0.0000000001
 40
6.0
 40
6.0
 40
6.0
 40
6.0
 40
7.0
 40
7.0
 40
7.0
 40
7.0
 10
-412.4927242364576
 20
-114.9416881927316
 30
0.0
 10
-381.1409772746522
 20
-113.7717337656483
 30
0.0
 10
-351.2540849135409
 20
-110.1902124982871
 30
0.0
 10
-325.4916608684023
 20
-90.97898202953723
 30
0.0
  0
SPLINE
  5
4A1D
330
1F
100
AcDbEntity
  8
0
  6
AM_DIN_F_W050
 62
     6
 48
5.0
100
AcDbSpline
210
0.0
220
0.0
230
1.0
 70
     8
 71
     3
 72
    16
 73
    12
 74
     0
 42
0.0000000001
 43
0.0000000001
 40
6.0
 40
6.0
 40
6.0
 40
6.0
 40
6.129849364008759
 40
6.129849364008759
 40
6.389548092026276
 40
6.389548092026276
 40
6.649246820043794
 40
6.649246820043794
 40
6.862707481975292
 40
6.862707481975292
 40
7.0
 40
7.0
 40
7.0
 40
7.0
 10
-412.1581130250265
 20
-123.9084015864557
 30
0.0
 10
-408.0261339483128
 20
-123.7542083538009
 30
0.0
 10
-403.896807273991
 20
-123.5580020144785
 30
0.0
 10
-391.5315509756417
 20
-122.7507086464128
 30
0.0
 10
-383.3172065451138
 20
-121.9221803123449
 30
0.0
 10
-367.0379167457245
 20
-119.1615564947352
 30
0.0
 10
-358.9707481940823
 20
-117.2278571813012
 30
0.0
 10
-344.5483762911081
 20
-112.2013620582453
 30
0.0
 10
-338.1453920559434
 20
-109.3747502556668
 30
0.0
 10
-327.9073528071688
 20
-103.5897315351652
 30
0.0
 10
-323.9718590687285
 20
-101.0387798593668
 30
0.0
 10
-320.1276699901339
 20
-98.17213958417637
 30
0.0
  0
SPLINE
  5
4A1E
330
1F
100
AcDbEntity
  8
0
  6
AM_DIN_F_W050
 62
     6
 48
5.0
100
AcDbSpline
210
0.0
220
0.0
230
1.0
 70
     8
 71
     3
 72
     8
 73
     4
 74
     0
 42
0.0000000001
 43
0.0000000001
 40
7.0
 40
7.0
 40
7.0
 40
7.0
 40
8.0
 40
8.0
 40
8.0
 40
8.0
 10
-325.4916608684023
 20
-90.97898202953723
 30
0.0
 10
-303.7724008857633
 20
-75.33962656078731
 30
0.0
 10
-288.5753956774299
 20
-52.30296206425949
 30
0.0
 10
-282.2364199829856
 20
-26.34347855731501
 30
0.0
  0
SPLINE
  5
4A1F
330
1F
100
AcDbEntity
  8
0
  6
AM_DIN_F_W050
 62
     6
 48
5.0
100
AcDbSpline
210
0.0
220
0.0
230
1.0
 70
     8
 71
     3
 72
    12
 73
     8
 74
     0
 42
0.0000000001
 43
0.0000000001
 40
7.0
 40
7.0
 40
7.0
 40
7.0
 40
7.16244665085326
 40
7.16244665085326
 40
7.48733995255978
 40
7.48733995255978
 40
8.0
 40
8.0
 40
8.0
 40
8.0
 10
-320.2483925016659
 20
-98.26060620154638
 30
0.0
 10
-316.4310033709255
 20
-95.51182444627887
 30
0.0
 10
-312.8002150912782
 20
-92.55207507399864
 30
0.0
 10
-302.5020423550002
 20
-83.10457502786283
 30
0.0
 10
-296.4291602871629
 20
-76.04894496460073
 30
0.0
 10
-283.0362940223529
 20
-56.34353191948107
 30
0.0
 10
-277.0224643117906
 20
-42.81707532025793
 30
0.0
 10
-273.5195840201432
 20
-28.4720190302461
 30
0.0
  0
SPLINE
  5
4A20
330
1F
100
AcDbEntity
  8
0
  6
AM_DIN_F_W050
 62
     6
 48
5.0
100
AcDbSpline
210
0.0
220
0.0
230
1.0
 70
     8
 71
     3
 72
     8
 73
     4
 74
     0
 42
0.0000000001
 43
0.0000000001
 40
0.0
 40
0.0
 40
0.0
 40
0.0
 40
1.0
 40
1.0
 40
1.0
 40
1.0
 10
-264.9745967950514
 20
-7.22044253300949
 30
0.0
 10
-263.3281856622391
 20
-8.602270332488687
 30
0.0
 10
-262.3306582642356
 20
-8.772802559051187
 30
0.0
 10
-262.3306582642356
 20
-8.772802559051187
 30
0.0
  0
SPLINE
  5
4A21
330
1F
100
AcDbEntity
  8
0
  6
AM_DIN_F_W050
 62
     6
 48
5.0
100
AcDbSpline
210
0.0
220
0.0
230
1.0
 70
     8
 71
     3
 72
     8
 73
     4
 74
     0
 42
0.0000000001
 43
0.0000000001
 40
1.0
 40
1.0
 40
1.0
 40
1.0
 40
2.0
 40
2.0
 40
2.0
 40
2.0
 10
-262.3306582642356
 20
-8.772802559051187
 30
0.0
 10
-259.9246035767357
 20
-9.428748739606662
 30
0.0
 10
-257.6908036635412
 20
-6.599636326412295
 30
0.0
 10
-257.1685271878466
 20
-4.471945354190055
 30
0.0
  0
SPLINE
  5
4A22
330
1F
100
AcDbEntity
  8
0
  6
AM_DIN_F_W050
 62
     6
 48
5.0
100
AcDbSpline
210
0.0
220
0.0
230
1.0
 70
     8
 71
     3
 72
     8
 73
     4
 74
     0
 42
0.0000000001
 43
0.0000000001
 40
0.0
 40
0.0
 40
0.0
 40
0.0
 40
1.0
 40
1.0
 40
1.0
 40
1.0
 10
-257.1685271878466
 20
4.377126911435012
 30
0.0
 10
-257.6908036635412
 20
6.504817883657138
 30
0.0
 10
-259.9246035767357
 20
9.333930296851617
 30
0.0
 10
-262.3306582642356
 20
8.677984116296029
 30
0.0
  0
SPLINE
  5
4A23
330
1F
100
AcDbEntity
  8
0
  6
AM_DIN_F_W050
 62
     6
 48
5.0
100
AcDbSpline
210
0.0
220
0.0
230
1.0
 70
     8
 71
     3
 72
     8
 73
     4
 74
     0
 42
0.0000000001
 43
0.0000000001
 40
1.0
 40
1.0
 40
1.0
 40
1.0
 40
2.0
 40
2.0
 40
2.0
 40
2.0
 10
-262.3306582642356
 20
8.677984116296029
 30
0.0
 10
-262.3306582642356
 20
8.677984116296029
 30
0.0
 10
-263.3281856622391
 20
8.507451889733529
 30
0.0
 10
-264.9745967950514
 20
7.125624090254446
 30
0.0
  0
SPLINE
  5
4A24
330
1F
100
AcDbEntity
  8
0
  6
AM_DIN_F_W050
 62
     6
 48
5.0
100
AcDbSpline
210
0.0
220
0.0
230
1.0
 70
     8
 71
     3
 72
     8
 73
     4
 74
     0
 42
0.0000000001
 43
0.0000000001
 40
0.0
 40
0.0
 40
0.0
 40
0.0
 40
1.0
 40
1.0
 40
1.0
 40
1.0
 10
-247.3376027086799
 20
-93.19211136981499
 30
0.0
 10
-251.5805823093745
 20
-67.57713741148174
 30
0.0
 10
-265.119807569791
 20
-37.40085702953725
 30
0.0
 10
-268.840510694791
 20
-12.13728281078723
 30
0.0
  0
LINE
  5
4A25
330
1F
100
AcDbEntity
  8
0
  6
AM_DIN_F_W050
 62
     6
 48
5.0
100
AcDbLine
 10
-556.1408036635409
 20
123.0813369808794
 30
0.0
 11
-552.8224876913188
 21
116.0767688385182
 31
0.0
  0
LINE
  5
4A26
330
1F
100
AcDbEntity
  8
0
  6
AM_DIN_F_W050
 62
     6
 48
5.0
100
AcDbLine
 10
-552.8224876913188
 20
116.0767688385182
 30
0.0
 11
-549.014968160069
 21
109.3188695329628
 31
0.0
  0
LINE
  5
4A27
330
1F
100
AcDbEntity
  8
0
  6
AM_DIN_F_W050
 62
     6
 48
5.0
100
AcDbLine
 10
-549.014968160069
 20
109.3188695329628
 30
0.0
 11
-545.0834251913185
 21
102.6836156267127
 31
0.0
  0
LINE
  5
4A28
330
1F
100
AcDbEntity
  8
0
  6
AM_DIN_F_W050
 62
     6
 48
5.0
100
AcDbLine
 10
-545.0834251913185
 20
102.6836156267127
 30
0.0
 11
-540.6585445489579
 21
96.29365251907389
 31
0.0
  0
LINE
  5
4A29
330
1F
100
AcDbEntity
  8
0
  6
AM_DIN_F_W050
 62
     6
 48
5.0
100
AcDbLine
 10
-538.3241478475686
 20
131.1924697933794
 30
0.0
 11
-534.3912268406245
 21
123.0813369808794
 31
0.0
  0
LINE
  5
4A2A
330
1F
100
AcDbEntity
  8
0
  6
AM_DIN_F_W050
 62
     6
 48
5.0
100
AcDbLine
 10
-534.3912268406245
 20
123.0813369808794
 30
0.0
 11
-529.8450788371521
 21
115.2168730051849
 31
0.0
  0
LINE
  5
4A2B
330
1F
100
AcDbEntity
  8
0
  6
AM_DIN_F_W050
 62
     6
 48
5.0
100
AcDbLine
 10
-529.8450788371521
 20
115.2168730051849
 30
0.0
 11
-524.8069711982632
 21
107.7217232656016
 31
0.0
  0
LINE
  5
4A2C
330
1F
100
AcDbEntity
  8
0
  6
AM_DIN_F_W050
 62
     6
 48
5.0
100
AcDbLine
 10
-341.4658796184024
 20
134.0174480919905
 30
0.0
 11
-341.4658796184024
 21
133.894802692685
 31
0.0
  0
SPLINE
  5
4A2D
330
1F
100
AcDbEntity
  8
0
  6
AM_DIN_F_W050
 62
     6
 48
5.0
100
AcDbSpline
210
0.0
220
0.0
230
1.0
 70
     8
 71
     3
 72
     8
 73
     4
 74
     0
 42
0.0000000001
 43
0.0000000001
 40
0.0
 40
0.0
 40
0.0
 40
0.0
 40
1.0
 40
1.0
 40
1.0
 40
1.0
 10
-527.7559729343745
 20
93.58856354337941
 30
0.0
 10
-522.9149247572911
 20
96.26471371699059
 30
0.0
 10
-521.3908145142356
 20
103.2389650190739
 30
0.0
 10
-524.8069711982632
 20
107.7217232656016
 30
0.0
  0
LINE
  5
4A2E
330
1F
100
AcDbEntity
  8
0
  6
AM_DIN_F_W050
 62
     6
 48
5.0
100
AcDbLine
 10
-540.6585445489579
 20
96.29365251907389
 30
0.0
 11
-540.6585445489579
 21
96.1696290815739
 31
0.0
  0
LINE
  5
4A2F
330
1F
100
AcDbEntity
  8
0
  6
AM_DIN_F_W050
 62
     6
 48
5.0
100
AcDbLine
 10
-538.3241478475686
 20
131.1924697933794
 30
0.0
 11
-538.4467932468744
 21
131.3151151926849
 31
0.0
  0
LINE
  5
4A30
330
1F
100
AcDbEntity
  8
0
  6
AM_DIN_F_W050
 62
     6
 48
5.0
100
AcDbLine
 10
-556.2648271010409
 20
123.2053604183794
 30
0.0
 11
-556.8794321357634
 21
125.7850479183795
 31
0.0
  0
LINE
  5
4A31
330
1F
100
AcDbEntity
  8
0
  6
AM_DIN_F_W050
 62
     6
 48
5.0
100
AcDbLine
 10
-556.8794321357634
 20
125.7850479183795
 30
0.0
 11
-556.8794321357634
 21
128.6114042551849
 31
0.0
  0
LINE
  5
4A32
330
1F
100
AcDbEntity
  8
0
  6
AM_DIN_F_W050
 62
     6
 48
5.0
100
AcDbLine
 10
-552.0866152954856
 20
135.6145943593516
 30
0.0
 11
-553.8064069621521
 21
134.3867623281016
 31
0.0
  0
LINE
  5
4A33
330
1F
100
AcDbEntity
  8
0
  6
AM_DIN_F_W050
 62
     6
 48
5.0
100
AcDbLine
 10
-553.8064069621521
 20
134.3867623281016
 30
0.0
 11
-555.2809078302077
 21
132.6655926232406
 31
0.0
  0
LINE
  5
4A34
330
1F
100
AcDbEntity
  8
0
  6
AM_DIN_F_W050
 62
     6
 48
5.0
100
AcDbLine
 10
-555.2809078302077
 20
132.6655926232406
 30
0.0
 11
-556.3874725003468
 21
130.7005101579627
 31
0.0
  0
LINE
  5
4A35
330
1F
100
AcDbEntity
  8
0
  6
AM_DIN_F_W050
 62
     6
 48
5.0
100
AcDbLine
 10
-556.3874725003468
 20
130.7005101579627
 30
0.0
 11
-556.8794321357634
 21
128.6114042551849
 31
0.0
  0
LINE
  5
4A36
330
1F
100
AcDbEntity
  8
0
  6
AM_DIN_F_W050
 62
     6
 48
5.0
100
AcDbLine
 10
-556.2648271010409
 20
123.2053604183794
 30
0.0
 11
-556.1408036635409
 21
123.0813369808794
 31
0.0
  0
SPLINE
  5
4A37
330
1F
100
AcDbEntity
  8
0
  6
AM_DIN_F_W050
 62
     6
 48
5.0
100
AcDbSpline
210
0.0
220
0.0
230
1.0
 70
     8
 71
     3
 72
     8
 73
     4
 74
     0
 42
0.0000000001
 43
0.0000000001
 40
0.0
 40
0.0
 40
0.0
 40
0.0
 40
1.0
 40
1.0
 40
1.0
 40
1.0
 10
-322.0506994968744
 20
-136.0780380191206
 30
0.0
 10
-321.4057776218745
 20
-123.081759807315
 30
0.0
 10
-339.6675397746524
 20
-121.1359698767594
 30
0.0
 10
-341.4658796184024
 20
-134.1129555538427
 30
0.0
  0
SPLINE
  5
4A38
330
1F
100
AcDbEntity
  8
0
  6
AM_DIN_F_W050
 62
     6
 48
5.0
100
AcDbSpline
210
0.0
220
0.0
230
1.0
 70
     8
 71
     3
 72
     8
 73
     4
 74
     0
 42
0.0000000001
 43
0.0000000001
 40
0.0
 40
0.0
 40
0.0
 40
0.0
 40
1.0
 40
1.0
 40
1.0
 40
1.0
 10
-341.4658796184024
 20
-164.9548283837038
 30
0.0
 10
-340.134694722569
 20
-177.1546005191205
 30
0.0
 10
-322.4971838718746
 20
-176.4669594600927
 30
0.0
 10
-322.0506994968744
 20
-164.2175779496761
 30
0.0
  0
LINE
  5
4A39
330
1F
100
AcDbEntity
  8
0
  6
AM_DIN_F_W050
 62
     6
 48
5.0
100
AcDbLine
 10
-540.6585445489579
 20
-96.38640390453719
 30
0.0
 11
-545.0834251913185
 21
-102.776367012176
 31
0.0
  0
LINE
  5
4A3A
330
1F
100
AcDbEntity
  8
0
  6
AM_DIN_F_W050
 62
     6
 48
5.0
100
AcDbLine
 10
-545.0834251913185
 20
-102.776367012176
 30
0.0
 11
-549.014968160069
 21
-109.4116209184261
 31
0.0
  0
LINE
  5
4A3B
330
1F
100
AcDbEntity
  8
0
  6
AM_DIN_F_W050
 62
     6
 48
5.0
100
AcDbLine
 10
-549.014968160069
 20
-109.4116209184261
 30
0.0
 11
-552.8224876913188
 21
-116.1708982621761
 31
0.0
  0
LINE
  5
4A3C
330
1F
100
AcDbEntity
  8
0
  6
AM_DIN_F_W050
 62
     6
 48
5.0
100
AcDbLine
 10
-552.8224876913188
 20
-116.1708982621761
 30
0.0
 11
-556.1408036635409
 21
-123.0528210052317
 31
0.0
  0
LINE
  5
4A3D
330
1F
100
AcDbEntity
  8
0
  6
AM_DIN_F_W050
 62
     6
 48
5.0
100
AcDbLine
 10
-524.8069711982632
 20
-107.6918292517594
 30
0.0
 11
-529.8450788371521
 21
-115.1883570295372
 31
0.0
  0
LINE
  5
4A3E
330
1F
100
AcDbEntity
  8
0
  6
AM_DIN_F_W050
 62
     6
 48
5.0
100
AcDbLine
 10
-529.8450788371521
 20
-115.1883570295372
 30
0.0
 11
-534.3912268406245
 21
-123.0528210052317
 31
0.0
  0
LINE
  5
4A3F
330
1F
100
AcDbEntity
  8
0
  6
AM_DIN_F_W050
 62
     6
 48
5.0
100
AcDbLine
 10
-534.3912268406245
 20
-123.0528210052317
 30
0.0
 11
-538.3241478475691
 21
-131.1625757795372
 31
0.0
  0
SPLINE
  5
4A40
330
1F
100
AcDbEntity
  8
0
  6
AM_DIN_F_W050
 62
     6
 48
5.0
100
AcDbSpline
210
0.0
220
0.0
230
1.0
 70
     8
 71
     3
 72
     8
 73
     4
 74
     0
 42
0.0000000001
 43
0.0000000001
 40
0.0
 40
0.0
 40
0.0
 40
0.0
 40
1.0
 40
1.0
 40
1.0
 40
1.0
 10
-524.8069711982632
 20
-107.6918292517594
 30
0.0
 10
-517.6521968927079
 20
-96.90041215106504
 30
0.0
 10
-532.6121795315964
 20
-86.16549461634276
 30
0.0
 10
-540.6585445489579
 20
-96.38640390453719
 30
0.0
  0
SPLINE
  5
4A41
330
1F
100
AcDbEntity
  8
0
  6
AM_DIN_F_W050
 62
     6
 48
5.0
100
AcDbSpline
210
0.0
220
0.0
230
1.0
 70
     8
 71
     3
 72
     8
 73
     4
 74
     0
 42
0.0000000001
 43
0.0000000001
 40
0.0
 40
0.0
 40
0.0
 40
0.0
 40
1.0
 40
1.0
 40
1.0
 40
1.0
 10
-556.1408036635409
 20
-123.0528210052317
 30
0.0
 10
-560.8054629517353
 20
-134.3899412309261
 30
0.0
 10
-545.7393713718745
 20
-142.5699759531483
 30
0.0
 10
-538.938752882291
 20
-132.2677624114817
 30
0.0
  0
LINE
  5
4A42
330
1F
100
AcDbEntity
  8
0
  6
AM_DIN_F_W050
 62
     6
 48
5.0
100
AcDbLine
 10
-538.5680606079857
 20
-131.5305119774538
 30
0.0
 11
-538.3241478475691
 21
-131.1625757795372
 31
0.0
  0
SPLINE
  5
4A43
330
1F
100
AcDbEntity
  8
0
  6
AM_DIN_F_W050
 62
     6
 48
5.0
100
AcDbSpline
210
0.0
220
0.0
230
1.0
 70
    24
 71
     3
 72
     8
 73
     4
 74
     0
 42
0.0000000001
 43
0.0000000001
 40
0.0
 40
0.0
 40
0.0
 40
0.0
 40
1.0
 40
1.0
 40
1.0
 40
1.0
 10
-226.2026309204855
 20
70.73380008851832
 30
0.0
 10
-226.2026309204855
 20
70.73380008851832
 30
0.0
 10
-219.8126678128467
 20
70.73380008851832
 30
0.0
 10
-219.8126678128467
 20
70.73380008851832
 30
0.0
  0
SPLINE
  5
4A44
330
1F
100
AcDbEntity
  8
0
  6
AM_DIN_F_W050
 62
     6
 48
5.0
100
AcDbSpline
210
0.0
220
0.0
230
1.0
 70
     8
 71
     3
 72
     8
 73
     4
 74
     0
 42
0.0000000001
 43
0.0000000001
 40
1.0
 40
1.0
 40
1.0
 40
1.0
 40
2.0
 40
2.0
 40
2.0
 40
2.0
 10
-219.8126678128467
 20
70.73380008851832
 30
0.0
 10
-217.3366776869786
 20
70.73380008851832
 30
0.0
 10
-217.2329803128466
 20
68.15617964581004
 30
0.0
 10
-217.2329803128466
 20
68.15617964581004
 30
0.0
  0
SPLINE
  5
4A45
330
1F
100
AcDbEntity
  8
0
  6
AM_DIN_F_W050
 62
     6
 48
5.0
100
AcDbSpline
210
0.0
220
0.0
230
1.0
 70
    24
 71
     3
 72
     8
 73
     4
 74
     0
 42
0.0000000001
 43
0.0000000001
 40
2.0
 40
2.0
 40
2.0
 40
2.0
 40
3.0
 40
3.0
 40
3.0
 40
3.0
 10
-217.2329803128466
 20
68.15617964581004
 30
0.0
 10
-217.2329803128466
 20
68.15617964581004
 30
0.0
 10
-217.2329803128466
 20
-69.07403140019695
 30
0.0
 10
-217.2329803128466
 20
-69.07403140019695
 30
0.0
  0
SPLINE
  5
4A46
330
1F
100
AcDbEntity
  8
0
  6
AM_DIN_F_W050
 62
     6
 48
5.0
100
AcDbSpline
210
0.0
220
0.0
230
1.0
 70
     8
 71
     3
 72
     8
 73
     4
 74
     0
 42
0.0000000001
 43
0.0000000001
 40
3.0
 40
3.0
 40
3.0
 40
3.0
 40
4.0
 40
4.0
 40
4.0
 40
4.0
 10
-217.2329803128466
 20
-69.07403140019695
 30
0.0
 10
-217.2329803128466
 20
-69.07403140019695
 30
0.0
 10
-216.9370466105897
 20
-71.75534921703726
 30
0.0
 10
-219.8126678128467
 20
-71.75534921703726
 30
0.0
  0
SPLINE
  5
4A47
330
1F
100
AcDbEntity
  8
0
  6
AM_DIN_F_W050
 62
     6
 48
5.0
100
AcDbSpline
210
0.0
220
0.0
230
1.0
 70
    24
 71
     3
 72
     8
 73
     4
 74
     0
 42
0.0000000001
 43
0.0000000001
 40
4.0
 40
4.0
 40
4.0
 40
4.0
 40
5.0
 40
5.0
 40
5.0
 40
5.0
 10
-219.8126678128467
 20
-71.75534921703726
 30
0.0
 10
-219.8126678128467
 20
-71.75534921703726
 30
0.0
 10
-226.2026309204855
 20
-71.75534921703726
 30
0.0
 10
-226.2026309204855
 20
-71.75534921703726
 30
0.0
  0
SPLINE
  5
4A48
330
1F
100
AcDbEntity
  8
0
  6
AM_DIN_F_W050
 62
     6
 48
5.0
100
AcDbSpline
210
0.0
220
0.0
230
1.0
 70
     8
 71
     3
 72
     8
 73
     4
 74
     0
 42
0.0000000001
 43
0.0000000001
 40
0.0
 40
0.0
 40
0.0
 40
0.0
 40
1.0
 40
1.0
 40
1.0
 40
1.0
 10
-226.2026309204855
 20
83.3897028662961
 30
0.0
 10
-234.5011769274299
 20
82.98042552254612
 30
0.0
 10
-234.5066890802077
 20
71.1444554704628
 30
0.0
 10
-226.2026309204855
 20
70.73380008851832
 30
0.0
  0
LINE
  5
4A49
330
1F
100
AcDbEntity
  8
0
  6
AM_DIN_F_W050
 62
     6
 48
5.0
100
AcDbLine
 10
-246.6003522746521
 20
152.572732380185
 30
0.0
 11
-246.7243757121521
 21
152.3274415815738
 31
0.0
  0
SPLINE
  5
4A4A
330
1F
100
AcDbEntity
  8
0
  6
AM_DIN_F_W050
 62
     6
 48
5.0
100
AcDbSpline
210
0.0
220
0.0
230
1.0
 70
    24
 71
     3
 72
     8
 73
     4
 74
     0
 42
0.0000000001
 43
0.0000000001
 40
3.0
 40
3.0
 40
3.0
 40
3.0
 40
4.0
 40
4.0
 40
4.0
 40
4.0
 10
-245.1258514065965
 20
117.1819554704627
 30
0.0
 10
-245.1258514065965
 20
117.1819554704627
 30
0.0
 10
-239.4731387329855
 20
117.1819554704627
 30
0.0
 10
-239.4731387329855
 20
117.1819554704627
 30
0.0
  0
SPLINE
  5
4A4B
330
1F
100
AcDbEntity
  8
0
  6
AM_DIN_F_W050
 62
     6
 48
5.0
100
AcDbSpline
210
0.0
220
0.0
230
1.0
 70
    24
 71
     3
 72
     8
 73
     4
 74
     0
 42
0.0000000001
 43
0.0000000001
 40
4.0
 40
4.0
 40
4.0
 40
4.0
 40
5.0
 40
5.0
 40
5.0
 40
5.0
 10
-239.4731387329855
 20
117.1819554704627
 30
0.0
 10
-239.4731387329855
 20
117.1819554704627
 30
0.0
 10
-239.4731387329855
 20
110.1691190989349
 30
0.0
 10
-239.4731387329855
 20
110.1691190989349
 30
0.0
  0
LINE
  5
4A4C
330
1F
100
AcDbEntity
  8
0
  6
AM_DIN_F_W050
 62
     6
 48
5.0
100
AcDbLine
 10
-282.2364199829856
 20
-26.34347855731501
 30
0.0
 11
-281.1312333510411
 21
-34.82254756773166
 31
0.0
  0
LINE
  5
4A4D
330
1F
100
AcDbEntity
  8
0
 62
     7
100
AcDbLine
 10
-281.1312333510411
 20
-34.82254756773166
 30
0.0
 11
-281.1312333510411
 21
-35.06783836634277
 31
0.0
  0
LINE
  5
4A4E
330
1F
100
AcDbEntity
  8
0
  6
AM_DIN_F_W050
 62
     6
 48
5.0
100
AcDbLine
 10
-341.4658796184024
 20
-134.1129555538427
 30
0.0
 11
-342.0804846531244
 21
-141.8520180538427
 31
0.0
  0
LINE
  5
4A4F
330
1F
100
AcDbEntity
  8
0
  6
AM_DIN_F_W050
 62
     6
 48
5.0
100
AcDbLine
 10
-342.0804846531244
 20
-141.8520180538427
 30
0.0
 11
-342.2031300524302
 21
-149.5952146684261
 31
0.0
  0
LINE
  5
4A50
330
1F
100
AcDbEntity
  8
0
  6
AM_DIN_F_W050
 62
     6
 48
5.0
100
AcDbLine
 10
-342.2031300524302
 20
-149.5952146684261
 30
0.0
 11
-342.0804846531244
 21
-157.337033244815
 31
0.0
  0
LINE
  5
4A51
330
1F
100
AcDbEntity
  8
0
  6
AM_DIN_F_W050
 62
     6
 48
5.0
100
AcDbLine
 10
-342.0804846531244
 20
-157.337033244815
 30
0.0
 11
-341.4658796184024
 21
-164.9548283837038
 31
0.0
  0
LINE
  5
4A52
330
1F
100
AcDbEntity
  8
0
  6
AM_DIN_F_W050
 62
     6
 48
5.0
100
AcDbLine
 10
-322.0506994968744
 20
-136.0780380191206
 30
0.0
 11
-322.6653045315968
 21
-145.0490666649538
 31
0.0
  0
LINE
  5
4A53
330
1F
100
AcDbEntity
  8
0
  6
AM_DIN_F_W050
 62
     6
 48
5.0
100
AcDbLine
 10
-322.6653045315968
 20
-145.0490666649538
 30
0.0
 11
-322.6653045315968
 21
-154.0187172725927
 31
0.0
  0
LINE
  5
4A54
330
1F
100
AcDbEntity
  8
0
  6
AM_DIN_F_W050
 62
     6
 48
5.0
100
AcDbLine
 10
-322.6653045315968
 20
-154.0187172725927
 30
0.0
 11
-322.0506994968744
 21
-163.1110132795372
 31
0.0
  0
LINE
  5
4A55
330
1F
100
AcDbEntity
  8
0
  6
AM_DIN_F_W050
 62
     6
 48
5.0
100
AcDbLine
 10
-341.4658796184024
 20
165.1073677968516
 30
0.0
 11
-341.4658796184024
 21
164.984722397546
 31
0.0
  0
LINE
  5
4A56
330
1F
100
AcDbEntity
  8
0
  6
AM_DIN_F_W050
 62
     6
 48
5.0
100
AcDbLine
 10
-322.0506994968744
 20
163.1409072933793
 30
0.0
 11
-322.6653045315968
 21
154.0472332482405
 31
0.0
  0
LINE
  5
4A57
330
1F
100
AcDbEntity
  8
0
  6
AM_DIN_F_W050
 62
     6
 48
5.0
100
AcDbLine
 10
-322.6653045315968
 20
154.0472332482405
 30
0.0
 11
-322.6653045315968
 21
145.0775826406016
 31
0.0
  0
LINE
  5
4A58
330
1F
100
AcDbEntity
  8
0
  6
AM_DIN_F_W050
 62
     6
 48
5.0
100
AcDbLine
 10
-322.6653045315968
 20
145.0775826406016
 30
0.0
 11
-322.0506994968744
 21
135.9839085954627
 31
0.0
  0
LINE
  5
4A59
330
1F
100
AcDbEntity
  8
0
  6
AM_DIN_F_W050
 62
     6
 48
5.0
100
AcDbLine
 10
-281.1312333510411
 20
34.72841814407381
 30
0.0
 11
-282.2364199829856
 21
26.24934913365716
 31
0.0
  0
LINE
  5
4A5A
330
1F
100
AcDbEntity
  8
0
 62
     7
100
AcDbLine
 10
-281.1312333510411
 20
34.97508698087943
 30
0.0
 11
-281.1312333510411
 21
34.72841814407381
 31
0.0
  0
LINE
  5
4A5B
330
1F
100
AcDbEntity
  8
0
  6
AM_DIN_F_W050
 62
     6
 48
5.0
100
AcDbLine
 10
-341.4658796184024
 20
164.984722397546
 30
0.0
 11
-342.0804846531244
 21
157.2429038211572
 31
0.0
  0
LINE
  5
4A5C
330
1F
100
AcDbEntity
  8
0
  6
AM_DIN_F_W050
 62
     6
 48
5.0
100
AcDbLine
 10
-342.0804846531244
 20
157.2429038211572
 30
0.0
 11
-342.2031300524297
 21
149.5010852447683
 31
0.0
  0
LINE
  5
4A5D
330
1F
100
AcDbEntity
  8
0
  6
AM_DIN_F_W050
 62
     6
 48
5.0
100
AcDbLine
 10
-342.2031300524297
 20
149.5010852447683
 30
0.0
 11
-342.0804846531244
 21
141.7592666683794
 31
0.0
  0
LINE
  5
4A5E
330
1F
100
AcDbEntity
  8
0
  6
AM_DIN_F_W050
 62
     6
 48
5.0
100
AcDbLine
 10
-342.0804846531244
 20
141.7592666683794
 30
0.0
 11
-341.4658796184024
 21
134.0174480919905
 31
0.0
  0
LINE
  5
4A5F
330
1F
100
AcDbEntity
  8
0
  6
AM_DIN_F_W050
 62
     6
 48
5.0
100
AcDbLine
 10
-230.6261335246522
 20
-90.97898202953723
 30
0.0
 11
-217.2329803128466
 21
-90.97898202953723
 31
0.0
  0
LINE
  5
4A60
330
1F
100
AcDbEntity
  8
0
  6
AM_DIN_F_W050
 62
     6
 48
5.0
100
AcDbLine
 10
-247.3376027086799
 20
-93.19211136981499
 30
0.0
 11
-239.3504933336801
 21
-93.19211136981499
 31
0.0
  0
LINE
  5
4A61
330
1F
100
AcDbEntity
  8
0
  6
AM_DIN_F_W050
 62
     6
 48
5.0
100
AcDbLine
 10
-239.3504933336801
 20
-98.72217864412057
 30
0.0
 11
-236.6481604343746
 21
-98.72217864412057
 31
0.0
  0
LINE
  5
4A62
330
1F
100
AcDbEntity
  8
0
  6
AM_DIN_F_W050
 62
     6
 48
5.0
100
AcDbLine
 10
-237.5080562677078
 20
-100.1953014739817
 30
0.0
 11
-241.4395992364577
 21
-100.1953014739817
 31
0.0
  0
LINE
  5
4A63
330
1F
100
AcDbEntity
  8
0
  6
AM_DIN_F_W050
 62
     6
 48
5.0
100
AcDbLine
 10
-216.3717064413188
 20
-108.6743704843983
 30
0.0
 11
-202.8545297920134
 21
-108.6743704843983
 31
0.0
  0
LINE
  5
4A64
330
1F
100
AcDbEntity
  8
0
  6
AM_DIN_F_W050
 62
     6
 48
5.0
100
AcDbLine
 10
-237.5080562677078
 20
-110.1502493906483
 30
0.0
 11
-241.4395992364577
 21
-110.1502493906483
 31
0.0
  0
LINE
  5
4A65
330
1F
100
AcDbEntity
  8
0
  6
AM_DIN_F_W050
 62
     6
 48
5.0
100
AcDbLine
 10
-236.6481604343746
 20
-111.6233722205094
 30
0.0
 11
-239.3504933336801
 21
-111.6233722205094
 31
0.0
  0
LINE
  5
4A66
330
1F
100
AcDbEntity
  8
0
  6
AM_DIN_F_W050
 62
     6
 48
5.0
100
AcDbLine
 10
-243.1593909031244
 20
-117.153439494815
 30
0.0
 11
-244.1433101739578
 21
-117.153439494815
 31
0.0
  0
LINE
  5
4A67
330
1F
100
AcDbEntity
  8
0
  6
AM_DIN_F_W050
 62
     6
 48
5.0
100
AcDbLine
 10
-230.6261335246522
 20
-117.5213756927316
 30
0.0
 11
-216.3717064413188
 21
-117.5213756927316
 31
0.0
  0
LINE
  5
4A68
330
1F
100
AcDbEntity
  8
0
  6
AM_DIN_F_W050
 62
     6
 48
5.0
100
AcDbLine
 10
-243.1593909031244
 20
-117.153439494815
 30
0.0
 11
-239.3504933336801
 21
-117.153439494815
 31
0.0
  0
LINE
  5
4A69
330
1F
100
AcDbEntity
  8
0
  6
AM_DIN_F_W050
 62
     6
 48
5.0
100
AcDbLine
 10
-239.3504933336801
 20
-117.153439494815
 30
0.0
 11
-239.3504933336801
 21
-110.1581731102663
 31
0.0
  0
SPLINE
  5
4A6A
330
1F
100
AcDbEntity
  8
0
  6
AM_DIN_F_W050
 62
     6
 48
5.0
100
AcDbSpline
210
0.0
220
0.0
230
1.0
 70
    24
 71
     3
 72
     8
 73
     4
 74
     0
 42
0.0000000001
 43
0.0000000001
 40
1.0
 40
1.0
 40
1.0
 40
1.0
 40
2.0
 40
2.0
 40
2.0
 40
2.0
 10
-152.3494299656245
 20
-156.6666208114922
 30
0.0
 10
-152.3494299656245
 20
-156.6666208114922
 30
0.0
 10
-152.3494299656245
 20
-183.6327580712039
 30
0.0
 10
-152.3494299656245
 20
-183.6327580712039
 30
0.0
  0
LINE
  5
4A6B
330
1F
100
AcDbEntity
  8
0
  6
AM_DIN_F_W050
 62
     6
 48
5.0
100
AcDbLine
 10
-239.3504933336801
 20
-100.1939234357872
 30
0.0
 11
-239.3504933336801
 21
-93.22794036287058
 31
0.0
  0
LINE
  5
4A6C
330
1F
100
AcDbEntity
  8
0
  6
AM_DIN_F_W050
 62
     6
 48
5.0
100
AcDbLine
 10
-125.6843909031242
 20
192.0176976579626
 30
0.0
 11
-113.6417151218745
 21
192.0176976579626
 31
0.0
  0
LINE
  5
4A6D
330
1F
100
AcDbEntity
  8
0
  6
AM_DIN_F_W050
 62
     6
 48
5.0
100
AcDbLine
 10
-113.6417151218745
 20
185.014507553796
 30
0.0
 11
-114.870925191319
 21
185.014507553796
 31
0.0
  0
LINE
  5
4A6E
330
1F
100
AcDbEntity
  8
0
  6
AM_DIN_F_W050
 62
     6
 48
5.0
100
AcDbLine
 10
-124.4551808336798
 20
185.014507553796
 30
0.0
 11
-125.6843909031242
 21
185.014507553796
 31
0.0
  0
LINE
  5
4A6F
330
1F
100
AcDbEntity
  8
0
  6
AM_DIN_F_W050
 62
     6
 48
5.0
100
AcDbLine
 10
-202.8545297920134
 20
108.5816190989349
 30
0.0
 11
-202.8545297920134
 21
-108.6743704843983
 31
0.0
  0
LINE
  5
4A70
330
1F
100
AcDbEntity
  8
0
  6
AM_DIN_F_W050
 62
     6
 48
5.0
100
AcDbLine
 10
-216.3717064413188
 20
-117.5213756927316
 30
0.0
 11
-216.3717064413188
 21
-108.6743704843983
 31
0.0
  0
LINE
  5
4A71
330
1F
100
AcDbEntity
  8
0
  6
AM_DIN_F_W050
 62
     6
 48
5.0
100
AcDbLine
 10
-216.3717064413188
 20
108.5816190989349
 30
0.0
 11
-216.3717064413188
 21
145.5695422760182
 31
0.0
  0
SPLINE
  5
4A72
330
1F
100
AcDbEntity
  8
0
  6
AM_DIN_F_W050
 62
     6
 48
5.0
100
AcDbSpline
210
0.0
220
0.0
230
1.0
 70
    24
 71
     3
 72
     8
 73
     4
 74
     0
 42
0.0000000001
 43
0.0000000001
 40
0.0
 40
0.0
 40
0.0
 40
0.0
 40
1.0
 40
1.0
 40
1.0
 40
1.0
 10
-217.2329803128466
 20
88.42781050518494
 30
0.0
 10
-217.2329803128466
 20
88.42781050518494
 30
0.0
 10
-217.2329803128466
 20
85.84812300518498
 30
0.0
 10
-217.2329803128466
 20
85.84812300518498
 30
0.0
  0
SPLINE
  5
4A73
330
1F
100
AcDbEntity
  8
0
  6
AM_DIN_F_W050
 62
     6
 48
5.0
100
AcDbSpline
210
0.0
220
0.0
230
1.0
 70
     8
 71
     3
 72
     8
 73
     4
 74
     0
 42
0.0000000001
 43
0.0000000001
 40
1.0
 40
1.0
 40
1.0
 40
1.0
 40
2.0
 40
2.0
 40
2.0
 40
2.0
 10
-217.2329803128466
 20
85.84812300518498
 30
0.0
 10
-217.2329803128466
 20
85.84812300518498
 30
0.0
 10
-217.3366776869786
 20
83.3897028662961
 30
0.0
 10
-219.8126678128467
 20
83.3897028662961
 30
0.0
  0
SPLINE
  5
4A74
330
1F
100
AcDbEntity
  8
0
  6
AM_DIN_F_W050
 62
     6
 48
5.0
100
AcDbSpline
210
0.0
220
0.0
230
1.0
 70
    24
 71
     3
 72
     8
 73
     4
 74
     0
 42
0.0000000001
 43
0.0000000001
 40
2.0
 40
2.0
 40
2.0
 40
2.0
 40
3.0
 40
3.0
 40
3.0
 40
3.0
 10
-219.8126678128467
 20
83.3897028662961
 30
0.0
 10
-219.8126678128467
 20
83.3897028662961
 30
0.0
 10
-226.2026309204855
 20
83.3897028662961
 30
0.0
 10
-226.2026309204855
 20
83.3897028662961
 30
0.0
  0
LINE
  5
4A75
330
1F
100
AcDbEntity
  8
0
  6
AM_DIN_F_W050
 62
     6
 48
5.0
100
AcDbLine
 10
-230.6261335246522
 20
145.5695422760182
 30
0.0
 11
-230.6261335246522
 21
88.42781050518494
 31
0.0
  0
LINE
  5
4A76
330
1F
100
AcDbEntity
  8
0
  6
AM_DIN_F_W050
 62
     6
 48
5.0
100
AcDbLine
 10
-230.6261335246522
 20
-90.97898202953723
 30
0.0
 11
-230.6261335246522
 21
-117.5213756927316
 31
0.0
  0
SPLINE
  5
4A77
330
1F
100
AcDbEntity
  8
0
  6
AM_DIN_F_W050
 62
     6
 48
5.0
100
AcDbSpline
210
0.0
220
0.0
230
1.0
 70
    24
 71
     3
 72
     8
 73
     4
 74
     0
 42
0.0000000001
 43
0.0000000001
 40
4.0
 40
4.0
 40
4.0
 40
4.0
 40
5.0
 40
5.0
 40
5.0
 40
5.0
 10
-212.5628088718743
 20
140.1621204010183
 30
0.0
 10
-212.5628088718743
 20
140.1621204010183
 30
0.0
 10
-105.7786291843742
 20
141.7417166308901
 30
0.0
 10
-105.7786291843742
 20
141.7417166308901
 30
0.0
  0
LINE
  5
4A78
330
1F
100
AcDbEntity
  8
0
  6
AM_DIN_F_W050
 62
     6
 48
5.0
100
AcDbLine
 10
-216.3717064413188
 20
145.5695422760182
 30
0.0
 11
-230.6261335246522
 21
145.5695422760182
 31
0.0
  0
LINE
  5
4A79
330
1F
100
AcDbEntity
  8
0
  6
AM_DIN_F_W050
 62
     6
 48
5.0
100
AcDbLine
 10
-236.6481604343746
 20
-111.6233722205094
 30
0.0
 11
-236.6481604343746
 21
-98.72217864412057
 31
0.0
  0
LINE
  5
4A7A
330
1F
100
AcDbEntity
  8
0
  6
AM_DIN_F_W050
 62
     6
 48
5.0
100
AcDbLine
 10
-236.6481604343744
 20
98.62804922046276
 30
0.0
 11
-236.6481604343744
 21
111.6532662343516
 31
0.0
  0
LINE
  5
4A7B
330
1F
100
AcDbEntity
  8
0
  6
AM_DIN_F_W050
 62
     6
 48
5.0
100
AcDbLine
 10
-237.5080562677078
 20
100.1025500885183
 30
0.0
 11
-237.5080562677078
 21
110.1787653662961
 31
0.0
  0
LINE
  5
4A7C
330
1F
100
AcDbEntity
  8
0
  6
AM_DIN_F_W050
 62
     6
 48
5.0
100
AcDbLine
 10
-237.5080562677078
 20
-100.1953014739817
 30
0.0
 11
-237.5080562677078
 21
-110.1502493906483
 31
0.0
  0
LINE
  5
4A7D
330
1F
100
AcDbEntity
  8
0
  6
AM_DIN_F_W050
 62
     6
 48
5.0
100
AcDbLine
 10
-239.4731387329855
 20
93.09798194615719
 30
0.0
 11
-239.4731387329855
 21
100.098415973935
 31
0.0
  0
LINE
  5
4A7E
330
1F
100
AcDbEntity
  8
0
  6
AM_DIN_F_W050
 62
     6
 48
5.0
100
AcDbLine
 10
-253.4822750177079
 20
13.47080095657388
 30
0.0
 11
-253.4822750177079
 21
-13.68275264585675
 31
0.0
  0
LINE
  5
4A7F
330
1F
100
AcDbEntity
  8
0
  6
AM_DIN_F_W050
 62
     6
 48
5.0
100
AcDbLine
 10
-237.5080562677078
 20
110.1787653662961
 30
0.0
 11
-241.4395992364577
 21
110.1787653662961
 31
0.0
  0
LINE
  5
4A80
330
1F
100
AcDbEntity
  8
0
  6
AM_DIN_F_W050
 62
     6
 48
5.0
100
AcDbLine
 10
-236.6481604343744
 20
111.6532662343516
 30
0.0
 11
-239.4662485420133
 21
111.6532662343516
 31
0.0
  0
SPLINE
  5
4A81
330
1F
100
AcDbEntity
  8
0
  6
AM_DIN_F_W050
 62
     6
 48
5.0
100
AcDbSpline
210
0.0
220
0.0
230
1.0
 70
     8
 71
     3
 72
     8
 73
     4
 74
     0
 42
0.0000000001
 43
0.0000000001
 40
2.0
 40
2.0
 40
2.0
 40
2.0
 40
3.0
 40
3.0
 40
3.0
 40
3.0
 10
-255.694026319791
 20
-16.63175438196784
 30
0.0
 10
-253.332930128385
 20
-16.63175438196784
 30
0.0
 10
-253.4822750177079
 20
-13.68275264585675
 30
0.0
 10
-253.4822750177079
 20
-13.68275264585675
 30
0.0
  0
SPLINE
  5
4A82
330
1F
100
AcDbEntity
  8
0
  6
AM_DIN_F_W050
 62
     6
 48
5.0
100
AcDbSpline
210
0.0
220
0.0
230
1.0
 70
     8
 71
     3
 72
     8
 73
     4
 74
     0
 42
0.0000000001
 43
0.0000000001
 40
4.0
 40
4.0
 40
4.0
 40
4.0
 40
5.0
 40
5.0
 40
5.0
 40
5.0
 10
-218.0170840454855
 20
-13.68275264585675
 30
0.0
 10
-219.4681582642356
 20
-16.05849049307888
 30
0.0
 10
-223.6215653822912
 20
-17.73694101391227
 30
0.0
 10
-223.6215653822912
 20
-17.73694101391227
 30
0.0
  0
SPLINE
  5
4A83
330
1F
100
AcDbEntity
  8
0
  6
AM_DIN_F_W050
 62
     6
 48
5.0
100
AcDbSpline
210
0.0
220
0.0
230
1.0
 70
    24
 71
     3
 72
     8
 73
     4
 74
     0
 42
0.0000000001
 43
0.0000000001
 40
5.0
 40
5.0
 40
5.0
 40
5.0
 40
6.0
 40
6.0
 40
6.0
 40
6.0
 10
-223.6215653822912
 20
-17.73694101391227
 30
0.0
 10
-223.6215653822912
 20
-17.73694101391227
 30
0.0
 10
-267.7380801392358
 20
-17.84304995488442
 30
0.0
 10
-267.7380801392358
 20
-17.84304995488442
 30
0.0
  0
SPLINE
  5
4A84
330
1F
100
AcDbEntity
  8
0
  6
AM_DIN_F_W050
 62
     6
 48
5.0
100
AcDbSpline
210
0.0
220
0.0
230
1.0
 70
     8
 71
     3
 72
     8
 73
     4
 74
     0
 42
0.0000000001
 43
0.0000000001
 40
1.0
 40
1.0
 40
1.0
 40
1.0
 40
2.0
 40
2.0
 40
2.0
 40
2.0
 10
-223.6215653822912
 20
17.5249893246294
 30
0.0
 10
-223.6215653822912
 20
17.5249893246294
 30
0.0
 10
-219.4681582642356
 20
15.84653880379612
 30
0.0
 10
-218.0170840454855
 20
13.47080095657388
 30
0.0
  0
SPLINE
  5
4A85
330
1F
100
AcDbEntity
  8
0
  6
AM_DIN_F_W050
 62
     6
 48
5.0
100
AcDbSpline
210
0.0
220
0.0
230
1.0
 70
     8
 71
     3
 72
     8
 73
     4
 74
     0
 42
0.0000000001
 43
0.0000000001
 40
3.0
 40
3.0
 40
3.0
 40
3.0
 40
4.0
 40
4.0
 40
4.0
 40
4.0
 10
-253.4822750177079
 20
13.47080095657388
 30
0.0
 10
-253.4822750177079
 20
13.47080095657388
 30
0.0
 10
-253.332930128385
 20
16.41980269268497
 30
0.0
 10
-255.694026319791
 20
16.41980269268497
 30
0.0
  0
LINE
  5
4A86
330
1F
100
AcDbEntity
  8
0
  6
AM_DIN_F_W050
 62
     6
 48
5.0
100
AcDbLine
 10
-257.1685271878466
 20
4.377126911435012
 30
0.0
 11
-257.1685271878466
 21
-4.471256335092861
 31
0.0
  0
SPLINE
  5
4A87
330
1F
100
AcDbEntity
  8
0
  6
AM_DIN_F_W050
 62
     6
 48
5.0
100
AcDbSpline
210
0.0
220
0.0
230
1.0
 70
    24
 71
     3
 72
     8
 73
     4
 74
     0
 42
0.0000000001
 43
0.0000000001
 40
0.0
 40
0.0
 40
0.0
 40
0.0
 40
1.0
 40
1.0
 40
1.0
 40
1.0
 10
-255.5713809204856
 20
-13.07159270662062
 30
0.0
 10
-255.5713809204856
 20
-13.07159270662062
 30
0.0
 10
-255.5713809204856
 20
13.10148672046277
 30
0.0
 10
-255.5713809204856
 20
13.10148672046277
 30
0.0
  0
SPLINE
  5
4A88
330
1F
100
AcDbEntity
  8
0
  6
AM_DIN_F_W050
 62
     6
 48
5.0
100
AcDbSpline
210
0.0
220
0.0
230
1.0
 70
     8
 71
     3
 72
     8
 73
     4
 74
     0
 42
0.0000000001
 43
0.0000000001
 40
1.0
 40
1.0
 40
1.0
 40
1.0
 40
2.0
 40
2.0
 40
2.0
 40
2.0
 10
-255.5713809204856
 20
13.10148672046277
 30
0.0
 10
-255.5713809204856
 20
13.10148672046277
 30
0.0
 10
-255.5341738892355
 20
13.9613825537961
 30
0.0
 10
-256.2140634834197
 20
13.9613825537961
 30
0.0
  0
SPLINE
  5
4A89
330
1F
100
AcDbEntity
  8
0
  6
AM_DIN_F_W050
 62
     6
 48
5.0
100
AcDbSpline
210
0.0
220
0.0
230
1.0
 70
    24
 71
     3
 72
     8
 73
     4
 74
     0
 42
0.0000000001
 43
0.0000000001
 40
2.0
 40
2.0
 40
2.0
 40
2.0
 40
3.0
 40
3.0
 40
3.0
 40
3.0
 10
-256.2140634834197
 20
13.9613825537961
 30
0.0
 10
-256.2140634834197
 20
13.9613825537961
 30
0.0
 10
-257.9779523723084
 20
13.9613825537961
 30
0.0
 10
-257.9779523723084
 20
13.9613825537961
 30
0.0
  0
SPLINE
  5
4A8A
330
1F
100
AcDbEntity
  8
0
  6
AM_DIN_F_W050
 62
     6
 48
5.0
100
AcDbSpline
210
0.0
220
0.0
230
1.0
 70
     8
 71
     3
 72
     8
 73
     4
 74
     0
 42
0.0000000001
 43
0.0000000001
 40
3.0
 40
3.0
 40
3.0
 40
3.0
 40
4.0
 40
4.0
 40
4.0
 40
4.0
 10
-257.9779523723084
 20
13.9613825537961
 30
0.0
 10
-258.624769049826
 20
13.9613825537961
 30
0.0
 10
-258.7656734552076
 20
14.5928685564002
 30
0.0
 10
-258.7656734552076
 20
14.5928685564002
 30
0.0
  0
SPLINE
  5
4A8B
330
1F
100
AcDbEntity
  8
0
  6
AM_DIN_F_W050
 62
     6
 48
5.0
100
AcDbSpline
210
0.0
220
0.0
230
1.0
 70
    24
 71
     3
 72
     8
 73
     4
 74
     0
 42
0.0000000001
 43
0.0000000001
 40
4.0
 40
4.0
 40
4.0
 40
4.0
 40
5.0
 40
5.0
 40
5.0
 40
5.0
 10
-258.7656734552076
 20
14.5928685564002
 30
0.0
 10
-258.7656734552076
 20
14.5928685564002
 30
0.0
 10
-258.7656734552076
 20
62.86795807462936
 30
0.0
 10
-258.7656734552076
 20
62.86795807462936
 30
0.0
  0
LINE
  5
4A8C
330
1F
100
AcDbEntity
  8
0
  6
AM_DIN_F_W050
 62
     6
 48
5.0
100
AcDbLine
 10
-202.8545297920134
 20
108.5816190989349
 30
0.0
 11
-216.3717064413188
 21
108.5816190989349
 31
0.0
  0
LINE
  5
4A8D
330
1F
100
AcDbEntity
  8
0
  6
AM_DIN_F_W050
 62
     6
 48
5.0
100
AcDbLine
 10
-237.5080562677078
 20
100.1025500885183
 30
0.0
 11
-241.4395992364577
 21
100.1025500885183
 31
0.0
  0
LINE
  5
4A8E
330
1F
100
AcDbEntity
  8
0
  6
AM_DIN_F_W050
 62
     6
 48
5.0
100
AcDbLine
 10
-239.3504933336801
 20
98.62804922046276
 30
0.0
 11
-239.4731387329855
 21
98.62804922046276
 31
0.0
  0
SPLINE
  5
4A8F
330
1F
100
AcDbEntity
  8
0
  6
AM_DIN_F_W050
 62
     6
 48
5.0
100
AcDbSpline
210
0.0
220
0.0
230
1.0
 70
    24
 71
     3
 72
     8
 73
     4
 74
     0
 42
0.0000000001
 43
0.0000000001
 40
0.0
 40
0.0
 40
0.0
 40
0.0
 40
1.0
 40
1.0
 40
1.0
 40
1.0
 10
-239.4731387329855
 20
93.09798194615719
 30
0.0
 10
-239.4731387329855
 20
93.09798194615719
 30
0.0
 10
-248.9361270142356
 20
93.09798194615719
 30
0.0
 10
-248.9361270142356
 20
93.09798194615719
 30
0.0
  0
SPLINE
  5
4A90
330
1F
100
AcDbEntity
  8
0
  6
AM_DIN_F_W050
 62
     6
 48
5.0
100
AcDbSpline
210
0.0
220
0.0
230
1.0
 70
     8
 71
     3
 72
     8
 73
     4
 74
     0
 42
0.0000000001
 43
0.0000000001
 40
1.0
 40
1.0
 40
1.0
 40
1.0
 40
2.0
 40
2.0
 40
2.0
 40
2.0
 10
-248.9361270142356
 20
93.09798194615719
 30
0.0
 10
-248.9361270142356
 20
93.09798194615719
 30
0.0
 10
-252.8745601739577
 20
72.96863353035856
 30
0.0
 10
-257.6604868232632
 20
63.35991771004607
 30
0.0
  0
LINE
  5
4A91
330
1F
100
AcDbEntity
  8
0
  6
AM_DIN_F_W050
 62
     6
 48
5.0
100
AcDbLine
 10
-217.2329803128466
 20
88.42781050518494
 30
0.0
 11
-230.6261335246522
 21
88.42781050518494
 31
0.0
  0
LINE
  5
4A92
330
1F
100
AcDbEntity
  8
0
  6
AM_DIN_F_W050
 62
     6
 48
5.0
100
AcDbLine
 10
-239.3504933336801
 20
98.62804922046276
 30
0.0
 11
-236.6481604343744
 21
98.62804922046276
 31
0.0
  0
LINE
  5
4A93
330
1F
100
AcDbEntity
  8
0
  6
AM_DIN_F_W050
 62
     6
 48
5.0
100
AcDbLine
 10
-281.1312333510411
 20
-182.2809026024538
 30
0.0
 11
-281.1312333510411
 21
-34.82254756773166
 31
0.0
  0
LINE
  5
4A94
330
1F
100
AcDbEntity
  8
0
  6
AM_DIN_F_W050
 62
     6
 48
5.0
100
AcDbLine
 10
-281.1312333510411
 20
34.72841814407381
 30
0.0
 11
-281.1312333510411
 21
182.3107966162961
 31
0.0
  0
LINE
  5
4A95
330
1F
100
AcDbEntity
  8
0
  6
AM_DIN_F_W050
 62
     6
 48
5.0
100
AcDbLine
 10
-224.1135250177078
 20
17.5249893246294
 30
0.0
 11
-223.6215653822912
 21
17.5249893246294
 31
0.0
  0
LINE
  5
4A96
330
1F
100
AcDbEntity
  8
0
  6
AM_DIN_F_W050
 62
     6
 48
5.0
100
AcDbLine
 10
-224.1135250177078
 20
17.5249893246294
 30
0.0
 11
-258.7656734552076
 21
17.5249893246294
 31
0.0
  0
SPLINE
  5
4A97
330
1F
100
AcDbEntity
  8
0
  6
AM_DIN_F_W050
 62
     6
 48
5.0
100
AcDbSpline
210
0.0
220
0.0
230
1.0
 70
    24
 71
     3
 72
     8
 73
     4
 74
     0
 42
0.0000000001
 43
0.0000000001
 40
0.0
 40
0.0
 40
0.0
 40
0.0
 40
1.0
 40
1.0
 40
1.0
 40
1.0
 10
-255.5713809204856
 20
-13.07159270662062
 30
0.0
 10
-255.5713809204856
 20
-13.07159270662062
 30
0.0
 10
-267.8593475003465
 20
-13.07159270662062
 30
0.0
 10
-267.8593475003465
 20
-13.07159270662062
 30
0.0
  0
SPLINE
  5
4A98
330
1F
100
AcDbEntity
  8
0
  6
AM_DIN_F_W050
 62
     6
 48
5.0
100
AcDbSpline
210
0.0
220
0.0
230
1.0
 70
     8
 71
     3
 72
     8
 73
     4
 74
     0
 42
0.0000000001
 43
0.0000000001
 40
1.0
 40
1.0
 40
1.0
 40
1.0
 40
2.0
 40
2.0
 40
2.0
 40
2.0
 10
-267.8593475003465
 20
-13.07159270662062
 30
0.0
 10
-268.8331037394958
 20
-13.07159270662062
 30
0.0
 10
-268.8418887329856
 20
-12.08905147398168
 30
0.0
 10
-268.8418887329856
 20
-12.08905147398168
 30
0.0
  0
SPLINE
  5
4A99
330
1F
100
AcDbEntity
  8
0
  6
AM_DIN_F_W050
 62
     6
 48
5.0
100
AcDbSpline
210
0.0
220
0.0
230
1.0
 70
    24
 71
     3
 72
     8
 73
     4
 74
     0
 42
0.0000000001
 43
0.0000000001
 40
2.0
 40
2.0
 40
2.0
 40
2.0
 40
3.0
 40
3.0
 40
3.0
 40
3.0
 10
-268.8418887329856
 20
-12.08905147398168
 30
0.0
 10
-268.8418887329856
 20
-12.08905147398168
 30
0.0
 10
-268.8418887329856
 20
12.11894548782383
 30
0.0
 10
-268.8418887329856
 20
12.11894548782383
 30
0.0
  0
SPLINE
  5
4A9A
330
1F
100
AcDbEntity
  8
0
  6
AM_DIN_F_W050
 62
     6
 48
5.0
100
AcDbSpline
210
0.0
220
0.0
230
1.0
 70
     8
 71
     3
 72
     8
 73
     4
 74
     0
 42
0.0000000001
 43
0.0000000001
 40
3.0
 40
3.0
 40
3.0
 40
3.0
 40
4.0
 40
4.0
 40
4.0
 40
4.0
 10
-268.8418887329856
 20
12.11894548782383
 30
0.0
 10
-268.8418887329856
 20
13.14351688539334
 30
0.0
 10
-267.8593475003465
 20
13.10148672046277
 30
0.0
 10
-267.8593475003465
 20
13.10148672046277
 30
0.0
  0
SPLINE
  5
4A9B
330
1F
100
AcDbEntity
  8
0
  6
AM_DIN_F_W050
 62
     6
 48
5.0
100
AcDbSpline
210
0.0
220
0.0
230
1.0
 70
    24
 71
     3
 72
     8
 73
     4
 74
     0
 42
0.0000000001
 43
0.0000000001
 40
4.0
 40
4.0
 40
4.0
 40
4.0
 40
5.0
 40
5.0
 40
5.0
 40
5.0
 10
-267.8593475003465
 20
13.10148672046277
 30
0.0
 10
-267.8593475003465
 20
13.10148672046277
 30
0.0
 10
-255.5713809204856
 20
13.10148672046277
 30
0.0
 10
-255.5713809204856
 20
13.10148672046277
 30
0.0
  0
SPLINE
  5
4A9C
330
1F
100
AcDbEntity
  8
0
  6
AM_DIN_F_W050
 62
     6
 48
5.0
100
AcDbSpline
210
0.0
220
0.0
230
1.0
 70
    24
 71
     3
 72
     8
 73
     4
 74
     0
 42
0.0000000001
 43
0.0000000001
 40
0.0
 40
0.0
 40
0.0
 40
0.0
 40
1.0
 40
1.0
 40
1.0
 40
1.0
 10
-255.5713809204856
 20
-9.877989190995622
 30
0.0
 10
-255.5713809204856
 20
-9.877989190995622
 30
0.0
 10
-260.9788027954857
 20
-9.877989190995622
 30
0.0
 10
-260.9788027954857
 20
-9.877989190995622
 30
0.0
  0
SPLINE
  5
4A9D
330
1F
100
AcDbEntity
  8
0
  6
AM_DIN_F_W050
 62
     6
 48
5.0
100
AcDbSpline
210
0.0
220
0.0
230
1.0
 70
     8
 71
     3
 72
     8
 73
     4
 74
     0
 42
0.0000000001
 43
0.0000000001
 40
1.0
 40
1.0
 40
1.0
 40
1.0
 40
2.0
 40
2.0
 40
2.0
 40
2.0
 10
-260.9788027954857
 20
-9.877989190995622
 30
0.0
 10
-260.9788027954857
 20
-9.877989190995622
 30
0.0
 10
-263.6508188545133
 20
-9.992710870683099
 30
0.0
 10
-265.032991163541
 20
-7.298301690995644
 30
0.0
  0
SPLINE
  5
4A9E
330
1F
100
AcDbEntity
  8
0
  6
AM_DIN_F_W050
 62
     6
 48
5.0
100
AcDbSpline
210
0.0
220
0.0
230
1.0
 70
    24
 71
     3
 72
     8
 73
     4
 74
     0
 42
0.0000000001
 43
0.0000000001
 40
2.0
 40
2.0
 40
2.0
 40
2.0
 40
3.0
 40
3.0
 40
3.0
 40
3.0
 10
-265.032991163541
 20
-7.298301690995644
 30
0.0
 10
-265.032991163541
 20
-7.298301690995644
 30
0.0
 10
-265.032991163541
 20
7.203483248240487
 30
0.0
 10
-265.032991163541
 20
7.203483248240487
 30
0.0
  0
SPLINE
  5
4A9F
330
1F
100
AcDbEntity
  8
0
  6
AM_DIN_F_W050
 62
     6
 48
5.0
100
AcDbSpline
210
0.0
220
0.0
230
1.0
 70
     8
 71
     3
 72
     8
 73
     4
 74
     0
 42
0.0000000001
 43
0.0000000001
 40
3.0
 40
3.0
 40
3.0
 40
3.0
 40
4.0
 40
4.0
 40
4.0
 40
4.0
 10
-265.032991163541
 20
7.203483248240487
 30
0.0
 10
-263.6508188545133
 20
9.897892427928054
 30
0.0
 10
-260.9788027954857
 20
9.783170748240463
 30
0.0
 10
-260.9788027954857
 20
9.783170748240463
 30
0.0
  0
SPLINE
  5
4AA0
330
1F
100
AcDbEntity
  8
0
  6
AM_DIN_F_W050
 62
     6
 48
5.0
100
AcDbSpline
210
0.0
220
0.0
230
1.0
 70
    24
 71
     3
 72
     8
 73
     4
 74
     0
 42
0.0000000001
 43
0.0000000001
 40
4.0
 40
4.0
 40
4.0
 40
4.0
 40
5.0
 40
5.0
 40
5.0
 40
5.0
 10
-260.9788027954857
 20
9.783170748240463
 30
0.0
 10
-260.9788027954857
 20
9.783170748240463
 30
0.0
 10
-255.5713809204856
 20
9.783170748240463
 30
0.0
 10
-255.5713809204856
 20
9.783170748240463
 30
0.0
  0
LINE
  5
4AA1
330
1F
100
AcDbEntity
  8
0
  6
AM_DIN_F_W050
 62
     6
 48
5.0
100
AcDbLine
 10
-113.6417151218745
 20
185.014507553796
 30
0.0
 11
-113.6417151218745
 21
192.0176976579626
 31
0.0
  0
LINE
  5
4AA2
330
1F
100
AcDbEntity
  8
0
  6
AM_DIN_F_W050
 62
     6
 48
5.0
100
AcDbLine
 10
-125.6843909031242
 20
185.014507553796
 30
0.0
 11
-125.6843909031242
 21
192.0176976579626
 31
0.0
  0
SPLINE
  5
4AA3
330
1F
100
AcDbEntity
  8
0
  6
AM_DIN_F_W050
 62
     6
 48
5.0
100
AcDbSpline
210
0.0
220
0.0
230
1.0
 70
    24
 71
     3
 72
     8
 73
     4
 74
     0
 42
0.0000000001
 43
0.0000000001
 40
1.0
 40
1.0
 40
1.0
 40
1.0
 40
2.0
 40
2.0
 40
2.0
 40
2.0
 10
-127.8961422052077
 20
155.6457575537961
 30
0.0
 10
-127.8961422052077
 20
155.6457575537961
 30
0.0
 10
-127.8961422052077
 20
185.6291125885182
 30
0.0
 10
-127.8961422052077
 20
185.6291125885182
 30
0.0
  0
LINE
  5
4AA4
330
1F
100
AcDbEntity
  8
0
  6
AM_DIN_F_W050
 62
     6
 48
5.0
100
AcDbLine
 10
-151.2442433336798
 20
183.7258976967475
 30
0.0
 11
-151.2442433336798
 21
156.9976130225462
 31
0.0
  0
LINE
  5
4AA5
330
1F
100
AcDbEntity
  8
0
  6
AM_DIN_F_W050
 62
     6
 48
5.0
100
AcDbLine
 10
-112.1303517321173
 20
185.6291125885182
 30
0.0
 11
-112.1303517321173
 21
155.5159834682307
 31
0.0
  0
LINE
  5
4AA6
330
1F
100
AcDbEntity
  8
0
  6
CENTER2
 62
     4
 48
30.0
100
AcDbLine
 10
-120.056215988933
 20
194.8262531021262
 30
0.0
 11
-120.056215988933
 21
171.2810637072132
 31
0.0
  0
LINE
  5
4AA7
330
1F
100
AcDbEntity
  8
0
100
AcDbLine
 10
-127.9820802457482
 20
185.6291125885182
 30
0.0
 11
-112.1303517321173
 21
185.6291125885182
 31
0.0
  0
LINE
  5
4AA8
330
1F
100
AcDbEntity
  8
0
100
AcDbLine
 10
-109.9554629517354
 20
183.702132863433
 30
0.0
 11
-109.9554629517354
 21
183.702132863433
 31
0.0
  0
LINE
  5
4AA9
330
1F
100
AcDbEntity
  8
0
100
AcDbLine
 10
-111.9554629517354
 20
153.5159834682306
 30
0.0
 11
-188.9776460044324
 21
153.5159834682306
 31
0.0
  0
LINE
  5
4AAA
330
1F
100
AcDbEntity
  8
0
100
AcDbLine
 10
-111.9554629517356
 20
-153.5267576371761
 30
0.0
 11
-188.950124410069
 21
-153.5267576371761
 31
0.0
  0
LINE
  5
4AAB
330
1F
100
AcDbEntity
  8
0
100
AcDbLine
 10
-111.9554629517354
 20
155.5159834682307
 30
0.0
 11
-188.9776460044324
 21
155.5159834682307
 31
0.0
  0
LINE
  5
4AAC
330
1F
100
AcDbEntity
  8
0
100
AcDbLine
 10
-111.9554629517356
 20
-155.6087348536941
 30
0.0
 11
-188.950124410069
 21
-155.608734853694
 31
0.0
  0
LINE
  5
4AAD
330
1F
100
AcDbEntity
  8
0
100
AcDbLine
 10
-188.9501244100688
 20
184.890484116296
 30
0.0
 11
-188.950124410069
 21
-184.8619681406484
 31
0.0
  0
LINE
  5
4AAE
330
1F
100
AcDbEntity
  8
0
100
AcDbLine
 10
-190.8995602196908
 20
184.890484116296
 30
0.0
 11
-190.8995602196908
 21
-184.8619681406484
 31
0.0
  0
SPLINE
  5
4AAF
330
1F
100
AcDbEntity
  8
0
  6
AM_DIN_F_W050
 62
     6
 48
5.0
100
AcDbSpline
210
0.0
220
0.0
230
1.0
 70
    24
 71
     3
 72
     8
 73
     4
 74
     0
 42
0.0000000001
 43
0.0000000001
 40
4.0
 40
4.0
 40
4.0
 40
4.0
 40
5.0
 40
5.0
 40
5.0
 40
5.0
 10
-212.5628088718745
 20
-139.9889104149538
 30
0.0
 10
-212.5628088718745
 20
-139.9889104149538
 30
0.0
 10
-105.7786291843745
 20
-141.8344680163535
 30
0.0
 10
-105.7786291843745
 20
-141.8344680163535
 30
0.0
  0
LINE
  5
4AB0
330
1F
100
AcDbEntity
  8
0
100
AcDbLine
 10
-111.9554629517354
 20
153.5159834682306
 30
0.0
 11
-111.9554629517356
 21
-153.5267576371761
 31
0.0
  0
REGION
  5
4AB1
330
1F
100
AcDbEntity
  8
0
100
AcDbModelerGeometry
 70
     1
  1
mogoo nlm m o         
  1
ni ^ *+0;:,4 ^ *+0\^ [ nf ^ LR mniqoqoqkjon QK o  
  1
n fqfffffffffffffffj:rooh n:rono 
  1
>,27:>;:- {rn rn _nm mniqoqoqkjon |
  1
=0;& {rn rn {rn {m {rn {rn |
  1
3*2/ {rn rn {rn {rn {l {n |
  1
,7:33 {rn rn {rn {rn {rn {k {rn {m |
  1
9><: {rn rn {rn {rn {j {l {rn {i 90-(>-; ;0*=3: 0*+ |
  1
300/ {rn rn {rn {rn {h {k |
  1
/3>1:r,*-9><: {rn rn {rn rlloqihmnlfgiffkmin nqihojiigknmfhggmh o o o n rnqglifhonfghmnomfh:roni rn o 90-(>-;@) V V V V |
  1
<0:;8: {rn rn {rn {g {f {rn {no 90-(>-; {j {rn |
  1
<0:;8: {rn rn {rn {nn {h {rn {nm 90-(>-; {j {rn |
  1
<0:;8: {rn rn {rn {h {nl {rn {nk 90-(>-; {j {rn |
  1
:;8: {rn rn {rn {nj roqlhiiolfjhgfhfjjjl {ni oqlhiiolfjhgfhfjjlh {h {nh 90-(>-; _h *1410(1 |
  1
<0:;8: {rn rn {rn {ng {g {rn {nf 90-(>-; {j {rn |
  1
:;8: {rn rn {rn {ni n {mo m {g {mn 90-(>-; _h *1410(1 |
  1
<0:;8: {rn rn {rn {f {mm {rn {ml 90-(>-; {j {rn |
  1
:;8: {rn rn {rn {mk o {nj mjnqoigfgokglnlfmg {f {mj 90-(>-; _h *1410(1 |
  1
):-+:' {rn rn {rn {no {mi |
  1
):-+:' {rn rn {rn {no {mh |
  1
:336/,:r<*-): {rn rn {rn rnghqnihofoillkohj rnglqohgflklilfgigf o o o n rnqoomlkomjfffjmn rmqlnlgnlkfhlhmhogj o n V V |
  1
<0:;8: {rn rn {rn {mg {nn {rn {mf 90-(>-; {j {rn |
  1
:;8: {rn rn {rn {mo m {lo l {nn {ln 90-(>-; _h *1410(1 |
  1
):-+:' {rn rn {rn {nm {lm |
  1
61+<*-):r<*-): {rn rn {rn 90-(>-; $ :'><+<*- 9*33 1*=, l 0/:1 m 
  1
 n l m l 
  1
 rnghqmkgmkhmlffmffm rngjqjffmngjhkihioi o 
  1
 rnghqmkgmkhmlffmffm rngjqjffmngjhkihioi o 
  1
 rnnnqfmnfmlkjjmohgf rngjqjffmngjhkihioi o 
  1
 rnnnqfmnfmlkjjmohgf rngjqjffmngjhkihioi o 
  1
 o 
  1
 1*33@,*-9><: 
  1
 1*33@,*-9><: 
  1
 1*33=, 
  1
 1*33=, 
  1
 V V 
  1
 o 
  1
 o 
  1
 o 
  1
 Y n Y o " V V |
  1
<0:;8: {rn rn {rn {nl {ll {rn {lk 90-(>-; {j {rn |
  1
:;8: {rn rn {rn {lj rnqjhohfilmihfkgfii {mk nqjhohfilmihfkgfii {nl {li 90-(>-; _h *1410(1 |
  1
):-+:' {rn rn {rn {ml {lh |
  1
,+->687+r<*-): {rn rn {rn rkkoqonfolhnhokgjkf rngjqokilhjifmhlni o oqffffffhlomimkgion oqooohlkkgfjggnfloonik o V V |
  1
/061+ {rn rn {rn rnggqfjonmkknooiggk rngkqginfignkoikgki o |
  1
/061+ {rn rn {rn rnghqmkgmkhmlffmffm rngjqjffmngjhkihioi o |
  1
<0:;8: {rn rn {rn {lg {ng {rn {lf 90-(>-; {j {rn |
  1
:;8: {rn rn {rn {lo lqknoiojnlnikgkgnk:ronl {ko miqomkomlmnhjnonkg {ng {kn 90-(>-; _h *1410(1 |
  1
):-+:' {rn rn {rn {nf {km |
  1
61+<*-):r<*-): {rn rn {rn 90-(>-; $ :'><+<*- 9*33 1*=, l 0/:1 m 
  1
 m l l l 
  1
 rnnnqfmnfmlkjjmohgf rngjqjffmngjhkihioi o 
  1
 rnofqfhjinihiolmfll rngjqjffmngjhkihioi o 
  1
 rnofqfjjkimfjnhljil rnglqilmhjgohnmolfn o 
  1
 rnofqfjjkimfjnhljil rnglqilmhjgohnmolfn o 
  1
 o 
  1
 1*33@,*-9><: 
  1
 1*33@,*-9><: 
  1
 1*33=, 
  1
 1*33=, 
  1
 V V 
  1
 o 
  1
 o 
  1
 o 
  1
 Y n Y o " V V |
  1
/061+ {rn rn {rn rnnnqfmnfmlkjjmohgf rngjqjffmngjhkihioi o |
  1
<0:;8: {rn rn {rn {mm {kl {rn {kk 90-(>-; {j {rn |
  1
:;8: {rn rn {rn {kj o {lj mjnqoigfmoiffglhhm {mm {ki 90-(>-; _h *1410(1 |
  1
):-+:' {rn rn {rn {lk {kh |
  1
:336/,:r<*-): {rn rn {rn rkkoqonfolhnhokgjkf roqokilhjifmhlniniinn o o o n rngj lqlfglfkgihillfokg:ronk o n V V |
  1
/061+ {rn rn {rn rkkoqonfolhnhokgjkf rngjqokilhjifmhlni o |
  1
<0:;8: {rn rn {rn {kg {mg {rn {kf 90-(>-; {j {rn |
  1
:;8: {rn rn {rn {ko roqhgjlfgnillfhkkgmg {jo oqhgjlfgnillfhkkgmg {mg {jn 90-(>-; _h *1410(1 |
  1
):-+:' {rn rn {rn {mf {jm |
  1
,+->687+r<*-): {rn rn {rn rnofqfjjkimfjnhljil rnglqilmhjgohnmokmj o iqinjojkjhjjjhiokk:roni n o V V |
  1
/061+ {rn rn {rn rnofqfjjkimfjnhljil rnglqilmhjgohnmolfn o |
  1
<0:;8: {rn rn {rn {ll {jl {rn {jk 90-(>-; {j {rn |
  1
:;8: {rn rn {rn {jj roqmommhnmokmnhmlmlg {kj oqmommhnmokmnhmllg {ll {ji 90-(>-; _h *1410(1 |
  1
):-+:' {rn rn {rn {kk {jh |
  1
,+->687+r<*-): {rn rn {rn rnggqfjonmkknooiggk ngkqgfokgknnimfiom o roqfffffffiglhhjmlnk oqooomjnkgjkfnifglmnjh o V V |
  1
/061+ {rn rn {rn rkkoqonfolhnhokgjkf ngkqfjlimklohmigmf o |
  1
<0:;8: {rn rn {rn {jg {lg {rn {jf 90-(>-; {j {rn |
  1
:;8: {rn rn {rn {jo o {io mqognfhhmnijnhffgk {lg {in 90-(>-; _h *1410(1 |
  1
):-+:' {rn rn {rn {lf {im |
  1
:336/,:r<*-): {rn rn {rn rnnnqfjjkimfjnhljil rnjhqioghlkgjlifkn o o o n nqknkmnljimlhlofjn nqknkmnljimlhlofkh o n V V |
  1
/061+ {rn rn {rn rnofqfjjkimfjnhljil rnjhqioghlkgjlifkn o |
  1
<0:;8: {rn rn {rn {kl {il {rn {ik 90-(>-; {j {rn |
  1
:;8: {rn rn {rn {ij o {jj jfqnmnlmghgikhhflm {kl {ii 90-(>-; _h *1410(1 |
  1
):-+:' {rn rn {rn {jk {ih |
  1
:336/,:r<*-): {rn rn {rn rngiqngmfmfkfmokon ngoqjkhhkginlmjmhk o o o n rnqglglkigfinjmhfgk kqgnonnklkfmgnlgkh o n V V |
  1
/061+ {rn rn {rn rnggqfjonmkknooiggk ngkqgfokgknnimfiom o |
  1
<0:;8: {rn rn {rn {ig {kg {rn {if 90-(>-; {j {rn |
  1
:;8: {rn rn {rn {io o {ho lqnhigllhihlinnggm {kg {hn 90-(>-; _h *1410(1 |
  1
):-+:' {rn rn {rn {kf {hm |
  1
,+->687+r<*-): {rn rn {rn rnnnqfjjkimfjnhljil rnjjqioghlkgjlifkn o nqglifhonfghmnomfh:roni n o V V |
  1
/061+ {rn rn {rn rnnnqfjjkimfjnhljil rnjjqioghlkgjlifkn o |
  1
<0:;8: {rn rn {rn {jl {hl {rn {hk 90-(>-; {j {rn |
  1
:;8: {rn rn {rn {hj o {ij jqgikkilfhjifkklkl {jl {hi 90-(>-; _h *1410(1 |
  1
):-+:' {rn rn {rn {ik {hh |
  1
,+->687+r<*-): {rn rn {rn rnmhqgfinkmmojmohhj ngjqimfnnmjggjngmk o rn rhqhhhhljiffhlhfngl:roni o V V |
  1
/061+ {rn rn {rn rnghqonhkhoffnigjhk ngjqimfnnmjggjngmk o |
  1
<0:;8: {rn rn {rn {hg {jg {rn {hf 90-(>-; {j {rn |
  1
:;8: {rn rn {rn {ho roqhgjlfgnillfhkkgmg {go oqhgjlfgnillfhkkgmg {jg {gn 90-(>-; _h *1410(1 |
  1
):-+:' {rn rn {rn {jf {gm |
  1
,+->687+r<*-): {rn rn {rn rnnnqfjjkimfjnhljil rnjlqjmihjhilhnhin o n rnqglifhonfghmnomfh:roni o V V |
  1
/061+ {rn rn {rn rnnnqfjjkimfjnhljil rnjlqjmihjhilhnhin o |
  1
<0:;8: {rn rn {rn {il {gl {rn {gk 90-(>-; {j {rn |
  1
:;8: {rn rn {rn {gj roqhgjlfgnillfhkkgmg {hj oqhgjlfgnillfhkkgmg {il {gi 90-(>-; _h *1410(1 |
  1
):-+:' {rn rn {rn {hk {gh |
  1
,+->687+r<*-): {rn rn {rn rnmhqgfinkmmojmohhj nfnqkfljhijikmnmih o rlqmmkinohkfgijhjmk:ronh rn o V V |
  1
/061+ {rn rn {rn rnmhqgfinkmmojmohhj ngjqimfnnmjggjngmk o |
  1
<0:;8: {rn rn {rn {gg {ig {rn {gf 90-(>-; {j {rn |
  1
:;8: {rn rn {rn {go o {fo lonqnlkmnigkkifigm {ig {fn 90-(>-; _h *1410(1 |
  1
):-+:' {rn rn {rn {if {fm |
  1
:336/,:r<*-): {rn rn {rn rnogqhhgimfngklhkkf rnjoqjmihjhilhnhin o o o n mqnmnlmolkljjfiknf rmqnmnlmolkljjfikmg o n V V |
  1
/061+ {rn rn {rn rnogqhhgimfngklhkkf rnjlqjmihjhilhnhin o |
  1
<0:;8: {rn rn {rn {hl {fl {rn {fk 90-(>-; {j {rn |
  1
:;8: {rn rn {rn {fj o {gj nnqhijhfokhlofomkf {hl {fi 90-(>-; _h *1410(1 |
  1
):-+:' {rn rn {rn {gk {fh |
  1
:336/,:r<*-): {rn rn {rn rnmjqgfinkmmojmohhj nfnqkfljhijikmnmih o o o n rnqknkmnljimlhlofkh nqknkmnljimlhlofjn o n V V |
  1
/061+ {rn rn {rn rnmhqgfinkmmojmohhj nfnqkfljhijikmnmih o |
  1
<0:;8: {rn rn {rn {fg {hg {rn {ff 90-(>-; {j {rn |
  1
:;8: {rn rn {rn {fo roqhjmlknlgfjnhohgl {noo oqhjmlknlgfjnhofgnh {hg {non 90-(>-; _h *1410(1 |
  1
):-+:' {rn rn {rn {hf {nom |
  1
,+->687+r<*-): {rn rn {rn rnojqhhgimfngklhkkf rnjoqjmihjhilhnhin o nqglifhonfghmnomfh:roni n o V V |
  1
/061+ {rn rn {rn rnojqhhgimfngklhkkf rnjoqjmihjhilhnhin o |
  1
<0:;8: {rn rn {rn {gl {nol {rn {nok 90-(>-; {j {rn |
  1
:;8: {rn rn {rn {noj roqhgjlfgnillfhkkgmg {fj oqhgjlfgnillfhkkgmg {gl {noi 90-(>-; _h *1410(1 |
  1
):-+:' {rn rn {rn {fk {noh |
  1
,+->687+r<*-): {rn rn {rn rnnkqnloljnhlmnnhll nflqkfljhijikmnmih o rn jqonkfkmmmfjnhkkom:ronj o V V |
  1
/061+ {rn rn {rn rnmjqgfinkmmojmohhj nflqkfljhijikmnmih o |
  1
<0:;8: {rn rn {rn {nog {gg {rn {nof 90-(>-; {j {rn |
  1
:;8: {rn rn {rn {noo o {nno lqkoifioongmnhkknj {gg {nnn 90-(>-; _h *1410(1 |
  1
):-+:' {rn rn {rn {gf {nnm |
  1
:336/,:r<*-): {rn rn {rn rnogqhnhmffolglgjli njoqjgmojjkmfmifnl o o o n mqnmgnlilfkghmimok mqomiighmgknmihmfi o n V V |
  1
/061+ {rn rn {rn rnojqhhgimfngklhkmh njoqiohkjfmohjmoii o |
  1
<0:;8: {rn rn {rn {fl {nnl {rn {nnk 90-(>-; {j {rn |
  1
:;8: {rn rn {rn {nnj o {noj jqgikkilfhjifkklkl {fl {nni 90-(>-; _h *1410(1 |
  1
):-+:' {rn rn {rn {nok {nnh |
  1
:336/,:r<*-): {rn rn {rn rnnkqnloljnhlmnnhll nfnqkfljhijikmnmih o o o n nqknkmnljimlhlofjn nqknkmnljimlhlofkh o n V V |
  1
/061+ {rn rn {rn rnnkqnloljnhlmnnhll nflqkfljhijikmnmih o |
  1
<0:;8: {rn rn {rn {nnl {fg {rn {nng 90-(>-; {j {rn |
  1
:;8: {rn rn {rn {nno o {nnf m {fg {nmo 90-(>-; _h *1410(1 |
  1
):-+:' {rn rn {rn {ff {nmn |
  1
,+->687+r<*-): {rn rn {rn rnogqjkgjomflljnhfh njlqjnjfglkigmloih o rn nqglifhonfghmnomfh:roni o V V |
  1
/061+ {rn rn {rn rnogqjkgjomflljnhfh njlqjnjfglkigmloih o |
  1
<0:;8: {rn rn {rn {nol {nog {rn {nmm 90-(>-; {j {rn |
  1
:;8: {rn rn {rn {nml roqgmkfmjlofomjogjgh {nnj oqgmkfmjlofomjoglkl {nol {nmk 90-(>-; _h *1410(1 |
  1
):-+:' {rn rn {rn {nnk {nmj |
  1
,+->687+r<*-): {rn rn {rn rnnmqnloljnhlmnnhll ngjqimfnnmjggjngmk o nqglifhonfghmnomfh:roni n o V V |
  1
/061+ {rn rn {rn rnnmqnloljnhlmnnhll nfnqkfljhijikmnmih o |
  1
:;8: {rn rn {rn {nnf roqhgjlfgnillfhkkgmg {nmi oqhgjlfgnillfhkkgmg {nog {nmh 90-(>-; _h *1410(1 |
  1
):-+:' {rn rn {rn {nof {nmg |
  1
,+->687+r<*-): {rn rn {rn rnnnqfjjkimfjnhljk njlqjnjfglkigmloih o nqglifhonfghmnomfh:roni n o V V |
  1
/061+ {rn rn {rn rnnnqfjjkimfjnhljk njlqjnjfglkigmloih o |
  1
:;8: {rn rn {rn {nmi o {nml miqnnlnmfnmomghimk {nnl {nmf 90-(>-; _h *1410(1 |
  1
):-+:' {rn rn {rn {nmm {nlo |
  1
:336/,:r<*-): {rn rn {rn rnnnqfiigmofooigglf nglqimkkohfhmomnnh o o o n nqlinkhjhiifhikkin nqkgojmfngjnhfkgok o n V V |
  1
/061+ {rn rn {rn rnnmqnloljnhlmnnhll ngjqimfnnmjggjngmk o |
  1
):-+:' {rn rn {rn {nng {nln |
  1
:336/,:r<*-): {rn rn {rn rnnnqfjjkimfjnhljk njhqjnjfglkigmloih o o o n nqknkmnljimlhlofkh rnqknkmnljimlhlofjn o n V V |
  1
/061+ {rn rn {rn rnnnqfjjkimfjnhljk njjqjnjfglkigmloih o |
  1
,+->687+r<*-): {rn rn {rn rnofqfjjkimfjnhljk njhqjnjfglkigmloih o nqglifhonfghmnomfh:roni n o V V |
  1
/061+ {rn rn {rn rnofqfjjkimfjnhljk nglqimfnnmjggjngmk o |
  1
/061+ {rn rn {rn rnofqfjjkimfjnhljk njhqjnjfglkigmloih o |
  0
LINE
  5
4AB2
330
1F
100
AcDbEntity
  8
0
100
AcDbLine
 10
-127.3103557675806
 20
192.9077901265858
 30
0.0
 11
-127.3103557675806
 21
185.6291125885182
 31
0.0
  0
LINE
  5
4AB3
330
1F
100
AcDbEntity
  8
0
100
AcDbLine
 10
-112.8020762102849
 20
192.9077901265858
 30
0.0
 11
-112.8020762102849
 21
185.6291125885182
 31
0.0
  0
LINE
  5
4AB4
330
1F
100
AcDbEntity
  8
0
100
AcDbLine
 10
-127.3103557675806
 20
192.9077901265858
 30
0.0
 11
-112.8020762102849
 21
192.9077901265858
 31
0.0
  0
ARC
  5
4AB5
330
1F
100
AcDbEntity
  8
0
100
AcDbCircle
 10
-5.016712669438673
 20
182.5167103152156
 30
0.0
 40
4.999999999999998
100
AcDbArc
 50
0.0
 51
90.98849633709212
  0
LINE
  5
4AB6
330
1F
100
AcDbEntity
  8
0
  6
AM_DIN_F_W050
 62
     6
 48
5.0
100
AcDbLine
 10
-112.1303517321173
 20
185.6700556782515
 30
0.0
 11
-440.0205132627818
 21
180.0149055825562
 31
0.0
  0
ARC
  5
4AB7
330
1F
100
AcDbEntity
  8
0
  6
AM_DIN_F_W050
 62
     6
 48
5.0
100
AcDbCircle
 10
-440.0190476021397
 20
0.0149055885233473
 30
0.0
 40
180.0
100
AcDbArc
 50
90.00046653427219
 51
270.0385463418044
  0
LINE
  5
4AB8
330
1F
100
AcDbEntity
  8
0
  6
AM_DIN_F_W050
 62
     6
 48
5.0
100
AcDbLine
 10
-439.8979507070392
 20
-179.9850536768665
 30
0.0
 11
-114.3841060000068
 21
-185.5992185746805
 31
0.0
  0
ARC
  5
4AB9
330
1F
100
AcDbEntity
  8
0
100
AcDbCircle
 10
-5.016712669439524
 20
-182.4847436872881
 30
0.0
 40
4.999999999999944
100
AcDbArc
 50
269.0115036629072
 51
0.0000000000006514
  0
LINE
  5
4ABA
330
1F
100
AcDbEntity
  8
0
100
AcDbLine
 10
-0.0167126694395847
 20
-182.4847436872881
 30
0.0
 11
-0.0167126694386752
 21
182.5167103152156
 31
0.0
  0
LINE
  5
4ABB
330
1F
100
AcDbEntity
  8
0
100
AcDbLine
 10
-5.016712669438673
 20
187.5167103152156
 30
0.0
 11
-112.1303517321173
 21
185.6700556782515
 31
0.0
  0
LINE
  5
4ABC
330
1F
100
AcDbEntity
  8
0
100
AcDbLine
 10
-5.1029709688014
 20
-187.483999582498
 30
0.0
 11
-114.3841060000068
 21
-185.599218574676
 31
0.0
  0
ENDSEC
  0
SECTION
  2
OBJECTS
  0
DICTIONARY
  5
C
330
0
100
AcDbDictionary
281
     1
  3
ACAD_2007HEADERVARS_RT
350
4BCC
  3
ACAD_COLOR
350
3AE5
  3
ACAD_GROUP
350
D
  3
ACAD_LAYOUT
350
1A
  3
ACAD_MATERIAL
350
3ABB
  3
ACAD_MLEADERSTYLE
350
3AFA
  3
ACAD_MLINESTYLE
350
17
  3
ACAD_PLOTSETTINGS
350
19
  3
ACAD_PLOTSTYLENAME
350
E
  3
ACAD_SCALELIST
350
3AE8
  3
ACAD_TABLESTYLE
350
3AE6
  3
ACAD_VISUALSTYLE
350
3AD4
  3
ACDB_RECOMPOSE_DATA
350
4BCB
  3
AcDbVariableDictionary
350
86
  3
AcmDictionary
350
45
  3
AEC_PROPERTY_SET_DEFS
350
4851
  3
AMG
350
41
  3
AMGSNAPSETTINGS
350
332
  3
ASE_INDEX_DICTIONARY
350
47B8
  0
DICTIONARY
  5
3C5C
330
8
100
AcDbDictionary
280
     1
281
     1
  0
DICTIONARY
  5
4023
330
2
100
AcDbDictionary
280
     1
281
     1
  3
ACAD_LAYERSTATES
360
4024
  0
DICTIONARY
  5
3B84
330
10
100
AcDbDictionary
280
     1
281
     1
  3
ADSK_XREC_LAYER_RECONCILED
360
3B85
  0
DICTIONARY
  5
81
330
1F
100
AcDbDictionary
280
     1
281
     1
  3
ACAD_SORTENTS
360
3B74
  0
DICTIONARY
  5
4BCC
102
{ACAD_REACTORS
330
C
102
}
330
C
100
AcDbDictionary
281
     1
  3
DIMJOGANG
350
4BCD
  3
DIMLTEX1
350
4BCF
  3
DIMLTEX2
350
4BD0
  3
DIMLTYPE
350
4BCE
  0
DICTIONARY
  5
3AE5
102
{ACAD_REACTORS
330
C
102
}
330
C
100
AcDbDictionary
281
     1
  0
DICTIONARY
  5
D
102
{ACAD_REACTORS
330
C
102
}
330
C
100
AcDbDictionary
281
     1
  0
DICTIONARY
  5
1A
102
{ACAD_REACTORS
330
C
102
}
330
C
100
AcDbDictionary
281
     1
  3
Layout1
350
1E
  3
Layout2
350
26
  3
Model
350
22
  0
DICTIONARY
  5
3ABB
102
{ACAD_REACTORS
330
C
102
}
330
C
100
AcDbDictionary
281
     1
  3
ByBlock
350
3AC4
  3
ByLayer
350
3ABC
  3
Global
350
3ACC
  0
DICTIONARY
  5
3AFA
102
{ACAD_REACTORS
330
C
102
}
330
C
100
AcDbDictionary
281
     1
  3
Standard
350
3AFB
  0
DICTIONARY
  5
17
102
{ACAD_REACTORS
330
C
102
}
330
C
100
AcDbDictionary
281
     1
  3
Standard
350
18
  0
DICTIONARY
  5
19
102
{ACAD_REACTORS
330
C
102
}
330
C
100
AcDbDictionary
281
     1
  0
ACDBDICTIONARYWDFLT
  5
E
102
{ACAD_REACTORS
330
C
102
}
330
C
100
AcDbDictionary
281
     1
  3
Normal
350
F
100
AcDbDictionaryWithDefault
340
F
  0
DICTIONARY
  5
3AE8
102
{ACAD_REACTORS
330
C
102
}
330
C
100
AcDbDictionary
281
     1
  3
A0
350
3AE9
  3
A1
350
3AEA
  3
A2
350
3AEB
  3
A3
350
3AEC
  3
A4
350
3AED
  3
A5
350
3AEE
  3
A6
350
3AEF
  3
A7
350
3AF0
  3
A8
350
3AF1
  3
A9
350
3AF2
  3
B0
350
3AF3
  3
B1
350
3AF4
  3
B2
350
3AF5
  3
B3
350
3AF6
  3
B4
350
3AF7
  3
B5
350
3AF8
  3
B6
350
3AF9
  0
DICTIONARY
  5
3AE6
102
{ACAD_REACTORS
330
C
102
}
330
C
100
AcDbDictionary
281
     1
  3
Standard
350
3AE7
  0
DICTIONARY
  5
3AD4
102
{ACAD_REACTORS
330
C
102
}
330
C
100
AcDbDictionary
281
     1
  3
2dWireframe
350
3ADA
  3
3D Hidden
350
3ADC
  3
3dWireframe
350
3ADB
  3
Basic
350
3AD9
  3
Brighten
350
3AE0
  3
ColorChange
350
3AE4
  3
Conceptual
350
3ADD
  3
Dim
350
3ADF
  3
EdgeColorOff
350
3F26
  3
Facepattern
350
3AE3
  3
Flat
350
3AD5
  3
FlatWithEdges
350
3AD6
  3
Gouraud
350
3AD7
  3
GouraudWithEdges
350
3AD8
  3
Hidden
350
3F1E
  3
JitterOff
350
3F24
  3
Linepattern
350
3AE2
  3
OverhangOff
350
3F25
  3
Realistic
350
3ADE
  3
Shaded
350
3F23
  3
Shaded with edges
350
3F22
  3
Shades of Gray
350
3F1F
  3
Sketchy
350
3F20
  3
Thicken
350
3AE1
  3
Wireframe
350
3F1D
  3
X-Ray
350
3F21
  0
XRECORD
  5
4BCB
102
{ACAD_REACTORS
330
C
102
}
330
C
100
AcDbXrecord
280
     1
 90
        1
330
3AE7
  0
DICTIONARY
  5
86
102
{ACAD_REACTORS
330
C
102
}
330
C
100
AcDbDictionary
281
     1
  3
CANNOSCALE
350
3C64
  3
CMLEADERSTYLE
350
3C63
  3
CTABLESTYLE
350
3C62
  3
DIMASSOC
350
89
  3
HIDETEXT
350
88
  3
INDEXCTL
350
87
  3
LAYEREVAL
350
3E31
  3
LAYERNOTIFY
350
3E32
  3
LIGHTINGUNITS
350
3E30
  3
MSLTSCALE
350
3E2F
  0
DICTIONARY
  5
45
102
{ACAD_REACTORS
330
C
102
}
330
C
100
AcDbDictionary
281
     1
  3
AcmStdDictionary
350
4A
  3
AMDTSECTSYM_ARROWCOLOR
350
3B53
  0
DICTIONARY
  5
4851
102
{ACAD_REACTORS
330
C
102
}
330
C
100
AcDbDictionary
281
     1
  0
DICTIONARY
  5
41
102
{ACAD_REACTORS
330
C
102
}
330
C
100
AcDbDictionary
281
     1
  0
DICTIONARY
  5
332
102
{ACAD_REACTORS
330
C
102
}
330
C
100
AcDbDictionary
281
     1
  0
DICTIONARY
  5
47B8
102
{ACAD_REACTORS
330
C
102
}
330
C
100
AcDbDictionary
281
     1
  3
ASEBlockHierarchyIndexRecord
350
47B9
1001
DCO15
1040
1720009364.186
  0
DICTIONARY
  5
4024
102
{ACAD_REACTORS
330
4023
102
}
330
4023
100
AcDbDictionary
281
     1
  0
XRECORD
  5
3B85
102
{ACAD_REACTORS
330
3B84
102
}
330
3B84
100
AcDbXrecord
280
     1
290
     1
  0
SORTENTSTABLE
  5
3B74
102
{ACAD_REACTORS
330
81
102
}
330
81
100
AcDbSortentsTable
330
1F
331
4A37
  5
4A3D
331
49F4
  5
49FA
331
4AAD
  5
4AB3
331
4A33
  5
4A39
331
4A2F
  5
4A35
331
4A6E
  5
4A74
331
49F0
  5
49F6
331
4AA9
  5
4AAF
331
4AA5
  5
4AAB
331
4A2B
  5
4A31
331
4A6A
  5
4A70
331
4AA1
  5
4AA7
331
4A27
  5
4A2D
331
4A66
  5
4A6C
331
4A9D
  5
4AA3
331
4A23
  5
4A29
331
4A62
  5
4A68
331
4A1F
  5
4A25
331
4A5E
  5
4A64
331
4A99
  5
4A9F
331
4A95
  5
4A9B
331
4A1B
  5
4A21
331
4A5A
  5
4A60
331
4A91
  5
4A97
331
4A17
  5
4A1D
331
4A56
  5
4A5C
331
469C
  5
47A5
331
4A8D
  5
4A93
331
4A13
  5
4A19
331
4A52
  5
4A58
331
4A4E
  5
4A54
331
4A0F
  5
4A15
331
4A89
  5
4A8F
331
4A4A
  5
4A50
331
4A85
  5
4A8B
331
4A0B
  5
4A11
331
4A81
  5
4A87
331
3E5F
  5
402E
331
4A07
  5
4A0D
331
4A46
  5
4A4C
331
4A7D
  5
4A83
331
4A03
  5
4A09
331
4A42
  5
4A48
331
4A3E
  5
4A44
331
49FF
  5
4A05
331
4A79
  5
4A7F
331
4AB8
  5
49F3
331
4A3A
  5
4A40
331
4AB4
  5
4ABA
331
4A75
  5
4A7B
331
49FB
  5
4A01
331
4AB0
  5
4AB6
331
4A71
  5
4A77
331
49F7
  5
49FD
331
4A36
  5
4A3C
331
49F3
  5
49F9
331
4AAC
  5
4AB2
331
4A32
  5
4A38
331
4A2E
  5
4A34
331
4A6D
  5
4A73
331
4AA8
  5
4AAE
331
4AA4
  5
4AAA
331
4A2A
  5
4A30
331
4A69
  5
4A6F
331
4AA0
  5
4AA6
331
4A26
  5
4A2C
331
4A65
  5
4A6B
331
4A9C
  5
4AA2
331
4A22
  5
4A28
331
4A61
  5
4A67
331
4A1E
  5
4A24
331
4A5D
  5
4A63
331
4A98
  5
4A9E
331
4A94
  5
4A9A
331
4A1A
  5
4A20
331
4A59
  5
4A5F
331
4A90
  5
4A96
331
4A16
  5
4A1C
331
4A55
  5
4A5B
331
469B
  5
47A4
331
4A8C
  5
4A92
331
4A12
  5
4A18
331
4A51
  5
4A57
331
4A4D
  5
4A53
331
4A0E
  5
4A14
331
4A88
  5
4A8E
331
4A49
  5
4A4F
331
4A84
  5
4A8A
331
4A0A
  5
4A10
331
4A80
  5
4A86
331
40AF
  5
457F
331
3E5E
  5
402B
331
4A06
  5
4A0C
331
4A45
  5
4A4B
331
4A7C
  5
4A82
331
4A02
  5
4A08
331
4A41
  5
4A47
331
4A3D
  5
4A43
331
4AB7
  5
49F2
331
4A78
  5
4A7E
331
49FE
  5
4A04
331
4A39
  5
4A3F
331
4AB3
  5
4AB9
331
4A74
  5
4A7A
331
49FA
  5
4A00
331
4A70
  5
4A76
331
49F6
  5
49FC
331
4AAF
  5
4AB5
331
4A35
  5
4A3B
331
49F2
  5
49F8
331
4AAB
  5
4AB1
331
4A31
  5
4A37
331
4AA7
  5
4AAD
331
4A2D
  5
4A33
331
4A6C
  5
4A72
331
4AA3
  5
4AA9
331
4A29
  5
4A2F
331
4A68
  5
4A6E
331
4A9F
  5
4AA5
331
4A25
  5
4A2B
331
4A64
  5
4A6A
331
4A9B
  5
4AA1
331
4A21
  5
4A27
331
4A60
  5
4A66
331
4A97
  5
4A9D
331
4A1D
  5
4A23
331
4A5C
  5
4A62
331
4A93
  5
4A99
331
4A19
  5
4A1F
331
4A58
  5
4A5E
331
4A8F
  5
4A95
331
4A15
  5
4A1B
331
4A54
  5
4A5A
331
4A8B
  5
4A91
331
4A11
  5
4A17
331
4A50
  5
4A56
331
4A4C
  5
4A52
331
4A87
  5
4A8D
331
4A0D
  5
4A13
331
4A48
  5
4A4E
331
4A83
  5
4A89
331
4A09
  5
4A0F
331
4A7F
  5
4A85
331
4A05
  5
4A0B
331
4A44
  5
4A4A
331
4A01
  5
4A07
331
4A7B
  5
4A81
331
4ABA
  5
49F5
331
4A40
  5
4A46
331
4A3C
  5
4A42
331
4AB6
  5
49F1
331
4A77
  5
4A7D
331
49FD
  5
4A03
331
4A38
  5
4A3E
331
4AB2
  5
4AB8
331
4A73
  5
4A79
331
49F9
  5
49FF
331
49F5
  5
49FB
331
4AAE
  5
4AB4
331
4A34
  5
4A3A
331
4A6F
  5
4A75
331
49F1
  5
49F7
331
4AAA
  5
4AB0
331
4A30
  5
4A36
331
4AA6
  5
4AAC
331
4A2C
  5
4A32
331
4A6B
  5
4A71
331
4AA2
  5
4AA8
331
4A28
  5
4A2E
331
4A67
  5
4A6D
331
4A9E
  5
4AA4
331
4A24
  5
4A2A
331
4A63
  5
4A69
331
4A5F
  5
4A65
331
4A9A
  5
4AA0
331
4A20
  5
4A26
331
4A96
  5
4A9C
331
4A1C
  5
4A22
331
4A5B
  5
4A61
331
4A92
  5
4A98
331
4A18
  5
4A1E
331
4A57
  5
4A5D
331
469D
  5
47A6
331
4A8E
  5
4A94
331
4A14
  5
4A1A
331
4A53
  5
4A59
331
4A4F
  5
4A55
331
3E60
  5
405F
331
4A8A
  5
4A90
331
4A10
  5
4A16
331
4A4B
  5
4A51
331
4A86
  5
4A8C
331
4A0C
  5
4A12
331
4A82
  5
4A88
331
4A08
  5
4A0E
331
4A47
  5
4A4D
331
4A7E
  5
4A84
331
4A04
  5
4A0A
331
4A43
  5
4A49
331
4A3F
  5
4A45
331
4A00
  5
4A06
331
4A7A
  5
4A80
331
4AB9
  5
49F4
331
4A3B
  5
4A41
331
4AB5
  5
49F0
331
4A76
  5
4A7C
331
49FC
  5
4A02
331
4AB1
  5
4AB7
331
4A72
  5
4A78
331
49F8
  5
49FE
  0
XRECORD
  5
4BCD
102
{ACAD_REACTORS
330
4BCC
102
}
330
4BCC
100
AcDbXrecord
280
     1
 40
1.570796326794896
  0
XRECORD
  5
4BCF
102
{ACAD_REACTORS
330
4BCC
102
}
330
4BCC
100
AcDbXrecord
280
     1
340
14
  0
XRECORD
  5
4BD0
102
{ACAD_REACTORS
330
4BCC
102
}
330
4BCC
100
AcDbXrecord
280
     1
340
14
  0
XRECORD
  5
4BCE
102
{ACAD_REACTORS
330
4BCC
102
}
330
4BCC
100
AcDbXrecord
280
     1
340
14
  0
LAYOUT
  5
1E
102
{ACAD_REACTORS
330
1A
102
}
330
1A
100
AcDbPlotSettings
  1

  2
Epson Stylus COLOR 440 ESC/P 2
  4

  6

 40
0.0
 41
0.0
 42
0.0
 43
0.0
 44
0.0
 45
0.0
 46
0.0
 47
0.0
 48
0.0
 49
0.0
140
0.0
141
0.0
142
1.0
143
1.0
 70
   688
 72
     0
 73
     0
 74
     5
  7

 75
    16
147
1.0
 76
     0
 77
     2
 78
   300
148
0.0
149
0.0
100
AcDbLayout
  1
Layout1
 70
     1
 71
     1
 10
0.0
 20
0.0
 11
420.0
 21
297.0
 12
0.0
 22
0.0
 32
0.0
 14
1.000000000000000E+20
 24
1.000000000000000E+20
 34
1.000000000000000E+20
 15
-1.000000000000000E+20
 25
-1.000000000000000E+20
 35
-1.000000000000000E+20
146
0.0
 13
0.0
 23
0.0
 33
0.0
 16
1.0
 26
0.0
 36
0.0
 17
0.0
 27
1.0
 37
0.0
 76
     0
330
1B
  0
LAYOUT
  5
26
102
{ACAD_REACTORS
330
1A
102
}
330
1A
100
AcDbPlotSettings
  1

  2
Epson Stylus COLOR 440 ESC/P 2
  4

  6

 40
0.0
 41
0.0
 42
0.0
 43
0.0
 44
0.0
 45
0.0
 46
0.0
 47
0.0
 48
0.0
 49
0.0
140
0.0
141
0.0
142
1.0
143
1.0
 70
   688
 72
     0
 73
     0
 74
     5
  7

 75
    16
147
1.0
 76
     0
 77
     2
 78
   300
148
0.0
149
0.0
100
AcDbLayout
  1
Layout2
 70
     1
 71
     2
 10
0.0
 20
0.0
 11
12.0
 21
9.0
 12
0.0
 22
0.0
 32
0.0
 14
0.0
 24
0.0
 34
0.0
 15
0.0
 25
0.0
 35
0.0
146
0.0
 13
0.0
 23
0.0
 33
0.0
 16
1.0
 26
0.0
 36
0.0
 17
0.0
 27
1.0
 37
0.0
 76
     0
330
23
  0
LAYOUT
  5
22
102
{ACAD_XDICTIONARY
360
4029
102
}
102
{ACAD_REACTORS
330
1A
102
}
330
1A
100
AcDbPlotSettings
  1

  2
Epson Stylus COLOR 440 ESC/P 2
  4

  6

 40
0.0
 41
0.0
 42
0.0
 43
0.0
 44
0.0
 45
0.0
 46
0.0
 47
0.0
 48
0.0
 49
0.0
140
0.0
141
0.0
142
1.0
143
1.0
 70
  1712
 72
     0
 73
     0
 74
     0
  7

 75
     0
147
1.0
 76
     0
 77
     2
 78
   300
148
0.0
149
0.0
100
AcDbLayout
  1
Model
 70
     1
 71
     0
 10
0.0
 20
0.0
 11
12.0
 21
9.0
 12
0.0
 22
0.0
 32
0.0
 14
0.0
 24
0.0
 34
0.0
 15
0.0
 25
0.0
 35
0.0
146
0.0
 13
0.0
 23
0.0
 33
0.0
 16
1.0
 26
0.0
 36
0.0
 17
0.0
 27
1.0
 37
0.0
 76
     0
330
1F
331
3AB9
  0
MATERIAL
  5
3AC4
102
{ACAD_XDICTIONARY
360
3AC5
102
}
102
{ACAD_REACTORS
330
3ABB
102
}
330
3ABB
100
AcDbMaterial
  1
ByBlock
 72
     0
 43
0.0008202099737533
 43
0.0
 43
0.0
 43
0.0
 43
0.0
 43
0.0008202099737533
 43
0.0
 43
0.0
 43
0.0
 43
0.0
 43
1.0
 43
0.0
 43
0.0
 43
0.0
 43
0.0
 43
1.0
 77
     0
 47
0.0008202099737533
 47
0.0
 47
0.0
 47
0.0
 47
0.0
 47
0.0008202099737533
 47
0.0
 47
0.0
 47
0.0
 47
0.0
 47
1.0
 47
0.0
 47
0.0
 47
0.0
 47
0.0
 47
1.0
171
     0
 49
0.0008202099737533
 49
0.0
 49
0.0
 49
0.0
 49
0.0
 49
0.0008202099737533
 49
0.0
 49
0.0
 49
0.0
 49
0.0
 49
1.0
 49
0.0
 49
0.0
 49
0.0
 49
0.0
 49
1.0
175
     0
142
0.0008202099737533
142
0.0
142
0.0
142
0.0
142
0.0
142
0.0008202099737533
142
0.0
142
0.0
142
0.0
142
0.0
142
1.0
142
0.0
142
0.0
142
0.0
142
0.0
142
1.0
179
     0
144
0.0008202099737533
144
0.0
144
0.0
144
0.0
144
0.0
144
0.0008202099737533
144
0.0
144
0.0
144
0.0
144
0.0
144
1.0
144
0.0
144
0.0
144
0.0
144
0.0
144
1.0
147
0.0008202099737533
147
0.0
147
0.0
147
0.0
147
0.0
147
0.0008202099737533
147
0.0
147
0.0
147
0.0
147
0.0
147
1.0
147
0.0
147
0.0
147
0.0
147
0.0
147
1.0
  0
MATERIAL
  5
3ABC
102
{ACAD_XDICTIONARY
360
3ABD
102
}
102
{ACAD_REACTORS
330
3ABB
102
}
330
3ABB
100
AcDbMaterial
  1
ByLayer
 72
     0
 43
0.0008202099737533
 43
0.0
 43
0.0
 43
0.0
 43
0.0
 43
0.0008202099737533
 43
0.0
 43
0.0
 43
0.0
 43
0.0
 43
1.0
 43
0.0
 43
0.0
 43
0.0
 43
0.0
 43
1.0
 77
     0
 47
0.0008202099737533
 47
0.0
 47
0.0
 47
0.0
 47
0.0
 47
0.0008202099737533
 47
0.0
 47
0.0
 47
0.0
 47
0.0
 47
1.0
 47
0.0
 47
0.0
 47
0.0
 47
0.0
 47
1.0
171
     0
 49
0.0008202099737533
 49
0.0
 49
0.0
 49
0.0
 49
0.0
 49
0.0008202099737533
 49
0.0
 49
0.0
 49
0.0
 49
0.0
 49
1.0
 49
0.0
 49
0.0
 49
0.0
 49
0.0
 49
1.0
175
     0
142
0.0008202099737533
142
0.0
142
0.0
142
0.0
142
0.0
142
0.0008202099737533
142
0.0
142
0.0
142
0.0
142
0.0
142
1.0
142
0.0
142
0.0
142
0.0
142
0.0
142
1.0
179
     0
144
0.0008202099737533
144
0.0
144
0.0
144
0.0
144
0.0
144
0.0008202099737533
144
0.0
144
0.0
144
0.0
144
0.0
144
1.0
144
0.0
144
0.0
144
0.0
144
0.0
144
1.0
147
0.0008202099737533
147
0.0
147
0.0
147
0.0
147
0.0
147
0.0008202099737533
147
0.0
147
0.0
147
0.0
147
0.0
147
1.0
147
0.0
147
0.0
147
0.0
147
0.0
147
1.0
  0
MATERIAL
  5
3ACC
102
{ACAD_XDICTIONARY
360
3ACD
102
}
102
{ACAD_REACTORS
330
3ABB
102
}
330
3ABB
100
AcDbMaterial
  1
Global
 72
     0
 43
0.0008202099737533
 43
0.0
 43
0.0
 43
0.0
 43
0.0
 43
0.0008202099737533
 43
0.0
 43
0.0
 43
0.0
 43
0.0
 43
1.0
 43
0.0
 43
0.0
 43
0.0
 43
0.0
 43
1.0
 77
     0
 47
0.0008202099737533
 47
0.0
 47
0.0
 47
0.0
 47
0.0
 47
0.0008202099737533
 47
0.0
 47
0.0
 47
0.0
 47
0.0
 47
1.0
 47
0.0
 47
0.0
 47
0.0
 47
0.0
 47
1.0
171
     0
 49
0.0008202099737533
 49
0.0
 49
0.0
 49
0.0
 49
0.0
 49
0.0008202099737533
 49
0.0
 49
0.0
 49
0.0
 49
0.0
 49
1.0
 49
0.0
 49
0.0
 49
0.0
 49
0.0
 49
1.0
175
     0
142
0.0008202099737533
142
0.0
142
0.0
142
0.0
142
0.0
142
0.0008202099737533
142
0.0
142
0.0
142
0.0
142
0.0
142
1.0
142
0.0
142
0.0
142
0.0
142
0.0
142
1.0
179
     0
144
0.0008202099737533
144
0.0
144
0.0
144
0.0
144
0.0
144
0.0008202099737533
144
0.0
144
0.0
144
0.0
144
0.0
144
1.0
144
0.0
144
0.0
144
0.0
144
0.0
144
1.0
147
0.0008202099737533
147
0.0
147
0.0
147
0.0
147
0.0
147
0.0008202099737533
147
0.0
147
0.0
147
0.0
147
0.0
147
1.0
147
0.0
147
0.0
147
0.0
147
0.0
147
1.0
  0
MLEADERSTYLE
  5
3AFB
102
{ACAD_REACTORS
330
3AFA
102
}
330
3AFA
100
AcDbMLeaderStyle
170
     2
171
     1
172
     0
 90
        2
 40
0.0
 41
0.0
173
     1
 91
-1056964608
340
14
 92
       -2
290
     1
 42
2.0
291
     1
 43
0.36
  3
Standard
 44
4.0
300

342
11
174
     1
178
     6
175
     1
176
     0
 93
-1056964608
 45
4.0
292
     0
297
     0
 46
4.0
 94
-1056964608
 47
1.0
 49
1.0
140
1.0
293
     1
141
0.0
294
     1
177
     0
142
1.0
295
     0
296
     0
143
0.125
1001
ACAD_MLEADERVER
1070
     2
  0
MLINESTYLE
  5
18
102
{ACAD_REACTORS
330
17
102
}
330
17
100
AcDbMlineStyle
  2
STANDARD
 70
     0
  3

 62
   256
 51
90.0
 52
90.0
 71
     2
 49
0.5
 62
   256
  6
BYLAYER
 49
-0.5
 62
   256
  6
BYLAYER
  0
ACDBPLACEHOLDER
  5
F
102
{ACAD_REACTORS
330
E
102
}
330
E
  0
SCALE
  5
3AE9
102
{ACAD_REACTORS
330
3AE8
102
}
330
3AE8
100
AcDbScale
 70
     0
300
1:1
140
1.0
141
1.0
290
     1
  0
SCALE
  5
3AEA
102
{ACAD_REACTORS
330
3AE8
102
}
330
3AE8
100
AcDbScale
 70
     0
300
1:2
140
1.0
141
2.0
290
     0
  0
SCALE
  5
3AEB
102
{ACAD_REACTORS
330
3AE8
102
}
330
3AE8
100
AcDbScale
 70
     0
300
1:4
140
1.0
141
4.0
290
     0
  0
SCALE
  5
3AEC
102
{ACAD_REACTORS
330
3AE8
102
}
330
3AE8
100
AcDbScale
 70
     0
300
1:5
140
1.0
141
5.0
290
     0
  0
SCALE
  5
3AED
102
{ACAD_REACTORS
330
3AE8
102
}
330
3AE8
100
AcDbScale
 70
     0
300
1:8
140
1.0
141
8.0
290
     0
  0
SCALE
  5
3AEE
102
{ACAD_REACTORS
330
3AE8
102
}
330
3AE8
100
AcDbScale
 70
     0
300
1:10
140
1.0
141
10.0
290
     0
  0
SCALE
  5
3AEF
102
{ACAD_REACTORS
330
3AE8
102
}
330
3AE8
100
AcDbScale
 70
     0
300
1:16
140
1.0
141
16.0
290
     0
  0
SCALE
  5
3AF0
102
{ACAD_REACTORS
330
3AE8
102
}
330
3AE8
100
AcDbScale
 70
     0
300
1:20
140
1.0
141
20.0
290
     0
  0
SCALE
  5
3AF1
102
{ACAD_REACTORS
330
3AE8
102
}
330
3AE8
100
AcDbScale
 70
     0
300
1:30
140
1.0
141
30.0
290
     0
  0
SCALE
  5
3AF2
102
{ACAD_REACTORS
330
3AE8
102
}
330
3AE8
100
AcDbScale
 70
     0
300
1:40
140
1.0
141
40.0
290
     0
  0
SCALE
  5
3AF3
102
{ACAD_REACTORS
330
3AE8
102
}
330
3AE8
100
AcDbScale
 70
     0
300
1:50
140
1.0
141
50.0
290
     0
  0
SCALE
  5
3AF4
102
{ACAD_REACTORS
330
3AE8
102
}
330
3AE8
100
AcDbScale
 70
     0
300
1:100
140
1.0
141
100.0
290
     0
  0
SCALE
  5
3AF5
102
{ACAD_REACTORS
330
3AE8
102
}
330
3AE8
100
AcDbScale
 70
     0
300
2:1
140
2.0
141
1.0
290
     0
  0
SCALE
  5
3AF6
102
{ACAD_REACTORS
330
3AE8
102
}
330
3AE8
100
AcDbScale
 70
     0
300
4:1
140
4.0
141
1.0
290
     0
  0
SCALE
  5
3AF7
102
{ACAD_REACTORS
330
3AE8
102
}
330
3AE8
100
AcDbScale
 70
     0
300
8:1
140
8.0
141
1.0
290
     0
  0
SCALE
  5
3AF8
102
{ACAD_REACTORS
330
3AE8
102
}
330
3AE8
100
AcDbScale
 70
     0
300
10:1
140
10.0
141
1.0
290
     0
  0
SCALE
  5
3AF9
102
{ACAD_REACTORS
330
3AE8
102
}
330
3AE8
100
AcDbScale
 70
     0
300
100:1
140
100.0
141
1.0
290
     0
  0
TABLESTYLE
  5
3AE7
102
{ACAD_XDICTIONARY
360
3C59
102
}
102
{ACAD_REACTORS
330
3AE6
102
}
330
3AE6
100
AcDbTableStyle
  3
Standard
 70
     0
 71
     0
 40
1.5
 41
1.5
280
     0
281
     0
  7
STANDARD
140
4.5
170
     2
 62
     0
 63
     7
283
     0
274
    -2
284
     1
 64
     0
275
    -2
285
     1
 65
     0
276
    -2
286
     1
 66
     0
277
    -2
287
     1
 67
     0
278
    -2
288
     1
 68
     0
279
    -2
289
     1
 69
     0
  7
STANDARD
140
6.0
170
     5
 62
     0
 63
     7
283
     0
274
    -2
284
     1
 64
     0
275
    -2
285
     1
 65
     0
276
    -2
286
     1
 66
     0
277
    -2
287
     1
 67
     0
278
    -2
288
     1
 68
     0
279
    -2
289
     1
 69
     0
  7
STANDARD
140
4.5
170
     5
 62
     0
 63
     7
283
     0
274
    -2
284
     1
 64
     0
275
    -2
285
     1
 65
     0
276
    -2
286
     1
 66
     0
277
    -2
287
     1
 67
     0
278
    -2
288
     1
 68
     0
279
    -2
289
     1
 69
     0
  0
VISUALSTYLE
  5
3ADA
102
{ACAD_XDICTIONARY
360
4BDE
102
}
102
{ACAD_REACTORS
330
3AD4
102
}
330
3AD4
100
AcDbVisualStyle
  2
2dWireframe
 70
     4
 71
     0
 72
     2
 73
     0
 90
        0
 40
-0.6
 41
-30.0
 62
     5
 63
     7
421
 16777215
 74
     1
 91
        4
 64
     7
 65
   257
 75
     1
175
     1
 42
1.0
 92
        0
 66
   257
 43
1.0
 76
     1
 77
     6
 78
     2
 67
     7
 79
     5
170
     0
171
     0
290
     0
174
     0
 93
        1
 44
0.0
173
     0
291
     0
 45
0.0
1001
ACAD
1000
AcDbSavedByObjectVersion
1070
     0
  0
VISUALSTYLE
  5
3ADC
102
{ACAD_XDICTIONARY
360
4BE2
102
}
102
{ACAD_REACTORS
330
3AD4
102
}
330
3AD4
100
AcDbVisualStyle
  2
3D Hidden
 70
     6
 71
     1
 72
     2
 73
     2
 90
        0
 40
-0.6
 41
-30.0
 62
     5
 63
     7
421
 16777215
 74
     2
 91
        2
 64
     7
 65
   257
 75
     2
175
     1
 42
40.0
 92
        0
 66
   257
 43
1.0
 76
     1
 77
     6
 78
     2
 67
     7
 79
     3
170
     0
171
     0
290
     0
174
     0
 93
        1
 44
0.0
173
     0
291
     0
 45
0.0
1001
ACAD
1000
AcDbSavedByObjectVersion
1070
     0
  0
VISUALSTYLE
  5
3ADB
102
{ACAD_XDICTIONARY
360
4BE0
102
}
102
{ACAD_REACTORS
330
3AD4
102
}
330
3AD4
100
AcDbVisualStyle
  2
3dWireframe
 70
     5
 71
     0
 72
     2
 73
     0
 90
        0
 40
-0.6
 41
-30.0
 62
     5
 63
     7
421
 16777215
 74
     1
 91
        4
 64
     7
 65
   257
 75
     1
175
     1
 42
1.0
 92
        0
 66
   257
 43
1.0
 76
     1
 77
     6
 78
     2
 67
     7
 79
     5
170
     0
171
     0
290
     0
174
     0
 93
        1
 44
0.0
173
     0
291
     0
 45
0.0
1001
ACAD
1000
AcDbSavedByObjectVersion
1070
     0
  0
VISUALSTYLE
  5
3AD9
102
{ACAD_XDICTIONARY
360
4BDC
102
}
102
{ACAD_REACTORS
330
3AD4
102
}
330
3AD4
100
AcDbVisualStyle
  2
Basic
 70
     7
 71
     1
 72
     0
 73
     1
 90
        0
 40
-0.6
 41
-30.0
 62
     5
 63
     7
421
 16777215
 74
     0
 91
        4
 64
     7
 65
   257
 75
     1
175
     1
 42
1.0
 92
        8
 66
     7
 43
1.0
 76
     1
 77
     6
 78
     2
 67
     7
 79
     5
170
     0
171
     0
290
     0
174
     0
 93
        1
 44
0.0
173
     0
291
     1
 45
0.0
1001
ACAD
1000
AcDbSavedByObjectVersion
1070
     0
  0
VISUALSTYLE
  5
3AE0
102
{ACAD_XDICTIONARY
360
4BEA
102
}
102
{ACAD_REACTORS
330
3AD4
102
}
330
3AD4
100
AcDbVisualStyle
  2
Brighten
 70
    12
 71
     2
 72
     2
 73
     0
 90
        0
 40
-0.6
 41
-30.0
 62
     5
 63
     7
421
 16777215
 74
     1
 91
        4
 64
     7
 65
   257
 75
     1
175
     1
 42
1.0
 92
        8
 66
     7
 43
1.0
 76
     1
 77
     6
 78
     2
 67
     7
 79
     5
170
     0
171
     0
290
     0
174
     0
 93
        1
 44
50.0
173
     0
291
     1
 45
0.0
1001
ACAD
1000
AcDbSavedByObjectVersion
1070
     0
  0
VISUALSTYLE
  5
3AE4
102
{ACAD_XDICTIONARY
360
4BF2
102
}
102
{ACAD_REACTORS
330
3AD4
102
}
330
3AD4
100
AcDbVisualStyle
  2
ColorChange
 70
    16
 71
     2
 72
     2
 73
     3
 90
        0
 40
-0.6
 41
-30.0
 62
     5
 63
     8
421
  8421504
 74
     1
 91
        4
 64
     7
 65
   257
 75
     1
175
     1
 42
1.0
 92
        8
 66
     8
424
  8421504
 43
1.0
 76
     1
 77
     6
 78
     2
 67
     7
 79
     5
170
     0
171
     0
290
     0
174
     0
 93
        1
 44
0.0
173
     0
291
     1
 45
0.0
1001
ACAD
1000
AcDbSavedByObjectVersion
1070
     0
  0
VISUALSTYLE
  5
3ADD
102
{ACAD_XDICTIONARY
360
4BE4
102
}
102
{ACAD_REACTORS
330
3AD4
102
}
330
3AD4
100
AcDbVisualStyle
  2
Conceptual
 70
     9
 71
     3
 72
     2
 73
     0
 90
        0
 40
-0.6
 41
-30.0
 62
     5
 63
     7
421
 16777215
 74
     2
 91
        2
 64
     7
 65
   257
 75
     1
175
     1
 42
40.0
 92
        8
 66
     7
 43
1.0
 76
     1
 77
     6
 78
     2
 67
     7
 79
     3
170
     0
171
     0
290
     0
174
     0
 93
        1
 44
0.0
173
     0
291
     0
 45
0.0
1001
ACAD
1000
AcDbSavedByObjectVersion
1070
     0
  0
VISUALSTYLE
  5
3ADF
102
{ACAD_XDICTIONARY
360
4BE8
102
}
102
{ACAD_REACTORS
330
3AD4
102
}
330
3AD4
100
AcDbVisualStyle
  2
Dim
 70
    11
 71
     2
 72
     2
 73
     0
 90
        0
 40
-0.6
 41
-30.0
 62
     5
 63
     7
421
 16777215
 74
     1
 91
        4
 64
     7
 65
   257
 75
     1
175
     1
 42
1.0
 92
        8
 66
     7
 43
1.0
 76
     1
 77
     6
 78
     2
 67
     7
 79
     5
170
     0
171
     0
290
     0
174
     0
 93
        1
 44
-50.0
173
     0
291
     1
 45
0.0
1001
ACAD
1000
AcDbSavedByObjectVersion
1070
     0
  0
VISUALSTYLE
  5
3F26
102
{ACAD_XDICTIONARY
360
4C07
102
}
102
{ACAD_REACTORS
330
3AD4
102
}
330
3AD4
100
AcDbVisualStyle
  2
EdgeColorOff
 70
    22
 71
     2
 72
     2
 73
     0
 90
        0
 40
-0.6
 41
-30.0
 62
     5
 63
     7
421
 16777215
 74
     1
 91
        4
 64
     7
 65
   257
 75
     1
175
     1
 42
1.0
 92
        8
 66
     7
 43
1.0
 76
     1
 77
     6
 78
     2
 67
     7
 79
     5
170
     0
171
     0
290
     0
174
     0
 93
        1
 44
0.0
173
     0
291
     1
 45
0.0
1001
ACAD
1000
AcDbSavedByObjectVersion
1070
     0
  0
VISUALSTYLE
  5
3AE3
102
{ACAD_XDICTIONARY
360
4BF0
102
}
102
{ACAD_REACTORS
330
3AD4
102
}
330
3AD4
100
AcDbVisualStyle
  2
Facepattern
 70
    15
 71
     2
 72
     2
 73
     0
 90
        0
 40
-0.6
 41
-30.0
 62
     5
 63
     7
421
 16777215
 74
     1
 91
        4
 64
     7
 65
   257
 75
     1
175
     1
 42
1.0
 92
        8
 66
     7
 43
1.0
 76
     1
 77
     6
 78
     2
 67
     7
 79
     5
170
     0
171
     0
290
     0
174
     0
 93
        1
 44
0.0
173
     0
291
     1
 45
0.0
1001
ACAD
1000
AcDbSavedByObjectVersion
1070
     0
  0
VISUALSTYLE
  5
3AD5
102
{ACAD_XDICTIONARY
360
4BD4
102
}
102
{ACAD_REACTORS
330
3AD4
102
}
330
3AD4
100
AcDbVisualStyle
  2
Flat
 70
     0
 71
     2
 72
     1
 73
     1
 90
        2
 40
-0.6
 41
30.0
 62
     5
 63
     7
421
 16777215
 74
     0
 91
        4
 64
     7
 65
   257
 75
     1
175
     1
 42
1.0
 92
        8
 66
     7
 43
1.0
 76
     1
 77
     6
 78
     2
 67
     7
 79
     5
170
     0
171
     0
290
     0
174
     0
 93
       13
 44
0.0
173
     0
291
     1
 45
0.0
1001
ACAD
1000
AcDbSavedByObjectVersion
1070
     0
  0
VISUALSTYLE
  5
3AD6
102
{ACAD_XDICTIONARY
360
4BD6
102
}
102
{ACAD_REACTORS
330
3AD4
102
}
330
3AD4
100
AcDbVisualStyle
  2
FlatWithEdges
 70
     1
 71
     2
 72
     1
 73
     1
 90
        2
 40
-0.6
 41
30.0
 62
     5
 63
     7
421
 16777215
 74
     1
 91
        4
 64
     7
 65
   257
 75
     1
175
     1
 42
1.0
 92
        0
 66
   257
 43
1.0
 76
     1
 77
     6
 78
     2
 67
     7
 79
     5
170
     0
171
     0
290
     0
174
     0
 93
       13
 44
0.0
173
     0
291
     1
 45
0.0
1001
ACAD
1000
AcDbSavedByObjectVersion
1070
     0
  0
VISUALSTYLE
  5
3AD7
102
{ACAD_XDICTIONARY
360
4BD8
102
}
102
{ACAD_REACTORS
330
3AD4
102
}
330
3AD4
100
AcDbVisualStyle
  2
Gouraud
 70
     2
 71
     2
 72
     2
 73
     1
 90
        2
 40
-0.6
 41
30.0
 62
     5
 63
     7
421
 16777215
 74
     0
 91
        4
 64
     7
 65
   257
 75
     1
175
     1
 42
1.0
 92
        0
 66
     7
 43
1.0
 76
     1
 77
     6
 78
     2
 67
     7
 79
     5
170
     0
171
     0
290
     0
174
     0
 93
       13
 44
0.0
173
     0
291
     1
 45
0.0
1001
ACAD
1000
AcDbSavedByObjectVersion
1070
     0
  0
VISUALSTYLE
  5
3AD8
102
{ACAD_XDICTIONARY
360
4BDA
102
}
102
{ACAD_REACTORS
330
3AD4
102
}
330
3AD4
100
AcDbVisualStyle
  2
GouraudWithEdges
 70
     3
 71
     2
 72
     2
 73
     1
 90
        2
 40
-0.6
 41
30.0
 62
     5
 63
     7
421
 16777215
 74
     1
 91
        4
 64
     7
 65
   257
 75
     1
175
     1
 42
1.0
 92
        0
 66
   257
 43
1.0
 76
     1
 77
     6
 78
     2
 67
     7
 79
     5
170
     0
171
     0
290
     0
174
     0
 93
       13
 44
0.0
173
     0
291
     1
 45
0.0
1001
ACAD
1000
AcDbSavedByObjectVersion
1070
     0
  0
VISUALSTYLE
  5
3F1E
102
{ACAD_XDICTIONARY
360
4BF7
102
}
102
{ACAD_REACTORS
330
3AD4
102
}
330
3AD4
100
AcDbVisualStyle
  2
Hidden
 70
     6
 71
     1
 72
     2
 73
     2
 90
        0
 40
-0.6
 41
-30.0
 62
     5
 63
     7
421
 16777215
 74
     2
 91
        2
 64
     7
 65
   257
 75
     2
175
     1
 42
40.0
 92
        0
 66
   257
 43
1.0
 76
     1
 77
     6
 78
     2
 67
     7
 79
     3
170
     0
171
     0
290
     0
174
     0
 93
        1
 44
0.0
173
     0
291
     0
 45
0.0
1001
ACAD
1000
AcDbSavedByObjectVersion
1070
     0
  0
VISUALSTYLE
  5
3F24
102
{ACAD_XDICTIONARY
360
4C03
102
}
102
{ACAD_REACTORS
330
3AD4
102
}
330
3AD4
100
AcDbVisualStyle
  2
JitterOff
 70
    20
 71
     2
 72
     2
 73
     0
 90
        0
 40
-0.6
 41
-30.0
 62
     5
 63
     7
421
 16777215
 74
     1
 91
        4
 64
     7
 65
   257
 75
     1
175
     1
 42
1.0
 92
       10
 66
     7
 43
1.0
 76
     1
 77
     6
 78
     2
 67
     7
 79
     5
170
     0
171
     0
290
     0
174
     0
 93
        1
 44
0.0
173
     0
291
     1
 45
0.0
1001
ACAD
1000
AcDbSavedByObjectVersion
1070
     0
  0
VISUALSTYLE
  5
3AE2
102
{ACAD_XDICTIONARY
360
4BEE
102
}
102
{ACAD_REACTORS
330
3AD4
102
}
330
3AD4
100
AcDbVisualStyle
  2
Linepattern
 70
    14
 71
     2
 72
     2
 73
     0
 90
        0
 40
-0.6
 41
-30.0
 62
     5
 63
     7
421
 16777215
 74
     1
 91
        4
 64
     7
 65
   257
 75
     7
175
     7
 42
1.0
 92
        8
 66
     7
 43
1.0
 76
     1
 77
     6
 78
     2
 67
     7
 79
     5
170
     0
171
     0
290
     0
174
     0
 93
        1
 44
0.0
173
     0
291
     1
 45
0.0
1001
ACAD
1000
AcDbSavedByObjectVersion
1070
     0
  0
VISUALSTYLE
  5
3F25
102
{ACAD_XDICTIONARY
360
4C05
102
}
102
{ACAD_REACTORS
330
3AD4
102
}
330
3AD4
100
AcDbVisualStyle
  2
OverhangOff
 70
    21
 71
     2
 72
     2
 73
     0
 90
        0
 40
-0.6
 41
-30.0
 62
     5
 63
     7
421
 16777215
 74
     1
 91
        4
 64
     7
 65
   257
 75
     1
175
     1
 42
1.0
 92
        9
 66
     7
 43
1.0
 76
     1
 77
     6
 78
     2
 67
     7
 79
     5
170
     0
171
     0
290
     0
174
     0
 93
        1
 44
0.0
173
     0
291
     1
 45
0.0
1001
ACAD
1000
AcDbSavedByObjectVersion
1070
     0
  0
VISUALSTYLE
  5
3ADE
102
{ACAD_XDICTIONARY
360
4BE6
102
}
102
{ACAD_REACTORS
330
3AD4
102
}
330
3AD4
100
AcDbVisualStyle
  2
Realistic
 70
     8
 71
     2
 72
     2
 73
     0
 90
        0
 40
-0.6
 41
-30.0
 62
     5
 63
     7
421
 16777215
 74
     1
 91
        0
 64
     7
 65
   257
 75
     1
175
     1
 42
1.0
 92
        8
 66
     8
424
  7895160
 43
1.0
 76
     1
 77
     6
 78
     2
 67
     7
 79
     5
170
     0
171
     0
290
     0
174
     0
 93
       13
 44
0.0
173
     0
291
     0
 45
0.0
1001
ACAD
1000
AcDbSavedByObjectVersion
1070
     0
  0
VISUALSTYLE
  5
3F23
102
{ACAD_XDICTIONARY
360
4C01
102
}
102
{ACAD_REACTORS
330
3AD4
102
}
330
3AD4
100
AcDbVisualStyle
  2
Shaded
 70
    27
 71
     2
 72
     2
 73
     1
 90
        2
 40
-0.6
 41
30.0
 62
     5
 63
     7
421
 16777215
 74
     0
 91
        4
 64
     7
 65
   257
 75
     1
175
     1
 42
1.0
 92
        8
 66
   257
 43
1.0
 76
     1
 77
     6
 78
     2
 67
     8
425
  7895160
 79
     3
170
     0
171
     0
290
     0
174
     0
 93
        5
 44
0.0
173
     0
291
     0
 45
0.0
1001
ACAD
1000
AcDbSavedByObjectVersion
1070
     0
  0
VISUALSTYLE
  5
3F22
102
{ACAD_XDICTIONARY
360
4BFF
102
}
102
{ACAD_REACTORS
330
3AD4
102
}
330
3AD4
100
AcDbVisualStyle
  2
Shaded with edges
 70
    26
 71
     2
 72
     2
 73
     1
 90
        2
 40
-0.6
 41
30.0
 62
     5
 63
     7
421
 16777215
 74
     1
 91
       10
 64
     7
 65
   257
 75
     2
175
     1
 42
1.0
 92
        8
 66
   257
 43
1.0
 76
     1
 77
     6
 78
     2
 67
     7
 79
     3
170
     0
171
     0
290
     0
174
     0
 93
        5
 44
0.0
173
     0
291
     0
 45
0.0
1001
ACAD
1000
AcDbSavedByObjectVersion
1070
     0
  0
VISUALSTYLE
  5
3F1F
102
{ACAD_XDICTIONARY
360
4BF9
102
}
102
{ACAD_REACTORS
330
3AD4
102
}
330
3AD4
100
AcDbVisualStyle
  2
Shades of Gray
 70
    23
 71
     2
 72
     2
 73
     3
 90
        0
 40
-0.6
 41
-30.0
 62
     5
 63
     7
421
 16777215
 74
     2
 91
        2
 64
     7
 65
     7
 75
     1
175
     1
 42
40.0
 92
        8
 66
     7
 43
1.0
 76
     1
 77
     6
 78
     2
 67
     7
 79
     3
170
     0
171
     0
290
     0
174
     0
 93
        1
 44
0.0
173
     0
291
     0
 45
0.0
1001
ACAD
1000
AcDbSavedByObjectVersion
1070
     0
  0
VISUALSTYLE
  5
3F20
102
{ACAD_XDICTIONARY
360
4BFB
102
}
102
{ACAD_REACTORS
330
3AD4
102
}
330
3AD4
100
AcDbVisualStyle
  2
Sketchy
 70
    24
 71
     1
 72
     2
 73
     2
 90
        0
 40
-0.6
 41
-30.0
 62
     5
 63
     7
421
 16777215
 74
     2
 91
        2
 64
     7
 65
     7
 75
     1
175
     1
 42
40.0
 92
       11
 66
     7
 43
1.0
 76
     1
 77
     6
 78
     2
 67
     7
 79
     6
170
     0
171
     0
290
     0
174
     0
 93
        1
 44
0.0
173
     0
291
     0
 45
0.0
1001
ACAD
1000
AcDbSavedByObjectVersion
1070
     0
  0
VISUALSTYLE
  5
3AE1
102
{ACAD_XDICTIONARY
360
4BEC
102
}
102
{ACAD_REACTORS
330
3AD4
102
}
330
3AD4
100
AcDbVisualStyle
  2
Thicken
 70
    13
 71
     2
 72
     2
 73
     0
 90
        0
 40
-0.6
 41
-30.0
 62
     5
 63
     7
421
 16777215
 74
     1
 91
        4
 64
     7
 65
   257
 75
     1
175
     1
 42
1.0
 92
       12
 66
     7
 43
1.0
 76
     1
 77
     6
 78
     2
 67
     7
 79
     5
170
     0
171
     0
290
     0
174
     0
 93
        1
 44
0.0
173
     0
291
     1
 45
0.0
1001
ACAD
1000
AcDbSavedByObjectVersion
1070
     0
  0
VISUALSTYLE
  5
3F1D
102
{ACAD_XDICTIONARY
360
4BF5
102
}
102
{ACAD_REACTORS
330
3AD4
102
}
330
3AD4
100
AcDbVisualStyle
  2
Wireframe
 70
     5
 71
     0
 72
     2
 73
     0
 90
        0
 40
-0.6
 41
-30.0
 62
     5
 63
     7
421
 16777215
 74
     1
 91
        4
 64
     7
 65
   257
 75
     1
175
     1
 42
1.0
 92
        0
 66
   257
 43
1.0
 76
     1
 77
     6
 78
     2
 67
     7
 79
     3
170
     0
171
     0
290
     0
174
     0
 93
        1
 44
0.0
173
     0
291
     0
 45
0.0
1001
ACAD
1000
AcDbSavedByObjectVersion
1070
     0
  0
VISUALSTYLE
  5
3F21
102
{ACAD_XDICTIONARY
360
4BFD
102
}
102
{ACAD_REACTORS
330
3AD4
102
}
330
3AD4
100
AcDbVisualStyle
  2
X-Ray
 70
    25
 71
     2
 72
     2
 73
     1
 90
        1
 40
0.5
 41
-30.0
 62
     5
 63
     7
421
 16777215
 74
     1
 91
        0
 64
     7
 65
   257
 75
     1
175
     1
 42
1.0
 92
        8
 66
     7
 43
1.0
 76
     1
 77
     6
 78
     2
 67
     7
 79
     3
170
     0
171
     0
290
     0
174
     0
 93
       13
 44
0.0
173
     0
291
     0
 45
0.0
1001
ACAD
1000
AcDbSavedByObjectVersion
1070
     0
  0
DICTIONARYVAR
  5
3C64
102
{ACAD_REACTORS
330
86
102
}
330
86
100
DictionaryVariables
280
     0
  1
1:1
  0
DICTIONARYVAR
  5
3C63
102
{ACAD_REACTORS
330
86
102
}
330
86
100
DictionaryVariables
280
     0
  1
STANDARD
  0
DICTIONARYVAR
  5
3C62
102
{ACAD_REACTORS
330
86
102
}
330
86
100
DictionaryVariables
280
     0
  1
STANDARD
  0
DICTIONARYVAR
  5
89
102
{ACAD_REACTORS
330
86
102
}
330
86
100
DictionaryVariables
280
     0
  1
2
  0
DICTIONARYVAR
  5
88
102
{ACAD_REACTORS
330
86
102
}
330
86
100
DictionaryVariables
280
     0
  1
1
  0
DICTIONARYVAR
  5
87
102
{ACAD_REACTORS
330
86
102
}
330
86
100
DictionaryVariables
280
     0
  1
1
  0
DICTIONARYVAR
  5
3E31
102
{ACAD_REACTORS
330
86
102
}
330
86
100
DictionaryVariables
280
     0
  1
1
  0
DICTIONARYVAR
  5
3E32
102
{ACAD_REACTORS
330
86
102
}
330
86
100
DictionaryVariables
280
     0
  1
15
  0
DICTIONARYVAR
  5
3E30
102
{ACAD_REACTORS
330
86
102
}
330
86
100
DictionaryVariables
280
     0
  1
0
  0
DICTIONARYVAR
  5
3E2F
102
{ACAD_REACTORS
330
86
102
}
330
86
100
DictionaryVariables
280
     0
  1
0
  0
DICTIONARY
  5
4A
102
{ACAD_REACTORS
330
45
102
}
330
45
100
AcDbDictionary
281
     1
  0
XRECORD
  5
3B53
102
{ACAD_REACTORS
330
45
102
}
330
45
100
AcDbXrecord
280
     1
 90
-1023410169
  0
XRECORD
  5
47B9
102
{ACAD_REACTORS
330
47B8
102
}
330
47B8
100
AcDbXrecord
280
     1
330
3F9C
330
3F9D
330
3FA1
330
3FA5
330
3FA6
330
3FA7
330
3FAB
330
3FAC
330
3FB0
330
3FB1
330
3FB7
330
3FC1
330
3FC2
330
3FC6
330
3FD2
330
3FD3
330
3FD9
330
3FE3
330
3FE4
330
3FE8
330
3FF5
330
3FFA
330
4003
330
4008
  0
DICTIONARY
  5
4029
330
22
100
AcDbDictionary
280
     1
281
     1
  3
ADSK_XREC_LAYOUTTHUMBNAIL
360
402A
  0
DICTIONARY
  5
3AC5
330
3AC4
100
AcDbDictionary
280
     1
281
     1
  3
ACAD_XREC_ROUNDTRIP
360
4BD2
  3
BUMPTILE
360
3AC7
  3
DIFFUSETILE
360
3AC6
  3
OPACITYTILE
360
3ACA
  3
REFLECTIONTILE
360
3AC9
  3
REFRACTIONTILE
360
3ACB
  3
SPECULARTILE
360
3AC8
  0
DICTIONARY
  5
3ABD
330
3ABC
100
AcDbDictionary
280
     1
281
     1
  3
ACAD_XREC_ROUNDTRIP
360
4BD1
  3
BUMPTILE
360
3ABF
  3
DIFFUSETILE
360
3ABE
  3
OPACITYTILE
360
3AC2
  3
REFLECTIONTILE
360
3AC1
  3
REFRACTIONTILE
360
3AC3
  3
SPECULARTILE
360
3AC0
  0
DICTIONARY
  5
3ACD
330
3ACC
100
AcDbDictionary
280
     1
281
     1
  3
ACAD_XREC_ROUNDTRIP
360
4BD3
  3
BUMPTILE
360
3ACF
  3
DIFFUSETILE
360
3ACE
  3
OPACITYTILE
360
3AD2
  3
REFLECTIONTILE
360
3AD1
  3
REFRACTIONTILE
360
3AD3
  3
SPECULARTILE
360
3AD0
  0
DICTIONARY
  5
3C59
330
3AE7
100
AcDbDictionary
280
     1
281
     1
  3
ACAD_ROUNDTRIP_2008_TABLESTYLE_CELLSTYLEMAP
360
4BCA
  3
ACAD_XREC_ROUNDTRIP
360
4BF4
  0
DICTIONARY
  5
4BDE
330
3ADA
100
AcDbDictionary
280
     1
281
     1
  3
ACAD_XREC_ROUNDTRIP
360
4BDF
  0
DICTIONARY
  5
4BE2
330
3ADC
100
AcDbDictionary
280
     1
281
     1
  3
ACAD_XREC_ROUNDTRIP
360
4BE3
  0
DICTIONARY
  5
4BE0
330
3ADB
100
AcDbDictionary
280
     1
281
     1
  3
ACAD_XREC_ROUNDTRIP
360
4BE1
  0
DICTIONARY
  5
4BDC
330
3AD9
100
AcDbDictionary
280
     1
281
     1
  3
ACAD_XREC_ROUNDTRIP
360
4BDD
  0
DICTIONARY
  5
4BEA
330
3AE0
100
AcDbDictionary
280
     1
281
     1
  3
ACAD_XREC_ROUNDTRIP
360
4BEB
  0
DICTIONARY
  5
4BF2
330
3AE4
100
AcDbDictionary
280
     1
281
     1
  3
ACAD_XREC_ROUNDTRIP
360
4BF3
  0
DICTIONARY
  5
4BE4
330
3ADD
100
AcDbDictionary
280
     1
281
     1
  3
ACAD_XREC_ROUNDTRIP
360
4BE5
  0
DICTIONARY
  5
4BE8
330
3ADF
100
AcDbDictionary
280
     1
281
     1
  3
ACAD_XREC_ROUNDTRIP
360
4BE9
  0
DICTIONARY
  5
4C07
330
3F26
100
AcDbDictionary
280
     1
281
     1
  3
ACAD_XREC_ROUNDTRIP
360
4C08
  0
DICTIONARY
  5
4BF0
330
3AE3
100
AcDbDictionary
280
     1
281
     1
  3
ACAD_XREC_ROUNDTRIP
360
4BF1
  0
DICTIONARY
  5
4BD4
330
3AD5
100
AcDbDictionary
280
     1
281
     1
  3
ACAD_XREC_ROUNDTRIP
360
4BD5
  0
DICTIONARY
  5
4BD6
330
3AD6
100
AcDbDictionary
280
     1
281
     1
  3
ACAD_XREC_ROUNDTRIP
360
4BD7
  0
DICTIONARY
  5
4BD8
330
3AD7
100
AcDbDictionary
280
     1
281
     1
  3
ACAD_XREC_ROUNDTRIP
360
4BD9
  0
DICTIONARY
  5
4BDA
330
3AD8
100
AcDbDictionary
280
     1
281
     1
  3
ACAD_XREC_ROUNDTRIP
360
4BDB
  0
DICTIONARY
  5
4BF7
330
3F1E
100
AcDbDictionary
280
     1
281
     1
  3
ACAD_XREC_ROUNDTRIP
360
4BF8
  0
DICTIONARY
  5
4C03
330
3F24
100
AcDbDictionary
280
     1
281
     1
  3
ACAD_XREC_ROUNDTRIP
360
4C04
  0
DICTIONARY
  5
4BEE
330
3AE2
100
AcDbDictionary
280
     1
281
     1
  3
ACAD_XREC_ROUNDTRIP
360
4BEF
  0
DICTIONARY
  5
4C05
330
3F25
100
AcDbDictionary
280
     1
281
     1
  3
ACAD_XREC_ROUNDTRIP
360
4C06
  0
DICTIONARY
  5
4BE6
330
3ADE
100
AcDbDictionary
280
     1
281
     1
  3
ACAD_XREC_ROUNDTRIP
360
4BE7
  0
DICTIONARY
  5
4C01
330
3F23
100
AcDbDictionary
280
     1
281
     1
  3
ACAD_XREC_ROUNDTRIP
360
4C02
  0
DICTIONARY
  5
4BFF
330
3F22
100
AcDbDictionary
280
     1
281
     1
  3
ACAD_XREC_ROUNDTRIP
360
4C00
  0
DICTIONARY
  5
4BF9
330
3F1F
100
AcDbDictionary
280
     1
281
     1
  3
ACAD_XREC_ROUNDTRIP
360
4BFA
  0
DICTIONARY
  5
4BFB
330
3F20
100
AcDbDictionary
280
     1
281
     1
  3
ACAD_XREC_ROUNDTRIP
360
4BFC
  0
DICTIONARY
  5
4BEC
330
3AE1
100
AcDbDictionary
280
     1
281
     1
  3
ACAD_XREC_ROUNDTRIP
360
4BED
  0
DICTIONARY
  5
4BF5
330
3F1D
100
AcDbDictionary
280
     1
281
     1
  3
ACAD_XREC_ROUNDTRIP
360
4BF6
  0
DICTIONARY
  5
4BFD
330
3F21
100
AcDbDictionary
280
     1
281
     1
  3
ACAD_XREC_ROUNDTRIP
360
4BFE
  0
XRECORD
  5
402A
102
{ACAD_REACTORS
330
4029
102
}
330
4029
100
AcDbXrecord
280
     1
310
280000000001000070000000010008000000000000700000000000000000000000010000000000003028210000000000FFFFFF000000000000000000000000000000000000000000000000000000000000000000330000006600000099000000CC000000FF00000000330000333300006633000099330000CC330000FF3300
310
0000660000336600006666000099660000CC660000FF66000000990000339900006699000099990000CC990000FF99000000CC000033CC000066CC000099CC0000CCCC0000FFCC000000FF000033FF000066FF000099FF0000CCFF0000FFFF000000003300330033006600330099003300CC003300FF003300003333003333
310
33006633330099333300CC333300FF33330000663300336633006666330099663300CC663300FF66330000993300339933006699330099993300CC993300FF99330000CC330033CC330066CC330099CC3300CCCC3300FFCC330000FF330033FF330066FF330099FF3300CCFF3300FFFF330000006600330066006600660099
310
006600CC006600FF00660000336600333366006633660099336600CC336600FF33660000666600336666006666660099666600CC666600FF66660000996600339966006699660099996600CC996600FF99660000CC660033CC660066CC660099CC6600CCCC6600FFCC660000FF660033FF660066FF660099FF6600CCFF6600
310
FFFF660000009900330099006600990099009900CC009900FF00990000339900333399006633990099339900CC339900FF33990000669900336699006666990099669900CC669900FF66990000999900339999006699990099999900CC999900FF99990000CC990033CC990066CC990099CC9900CCCC9900FFCC990000FF99
310
0033FF990066FF990099FF9900CCFF9900FFFF99000000CC003300CC006600CC009900CC00CC00CC00FF00CC000033CC003333CC006633CC009933CC00CC33CC00FF33CC000066CC003366CC006666CC009966CC00CC66CC00FF66CC000099CC003399CC006699CC009999CC00CC99CC00FF99CC0000CCCC0033CCCC0066CC
310
CC0099CCCC00CCCCCC00FFCCCC0000FFCC0033FFCC0066FFCC0099FFCC00CCFFCC00FFFFCC000000FF003300FF006600FF009900FF00CC00FF00FF00FF000033FF003333FF006633FF009933FF00CC33FF00FF33FF000066FF003366FF006666FF009966FF00CC66FF00FF66FF000099FF003399FF006699FF009999FF00CC
310
99FF00FF99FF0000CCFF0033CCFF0066CCFF0099CCFF00CCCCFF00FFCCFF0000FFFF0033FFFF0066FFFF0099FFFF00CCFFFF00FFFFFF00000000000D0D0D001A1A1A00282828003535350043434300505050005D5D5D006B6B6B00787878008686860093939300A1A1A100AEAEAE00BBBBBB00C9C9C900D6D6D600E4E4E400
310
F1F1F100FFFFFF000000000000000000000000000000000000000000000000000000000000000000000000000000000000000000000000000000000000000000000000000000000000000000000000000000000000000000000000000000000000000000000000000000000000000000000000000000000000000000000000
310
00000000000000000000000000000000000000000000000000000000000000000000000000000000000000000000000000000000000000000000000000000000000000000000000000000000000000000000000000000000000000000000000000000000000000000000000000000000000000000000000000000000000000
310
00000000000000000000000000000000000000000000000000000000000000000000000000000000000000000000000000000000000000000000000000000000000000000000000000000000000000000000000000000000000000000000000000000000000000000000000000000000000000000000000000000000000000
310
00000000000000000000000000000000000000000000000000000000000000000000000000000000000000000000000000000000000000000000000000000000000000000000000000000000000000000000000000000000000000000000000000000000000000000000000000000000000000000000000000000000000000
310
00000000000000000000000000000000000000000000000000000000000000000000000000000000000000000000000000000000000000000000000000000000000000000000000000000000000000000000000000000000000000000000000000000000000000000000000000000000000000000000000000000000000000
310
00000000000000000000000000000000000000000000000000000000000000000000000000000000000000000000000000000000000000000000000000000000000000000000000000000000000000000000000000000000000000000000000000000000000000000000000000000000000000000000000000000000000000
310
00000000000000000000000000000000000000000000000000000000000000000000000000000000000000000000000000000000000000000000000000000000000000000000000000000000000000000000000000000000000000000000000000000000000000000000000000000000000000000000000000000000000000
310
00000000000000000000000000000000000000000000000000000000000000000000000000000000000000000000000000000000000000000000000000000000000000000000000000000000000000000000000000000000000000000000000000000000000000000000000000000000000000000000000000000000000000
310
00000000000000000000000000000000000000000000000000000000000000000000000000000000000000000000000000000000000000000000000000000000000000000000000000000000000000000000000000000000000000000000000000000000000000000000000000000000000000000000000000000000000000
310
00000000000000000000000000000000000000000000000000000000000000000000000000000000000000000000000000000000000000000000000000000000000000000000000000000000000000000000000000000000000000000000000000000000000000000000000000000000000000000000000000000000000000
310
00000000000000000000000000000000000000000000000000000000000000000000000000000000000000000000000000000000000000000000000000000000000000000000000000000000000000000000000000000000000000000000000000000000000000000000000000000000000000000000000000000000000000
310
00000000000000000000000000000000000000000000000000000000000000000000000000000000000000000000000000000000000000000000000000000000000000000000000000000000000000000000000000000000000000000000000000000000000000000000000000000000000000000000000000000000000000
310
00000000000000000000000000000000000000000000000000000000000000000000000000000000000000000000000000000000000000000000000000000000000000000000000000000000000000000000000000000000000000000000000000000000000000000000000000000000000000000000000000000000000000
310
00000000000000000000000000000000000000000000000000000000000000000000000000000000000000000000000000000000000000000000000000000000000000000000000000000000000000000000000000000000000000000000000000000000000000000000000000000000000000000000000000000000000000
310
00000000000000000000000000000000000000000000000000000000000000000000000000000000000000000000000000000000000000000000000000000000000000000000000000000000000000000000000000000000000000000000000000000000000000000000000000000000000000000000000000000000000000
310
00000000000000000000000000000000000000000000000000000000000000000000000000000000000000000000000000000000000000000000000000000000000000000000000000000000000000000000000000000000000000000000000000000000000000000000000000000000000000000000000000000000000000
310
00000000000000000000000000000000000000000000000000000000000000000000000000000000000000000000000000000000000000000000000000000000000000000000000000000000000000000000000000000000000000000000000000000000000000000000000000000000000000000000000000000000000000
310
00000000000000000000000000000000000000000000000000000000000000000000000000000000000000000000000000000000000000000000000000000000000000000000000000000000000000000000000000000000000000000000000000000000000000000000000000000000000000000000000000000000000000
310
00000000000000000000000000000000000000000000000000000000000000000000000000000000000000000000000000000000000000000000000000000000000000000000000000000000000000000000000000000000000000000000000000000000000000000000000000000000000000000000000000000000000000
310
00000000000000000000000000000000000000000000000000000000000000000000000000000000000000000000000000000000000000000000000000000000000000000000000000000000000000000000000000000000000000000000000000000000000000000000000000000000000000000000000000000000000000
310
00000000000000000000000000000000000000000000000000000000000000000000000000000000000000000000000000000000000000000000000000000000000000000000000000000000000000000000000000000000000000000000000000000000000000000000000000000000000000000000000000000000000000
310
00000000000000000000000000000000000000000000000000000000000000000000000000000000000000000000000000000000000000000000000000000000000000000000000000000000000000000000000000000000000000000000000000000000000000000000000000000000000000000000000000000000000000
310
00000000000000000000000000000000000000000000000000000000000000000000000000000000000000000000000000000000000000000000000000000000000000000000000000000000000000000000000000000000000000000000000000000000000000000000000000000000000000000000000000000000000000
310
00000000000000000000000000000000000000000000000000000000000000000000000000000000000000000000000000000000000000000000000000000000000000000000000000000000000000000000000000000000000000000000000000000000000000000000000000000000000000000000000000000000000000
310
00000000000000000000000000000000000000000000000000000000000000000000000000000000000000000000000000000000000000000000000000000000000000000000000000000000000000000000000000000000000000000000000000000000000000000000000000000000000000000000000000000000000000
310
00000000000000000000000000000000000000000000000000000000000000000000000000000000000000000000000000000000000000000000000000000000000000000000000000000000000000000000000000000000000000000000000000000000000000000000000000000000000000000000000000000000000000
310
00000000000000000000000000000000000000000000000000000000000000000000000000000000000000000000000000000000000000000000000000000000000000000000000000000000000000000000000000000000000000000000000000000000000000000000000000000000000000000000000000000000000000
310
00000000000000000000000000000000000000000000000000000000000000000000000000000000000000000000000000000000000000000000000000000000000000000000000000000000000000000000000000000000000000000000000000000000000000000000000000000000000000000000000000000000000000
310
00000000000000000000000000000000000000000000000000000000000000000000000000000000000000000000000000000000000000000000000000000000000000000000000000000000000000000000000000000000000000000000000000000000000000000000000000000000000000000000000000000000000000
310
00000000000000000000000000000000000000000000000000000000000000000000000000F5F5F5F5F5F5F5F5F5F5F5F5F5F5F5F5F5F5F5F5F5F5F5F5F5F5F5F5F5F5F5F5F5F5F5F5F5F5F5F5F5F5F5F5F5F5F5F5F5F5F5F5F5F5F5F5F5F5F5F5F5F5F5F5F5F5F5F5F5F5F5F5F5F5F5F5F5F5F5F5F5F5F5F5F5F5F5F5F5F5
310
F5F5F5F5F5F5F5F5F5F5F5F5F5F5F5F5F5F5F5F5F5F5F50000000000000000000000000000000000000000000000000000000000000000000000000000000000000000000000000000000000000000000000000000000000000000000000000000000000000000000000000000000000000000000000000000000000000000
310
0000000000000000000000000000000000000000000000000000000000000000000000F5F5F5F50000000000C3C3C3C3C3C300C3C3C3C3C3C3C300C3C3C3C3C3C300C3C3C3C3C3C3C300C3C3C3C3C3C300C3C3C3C3C3C3C300C3C3C3C3C3C3C3000000000000000000F50000000000000000C300000000000000000000F500
310
000000000000000000000000000000000000000000000000F5000000000000000000000000000000000000000000000000000000000000000000000000000000000000000000000000000000000000000000000000000000000000000000000000000000000000000000000000000000000000000000000000000000000000
310
00000000000000000000000000000000000000000000000000000000000000000000F5F5F500C3C3C3C3C300C3C3000000000000000000000000000000000000000000000000000000000000000000000000000000C3000000000000000000000000000000000000000000F50000000000000000C300000000000000000000
310
F500000000000000000000000000000000000000000000000000F500000000000000000000000000000000000000000000000000000000000000000000000000000000000000000000000000000000000000000000000000000000000000000000000000000000000000000000000000000000000000000000000000000000
310
00000000000000000000000000000000000000000000000000000000000000000000F5F5C300C3C3000000000000000000000000000000000000000000000000000000000000000000C3C3C3C3C3000000000000000000C3000000000000000000000000000000000000000000F50000000000000000C30000000000000000
310
0000F500000000000000000000000000000000000000000000000000F50000000000000000000000000000000000000000000000000000000000000000000000000000000000000000000000000000000000000000000000000000000000000000000000000000000000000000000000000000000000000000000000000000
310
000000000000000000000000000000000000000000000000000000000000000000F5F5F5C3C300000000000000000000000000000000000000000000000000000000000000000000000000C3000000C3000000000000000000C3000000000000000000000000000000000000000000F50000000000000000C3000000000000
310
00000000F500000000000000000000000000000000000000000000000000F5000000000000000000000000000000000000000000000000000000000000000000000000000000000000000000000000000000000000000000000000000000000000000000000000000000000000000000000000000000000000000000000000
310
0000000000000000000000000000000000000000000000000000000000000000F5F5F5C3C3C3000000000000000000000000000000000000000000000000000000000000000000000000000000C3000000C3000000000000000000C3000000000000000000000000000000000000000000F50000000000000000C300000000
310
000000000000F500000000000000000000000000000000000000000000000000F500000000000000000000000000000000000000000000000000000000000000000000000000000000000000000000000000000000000000000000000000000000000000000000000000000000000000000000000000000000000000000000
310
0000000000000000000000000000000000000000000000000000000000000000F5F5C3C300000000000000000000000000000000000000000000000000000000000000000000000000000000000000C3000000C3000000000000000000C3000000000000000000000000000000000000000000F50000000000000000C30000
310
0000000000000000F500000000000000000000000000000000000000000000000000F50000000000000000000000000000000000000000000000000000000000000000000000000000000000000000000000000000000000000000000000000000000000000000000000000000000000000000000000000000000000000000
310
000000000000000000000000000000000000000000000000000000000000000000F500C30000000000000000000000000000000000000000000000000000000000000000000000000000000000000000C300000000C3000000000000000000000000000000000000C3C3C3C3C3C3C3C3C3C3C3C3C3F5F5F5F5F5F5F5F5F5F5
310
F5F5F5F5F5F5F5F5F5F5F500000000000000000000000000000000000000000000000000F5000000000000000000000000000000000000000000000000000000000000000000000000000000000000000000000000000000000000000000000000000000000000000000000000000000000000000000000000000000000000
310
00000000000000000000000000000000000000000000000000000000000000000000F500C3000000000000000000000000000000000000000000000000000000000000000000000000000000000000000000C300000000C3000000000000000000C300000000000000C3C3000000000000000000000000F5F5F5F5F5F5F5F5
310
F5F5F5F5F5F5F5F5F5F5F5F5F5F5000000000000000000000000000000000000000000000000F500000000000000000000000000000000000000000000000000000000000000000000000000000000000000000000000000000000000000000000000000000000000000000000000000000000000000000000000000000000
310
00000000000000000000000000000000000000000000000000000000000000000000F5F5C3C300000000000000000000000000000000000000000000000000000000000000000000000000000000000000000000C300000000C3000000000000000000C300000000000000C300000000000000000000000000F50000000000
310
00000000000000000000000000F500F5000000000000000000000000000000000000000000000000F50000000000000000000000000000000000000000000000000000000000000000000000000000000000000000000000000000000000000000000000000000000000000000000000000000000000000000000000000000
310
00000000000000000000000000000000000000000000000000000000000000000000F5F500C3000000000000000000000000000000000000000000000000000000000000000000000000000000000000000000000000C300000000C3000000000000000000C300000000000000C300000000000000000000000000F5000000
310
000000000000000000000000000000F5C3F5000000000000000000000000000000000000000000000000F5000000000000000000000000000000000000000000000000000000000000000000000000000000000000000000000000000000000000000000000000000000000000000000000000000000000000000000000000
310
0000000000000000000000000000000000000000000000000000000000000000000000F500C3C30000000000000000000000000000000000000000000000000000000000000000000000000000000000000000000000000000C3000000C3000000000000000000C300000000000000C30000000000000000C3C3C3C3C3F5C3
310
C3C3C3C3C3C300C3C3C3C3C3C300C3C3C3F5C3F5000000000000000000000000000000000000000000000000F500000000000000000000000000000000000000000000000000000000000000000000000000000000000000000000000000000000000000000000000000000000000000000000000000000000000000000000
310
000000000000000000000000000000000000000000000000000000000000000000000000F500C3C3C3C3C3000000000000000000000000000000000000000000000000000000000000000000000000000000000000000000000000C3000000C3000000000000000000C300000000000000C300000000000000000000000000
310
F5000000000000000000000000000000000000F500F5000000000000000000000000000000000000000000000000F50000000000000000000000000000000000000000000000000000000000000000000000000000000000000000000000000000000000000000000000000000000000000000000000000000000000000000
310
00000000000000000000000000000000000000000000000000000000000000000000000000F500C300C3000000C30000000000000000000000000000000000000000000000000000000000000000000000000000000000000000000000C3000000C3000000000000000000C300000000000000C30000000000000000000000
310
0000F5000000000000000000000000000000000000F500F5000000000000000000000000000000000000000000000000F5000000000000000000000000000000000000000000000000000000000000000000000000000000000000000000000000000000000000000000000000000000000000000000000000000000000000
310
0000000000000000000000000000000000000000000000000000000000000000000000000000F5000000C30000000000C30000000000000000000000000000000000000000000000000000000000000000000000000000000000000000000000C3C3C3C3000000000000000000C3000000000000C300000000000000000000
310
00000000F5000000000000000000000000000000000000F500F5000000000000000000000000000000000000000000000000F500000000000000000000000000000000000000000000000000000000000000000000000000000000000000000000000000000000000000000000000000000000000000000000000000000000
310
000000000000000000000000000000000000000000000000000000000000000000000000000000F500C3000000C300000000C3000000000000000000000000000000000000C3C3C3C300C3C3C3C3C3C3C3C3C3C300C3C300000000000000000000000000000000000000000000000000000000000000C30000000000000000
310
000000000000F5000000000000000000000000000000000000F500F5000000000000000000000000000000000000000000000000F50000000000000000000000000000000000000000000000000000000000000000000000000000000000000000000000000000000000000000000000000000000000000000000000000000
310
00000000000000000000000000000000000000000000000000000000000000000000000000000000F500C30000000000C300000000C3000000000000000000000000C3C3C3C3C3000000000000000000000000000000000000C3C3C3C300C3000000000000000000000000000000000000C3000000000000C300C3C300C3C3
310
C3C3C30000000000F5000000000000000000000000000000000000F500F5000000000000000000000000000000000000000000000000F5000000000000000000000000000000000000000000000000000000000000000000000000000000000000000000000000000000000000000000000000000000000000000000000000
310
000000000000000000000000000000000000000000000000000000000000000000000000000000000000F5C3000000000000C300000000C300000000000000000000C3C3000000000000C3C3C3C300C3C3C3C3C3C3C3C3C3C3C3C3000000000000C3C300000000000000000000000000000000C3000000000000C30000C300
310
C3000000C30000000000F5000000000000000000000000000000000000F500F5000000000000000000000000000000000000000000000000F500000000000000000000000000000000000000000000000000000000000000000000000000000000000000000000000000000000000000000000000000000000000000000000
310
00000000000000000000000000000000000000000000000000000000000000000000000000000000000000F500C3000000000000C30000000000C3000000000000C3C3C3000000C300C3C3C3000000000000000000000000000000000000C3C3C3C3000000C3C3C300000000000000000000000000C30000000000C3000000
310
C3C3C3000000C3C3C3C30000F5000000000000000000000000000000000000F500F5000000000000000000000000000000000000000000000000F50000000000000000000000000000000000000000000000000000000000000000000000000000000000000000000000000000000000000000000000000000000000000000
310
000000000000000000000000000000000000000000000000000000000000000000000000000000000000000000F5C30000000000000000C300000000C3C30000C3C3C300000000C3C3000000000000000000000000000000000000000000000000000000C3C30000000000C30000000000000000000000C30000000000C300
310
000000C3C3000000000000C30000F5000000000000000000000000000000000000F500F5000000000000000000000000000000000000000000000000F5000000000000000000000000000000000000000000000000000000000000000000000000000000000000000000000000000000000000000000000000000000000000
310
00000000000000000000000000000000000000000000000000000000000000000000000000000000000000000000F500000000000000000000C30000000000C300C300000000C3C3C30000000000000000000000000000000000000000000000000000000000000000C3C3000000C3C3000000000000000000C30000000000
310
C3000000C3C3C3000000000000C30000F5000000000000000000000000000000000000F500F5000000000000000000000000000000000000000000000000F500000000000000000000000000000000000000000000000000000000000000000000000000000000000000000000000000000000000000000000000000000000
310
0000000000000000000000000000000000000000000000000000000000000000000000000000000000000000000000F500C300000000000000000000C3000000C300C30000C3C30000000000000000000000000000000000000000000000000000000000000000000000000000C3C3000000C30000000000000000C3000000
310
00C300000000C3C3C3000000000000C30000F5000000000000000000000000000000000000F500F5000000000000000000000000000000000000000000000000F50000000000000000000000000000000000000000000000000000000000000000000000000000000000000000000000000000000000000000000000000000
310
00000000000000000000000000000000000000000000000000000000000000000000000000000000000000000000000000F5C3000000000000000000000000C3C3C3C3C300C3C3000000000000000000000000000000000000000000000000000000000000000000000000000000000000C3000000C3C30000000000000000
310
000000C30000C3C3C300C3000000000000C30000F5000000000000000000000000000000000000F500F5000000000000000000000000000000000000000000000000F5000000000000000000000000000000000000000000000000000000000000000000000000000000000000000000000000000000000000000000000000
310
0000000000000000000000000000000000000000000000000000000000000000000000000000000000000000000000000000F5C30000000000000000000000000000C3C300C3C3000000000000000000000000000000000000000000000000000000000000000000000000000000000000000000C300000000C30000000000
310
C300000000C30000C3000000C3C3C3C3C30000C30000F5000000000000000000000000000000000000F500F5000000000000000000000000000000000000000000000000F500000000000000000000000000000000000000000000000000000000000000000000000000000000000000000000000000000000000000000000
310
000000000000000000000000000000000000000000000000000000000000000000000000000000000000000000000000000000F5C3000000000000000000000000000000C30000C30000000000000000000000000000000000000000000000000000000000000000000000000000000000000000000000C3C3000000C30000
310
0000C3000000C3000000C300000000C3C3C3C30000C30000F5000000000000000000000000000000000000F500F5000000000000000000000000000000000000000000000000F50000000000000000000000000000000000000000000000000000000000000000000000000000000000000000000000000000000000000000
310
00000000000000000000000000000000000000000000000000000000000000000000000000000000000000000000000000000000F500C30000000000000000000000000000C30000C30000000000000000000000000000000000000000000000000000000000000000000000000000000000000000000000000000C30000C3
310
00000000C3000000C3000000C3000000C3C3C300000000C30000F50000000000000000002D0000000000000000F500F5000000000000000000000000000000000000000000000000F5000000000000000000000000000000000000000000000000000000000000000000000000000000000000000000000000000000000000
310
000000000000000000000000000000000000000000000000000000000000000000000000000000000000000000000000000000000000F50000000000000000000000000000C3C300C3C300000000000000000000000000000000000000000000000000000000000000000000000000000000000000000000000000000000C3
310
0000C3000000C3000000C30000C300000000C3C3C300000000000000F500000000000000C3C3C3C300000000000000F500F5000000000000000000000000000000000000000000000000F500000000000000000000000000000000000000000000000000000000000000000000000000000000000000000000000000000000
310
00000000000000000000000000000000000000000000000000000000000000000000000000000000000000000000000000000000000000F500C3000000000000000000000000C30000C30000000000000000000000000000000000000000000000000000000000000000000000000000000000000000000000000000000000
310
0000C30000C30000C30000C3000000C300000000C3C3C3C3000000C30000F500000000000000C3002D0000000000000000F500F5000000000000000000000000000000000000000000000000F50000000000000000000000000000000000000000000000000000000000000000000000000000000000000000000000000000
310
000000000000000000000000000000000000000000000000000000000000000000000000000000000000000000000000000000000000000000F500C30000000000000000000000C30000C300000000000000000000000000000000000000000000000000000000000000000000000000000000000000000000000000000000
310
0000000000C30000C300C30000C3000000000000000000000000C30000C30000F50000000000002DC32D2D2DC3000000000000F500F5000000000000000000000000000000000000000000000000F5000000000000000000000000000000000000000000000000000000000000000000000000000000000000000000000000
310
0000000000000000000000000000000000000000000000000000000000000000000000000000000000000000000000000000000000000000000000F500C300000000000000000000C30000C3000000000000000000000000000000000000000000000000000000000000000000000000000000000000000000000000000000
310
0000000000000000C30000C3C3000000000000C30000000000000000C30000C30000F500000000000000C3C3C3C300000000000000F500F5000000000000000000000000000000000000000000000000F500000000000000000000000000000000000000000000000000000000000000000000000000000000000000000000
310
000000000000000000000000000000000000000000000000000000000000000000000000000000000000000000000000000000000000000000000000F500C300000000000000000000C30000C30000000000000000000000000000000000000000000000000000000000000000000000000000000000000000000000000000
310
0000000000000000000000C300C30000C300000000C30000000000000000C30000C30000F50000000000000000002D0000000000000000F500F5000000000000000000000000000000000000000000000000F50000000000000000000000000000000000000000000000000000000000000000000000000000000000000000
310
0000000000000000000000000000000000000000000000000000000000000000000000000000000000000000000000000000000000000000000000000000F500C3000000000000000000000000C300000000000000000000000000000000000000000000000000000000000000000000000000000000000000000000000000
310
00000000000000000000000000C300C3C300C3000000C3000000000000000000C30000C30000F5000000000000000000000000000000000000F500F5000000000000000000000000000000000000000000000000F5000000000000000000000000000000000000000000000000000000000000000000000000000000000000
310
00000000000000000000000000000000000000000000000000000000000000000000000000000000000000000000000000000000000000000000000000000000F5C300000000000000000000C30000000000000000000000000000000000000000000000000000000000000000000000000000000000000000000000000000
310
00000000000000000000000000000000C300C3C300000000C3000000000000000000C30000C30000F5000000000000000000000000000000000000F500F5000000000000000000000000000000000000000000000000F500000000000000000000000000000000000000000000000000000000000000000000000000000000
310
000000000000000000000000000000000000000000000000000000000000000000000000000000000000000000000000000000000000000000000000000000000000F50000000000000000000000C300C300000000000000000000000000000000000000000000000000000000000000000000000000000000000000000000
310
000000000000000000000000000000000000C300C3C300000000C3000000000000000000000000000000F5000000000000000000000000000000000000F500F5000000000000000000000000000000000000000000000000F50000000000000000000000000000000000000000000000000000000000000000000000000000
310
0000000000000000000000000000000000000000000000000000000000000000000000000000000000000000000000000000000000000000000000000000000000000000F5C3000000000000000000C300C3000000000000000000000000000000000000000000000000000000000000000000000000000000000000000000
310
0000000000000000000000000000000000000000C300C3C3000000C300000000000000000000C30000C30000F5000000000000000000000000000000000000F500F5000000000000000000000000000000000000000000000000F5000000000000000000000000000000000000000000000000000000000000000000000000
310
000000000000000000000000000000000000000000000000000000000000000000000000000000000000000000000000000000000000000000000000000000000000000000F500C3000000000000000000C3C30000000000000000000000000000000000000000000000000000000000000000000000000000000000000000
310
0000000000000000000000000000000000000000000000C3C3C30000000000000000000000000000C30000C30000F5000000000000000000000000000000000000F500F5000000000000000000000000000000000000000000000000F500000000000000000000000000000000000000000000000000000000000000000000
310
0000000000000000000000000000000000000000000000000000000000000000000000000000000000000000000000000000000000000000000000000000000000000000000000F5C3000000000000000000C300C3000000000000000000000000000000000000000000000000000000000000000000000000000000000000
310
00000000000000000000000000000000000000000000000000C3C3C30000C30000000000000000000000C30000C30000F5000000000000000000000000000000000000F500F5000000000000000000000000000000000000000000000000F50000000000000000000000000000000000000000000000000000000000000000
310
00000000000000000000000000000000000000000000000000000000000000000000000000000000000000000000000000000000000000000000000000000000000000000000000000F5C30000000000000000C3C300C300000000000000000000000000000000000000000000000000000000000000000000000000000000
310
00000000000000000000000000000000000000000000000000000000C300C300C30000000000000000000000C30000C30000F5000000000000000000000000000000000000F500F5000000000000000000000000000000000000000000000000F5000000000000000000000000000000000000000000000000000000000000
310
000000000000000000000000000000000000000000000000000000000000000000000000000000000000000000000000000000000000000000000000000000000000000000000000000000F5C300000000000000000000C3000000000000000000000000000000000000000000000000000000000000000000000000000000
310
000000000000000000000000000000000000000000000000000000000000C300C300C30000000000000000000000C30000C30000F5000000000000000000000000000000000000F500F5000000000000000000000000000000000000000000000000F500000000000000000000000000000000000000000000000000000000
310
00000000000000000000000000000000000000000000000000000000000000000000000000000000000000000000000000000000000000000000000000000000000000000000000000000000F500C30000000000000000C3000000000000000000000000000000000000000000000000000000000000000000000000000000
310
0000000000000000000000000000000000000000000000000000000000000000C300C300C30000000000000000000000C30000C30000F5000000000000000000000000000000000000F500F5000000000000000000000000000000000000000000000000F50000000000000000000000000000000000000000000000000000
310
000000000000000000000000000000000000000000000000000000000000000000000000000000000000000000000000000000000000000000000000000000000000000000000000000000000000F500C30000000000000000C300C30000000000000000000000000000000000000000000000000000000000000000000000
310
00000000000000000000000000000000000000000000000000000000000000000000C30000C3C3C3C3C3C300C3C3C3C3C3C3C30000C30000F5000000000000000000000000000000000000F500F5000000000000000000000000000000000000000000000000F5000000000000000000000000000000000000000000000000
310
0000000000000000000000000000000000000000000000000000000000000000000000000000000000000000000000000000000000000000000000000000000000000000000000000000000000000000F5000000000000000000C30000C3000000000000000000000000000000000000000000000000000000000000000000
310
00000000000000000000000000000000000000000000000000000000000000000000000000C300C3C3C3C3C300000000000000C3C30000000000F5000000000000000000000000000000000000F500F5000000000000000000000000000000000000000000000000F500000000000000000000000000000000000000000000
310
00000000000000000000000000000000000000000000000000000000000000000000000000000000000000000000000000000000000000000000000000000000000000000000000000000000000000000000F5C30000000000000000C300C30000000000000000000000000000000000000000000000000000000000000000
310
000000000000000000000000000000000000000000000000000000000000000000000000000000C300C3C3C3C3C30000000000000000C30000C30000F5000000000000000000000000000000000000F500F5000000000000000000000000000000000000000000000000F50000000000000000000000000000000000000000
310
000000000000000000000000000000000000000000000000000000000000000000000000000000000000000000000000000000000000000000000000000000000000000000000000000000000000000000000000F5C30000000000000000C300C3000000000000000000000000000000000000000000000000000000000000
310
0000000000000000000000000000000000000000000000000000000000000000000000000000000000C300C3C300C3C30000000000000000C30000C30000F5000000000000000000000000000000000000F500F5000000000000000000000000000000000000000000000000F5000000000000000000000000000000000000
310
0000000000000000000000000000000000000000000000000000000000000000000000000000000000000000000000000000000000000000000000000000000000000000000000000000000000000000000000000000F5C30000000000000000C300C300000000000000000000000000000000000000000000000000000000
310
00000000000000000000000000000000000000000000000000000000000000000000000000000000000000C300C3C300C3C30000000000000000C30000C30000F5000000000000000000000000000000000000F500F5000000000000000000000000000000000000000000002D2DF52D2D2D2D000000000000000000000000
310
00000000000000000000000000000000000000000000000000000000000000000000000000000000000000000000000000000000000000000000000000000000000000000000000000000000000000000000000000000000F5C30000000000000000C300C30000000000000000000000000000000000000000000000000000
310
000000000000000000000000000000000000000000000000000000000000000000000000000000000000000000C300C3C300C3C30000000000000000C30000C30000F5000000000000000000000000000000000000F500F5000000000000000000000000000000000000000000000000F50000000000000000000000000000
310
000000000000000000000000000000000000000000000000000000000000000000000000000000000000000000000000000000000000000000000000000000000000000000000000000000000000000000000000000000000000F5C30000000000000000C30000C30000000000000000000000000000000000000000000000
310
0000000000000000000000000000000000000000000000000000000000000000000000000000000000000000000000C300C3C3C3C3C30000000000000000C30000C30000F5000000000000000000000000000000000000F500F5000000000000000000000000000000000000000000000000F5000000000000000000000000
310
0000000000000000000000000000000000000000000000000000000000000000000000000000000000000000000000000000000000000000000000000000000000000000000000000000000000000000000000000000000000000000F5C30000000000000000C30000C3000000000000000000000000000000000000000000
310
00000000000000000000000000000000000000000000000000000000000000000000000000000000000000000000000000C300C3C3C3C3C30000000000000000C30000C30000F5000000000000000000000000000000000000F500F5000000000000000000000000000000000000000000000000F500000000000000000000
310
00000000000000000000000000000000000000000000000000000000000000000000000000000000000000000000000000000000000000000000000000000000000000000000000000000000000000000000000000000000000000000000F5000000000000000000C30000C300000000000000000000000000000000000000
310
000000000000000000000000000000000000000000000000000000000000000000000000000000000000000000000000000000C300C30000C3C3000000000000C3C3000000000000F5000000000000000000000000000000000000F500F5000000000000000000000000000000000000000000000000F50000000000000000
310
000000000000000000000000000000000000000000000000000000000000000000000000000000000000000000000000000000000000000000000000000000000000000000000000000000000000000000000000000000000000000000000000F500C30000000000000000C300C30000000000000000000000000000000000
310
00000000000000000000000000000000000000000000000000000000000000000000000000000000000000000000000000000000C300C3000000C3C3C3C300C3C3C3C300C30000C30000F5000000000000000000000000000000000000F500F5000000000000000000000000000000000000000000000000F5000000000000
310
0000000000000000000000000000000000000000000000000000000000000000000000000000000000000000000000000000000000000000000000000000000000000000000000000000000000000000000000000000000000000000000000000000F500C30000000000000000C300C3000000000000000000000000000000
310
000000000000000000000000000000000000000000000000000000000000000000000000000000000000000000000000000000000000C30000000000C3000000000000000000C30000C30000F5000000000000000000000000000000000000F500F5000000000000000000000000000000000000000000000000F500000000
310
0000000000000000000000000000000000000000000000000000000000000000000000000000000000000000000000000000000000000000000000000000000000000000000000000000000000000000000000000000000000000000000000000000000000F5C30000000000000000C3000000000000000000000000000000
310
0000000000000000000000000000000000000000000000000000000000000000000000000000000000000000000000000000000000000000C300C3000000C3000000000000000000C30000C30000F5000000000000000000000000000000000000F500F5000000000000000000000000000000000000000000000000F50000
310
00000000000000000000000000000000000000000000000000000000000000000000000000000000000000000000000000000000000000000000000000000000000000000000000000000000000000000000000000000000000000000000000000000000000000F5C3000000000000000000C300C300000000000000000000
310
00000000000000000000000000000000000000000000000000000000000000000000000000000000000000000000000000000000000000000000C300C3000000C3000000000000000000C30000C30000F5000000000000000000000000000000000000F500F5000000000000000000000000000000000000000000000000F5
310
000000000000000000000000000000000000000000000000000000000000000000000000000000000000000000000000000000000000000000000000000000000000000000000000000000000000000000000000000000000000000000000000000000000000000000F5C3000000000000000000C30000C300000000000000
310
0000000000000000000000000000000000000000000000000000000000000000000000000000000000000000000000000000000000000000000000C3C3C300000000C3000000000000000000C30000C30000F5000000000000000000000000000000000000F500F50000000000000000000000000000000000000000000000
310
00F5000000000000000000000000000000000000000000000000000000000000000000000000000000000000000000000000000000000000000000000000000000000000000000000000000000000000000000000000000000000000000000000000000000000000000000F500C3000000000000000000C300C30000000000
310
00000000000000000000000000000000000000000000000000000000000000000000000000000000000000000000000000000000000000000000000000C3C3C30000000000000000000000000000C30000C30000F5000000000000000000000000000000000000F500F5000000000000000000000000000000000000000000
310
000000F500000000000000000000000000000000000000000000000000000000000000000000000000000000000000000000000000000000000000000000000000000000000000000000000000000000000000000000000000000000000000000000000000000000000000000000F5C3000000000000000000C30000C30000
310
000000000000000000000000000000000000000000000000000000000000000000000000000000000000000000000000000000000000000000000000000000C3C3C300000000C3000000000000000000C30000C30000F5000000000000000000000000000000000000F500F500000000000000000000000000000000000000
310
0000000000F500000000000000000000000000000000000000000000000000000000000000000000000000000000000000000000000000000000000000000000000000000000000000000000000000000000000000000000000000000000000000000000000000000000000000000000F5C300000000000000000000C300C3
310
00000000000000000000000000000000000000000000000000000000000000000000000000000000000000000000000000000000000000000000000000000000C300C3C300000000C3000000000000000000C30000C30000F5000000000000000000000000000000000000F500F50000000000000000000000000000000000
310
00000000000000F500000000000000000000000000000000000000000000000000000000000000000000000000000000000000000000000000000000000000000000000000000000000000000000000000000000000000000000000000000000000000000000000000000000000000000000F5C300000000000000000000C3
310
00C300000000000000000000000000000000000000000000000000000000000000000000000000000000000000000000000000000000000000000000000000000000C300C3C300000000C3000000000000000000C30000C30000F5000000000000000000000000000000000000F500F5000000000000000000000000000000
310
000000000000000000F500000000000000000000000000000000000000000000000000000000000000000000000000000000000000000000000000000000000000000000000000000000000000000000000000000000000000000000000000000000000000000000000000000000000000000000F500C30000000000000000
310
00000000C3C300000000000000000000000000000000000000000000000000000000000000000000000000000000000000000000000000000000000000000000000000C300C3C300C3000000C3000000000000000000C30000C30000F5000000000000000000000000000000000000F500F500000000000000000000000000
310
0000000000000000000000F50000000000000000000000000000000000000000000000000000000000000000000000000000000000000000000000000000000000000000000000000000000000000000000000000000000000000000000000000000000000000000000000000000000000000000000000F5C3000000000000
310
00000000C3000000C30000000000000000000000000000000000000000000000000000000000000000000000000000000000000000000000000000000000000000000000C30000C30000C3000000C3000000000000000000C30000C30000F50000000000000000C3C3C300000000000000F500F50000000000000000000000
310
00000000000000000000000000F50000000000000000000000000000000000000000000000000000000000000000000000000000000000000000000000000000000000000000000000000000000000000000000000000000000000000000000000000000000000000000000000000000000000000000000000F500C3000000
310
00000000000000C30000C300000000000000000000000000000000000000000000000000000000000000000000000000000000000000000000000000000000000000000000C30000C300C30000C30000C3000000000000000000C30000C30000F500000000000000C3002DC300000000000000F500F5000000000000000000
310
000000000000000000000000000000F50000000000000000000000000000000000000000000000000000000000000000000000000000000000000000000000000000000000000000000000000000000000000000000000000000000000000000000000000000000000000000000000000000000000000000000000F500C300
310
00000000000000000000C30000C3000000000000000000000000000000000000000000000000000000000000000000000000000000000000000000000000000000000000000000C30000C300C30000C3000000C30000000000C3C3C3C30000C30000F50000000000002DC32D2D2DC3000000000000F500F500000000000000
310
0000000000000000000000000000000000F5000000000000000000000000000000000000000000000000000000000000000000000000000000000000000000000000000000000000000000000000000000000000000000000000000000000000000000000000000000000000000000000000000000000000000000000000F5
310
C3000000000000000000000000C30000C300000000000000000000000000000000000000000000000000000000000000000000000000000000000000000000000000000000000000C30000C30000C3000000C30000C300000000C3C3C300000000C30000F500000000000000C3002D00C3000000000000F500F50000000000
310
00000000000000000000000000000000000000F50000000000000000000000000000000000000000000000000000000000000000000000000000000000000000000000000000000000000000000000000000000000000000000000000000000000000000000000000000000000000000000000000000000000000000000000
310
00F500C3000000000000000000000000C30000C3C300000000000000000000000000000000000000000000000000000000000000000000000000000000000000000000000000000000C3000000000000C3000000C30000C300000000C3C3C300000000000000F500000000000000C3C3C3C300000000000000F500F5000000
310
000000000000000000000000000000000000000000F5000000000000000000000000000000000000000000000000000000000000000000000000000000000000000000000000000000000000000000000000000000000000000000000000000000000000000000000000000000000000000000000000000000000000000000
310
00000000F5C300000000000000000000000000C3000000C30000000000000000000000000000000000000000000000000000000000000000000000000000000000000000000000000000C30000C300000000C3000000C30000C300000000C3C3C3C3000000C30000F50000000000000000002D0000000000000000F500F500
310
0000000000000000000000000000000000000000000000F500000000000000000000000000000000000000000000000000000000000000000000000000000000000000000000000000000000000000000000000000000000000000000000000000000000000000000000000000000000000000000000000000000000000000
310
000000000000F5C30000000000000000000000000000C3C300C300000000000000000000000000000000000000000000000000000000000000000000000000000000000000000000000000C30000C30000000000C300000000C30000C3000000C3C3C3C3C30000C30000F5000000000000000000000000000000000000F500
310
F5000000000000000000000000000000000000000000000000F50000000000000000000000000000000000000000000000000000000000000000000000000000000000000000000000000000000000000000000000000000000000000000000000000000000000000000000000000000000000000000000000000000000000
310
000000000000000000F5C30000000000000000000000000000C3C30000C3000000000000000000000000000000000000000000000000000000000000000000000000000000000000000000C3C30000C3000000000000C300000000C30000C3000000C3000000000000C30000F5000000000000000000000000000000000000
310
F500F5000000000000000000000000000000000000000000000000F5000000000000000000000000000000000000000000000000000000000000000000000000000000000000000000000000000000000000000000000000000000000000000000000000000000000000000000000000000000000000000000000000000000
310
000000000000000000000000F5C30000000000000000000000C3C30000C30000C3C3000000000000000000000000000000000000000000000000000000000000000000000000000000000000C3000000C300000000000000C300000000C30000C3C3C300C3000000000000C30000F500000000000000000000000000000000
310
0000F500F5000000000000000000000000000000000000000000000000F500000000000000000000000000000000000000000000000000000000000000000000000000000000000000000000000000000000000000000000000000000000000000000000000000000000000000000000000000000000000000000000000000
310
0000000000000000000000000000F500C300000000000000000000C300000000C3000000C3C3C300000000000000000000000000000000000000000000000000000000000000000000000000C3000000C3C30000000000000000C30000000000C3000000C3C3C3000000000000C30000F50000000000000000000000000000
310
00000000F500F5000000000000000000000000000000000000000000000000F50000000000000000000000000000000000000000000000000000000000000000000000000000000000000000000000000000000000000000000000000000000000000000000000000000000000000000000000000000000000000000000000
310
0000000000000000000000000000000000F500000000000000000000C30000000000C3C3C30000000000C3000000000000000000000000000000000000000000000000000000000000000000C3C3000000C300000000000000000000C30000000000C300000000C3C3000000000000C30000F5000000000000000000000000
310
000000000000F500F5000000000000000000000000000000000000000000000000F5000000000000000000000000000000000000000000000000000000000000000000000000000000000000000000000000000000000000000000000000000000000000000000000000000000000000000000000000000000000000000000
310
0000000000000000000000000000000000000000F5C300000000000000C30000000000C3C30000C3C3C3000000C3C3C3000000000000000000000000000000000000000000000000000000C3C3C30000C3C3000000000000000000000000C30000000000C300000000C3C3000000C3C3C3C30000F500000000000000000000
310
0000000000000000F500F5000000000000000000000000000000000000000000000000F500000000000000000000000000000000000000000000000000000000000000000000000000000000000000000000000000000000000000000000000000000000000000000000000000000000000000000000000000000000000000
310
00000000000000000000000000000000000000000000F500C3000000000000C30000000000C300000000000000C3C3000000C3C300C3C3C3C3C3000000000000000000000000C3C3C3C3C3C30000000000C30000000000000000000000000000C3000000000000C30000C3C3C3000000C30000000000F50000000000000000
310
00000000000000000000F500F5000000000000000000000000000000000000000000000000F50000000000000000000000000000000000000000000000000000000000000000000000000000000000000000000000000000000000000000000000000000000000000000000000000000000000000000000000000000000000
310
00000000000000000000000000000000000000000000000000F5C3000000000000C300000000C300000000000000000000C3C3000000000000000000C3C3C3C3C3C3C3C3C3C3C3000000000000000000C3C3C3000000000000000000000000000000C3000000000000C300C3C30000000000C30000000000F5000000000000
310
000000000000000000000000F500F5000000000000000000000000000000000000000000000000F5000000000000000000000000000000000000000000000000000000000000000000000000000000000000000000000000000000000000000000000000000000000000000000000000000000000000000000000000000000
310
00000000000000000000000000000000000000000000000000000000F5C30000000000C300000000C3000000000000000000000000C3C300C3C300000000000000000000000000000000000000C3C3C3C300000000000000000000000000000000000000C30000000000000000000000C3000000C30000000000F500000000
310
0000000000000000000000000000F500F5000000000000000000000000000000000000000000000000F500000000000000000000000000000000000000000000000000000000000000000000000000000000000000000000000000000000000000000000000000000000000000000000000000000000000000000000000000
310
00000000000000000000000000000000000000000000000000000000000000F5C3000000C300000000C3000000000000000000000000000000000000C3C3C3C3C300C3C3C3C3C3C3C3C3C3C3C3C3C300000000000000000000C3C3000000000000000000000000000000000000C300000000C3000000C30000000000F50000
310
00000000000000000000000000000000F500F5000000000000000000000000000000000000000000000000F50000000000000000000000000000000000000000000000000000000000000000000000000000000000000000000000000000000000000000000000000000000000000000000000000000000000000000000000
310
000000000000000000000000000000000000000000000000000000000000000000F50000C300C300000000C300000000000000000000000000000000000000000000000000000000000000000000000000000000000000000000C3C300C3C3000000000000000000C3000000000000C300000000C3000000000000000000F5
310
000000000000000000000000000000000000F500F5000000000000000000000000000000000000000000000000F5000000000000000000000000000000000000000000000000000000000000000000000000000000000000000000000000000000000000000000000000000000000000000000000000000000000000000000
310
000000000000000000000000000000000000000000000000000000000000000000000000F50000C3C30000C3C30000000000000000000000000000000000000000000000000000000000000000000000000000000000000000000000C3000000C3000000000000000000C300000000000000C3000000C3000000C300000000
310
00F5000000000000000000000000000000000000F500F5000000000000000000000000000000000000000000000000F500000000000000000000000000000000000000000000000000000000000000000000000000000000000000000000000000000000000000000000000000000000000000000000000000000000000000
310
000000000000000000000000000000000000000000000000000000000000000000000000000000F500C300C3C3C3000000000000000000000000000000000000000000000000000000000000000000000000000000000000000000000000C3000000C3000000000000000000C300000000000000C3000000C3000000C30000
310
000000F5000000000000000000000000000000000000F500F5000000000000000000000000000000000000000000000000F50000000000000000000000000000000000000000000000000000000000000000000000000000000000000000000000000000000000000000000000000000000000000000000000000000000000
310
000000000000000000000000000000000000000000000000000000000000000000000000000000000000F500C30000000000000000000000000000000000000000000000000000000000000000000000000000000000000000000000000000C300000000C3000000000000000000C300000000000000C3000000C3000000C3
310
C3C3C3C3C3F5C3C3C3C3C3C3C300C3C3C3C3C3C300C3C3C3F5C3F5000000000000000000000000000000000000000000000000F5000000000000000000000000000000000000000000000000000000000000000000000000000000000000000000000000000000000000000000000000000000000000000000000000000000
310
000000000000000000000000000000000000000000000000000000000000000000000000000000000000000000F500C3C3000000000000000000000000000000000000000000000000000000000000000000000000000000000000000000000000C300000000C3000000000000000000C300000000000000C3000000C3C3C3
310
C3C30000000000F5000000000000000000000000000000000000F500F5000000000000000000000000000000000000000000000000F500000000000000000000000000000000000000000000000000000000000000000000000000000000000000000000000000000000000000000000000000000000000000000000000000
310
000000000000000000000000000000000000000000000000000000000000000000000000000000000000000000000000F5F500C3C300000000000000000000000000000000000000000000000000000000000000000000000000000000000000000000C300000000C3000000000000000000C300000000000000C300000000
310
000000000000000000F5000000000000000000000000000000000000F500F5000000000000000000000000000000000000000000000000F50000000000000000000000000000000000000000000000000000000000000000000000000000000000000000000000000000000000000000000000000000000000000000000000
310
00000000000000000000000000000000000000000000000000000000000000000000000000000000000000000000000000000000F5F500C3C30000000000000000000000000000000000000000000000000000000000000000000000000000000000000000C300000000C3000000000000000000C300000000000000C3C300
310
0000000000000000000000F5F5F5F5F5F5F5F5F5F5F5F5F5F5F5F5F5F5F5F5F500000000000000000000000000000000000000000000000000F5000000000000000000000000000000000000000000000000000000000000000000000000000000000000000000000000000000000000000000000000000000000000000000
310
0000000000000000000000000000000000000000000000000000000000000000000000000000000000000000000000000000000000000000F5F500C300000000000000000000000000000000000000000000000000000000000000000000000000000000000000C300000000C3000000000000000000C30000000000000000
310
00C3C3C3C3C3C3C3C300C3C3C3F5F5F5F5F5F5F5F5F5F5F5F5F5F5F5F5F5F5F5F5F500000000000000000000000000000000000000000000000000F500000000000000000000000000000000000000000000000000000000000000000000000000000000000000000000000000000000000000000000000000000000000000
310
000000000000000000000000000000000000000000000000000000000000000000000000000000000000000000000000000000000000000000000000F5F5C300000000000000000000000000000000000000000000000000000000000000000000000000000000000000C3000000C3000000000000000000C3000000000000
310
000000000000000000000000000000F5000000000000000000C300000000C3000000C3F500000000000000000000000000000000000000000000000000F50000000000000000000000000000000000000000000000000000000000000000000000000000000000000000000000000000000000000000000000000000000000
310
00000000000000000000000000000000000000000000000000000000000000000000000000000000000000000000000000000000000000000000000000000000F5F5C3C300000000000000000000000000000000000000000000000000000000000000000000000000000000C3000000C3000000000000000000C300000000
310
0000000000000000000000000000000000F5000000000000000000C300000000C3000000C3F500000000000000000000000000000000000000000000000000F5000000000000000000000000000000000000000000000000000000000000000000000000000000000000000000000000000000000000000000000000000000
310
0000000000000000000000000000000000000000000000000000000000000000000000000000000000000000000000000000000000000000000000000000000000000000F5F5C3C30000000000000000000000000000000000000000000000000000000000000000000000000000C3C30000C3000000000000000000C30000
310
00000000000000000000000000000000000000F5000000000000000000C300000000C3002D00C3F500000000000000000000000000000000000000000000000000F500000000000000000000000000000000000000000000000000000000000000000000000000000000000000000000000000000000000000000000000000
310
000000000000000000000000000000000000000000000000000000000000000000000000000000000000000000000000000000000000000000000000000000000000000000000000F5F5C3C300C30000000000000000000000000000000000000000000000000000000000000000000000C3C3C300000000000000000000C3
310
000000000000000000000000000000000000000000F5000000000000000000C300000000C3002D00C3F500000000000000000000000000000000000000000000000000F50000000000000000000000000000000000000000000000000000000000000000000000000000000000000000000000000000000000000000000000
310
00000000000000000000000000000000000000000000000000000000000000000000000000000000000000000000000000000000000000000000000000000000000000000000000000000000F5F5F500C3C3C3C3C3C300C3C3C3C3C3C3C3C3C3C3C3C300000000000000000000000000000000000000000000000000000000
310
00C3000000000000000000000000000000000000000000F5000000000000000000C300000000C3002D00C3F500000000000000000000000000000000000000000000000000F5000000000000000000000000000000000000000000000000000000000000000000000000000000000000000000000000000000000000000000
310
000000000000000000000000000000000000000000000000000000000000000000000000000000000000000000000000000000000000000000000000000000000000000000000000000000000000000000F5F5F5F5F5F5F5F5F50000000000000000000000C3C3C3C300C3C3C3C3C3C3C3C3C3C3C3C3C3C300C3C3C3C3C3C3
310
C300C3C3C3C3C3C300C3C3C3C3C3C3C300C3C3C3C3C3C300C3F5C3C3C3C3C300000000C300000000C3002D00C3F500000000000000000000000000000000000000000000000000F500000000000000000000000000000000000000000000000000000000000000000000000000000000000000000000000000000000000000
310
0000000000000000000000000000000000000000000000000000000000000000000000000000000000000000000000000000000000000000000000000000000000000000000000000000000000000000000000000000000000000000F5F5F5F5F5F5F5F5F5F5F5F5F5F5F5F5F5F5F5F5F5F5F5F5F5F5F5F5F5F5F5F5F5F5F5
310
F5F5F5F5F5F5F5F5F5F5F5F5F5F5F5F5F5F5F5F5F5F5F5F5F5F5F5F5F5F5F5F5F5F5F5F5F5F5F5F5F5F5F5F5F5F5F5F5F5F5F5F5F5F5F5F5F5F5F5F5F5F5F5F5F5F5F5F5F5F5F5F5F5F50000000000000000000000000000000000000000000000000000000000000000000000000000000000000000000000000000000000
310
00000000000000000000000000000000000000000000000000000000000000000000000000000000000000000000000000000000000000000000000000000000000000000000000000000000000000000000000000000000000000000000000000000000000000000000000000000000000000000000000000000000000000
310
0000000000000000000000000000000000000000000000000000000000000000000000000000000000000000F5F5F5F5F5000000000000000000000000000000000000000000000000000000000000000000000000000000000000000000000000000000000000000000000000000000000000000000000000000000000000
310
00000000000000000000000000000000000000000000000000000000000000000000000000000000000000000000000000000000000000000000000000000000000000000000000000000000000000000000000000000000000000000000000000000000000000000000000000000000000000000000000000000000000000
310
0000000000000000000000000000000000000000000000000000000000000000000000000000000000000000000000F5F5F5F500000000000000000000000000000000000000000000000000000000000000000000000000000000000000000000000000000000000000000000000000000000000000000000000000000000
310
00000000000000000000000000000000000000000000000000000000000000000000000000000000000000000000000000000000000000000000000000000000000000000000000000000000000000000000000000000000000000000000000000000000000000000000000000000000000000000000000000000000000000
310
00000000000000000000000000000000000000000000000000000000000000000000000000000000000000000000000000000000000000000000000000000000000000000000000000000000000000000000000000000000000000000000000000000000000000000000000000000000000000000000000000000000000000
310
00000000000000000000000000000000000000000000000000000000000000000000000000000000000000000000000000000000000000000000000000000000000000000000000000000000000000000000000000000000000000000000000000000000000000000000000000000000000000000000000000000000000000
310
00000000000000000000000000000000000000000000000000000000000000000000000000000000000000000000000000000000000000000000000000000000000000000000000000000000000000000000000000000000000000000000000000000000000000000000000000000000000000000000000000000000000000
310
00000000000000000000000000000000000000000000000000000000000000000000000000000000000000000000000000000000000000000000000000000000000000000000000000000000000000000000000000000000000000000000000000000000000000000000000000000000000000000000000000000000000000
310
00000000000000000000000000000000000000000000000000000000000000000000000000000000000000000000000000000000000000000000000000000000000000000000000000000000000000000000000000000000000000000000000000000000000000000000000000000000000000000000000000000000000000
310
00000000000000000000000000000000000000000000000000000000000000000000000000000000000000000000000000000000000000000000000000000000000000000000000000000000000000000000000000000000000000000000000000000000000000000000000000000000000000000000000000000000000000
310
00000000000000000000000000000000000000000000000000000000000000000000000000000000000000000000000000000000000000000000000000000000000000000000000000000000000000000000000000000000000000000000000000000000000000000000000000000000000000000000000000000000000000
310
00000000000000000000000000000000000000000000000000000000000000000000000000000000000000000000000000000000000000000000000000000000000000000000000000000000000000000000000000000000000000000000000000000000000000000000000000000000000000000000000000000000000000
310
00000000000000000000000000000000000000000000000000000000000000000000000000000000000000000000000000000000000000000000000000000000000000000000000000000000000000000000000000000000000000000000000000000000000000000000000000000000000000000000000000000000000000
310
00000000000000000000000000000000000000000000000000000000000000000000000000000000000000000000000000000000000000000000000000000000000000000000000000000000000000000000000000000000000000000000000000000000000000000000000000000000000000000000000000000000000000
310
00000000000000000000000000000000000000000000000000000000000000000000000000000000000000000000000000000000000000000000000000000000000000000000000000000000000000000000000000000000000000000000000000000000000000000000000000000000000000000000000000000000000000
310
000000000000000000000000000000000000
  0
XRECORD
  5
4BD2
102
{ACAD_REACTORS
330
3AC5
102
}
330
3AC5
100
AcDbXrecord
280
     1
102
MATERIAL
148
0.0
149
0.0
149
0.0
 93
        0
 94
      127
282
     0
 72
     0
 77
     0
171
     0
175
     0
179
     0
273
     0
  0
XRECORD
  5
3AC7
102
{ACAD_REACTORS
330
3AC5
102
}
330
3AC5
100
AcDbXrecord
280
     1
270
     1
271
     1
  0
XRECORD
  5
3AC6
102
{ACAD_REACTORS
330
3AC5
102
}
330
3AC5
100
AcDbXrecord
280
     1
270
     1
271
     1
  0
XRECORD
  5
3ACA
102
{ACAD_REACTORS
330
3AC5
102
}
330
3AC5
100
AcDbXrecord
280
     1
270
     1
271
     1
  0
XRECORD
  5
3AC9
102
{ACAD_REACTORS
330
3AC5
102
}
330
3AC5
100
AcDbXrecord
280
     1
270
     1
271
     1
  0
XRECORD
  5
3ACB
102
{ACAD_REACTORS
330
3AC5
102
}
330
3AC5
100
AcDbXrecord
280
     1
270
     1
271
     1
  0
XRECORD
  5
3AC8
102
{ACAD_REACTORS
330
3AC5
102
}
330
3AC5
100
AcDbXrecord
280
     1
270
     1
271
     1
  0
XRECORD
  5
4BD1
102
{ACAD_REACTORS
330
3ABD
102
}
330
3ABD
100
AcDbXrecord
280
     1
102
MATERIAL
148
0.0
149
0.0
149
0.0
 93
        0
 94
      127
282
     0
 72
     0
 77
     0
171
     0
175
     0
179
     0
273
     0
  0
XRECORD
  5
3ABF
102
{ACAD_REACTORS
330
3ABD
102
}
330
3ABD
100
AcDbXrecord
280
     1
270
     1
271
     1
  0
XRECORD
  5
3ABE
102
{ACAD_REACTORS
330
3ABD
102
}
330
3ABD
100
AcDbXrecord
280
     1
270
     1
271
     1
  0
XRECORD
  5
3AC2
102
{ACAD_REACTORS
330
3ABD
102
}
330
3ABD
100
AcDbXrecord
280
     1
270
     1
271
     1
  0
XRECORD
  5
3AC1
102
{ACAD_REACTORS
330
3ABD
102
}
330
3ABD
100
AcDbXrecord
280
     1
270
     1
271
     1
  0
XRECORD
  5
3AC3
102
{ACAD_REACTORS
330
3ABD
102
}
330
3ABD
100
AcDbXrecord
280
     1
270
     1
271
     1
  0
XRECORD
  5
3AC0
102
{ACAD_REACTORS
330
3ABD
102
}
330
3ABD
100
AcDbXrecord
280
     1
270
     1
271
     1
  0
XRECORD
  5
4BD3
102
{ACAD_REACTORS
330
3ACD
102
}
330
3ACD
100
AcDbXrecord
280
     1
102
MATERIAL
148
0.0
149
0.0
149
0.0
 93
        0
 94
      127
282
     0
 72
     0
 77
     0
171
     0
175
     0
179
     0
273
     0
  0
XRECORD
  5
3ACF
102
{ACAD_REACTORS
330
3ACD
102
}
330
3ACD
100
AcDbXrecord
280
     1
270
     1
271
     1
  0
XRECORD
  5
3ACE
102
{ACAD_REACTORS
330
3ACD
102
}
330
3ACD
100
AcDbXrecord
280
     1
270
     1
271
     1
  0
XRECORD
  5
3AD2
102
{ACAD_REACTORS
330
3ACD
102
}
330
3ACD
100
AcDbXrecord
280
     1
270
     1
271
     1
  0
XRECORD
  5
3AD1
102
{ACAD_REACTORS
330
3ACD
102
}
330
3ACD
100
AcDbXrecord
280
     1
270
     1
271
     1
  0
XRECORD
  5
3AD3
102
{ACAD_REACTORS
330
3ACD
102
}
330
3ACD
100
AcDbXrecord
280
     1
270
     1
271
     1
  0
XRECORD
  5
3AD0
102
{ACAD_REACTORS
330
3ACD
102
}
330
3ACD
100
AcDbXrecord
280
     1
270
     1
271
     1
  0
CELLSTYLEMAP
  5
4BCA
102
{ACAD_REACTORS
330
3C59
102
}
330
3C59
100
AcDbCellStyleMap
 90
        3
300
CELLSTYLE
  1
TABLEFORMAT_BEGIN
 90
        5
170
     1
 91
        0
 92
    32768
 62
   257
 93
        1
300
CONTENTFORMAT
  1
CONTENTFORMAT_BEGIN
 90
        0
 91
        0
 92
      512
 93
        0
300

 40
0.0
140
1.0
 94
        5
 62
     0
340
11
144
6.0
309
CONTENTFORMAT_END
171
     1
301
MARGIN
  1
CELLMARGIN_BEGIN
 40
1.5
 40
1.5
 40
1.5
 40
1.5
 40
4.5
 40
4.5
309
CELLMARGIN_END
 94
        6
 95
        1
302
GRIDFORMAT
  1
GRIDFORMAT_BEGIN
 90
        0
 91
        1
 62
     0
 92
       -2
340
0
 93
        0
 40
1.125
309
GRIDFORMAT_END
 95
        2
302
GRIDFORMAT
  1
GRIDFORMAT_BEGIN
 90
        0
 91
        1
 62
     0
 92
       -2
340
0
 93
        0
 40
1.125
309
GRIDFORMAT_END
 95
        4
302
GRIDFORMAT
  1
GRIDFORMAT_BEGIN
 90
        0
 91
        1
 62
     0
 92
       -2
340
0
 93
        0
 40
1.125
309
GRIDFORMAT_END
 95
        8
302
GRIDFORMAT
  1
GRIDFORMAT_BEGIN
 90
        0
 91
        1
 62
     0
 92
       -2
340
0
 93
        0
 40
1.125
309
GRIDFORMAT_END
 95
       16
302
GRIDFORMAT
  1
GRIDFORMAT_BEGIN
 90
        0
 91
        1
 62
     0
 92
       -2
340
0
 93
        0
 40
1.125
309
GRIDFORMAT_END
 95
       32
302
GRIDFORMAT
  1
GRIDFORMAT_BEGIN
 90
        0
 91
        1
 62
     0
 92
       -2
340
0
 93
        0
 40
1.125
309
GRIDFORMAT_END
309
TABLEFORMAT_END
  1
CELLSTYLE_BEGIN
 90
        1
 91
        1
300
_TITLE
309
CELLSTYLE_END
300
CELLSTYLE
  1
TABLEFORMAT_BEGIN
 90
        5
170
     1
 91
        0
 92
        0
 62
   257
 93
        1
300
CONTENTFORMAT
  1
CONTENTFORMAT_BEGIN
 90
        0
 91
        0
 92
      512
 93
        0
300

 40
0.0
140
1.0
 94
        5
 62
     0
340
11
144
4.5
309
CONTENTFORMAT_END
171
     1
301
MARGIN
  1
CELLMARGIN_BEGIN
 40
1.5
 40
1.5
 40
1.5
 40
1.5
 40
4.5
 40
4.5
309
CELLMARGIN_END
 94
        6
 95
        1
302
GRIDFORMAT
  1
GRIDFORMAT_BEGIN
 90
        0
 91
        1
 62
     0
 92
       -2
340
0
 93
        0
 40
1.125
309
GRIDFORMAT_END
 95
        2
302
GRIDFORMAT
  1
GRIDFORMAT_BEGIN
 90
        0
 91
        1
 62
     0
 92
       -2
340
0
 93
        0
 40
1.125
309
GRIDFORMAT_END
 95
        4
302
GRIDFORMAT
  1
GRIDFORMAT_BEGIN
 90
        0
 91
        1
 62
     0
 92
       -2
340
0
 93
        0
 40
1.125
309
GRIDFORMAT_END
 95
        8
302
GRIDFORMAT
  1
GRIDFORMAT_BEGIN
 90
        0
 91
        1
 62
     0
 92
       -2
340
0
 93
        0
 40
1.125
309
GRIDFORMAT_END
 95
       16
302
GRIDFORMAT
  1
GRIDFORMAT_BEGIN
 90
        0
 91
        1
 62
     0
 92
       -2
340
0
 93
        0
 40
1.125
309
GRIDFORMAT_END
 95
       32
302
GRIDFORMAT
  1
GRIDFORMAT_BEGIN
 90
        0
 91
        1
 62
     0
 92
       -2
340
0
 93
        0
 40
1.125
309
GRIDFORMAT_END
309
TABLEFORMAT_END
  1
CELLSTYLE_BEGIN
 90
        2
 91
        1
300
_HEADER
309
CELLSTYLE_END
300
CELLSTYLE
  1
TABLEFORMAT_BEGIN
 90
        5
170
     1
 91
        0
 92
        0
 62
   257
 93
        1
300
CONTENTFORMAT
  1
CONTENTFORMAT_BEGIN
 90
        0
 91
        0
 92
      512
 93
        0
300

 40
0.0
140
1.0
 94
        2
 62
     0
340
11
144
4.5
309
CONTENTFORMAT_END
171
     1
301
MARGIN
  1
CELLMARGIN_BEGIN
 40
1.5
 40
1.5
 40
1.5
 40
1.5
 40
4.5
 40
4.5
309
CELLMARGIN_END
 94
        6
 95
        1
302
GRIDFORMAT
  1
GRIDFORMAT_BEGIN
 90
        0
 91
        1
 62
     0
 92
       -2
340
0
 93
        0
 40
1.125
309
GRIDFORMAT_END
 95
        2
302
GRIDFORMAT
  1
GRIDFORMAT_BEGIN
 90
        0
 91
        1
 62
     0
 92
       -2
340
0
 93
        0
 40
1.125
309
GRIDFORMAT_END
 95
        4
302
GRIDFORMAT
  1
GRIDFORMAT_BEGIN
 90
        0
 91
        1
 62
     0
 92
       -2
340
0
 93
        0
 40
1.125
309
GRIDFORMAT_END
 95
        8
302
GRIDFORMAT
  1
GRIDFORMAT_BEGIN
 90
        0
 91
        1
 62
     0
 92
       -2
340
0
 93
        0
 40
1.125
309
GRIDFORMAT_END
 95
       16
302
GRIDFORMAT
  1
GRIDFORMAT_BEGIN
 90
        0
 91
        1
 62
     0
 92
       -2
340
0
 93
        0
 40
1.125
309
GRIDFORMAT_END
 95
       32
302
GRIDFORMAT
  1
GRIDFORMAT_BEGIN
 90
        0
 91
        1
 62
     0
 92
       -2
340
0
 93
        0
 40
1.125
309
GRIDFORMAT_END
309
TABLEFORMAT_END
  1
CELLSTYLE_BEGIN
 90
        3
 91
        2
300
_DATA
309
CELLSTYLE_END
  0
XRECORD
  5
4BF4
102
{ACAD_REACTORS
330
3C59
102
}
330
3C59
100
AcDbXrecord
280
     1
102
ACAD_ROUNDTRIP_PRE2007_TABLESTYLE
 90
      512
 91
        0
  1

 92
      512
 93
        0
  2

 94
      512
 95
        0
  3

  0
XRECORD
  5
4BDF
102
{ACAD_REACTORS
330
4BDE
102
}
330
4BDE
100
AcDbXrecord
280
     1
102
RTVSPropertyOp0
 70
     1
102
RTVSPropertyOp1
 70
     1
102
RTVSPropertyOp2
 70
     1
102
RTVSPropertyOp3
 70
     1
102
RTVSPropertyOp4
 70
     1
102
RTVSPropertyOp5
 70
     1
102
RTVSPropertyOp6
 70
     1
102
RTVSPropertyOp7
 70
     1
102
RTVSPropertyOp8
 70
     1
102
RTVSPropertyOp9
 70
     1
102
RTVSPropertyOp10
 70
     1
102
RTVSPropertyOp11
 70
     1
102
RTVSPropertyOp12
 70
     1
102
RTVSPropertyOp13
 70
     1
102
RTVSPropertyOp14
 70
     1
102
RTVSPropertyOp15
 70
     1
102
RTVSPropertyOp16
 70
     1
102
RTVSPropertyOp17
 70
     1
102
RTVSPropertyOp18
 70
     1
102
RTVSPropertyOp19
 70
     1
102
RTVSPropertyOp20
 70
     1
102
RTVSPropertyOp21
 70
     1
102
RTVSPropertyOp22
 70
     1
102
RTVSPropertyOp23
 70
     1
102
RTVSPropertyOp24
 70
     1
102
RTVSPropertyOp25
 70
     1
102
RTVSPropertyOp26
 70
     1
102
RTVSPropertyOp27
 70
     1
102
RTVSPropertyOp28
 70
     1
102
RTVSPropertyOp29
 70
     1
102
RTVSPropertyOp30
 70
     1
102
RTVSPropertyOp31
 70
     1
102
RTVSPropertyOp32
 70
     1
  0
XRECORD
  5
4BE3
102
{ACAD_REACTORS
330
4BE2
102
}
330
4BE2
100
AcDbXrecord
280
     1
102
RTVSPropertyOp0
 70
     1
102
RTVSPropertyOp1
 70
     1
102
RTVSPropertyOp2
 70
     1
102
RTVSPropertyOp3
 70
     1
102
RTVSPropertyOp4
 70
     1
102
RTVSPropertyOp5
 70
     1
102
RTVSPropertyOp6
 70
     1
102
RTVSPropertyOp7
 70
     1
102
RTVSPropertyOp8
 70
     1
102
RTVSPropertyOp9
 70
     1
102
RTVSPropertyOp10
 70
     1
102
RTVSPropertyOp11
 70
     1
102
RTVSPropertyOp12
 70
     1
102
RTVSPropertyOp13
 70
     1
102
RTVSPropertyOp14
 70
     1
102
RTVSPropertyOp15
 70
     1
102
RTVSPropertyOp16
 70
     1
102
RTVSPropertyOp17
 70
     1
102
RTVSPropertyOp18
 70
     1
102
RTVSPropertyOp19
 70
     1
102
RTVSPropertyOp20
 70
     1
102
RTVSPropertyOp21
 70
     1
102
RTVSPropertyOp22
 70
     1
102
RTVSPropertyOp23
 70
     1
102
RTVSPropertyOp24
 70
     1
102
RTVSPropertyOp25
 70
     1
102
RTVSPropertyOp26
 70
     1
102
RTVSPropertyOp27
 70
     1
102
RTVSPropertyOp28
 70
     1
102
RTVSPropertyOp29
 70
     1
102
RTVSPropertyOp30
 70
     1
102
RTVSPropertyOp31
 70
     1
102
RTVSPropertyOp32
 70
     1
  0
XRECORD
  5
4BE1
102
{ACAD_REACTORS
330
4BE0
102
}
330
4BE0
100
AcDbXrecord
280
     1
102
RTVSPropertyOp0
 70
     1
102
RTVSPropertyOp1
 70
     1
102
RTVSPropertyOp2
 70
     1
102
RTVSPropertyOp3
 70
     1
102
RTVSPropertyOp4
 70
     1
102
RTVSPropertyOp5
 70
     1
102
RTVSPropertyOp6
 70
     1
102
RTVSPropertyOp7
 70
     1
102
RTVSPropertyOp8
 70
     1
102
RTVSPropertyOp9
 70
     1
102
RTVSPropertyOp10
 70
     1
102
RTVSPropertyOp11
 70
     1
102
RTVSPropertyOp12
 70
     1
102
RTVSPropertyOp13
 70
     1
102
RTVSPropertyOp14
 70
     1
102
RTVSPropertyOp15
 70
     1
102
RTVSPropertyOp16
 70
     1
102
RTVSPropertyOp17
 70
     1
102
RTVSPropertyOp18
 70
     1
102
RTVSPropertyOp19
 70
     1
102
RTVSPropertyOp20
 70
     1
102
RTVSPropertyOp21
 70
     1
102
RTVSPropertyOp22
 70
     1
102
RTVSPropertyOp23
 70
     1
102
RTVSPropertyOp24
 70
     1
102
RTVSPropertyOp25
 70
     1
102
RTVSPropertyOp26
 70
     1
102
RTVSPropertyOp27
 70
     1
102
RTVSPropertyOp28
 70
     1
102
RTVSPropertyOp29
 70
     1
102
RTVSPropertyOp30
 70
     1
102
RTVSPropertyOp31
 70
     1
102
RTVSPropertyOp32
 70
     1
  0
XRECORD
  5
4BDD
102
{ACAD_REACTORS
330
4BDC
102
}
330
4BDC
100
AcDbXrecord
280
     1
102
RTVSPropertyOp0
 70
     1
102
RTVSPropertyOp1
 70
     1
102
RTVSPropertyOp2
 70
     1
102
RTVSPropertyOp3
 70
     1
102
RTVSPropertyOp4
 70
     1
102
RTVSPropertyOp5
 70
     1
102
RTVSPropertyOp6
 70
     1
102
RTVSPropertyOp7
 70
     1
102
RTVSPropertyOp8
 70
     1
102
RTVSPropertyOp9
 70
     1
102
RTVSPropertyOp10
 70
     1
102
RTVSPropertyOp11
 70
     1
102
RTVSPropertyOp12
 70
     1
102
RTVSPropertyOp13
 70
     1
102
RTVSPropertyOp14
 70
     1
102
RTVSPropertyOp15
 70
     1
102
RTVSPropertyOp16
 70
     1
102
RTVSPropertyOp17
 70
     1
102
RTVSPropertyOp18
 70
     1
102
RTVSPropertyOp19
 70
     1
102
RTVSPropertyOp20
 70
     1
102
RTVSPropertyOp21
 70
     1
102
RTVSPropertyOp22
 70
     1
102
RTVSPropertyOp23
 70
     1
102
RTVSPropertyOp24
 70
     1
102
RTVSPropertyOp25
 70
     1
102
RTVSPropertyOp26
 70
     1
102
RTVSPropertyOp27
 70
     1
102
RTVSPropertyOp28
 70
     1
102
RTVSPropertyOp29
 70
     1
102
RTVSPropertyOp30
 70
     1
102
RTVSPropertyOp31
 70
     1
102
RTVSPropertyOp32
 70
     1
  0
XRECORD
  5
4BEB
102
{ACAD_REACTORS
330
4BEA
102
}
330
4BEA
100
AcDbXrecord
280
     1
102
RTVSPropertyOp0
 70
     1
102
RTVSPropertyOp1
 70
     1
102
RTVSPropertyOp2
 70
     1
102
RTVSPropertyOp3
 70
     1
102
RTVSPropertyOp4
 70
     1
102
RTVSPropertyOp5
 70
     1
102
RTVSPropertyOp6
 70
     1
102
RTVSPropertyOp7
 70
     1
102
RTVSPropertyOp8
 70
     1
102
RTVSPropertyOp9
 70
     1
102
RTVSPropertyOp10
 70
     1
102
RTVSPropertyOp11
 70
     1
102
RTVSPropertyOp12
 70
     1
102
RTVSPropertyOp13
 70
     1
102
RTVSPropertyOp14
 70
     1
102
RTVSPropertyOp15
 70
     1
102
RTVSPropertyOp16
 70
     1
102
RTVSPropertyOp17
 70
     1
102
RTVSPropertyOp18
 70
     1
102
RTVSPropertyOp19
 70
     1
102
RTVSPropertyOp20
 70
     1
102
RTVSPropertyOp21
 70
     1
102
RTVSPropertyOp22
 70
     1
102
RTVSPropertyOp23
 70
     1
102
RTVSPropertyOp24
 70
     1
102
RTVSPropertyOp25
 70
     1
102
RTVSPropertyOp26
 70
     1
102
RTVSPropertyOp27
 70
     1
102
RTVSPropertyOp28
 70
     1
102
RTVSPropertyOp29
 70
     1
102
RTVSPropertyOp30
 70
     1
102
RTVSPropertyOp31
 70
     1
102
RTVSPropertyOp32
 70
     1
  0
XRECORD
  5
4BF3
102
{ACAD_REACTORS
330
4BF2
102
}
330
4BF2
100
AcDbXrecord
280
     1
102
RTVSPropertyOp0
 70
     1
102
RTVSPropertyOp1
 70
     1
102
RTVSPropertyOp2
 70
     1
102
RTVSPropertyOp3
 70
     1
102
RTVSPropertyOp4
 70
     1
102
RTVSPropertyOp5
 70
     1
102
RTVSPropertyOp6
 70
     1
102
RTVSPropertyOp7
 70
     1
102
RTVSPropertyOp8
 70
     1
102
RTVSPropertyOp9
 70
     1
102
RTVSPropertyOp10
 70
     1
102
RTVSPropertyOp11
 70
     1
102
RTVSPropertyOp12
 70
     1
102
RTVSPropertyOp13
 70
     1
102
RTVSPropertyOp14
 70
     1
102
RTVSPropertyOp15
 70
     1
102
RTVSPropertyOp16
 70
     1
102
RTVSPropertyOp17
 70
     1
102
RTVSPropertyOp18
 70
     1
102
RTVSPropertyOp19
 70
     1
102
RTVSPropertyOp20
 70
     1
102
RTVSPropertyOp21
 70
     1
102
RTVSPropertyOp22
 70
     1
102
RTVSPropertyOp23
 70
     1
102
RTVSPropertyOp24
 70
     1
102
RTVSPropertyOp25
 70
     1
102
RTVSPropertyOp26
 70
     1
102
RTVSPropertyOp27
 70
     1
102
RTVSPropertyOp28
 70
     1
102
RTVSPropertyOp29
 70
     1
102
RTVSPropertyOp30
 70
     1
102
RTVSPropertyOp31
 70
     1
102
RTVSPropertyOp32
 70
     1
  0
XRECORD
  5
4BE5
102
{ACAD_REACTORS
330
4BE4
102
}
330
4BE4
100
AcDbXrecord
280
     1
102
RTVSPropertyOp0
 70
     1
102
RTVSPropertyOp1
 70
     1
102
RTVSPropertyOp2
 70
     1
102
RTVSPropertyOp3
 70
     1
102
RTVSPropertyOp4
 70
     1
102
RTVSPropertyOp5
 70
     1
102
RTVSPropertyOp6
 70
     1
102
RTVSPropertyOp7
 70
     1
102
RTVSPropertyOp8
 70
     1
102
RTVSPropertyOp9
 70
     1
102
RTVSPropertyOp10
 70
     1
102
RTVSPropertyOp11
 70
     1
102
RTVSPropertyOp12
 70
     1
102
RTVSPropertyOp13
 70
     1
102
RTVSPropertyOp14
 70
     1
102
RTVSPropertyOp15
 70
     1
102
RTVSPropertyOp16
 70
     1
102
RTVSPropertyOp17
 70
     1
102
RTVSPropertyOp18
 70
     1
102
RTVSPropertyOp19
 70
     1
102
RTVSPropertyOp20
 70
     1
102
RTVSPropertyOp21
 70
     1
102
RTVSPropertyOp22
 70
     1
102
RTVSPropertyOp23
 70
     1
102
RTVSPropertyOp24
 70
     1
102
RTVSPropertyOp25
 70
     1
102
RTVSPropertyOp26
 70
     1
102
RTVSPropertyOp27
 70
     1
102
RTVSPropertyOp28
 70
     1
102
RTVSPropertyOp29
 70
     1
102
RTVSPropertyOp30
 70
     1
102
RTVSPropertyOp31
 70
     1
102
RTVSPropertyOp32
 70
     1
  0
XRECORD
  5
4BE9
102
{ACAD_REACTORS
330
4BE8
102
}
330
4BE8
100
AcDbXrecord
280
     1
102
RTVSPropertyOp0
 70
     1
102
RTVSPropertyOp1
 70
     1
102
RTVSPropertyOp2
 70
     1
102
RTVSPropertyOp3
 70
     1
102
RTVSPropertyOp4
 70
     1
102
RTVSPropertyOp5
 70
     1
102
RTVSPropertyOp6
 70
     1
102
RTVSPropertyOp7
 70
     1
102
RTVSPropertyOp8
 70
     1
102
RTVSPropertyOp9
 70
     1
102
RTVSPropertyOp10
 70
     1
102
RTVSPropertyOp11
 70
     1
102
RTVSPropertyOp12
 70
     1
102
RTVSPropertyOp13
 70
     1
102
RTVSPropertyOp14
 70
     1
102
RTVSPropertyOp15
 70
     1
102
RTVSPropertyOp16
 70
     1
102
RTVSPropertyOp17
 70
     1
102
RTVSPropertyOp18
 70
     1
102
RTVSPropertyOp19
 70
     1
102
RTVSPropertyOp20
 70
     1
102
RTVSPropertyOp21
 70
     1
102
RTVSPropertyOp22
 70
     1
102
RTVSPropertyOp23
 70
     1
102
RTVSPropertyOp24
 70
     1
102
RTVSPropertyOp25
 70
     1
102
RTVSPropertyOp26
 70
     1
102
RTVSPropertyOp27
 70
     1
102
RTVSPropertyOp28
 70
     1
102
RTVSPropertyOp29
 70
     1
102
RTVSPropertyOp30
 70
     1
102
RTVSPropertyOp31
 70
     1
102
RTVSPropertyOp32
 70
     1
  0
XRECORD
  5
4C08
102
{ACAD_REACTORS
330
4C07
102
}
330
4C07
100
AcDbXrecord
280
     1
102
RTVSPropertyOp0
 70
     0
102
RTVSPropertyOp1
 70
     0
102
RTVSPropertyOp2
 70
     0
102
RTVSPropertyOp3
 70
     0
102
RTVSPropertyOp4
 70
     0
102
RTVSPropertyOp5
 70
     0
102
RTVSPropertyOp6
 70
     0
102
RTVSPropertyOp7
 70
     0
102
RTVSPropertyOp8
 70
     0
102
RTVSPropertyOp9
 70
     0
102
RTVSPropertyOp10
 70
     0
102
RTVSPropertyOp11
 70
     0
102
RTVSPropertyOp12
 70
     0
102
RTVSPropertyOp13
 70
     0
102
RTVSPropertyOp14
 70
     2
102
RTVSPropertyOp15
 70
     0
102
RTVSPropertyOp16
 70
     0
102
RTVSPropertyOp17
 70
     0
102
RTVSPropertyOp18
 70
     0
102
RTVSPropertyOp19
 70
     0
102
RTVSPropertyOp20
 70
     0
102
RTVSPropertyOp21
 70
     0
102
RTVSPropertyOp22
 70
     0
102
RTVSPropertyOp23
 70
     0
102
RTVSPropertyOp24
 70
     0
102
RTVSPropertyOp25
 70
     0
102
RTVSPropertyOp26
 70
     0
102
RTVSPropertyOp27
 70
     0
102
RTVSPropertyOp28
 70
     1
102
RTVSPropertyOp29
 70
     1
102
RTVSPropertyOp30
 70
     1
102
RTVSPropertyOp31
 70
     1
102
RTVSPropertyOp32
 70
     1
  0
XRECORD
  5
4BF1
102
{ACAD_REACTORS
330
4BF0
102
}
330
4BF0
100
AcDbXrecord
280
     1
102
RTVSPropertyOp0
 70
     1
102
RTVSPropertyOp1
 70
     1
102
RTVSPropertyOp2
 70
     1
102
RTVSPropertyOp3
 70
     1
102
RTVSPropertyOp4
 70
     1
102
RTVSPropertyOp5
 70
     1
102
RTVSPropertyOp6
 70
     1
102
RTVSPropertyOp7
 70
     1
102
RTVSPropertyOp8
 70
     1
102
RTVSPropertyOp9
 70
     1
102
RTVSPropertyOp10
 70
     1
102
RTVSPropertyOp11
 70
     1
102
RTVSPropertyOp12
 70
     1
102
RTVSPropertyOp13
 70
     1
102
RTVSPropertyOp14
 70
     1
102
RTVSPropertyOp15
 70
     1
102
RTVSPropertyOp16
 70
     1
102
RTVSPropertyOp17
 70
     1
102
RTVSPropertyOp18
 70
     1
102
RTVSPropertyOp19
 70
     1
102
RTVSPropertyOp20
 70
     1
102
RTVSPropertyOp21
 70
     1
102
RTVSPropertyOp22
 70
     1
102
RTVSPropertyOp23
 70
     1
102
RTVSPropertyOp24
 70
     1
102
RTVSPropertyOp25
 70
     1
102
RTVSPropertyOp26
 70
     1
102
RTVSPropertyOp27
 70
     1
102
RTVSPropertyOp28
 70
     1
102
RTVSPropertyOp29
 70
     1
102
RTVSPropertyOp30
 70
     1
102
RTVSPropertyOp31
 70
     1
102
RTVSPropertyOp32
 70
     1
  0
XRECORD
  5
4BD5
102
{ACAD_REACTORS
330
4BD4
102
}
330
4BD4
100
AcDbXrecord
280
     1
102
RTVSPropertyOp0
 70
     1
102
RTVSPropertyOp1
 70
     1
102
RTVSPropertyOp2
 70
     1
102
RTVSPropertyOp3
 70
     1
102
RTVSPropertyOp4
 70
     1
102
RTVSPropertyOp5
 70
     1
102
RTVSPropertyOp6
 70
     1
102
RTVSPropertyOp7
 70
     1
102
RTVSPropertyOp8
 70
     1
102
RTVSPropertyOp9
 70
     1
102
RTVSPropertyOp10
 70
     1
102
RTVSPropertyOp11
 70
     1
102
RTVSPropertyOp12
 70
     1
102
RTVSPropertyOp13
 70
     1
102
RTVSPropertyOp14
 70
     1
102
RTVSPropertyOp15
 70
     1
102
RTVSPropertyOp16
 70
     1
102
RTVSPropertyOp17
 70
     1
102
RTVSPropertyOp18
 70
     1
102
RTVSPropertyOp19
 70
     1
102
RTVSPropertyOp20
 70
     1
102
RTVSPropertyOp21
 70
     1
102
RTVSPropertyOp22
 70
     1
102
RTVSPropertyOp23
 70
     1
102
RTVSPropertyOp24
 70
     1
102
RTVSPropertyOp25
 70
     1
102
RTVSPropertyOp26
 70
     1
102
RTVSPropertyOp27
 70
     1
102
RTVSPropertyOp28
 70
     1
102
RTVSPropertyOp29
 70
     1
102
RTVSPropertyOp30
 70
     1
102
RTVSPropertyOp31
 70
     1
102
RTVSPropertyOp32
 70
     1
  0
XRECORD
  5
4BD7
102
{ACAD_REACTORS
330
4BD6
102
}
330
4BD6
100
AcDbXrecord
280
     1
102
RTVSPropertyOp0
 70
     1
102
RTVSPropertyOp1
 70
     1
102
RTVSPropertyOp2
 70
     1
102
RTVSPropertyOp3
 70
     1
102
RTVSPropertyOp4
 70
     1
102
RTVSPropertyOp5
 70
     1
102
RTVSPropertyOp6
 70
     1
102
RTVSPropertyOp7
 70
     1
102
RTVSPropertyOp8
 70
     1
102
RTVSPropertyOp9
 70
     1
102
RTVSPropertyOp10
 70
     1
102
RTVSPropertyOp11
 70
     1
102
RTVSPropertyOp12
 70
     1
102
RTVSPropertyOp13
 70
     1
102
RTVSPropertyOp14
 70
     1
102
RTVSPropertyOp15
 70
     1
102
RTVSPropertyOp16
 70
     1
102
RTVSPropertyOp17
 70
     1
102
RTVSPropertyOp18
 70
     1
102
RTVSPropertyOp19
 70
     1
102
RTVSPropertyOp20
 70
     1
102
RTVSPropertyOp21
 70
     1
102
RTVSPropertyOp22
 70
     1
102
RTVSPropertyOp23
 70
     1
102
RTVSPropertyOp24
 70
     1
102
RTVSPropertyOp25
 70
     1
102
RTVSPropertyOp26
 70
     1
102
RTVSPropertyOp27
 70
     1
102
RTVSPropertyOp28
 70
     1
102
RTVSPropertyOp29
 70
     1
102
RTVSPropertyOp30
 70
     1
102
RTVSPropertyOp31
 70
     1
102
RTVSPropertyOp32
 70
     1
  0
XRECORD
  5
4BD9
102
{ACAD_REACTORS
330
4BD8
102
}
330
4BD8
100
AcDbXrecord
280
     1
102
RTVSPropertyOp0
 70
     1
102
RTVSPropertyOp1
 70
     1
102
RTVSPropertyOp2
 70
     1
102
RTVSPropertyOp3
 70
     1
102
RTVSPropertyOp4
 70
     1
102
RTVSPropertyOp5
 70
     1
102
RTVSPropertyOp6
 70
     1
102
RTVSPropertyOp7
 70
     1
102
RTVSPropertyOp8
 70
     1
102
RTVSPropertyOp9
 70
     1
102
RTVSPropertyOp10
 70
     1
102
RTVSPropertyOp11
 70
     1
102
RTVSPropertyOp12
 70
     1
102
RTVSPropertyOp13
 70
     1
102
RTVSPropertyOp14
 70
     1
102
RTVSPropertyOp15
 70
     1
102
RTVSPropertyOp16
 70
     1
102
RTVSPropertyOp17
 70
     1
102
RTVSPropertyOp18
 70
     1
102
RTVSPropertyOp19
 70
     1
102
RTVSPropertyOp20
 70
     1
102
RTVSPropertyOp21
 70
     1
102
RTVSPropertyOp22
 70
     1
102
RTVSPropertyOp23
 70
     1
102
RTVSPropertyOp24
 70
     1
102
RTVSPropertyOp25
 70
     1
102
RTVSPropertyOp26
 70
     1
102
RTVSPropertyOp27
 70
     1
102
RTVSPropertyOp28
 70
     1
102
RTVSPropertyOp29
 70
     1
102
RTVSPropertyOp30
 70
     1
102
RTVSPropertyOp31
 70
     1
102
RTVSPropertyOp32
 70
     1
  0
XRECORD
  5
4BDB
102
{ACAD_REACTORS
330
4BDA
102
}
330
4BDA
100
AcDbXrecord
280
     1
102
RTVSPropertyOp0
 70
     1
102
RTVSPropertyOp1
 70
     1
102
RTVSPropertyOp2
 70
     1
102
RTVSPropertyOp3
 70
     1
102
RTVSPropertyOp4
 70
     1
102
RTVSPropertyOp5
 70
     1
102
RTVSPropertyOp6
 70
     1
102
RTVSPropertyOp7
 70
     1
102
RTVSPropertyOp8
 70
     1
102
RTVSPropertyOp9
 70
     1
102
RTVSPropertyOp10
 70
     1
102
RTVSPropertyOp11
 70
     1
102
RTVSPropertyOp12
 70
     1
102
RTVSPropertyOp13
 70
     1
102
RTVSPropertyOp14
 70
     1
102
RTVSPropertyOp15
 70
     1
102
RTVSPropertyOp16
 70
     1
102
RTVSPropertyOp17
 70
     1
102
RTVSPropertyOp18
 70
     1
102
RTVSPropertyOp19
 70
     1
102
RTVSPropertyOp20
 70
     1
102
RTVSPropertyOp21
 70
     1
102
RTVSPropertyOp22
 70
     1
102
RTVSPropertyOp23
 70
     1
102
RTVSPropertyOp24
 70
     1
102
RTVSPropertyOp25
 70
     1
102
RTVSPropertyOp26
 70
     1
102
RTVSPropertyOp27
 70
     1
102
RTVSPropertyOp28
 70
     1
102
RTVSPropertyOp29
 70
     1
102
RTVSPropertyOp30
 70
     1
102
RTVSPropertyOp31
 70
     1
102
RTVSPropertyOp32
 70
     1
  0
XRECORD
  5
4BF8
102
{ACAD_REACTORS
330
4BF7
102
}
330
4BF7
100
AcDbXrecord
280
     1
102
RTVSPropertyOp0
 70
     1
102
RTVSPropertyOp1
 70
     1
102
RTVSPropertyOp2
 70
     1
102
RTVSPropertyOp3
 70
     1
102
RTVSPropertyOp4
 70
     1
102
RTVSPropertyOp5
 70
     1
102
RTVSPropertyOp6
 70
     1
102
RTVSPropertyOp7
 70
     1
102
RTVSPropertyOp8
 70
     1
102
RTVSPropertyOp9
 70
     1
102
RTVSPropertyOp10
 70
     1
102
RTVSPropertyOp11
 70
     1
102
RTVSPropertyOp12
 70
     1
102
RTVSPropertyOp13
 70
     1
102
RTVSPropertyOp14
 70
     1
102
RTVSPropertyOp15
 70
     1
102
RTVSPropertyOp16
 70
     1
102
RTVSPropertyOp17
 70
     1
102
RTVSPropertyOp18
 70
     1
102
RTVSPropertyOp19
 70
     1
102
RTVSPropertyOp20
 70
     1
102
RTVSPropertyOp21
 70
     1
102
RTVSPropertyOp22
 70
     1
102
RTVSPropertyOp23
 70
     1
102
RTVSPropertyOp24
 70
     1
102
RTVSPropertyOp25
 70
     1
102
RTVSPropertyOp26
 70
     1
102
RTVSPropertyOp27
 70
     1
102
RTVSPropertyOp28
 70
     1
102
RTVSPropertyOp29
 70
     1
102
RTVSPropertyOp30
 70
     1
102
RTVSPropertyOp31
 70
     1
102
RTVSPropertyOp32
 70
     1
  0
XRECORD
  5
4C04
102
{ACAD_REACTORS
330
4C03
102
}
330
4C03
100
AcDbXrecord
280
     1
102
RTVSPropertyOp0
 70
     0
102
RTVSPropertyOp1
 70
     0
102
RTVSPropertyOp2
 70
     0
102
RTVSPropertyOp3
 70
     0
102
RTVSPropertyOp4
 70
     0
102
RTVSPropertyOp5
 70
     0
102
RTVSPropertyOp6
 70
     0
102
RTVSPropertyOp7
 70
     0
102
RTVSPropertyOp8
 70
     0
102
RTVSPropertyOp9
 70
     0
102
RTVSPropertyOp10
 70
     0
102
RTVSPropertyOp11
 70
     0
102
RTVSPropertyOp12
 70
     0
102
RTVSPropertyOp13
 70
     0
102
RTVSPropertyOp14
 70
     2
102
RTVSPropertyOp15
 70
     0
102
RTVSPropertyOp16
 70
     0
102
RTVSPropertyOp17
 70
     0
102
RTVSPropertyOp18
 70
     0
102
RTVSPropertyOp19
 70
     0
102
RTVSPropertyOp20
 70
     0
102
RTVSPropertyOp21
 70
     0
102
RTVSPropertyOp22
 70
     0
102
RTVSPropertyOp23
 70
     0
102
RTVSPropertyOp24
 70
     0
102
RTVSPropertyOp25
 70
     0
102
RTVSPropertyOp26
 70
     0
102
RTVSPropertyOp27
 70
     0
102
RTVSPropertyOp28
 70
     1
102
RTVSPropertyOp29
 70
     1
102
RTVSPropertyOp30
 70
     1
102
RTVSPropertyOp31
 70
     1
102
RTVSPropertyOp32
 70
     1
  0
XRECORD
  5
4BEF
102
{ACAD_REACTORS
330
4BEE
102
}
330
4BEE
100
AcDbXrecord
280
     1
102
RTVSPropertyOp0
 70
     1
102
RTVSPropertyOp1
 70
     1
102
RTVSPropertyOp2
 70
     1
102
RTVSPropertyOp3
 70
     1
102
RTVSPropertyOp4
 70
     1
102
RTVSPropertyOp5
 70
     1
102
RTVSPropertyOp6
 70
     1
102
RTVSPropertyOp7
 70
     1
102
RTVSPropertyOp8
 70
     1
102
RTVSPropertyOp9
 70
     1
102
RTVSPropertyOp10
 70
     1
102
RTVSPropertyOp11
 70
     1
102
RTVSPropertyOp12
 70
     1
102
RTVSPropertyOp13
 70
     1
102
RTVSPropertyOp14
 70
     1
102
RTVSPropertyOp15
 70
     1
102
RTVSPropertyOp16
 70
     1
102
RTVSPropertyOp17
 70
     1
102
RTVSPropertyOp18
 70
     1
102
RTVSPropertyOp19
 70
     1
102
RTVSPropertyOp20
 70
     1
102
RTVSPropertyOp21
 70
     1
102
RTVSPropertyOp22
 70
     1
102
RTVSPropertyOp23
 70
     1
102
RTVSPropertyOp24
 70
     1
102
RTVSPropertyOp25
 70
     1
102
RTVSPropertyOp26
 70
     1
102
RTVSPropertyOp27
 70
     1
102
RTVSPropertyOp28
 70
     1
102
RTVSPropertyOp29
 70
     1
102
RTVSPropertyOp30
 70
     1
102
RTVSPropertyOp31
 70
     1
102
RTVSPropertyOp32
 70
     1
  0
XRECORD
  5
4C06
102
{ACAD_REACTORS
330
4C05
102
}
330
4C05
100
AcDbXrecord
280
     1
102
RTVSPropertyOp0
 70
     0
102
RTVSPropertyOp1
 70
     0
102
RTVSPropertyOp2
 70
     0
102
RTVSPropertyOp3
 70
     0
102
RTVSPropertyOp4
 70
     0
102
RTVSPropertyOp5
 70
     0
102
RTVSPropertyOp6
 70
     0
102
RTVSPropertyOp7
 70
     0
102
RTVSPropertyOp8
 70
     0
102
RTVSPropertyOp9
 70
     0
102
RTVSPropertyOp10
 70
     0
102
RTVSPropertyOp11
 70
     0
102
RTVSPropertyOp12
 70
     0
102
RTVSPropertyOp13
 70
     0
102
RTVSPropertyOp14
 70
     2
102
RTVSPropertyOp15
 70
     0
102
RTVSPropertyOp16
 70
     0
102
RTVSPropertyOp17
 70
     0
102
RTVSPropertyOp18
 70
     0
102
RTVSPropertyOp19
 70
     0
102
RTVSPropertyOp20
 70
     0
102
RTVSPropertyOp21
 70
     0
102
RTVSPropertyOp22
 70
     0
102
RTVSPropertyOp23
 70
     0
102
RTVSPropertyOp24
 70
     0
102
RTVSPropertyOp25
 70
     0
102
RTVSPropertyOp26
 70
     0
102
RTVSPropertyOp27
 70
     0
102
RTVSPropertyOp28
 70
     1
102
RTVSPropertyOp29
 70
     1
102
RTVSPropertyOp30
 70
     1
102
RTVSPropertyOp31
 70
     1
102
RTVSPropertyOp32
 70
     1
  0
XRECORD
  5
4BE7
102
{ACAD_REACTORS
330
4BE6
102
}
330
4BE6
100
AcDbXrecord
280
     1
102
RTVSPropertyOp0
 70
     1
102
RTVSPropertyOp1
 70
     1
102
RTVSPropertyOp2
 70
     1
102
RTVSPropertyOp3
 70
     1
102
RTVSPropertyOp4
 70
     1
102
RTVSPropertyOp5
 70
     1
102
RTVSPropertyOp6
 70
     1
102
RTVSPropertyOp7
 70
     1
102
RTVSPropertyOp8
 70
     1
102
RTVSPropertyOp9
 70
     1
102
RTVSPropertyOp10
 70
     1
102
RTVSPropertyOp11
 70
     1
102
RTVSPropertyOp12
 70
     1
102
RTVSPropertyOp13
 70
     1
102
RTVSPropertyOp14
 70
     1
102
RTVSPropertyOp15
 70
     1
102
RTVSPropertyOp16
 70
     1
102
RTVSPropertyOp17
 70
     1
102
RTVSPropertyOp18
 70
     1
102
RTVSPropertyOp19
 70
     1
102
RTVSPropertyOp20
 70
     1
102
RTVSPropertyOp21
 70
     1
102
RTVSPropertyOp22
 70
     1
102
RTVSPropertyOp23
 70
     1
102
RTVSPropertyOp24
 70
     1
102
RTVSPropertyOp25
 70
     1
102
RTVSPropertyOp26
 70
     1
102
RTVSPropertyOp27
 70
     1
102
RTVSPropertyOp28
 70
     1
102
RTVSPropertyOp29
 70
     1
102
RTVSPropertyOp30
 70
     1
102
RTVSPropertyOp31
 70
     1
102
RTVSPropertyOp32
 70
     1
  0
XRECORD
  5
4C02
102
{ACAD_REACTORS
330
4C01
102
}
330
4C01
100
AcDbXrecord
280
     1
102
RTVSPropertyOp0
 70
     1
102
RTVSPropertyOp1
 70
     1
102
RTVSPropertyOp2
 70
     1
102
RTVSPropertyOp3
 70
     1
102
RTVSPropertyOp4
 70
     1
102
RTVSPropertyOp5
 70
     1
102
RTVSPropertyOp6
 70
     1
102
RTVSPropertyOp7
 70
     1
102
RTVSPropertyOp8
 70
     1
102
RTVSPropertyOp9
 70
     1
102
RTVSPropertyOp10
 70
     1
102
RTVSPropertyOp11
 70
     1
102
RTVSPropertyOp12
 70
     1
102
RTVSPropertyOp13
 70
     1
102
RTVSPropertyOp14
 70
     1
102
RTVSPropertyOp15
 70
     1
102
RTVSPropertyOp16
 70
     1
102
RTVSPropertyOp17
 70
     1
102
RTVSPropertyOp18
 70
     1
102
RTVSPropertyOp19
 70
     1
102
RTVSPropertyOp20
 70
     1
102
RTVSPropertyOp21
 70
     1
102
RTVSPropertyOp22
 70
     1
102
RTVSPropertyOp23
 70
     1
102
RTVSPropertyOp24
 70
     1
102
RTVSPropertyOp25
 70
     1
102
RTVSPropertyOp26
 70
     1
102
RTVSPropertyOp27
 70
     1
102
RTVSPropertyOp28
 70
     1
102
RTVSPropertyOp29
 70
     1
102
RTVSPropertyOp30
 70
     1
102
RTVSPropertyOp31
 70
     1
102
RTVSPropertyOp32
 70
     1
  0
XRECORD
  5
4C00
102
{ACAD_REACTORS
330
4BFF
102
}
330
4BFF
100
AcDbXrecord
280
     1
102
RTVSPropertyOp0
 70
     1
102
RTVSPropertyOp1
 70
     1
102
RTVSPropertyOp2
 70
     1
102
RTVSPropertyOp3
 70
     1
102
RTVSPropertyOp4
 70
     1
102
RTVSPropertyOp5
 70
     1
102
RTVSPropertyOp6
 70
     1
102
RTVSPropertyOp7
 70
     1
102
RTVSPropertyOp8
 70
     1
102
RTVSPropertyOp9
 70
     1
102
RTVSPropertyOp10
 70
     1
102
RTVSPropertyOp11
 70
     1
102
RTVSPropertyOp12
 70
     1
102
RTVSPropertyOp13
 70
     1
102
RTVSPropertyOp14
 70
     1
102
RTVSPropertyOp15
 70
     1
102
RTVSPropertyOp16
 70
     1
102
RTVSPropertyOp17
 70
     1
102
RTVSPropertyOp18
 70
     1
102
RTVSPropertyOp19
 70
     1
102
RTVSPropertyOp20
 70
     1
102
RTVSPropertyOp21
 70
     1
102
RTVSPropertyOp22
 70
     1
102
RTVSPropertyOp23
 70
     1
102
RTVSPropertyOp24
 70
     1
102
RTVSPropertyOp25
 70
     1
102
RTVSPropertyOp26
 70
     1
102
RTVSPropertyOp27
 70
     1
102
RTVSPropertyOp28
 70
     1
102
RTVSPropertyOp29
 70
     1
102
RTVSPropertyOp30
 70
     1
102
RTVSPropertyOp31
 70
     1
102
RTVSPropertyOp32
 70
     1
  0
XRECORD
  5
4BFA
102
{ACAD_REACTORS
330
4BF9
102
}
330
4BF9
100
AcDbXrecord
280
     1
102
RTVSPropertyOp0
 70
     1
102
RTVSPropertyOp1
 70
     1
102
RTVSPropertyOp2
 70
     1
102
RTVSPropertyOp3
 70
     1
102
RTVSPropertyOp4
 70
     1
102
RTVSPropertyOp5
 70
     1
102
RTVSPropertyOp6
 70
     1
102
RTVSPropertyOp7
 70
     1
102
RTVSPropertyOp8
 70
     1
102
RTVSPropertyOp9
 70
     1
102
RTVSPropertyOp10
 70
     1
102
RTVSPropertyOp11
 70
     1
102
RTVSPropertyOp12
 70
     1
102
RTVSPropertyOp13
 70
     1
102
RTVSPropertyOp14
 70
     1
102
RTVSPropertyOp15
 70
     1
102
RTVSPropertyOp16
 70
     1
102
RTVSPropertyOp17
 70
     1
102
RTVSPropertyOp18
 70
     1
102
RTVSPropertyOp19
 70
     1
102
RTVSPropertyOp20
 70
     1
102
RTVSPropertyOp21
 70
     1
102
RTVSPropertyOp22
 70
     1
102
RTVSPropertyOp23
 70
     1
102
RTVSPropertyOp24
 70
     1
102
RTVSPropertyOp25
 70
     1
102
RTVSPropertyOp26
 70
     1
102
RTVSPropertyOp27
 70
     1
102
RTVSPropertyOp28
 70
     1
102
RTVSPropertyOp29
 70
     1
102
RTVSPropertyOp30
 70
     1
102
RTVSPropertyOp31
 70
     1
102
RTVSPropertyOp32
 70
     1
  0
XRECORD
  5
4BFC
102
{ACAD_REACTORS
330
4BFB
102
}
330
4BFB
100
AcDbXrecord
280
     1
102
RTVSPropertyOp0
 70
     1
102
RTVSPropertyOp1
 70
     1
102
RTVSPropertyOp2
 70
     1
102
RTVSPropertyOp3
 70
     1
102
RTVSPropertyOp4
 70
     1
102
RTVSPropertyOp5
 70
     1
102
RTVSPropertyOp6
 70
     1
102
RTVSPropertyOp7
 70
     1
102
RTVSPropertyOp8
 70
     1
102
RTVSPropertyOp9
 70
     1
102
RTVSPropertyOp10
 70
     1
102
RTVSPropertyOp11
 70
     1
102
RTVSPropertyOp12
 70
     1
102
RTVSPropertyOp13
 70
     1
102
RTVSPropertyOp14
 70
     1
102
RTVSPropertyOp15
 70
     1
102
RTVSPropertyOp16
 70
     1
102
RTVSPropertyOp17
 70
     1
102
RTVSPropertyOp18
 70
     1
102
RTVSPropertyOp19
 70
     1
102
RTVSPropertyOp20
 70
     1
102
RTVSPropertyOp21
 70
     1
102
RTVSPropertyOp22
 70
     1
102
RTVSPropertyOp23
 70
     1
102
RTVSPropertyOp24
 70
     1
102
RTVSPropertyOp25
 70
     1
102
RTVSPropertyOp26
 70
     1
102
RTVSPropertyOp27
 70
     1
102
RTVSPropertyOp28
 70
     1
102
RTVSPropertyOp29
 70
     1
102
RTVSPropertyOp30
 70
     1
102
RTVSPropertyOp31
 70
     1
102
RTVSPropertyOp32
 70
     1
  0
XRECORD
  5
4BED
102
{ACAD_REACTORS
330
4BEC
102
}
330
4BEC
100
AcDbXrecord
280
     1
102
RTVSPropertyOp0
 70
     1
102
RTVSPropertyOp1
 70
     1
102
RTVSPropertyOp2
 70
     1
102
RTVSPropertyOp3
 70
     1
102
RTVSPropertyOp4
 70
     1
102
RTVSPropertyOp5
 70
     1
102
RTVSPropertyOp6
 70
     1
102
RTVSPropertyOp7
 70
     1
102
RTVSPropertyOp8
 70
     1
102
RTVSPropertyOp9
 70
     1
102
RTVSPropertyOp10
 70
     1
102
RTVSPropertyOp11
 70
     1
102
RTVSPropertyOp12
 70
     1
102
RTVSPropertyOp13
 70
     1
102
RTVSPropertyOp14
 70
     1
102
RTVSPropertyOp15
 70
     1
102
RTVSPropertyOp16
 70
     1
102
RTVSPropertyOp17
 70
     1
102
RTVSPropertyOp18
 70
     1
102
RTVSPropertyOp19
 70
     1
102
RTVSPropertyOp20
 70
     1
102
RTVSPropertyOp21
 70
     1
102
RTVSPropertyOp22
 70
     1
102
RTVSPropertyOp23
 70
     1
102
RTVSPropertyOp24
 70
     1
102
RTVSPropertyOp25
 70
     1
102
RTVSPropertyOp26
 70
     1
102
RTVSPropertyOp27
 70
     1
102
RTVSPropertyOp28
 70
     1
102
RTVSPropertyOp29
 70
     1
102
RTVSPropertyOp30
 70
     1
102
RTVSPropertyOp31
 70
     1
102
RTVSPropertyOp32
 70
     1
  0
XRECORD
  5
4BF6
102
{ACAD_REACTORS
330
4BF5
102
}
330
4BF5
100
AcDbXrecord
280
     1
102
RTVSPropertyOp0
 70
     1
102
RTVSPropertyOp1
 70
     1
102
RTVSPropertyOp2
 70
     1
102
RTVSPropertyOp3
 70
     1
102
RTVSPropertyOp4
 70
     1
102
RTVSPropertyOp5
 70
     1
102
RTVSPropertyOp6
 70
     1
102
RTVSPropertyOp7
 70
     1
102
RTVSPropertyOp8
 70
     1
102
RTVSPropertyOp9
 70
     1
102
RTVSPropertyOp10
 70
     1
102
RTVSPropertyOp11
 70
     1
102
RTVSPropertyOp12
 70
     1
102
RTVSPropertyOp13
 70
     1
102
RTVSPropertyOp14
 70
     1
102
RTVSPropertyOp15
 70
     1
102
RTVSPropertyOp16
 70
     1
102
RTVSPropertyOp17
 70
     1
102
RTVSPropertyOp18
 70
     1
102
RTVSPropertyOp19
 70
     1
102
RTVSPropertyOp20
 70
     1
102
RTVSPropertyOp21
 70
     1
102
RTVSPropertyOp22
 70
     1
102
RTVSPropertyOp23
 70
     1
102
RTVSPropertyOp24
 70
     1
102
RTVSPropertyOp25
 70
     1
102
RTVSPropertyOp26
 70
     1
102
RTVSPropertyOp27
 70
     1
102
RTVSPropertyOp28
 70
     1
102
RTVSPropertyOp29
 70
     1
102
RTVSPropertyOp30
 70
     1
102
RTVSPropertyOp31
 70
     1
102
RTVSPropertyOp32
 70
     1
  0
XRECORD
  5
4BFE
102
{ACAD_REACTORS
330
4BFD
102
}
330
4BFD
100
AcDbXrecord
280
     1
102
RTVSPropertyOp0
 70
     1
102
RTVSPropertyOp1
 70
     1
102
RTVSPropertyOp2
 70
     1
102
RTVSPropertyOp3
 70
     1
102
RTVSPropertyOp4
 70
     1
102
RTVSPropertyOp5
 70
     1
102
RTVSPropertyOp6
 70
     1
102
RTVSPropertyOp7
 70
     1
102
RTVSPropertyOp8
 70
     1
102
RTVSPropertyOp9
 70
     1
102
RTVSPropertyOp10
 70
     1
102
RTVSPropertyOp11
 70
     1
102
RTVSPropertyOp12
 70
     1
102
RTVSPropertyOp13
 70
     1
102
RTVSPropertyOp14
 70
     1
102
RTVSPropertyOp15
 70
     1
102
RTVSPropertyOp16
 70
     1
102
RTVSPropertyOp17
 70
     1
102
RTVSPropertyOp18
 70
     1
102
RTVSPropertyOp19
 70
     1
102
RTVSPropertyOp20
 70
     1
102
RTVSPropertyOp21
 70
     1
102
RTVSPropertyOp22
 70
     1
102
RTVSPropertyOp23
 70
     1
102
RTVSPropertyOp24
 70
     1
102
RTVSPropertyOp25
 70
     1
102
RTVSPropertyOp26
 70
     1
102
RTVSPropertyOp27
 70
     1
102
RTVSPropertyOp28
 70
     1
102
RTVSPropertyOp29
 70
     1
102
RTVSPropertyOp30
 70
     1
102
RTVSPropertyOp31
 70
     1
102
RTVSPropertyOp32
 70
     1
  0
ENDSEC
  0
EOF
