  0
SECTION
  2
HEADER
  9
$ACADVER
  1
AC1018
  9
$ACADMAINTVER
 70
   104
  9
$DWGCODEPAGE
  3
ANSI_1252
  9
$LASTSAVEDBY
  1
Administrator
  9
$CUSTOMPROPERTYTAG
  1
AmdtFileType
  9
$CUSTOMPROPERTY
  1
84
  9
$INSBASE
 10
0.0
 20
0.0
 30
0.0
  9
$EXTMIN
 10
-1000.00603092967
 20
-450.0069784536369
 30
0.0
  9
$EXTMAX
 10
899.9939690703303
 20
449.993021546363
 30
0.0
  9
$LIMMIN
 10
0.0
 20
0.0
  9
$LIMMAX
 10
420.0
 20
297.0
  9
$ORTHOMODE
 70
     0
  9
$REGENMODE
 70
     1
  9
$FILLMODE
 70
     1
  9
$QTEXTMODE
 70
     0
  9
$MIRRTEXT
 70
     1
  9
$LTSCALE
 40
1.0
  9
$ATTMODE
 70
     1
  9
$TEXTSIZE
 40
2.5
  9
$TRACEWID
 40
1.0
  9
$TEXTSTYLE
  7
STANDARD
  9
$CLAYER
  8
0
  9
$CELTYPE
  6
ByLayer
  9
$CECOLOR
 62
   256
  9
$CELTSCALE
 40
1.0
  9
$DISPSILH
 70
     0
  9
$DIMSCALE
 40
1.0
  9
$DIMASZ
 40
3.5
  9
$DIMEXO
 40
1.0
  9
$DIMDLI
 40
10.0
  9
$DIMRND
 40
0.0
  9
$DIMDLE
 40
0.0
  9
$DIMEXE
 40
1.0
  9
$DIMTP
 40
0.1
  9
$DIMTM
 40
0.1
  9
$DIMTXT
 40
3.5
  9
$DIMCEN
 40
0.0
  9
$DIMTSZ
 40
0.0
  9
$DIMTOL
 70
     0
  9
$DIMLIM
 70
     0
  9
$DIMTIH
 70
     0
  9
$DIMTOH
 70
     0
  9
$DIMSE1
 70
     0
  9
$DIMSE2
 70
     0
  9
$DIMTAD
 70
     1
  9
$DIMZIN
 70
     8
  9
$DIMBLK
  1

  9
$DIMASO
 70
     1
  9
$DIMSHO
 70
     1
  9
$DIMPOST
  1

  9
$DIMAPOST
  1
"
  9
$DIMALT
 70
     0
  9
$DIMALTD
 70
     2
  9
$DIMALTF
 40
0.0393701
  9
$DIMLFAC
 40
1.0
  9
$DIMTOFL
 70
     1
  9
$DIMTVP
 40
0.0
  9
$DIMTIX
 70
     0
  9
$DIMSOXD
 70
     0
  9
$DIMSAH
 70
     0
  9
$DIMBLK1
  1

  9
$DIMBLK2
  1

  9
$DIMSTYLE
  2
AM_DIN
  9
$DIMCLRD
 70
   256
  9
$DIMCLRE
 70
   256
  9
$DIMCLRT
 70
   140
  9
$DIMTFAC
 40
0.71
  9
$DIMGAP
 40
1.5
  9
$DIMJUST
 70
     0
  9
$DIMSD1
 70
     0
  9
$DIMSD2
 70
     0
  9
$DIMTOLJ
 70
     0
  9
$DIMTZIN
 70
     8
  9
$DIMALTZ
 70
     0
  9
$DIMALTTZ
 70
     0
  9
$DIMUPT
 70
     0
  9
$DIMDEC
 70
     2
  9
$DIMTDEC
 70
     3
  9
$DIMALTU
 70
     2
  9
$DIMALTTD
 70
     4
  9
$DIMTXSTY
  7
STANDARD
  9
$DIMAUNIT
 70
     0
  9
$DIMADEC
 70
     0
  9
$DIMALTRND
 40
0.0
  9
$DIMAZIN
 70
     2
  9
$DIMDSEP
 70
    46
  9
$DIMATFIT
 70
     3
  9
$DIMFRAC
 70
     0
  9
$DIMLDRBLK
  1

  9
$DIMLUNIT
 70
     2
  9
$DIMLWD
 70
    -1
  9
$DIMLWE
 70
    -1
  9
$DIMTMOVE
 70
     0
  9
$LUNITS
 70
     2
  9
$LUPREC
 70
     2
  9
$SKETCHINC
 40
1.0
  9
$FILLETRAD
 40
0.0
  9
$AUNITS
 70
     0
  9
$AUPREC
 70
     0
  9
$MENU
  1
.
  9
$ELEVATION
 40
0.0
  9
$PELEVATION
 40
0.0
  9
$THICKNESS
 40
0.0
  9
$LIMCHECK
 70
     0
  9
$CHAMFERA
 40
2.5
  9
$CHAMFERB
 40
2.5
  9
$CHAMFERC
 40
20.0
  9
$CHAMFERD
 40
0.0
  9
$SKPOLY
 70
     0
  9
$TDCREATE
 40
2453918.262673241
  9
$TDUCREATE
 40
2453918.179339908
  9
$TDUPDATE
 40
2457163.704804456
  9
$TDUUPDATE
 40
2457163.621471123
  9
$TDINDWG
 40
0.3524493403
  9
$TDUSRTIMER
 40
0.3524451852
  9
$USRTIMER
 70
     1
  9
$ANGBASE
 50
0.0
  9
$ANGDIR
 70
     0
  9
$PDMODE
 70
     0
  9
$PDSIZE
 40
0.0
  9
$PLINEWID
 40
0.0
  9
$SPLFRAME
 70
     0
  9
$SPLINETYPE
 70
     6
  9
$SPLINESEGS
 70
     8
  9
$HANDSEED
  5
3296
  9
$SURFTAB1
 70
     6
  9
$SURFTAB2
 70
     6
  9
$SURFTYPE
 70
     6
  9
$SURFU
 70
     6
  9
$SURFV
 70
     6
  9
$UCSBASE
  2

  9
$UCSNAME
  2

  9
$UCSORG
 10
0.0
 20
0.0
 30
0.0
  9
$UCSXDIR
 10
1.0
 20
0.0
 30
0.0
  9
$UCSYDIR
 10
0.0
 20
1.0
 30
0.0
  9
$UCSORTHOREF
  2

  9
$UCSORTHOVIEW
 70
     0
  9
$UCSORGTOP
 10
0.0
 20
0.0
 30
0.0
  9
$UCSORGBOTTOM
 10
0.0
 20
0.0
 30
0.0
  9
$UCSORGLEFT
 10
0.0
 20
0.0
 30
0.0
  9
$UCSORGRIGHT
 10
0.0
 20
0.0
 30
0.0
  9
$UCSORGFRONT
 10
0.0
 20
0.0
 30
0.0
  9
$UCSORGBACK
 10
0.0
 20
0.0
 30
0.0
  9
$PUCSBASE
  2

  9
$PUCSNAME
  2

  9
$PUCSORG
 10
0.0
 20
0.0
 30
0.0
  9
$PUCSXDIR
 10
1.0
 20
0.0
 30
0.0
  9
$PUCSYDIR
 10
0.0
 20
1.0
 30
0.0
  9
$PUCSORTHOREF
  2

  9
$PUCSORTHOVIEW
 70
     0
  9
$PUCSORGTOP
 10
0.0
 20
0.0
 30
0.0
  9
$PUCSORGBOTTOM
 10
0.0
 20
0.0
 30
0.0
  9
$PUCSORGLEFT
 10
0.0
 20
0.0
 30
0.0
  9
$PUCSORGRIGHT
 10
0.0
 20
0.0
 30
0.0
  9
$PUCSORGFRONT
 10
0.0
 20
0.0
 30
0.0
  9
$PUCSORGBACK
 10
0.0
 20
0.0
 30
0.0
  9
$USERI1
 70
     0
  9
$USERI2
 70
     0
  9
$USERI3
 70
     0
  9
$USERI4
 70
     0
  9
$USERI5
 70
     0
  9
$USERR1
 40
0.0
  9
$USERR2
 40
0.0
  9
$USERR3
 40
0.0
  9
$USERR4
 40
0.0
  9
$USERR5
 40
0.0
  9
$WORLDVIEW
 70
     1
  9
$SHADEDGE
 70
     3
  9
$SHADEDIF
 70
    70
  9
$TILEMODE
 70
     1
  9
$MAXACTVP
 70
    64
  9
$PINSBASE
 10
0.0
 20
0.0
 30
0.0
  9
$PLIMCHECK
 70
     0
  9
$PEXTMIN
 10
1.000000000000000E+20
 20
1.000000000000000E+20
 30
1.000000000000000E+20
  9
$PEXTMAX
 10
-1.000000000000000E+20
 20
-1.000000000000000E+20
 30
-1.000000000000000E+20
  9
$PLIMMIN
 10
0.0
 20
0.0
  9
$PLIMMAX
 10
420.0
 20
297.0
  9
$UNITMODE
 70
     0
  9
$VISRETAIN
 70
     1
  9
$PLINEGEN
 70
     0
  9
$PSLTSCALE
 70
     1
  9
$TREEDEPTH
 70
  3020
  9
$CMLSTYLE
  2
Standard
  9
$CMLJUST
 70
     0
  9
$CMLSCALE
 40
20.0
  9
$PROXYGRAPHICS
 70
     1
  9
$MEASUREMENT
 70
     1
  9
$CELWEIGHT
370
    -1
  9
$ENDCAPS
280
     0
  9
$JOINSTYLE
280
     0
  9
$LWDISPLAY
290
     0
  9
$INSUNITS
 70
     4
  9
$HYPERLINKBASE
  1

  9
$STYLESHEET
  1

  9
$XEDIT
290
     1
  9
$CEPSNTYPE
380
     0
  9
$PSTYLEMODE
290
     1
  9
$FINGERPRINTGUID
  2
{E66C8CC1-E66B-408F-9010-06FD783B68A0}
  9
$VERSIONGUID
  2
{3D39412A-8A32-4A9C-86DE-FD27077AA93D}
  9
$EXTNAMES
290
     1
  9
$PSVPSCALE
 40
0.0
  9
$OLESTARTUP
290
     0
  9
$SORTENTS
280
   127
  9
$INDEXCTL
280
     0
  9
$HIDETEXT
280
     1
  9
$XCLIPFRAME
290
     0
  9
$HALOGAP
280
     0
  9
$OBSCOLOR
 70
   257
  9
$OBSLTYPE
280
     0
  9
$INTERSECTIONDISPLAY
280
     0
  9
$INTERSECTIONCOLOR
 70
   257
  9
$DIMASSOC
280
     2
  9
$PROJECTNAME
  1

  0
ENDSEC
  0
SECTION
  2
CLASSES
  0
CLASS
  1
ACDBDICTIONARYWDFLT
  2
AcDbDictionaryWithDefault
  3
ObjectDBX Classes
 90
        0
 91
        1
280
     0
281
     0
  0
CLASS
  1
ACME_DOCUMENT
  2
AcMeDbDoc
  3
AcMeServices
 90
     1024
 91
        2
280
     0
281
     0
  0
CLASS
  1
ACMESCOPE
  2
AcMeScope
  3
AcMeServices
 90
     1024
 91
        1
280
     0
281
     0
  0
CLASS
  1
ACMECOMMANDHISTORY
  2
AcMeCommandHistory
  3
AcMeServices
 90
     1024
 91
        1
280
     0
281
     0
  0
CLASS
  1
ACIMSYSVARMAN
  2
AcImSysVarManager
  3
AcMeServices
 90
     1024
 91
        4
280
     0
281
     0
  0
CLASS
  1
ACIMREALSYSVAR
  2
AcImRealSysVar
  3
AcMeServices
 90
     1024
 91
        1
280
     0
281
     0
  0
CLASS
  1
ACIMINTSYSVAR
  2
AcImIntSysVar
  3
AcMeServices
 90
     1024
 91
       27
280
     0
281
     0
  0
CLASS
  1
ACMEDRAWINGMAN
  2
AcMeDrawingMan
  3
AcMeServices
 90
     1024
 91
        0
280
     0
281
     0
  0
CLASS
  1
ACMEVIEW
  2
AcMeView
  3
AcMeServices
 90
     1024
 91
        0
280
     0
281
     0
  0
CLASS
  1
ACDBENTITYCACHE
  2
AcMeEntityCache
  3
AcMeServices
 90
     1024
 91
        1
280
     0
281
     0
  0
CLASS
  1
GSMANAGER
  2
AcMeGSManager
  3
AcMeServices
 90
     1024
 91
        0
280
     0
281
     0
  0
CLASS
  1
AMDTINTERNALREACTOR
  2
AmdtInternalReactor
  3
AcMeServices
 90
     1024
 91
        1
280
     0
281
     0
  0
CLASS
  1
ACMESTATEMGR
  2
AcMeStateMgr
  3
AcMeServices
 90
     1024
 91
        1
280
     0
281
     0
  0
CLASS
  1
ACGREFMASTER
  2
AcGrefMaster
  3
AcAttribServices
 90
     1024
 91
        1
280
     0
281
     0
  0
CLASS
  1
ACME_DATABASE
  2
AcMeDbDatabase
  3
AcMeServices
 90
     1024
 91
        3
280
     0
281
     0
  0
CLASS
  1
ACRFINSADJUSTERMGR
  2
AcRfInsAdjusterMgr
  3
AcMeServices
 90
     1024
 91
        1
280
     0
281
     0
  0
CLASS
  1
ACGREFACADMASTER
  2
AcGrefacadMaster
  3
AcGrefServices
 90
     1024
 91
        1
280
     0
281
     0
  0
CLASS
  1
AMIMASTER
  2
AmiMaster
  3
AmiServices
 90
     1024
 91
        1
280
     0
281
     0
  0
CLASS
  1
AMGSETTINGSOBJ
  2
AmgSettingsObj
  3
"AcadM|Product Description: AutoCAD Mechanical|Company: Autodesk, Inc."
 90
     1024
 91
        2
280
     0
281
     0
  0
CLASS
  1
ACMDATADICTIONARY
  2
AcmDataDictionary
  3
"AcmSymBB|Product Description: AutoCAD Mechanical|Company: Autodesk, Inc."
 90
     1024
 91
        1
280
     0
281
     0
  0
CLASS
  1
ACMDATAENTRYBLOCK
  2
AcmDataEntryBlock
  3
AcmSymBB|Product Description: AutoCAD Mechanical|Company: Autodesk, Inc.
 90
     1024
 91
        0
280
     0
281
     0
  0
CLASS
  1
ACIMSTRSYSVAR
  2
AcImStrSysVar
  3
AcMeServices
 90
     1024
 91
        5
280
     0
281
     0
  0
CLASS
  1
ACMSTANDARDDIN
  2
AcmStandardDIN
  3
"Amdt_StdImp|Product Description: AutoCAD Mechanical|Company: Autodesk, Inc."
 90
     1024
 91
        1
280
     0
281
     0
  0
CLASS
  1
AMGOBJPROPCFG
  2
AmgObjPropCfg
  3
"AmgLay|Product Description: AutoCAD Mechanical|Company: Autodesk, Inc."
 90
     1025
 91
        1
280
     0
281
     0
  0
CLASS
  1
AMDTEDGESTANDARDDIN
  2
AmdtEdgeStdDIN
  3
"Amdt_StdImp|Product Description: AutoCAD Mechanical|Company: Autodesk, Inc."
 90
     1024
 91
        0
280
     0
281
     0
  0
CLASS
  1
ACMSURFSTANDARDDIN
  2
AcmSurfTextStdDIN
  3
"Amdt_StdImp|Product Description: AutoCAD Mechanical|Company: Autodesk, Inc."
 90
     1024
 91
        0
280
     0
281
     0
  0
CLASS
  1
ACMFCFSTANDARDDIN
  2
AcmFCFStdDIN
  3
"Amdt_StdImp|Product Description: AutoCAD Mechanical|Company: Autodesk, Inc."
 90
     1024
 91
        1
280
     0
281
     0
  0
CLASS
  1
ACMWELDSTANDARDDIN
  2
AcmWeldingStdDIN
  3
"Amdt_StdImp|Product Description: AutoCAD Mechanical|Company: Autodesk, Inc."
 90
     1024
 91
        1
280
     0
281
     0
  0
CLASS
  1
ACMIDSTANDARDDIN
  2
AcmIdStdDIN
  3
"Amdt_StdImp|Product Description: AutoCAD Mechanical|Company: Autodesk, Inc."
 90
     1024
 91
        1
280
     0
281
     0
  0
CLASS
  1
ACMDATUMSTANDARDDIN
  2
AcmDatumStdDIN
  3
"Amdt_StdImp|Product Description: AutoCAD Mechanical|Company: Autodesk, Inc."
 90
     1024
 91
        1
280
     0
281
     0
  0
CLASS
  1
ACMBOMSTANDARDDIN
  2
AcmBOMStdDIN
  3
"Amdt_StdImp|Product Description: AutoCAD Mechanical|Company: Autodesk, Inc."
 90
     1024
 91
        1
280
     0
281
     0
  0
CLASS
  1
ACMDETAILSTANDARDDIN
  2
AmdtDetailSymStdDIN
  3
"Amdt_StdImp|Product Description: AutoCAD Mechanical|Company: Autodesk, Inc."
 90
     1024
 91
        1
280
     0
281
     0
  0
CLASS
  1
ACMSECTIONSTANDARDDIN
  2
AmdtSectionSymStdDIN
  3
"Amdt_StdImp|Product Description: AutoCAD Mechanical|Company: Autodesk, Inc."
 90
     1024
 91
        1
280
     0
281
     0
  0
CLASS
  1
ACMCENTERLINESTANDARDDIN
  2
AmdtCenterLineStdDIN
  3
"Amdt_StdImp|Product Description: AutoCAD Mechanical|Company: Autodesk, Inc."
 90
     1024
 91
        1
280
     0
281
     0
  0
CLASS
  1
ACMNOTESTANDARDDIN
  2
AmdtNoteStdDIN
  3
"Amdt_StdImp|Product Description: AutoCAD Mechanical|Company: Autodesk, Inc."
 90
     1024
 91
        1
280
     0
281
     0
  0
CLASS
  1
ACAMGLAYSTD
  2
AcAmgLayStd
  3
"AmgLay|Product Description: AutoCAD Mechanical|Company: Autodesk, Inc."
 90
     1024
 91
        1
280
     0
281
     0
  0
CLASS
  1
ACAMGDIMSTD
  2
AcAmgDimStd
  3
"AmgDim|Product Description: AutoCAD Mechanical|Company: Autodesk, Inc."
 90
     1024
 91
        1
280
     0
281
     0
  0
CLASS
  1
ACAMGHOLECHARTSTDDIN
  2
AcAmgHoleChartStdDIN
  3
AmgDim|Product Description: AutoCAD Mechanical|Company: Autodesk, Inc.
 90
     1024
 91
        1
280
     0
281
     0
  0
CLASS
  1
ACAMGTITLESTD
  2
AcAmgTitleStd
  3
"AmgTitle|Product Description: AutoCAD Mechanical|Company: Autodesk, Inc."
 90
     4095
 91
        1
280
     0
281
     0
  0
CLASS
  1
LAYER_INDEX
  2
AcDbLayerIndex
  3
ObjectDBX Classes
 90
        0
 91
        0
280
     0
281
     0
  0
CLASS
  1
IDBUFFER
  2
AcDbIdBuffer
  3
ObjectDBX Classes
 90
        0
 91
        0
280
     0
281
     0
  0
CLASS
  1
DICTIONARYVAR
  2
AcDbDictionaryVar
  3
ObjectDBX Classes
 90
        0
 91
       10
280
     0
281
     0
  0
CLASS
  1
ACAMGFILTERDAT
  2
AcAmgFilterDat
  3
"AcadM|Product Description: AutoCAD Mechanical|Company: Autodesk, Inc."
 90
     1024
 91
        0
280
     0
281
     0
  0
CLASS
  1
ACMSTANDARDANSI
  2
AcmStandardANSI
  3
"Amdt_StdImp|Product Description: AutoCAD Mechanical|Company: Autodesk, Inc."
 90
     1024
 91
        0
280
     0
281
     0
  0
CLASS
  1
ACMSURFSTANDARDANSI
  2
AcmSurfTextStdANSI
  3
"Amdt_StdImp|Product Description: AutoCAD Mechanical|Company: Autodesk, Inc."
 90
     1024
 91
        0
280
     0
281
     0
  0
CLASS
  1
ACMFCFSTANDARDANSI
  2
AcmFCFStdANSI
  3
"Amdt_StdImp|Product Description: AutoCAD Mechanical|Company: Autodesk, Inc."
 90
     1024
 91
        0
280
     0
281
     0
  0
CLASS
  1
ACMWELDSTANDARDANSI
  2
AcmWeldingStdANSI
  3
"Amdt_StdImp|Product Description: AutoCAD Mechanical|Company: Autodesk, Inc."
 90
     1024
 91
        0
280
     0
281
     0
  0
CLASS
  1
ACMIDSTANDARDANSI
  2
AcmIdStdANSI
  3
"Amdt_StdImp|Product Description: AutoCAD Mechanical|Company: Autodesk, Inc."
 90
     1024
 91
        0
280
     0
281
     0
  0
CLASS
  1
ACMDATUMSTANDARDANSI
  2
AcmDatumStdANSI
  3
"Amdt_StdImp|Product Description: AutoCAD Mechanical|Company: Autodesk, Inc."
 90
     1024
 91
        0
280
     0
281
     0
  0
CLASS
  1
ACMBOMSTANDARDANSI
  2
AcmBOMStdANSI
  3
"Amdt_StdImp|Product Description: AutoCAD Mechanical|Company: Autodesk, Inc."
 90
     1024
 91
        0
280
     0
281
     0
  0
CLASS
  1
ACMDETAILSTANDARDANSI
  2
AmdtDetailSymStdANSI
  3
"Amdt_StdImp|Product Description: AutoCAD Mechanical|Company: Autodesk, Inc."
 90
     1024
 91
        0
280
     0
281
     0
  0
CLASS
  1
ACMSECTIONSTANDARDANSI
  2
AmdtSectionSymStdANSI
  3
"Amdt_StdImp|Product Description: AutoCAD Mechanical|Company: Autodesk, Inc."
 90
     1024
 91
        0
280
     0
281
     0
  0
CLASS
  1
ACMCENTERLINESTANDARDANSI
  2
AmdtCenterLineStdANSI
  3
"Amdt_StdImp|Product Description: AutoCAD Mechanical|Company: Autodesk, Inc."
 90
     1024
 91
        0
280
     0
281
     0
  0
CLASS
  1
ACMNOTESTANDARDANSI
  2
AmdtNoteStdANSI
  3
"Amdt_StdImp|Product Description: AutoCAD Mechanical|Company: Autodesk, Inc."
 90
     1024
 91
        0
280
     0
281
     0
  0
CLASS
  1
ACAMGHOLECHARTSTDANSI
  2
AcAmgHoleChartStdANSI
  3
AmgDim|Product Description: AutoCAD Mechanical|Company: Autodesk, Inc.
 90
     1024
 91
        0
280
     0
281
     0
  0
CLASS
  1
AMDTFORMULAUPDATEDISPATCHER
  2
AmdtFormulaUpdateDispatcher
  3
AcMeServices
 90
     1024
 91
        0
280
     0
281
     0
  0
CLASS
  1
DIMASSOC
  2
AcDbDimAssoc
  3
"AcDbDimAssoc|Product Desc:     AcDim ARX App For Dimension|Company:          Autodesk, Inc.|WEB Address:      www.autodesk.com"
 90
        0
 91
        0
280
     0
281
     0
  0
CLASS
  1
MATERIAL
  2
AcDbMaterial
  3
ObjectDBX Classes
 90
     1153
 91
        3
280
     0
281
     0
  0
CLASS
  1
VISUALSTYLE
  2
AcDbVisualStyle
  3
ObjectDBX Classes
 90
     4095
 91
       26
280
     0
281
     0
  0
CLASS
  1
TABLESTYLE
  2
AcDbTableStyle
  3
ObjectDBX Classes
 90
     4095
 91
        1
280
     0
281
     0
  0
CLASS
  1
SCALE
  2
AcDbScale
  3
ObjectDBX Classes
 90
     1153
 91
       17
280
     0
281
     0
  0
CLASS
  1
MLEADERSTYLE
  2
AcDbMLeaderStyle
  3
ACDB_MLEADERSTYLE_CLASS
 90
     4095
 91
        1
280
     0
281
     0
  0
CLASS
  1
AM_DRAWING_MGR
  2
AcDmDwgMgr
  3
AcMechDwgViewMgmt
 90
     1024
 91
        1
280
     0
281
     0
  0
CLASS
  1
AM_DWG_DOCUMENT
  2
AcDmDwgDocument
  3
AcMechDwgViewMgmt
 90
     1024
 91
        1
280
     0
281
     0
  0
CLASS
  1
AM_DWG_SHEET
  2
AcDmSheet
  3
AcMechDwgViewMgmt
 90
     1024
 91
        2
280
     0
281
     0
  0
CLASS
  1
AM_VIEWDIMPARMAP
  2
AcDmViewDimParMap
  3
AcMechDwgViewMgmt
 90
     1024
 91
        2
280
     0
281
     0
  0
CLASS
  1
AM_DWGMGR_NAME
  2
AcDmDwgMgrName
  3
AcMechDwgViewMgmt
 90
     1024
 91
        1
280
     0
281
     0
  0
CLASS
  1
AMDTMENUSTATEMGR
  2
AmdtMenuStateMgr
  3
McadcomServices
 90
     1024
 91
        1
280
     0
281
     0
  0
CLASS
  1
AMDTMCOMMENUSTATE
  2
AmdtMcomMenuState
  3
McadcomServices
 90
     1024
 91
        1
280
     0
281
     0
  0
CLASS
  1
MAPIAMMOUDLE
  2
MApiAmModule
  3
MApiAmServices
 90
     1024
 91
        1
280
     0
281
     0
  0
CLASS
  1
AMDTADMENUSTATE
  2
AmdtAdMenuState
  3
DesignerServices
 90
     1024
 91
        0
280
     0
281
     0
  0
CLASS
  1
ADAPPL
  2
AcAdAppl
  3
DesignerAssemblies
 90
     1024
 91
        0
280
     0
281
     0
  0
CLASS
  1
DEPMGR
  2
AcAdDepMgr
  3
DesignerAssemblies
 90
     1024
 91
        0
280
     0
281
     0
  0
CLASS
  1
PARAMMGR
  2
AcAdParamMgr
  3
DesignerAssemblies
 90
     1024
 91
        0
280
     0
281
     0
  0
CLASS
  1
PARAMSCOPE
  2
AcAdParamScope
  3
DesignerAssemblies
 90
     1024
 91
        0
280
     0
281
     0
  0
CLASS
  1
NAMEDAPPL
  2
AcAdNamedAppl
  3
DesignerAssemblies
 90
     1024
 91
        0
280
     0
281
     0
  0
CLASS
  1
AMDTDMMENUSTATE
  2
AmdtDmMenuState
  3
AcMechDwgViewMgmt
 90
     1024
 91
        1
280
     0
281
     0
  0
CLASS
  1
AMDTAMMENUSTATE
  2
AmdtAmMenuState
  3
DesignerAssemblies
 90
     1024
 91
        1
280
     0
281
     0
  0
CLASS
  1
ACAMPROJECT
  2
AcAmProject
  3
DesignerAssemblies
 90
     1024
 91
        1
280
     0
281
     0
  0
CLASS
  1
ACAMGRCOMPDEF
  2
AcAmGrCompDef
  3
DesignerAssemblies
 90
     1024
 91
        1
280
     0
281
     0
  0
CLASS
  1
ACCMCONTEXT
  2
AcCmContext
  3
DesignerAssemblies
 90
     1024
 91
        0
280
     0
281
     0
  0
CLASS
  1
ACAMCOMPDEF
  2
AcAmCompDef
  3
DesignerAssemblies
 90
     1024
 91
        1
280
     0
281
     0
  0
CLASS
  1
ACAMCOMPDEFMGR
  2
AcAmCompDefMgr
  3
DesignerAssemblies
 90
     1024
 91
        1
280
     0
281
     0
  0
CLASS
  1
AMCONTEXTMGR
  2
AcAmContextMgr
  3
DesignerAssemblies
 90
     1024
 91
        1
280
     0
281
     0
  0
CLASS
  1
ACAMCONTEXTMODELER
  2
AcAmContextModeler
  3
DesignerAssemblies
 90
     1024
 91
        1
280
     0
281
     0
  0
CLASS
  1
ACRFATTGENMGR
  2
AcRfAttGeneralMgr
  3
AcAttribServices
 90
     1024
 91
        0
280
     0
281
     0
  0
CLASS
  1
ACRFOBJATTMGR
  2
AcRfObjAttGroupMgr
  3
AcAttribServices
 90
     1024
 91
        0
280
     0
281
     0
  0
CLASS
  1
ACRFMCADAPIATTHOLDER
  2
AcRfMCADAPIAttHolder
  3
AcAttribServices
 90
     1024
 91
        0
280
     0
281
     0
  0
CLASS
  1
AMDTSYSATTR
  2
AmdtSystemAttribute
  3
AcAttribServices
 90
     1024
 91
        0
280
     0
281
     0
  0
CLASS
  1
ACMTHREADLINESTANDARDDIN
  2
AmdtThreadLineStdDIN
  3
"Amdt_StdImp|Product Description: AutoCAD Mechanical|Company: Autodesk, Inc."
 90
     1024
 91
        1
280
     0
281
     0
  0
CLASS
  1
ACMTAPERSTANDARDDIN
  2
AcmTaperStdDIN
  3
"Amdt_StdImp|Product Description: AutoCAD Mechanical|Company: Autodesk, Inc."
 90
     1024
 91
        1
280
     0
281
     0
  0
CLASS
  1
ACMANOOTATIONVIEWSTANDARDDIN
  2
AmdtAnViewStdDIN
  3
"Amdt_StdImp|Product Description: AutoCAD Mechanical|Company: Autodesk, Inc."
 90
     1024
 91
        1
280
     0
281
     0
  0
CLASS
  1
ACMTHREADLINESTANDARDANSI
  2
AmdtThreadLineStdANSI
  3
"Amdt_StdImp|Product Description: AutoCAD Mechanical|Company: Autodesk, Inc."
 90
     1024
 91
        0
280
     0
281
     0
  0
CLASS
  1
ACMTAPERSTANDARDANSI
  2
AcmTaperStdANSI
  3
"Amdt_StdImp|Product Description: AutoCAD Mechanical|Company: Autodesk, Inc."
 90
     1024
 91
        0
280
     0
281
     0
  0
CLASS
  1
ACMANOOTATIONVIEWSTANDARDANSI
  2
AmdtAnViewStdANSI
  3
"Amdt_StdImp|Product Description: AutoCAD Mechanical|Company: Autodesk, Inc."
 90
     1024
 91
        0
280
     0
281
     0
  0
CLASS
  1
CATALOGSTATE
  2
AcAmCatalogState
  3
DesignerAssemblies
 90
     1024
 91
        0
280
     0
281
     0
  0
CLASS
  1
ACAMGRCOMPDEFSET
  2
AcAmGrCompDefSet
  3
DesignerAssemblies
 90
     1024
 91
        1
280
     0
281
     0
  0
CLASS
  1
AMDTBROWSERDBTAB
  2
AmdtBrowserDbTab
  3
McadcomServices
 90
     1024
 91
        1
280
     0
281
     0
  0
CLASS
  1
CBROWSERAPPOBJECT
  2
CBrowserAppObject
  3
McadcomServices
 90
     1024
 91
        2
280
     0
281
     0
  0
CLASS
  1
DM_PLACEHOLDER
  2
AcDmSelsetPlaceholder
  3
AcMechDwgViewMgmt
 90
     1024
 91
        1
280
     0
281
     0
  0
CLASS
  1
CELLSTYLEMAP
  2
AcDbCellStyleMap
  3
ObjectDBX Classes
 90
     1152
 91
        2
280
     0
281
     0
  0
CLASS
  1
AMDTEDGESTANDARDDIN13715
  2
AmdtEdgeStdDIN13715
  3
"Amdt_StdImp|Product Description: AutoCAD Mechanical|Company: Autodesk, Inc."
 90
     1024
 91
        1
280
     0
281
     0
  0
CLASS
  1
ACMSURFSTANDARDDIN2002
  2
AcmSurfTextStdDIN2002
  3
"Amdt_StdImp|Product Description: AutoCAD Mechanical|Company: Autodesk, Inc."
 90
     1024
 91
        1
280
     0
281
     0
  0
CLASS
  1
AMDTNOTETEMPLATEDB
  2
AmdtNoteTemplateDB
  3
AcmSymBB|Product Description: AutoCAD Mechanical|Company: Autodesk, Inc.
 90
     1024
 91
        6
280
     0
281
     0
  0
CLASS
  1
CAMSSTRUCTBTNSTATE
  2
StructBtnState
  3
DesignerAssemblies
 90
     1024
 91
        1
280
     0
281
     0
  0
CLASS
  1
SORTENTSTABLE
  2
AcDbSortentsTable
  3
ObjectDBX Classes
 90
        0
 91
        4
280
     0
281
     0
  0
CLASS
  1
IMAGEDEF
  2
AcDbRasterImageDef
  3
ISM
 90
        0
 91
        1
280
     0
281
     0
  0
CLASS
  1
RASTERVARIABLES
  2
AcDbRasterVariables
  3
ISM
 90
        0
 91
        1
280
     0
281
     0
  0
CLASS
  1
IMAGEDEF_REACTOR
  2
AcDbRasterImageDefReactor
  3
ISM
 90
        1
 91
        0
280
     0
281
     0
  0
CLASS
  1
IMAGE
  2
AcDbRasterImage
  3
ISM
 90
     2175
 91
        0
280
     0
281
     1
  0
CLASS
  1
AEC_REFEDIT_STATUS_TRACKER
  2
AecDbRefEditStatusTracker
  3
AecArchBase60|Product Desc: Autodesk Architectural Desktop 2007 |Company: Autodesk,Inc. |WEB Address: www.autodesk.com
 90
      129
 91
        1
280
     0
281
     0
  0
CLASS
  1
NPOCOLLECTION
  2
AcDbImpNonPersistentObjectsCollection
  3
ObjectDBX Classes
 90
     1153
 91
        1
280
     0
281
     0
  0
ENDSEC
  0
SECTION
  2
TABLES
  0
TABLE
  2
VPORT
  5
8
102
{ACAD_XDICTIONARY
360
25A6
102
}
330
0
100
AcDbSymbolTable
 70
     1
  0
VPORT
  5
24F3
330
8
100
AcDbSymbolTableRecord
100
AcDbViewportTableRecord
  2
*Active
 70
     0
 10
0.0
 20
0.0
 11
1.0
 21
1.0
 12
-12.93938183709616
 22
-35.58593427637243
 13
0.0
 23
0.0
 14
2.5
 24
2.5
 15
10.0
 25
10.0
 16
0.0
 26
0.0
 36
1.0
 17
0.0
 27
0.0
 37
0.0
 40
1283.345990217218
 41
2.261311172668513
 42
50.0
 43
0.0
 44
0.0
 50
0.0
 51
0.0
 71
     0
 72
   100
 73
     1
 74
     3
 75
     0
 76
     0
 77
     0
 78
     0
281
     0
 65
     1
110
0.0
120
0.0
130
0.0
111
1.0
121
0.0
131
0.0
112
0.0
122
1.0
132
0.0
 79
     0
146
0.0
  0
ENDTAB
  0
TABLE
  2
LTYPE
  5
5
330
0
100
AcDbSymbolTable
 70
    25
  0
LTYPE
  5
14
330
5
100
AcDbSymbolTableRecord
100
AcDbLinetypeTableRecord
  2
ByBlock
 70
     0
  3

 72
    65
 73
     0
 40
0.0
  0
LTYPE
  5
15
330
5
100
AcDbSymbolTableRecord
100
AcDbLinetypeTableRecord
  2
ByLayer
 70
     0
  3

 72
    65
 73
     0
 40
0.0
  0
LTYPE
  5
16
330
5
100
AcDbSymbolTableRecord
100
AcDbLinetypeTableRecord
  2
Continuous
 70
     0
  3
Solid line
 72
    65
 73
     0
 40
0.0
  0
LTYPE
  5
50
330
5
100
AcDbSymbolTableRecord
100
AcDbLinetypeTableRecord
  2
Amconstr
 70
     0
  3
_______________________
 72
    65
 73
     2
 40
9999.0
 49
9999.0
 74
     0
 49
0.0
 74
     0
  0
LTYPE
  5
55
330
5
100
AcDbSymbolTableRecord
100
AcDbLinetypeTableRecord
  2
Amzigzag
 70
     0
  3
/\/-/\/-/\/-/\/-/\/-/\/
 72
    65
 73
     2
 40
11.0001
 49
0.0001
 74
     4
 75
   135
340
54
 46
0.04
 50
0.0
 44
0.0
 45
0.0
 49
-11.0
 74
     0
  0
LTYPE
  5
56
330
5
100
AcDbSymbolTableRecord
100
AcDbLinetypeTableRecord
  2
AM_DIN_F_W050
 70
     0
  3
__ __ __ __ __ __ __ __ __ __ __ __ __ __ __
 72
    65
 73
     2
 40
6.25
 49
4.75
 74
     0
 49
-1.5
 74
     0
  0
LTYPE
  5
57
330
5
100
AcDbSymbolTableRecord
100
AcDbLinetypeTableRecord
  2
AM_DIN_G_W050
 70
     0
  3
____ . ____ . ____ . ____ . ____ . ____ . ____
 72
    65
 73
     4
 40
13.75
 49
9.75
 74
     0
 49
-1.5
 74
     0
 49
1.0
 74
     0
 49
-1.5
 74
     0
  0
LTYPE
  5
58
330
5
100
AcDbSymbolTableRecord
100
AcDbLinetypeTableRecord
  2
AM_DIN_K_W050
 70
     0
  3
_____ . . _____ . . _____ . . ____ .. ____
 72
    65
 73
     6
 40
16.25
 49
9.75
 74
     0
 49
-1.5
 74
     0
 49
1.0
 74
     0
 49
-1.5
 74
     0
 49
1.0
 74
     0
 49
-1.5
 74
     0
  0
LTYPE
  5
59
330
5
100
AcDbSymbolTableRecord
100
AcDbLinetypeTableRecord
  2
AM_DIN_G_W050x2
 70
     0
  3
__ . __ . __ . __ . __ . __
 72
    65
 73
     4
 40
6.875
 49
4.75
 74
     0
 49
-0.875
 74
     0
 49
0.375
 74
     0
 49
-0.875
 74
     0
  0
LTYPE
  5
5A
330
5
100
AcDbSymbolTableRecord
100
AcDbLinetypeTableRecord
  2
AM_DIN_F_W050x2
 70
     0
  3
 _ _ _ _ _ _ _ _ _ _ _ _
 72
    65
 73
     2
 40
3.125
 49
2.25
 74
     0
 49
-0.875
 74
     0
  0
LTYPE
  5
68
330
5
100
AcDbSymbolTableRecord
100
AcDbLinetypeTableRecord
  2
ACDINWELD
 70
     0
  3
_ _ _ _ _
 72
    65
 73
     2
 40
2.0
 49
2.0
 74
     0
 49
-1.0
 74
     0
  0
LTYPE
  5
69
330
5
100
AcDbSymbolTableRecord
100
AcDbLinetypeTableRecord
  2
ACDINTGB
 70
     0
  3
__ . . __ . .
 72
    65
 73
     6
 40
9.0
 49
4.0
 74
     0
 49
-1.0
 74
     0
 49
1.0
 74
     0
 49
-1.0
 74
     0
 49
1.0
 74
     0
 49
-1.0
 74
     0
  0
LTYPE
  5
6A
330
5
100
AcDbSymbolTableRecord
100
AcDbLinetypeTableRecord
  2
ACDINTGL
 70
     0
  3
_ _ _ _ _
 72
    65
 73
     2
 40
3.0
 49
2.0
 74
     0
 49
-1.0
 74
     0
  0
LTYPE
  5
6C
330
5
100
AcDbSymbolTableRecord
100
AcDbLinetypeTableRecord
  2
CENTER
 70
     0
  3
__ . __
 72
    65
 73
     4
 40
7.0
 49
4.0
 74
     0
 49
-1.0
 74
     0
 49
1.0
 74
     0
 49
-1.0
 74
     0
  0
LTYPE
  5
33D
330
5
100
AcDbSymbolTableRecord
100
AcDbLinetypeTableRecord
  2
PHANTOM2
 70
     0
  3
Phantom (.5x) ___ _ _ ___ _ _ ___ _ _ ___ _ _
 72
    65
 73
     6
 40
1.25
 49
0.625
 74
     0
 49
-0.125
 74
     0
 49
0.125
 74
     0
 49
-0.125
 74
     0
 49
0.125
 74
     0
 49
-0.125
 74
     0
  0
LTYPE
  5
341
330
5
100
AcDbSymbolTableRecord
100
AcDbLinetypeTableRecord
  2
ACANSTGB
 70
     0
  3
__ . . __ . .
 72
    65
 73
     6
 40
0.35433070866
 49
0.15748031496
 74
     0
 49
-0.03937007874
 74
     0
 49
0.03937007874
 74
     0
 49
-0.03937007874
 74
     0
 49
0.03937007874
 74
     0
 49
-0.03937007874
 74
     0
  0
LTYPE
  5
342
330
5
100
AcDbSymbolTableRecord
100
AcDbLinetypeTableRecord
  2
ACANSTGL
 70
     0
  3
_ _ _ _ _
 72
    65
 73
     2
 40
0.11811023622
 49
0.07874015748
 74
     0
 49
-0.03937007874
 74
     0
  0
LTYPE
  5
2564
330
5
100
AcDbSymbolTableRecord
100
AcDbLinetypeTableRecord
  2
HIDDEN
 70
     0
  3
Verdeckt
 72
    65
 73
     2
 40
9.525
 49
6.349999999999999
 74
     0
 49
-3.174999999999999
 74
     0
  0
LTYPE
  5
2627
330
5
100
AcDbSymbolTableRecord
100
AcDbLinetypeTableRecord
  2
AM_ISO02W050
 70
     0
  3
__ __ __ __ __ __ __ __ __ __ __ __ __ __ __
 72
    65
 73
     2
 40
7.5
 49
6.0
 74
     0
 49
-1.5
 74
     0
  0
LTYPE
  5
2628
330
5
100
AcDbSymbolTableRecord
100
AcDbLinetypeTableRecord
  2
AM_ISO08W050
 70
     0
  3
____ . ____ . ____ . ____ . ____ . ____ . ____
 72
    65
 73
     4
 40
18.0
 49
12.0
 74
     0
 49
-1.5
 74
     0
 49
3.0
 74
     0
 49
-1.5
 74
     0
  0
LTYPE
  5
2629
330
5
100
AcDbSymbolTableRecord
100
AcDbLinetypeTableRecord
  2
AM_ISO09W050
 70
     0
  3
_____ . . _____ . . _____ . . ____ .. ____
 72
    65
 73
     6
 40
22.5
 49
12.0
 74
     0
 49
-1.5
 74
     0
 49
3.0
 74
     0
 49
-1.5
 74
     0
 49
3.0
 74
     0
 49
-1.5
 74
     0
  0
LTYPE
  5
262A
330
5
100
AcDbSymbolTableRecord
100
AcDbLinetypeTableRecord
  2
AM_ISO08W050x2
 70
     0
  3
__ . __ . __ . __ . __ . __
 72
    65
 73
     4
 40
9.0
 49
6.0
 74
     0
 49
-0.75
 74
     0
 49
1.5
 74
     0
 49
-0.75
 74
     0
  0
LTYPE
  5
262B
330
5
100
AcDbSymbolTableRecord
100
AcDbLinetypeTableRecord
  2
AM_ISO02W050x2
 70
     0
  3
 _ _ _ _ _ _ _ _ _ _ _ _
 72
    65
 73
     2
 40
3.75
 49
3.0
 74
     0
 49
-0.75
 74
     0
  0
LTYPE
  5
2AC0
330
5
100
AcDbSymbolTableRecord
100
AcDbLinetypeTableRecord
  2
CENTER2
 70
     0
  3
Center (.5x) ___ _ ___ _ ___ _ ___ _ ___ _ ___
 72
    65
 73
     4
 40
1.125
 49
0.75
 74
     0
 49
-0.125
 74
     0
 49
0.125
 74
     0
 49
-0.125
 74
     0
  0
LTYPE
  5
2AC1
330
5
100
AcDbSymbolTableRecord
100
AcDbLinetypeTableRecord
  2
HIDDEN2
 70
     0
  3
Hidden (.5x) _ _ _ _ _ _ _ _ _ _ _ _ _ _ _ _ _
 72
    65
 73
     2
 40
0.1875
 49
0.125
 74
     0
 49
-0.0625
 74
     0
  0
LTYPE
  5
2AC2
330
5
100
AcDbSymbolTableRecord
100
AcDbLinetypeTableRecord
  2
Amzigzag2
 70
     0
  3
/\/-/\/-/\/-/\/-/\/-/\/
 72
    65
 73
     2
 40
0.4401
 49
0.0001
 74
     4
 75
   136
340
2AC3
 46
0.0016
 50
0.0
 44
0.0
 45
0.0
 49
-0.4400000000000001
 74
     0
  0
ENDTAB
  0
TABLE
  2
LAYER
  5
2
102
{ACAD_XDICTIONARY
360
2692
102
}
330
0
100
AcDbSymbolTable
 70
     1
  0
LAYER
  5
10
102
{ACAD_XDICTIONARY
360
25A1
102
}
330
2
100
AcDbSymbolTableRecord
100
AcDbLayerTableRecord
  2
0
 70
     0
 62
     7
  6
Continuous
370
    -3
390
F
  0
ENDTAB
  0
TABLE
  2
STYLE
  5
3
330
0
100
AcDbSymbolTable
 70
     7
  0
STYLE
  5
11
330
3
100
AcDbSymbolTableRecord
100
AcDbTextStyleTableRecord
  2
STANDARD
 70
     0
 40
0.0
 41
1.0
 50
0.0
 71
     0
 42
2.5
  3
ISOCP.SHX
  4

  0
STYLE
  5
54
330
3
100
AcDbSymbolTableRecord
100
AcDbTextStyleTableRecord
  2

 70
     1
 40
0.0
 41
1.0
 50
0.0
 71
     0
 42
2.5
  3
ltypeshp.shx
  4

  0
STYLE
  5
5B
330
3
100
AcDbSymbolTableRecord
100
AcDbTextStyleTableRecord
  2
ACDINTS
 70
     0
 40
1.0
 41
1.0
 50
0.0
 71
     0
 42
2.5
  3
isocp.shx
  4

  0
STYLE
  5
67
330
3
100
AcDbSymbolTableRecord
100
AcDbTextStyleTableRecord
  2
ACDINGDT
 70
     0
 40
0.0
 41
1.0
 50
0.0
 71
     0
 42
2.5
  3
amgdt.shx
  4

  0
STYLE
  5
343
330
3
100
AcDbSymbolTableRecord
100
AcDbTextStyleTableRecord
  2
ACANSTS
 70
     0
 40
1.0
 41
1.0
 50
0.0
 71
     0
 42
0.2
  3
romans.shx
  4

  0
STYLE
  5
344
330
3
100
AcDbSymbolTableRecord
100
AcDbTextStyleTableRecord
  2
ACANSGDT
 70
     0
 40
0.0
 41
1.0
 50
0.0
 71
     0
 42
0.2
  3
amgdtans.shx
  4

  0
STYLE
  5
2AC3
330
3
100
AcDbSymbolTableRecord
100
AcDbTextStyleTableRecord
  2

 70
     1
 40
0.0
 41
1.0
 50
0.0
 71
     0
 42
0.2
  3
genltshp.shx
  4

  0
ENDTAB
  0
TABLE
  2
VIEW
  5
6
330
0
100
AcDbSymbolTable
 70
     6
  0
ENDTAB
  0
TABLE
  2
UCS
  5
7
330
0
100
AcDbSymbolTable
 70
     0
  0
ENDTAB
  0
TABLE
  2
APPID
  5
9
330
0
100
AcDbSymbolTable
 70
    23
  0
APPID
  5
12
330
9
100
AcDbSymbolTableRecord
100
AcDbRegAppTableRecord
  2
ACAD
 70
     0
  0
APPID
  5
2C
330
9
100
AcDbSymbolTableRecord
100
AcDbRegAppTableRecord
  2
MCAD_NO_VIS
 70
     0
  0
APPID
  5
2D
330
9
100
AcDbSymbolTableRecord
100
AcDbRegAppTableRecord
  2
ACAD_TEMP_GRAPHIC
 70
     0
  0
APPID
  5
3E
330
9
100
AcDbSymbolTableRecord
100
AcDbRegAppTableRecord
  2
ACATTRIBSERVICES
 70
     0
  0
APPID
  5
428
330
9
100
AcDbSymbolTableRecord
100
AcDbRegAppTableRecord
  2
DCO15
 70
     0
  0
APPID
  5
217D
330
9
100
AcDbSymbolTableRecord
100
AcDbRegAppTableRecord
  2
GENIUS_GENREC_14
 70
     0
  0
APPID
  5
217E
330
9
100
AcDbSymbolTableRecord
100
AcDbRegAppTableRecord
  2
GENIUS_GENODEF_13
 70
     0
  0
APPID
  5
217F
330
9
100
AcDbSymbolTableRecord
100
AcDbRegAppTableRecord
  2
GENIUS_GENOBJ-N-REC_13
 70
     0
  0
APPID
  5
2536
330
9
100
AcDbSymbolTableRecord
100
AcDbRegAppTableRecord
  2
ACAD_MLEADERVER
 70
     0
  0
APPID
  5
2566
330
9
100
AcDbSymbolTableRecord
100
AcDbRegAppTableRecord
  2
AD_DRAW
 70
     0
  0
APPID
  5
2585
330
9
100
AcDbSymbolTableRecord
100
AcDbRegAppTableRecord
  2
DESIGNERASSEMBLIES
 70
     0
  0
APPID
  5
2594
330
9
100
AcDbSymbolTableRecord
100
AcDbRegAppTableRecord
  2
ACADM_DIM_EDIT
 70
     0
  0
APPID
  5
2595
330
9
100
AcDbSymbolTableRecord
100
AcDbRegAppTableRecord
  2
AMDT_DM_ADJ
 70
     0
  0
APPID
  5
263C
330
9
100
AcDbSymbolTableRecord
100
AcDbRegAppTableRecord
  2
ACAD_DSTYLE_DIMJOGGED_JOGANGLE_SYMBOL
 70
     0
  0
APPID
  5
263D
330
9
100
AcDbSymbolTableRecord
100
AcDbRegAppTableRecord
  2
ACAD_DSTYLE_DIM_LINETYPE
 70
     0
  0
APPID
  5
263E
330
9
100
AcDbSymbolTableRecord
100
AcDbRegAppTableRecord
  2
ACAD_DSTYLE_DIM_EXT1_LINETYPE
 70
     0
  0
APPID
  5
263F
330
9
100
AcDbSymbolTableRecord
100
AcDbRegAppTableRecord
  2
ACAD_DSTYLE_DIM_EXT2_LINETYPE
 70
     0
  0
APPID
  5
26B6
330
9
100
AcDbSymbolTableRecord
100
AcDbRegAppTableRecord
  2
ACAD_EXEMPT_FROM_CAD_STANDARDS
 70
     0
  0
APPID
  5
276C
330
9
100
AcDbSymbolTableRecord
100
AcDbRegAppTableRecord
  2
ACAD_DSTYLE_DIMBREAK
 70
     0
  0
APPID
  5
276D
330
9
100
AcDbSymbolTableRecord
100
AcDbRegAppTableRecord
  2
ACAD_DSTYLE_DIMJAG
 70
     0
  0
APPID
  5
2778
330
9
100
AcDbSymbolTableRecord
100
AcDbRegAppTableRecord
  2
ACAD_PSEXT
 70
     0
  0
APPID
  5
2790
330
9
100
AcDbSymbolTableRecord
100
AcDbRegAppTableRecord
  2
GENIUS_GENOBJ-N-FIL_13
 70
     0
  0
APPID
  5
2FB5
330
9
100
AcDbSymbolTableRecord
100
AcDbRegAppTableRecord
  2
ACAD_SPLINE_DATA
 70
     0
  0
ENDTAB
  0
TABLE
  2
DIMSTYLE
  5
A
330
0
100
AcDbSymbolTable
 70
    15
100
AcDbDimStyleTable
 71
     1
340
6F
  0
DIMSTYLE
105
6F
102
{ACAD_REACTORS
330
30F5
102
}
330
A
100
AcDbSymbolTableRecord
100
AcDbDimStyleTableRecord
  2
AM_DIN
 70
     0
  4
"
 41
3.5
 42
1.0
 43
10.0
 44
1.0
 47
0.1
 48
0.1
 73
     0
 74
     0
 77
     1
 78
     8
 79
     2
140
3.5
141
0.0
143
0.0393701
146
0.71
147
1.5
172
     1
176
   256
177
   256
178
   140
271
     2
272
     3
274
     4
283
     0
284
     8
340
11
371
    -1
372
    -1
1001
ACAD_DSTYLE_DIMJOGGED_JOGANGLE_SYMBOL
1070
   384
1040
1.570796326794896
1001
ACAD_DSTYLE_DIM_LINETYPE
1070
   380
1005
14
1001
ACAD_DSTYLE_DIM_EXT1_LINETYPE
1070
   381
1005
14
1001
ACAD_DSTYLE_DIM_EXT2_LINETYPE
1070
   382
1005
14
  0
DIMSTYLE
105
70
330
A
100
AcDbSymbolTableRecord
100
AcDbDimStyleTableRecord
  2
AM_DIN$3
 70
     0
  4
"
 41
3.5
 42
1.0
 43
10.0
 44
1.0
 47
0.1
 48
0.1
 73
     0
 77
     1
 78
     8
 79
     2
140
3.5
141
0.0
143
0.0393701
146
0.71
147
1.5
176
   256
177
   256
178
   140
271
     2
272
     3
274
     4
283
     0
284
     8
288
     1
289
     0
340
11
371
    -1
372
    -1
1001
ACAD_DSTYLE_DIMJOGGED_JOGANGLE_SYMBOL
1070
   384
1040
1.570796326794896
1001
ACAD_DSTYLE_DIM_LINETYPE
1070
   380
1005
14
1001
ACAD_DSTYLE_DIM_EXT1_LINETYPE
1070
   381
1005
14
1001
ACAD_DSTYLE_DIM_EXT2_LINETYPE
1070
   382
1005
14
  0
DIMSTYLE
105
71
330
A
100
AcDbSymbolTableRecord
100
AcDbDimStyleTableRecord
  2
AM_DIN$4
 70
     0
  4
"
 41
3.5
 42
1.0
 43
10.0
 44
1.0
 47
0.1
 48
0.1
 73
     0
 74
     0
 77
     1
 78
     8
 79
     2
140
3.5
141
0.0
143
0.0393701
146
0.71
147
1.5
172
     1
176
   256
177
   256
178
   140
271
     2
272
     3
274
     4
283
     0
284
     8
340
11
371
    -1
372
    -1
1001
ACAD_DSTYLE_DIMJOGGED_JOGANGLE_SYMBOL
1070
   384
1040
1.570796326794896
1001
ACAD_DSTYLE_DIM_LINETYPE
1070
   380
1005
14
1001
ACAD_DSTYLE_DIM_EXT1_LINETYPE
1070
   381
1005
14
1001
ACAD_DSTYLE_DIM_EXT2_LINETYPE
1070
   382
1005
14
  0
DIMSTYLE
105
72
330
A
100
AcDbSymbolTableRecord
100
AcDbDimStyleTableRecord
  2
AM_DIN$6
 70
     0
  4
"
 41
3.5
 42
1.0
 43
10.0
 44
1.0
 47
0.1
 48
0.1
 73
     0
 74
     0
 78
     8
 79
     2
140
3.5
141
0.0
143
0.0393701
146
0.71
147
1.5
172
     1
176
   256
177
   256
178
   140
271
     2
272
     3
274
     4
283
     0
284
     8
340
11
371
    -1
372
    -1
1001
ACAD_DSTYLE_DIMJOGGED_JOGANGLE_SYMBOL
1070
   384
1040
1.570796326794896
1001
ACAD_DSTYLE_DIM_LINETYPE
1070
   380
1005
14
1001
ACAD_DSTYLE_DIM_EXT1_LINETYPE
1070
   381
1005
14
1001
ACAD_DSTYLE_DIM_EXT2_LINETYPE
1070
   382
1005
14
  0
DIMSTYLE
105
73
330
A
100
AcDbSymbolTableRecord
100
AcDbDimStyleTableRecord
  2
AM_DIN$7
 70
     0
  4
"
 41
3.5
 42
1.0
 43
10.0
 44
1.0
 47
0.1
 48
0.1
 73
     0
 74
     0
 77
     1
 78
     8
 79
     2
140
3.5
141
0.0
143
0.0393701
146
0.71
147
1.5
172
     1
176
   256
177
   256
178
   140
271
     2
272
     3
274
     4
283
     0
284
     8
340
11
371
    -1
372
    -1
1001
ACAD_DSTYLE_DIMJOGGED_JOGANGLE_SYMBOL
1070
   384
1040
1.570796326794896
1001
ACAD_DSTYLE_DIM_LINETYPE
1070
   380
1005
14
1001
ACAD_DSTYLE_DIM_EXT1_LINETYPE
1070
   381
1005
14
1001
ACAD_DSTYLE_DIM_EXT2_LINETYPE
1070
   382
1005
14
  0
DIMSTYLE
105
74
330
A
100
AcDbSymbolTableRecord
100
AcDbDimStyleTableRecord
  2
AM_DIN$SF
 70
     0
  4
"
 41
3.5
 42
1.0
 43
10.0
 44
1.0
 47
0.1
 48
0.1
 73
     0
 74
     0
 75
     1
 76
     1
 77
     1
 78
     8
 79
     2
140
3.5
141
0.0
143
0.0393701
146
0.71
147
1.5
172
     1
176
   256
177
   256
178
   140
271
     2
272
     3
274
     4
283
     0
284
     8
340
11
371
    -1
372
    -1
1001
ACAD_DSTYLE_DIMJOGGED_JOGANGLE_SYMBOL
1070
   384
1040
1.570796326794896
1001
ACAD_DSTYLE_DIM_LINETYPE
1070
   380
1005
14
1001
ACAD_DSTYLE_DIM_EXT1_LINETYPE
1070
   381
1005
14
1001
ACAD_DSTYLE_DIM_EXT2_LINETYPE
1070
   382
1005
14
  0
DIMSTYLE
105
79
330
A
100
AcDbSymbolTableRecord
100
AcDbDimStyleTableRecord
  2
AM_DIN$SH
 70
     0
  4
"
 41
3.5
 42
1.0
 43
10.0
 44
1.0
 47
0.1
 48
0.1
 73
     0
 74
     0
 75
     1
 76
     1
 77
     1
 78
     8
 79
     2
140
3.5
141
0.0
143
0.0393701
144
2.0
146
0.71
147
1.5
172
     1
173
     1
176
   256
177
   256
178
   140
271
     2
272
     3
274
     4
283
     0
284
     8
340
11
343
75
371
    -1
372
    -1
1001
ACAD_DSTYLE_DIMJOGGED_JOGANGLE_SYMBOL
1070
   384
1040
1.570796326794896
1001
ACAD_DSTYLE_DIM_LINETYPE
1070
   380
1005
14
1001
ACAD_DSTYLE_DIM_EXT1_LINETYPE
1070
   381
1005
14
1001
ACAD_DSTYLE_DIM_EXT2_LINETYPE
1070
   382
1005
14
  0
DIMSTYLE
105
92
330
A
100
AcDbSymbolTableRecord
100
AcDbDimStyleTableRecord
  2
STANDARD
 70
     0
279
     2
340
11
  0
DIMSTYLE
105
345
330
A
100
AcDbSymbolTableRecord
100
AcDbDimStyleTableRecord
  2
AM_ANSI
 70
     0
  4
mm
 41
0.1
 42
0.05
 43
0.5
 44
0.1
 47
0.1
 48
0.1
 78
     7
 79
     2
140
0.12
141
0.0
146
0.71
147
0.06
176
   256
177
   256
178
     2
274
     4
284
     7
340
11
371
    -1
372
    -1
  0
DIMSTYLE
105
346
330
A
100
AcDbSymbolTableRecord
100
AcDbDimStyleTableRecord
  2
AM_ANSI$3
 70
     0
  4
mm
 41
0.1
 42
0.05
 43
0.5
 44
0.1
 47
0.1
 48
0.1
 78
     7
 79
     2
140
0.12
141
0.0
146
0.71
147
0.06
176
   256
177
   256
178
     2
274
     4
284
     7
288
     1
289
     0
340
11
371
    -1
372
    -1
  0
DIMSTYLE
105
347
330
A
100
AcDbSymbolTableRecord
100
AcDbDimStyleTableRecord
  2
AM_ANSI$4
 70
     0
  4
mm
 41
0.1
 42
0.05
 43
0.5
 44
0.1
 47
0.1
 48
0.1
 78
     7
 79
     2
140
0.12
141
0.0
146
0.71
147
0.06
176
   256
177
   256
178
     2
274
     4
284
     7
288
     1
289
     0
340
11
371
    -1
372
    -1
  0
DIMSTYLE
105
348
330
A
100
AcDbSymbolTableRecord
100
AcDbDimStyleTableRecord
  2
AM_ANSI$7
 70
     0
  4
mm
 41
0.1
 42
0.05
 43
0.5
 44
0.1
 47
0.1
 48
0.1
 78
     7
 79
     2
140
0.24
141
0.0
146
0.71
147
0.06
176
   256
177
   256
178
     2
274
     4
284
     7
340
11
371
    -1
372
    -1
  0
DIMSTYLE
105
349
330
A
100
AcDbSymbolTableRecord
100
AcDbDimStyleTableRecord
  2
AM_ANSI$SF
 70
     0
  4
mm
 41
0.1
 42
0.05
 43
0.5
 44
0.1
 47
0.1
 48
0.1
 75
     1
 76
     1
 78
     7
 79
     2
140
0.12
141
0.0
146
0.71
147
0.06
176
   256
177
   256
178
     2
274
     4
284
     7
340
11
371
    -1
372
    -1
  0
DIMSTYLE
105
34A
330
A
100
AcDbSymbolTableRecord
100
AcDbDimStyleTableRecord
  2
AM_ANSI$SH
 70
     0
  4
mm
 41
0.1
 42
0.05
 43
0.5
 44
0.1
 47
0.1
 48
0.1
 75
     1
 76
     1
 78
     7
 79
     2
140
0.12
141
0.0
146
0.71
147
0.06
173
     1
176
   256
177
   256
178
     2
274
     4
284
     7
340
11
343
75
371
    -1
372
    -1
  0
ENDTAB
  0
TABLE
  2
BLOCK_RECORD
  5
1
330
0
100
AcDbSymbolTable
 70
     8
  0
BLOCK_RECORD
  5
1F
102
{ACAD_XDICTIONARY
360
81
102
}
330
1
100
AcDbSymbolTableRecord
100
AcDbBlockTableRecord
  2
*Model_Space
340
22
  0
BLOCK_RECORD
  5
1B
330
1
100
AcDbSymbolTableRecord
100
AcDbBlockTableRecord
  2
*Paper_Space
340
1E
  0
BLOCK_RECORD
  5
23
330
1
100
AcDbSymbolTableRecord
100
AcDbBlockTableRecord
  2
*Paper_Space0
340
26
  0
BLOCK_RECORD
  5
75
330
1
100
AcDbSymbolTableRecord
100
AcDbBlockTableRecord
  2
GENAXEH
340
0
  0
BLOCK_RECORD
  5
2D3A
102
{ACAD_XDICTIONARY
360
2D4B
102
}
330
1
100
AcDbSymbolTableRecord
100
AcDbBlockTableRecord
  2
A$C0DDA5B2D
340
0
1001
ACAD
1000
DesignCenter Data
1002
{
1070
     1
1070
     1
1002
}
  0
BLOCK_RECORD
  5
2EAE
330
1
100
AcDbSymbolTableRecord
100
AcDbBlockTableRecord
  2
block 2
340
0
  0
ENDTAB
  0
ENDSEC
  0
SECTION
  2
BLOCKS
  0
BLOCK
  5
20
330
1F
100
AcDbEntity
  8
0
100
AcDbBlockBegin
  2
*Model_Space
 70
     0
 10
0.0
 20
0.0
 30
0.0
  3
*Model_Space
  1

  0
ENDBLK
  5
21
330
1F
100
AcDbEntity
  8
0
100
AcDbBlockEnd
  0
BLOCK
  5
1C
330
1B
100
AcDbEntity
 67
     1
  8
0
100
AcDbBlockBegin
  2
*Paper_Space
 70
     0
 10
0.0
 20
0.0
 30
0.0
  3
*Paper_Space
  1

  0
ENDBLK
  5
1D
330
1B
100
AcDbEntity
 67
     1
  8
0
100
AcDbBlockEnd
  0
BLOCK
  5
24
330
23
100
AcDbEntity
 67
     1
  8
0
100
AcDbBlockBegin
  2
*Paper_Space0
 70
     0
 10
0.0
 20
0.0
 30
0.0
  3
*Paper_Space0
  1

  0
ENDBLK
  5
25
330
23
100
AcDbEntity
 67
     1
  8
0
100
AcDbBlockEnd
  0
BLOCK
  5
77
330
75
100
AcDbEntity
  8
0
100
AcDbBlockBegin
  2
GENAXEH
 70
     0
 10
0.0
 20
0.0
 30
0.0
  3
GENAXEH
  1

  0
LINE
  5
76
330
75
100
AcDbEntity
  8
0
100
AcDbLine
 10
-1.0
 20
0.0
 30
0.0
 11
1.0
 21
0.0
 31
0.0
  0
ENDBLK
  5
78
330
75
100
AcDbEntity
  8
0
100
AcDbBlockEnd
  0
BLOCK
  5
2D4D
330
2D3A
100
AcDbEntity
  8
0
100
AcDbBlockBegin
  2
A$C0DDA5B2D
 70
     0
 10
0.0
 20
0.0
 30
0.0
  3
A$C0DDA5B2D
  1

  0
ARC
  5
2D3B
330
2D3A
100
AcDbEntity
  8
0
100
AcDbCircle
 10
371.9560413717081
 20
441.769213813816
 30
0.0
 40
372.1416132631498
100
AcDbArc
 50
122.800666033735
 51
181.8095010798335
  0
ARC
  5
2D3C
330
2D3A
100
AcDbEntity
  8
0
100
AcDbCircle
 10
492.6865152490538
 20
196.9629242519171
 30
0.0
 40
644.0709062183211
100
AcDbArc
 50
95.71221305909846
 51
120.0298781986577
  0
ARC
  5
2D3D
330
2D3A
100
AcDbEntity
  8
0
100
AcDbCircle
 10
911.8303669504943
 20
-7457.147902384426
 30
0.0
 40
8317.167746986923
100
AcDbArc
 50
89.87483724633786
 51
92.07125076235923
  0
ARC
  5
2D3E
330
2D3A
100
AcDbEntity
  8
0
100
AcDbCircle
 10
691.8091882697211
 20
-1028.267690200482
 30
0.0
 40
1884.577050834111
100
AcDbArc
 50
92.45058229909458
 51
98.02903860067884
  0
ARC
  5
2D3F
330
2D3A
100
AcDbEntity
  8
0
100
AcDbCircle
 10
1488.042405318075
 20
441.769213813816
 30
0.0
 40
372.1416132631498
100
AcDbArc
 50
358.1904989201665
 51
57.19933396626498
  0
ARC
  5
2D40
330
2D3A
100
AcDbEntity
  8
0
100
AcDbCircle
 10
1367.311931440729
 20
196.9629242519171
 30
0.0
 40
644.0709062183211
100
AcDbArc
 50
59.97012180134229
 51
84.28778694090153
  0
ARC
  5
2D41
330
2D3A
100
AcDbEntity
  8
0
100
AcDbCircle
 10
948.1680797392883
 20
-7457.147902384426
 30
0.0
 40
8317.167746986923
100
AcDbArc
 50
87.92874923764076
 51
90.12516275366213
  0
ARC
  5
2D42
330
2D3A
100
AcDbEntity
  8
0
100
AcDbCircle
 10
1168.189258420062
 20
-1028.267690200482
 30
0.0
 40
1884.577050834111
100
AcDbArc
 50
81.97096139932117
 51
87.54941770090541
  0
ARC
  5
2D43
330
2D3A
100
AcDbEntity
  8
0
100
AcDbCircle
 10
371.9560413717081
 20
418.2307854694027
 30
0.0
 40
372.1416132631498
100
AcDbArc
 50
178.1904989201664
 51
237.199333966265
  0
ARC
  5
2D44
330
2D3A
100
AcDbEntity
  8
0
100
AcDbCircle
 10
492.6865152490538
 20
663.0370750313016
 30
0.0
 40
644.0709062183211
100
AcDbArc
 50
239.9701218013423
 51
264.2877869409015
  0
ARC
  5
2D45
330
2D3A
100
AcDbEntity
  8
0
100
AcDbCircle
 10
911.8303669504943
 20
8317.147901667645
 30
0.0
 40
8317.167746986923
100
AcDbArc
 50
267.9287492376408
 51
270.1251627536621
  0
ARC
  5
2D46
330
2D3A
100
AcDbEntity
  8
0
100
AcDbCircle
 10
691.8091882697211
 20
1888.267689483701
 30
0.0
 40
1884.577050834111
100
AcDbArc
 50
261.9709613993212
 51
267.5494177009054
  0
ARC
  5
2D47
330
2D3A
100
AcDbEntity
  8
0
100
AcDbCircle
 10
1488.042405318075
 20
418.2307854694028
 30
0.0
 40
372.1416132631498
100
AcDbArc
 50
302.800666033735
 51
1.809501079833543
  0
ARC
  5
2D48
330
2D3A
100
AcDbEntity
  8
0
100
AcDbCircle
 10
1367.311931440729
 20
663.0370750313016
 30
0.0
 40
644.0709062183211
100
AcDbArc
 50
275.7122130590984
 51
300.0298781986577
  0
ARC
  5
2D49
330
2D3A
100
AcDbEntity
  8
0
100
AcDbCircle
 10
948.1680797392883
 20
8317.147901667645
 30
0.0
 40
8317.167746986923
100
AcDbArc
 50
269.8748372463379
 51
272.0712507623592
  0
ARC
  5
2D4A
330
2D3A
100
AcDbEntity
  8
0
100
AcDbCircle
 10
1168.189258420062
 20
1888.267689483701
 30
0.0
 40
1884.577050834111
100
AcDbArc
 50
272.4505822990946
 51
278.0290386006788
  0
ENDBLK
  5
2D4E
330
2D3A
100
AcDbEntity
  8
0
100
AcDbBlockEnd
  0
BLOCK
  5
2EAF
330
2EAE
100
AcDbEntity
  8
0
100
AcDbBlockBegin
  2
block 2
 70
     0
 10
0.0
 20
0.0
 30
0.0
  3
block 2
  1

  0
SPLINE
  5
2EB0
330
2EAE
100
AcDbEntity
  8
0
 62
   250
420
  1842203
370
     9
100
AcDbSpline
210
0.0
220
0.0
230
1.0
 70
    11
 71
     3
 72
    20
 73
    16
 74
     0
 42
0.0000000001
 43
0.0000000001
 40
0.0
 40
0.0
 40
0.0
 40
0.0
 40
1.0
 40
1.0
 40
1.0
 40
2.0
 40
2.0
 40
2.0
 40
3.0
 40
3.0
 40
3.0
 40
4.0
 40
4.0
 40
4.0
 40
5.0
 40
5.0
 40
5.0
 40
5.0
 10
140.113411423305
 20
156.716015585821
 30
0.0
 10
139.8488280900378
 20
171.7697048181687
 30
0.0
 10
127.385850662598
 20
183.7586371068381
 30
0.0
 10
112.2715277497099
 20
183.4940537735709
 30
0.0
 10
97.15169268404542
 20
183.2349825930801
 30
0.0
 10
85.11315102038839
 20
170.8161023878515
 30
0.0
 10
85.37773435365556
 20
155.7624131555038
 30
0.0
 10
85.64782983969916
 20
140.7087239231561
 30
0.0
 10
98.11080726713896
 20
128.7197916344867
 30
0.0
 10
113.2196180272506
 20
128.9843749677539
 30
0.0
 10
128.3339409401387
 20
129.2489583010211
 30
0.0
 10
140.3724826037958
 20
141.6623263534733
 30
0.0
 10
140.113411423305
 20
156.716015585821
 30
0.0
 10
140.113411423305
 20
156.716015585821
 30
0.0
 10
140.113411423305
 20
156.716015585821
 30
0.0
 10
140.113411423305
 20
156.716015585821
 30
0.0
  0
POLYLINE
  5
2EB1
330
2EAE
100
AcDbEntity
  8
0
 62
   250
420
  1842203
370
     9
100
AcDb2dPolyline
 66
     1
 10
0.0
 20
0.0
 30
0.0
  0
VERTEX
  5
2EB2
330
2EB1
100
AcDbEntity
  8
0
 62
   250
420
  1842203
370
     9
100
AcDbVertex
100
AcDb2dVertex
 10
176.3778645392389
 20
156.1978732248394
 30
0.0
  0
VERTEX
  5
2EB3
330
2EB1
100
AcDbEntity
  8
0
 62
   250
420
  1842203
370
     9
100
AcDbVertex
100
AcDb2dVertex
 10
46.66037325222379
 20
156.1978732248394
 30
0.0
  0
SEQEND
  5
2EB4
330
2EB1
100
AcDbEntity
  8
0
370
     9
  0
POLYLINE
  5
2EB5
330
2EAE
100
AcDbEntity
  8
0
 62
   250
420
  1842203
370
     9
100
AcDb2dPolyline
 66
     1
 10
0.0
 20
0.0
 30
0.0
  0
VERTEX
  5
2EB6
330
2EB5
100
AcDbEntity
  8
0
 62
   250
420
  1842203
370
     9
100
AcDbVertex
100
AcDb2dVertex
 10
112.7455728884803
 20
91.54583331044689
 30
0.0
  0
VERTEX
  5
2EB7
330
2EB5
100
AcDbEntity
  8
0
 62
   250
420
  1842203
370
     9
100
AcDbVertex
100
AcDb2dVertex
 10
112.7455728884803
 20
220.7286457781512
 30
0.0
  0
SEQEND
  5
2EB8
330
2EB5
100
AcDbEntity
  8
0
370
     9
  0
SPLINE
  5
2EB9
330
2EAE
100
AcDbEntity
  8
0
 62
   250
420
  1842203
370
     9
100
AcDbSpline
210
0.0
220
0.0
230
1.0
 70
    11
 71
     3
 72
    20
 73
    16
 74
     0
 42
0.0000000001
 43
0.0000000001
 40
0.0
 40
0.0
 40
0.0
 40
0.0
 40
1.0
 40
1.0
 40
1.0
 40
2.0
 40
2.0
 40
2.0
 40
3.0
 40
3.0
 40
3.0
 40
4.0
 40
4.0
 40
4.0
 40
5.0
 40
5.0
 40
5.0
 40
5.0
 10
65.50642359473451
 20
156.633333294175
 30
0.0
 10
65.50642359473451
 20
182.6176214821234
 30
0.0
 10
86.6565537977803
 20
203.6740450879704
 30
0.0
 10
112.7455728884803
 20
203.6740450879704
 30
0.0
 10
138.8401041319566
 20
203.6740450879704
 30
0.0
 10
159.984722182226
 20
182.6176214821234
 30
0.0
 10
159.984722182226
 20
156.633333294175
 30
0.0
 10
159.984722182226
 20
130.6490451062266
 30
0.0
 10
138.8401041319566
 20
109.5871093476032
 30
0.0
 10
112.7455728884803
 20
109.5871093476032
 30
0.0
 10
86.6565537977803
 20
109.5871093476032
 30
0.0
 10
65.50642359473451
 20
130.6490451062266
 30
0.0
 10
65.50642359473451
 20
156.633333294175
 30
0.0
 10
65.50642359473451
 20
156.633333294175
 30
0.0
 10
65.50642359473451
 20
156.633333294175
 30
0.0
 10
65.50642359473451
 20
156.633333294175
 30
0.0
  0
SPLINE
  5
2EBA
330
2EAE
100
AcDbEntity
  8
0
 62
   250
420
  1842203
370
     9
100
AcDbSpline
210
0.0
220
0.0
230
1.0
 70
    11
 71
     3
 72
    20
 73
    16
 74
     0
 42
0.0000000001
 43
0.0000000001
 40
0.0
 40
0.0
 40
0.0
 40
0.0
 40
1.0
 40
1.0
 40
1.0
 40
2.0
 40
2.0
 40
2.0
 40
3.0
 40
3.0
 40
3.0
 40
4.0
 40
4.0
 40
4.0
 40
5.0
 40
5.0
 40
5.0
 40
5.0
 10
-281.3347655546663
 20
307.3245658953911
 30
0.0
 10
-281.3347655546663
 20
325.360329779771
 30
0.0
 10
-266.6559027111138
 20
339.9840710955595
 30
0.0
 10
-248.5429686878643
 20
339.9840710955595
 30
0.0
 10
-230.4300346646147
 20
339.9840710955595
 30
0.0
 10
-215.7511718210622
 20
325.360329779771
 30
0.0
 10
-215.7511718210622
 20
307.3245658953911
 30
0.0
 10
-215.7511718210622
 20
289.2888020110112
 30
0.0
 10
-230.4300346646147
 20
274.6650606952226
 30
0.0
 10
-248.5429686878643
 20
274.6650606952226
 30
0.0
 10
-266.6559027111138
 20
274.6650606952226
 30
0.0
 10
-281.3347655546663
 20
289.2888020110112
 30
0.0
 10
-281.3347655546663
 20
307.3245658953911
 30
0.0
 10
-281.3347655546663
 20
307.3245658953911
 30
0.0
 10
-281.3347655546663
 20
307.3245658953911
 30
0.0
 10
-281.3347655546663
 20
307.3245658953911
 30
0.0
  0
SPLINE
  5
2EBB
330
2EAE
100
AcDbEntity
  8
0
 62
   250
420
  1842203
370
     9
100
AcDbSpline
210
0.0
220
0.0
230
1.0
 70
    11
 71
     3
 72
    20
 73
    16
 74
     0
 42
0.0000000001
 43
0.0000000001
 40
0.0
 40
0.0
 40
0.0
 40
0.0
 40
1.0
 40
1.0
 40
1.0
 40
2.0
 40
2.0
 40
2.0
 40
3.0
 40
3.0
 40
3.0
 40
4.0
 40
4.0
 40
4.0
 40
5.0
 40
5.0
 40
5.0
 40
5.0
 10
-290.7770832606391
 20
307.3300780481675
 30
0.0
 10
-290.7770832606391
 20
330.558289847916
 30
0.0
 10
-271.8703992375879
 20
349.3822915793211
 30
0.0
 10
-248.5484808406407
 20
349.3822915793211
 30
0.0
 10
-225.2320745964698
 20
349.3822915793211
 30
0.0
 10
-206.3253905734187
 20
330.558289847916
 30
0.0
 10
-206.3253905734187
 20
307.3300780481675
 30
0.0
 10
-206.3253905734187
 20
284.1073784011954
 30
0.0
 10
-225.2320745964698
 20
265.2778645170139
 30
0.0
 10
-248.5484808406407
 20
265.2778645170139
 30
0.0
 10
-271.8703992375879
 20
265.2778645170139
 30
0.0
 10
-290.7770832606391
 20
284.1073784011954
 30
0.0
 10
-290.7770832606391
 20
307.3300780481675
 30
0.0
 10
-290.7770832606391
 20
307.3300780481675
 30
0.0
 10
-290.7770832606391
 20
307.3300780481675
 30
0.0
 10
-290.7770832606391
 20
307.3300780481675
 30
0.0
  0
SPLINE
  5
2EBC
330
2EAE
100
AcDbEntity
  8
0
 62
   250
420
  1842203
370
     9
100
AcDbSpline
210
0.0
220
0.0
230
1.0
 70
    11
 71
     3
 72
    20
 73
    16
 74
     0
 42
0.0000000001
 43
0.0000000001
 40
0.0
 40
0.0
 40
0.0
 40
0.0
 40
1.0
 40
1.0
 40
1.0
 40
2.0
 40
2.0
 40
2.0
 40
3.0
 40
3.0
 40
3.0
 40
4.0
 40
4.0
 40
4.0
 40
5.0
 40
5.0
 40
5.0
 40
5.0
 10
-281.2300346519147
 20
3.715190971293424
 30
0.0
 10
-281.2300346519147
 20
21.75095485567338
 30
0.0
 10
-266.5511718083622
 20
36.36918401868548
 30
0.0
 10
-248.4437499378891
 20
36.36918401868548
 30
0.0
 10
-230.3308159146395
 20
36.36918401868548
 30
0.0
 10
-215.6464409183106
 20
21.75095485567338
 30
0.0
 10
-215.6464409183106
 20
3.715190971293424
 30
0.0
 10
-215.6464409183106
 20
-14.32057291308652
 30
0.0
 10
-230.3308159146395
 20
-28.94431422887504
 30
0.0
 10
-248.4437499378891
 20
-28.94431422887504
 30
0.0
 10
-266.5511718083622
 20
-28.94431422887504
 30
0.0
 10
-281.2300346519147
 20
-14.32057291308652
 30
0.0
 10
-281.2300346519147
 20
3.715190971293424
 30
0.0
 10
-281.2300346519147
 20
3.715190971293424
 30
0.0
 10
-281.2300346519147
 20
3.715190971293424
 30
0.0
 10
-281.2300346519147
 20
3.715190971293424
 30
0.0
  0
SPLINE
  5
2EBD
330
2EAE
100
AcDbEntity
  8
0
 62
   250
420
  1842203
370
     9
100
AcDbSpline
210
0.0
220
0.0
230
1.0
 70
    11
 71
     3
 72
    20
 73
    16
 74
     0
 42
0.0000000001
 43
0.0000000001
 40
0.0
 40
0.0
 40
0.0
 40
0.0
 40
1.0
 40
1.0
 40
1.0
 40
2.0
 40
2.0
 40
2.0
 40
3.0
 40
3.0
 40
3.0
 40
4.0
 40
4.0
 40
4.0
 40
5.0
 40
5.0
 40
5.0
 40
5.0
 10
-290.6778645106639
 20
3.720703124069824
 30
0.0
 10
-290.6778645106639
 20
26.94340277104193
 30
0.0
 10
-271.7711804876127
 20
45.77291665522344
 30
0.0
 10
-248.4492620906655
 20
45.77291665522344
 30
0.0
 10
-225.1273436937182
 20
45.77291665522344
 30
0.0
 10
-206.220659670667
 20
26.94340277104193
 30
0.0
 10
-206.220659670667
 20
3.720703124069824
 30
0.0
 10
-206.220659670667
 20
-19.50199652290228
 30
0.0
 10
-225.1273436937182
 20
-38.33151040708379
 30
0.0
 10
-248.4492620906655
 20
-38.33151040708379
 30
0.0
 10
-271.7711804876127
 20
-38.33151040708379
 30
0.0
 10
-290.6778645106639
 20
-19.50199652290228
 30
0.0
 10
-290.6778645106639
 20
3.720703124069824
 30
0.0
 10
-290.6778645106639
 20
3.720703124069824
 30
0.0
 10
-290.6778645106639
 20
3.720703124069824
 30
0.0
 10
-290.6778645106639
 20
3.720703124069824
 30
0.0
  0
SPLINE
  5
2EBE
330
2EAE
100
AcDbEntity
  8
0
 62
   250
420
  1842203
370
     9
100
AcDbSpline
210
0.0
220
0.0
230
1.0
 70
    11
 71
     3
 72
    20
 73
    16
 74
     0
 42
0.0000000001
 43
0.0000000001
 40
0.0
 40
0.0
 40
0.0
 40
0.0
 40
1.0
 40
1.0
 40
1.0
 40
2.0
 40
2.0
 40
2.0
 40
3.0
 40
3.0
 40
3.0
 40
4.0
 40
4.0
 40
4.0
 40
5.0
 40
5.0
 40
5.0
 40
5.0
 10
449.0861109988395
 20
307.7490016591739
 30
0.0
 10
449.0861109988395
 20
325.7847655435538
 30
0.0
 10
463.7704859951685
 20
340.4085068593423
 30
0.0
 10
481.8779078656416
 20
340.4085068593423
 30
0.0
 10
499.9963540416676
 20
340.4085068593423
 30
0.0
 10
514.6697047324437
 20
325.7847655435538
 30
0.0
 10
514.6697047324437
 20
307.7490016591739
 30
0.0
 10
514.6697047324437
 20
289.7132377747939
 30
0.0
 10
499.9963540416676
 20
275.0950086117818
 30
0.0
 10
481.8779078656416
 20
275.0950086117818
 30
0.0
 10
463.7704859951685
 20
275.0950086117818
 30
0.0
 10
449.0861109988395
 20
289.7132377747939
 30
0.0
 10
449.0861109988395
 20
307.7490016591739
 30
0.0
 10
449.0861109988395
 20
307.7490016591739
 30
0.0
 10
449.0861109988395
 20
307.7490016591739
 30
0.0
 10
449.0861109988395
 20
307.7490016591739
 30
0.0
  0
SPLINE
  5
2EBF
330
2EAE
100
AcDbEntity
  8
0
 62
   250
420
  1842203
370
     9
100
AcDbSpline
210
0.0
220
0.0
230
1.0
 70
    11
 71
     3
 72
    20
 73
    16
 74
     0
 42
0.0000000001
 43
0.0000000001
 40
0.0
 40
0.0
 40
0.0
 40
0.0
 40
1.0
 40
1.0
 40
1.0
 40
2.0
 40
2.0
 40
2.0
 40
3.0
 40
3.0
 40
3.0
 40
4.0
 40
4.0
 40
4.0
 40
5.0
 40
5.0
 40
5.0
 40
5.0
 10
439.6493054456432
 20
307.7545138119503
 30
0.0
 10
439.6493054456432
 20
330.9827256116987
 30
0.0
 10
458.5504773159179
 20
349.8067273431039
 30
0.0
 10
481.8723957128653
 20
349.8067273431039
 30
0.0
 10
505.1943141098125
 20
349.8067273431039
 30
0.0
 10
524.0954859800872
 20
330.9827256116987
 30
0.0
 10
524.0954859800872
 20
307.7545138119503
 30
0.0
 10
524.0954859800872
 20
284.5318141649782
 30
0.0
 10
505.1943141098125
 20
265.7023002807966
 30
0.0
 10
481.8723957128653
 20
265.7023002807966
 30
0.0
 10
458.5504773159179
 20
265.7023002807966
 30
0.0
 10
439.6493054456432
 20
284.5318141649782
 30
0.0
 10
439.6493054456432
 20
307.7545138119503
 30
0.0
 10
439.6493054456432
 20
307.7545138119503
 30
0.0
 10
439.6493054456432
 20
307.7545138119503
 30
0.0
 10
439.6493054456432
 20
307.7545138119503
 30
0.0
  0
SPLINE
  5
2EC0
330
2EAE
100
AcDbEntity
  8
0
 62
   250
420
  1842203
370
     9
100
AcDbSpline
210
0.0
220
0.0
230
1.0
 70
    11
 71
     3
 72
    20
 73
    16
 74
     0
 42
0.0000000001
 43
0.0000000001
 40
0.0
 40
0.0
 40
0.0
 40
0.0
 40
1.0
 40
1.0
 40
1.0
 40
2.0
 40
2.0
 40
2.0
 40
3.0
 40
3.0
 40
3.0
 40
4.0
 40
4.0
 40
4.0
 40
5.0
 40
5.0
 40
5.0
 40
5.0
 10
449.1081596099451
 20
3.80338541571582
 30
0.0
 10
449.1081596099451
 20
21.83914930009577
 30
0.0
 10
463.7925346062741
 20
36.45737846310788
 30
0.0
 10
481.8999564767472
 20
36.45737846310788
 30
0.0
 10
500.0128904999967
 20
36.45737846310788
 30
0.0
 10
514.6917533435493
 20
21.83914930009577
 30
0.0
 10
514.6917533435493
 20
3.80338541571582
 30
0.0
 10
514.6917533435493
 20
-14.23237846866413
 30
0.0
 10
500.0128904999967
 20
-28.85060763167624
 30
0.0
 10
481.8999564767472
 20
-28.85060763167624
 30
0.0
 10
463.7925346062741
 20
-28.85060763167624
 30
0.0
 10
449.1081596099451
 20
-14.23237846866413
 30
0.0
 10
449.1081596099451
 20
3.80338541571582
 30
0.0
 10
449.1081596099451
 20
3.80338541571582
 30
0.0
 10
449.1081596099451
 20
3.80338541571582
 30
0.0
 10
449.1081596099451
 20
3.80338541571582
 30
0.0
  0
SPLINE
  5
2EC1
330
2EAE
100
AcDbEntity
  8
0
 62
   250
420
  1842203
370
     9
100
AcDbSpline
210
0.0
220
0.0
230
1.0
 70
    11
 71
     3
 72
    20
 73
    16
 74
     0
 42
0.0000000001
 43
0.0000000001
 40
0.0
 40
0.0
 40
0.0
 40
0.0
 40
1.0
 40
1.0
 40
1.0
 40
2.0
 40
2.0
 40
2.0
 40
3.0
 40
3.0
 40
3.0
 40
4.0
 40
4.0
 40
4.0
 40
5.0
 40
5.0
 40
5.0
 40
5.0
 10
439.660329751196
 20
3.80889756849222
 30
0.0
 10
439.660329751196
 20
27.03159721546433
 30
0.0
 10
458.5670137742471
 20
45.86111109964583
 30
0.0
 10
481.8944443239708
 20
45.86111109964583
 30
0.0
 10
505.2108505681418
 20
45.86111109964583
 30
0.0
 10
524.1175345911929
 20
27.03159721546433
 30
0.0
 10
524.1175345911929
 20
3.80889756849222
 30
0.0
 10
524.1175345911929
 20
-19.41380207847988
 30
0.0
 10
505.2108505681418
 20
-38.24331596266139
 30
0.0
 10
481.8944443239708
 20
-38.24331596266139
 30
0.0
 10
458.5670137742471
 20
-38.24331596266139
 30
0.0
 10
439.660329751196
 20
-19.41380207847988
 30
0.0
 10
439.660329751196
 20
3.80889756849222
 30
0.0
 10
439.660329751196
 20
3.80889756849222
 30
0.0
 10
439.660329751196
 20
3.80889756849222
 30
0.0
 10
439.660329751196
 20
3.80889756849222
 30
0.0
  0
SPLINE
  5
2EC2
330
2EAE
100
AcDbEntity
  8
0
 62
   250
420
  1842203
370
     9
100
AcDbSpline
210
0.0
220
0.0
230
1.0
 70
     8
 71
     3
 72
     8
 73
     4
 74
     0
 42
0.0000000001
 43
0.0000000001
 40
0.0
 40
0.0
 40
0.0
 40
0.0
 40
1.0
 40
1.0
 40
1.0
 40
1.0
 10
-764.469444253327
 20
156.1978732248394
 30
0.0
 10
-764.469444253327
 20
302.3526040910785
 30
0.0
 10
-678.4853730942676
 20
480.3289929354733
 30
0.0
 10
-403.7872394823865
 20
511.9467012609022
 30
0.0
  0
SPLINE
  5
2EC3
330
2EAE
100
AcDbEntity
  8
0
 62
   250
420
  1842203
370
     9
100
AcDbSpline
210
0.0
220
0.0
230
1.0
 70
     8
 71
     3
 72
     8
 73
     4
 74
     0
 42
0.0000000001
 43
0.0000000001
 40
0.0
 40
0.0
 40
0.0
 40
0.0
 40
1.0
 40
1.0
 40
1.0
 40
1.0
 10
-676.7214842058197
 20
155.889192669361
 30
0.0
 10
-676.7214842058197
 20
302.0494356883765
 30
0.0
 10
-641.2177081730288
 20
421.9663193389528
 30
0.0
 10
-430.2455728091053
 20
488.2334200168306
 30
0.0
  0
SPLINE
  5
2EC4
330
2EAE
100
AcDbEntity
  8
0
 62
   250
420
  1842203
370
     9
100
AcDbSpline
210
0.0
220
0.0
230
1.0
 70
     8
 71
     3
 72
     8
 73
     4
 74
     0
 42
0.0000000001
 43
0.0000000001
 40
0.0
 40
0.0
 40
0.0
 40
0.0
 40
1.0
 40
1.0
 40
1.0
 40
1.0
 10
-764.4749564061035
 20
155.889192669361
 30
0.0
 10
-764.4749564061035
 20
9.73446180312194
 30
0.0
 10
-678.4908852470439
 20
-168.2419270412728
 30
0.0
 10
-403.7982637879393
 20
-199.8596353667018
 30
0.0
  0
SPLINE
  5
2EC5
330
2EAE
100
AcDbEntity
  8
0
 62
   250
420
  1842203
370
     9
100
AcDbSpline
210
0.0
220
0.0
230
1.0
 70
     8
 71
     3
 72
     8
 73
     4
 74
     0
 42
0.0000000001
 43
0.0000000001
 40
0.0
 40
0.0
 40
0.0
 40
0.0
 40
1.0
 40
1.0
 40
1.0
 40
1.0
 10
-676.726996358596
 20
156.1978732248394
 30
0.0
 10
-676.726996358596
 20
10.03763020582392
 30
0.0
 10
-641.2232203258053
 20
-109.8792534447524
 30
0.0
 10
-430.2510849618816
 20
-176.1463541226301
 30
0.0
  0
SPLINE
  5
2EC6
330
2EAE
100
AcDbEntity
  8
0
 62
   250
420
  1842203
370
     9
100
AcDbSpline
210
0.0
220
0.0
230
1.0
 70
    11
 71
     3
 72
    20
 73
    16
 74
     0
 42
0.0000000001
 43
0.0000000001
 40
0.0
 40
0.0
 40
0.0
 40
0.0
 40
1.0
 40
1.0
 40
1.0
 40
2.0
 40
2.0
 40
2.0
 40
3.0
 40
3.0
 40
3.0
 40
4.0
 40
4.0
 40
4.0
 40
5.0
 40
5.0
 40
5.0
 40
5.0
 10
40.62456596206608
 20
-201.7447916162305
 30
0.0
 10
40.62456596206608
 20
-201.2431857135781
 30
0.0
 10
73.30611977334014
 20
-200.8407985609009
 30
0.0
 10
113.6164930271514
 20
-200.8407985609009
 30
0.0
 10
153.9323784337391
 20
-200.8407985609009
 30
0.0
 10
186.6139322450132
 20
-201.2431857135781
 30
0.0
 10
186.6139322450132
 20
-201.7447916162305
 30
0.0
 10
186.6139322450132
 20
-202.2408853661064
 30
0.0
 10
153.9323784337391
 20
-202.6432725187837
 30
0.0
 10
113.6164930271514
 20
-202.6432725187837
 30
0.0
 10
73.30611977334014
 20
-202.6432725187837
 30
0.0
 10
40.62456596206608
 20
-202.2408853661064
 30
0.0
 10
40.62456596206608
 20
-201.7447916162305
 30
0.0
 10
40.62456596206608
 20
-201.7447916162305
 30
0.0
 10
40.62456596206608
 20
-201.7447916162305
 30
0.0
 10
40.62456596206608
 20
-201.7447916162305
 30
0.0
  0
SPLINE
  5
2EC7
330
2EAE
100
AcDbEntity
  8
0
 62
   250
420
  1842203
370
     9
100
AcDbSpline
210
0.0
220
0.0
230
1.0
 70
     8
 71
     3
 72
    11
 73
     7
 74
     0
 42
0.0000000001
 43
0.0000000001
 40
0.0
 40
0.0
 40
0.0
 40
0.0
 40
1.0
 40
1.0
 40
1.0
 40
2.0
 40
2.0
 40
2.0
 40
2.0
 10
112.6904513607163
 20
600.5600692943044
 30
0.0
 10
-305.5055554791792
 20
600.5600692943044
 30
0.0
 10
-592.5068140879845
 20
600.5600692943044
 30
0.0
 10
-754.7956161307455
 20
439.3296005846121
 30
0.0
 10
-824.5298609049786
 20
370.0528644908201
 30
0.0
 10
-864.2173608950567
 20
273.4248263205327
 30
0.0
 10
-864.2173608950567
 20
156.1978732248394
 30
0.0
  0
SPLINE
  5
2EC8
330
2EAE
100
AcDbEntity
  8
0
 62
   250
420
  1842203
370
     9
100
AcDbSpline
210
0.0
220
0.0
230
1.0
 70
     8
 71
     3
 72
    11
 73
     7
 74
     0
 42
0.0000000001
 43
0.0000000001
 40
0.0
 40
0.0
 40
0.0
 40
0.0
 40
1.0
 40
1.0
 40
1.0
 40
2.0
 40
2.0
 40
2.0
 40
2.0
 10
112.6904513607163
 20
588.4608939501069
 30
0.0
 10
-264.8809895171131
 20
588.4608939501069
 30
0.0
 10
-582.8991317987197
 20
594.3974824902896
 30
0.0
 10
-742.5476126615854
 20
430.0967446841425
 30
0.0
 10
-808.6658852145003
 20
362.0602429650405
 30
0.0
 10
-848.5352862461995
 20
273.3752169455451
 30
0.0
 10
-848.5352862461995
 20
156.1482638498518
 30
0.0
  0
SPLINE
  5
2EC9
330
2EAE
100
AcDbEntity
  8
0
 62
   250
420
  1842203
370
     9
100
AcDbSpline
210
0.0
220
0.0
230
1.0
 70
     8
 71
     3
 72
    11
 73
     7
 74
     0
 42
0.0000000001
 43
0.0000000001
 40
0.0
 40
0.0
 40
0.0
 40
0.0
 40
1.0
 40
1.0
 40
1.0
 40
2.0
 40
2.0
 40
2.0
 40
2.0
 10
112.6904513607163
 20
541.4367186146408
 30
0.0
 10
-67.79396699694039
 20
541.4367186146408
 30
0.0
 10
-461.8963540511925
 20
558.7614147908652
 30
0.0
 10
-641.3610241452153
 20
450.4310762762811
 30
0.0
 10
-753.009678631192
 20
383.0339842792415
 30
0.0
 10
-798.3416230643036
 20
276.3462672920245
 30
0.0
 10
-798.3416230643036
 20
156.1482638498518
 30
0.0
  0
SPLINE
  5
2ECA
330
2EAE
100
AcDbEntity
  8
0
 62
   250
420
  1842203
370
     9
100
AcDbSpline
210
0.0
220
0.0
230
1.0
 70
     8
 71
     3
 72
    14
 73
    10
 74
     0
 42
0.0000000001
 43
0.0000000001
 40
0.0
 40
0.0
 40
0.0
 40
0.0
 40
1.0
 40
1.0
 40
1.0
 40
2.0
 40
2.0
 40
2.0
 40
3.0
 40
3.0
 40
3.0
 40
3.0
 10
112.6904513607163
 20
444.9850693331982
 30
0.0
 10
49.08572047383969
 20
444.9850693331982
 30
0.0
 10
-116.3339843459165
 20
442.9676214170359
 30
0.0
 10
-236.6422308436172
 20
436.1821613492877
 30
0.0
 10
-384.5057290705403
 20
427.8477863513713
 30
0.0
 10
-539.7720484761681
 20
410.1427516335753
 30
0.0
 10
-619.2683158174052
 20
353.8581596337577
 30
0.0
 10
-689.8900171886387
 20
303.8519096462593
 30
0.0
 10
-715.2459199600774
 20
237.4855902184064
 30
0.0
 10
-715.2459199600774
 20
155.9222655860194
 30
0.0
  0
SPLINE
  5
2ECB
330
2EAE
100
AcDbEntity
  8
0
 62
   250
420
  1842203
370
     9
100
AcDbSpline
210
0.0
220
0.0
230
1.0
 70
     8
 71
     3
 72
    14
 73
    10
 74
     0
 42
0.0000000001
 43
0.0000000001
 40
0.0
 40
0.0
 40
0.0
 40
0.0
 40
1.0
 40
1.0
 40
1.0
 40
2.0
 40
2.0
 40
2.0
 40
3.0
 40
3.0
 40
3.0
 40
3.0
 10
112.8778645551139
 20
415.7045137849627
 30
0.0
 10
46.4453992939442
 20
415.9801214237827
 30
0.0
 10
-105.1939235848126
 20
416.9282117013235
 30
0.0
 10
-210.6524305028925
 20
410.9805988555882
 30
0.0
 10
-358.5214408825919
 20
402.6407117048954
 30
0.0
 10
-517.1060762596123
 20
393.8212672626558
 30
0.0
 10
-601.1167967247208
 20
334.2238714442218
 30
0.0
 10
-665.6585935835853
 20
288.4344183306692
 30
0.0
 10
-688.4789060778802
 20
232.2214843169446
 30
0.0
 10
-688.4789060778802
 20
155.9222655860194
 30
0.0
  0
SPLINE
  5
2ECC
330
2EAE
100
AcDbEntity
  8
0
 62
   250
420
  1842203
370
     9
100
AcDbSpline
210
0.0
220
0.0
230
1.0
 70
     8
 71
     3
 72
    11
 73
     7
 74
     0
 42
0.0000000001
 43
0.0000000001
 40
0.0
 40
0.0
 40
0.0
 40
0.0
 40
1.0
 40
1.0
 40
1.0
 40
2.0
 40
2.0
 40
2.0
 40
2.0
 10
112.6794270551635
 20
-285.0609808315125
 30
0.0
 10
-305.5055554791792
 20
-285.0609808315125
 30
0.0
 10
-592.5068140879845
 20
-285.0609808315125
 30
0.0
 10
-754.7901039779691
 20
-124.7345051771497
 30
0.0
 10
-824.5243487522023
 20
-55.84361977770576
 30
0.0
 10
-864.2063365895038
 20
40.2442274204945
 30
0.0
 10
-864.2063365895038
 20
156.8152343357962
 30
0.0
  0
SPLINE
  5
2ECD
330
2EAE
100
AcDbEntity
  8
0
 62
   250
420
  1842203
370
     9
100
AcDbSpline
210
0.0
220
0.0
230
1.0
 70
     8
 71
     3
 72
    11
 73
     7
 74
     0
 42
0.0000000001
 43
0.0000000001
 40
0.0
 40
0.0
 40
0.0
 40
0.0
 40
1.0
 40
1.0
 40
1.0
 40
2.0
 40
2.0
 40
2.0
 40
2.0
 10
112.6794270551635
 20
-273.0224391678555
 30
0.0
 10
-264.8809895171131
 20
-273.0224391678555
 30
0.0
 10
-582.8936196459433
 20
-278.931466944156
 30
0.0
 10
-742.5476126615854
 20
-115.5567708044441
 30
0.0
 10
-808.6603730617238
 20
-47.90060762691374
 30
0.0
 10
-848.5297740934232
 20
40.29383679548209
 30
0.0
 10
-848.5297740934232
 20
156.8648437107838
 30
0.0
  0
SPLINE
  5
2ECE
330
2EAE
100
AcDbEntity
  8
0
 62
   250
420
  1842203
370
     9
100
AcDbSpline
210
0.0
220
0.0
230
1.0
 70
     8
 71
     3
 72
    11
 73
     7
 74
     0
 42
0.0000000001
 43
0.0000000001
 40
0.0
 40
0.0
 40
0.0
 40
0.0
 40
1.0
 40
1.0
 40
1.0
 40
2.0
 40
2.0
 40
2.0
 40
2.0
 10
112.6794270551635
 20
-226.2683593184329
 30
0.0
 10
-67.80499130249321
 20
-226.2683593184329
 30
0.0
 10
-461.8908418984162
 20
-243.4993488974585
 30
0.0
 10
-641.3610241452153
 20
-135.769835035502
 30
0.0
 10
-753.0041664784156
 20
-68.75308158003395
 30
0.0
 10
-798.3361109115271
 20
37.33932290733184
 30
0.0
 10
-798.3361109115271
 20
156.8648437107838
 30
0.0
  0
SPLINE
  5
2ECF
330
2EAE
100
AcDbEntity
  8
0
 62
   250
420
  1842203
370
     9
100
AcDbSpline
210
0.0
220
0.0
230
1.0
 70
     8
 71
     3
 72
    14
 73
    10
 74
     0
 42
0.0000000001
 43
0.0000000001
 40
0.0
 40
0.0
 40
0.0
 40
0.0
 40
1.0
 40
1.0
 40
1.0
 40
2.0
 40
2.0
 40
2.0
 40
3.0
 40
3.0
 40
3.0
 40
3.0
 10
112.6794270551635
 20
-131.9719617725625
 30
0.0
 10
49.08020832106328
 20
-131.9719617725625
 30
0.0
 10
-116.3394964986929
 20
-129.9545138564002
 30
0.0
 10
-236.6477429963936
 20
-123.1690537886522
 30
0.0
 10
-384.516753376093
 20
-114.8291666379593
 30
0.0
 10
-539.7830727817209
 20
-97.13515622571621
 30
0.0
 10
-619.2793401229579
 20
-40.84505207312207
 30
0.0
 10
-689.8955293414149
 20
9.161197914376367
 30
0.0
 10
-715.2514321128538
 20
75.52200518945284
 30
0.0
 10
-715.2514321128538
 20
157.0908419746162
 30
0.0
  0
SPLINE
  5
2ED0
330
2EAE
100
AcDbEntity
  8
0
 62
   250
420
  1842203
370
     9
100
AcDbSpline
210
0.0
220
0.0
230
1.0
 70
     8
 71
     3
 72
    14
 73
    10
 74
     0
 42
0.0000000001
 43
0.0000000001
 40
0.0
 40
0.0
 40
0.0
 40
0.0
 40
1.0
 40
1.0
 40
1.0
 40
2.0
 40
2.0
 40
2.0
 40
3.0
 40
3.0
 40
3.0
 40
3.0
 10
112.8668402495611
 20
-102.7410155993147
 30
0.0
 10
46.43988714116781
 20
-103.0221353909111
 30
0.0
 10
-105.199435737589
 20
-103.9151041406879
 30
0.0
 10
-210.6634548084453
 20
-97.96749129495259
 30
0.0
 10
-358.5324651881447
 20
-89.62760414425977
 30
0.0
 10
-517.1171005651651
 20
-80.80815970202019
 30
0.0
 10
-601.1223088774971
 20
-21.2107638835862
 30
0.0
 10
-665.6641057363617
 20
24.57868922996644
 30
0.0
 10
-688.4899303834331
 20
80.79162324369098
 30
0.0
 10
-688.4899303834331
 20
157.0908419746162
 30
0.0
  0
SPLINE
  5
2ED1
330
2EAE
100
AcDbEntity
  8
0
 62
   250
420
  1842203
370
     9
100
AcDbSpline
210
0.0
220
0.0
230
1.0
 70
     8
 71
     3
 72
    11
 73
     7
 74
     0
 42
0.0000000001
 43
0.0000000001
 40
0.0
 40
0.0
 40
0.0
 40
0.0
 40
1.0
 40
1.0
 40
1.0
 40
2.0
 40
2.0
 40
2.0
 40
2.0
 10
113.087326360617
 20
599.8765623500308
 30
0.0
 10
478.2894964082053
 20
598.9725692947013
 30
0.0
 10
732.8462237751217
 20
587.4025606170382
 30
0.0
 10
881.8397133212068
 20
438.9437498902641
 30
0.0
 10
951.2763018455144
 20
369.7662325464473
 30
0.0
 10
990.7874129467476
 20
273.2704860427935
 30
0.0
 10
990.7874129467476
 20
156.2033853776158
 30
0.0
  0
SPLINE
  5
2ED2
330
2EAE
100
AcDbEntity
  8
0
 62
   250
420
  1842203
370
     9
100
AcDbSpline
210
0.0
220
0.0
230
1.0
 70
     8
 71
     3
 72
    11
 73
     7
 74
     0
 42
0.0000000001
 43
0.0000000001
 40
0.0
 40
0.0
 40
0.0
 40
0.0
 40
1.0
 40
1.0
 40
1.0
 40
2.0
 40
2.0
 40
2.0
 40
2.0
 10
112.7896701106914
 20
587.8876300613614
 30
0.0
 10
446.8261283605157
 20
587.6450953391999
 30
0.0
 10
724.2197046800562
 20
579.8233505494886
 30
0.0
 10
869.6468313798105
 20
429.7274304481237
 30
0.0
 10
935.4729598355762
 20
361.7846353262205
 30
0.0
 10
975.1659719784308
 20
273.2208766678059
 30
0.0
 10
975.1659719784308
 20
156.1537760026282
 30
0.0
  0
SPLINE
  5
2ED3
330
2EAE
100
AcDbEntity
  8
0
 62
   250
420
  1842203
370
     9
100
AcDbSpline
210
0.0
220
0.0
230
1.0
 70
     8
 71
     3
 72
    11
 73
     7
 74
     0
 42
0.0000000001
 43
0.0000000001
 40
0.0
 40
0.0
 40
0.0
 40
0.0
 40
1.0
 40
1.0
 40
1.0
 40
2.0
 40
2.0
 40
2.0
 40
2.0
 10
112.6904513607163
 20
540.9020397953301
 30
0.0
 10
311.5523870748897
 20
542.5667099338028
 30
0.0
 10
617.3666231095473
 20
541.7674477812248
 30
0.0
 10
768.895702932776
 20
450.0342012763804
 30
0.0
 10
880.064800127206
 20
382.7308158765395
 30
0.0
 10
925.2038192131434
 20
276.186414861509
 30
0.0
 10
925.2038192131434
 20
156.1537760026282
 30
0.0
  0
SPLINE
  5
2ED4
330
2EAE
100
AcDbEntity
  8
0
 62
   250
420
  1842203
370
     9
100
AcDbSpline
210
0.0
220
0.0
230
1.0
 70
     8
 71
     3
 72
    14
 73
    10
 74
     0
 42
0.0000000001
 43
0.0000000001
 40
0.0
 40
0.0
 40
0.0
 40
0.0
 40
1.0
 40
1.0
 40
1.0
 40
2.0
 40
2.0
 40
2.0
 40
3.0
 40
3.0
 40
3.0
 40
3.0
 10
112.6904513607163
 20
444.9850693331982
 30
0.0
 10
188.9896700916414
 20
443.8605901668126
 30
0.0
 10
287.1721353448736
 20
440.6414929453951
 30
0.0
 10
366.1447481723527
 20
436.1876735020642
 30
0.0
 10
514.0137585520522
 20
427.8477863513713
 30
0.0
 10
669.2800779576799
 20
410.1537759391282
 30
0.0
 10
748.776345298917
 20
353.8636717865341
 30
0.0
 10
819.392534517374
 20
303.862933951812
 30
0.0
 10
844.748437288813
 20
237.4966145239592
 30
0.0
 10
844.748437288813
 20
155.9332898915722
 30
0.0
  0
SPLINE
  5
2ED5
330
2EAE
100
AcDbEntity
  8
0
 62
   250
420
  1842203
370
     9
100
AcDbSpline
210
0.0
220
0.0
230
1.0
 70
     8
 71
     3
 72
    14
 73
    10
 74
     0
 42
0.0000000001
 43
0.0000000001
 40
0.0
 40
0.0
 40
0.0
 40
0.0
 40
1.0
 40
1.0
 40
1.0
 40
2.0
 40
2.0
 40
2.0
 40
3.0
 40
3.0
 40
3.0
 40
3.0
 10
112.8778645551139
 20
415.7045137849627
 30
0.0
 10
184.1830728706209
 20
415.6714408683043
 30
0.0
 10
271.8263020153768
 20
414.8391057990679
 30
0.0
 10
340.1604599844043
 20
410.9861110083646
 30
0.0
 10
488.0349825168801
 20
402.6462238576717
 30
0.0
 10
646.6196178939006
 20
393.8267794154322
 30
0.0
 10
730.6303383590091
 20
334.2293835969982
 30
0.0
 10
795.1611109123208
 20
288.445442636222
 30
0.0
 10
817.9924477121685
 20
232.226996469721
 30
0.0
 10
817.9924477121685
 20
155.9332898915722
 30
0.0
  0
SPLINE
  5
2ED6
330
2EAE
100
AcDbEntity
  8
0
 62
   250
420
  1842203
370
     9
100
AcDbSpline
210
0.0
220
0.0
230
1.0
 70
     8
 71
     3
 72
    11
 73
     7
 74
     0
 42
0.0000000001
 43
0.0000000001
 40
0.0
 40
0.0
 40
0.0
 40
0.0
 40
1.0
 40
1.0
 40
1.0
 40
2.0
 40
2.0
 40
2.0
 40
2.0
 10
113.0818142078406
 20
-285.1326388176058
 30
0.0
 10
478.283984255429
 20
-284.2286457622762
 30
0.0
 10
732.8462237751217
 20
-272.7082464596007
 30
0.0
 10
881.8452254739831
 20
-124.8502603854541
 30
0.0
 10
951.2763018455144
 20
-55.94835068045735
 30
0.0
 10
990.7984372523005
 20
40.1615451288485
 30
0.0
 10
990.7984372523005
 20
156.7546006552558
 30
0.0
  0
SPLINE
  5
2ED7
330
2EAE
100
AcDbEntity
  8
0
 62
   250
420
  1842203
370
     9
100
AcDbSpline
210
0.0
220
0.0
230
1.0
 70
     8
 71
     3
 72
    11
 73
     7
 74
     0
 42
0.0000000001
 43
0.0000000001
 40
0.0
 40
0.0
 40
0.0
 40
0.0
 40
1.0
 40
1.0
 40
1.0
 40
2.0
 40
2.0
 40
2.0
 40
2.0
 10
112.784157957915
 20
-273.1878037511475
 30
0.0
 10
446.8261283605157
 20
-272.9452690289859
 30
0.0
 10
724.2197046800562
 20
-265.1621093087095
 30
0.0
 10
869.652343532587
 20
-115.6670138599721
 30
0.0
 10
935.4784719883527
 20
-47.99982637688893
 30
0.0
 10
975.1825084367599
 20
40.2111545038361
 30
0.0
 10
975.1825084367599
 20
156.8042100302434
 30
0.0
  0
SPLINE
  5
2ED8
330
2EAE
100
AcDbEntity
  8
0
 62
   250
420
  1842203
370
     9
100
AcDbSpline
210
0.0
220
0.0
230
1.0
 70
     8
 71
     3
 72
    11
 73
     7
 74
     0
 42
0.0000000001
 43
0.0000000001
 40
0.0
 40
0.0
 40
0.0
 40
0.0
 40
1.0
 40
1.0
 40
1.0
 40
2.0
 40
2.0
 40
2.0
 40
2.0
 10
112.6794270551635
 20
-226.3951388322901
 30
0.0
 10
311.5523870748897
 20
-228.04878466521
 30
0.0
 10
617.3666231095473
 20
-227.2550346654085
 30
0.0
 10
768.9012150855525
 20
-135.8911023965828
 30
0.0
 10
880.0703122799824
 20
-68.85781248278554
 30
0.0
 10
925.2038192131434
 20
37.25664061568584
 30
0.0
 10
925.2038192131434
 20
156.8042100302434
 30
0.0
  0
SPLINE
  5
2ED9
330
2EAE
100
AcDbEntity
  8
0
 62
   250
420
  1842203
370
     9
100
AcDbSpline
210
0.0
220
0.0
230
1.0
 70
     8
 71
     3
 72
    14
 73
    10
 74
     0
 42
0.0000000001
 43
0.0000000001
 40
0.0
 40
0.0
 40
0.0
 40
0.0
 40
1.0
 40
1.0
 40
1.0
 40
2.0
 40
2.0
 40
2.0
 40
3.0
 40
3.0
 40
3.0
 40
3.0
 10
112.6794270551635
 20
-132.0270833003265
 30
0.0
 10
188.9841579388651
 20
-130.902604133941
 30
0.0
 10
287.1611110393209
 20
-127.6835069125235
 30
0.0
 10
366.1392360195764
 20
-123.2296874691926
 30
0.0
 10
514.0082463992757
 20
-114.8898003184998
 30
0.0
 10
669.2745658049036
 20
-97.19578990625661
 30
0.0
 10
748.7708331461406
 20
-40.90568575366247
 30
0.0
 10
819.3870223645978
 20
9.09505208105957
 30
0.0
 10
844.7429251360365
 20
75.46137150891244
 30
0.0
 10
844.7429251360365
 20
157.0302082940758
 30
0.0
  0
SPLINE
  5
2EDA
330
2EAE
100
AcDbEntity
  8
0
 62
   250
420
  1842203
370
     9
100
AcDbSpline
210
0.0
220
0.0
230
1.0
 70
     8
 71
     3
 72
    14
 73
    10
 74
     0
 42
0.0000000001
 43
0.0000000001
 40
0.0
 40
0.0
 40
0.0
 40
0.0
 40
1.0
 40
1.0
 40
1.0
 40
2.0
 40
2.0
 40
2.0
 40
3.0
 40
3.0
 40
3.0
 40
3.0
 10
112.8668402495611
 20
-102.7410155993147
 30
0.0
 10
184.1720485650681
 20
-102.7134548354327
 30
0.0
 10
271.815277709824
 20
-101.8811197661964
 30
0.0
 10
340.154947831628
 20
-98.02812497549297
 30
0.0
 10
488.0239582113273
 20
-89.68823782480017
 30
0.0
 10
646.6085935883478
 20
-80.86879338256059
 30
0.0
 10
730.6248262062326
 20
-21.2713975641266
 30
0.0
 10
795.1555987595444
 20
24.51254339664965
 30
0.0
 10
817.9814234066158
 20
80.73098956315059
 30
0.0
 10
817.9814234066158
 20
157.0302082940758
 30
0.0
  0
SPLINE
  5
2EDB
330
2EAE
100
AcDbEntity
  8
0
 62
   250
420
  1842203
370
     9
100
AcDbSpline
210
0.0
220
0.0
230
1.0
 70
     8
 71
     3
 72
    11
 73
     7
 74
     0
 42
0.0000000001
 43
0.0000000001
 40
0.0
 40
0.0
 40
0.0
 40
0.0
 40
1.0
 40
1.0
 40
1.0
 40
2.0
 40
2.0
 40
2.0
 40
2.0
 10
113.2196180272506
 20
408.4284721201151
 30
0.0
 10
-178.4724825942708
 20
408.4284721201151
 30
0.0
 10
-328.2983072095921
 20
408.4284721201151
 30
0.0
 10
-421.3930554502073
 20
316.9598089485378
 30
0.0
 10
-461.3947481485402
 20
277.6581596528077
 30
0.0
 10
-484.1599391150711
 20
222.8398002915123
 30
0.0
 10
-484.1599391150711
 20
156.3356770442494
 30
0.0
  0
SPLINE
  5
2EDC
330
2EAE
100
AcDbEntity
  8
0
 62
   250
420
  1842203
370
     9
100
AcDbSpline
210
0.0
220
0.0
230
1.0
 70
     8
 71
     3
 72
    11
 73
     7
 74
     0
 42
0.0000000001
 43
0.0000000001
 40
0.0
 40
0.0
 40
0.0
 40
0.0
 40
1.0
 40
1.0
 40
1.0
 40
2.0
 40
2.0
 40
2.0
 40
2.0
 10
113.2141058744742
 20
-95.88940969824987
 30
0.0
 10
-178.4779947470472
 20
-95.88940969824987
 30
0.0
 10
-328.3038193623685
 20
-95.88940969824987
 30
0.0
 10
-421.3985676029836
 20
-4.426258679448991
 30
0.0
 10
-461.405772454093
 20
34.87539061628115
 30
0.0
 10
-484.1709634206239
 20
89.69374997757658
 30
0.0
 10
-484.1709634206239
 20
156.1978732248394
 30
0.0
  0
SPLINE
  5
2EDD
330
2EAE
100
AcDbEntity
  8
0
 62
   250
420
  1842203
370
     9
100
AcDbSpline
210
0.0
220
0.0
230
1.0
 70
     8
 71
     3
 72
    11
 73
     7
 74
     0
 42
0.0000000001
 43
0.0000000001
 40
0.0
 40
0.0
 40
0.0
 40
0.0
 40
1.0
 40
1.0
 40
1.0
 40
2.0
 40
2.0
 40
2.0
 40
2.0
 10
113.2196180272506
 20
408.4339842728915
 30
0.0
 10
393.479513790519
 20
408.3953992034567
 30
0.0
 10
539.4688800734662
 20
406.592925245574
 30
0.0
 10
630.6950085228818
 20
316.9708332540906
 30
0.0
 10
670.6911890684383
 20
277.6691839583605
 30
0.0
 10
693.4563800349692
 20
222.8508245970651
 30
0.0
 10
693.4563800349692
 20
156.3467013498022
 30
0.0
  0
SPLINE
  5
2EDE
330
2EAE
100
AcDbEntity
  8
0
 62
   250
420
  1842203
370
     9
100
AcDbSpline
210
0.0
220
0.0
230
1.0
 70
     8
 71
     3
 72
    11
 73
     7
 74
     0
 42
0.0000000001
 43
0.0000000001
 40
0.0
 40
0.0
 40
0.0
 40
0.0
 40
1.0
 40
1.0
 40
1.0
 40
2.0
 40
2.0
 40
2.0
 40
2.0
 10
113.2141058744742
 20
-95.88389754547348
 30
0.0
 10
393.4629773321899
 20
-95.84531247603868
 30
0.0
 10
539.4743922262425
 20
-94.04283851815597
 30
0.0
 10
630.7005206756582
 20
-4.415234373896191
 30
0.0
 10
670.6967012212147
 20
34.88641492183396
 30
0.0
 10
693.4618921877456
 20
89.69926213035297
 30
0.0
 10
693.4618921877456
 20
156.2033853776158
 30
0.0
  0
ENDBLK
  5
2EDF
330
2EAE
100
AcDbEntity
  8
0
100
AcDbBlockEnd
  0
ENDSEC
  0
SECTION
  2
ENTITIES
  0
CIRCLE
  5
2DC1
330
1F
100
AcDbEntity
  8
0
100
AcDbCircle
 10
-0.0060309296695742
 20
-0.0069784536371939
 30
0.0
 40
26.0
  0
CIRCLE
  5
2DC4
330
1F
100
AcDbEntity
  8
0
100
AcDbCircle
 10
-0.0060309296695742
 20
-0.0069784536371939
 30
0.0
 40
37.5
  0
LINE
  5
2DC5
330
1F
100
AcDbEntity
  8
0
  6
AM_DIN_G_W050
 62
     4
 48
2.0
100
AcDbLine
 10
-0.0060309296695742
 20
53.82121980795176
 30
0.0
 11
-0.0060309296695742
 21
-53.83517671522614
 31
0.0
  0
LINE
  5
2DC6
330
1F
100
AcDbEntity
  8
0
  6
AM_DIN_G_W050
 62
     4
 48
2.0
100
AcDbLine
 10
53.82216733191937
 20
-0.0069784536371939
 30
0.0
 11
-53.83422919125853
 21
-0.0069784536371939
 31
0.0
  0
ARC
  5
2DCF
330
1F
100
AcDbEntity
  8
0
100
AcDbCircle
 10
-438.6049483559737
 20
11.45153164955957
 30
0.0
 40
334.0994083357178
100
AcDbArc
 50
101.727911659522
 51
181.9512543664971
  0
ARC
  5
2DF0
330
1F
100
AcDbEntity
  8
0
100
AcDbCircle
 10
-496.6462076458697
 20
-0.0069784536371959
 30
0.0
 40
357.6856918744473
100
AcDbArc
 50
144.049126795096
 51
215.9508732049047
  0
ARC
  5
2DF1
330
1F
100
AcDbEntity
  8
0
100
AcDbCircle
 10
-503.3797796718838
 20
-1.063336689755447
 30
0.0
 40
352.8876652416609
100
AcDbArc
 50
101.391206170897
 51
143.2684035756281
  0
ARC
  5
2F5B
330
1F
100
AcDbEntity
  8
0
100
AcDbCircle
 10
-438.6049483559737
 20
-11.46548855683396
 30
0.0
 40
334.0994083357178
100
AcDbArc
 50
178.0487456335028
 51
258.272088340478
  0
SPLINE
  5
2FD3
330
1F
100
AcDbEntity
  8
0
  6
AM_DIN_F_W050
 62
     6
 48
4.0
100
AcDbSpline
210
0.0
220
0.0
230
1.0
 70
     8
 71
     3
 72
    11
 73
     7
 74
     0
 42
0.0000000001
 43
0.0000000001
 40
58.56736755853074
 40
58.56736755853074
 40
58.56736755853074
 40
58.56736755853074
 40
132.5173514920811
 40
268.6186495361069
 40
503.3450229103713
 40
920.7474731979329
 40
920.7474731979329
 40
920.7474731979329
 40
920.7474731979329
 10
743.2018620754048
 20
-64.28699277761253
 30
0.0
 10
738.7227624489609
 20
-88.87010495386244
 30
0.0
 10
719.6483907489282
 20
-155.6086661534126
 30
0.0
 10
592.8193789648791
 20
-254.8939349830687
 30
0.0
 10
327.7783663115781
 20
-285.8227781714597
 30
0.0
 10
111.1496414845004
 20
-290.2033142990632
 30
0.0
 10
-27.50603092966952
 20
-293.0071261333077
 30
0.0
  0
SPLINE
  5
2FE1
330
1F
100
AcDbEntity
  8
0
100
AcDbSpline
210
0.0
220
0.0
230
1.0
 70
    40
 71
     3
 72
    12
 73
     8
 74
     6
 42
0.0000000001
 43
0.0000000001
 44
0.00001
 40
0.0
 40
0.0
 40
0.0
 40
0.0
 40
53.2858719447903
 40
127.7952239687844
 40
237.0179897350009
 40
380.2178595208848
 40
727.5938359785241
 40
727.5938359785241
 40
727.5938359785241
 40
727.5938359785241
 10
-624.4114947165747
 20
0.2984441507320586
 30
0.0
 10
-623.440809502312
 20
18.09247410216341
 30
0.0
 10
-621.1128203030658
 20
60.76780172571286
 30
0.0
 10
-591.6796513409271
 20
136.1069753692637
 30
0.0
 10
-507.7341364373702
 20
214.4162314813887
 30
0.0
 10
-305.4428478006681
 20
250.2545606106031
 30
0.0
 10
-142.7257494605798
 20
250.7275611196838
 30
0.0
 10
-27.50603092966945
 20
251.0624920278502
 30
0.0
 11
-624.4114947165747
 21
0.2984441507320586
 31
0.0
 11
-619.1450927954291
 21
53.32343033386599
 31
0.0
 11
-591.9841783834616
 21
122.705908434185
 31
0.0
 11
-512.6539876662739
 21
197.7814264303762
 31
0.0
 11
-374.5375957047254
 21
235.5976263745533
 31
0.0
 11
-27.50603092966945
 21
251.0624920278502
 31
0.0
  0
SPLINE
  5
2FE2
330
1F
100
AcDbEntity
  8
0
100
AcDbSpline
210
0.0
220
0.0
230
1.0
 70
    40
 71
     3
 72
    12
 73
     8
 74
     6
 42
0.0000000001
 43
0.0000000001
 44
0.00001
 40
0.0
 40
0.0
 40
0.0
 40
0.0
 40
53.2858719447903
 40
127.7952239687844
 40
237.0179897350009
 40
380.2178595208848
 40
727.5938359785241
 40
727.5938359785241
 40
727.5938359785241
 40
727.5938359785241
 10
569.3994328572357
 20
0.298444150731918
 30
0.0
 10
568.4287476429729
 20
18.09247410216326
 30
0.0
 10
566.1007584437269
 20
60.7678017257127
 30
0.0
 10
536.6675894815881
 20
136.1069753692637
 30
0.0
 10
452.7220745780314
 20
214.4162314813885
 30
0.0
 10
250.4307859413291
 20
250.2545606106031
 30
0.0
 10
87.71368760124088
 20
250.7275611196838
 30
0.0
 10
-27.50603092966941
 20
251.0624920278502
 30
0.0
 11
569.3994328572357
 21
0.298444150731918
 31
0.0
 11
564.1330309360902
 21
53.32343033386585
 31
0.0
 11
536.9721165241227
 21
122.7059084341849
 31
0.0
 11
457.6419258069351
 21
197.7814264303761
 31
0.0
 11
319.5255338453866
 21
235.5976263745533
 31
0.0
 11
-27.50603092966941
 21
251.0624920278502
 31
0.0
  0
SPLINE
  5
2FE3
330
1F
100
AcDbEntity
  8
0
100
AcDbSpline
210
0.0
220
0.0
230
1.0
 70
    40
 71
     3
 72
    12
 73
     8
 74
     6
 42
0.0000000001
 43
0.0000000001
 44
0.00001
 40
0.0
 40
0.0
 40
0.0
 40
0.0
 40
53.28587194479029
 40
127.7952239687844
 40
237.0179897350009
 40
380.2178595208848
 40
727.5938359785241
 40
727.5938359785241
 40
727.5938359785241
 40
727.5938359785241
 10
-624.4114947165747
 20
-0.3124010580063988
 30
0.0
 10
-623.4408095023119
 20
-18.10643100943774
 30
0.0
 10
-621.1128203030657
 20
-60.78175863298721
 30
0.0
 10
-591.6796513409272
 20
-136.1209322765382
 30
0.0
 10
-507.7341364373703
 20
-214.430188388663
 30
0.0
 10
-305.4428478006681
 20
-250.2685175178776
 30
0.0
 10
-142.7257494605798
 20
-250.7415180269582
 30
0.0
 10
-27.50603092966947
 20
-251.0764489351246
 30
0.0
 11
-624.4114947165747
 21
-0.3124010580063988
 31
0.0
 11
-619.1450927954291
 21
-53.33738724114033
 31
0.0
 11
-591.9841783834616
 21
-122.7198653414594
 31
0.0
 11
-512.6539876662739
 21
-197.7953833376506
 31
0.0
 11
-374.5375957047254
 21
-235.6115832818277
 31
0.0
 11
-27.50603092966947
 21
-251.0764489351246
 31
0.0
  0
SPLINE
  5
2FE4
330
1F
100
AcDbEntity
  8
0
100
AcDbSpline
210
0.0
220
0.0
230
1.0
 70
    40
 71
     3
 72
    12
 73
     8
 74
     6
 42
0.0000000001
 43
0.0000000001
 44
0.00001
 40
0.0
 40
0.0
 40
0.0
 40
0.0
 40
53.28587194479029
 40
127.7952239687844
 40
237.0179897350009
 40
380.2178595208848
 40
727.5938359785241
 40
727.5938359785241
 40
727.5938359785241
 40
727.5938359785241
 10
569.3994328572357
 20
-0.3124010580063556
 30
0.0
 10
568.4287476429729
 20
-18.1064310094377
 30
0.0
 10
566.1007584437268
 20
-60.78175863298715
 30
0.0
 10
536.6675894815882
 20
-136.1209322765381
 30
0.0
 10
452.7220745780313
 20
-214.430188388663
 30
0.0
 10
250.4307859413292
 20
-250.2685175178775
 30
0.0
 10
87.7136876012409
 20
-250.7415180269582
 30
0.0
 10
-27.50603092966942
 20
-251.0764489351246
 30
0.0
 11
569.3994328572357
 21
-0.3124010580063556
 31
0.0
 11
564.1330309360902
 21
-53.33738724114028
 31
0.0
 11
536.9721165241227
 21
-122.7198653414593
 31
0.0
 11
457.6419258069351
 21
-197.7953833376505
 31
0.0
 11
319.5255338453866
 21
-235.6115832818277
 31
0.0
 11
-27.50603092966942
 21
-251.0764489351246
 31
0.0
  0
SPLINE
  5
2FED
330
1F
100
AcDbEntity
  8
0
  6
AM_DIN_F_W050
 62
     6
 48
4.0
100
AcDbSpline
210
0.0
220
0.0
230
1.0
 70
   264
 71
     3
 72
    30
 73
    26
 74
    24
 42
0.0000000001
 43
0.0000000001
 44
0.00001
 12
-0.1805655078150956
 22
-0.9615167526065802
 32
0.0
 13
-0.9965610334964189
 23
-0.0201518594271269
 33
0.0
 40
63.45522238008732
 40
63.45522238008732
 40
63.45522238008732
 40
63.45522238008732
 40
64.88198634412883
 40
97.32297951619324
 40
120.7549426022206
 40
128.6043472931741
 40
136.4867068039759
 40
144.3690663147776
 40
160.1337853363812
 40
190.6044184007545
 40
221.0750514651278
 40
251.545684529501
 40
268.3325237414893
 40
301.9062021654657
 40
354.5599281091052
 40
407.2136540527447
 40
459.8673799963842
 40
484.6189141239662
 40
500.7777560054528
 40
514.6894230747011
 40
528.6010901439493
 40
556.4244242824457
 40
612.0710925594387
 40
723.3644291134246
 40
920.7474731979329
 40
920.7474731979329
 40
920.7474731979329
 40
920.7474731979329
 10
717.7499735328344
 20
-64.28699277761251
 30
0.0
 10
717.664098746268
 20
-64.74427859542628
 30
0.0
 10
715.6075785119186
 20
-75.55477737376422
 30
0.0
 10
711.3865923054897
 20
-91.79961051383157
 30
0.0
 10
704.8078829610217
 20
-108.7427813489004
 30
0.0
 10
699.9911320254569
 20
-118.4055331679226
 30
0.0
 10
696.8404291661279
 20
-124.034262859474
 30
0.0
 10
692.2063432760406
 20
-131.4381215627667
 30
0.0
 10
683.2119637586917
 20
-143.8187366487541
 30
0.0
 10
667.7589921242851
 20
-160.3947666972827
 30
0.0
 10
645.8870947825793
 20
-178.296641269018
 30
0.0
 10
625.1608305114529
 20
-191.6920709978946
 30
0.0
 10
602.5886639879882
 20
-203.9949464755979
 30
0.0
 10
573.0215885460426
 20
-217.3542252783239
 30
0.0
 10
531.4084721530011
 20
-230.697003491327
 30
0.0
 10
481.9210283483311
 20
-240.8316756612075
 30
0.0
 10
439.7882466445905
 20
-246.2095391340664
 30
0.0
 10
408.9830118717729
 20
-249.1727920454906
 30
0.0
 10
390.809566107489
 20
-250.7291101065614
 30
0.0
 10
376.1848896795591
 20
-251.9120057563163
 30
0.0
 10
357.6999359599972
 20
-253.3344938017605
 30
0.0
 10
325.3576355654214
 20
-255.6355122603273
 30
0.0
 10
260.7200822452353
 20
-259.5375285396434
 30
0.0
 10
139.9120645715699
 20
-264.6151625035766
 30
0.0
 10
37.55662086209851
 20
-266.6863574265452
 30
0.0
 10
-28.01146260707708
 20
-268.0122358791083
 30
0.0
 11
717.7499735328344
 21
-64.28699277761251
 31
0.0
 11
717.4900486805205
 21
-65.65297194063247
 31
0.0
 11
710.1658666464969
 21
-94.02191752961625
 31
0.0
 11
702.8524821885212
 21
-112.5496752400666
 31
0.0
 11
699.9543189990934
 21
-118.3646439776048
 31
0.0
 11
696.7870184031975
 21
-124.0203143813622
 31
0.0
 11
693.3143550863111
 21
-129.5712562797102
 31
0.0
 11
685.4665765452631
 21
-140.3863115807373
 31
0.0
 11
667.1829398407839
 21
-160.0860870410672
 31
0.0
 11
645.4699011159053
 21
-177.9386044950783
 31
0.0
 11
621.2644853669957
 21
-193.6547576747308
 31
0.0
 11
607.2329336198137
 21
-201.3138939611391
 31
0.0
 11
578.3330638006705
 21
-214.4404859721344
 31
0.0
 11
531.0489137636603
 21
-229.8568050734347
 31
0.0
 11
481.6403133330072
 21
-240.2311641138707
 31
0.0
 11
430.5597981793233
 21
-247.0166217580288
 31
0.0
 11
406.1201398234414
 21
-249.3957770735723
 31
0.0
 11
390.0558182097224
 21
-250.7799343986033
 31
0.0
 11
376.1871804644329
 21
-251.902740405775
 31
0.0
 11
362.3214776572523
 21
-252.9699034274966
 31
0.0
 11
334.6005331766796
 21
-254.944744098936
 31
0.0
 11
279.1931769901181
 21
-258.3095652591229
 31
0.0
 11
168.4591038029592
 21
-263.1253084886672
 31
0.0
 11
-28.01146260707708
 21
-268.0122358791083
 31
0.0
1001
ACAD_SPLINE_DATA
1070
   100
1070
     0
1070
   101
1070
     0
1070
   102
1070
    15
  0
ARC
  5
2FF5
330
1F
100
AcDbEntity
  8
0
100
AcDbCircle
 10
-503.3797796718838
 20
1.049379782481054
 30
0.0
 40
352.8876652416609
100
AcDbArc
 50
216.7315964243719
 51
258.6087938291028
  0
ARC
  5
300C
330
1F
100
AcDbEntity
  8
0
  6
AM_DIN_F_W050
 62
     6
 48
4.0
100
AcDbCircle
 10
332.7343938706657
 20
-4.746071943700104
 30
0.0
 40
414.7633827957316
100
AcDbArc
 50
351.7464495554013
 51
359.9970454046983
  0
ARC
  5
300D
330
1F
100
AcDbEntity
  8
0
  6
AM_DIN_F_W050
 62
     6
 48
4.0
100
AcDbCircle
 10
331.8855945167915
 20
-4.726241452366492
 30
0.0
 40
390.4363076697256
100
AcDbArc
 50
351.2253138214037
 51
359.993951224928
  0
ELLIPSE
  5
310F
330
1F
100
AcDbEntity
  8
0
100
AcDbEllipse
 10
-0.006030929669553
 20
354.286747243541
 30
0.0
 11
30.0
 21
0.0
 31
0.0
210
0.0
220
0.0
230
1.0
 40
0.1666666666666666
 41
0.0
 42
6.283185307179584
  0
CIRCLE
  5
3164
330
1F
100
AcDbEntity
  8
0
  6
AM_DIN_F_W050
 62
     6
 48
4.0
100
AcDbCircle
 10
-365.0060309296695
 20
152.4282629381152
 30
0.0
 40
32.5
  0
CIRCLE
  5
3165
330
1F
100
AcDbEntity
  8
0
  6
AM_DIN_F_W050
 62
     6
 48
4.0
100
AcDbCircle
 10
-365.0060309296695
 20
152.4930215463628
 30
0.0
 40
42.5
  0
CIRCLE
  5
3166
330
1F
100
AcDbEntity
  8
0
  6
AM_DIN_F_W050
 62
     6
 48
4.0
100
AcDbCircle
 10
-365.0060309296695
 20
-152.4422198453894
 30
0.0
 40
32.5
  0
CIRCLE
  5
3167
330
1F
100
AcDbEntity
  8
0
  6
AM_DIN_F_W050
 62
     6
 48
4.0
100
AcDbCircle
 10
-365.0060309296695
 20
-152.5069784536372
 30
0.0
 40
42.5
  0
CIRCLE
  5
3168
330
1F
100
AcDbEntity
  8
0
  6
AM_DIN_F_W050
 62
     6
 48
4.0
100
AcDbCircle
 10
364.9939690703304
 20
152.4282629381152
 30
0.0
 40
32.5
  0
CIRCLE
  5
3169
330
1F
100
AcDbEntity
  8
0
  6
AM_DIN_F_W050
 62
     6
 48
4.0
100
AcDbCircle
 10
364.9939690703304
 20
152.4930215463628
 30
0.0
 40
42.5
  0
CIRCLE
  5
316A
330
1F
100
AcDbEntity
  8
0
  6
AM_DIN_F_W050
 62
     6
 48
4.0
100
AcDbCircle
 10
364.9939690703304
 20
-152.5138594577327
 30
0.0
 40
32.5
  0
CIRCLE
  5
316B
330
1F
100
AcDbEntity
  8
0
  6
AM_DIN_F_W050
 62
     6
 48
4.0
100
AcDbCircle
 10
364.9939690703304
 20
-152.5786180659802
 30
0.0
 40
42.5
  0
LINE
  5
316C
330
1F
100
AcDbEntity
  8
0
  6
AM_DIN_G_W050
 62
     4
 48
2.0
100
AcDbLine
 10
-322.5060309296694
 20
152.4930215463628
 30
0.0
 11
-407.5060309296694
 21
152.4930215463628
 31
0.0
  0
LINE
  5
316D
330
1F
100
AcDbEntity
  8
0
  6
AM_DIN_G_W050
 62
     4
 48
2.0
100
AcDbLine
 10
-365.0060309296695
 20
109.9930215463628
 30
0.0
 11
-365.0060309296695
 21
194.9930215463628
 31
0.0
  0
LINE
  5
316E
330
1F
100
AcDbEntity
  8
0
  6
AM_DIN_G_W050
 62
     4
 48
2.0
100
AcDbLine
 10
407.4939690703303
 20
152.4930215463628
 30
0.0
 11
322.4939690703304
 21
152.4930215463628
 31
0.0
  0
LINE
  5
316F
330
1F
100
AcDbEntity
  8
0
  6
AM_DIN_G_W050
 62
     4
 48
2.0
100
AcDbLine
 10
364.9939690703304
 20
109.9930215463628
 30
0.0
 11
364.9939690703304
 21
194.9930215463628
 31
0.0
  0
LINE
  5
3170
330
1F
100
AcDbEntity
  8
0
  6
AM_DIN_G_W050
 62
     4
 48
2.0
100
AcDbLine
 10
407.4939690703303
 20
-152.5138594577327
 30
0.0
 11
322.4939690703304
 21
-152.5138594577327
 31
0.0
  0
LINE
  5
3171
330
1F
100
AcDbEntity
  8
0
  6
AM_DIN_G_W050
 62
     4
 48
2.0
100
AcDbLine
 10
364.9939690703304
 20
-195.0138594577327
 30
0.0
 11
364.9939690703304
 21
-110.0138594577327
 31
0.0
  0
LINE
  5
3172
330
1F
100
AcDbEntity
  8
0
  6
AM_DIN_G_W050
 62
     4
 48
2.0
100
AcDbLine
 10
-322.5060309296694
 20
-152.4422198453894
 30
0.0
 11
-407.5060309296694
 21
-152.4422198453894
 31
0.0
  0
LINE
  5
3173
330
1F
100
AcDbEntity
  8
0
  6
AM_DIN_G_W050
 62
     4
 48
2.0
100
AcDbLine
 10
-365.0060309296695
 20
-194.9422198453894
 30
0.0
 11
-365.0060309296695
 21
-109.9422198453894
 31
0.0
  0
SPLINE
  5
3185
330
1F
100
AcDbEntity
  8
0
100
AcDbSpline
210
0.0
220
0.0
230
1.0
 70
   264
 71
     3
 72
    29
 73
    25
 74
    23
 42
0.0000000001
 43
0.0000000001
 44
0.00001
 12
-0.0132198694139997
 22
-1.016998751316376
 32
0.0
 13
-0.9974829056640198
 23
0.0022950189769069
 33
0.0
 40
96.05634165082257
 40
96.05634165082257
 40
96.05634165082257
 40
96.05634165082257
 40
164.6037958407321
 40
219.6963896016647
 40
245.5998072767606
 40
263.1874291558888
 40
280.7750510350171
 40
315.9502947932736
 40
385.6562548832609
 40
417.577381146644
 40
440.8780786123607
 40
487.479473543794
 40
534.0808684752273
 40
622.4412091904184
 40
660.3473306807982
 40
698.2534521711779
 40
774.0656951519373
 40
821.7530397899245
 40
860.5747819478363
 40
889.3506546039054
 40
918.1265272599743
 40
975.6782725721125
 40
1090.781763196388
 40
1263.049641105379
 40
1263.049641105379
 40
1263.049641105379
 40
1263.049641105379
 10
884.9952361960937
 20
0.1879886392096081
 30
0.0
 10
884.6931733984094
 20
-23.04956979980859
 30
0.0
 10
882.5493226328365
 20
-64.24538201158738
 30
0.0
 10
874.1407604081523
 20
-111.7518182285001
 30
0.0
 10
865.3061981513463
 20
-141.8732328303716
 30
0.0
 10
858.6199252811505
 20
-160.1026926071228
 30
0.0
 10
849.6832197986201
 20
-180.7567897585009
 30
0.0
 10
831.0036023502487
 20
-215.813767915271
 30
0.0
 10
803.9250483094212
 20
-252.2762362441133
 30
0.0
 10
775.0045168030961
 20
-282.0714933031471
 30
0.0
 10
749.8637615152524
 20
-304.5757000717425
 30
0.0
 10
719.0703921639235
 20
-327.545531551783
 30
0.0
 10
667.45284549734
 20
-357.9942028329693
 30
0.0
 10
614.2869931383034
 20
-380.0748236097336
 30
0.0
 10
561.9430029131949
 20
-395.7110072212766
 30
0.0
 10
512.9535274911007
 20
-407.4083922153912
 30
0.0
 10
459.8556844831771
 20
-416.0668483563028
 30
0.0
 10
405.7480007583132
 20
-421.885197215693
 30
0.0
 10
367.0726502812142
 20
-424.9757505759052
 30
0.0
 10
334.6317188457728
 20
-427.1039491236654
 30
0.0
 10
295.8825090383811
 20
-429.2801979181466
 30
0.0
 10
228.0588494532346
 20
-432.1710599058039
 30
0.0
 10
112.0219674353064
 20
-434.517490802849
 30
0.0
 10
15.84769393706356
 20
-434.2984291727452
 30
0.0
 10
-41.43039386601441
 20
-434.166643156441
 30
0.0
 11
884.9952361960937
 21
0.1879886392096081
 31
0.0
 11
880.8381139586666
 21
-68.13880096731733
 31
0.0
 11
871.2483934568222
 21
-120.5698034922666
 31
0.0
 11
864.2546531893952
 21
-144.3047777144594
 31
0.0
 11
858.4654943992362
 21
-160.0598650982076
 31
0.0
 11
851.7679347542806
 21
-175.5502562122945
 31
0.0
 11
835.7346641257489
 21
-205.6966529974911
 31
0.0
 11
794.8414603941046
 21
-261.0068306474672
 31
0.0
 11
772.724596371983
 21
-283.8047865776968
 31
0.0
 11
755.4816436921945
 21
-299.2406941623356
 31
0.0
 11
718.6047870025854
 21
-326.8591607874071
 31
0.0
 11
678.9504912845383
 21
-350.3479134738651
 31
0.0
 11
598.0720156181323
 21
-384.5104889803252
 31
0.0
 11
561.8622204368299
 21
-395.368046192561
 31
0.0
 11
525.1266775074704
 21
-404.1870765260632
 31
0.0
 11
450.4002324013407
 21
-416.7472221902107
 31
0.0
 11
402.7365337200571
 21
-421.965432212259
 31
0.0
 11
363.6770696133569
 21
-425.1397103016707
 31
0.0
 11
334.6312881794485
 21
-427.0582539893149
 31
0.0
 11
305.5692142320285
 21
-428.6924417479698
 31
0.0
 11
247.4427010243874
 21
-431.2002828154171
 31
0.0
 11
131.3332958933544
 21
-433.7798395080777
 31
0.0
 11
-41.43039386601441
 21
-434.166643156441
 31
0.0
1001
ACAD_SPLINE_DATA
1070
   100
1070
     0
1070
   101
1070
     0
1070
   102
1070
    15
  0
SPLINE
  5
3186
330
1F
100
AcDbEntity
  8
0
100
AcDbSpline
210
0.0
220
0.0
230
1.0
 70
   264
 71
     3
 72
    29
 73
    25
 74
    23
 42
0.0000000001
 43
0.0000000001
 44
0.00001
 12
0.0132198694140047
 22
-1.016998751316378
 32
0.0
 13
0.9974829056640219
 23
0.0022950189769075
 33
0.0
 40
96.05634165082257
 40
96.05634165082257
 40
96.05634165082257
 40
96.05634165082257
 40
164.6037958407321
 40
219.6963896017795
 40
245.5998072769158
 40
263.1874291611035
 40
280.7750510452912
 40
315.9502948136666
 40
385.6562549039799
 40
417.5773811533876
 40
440.8780786155708
 40
487.479473539937
 40
534.0808684643032
 40
622.4412091807668
 40
660.3473306681348
 40
698.2534521555029
 40
774.0656951302391
 40
821.753039774075
 40
860.5747819344845
 40
889.35065459351
 40
918.1265272525353
 40
975.6782725705859
 40
1090.781763206687
 40
1263.049641105379
 40
1263.049641105379
 40
1263.049641105379
 40
1263.049641105379
 10
-985.0060309296701
 20
-0.2019455464840462
 30
0.0
 10
-984.7039681319856
 20
-23.43950398550227
 30
0.0
 10
-982.5601173664139
 20
-64.6353161973202
 30
0.0
 10
-974.151555141705
 20
-112.1417524142776
 30
0.0
 10
-965.3169928844391
 20
-142.2631670177424
 30
0.0
 10
-958.6307200129432
 20
-160.4926267974638
 30
0.0
 10
-949.6940145274594
 20
-181.1467239546562
 30
0.0
 10
-931.0143970732102
 20
-216.203702115229
 30
0.0
 10
-903.9358430420367
 20
-252.6661704420815
 30
0.0
 10
-875.0153115160276
 20
-282.4614274954517
 30
0.0
 10
-849.8745562968405
 20
-304.965634259701
 30
0.0
 10
-819.0811864927367
 20
-327.9354657258882
 30
0.0
 10
-767.4636422950798
 20
-358.3841370617938
 30
0.0
 10
-714.2977762783135
 20
-380.4647575278062
 30
0.0
 10
-661.9538144765676
 20
-396.1009417860316
 30
0.0
 10
-612.9642307669752
 20
-407.7983243179906
 30
0.0
 10
-559.8670951499851
 20
-416.4567965435097
 30
0.0
 10
-505.7575446575358
 20
-422.275102959642
 30
0.0
 10
-467.0868012185534
 20
-425.3657610692745
 30
0.0
 10
-434.633478508799
 20
-427.493677881001
 30
0.0
 10
-395.9417498543902
 20
-429.6712336063715
 30
0.0
 10
-327.5030907668267
 20
-432.5481125489516
 30
0.0
 10
-217.4403218088995
 20
-435.0303749305264
 30
0.0
 10
-98.70848166566833
 20
-434.2984291727374
 30
0.0
 10
-41.43039386601441
 20
-434.166643156441
 30
0.0
 11
-985.0060309296701
 21
-0.2019455464840462
 31
0.0
 11
-980.8489086922428
 21
-68.52873515301105
 31
0.0
 11
-971.2591881903714
 21
-120.9597376780668
 31
0.0
 11
-964.2654479229246
 21
-144.6947119002935
 31
0.0
 11
-958.4762891309638
 21
-160.4497992885294
 31
0.0
 11
-951.7787294836791
 21
-175.9401904069641
 31
0.0
 11
-935.7454588490629
 21
-206.0865872002916
 31
0.0
 11
-894.852255113947
 21
-261.3967648485323
 31
0.0
 11
-872.735391100695
 21
-284.1947207680112
 31
0.0
 11
-855.4924384233379
 21
-299.6306283500805
 31
0.0
 11
-818.6155817393359
 21
-327.2490949709895
 31
0.0
 11
-778.9612860276938
 21
-350.7378476545152
 31
0.0
 11
-698.082810360843
 21
-384.9004231629785
 31
0.0
 11
-661.8730151825977
 21
-395.7579803749809
 31
0.0
 11
-625.1374722563326
 21
-404.5770107084971
 31
0.0
 11
-550.4110271565053
 21
-417.1371563731241
 31
0.0
 11
-502.7473284695398
 21
-422.3553663964849
 31
0.0
 11
-463.6878643603966
 21
-425.5296444864005
 31
0.0
 11
-434.6420829235226
 21
-427.4481881743686
 31
0.0
 11
-405.5800089731187
 21
-429.0823759332757
 31
0.0
 11
-347.4534957595056
 21
-431.5902170010566
 31
0.0
 11
-231.3440906165589
 21
-434.1697736938878
 31
0.0
 11
-41.43039386601441
 21
-434.166643156441
 31
0.0
1001
ACAD_SPLINE_DATA
1070
   100
1070
     0
1070
   101
1070
     0
1070
   102
1070
    15
  0
SPLINE
  5
3187
330
1F
100
AcDbEntity
  8
0
100
AcDbSpline
210
0.0
220
0.0
230
1.0
 70
   264
 71
     3
 72
    29
 73
    25
 74
    23
 42
0.0000000001
 43
0.0000000001
 44
0.00001
 12
0.0132198694140047
 22
1.01699875131638
 32
0.0
 13
0.9974829056640214
 23
-0.0022950189769065
 33
0.0
 40
96.05634165082257
 40
96.05634165082257
 40
96.05634165082257
 40
96.05634165082257
 40
164.6037958407322
 40
219.6963896016165
 40
245.5998072767384
 40
263.1874291594669
 40
280.7750510421954
 40
315.9502948076523
 40
385.6562548940201
 40
417.5773811516362
 40
440.8780786130241
 40
487.4794735358001
 40
534.0808684585762
 40
622.4412091684939
 40
660.3473306502304
 40
698.2534521319669
 40
774.0656950954399
 40
821.753039756602
 40
860.5747819202928
 40
889.3506545823646
 40
918.1265272444365
 40
975.67827256858
 40
1090.781763216867
 40
1263.049641105379
 40
1263.049641105379
 40
1263.049641105379
 40
1263.049641105379
 10
-985.0060309296701
 20
-0.5918797321777346
 30
0.0
 10
-984.7039681319856
 20
22.64567870684057
 30
0.0
 10
-982.5601173664168
 20
63.84149091860376
 30
0.0
 10
-974.1515551417252
 20
111.347927135509
 30
0.0
 10
-965.3169928846201
 20
141.469341738477
 30
0.0
 10
-958.6307200134976
 20
159.6988015173451
 30
0.0
 10
-949.6940145289217
 20
180.3528986728563
 30
0.0
 10
-931.0143970764615
 20
215.409876831304
 30
0.0
 10
-903.9358430458857
 20
251.8723451584926
 30
0.0
 10
-875.015311519496
 20
281.667602214173
 30
0.0
 10
-849.8745562989839
 20
304.1718089769984
 30
0.0
 10
-819.0811864961176
 20
327.1416404634639
 30
0.0
 10
-767.4636423015753
 20
357.5903116862106
 30
0.0
 10
-714.2977762895116
 20
379.6709327725503
 30
0.0
 10
-661.9538144937905
 20
395.3071157379045
 30
0.0
 10
-612.9642307918163
 20
407.0045031939236
 30
0.0
 10
-559.8670951751138
 20
415.6629432537952
 30
0.0
 10
-505.7575446797872
 20
421.4813345594201
 30
0.0
 10
-467.0868012329493
 20
424.5717831723487
 30
0.0
 10
-434.6334785200546
 20
426.7002634571193
 30
0.0
 10
-395.9417498615568
 20
428.8752053217353
 30
0.0
 10
-327.5030907666527
 20
431.7800503556276
 30
0.0
 10
-217.4403218070628
 20
433.9906497678578
 30
0.0
 10
-98.70848166228354
 20
434.2844722654551
 30
0.0
 10
-41.43039386601443
 20
434.1526862491666
 30
0.0
 11
-985.0060309296701
 21
-0.5918797321777346
 31
0.0
 11
-980.8489086922428
 21
67.73490987434941
 31
0.0
 11
-971.2591881904099
 21
120.1659123992538
 31
0.0
 11
-964.2654479229785
 21
143.9008866214714
 31
0.0
 11
-958.4762891315442
 21
159.655974008415
 31
0.0
 11
-951.7787294849378
 21
175.1463651255976
 31
0.0
 11
-935.7454588520894
 21
205.2927619165846
 31
0.0
 11
-894.8522551205487
 21
260.6029395624812
 31
0.0
 11
-872.7353911019584
 21
283.4008954881492
 31
0.0
 11
-855.4924384252677
 21
298.8368030697913
 31
0.0
 11
-818.6155817427401
 21
326.4552696900634
 31
0.0
 11
-778.9612860327157
 21
349.9440223732094
 31
0.0
 11
-698.0828103724584
 21
384.1065978804508
 31
0.0
 11
-661.8730151998353
 21
394.9641550916904
 31
0.0
 11
-625.1374722792855
 21
403.7831854249407
 31
0.0
 11
-550.4110271911287
 21
416.3433310900033
 31
0.0
 11
-502.7473284870749
 21
421.5615411162048
 31
0.0
 11
-463.687864374707
 21
424.7358192067143
 31
0.0
 11
-434.6420829347776
 21
426.6543628950207
 31
0.0
 11
-405.5800089812988
 21
428.2885506541915
 31
0.0
 11
-347.4534957615312
 21
430.7963917223236
 31
0.0
 11
-231.344090606306
 21
433.3759484153413
 31
0.0
 11
-41.43039386601443
 21
434.1526862491666
 31
0.0
1001
ACAD_SPLINE_DATA
1070
   100
1070
     0
1070
   101
1070
     0
1070
   102
1070
    15
  0
SPLINE
  5
3188
330
1F
100
AcDbEntity
  8
0
100
AcDbSpline
210
0.0
220
0.0
230
1.0
 70
   264
 71
     3
 72
    29
 73
    25
 74
    23
 42
0.0000000001
 43
0.0000000001
 44
0.00001
 12
-0.0132198694139997
 22
1.016998751316376
 32
0.0
 13
-0.9974829056640198
 23
-0.0022950189769069
 33
0.0
 40
96.05634165082257
 40
96.05634165082257
 40
96.05634165082257
 40
96.05634165082257
 40
164.6037958407321
 40
219.6963896016647
 40
245.5998072767606
 40
263.1874291558888
 40
280.7750510350171
 40
315.9502947932736
 40
385.6562548832609
 40
417.577381146644
 40
440.8780786123607
 40
487.479473543794
 40
534.0808684752273
 40
622.4412091904184
 40
660.3473306807982
 40
698.2534521711779
 40
774.0656951519373
 40
821.7530397899245
 40
860.5747819478363
 40
889.3506546039054
 40
918.1265272599743
 40
975.6782725721125
 40
1090.781763196388
 40
1263.049641105379
 40
1263.049641105379
 40
1263.049641105379
 40
1263.049641105379
 10
884.9952361960937
 20
-0.2019455464840012
 30
0.0
 10
884.6931733984094
 20
23.03561289253419
 30
0.0
 10
882.5493226328369
 20
64.23142510431297
 30
0.0
 10
874.1407604081519
 20
111.7378613212257
 30
0.0
 10
865.3061981513465
 20
141.8592759230971
 30
0.0
 10
858.6199252811503
 20
160.0887356998484
 30
0.0
 10
849.6832197986201
 20
180.7428328512265
 30
0.0
 10
831.0036023502485
 20
215.7998110079965
 30
0.0
 10
803.9250483094212
 20
252.2622793368388
 30
0.0
 10
775.0045168030964
 20
282.0575363958728
 30
0.0
 10
749.8637615152524
 20
304.561743164468
 30
0.0
 10
719.0703921639234
 20
327.5315746445086
 30
0.0
 10
667.4528454973401
 20
357.9802459256949
 30
0.0
 10
614.2869931383033
 20
380.0608667024592
 30
0.0
 10
561.9430029131949
 20
395.6970503140022
 30
0.0
 10
512.9535274911007
 20
407.3944353081167
 30
0.0
 10
459.8556844831769
 20
416.0528914490284
 30
0.0
 10
405.7480007583133
 20
421.8712403084186
 30
0.0
 10
367.0726502812141
 20
424.9617936686306
 30
0.0
 10
334.6317188457728
 20
427.089992216391
 30
0.0
 10
295.8825090383811
 20
429.2662410108722
 30
0.0
 10
228.0588494532346
 20
432.1571029985295
 30
0.0
 10
112.0219674353064
 20
434.5035338955745
 30
0.0
 10
15.84769393706352
 20
434.2844722654708
 30
0.0
 10
-41.43039386601444
 20
434.1526862491666
 30
0.0
 11
884.9952361960937
 21
-0.2019455464840012
 31
0.0
 11
880.8381139586668
 21
68.12484406004293
 31
0.0
 11
871.248393456822
 21
120.5558465849921
 31
0.0
 11
864.2546531893952
 21
144.290820807185
 31
0.0
 11
858.4654943992362
 21
160.0459081909332
 31
0.0
 11
851.7679347542806
 21
175.5362993050201
 31
0.0
 11
835.7346641257489
 21
205.6826960902167
 31
0.0
 11
794.8414603941046
 21
260.9928737401928
 31
0.0
 11
772.7245963719832
 21
283.7908296704224
 31
0.0
 11
755.4816436921946
 21
299.2267372550612
 31
0.0
 11
718.6047870025854
 21
326.8452038801327
 31
0.0
 11
678.9504912845383
 21
350.3339565665907
 31
0.0
 11
598.0720156181322
 21
384.4965320730507
 31
0.0
 11
561.8622204368299
 21
395.3540892852866
 31
0.0
 11
525.1266775074704
 21
404.1731196187887
 31
0.0
 11
450.4002324013406
 21
416.7332652829363
 31
0.0
 11
402.7365337200571
 21
421.9514753049845
 31
0.0
 11
363.6770696133568
 21
425.1257533943962
 31
0.0
 11
334.6312881794485
 21
427.0442970820406
 31
0.0
 11
305.5692142320285
 21
428.6784848406955
 31
0.0
 11
247.4427010243875
 21
431.1863259081427
 31
0.0
 11
131.3332958933544
 21
433.7658826008032
 31
0.0
 11
-41.43039386601444
 21
434.1526862491666
 31
0.0
1001
ACAD_SPLINE_DATA
1070
   100
1070
     0
1070
   101
1070
     0
1070
   102
1070
    15
  0
SPLINE
  5
31A6
330
1F
100
AcDbEntity
  8
0
100
AcDbSpline
210
0.0
220
0.0
230
1.0
 70
     8
 71
     3
 72
    76
 73
    72
 74
     0
 42
0.0000000001
 43
0.0000000001
 40
96.05634165082257
 40
96.05634165082257
 40
96.05634165082257
 40
96.05634165082257
 40
135.8881977415047
 40
135.8881977415047
 40
167.0846323282061
 40
167.0846323282061
 40
198.2810669149075
 40
198.2810669149075
 40
229.477501501609
 40
229.477501501609
 40
248.7708352982681
 40
248.7708352982681
 40
263.3064788190649
 40
263.3064788190649
 40
277.8421223398616
 40
277.8421223398616
 40
306.913409381455
 40
306.913409381455
 40
344.7024426621754
 40
344.7024426621754
 40
382.4914759428957
 40
382.4914759428957
 40
420.280509223616
 40
420.280509223616
 40
440.5076741582052
 40
440.5076741582052
 40
480.9620040273838
 40
480.9620040273838
 40
521.4163338965622
 40
521.4163338965622
 40
561.8706637657408
 40
561.8706637657408
 40
602.3249936349193
 40
602.3249936349193
 40
636.5611028080365
 40
636.5611028080365
 40
661.230731136877
 40
661.230731136877
 40
708.5759884083731
 40
708.5759884083731
 40
755.9212456798693
 40
755.9212456798693
 40
811.2832856660743
 40
811.2832856660743
 40
841.7714062456125
 40
841.7714062456125
 40
860.7525143526878
 40
860.7525143526878
 40
888.6372911447297
 40
888.6372911447297
 40
909.7353439767809
 40
909.7353439767809
 40
925.4029346526392
 40
925.4029346526392
 40
941.0705253284975
 40
941.0705253284975
 40
972.4057066802142
 40
972.4057066802142
 40
998.720871655953
 40
998.720871655953
 40
1025.036036631692
 40
1025.036036631692
 40
1077.66636658317
 40
1077.66636658317
 40
1092.008353920633
 40
1092.008353920633
 40
1120.767401974031
 40
1120.767401974031
 40
1209.061889549679
 40
1209.061889549679
 40
1263.049641105379
 40
1263.049641105379
 40
1263.049641105379
 40
1263.049641105379
 10
-920.0229883953991
 20
-1.4365880814415
 30
0.0
 10
-919.8600190401823
 20
11.10057288194874
 30
0.0
 10
-919.4205604137275
 20
23.29777356644057
 30
0.0
 10
-918.0005707138546
 20
44.34713234809684
 30
0.0
 10
-917.158385639259
 20
53.35023416301355
 30
0.0
 10
-914.9741861944713
 20
70.83428298164363
 30
0.0
 10
-913.631995599357
 20
79.31891095587156
 30
0.0
 10
-910.3972455485438
 20
95.76138512626817
 30
0.0
 10
-908.5051985167117
 20
103.7181815533882
 30
0.0
 10
-904.9587985817952
 20
116.1861954539366
 30
0.0
 10
-903.4893095215695
 20
120.8538482832507
 30
0.0
 10
-900.7012284182435
 20
128.876745033489
 30
0.0
 10
-899.434697589368
 20
132.2722949024514
 30
0.0
 10
-896.7489172441702
 20
138.9882708853868
 30
0.0
 10
-895.3163192014104
 20
142.3419550559357
 30
0.0
 10
-890.7485409523765
 20
152.3926770439118
 30
0.0
 10
-887.3425748965289
 20
159.0800399545962
 30
0.0
 10
-878.7378919000158
 20
174.3131669295639
 30
0.0
 10
-873.3061443290342
 20
182.8163088120553
 30
0.0
 10
-861.4303895804225
 20
199.4283741130564
 30
0.0
 10
-854.9882036176486
 20
207.5347108000586
 30
0.0
 10
-841.2578511721278
 20
223.1589023322425
 30
0.0
 10
-833.9653069528685
 20
230.6813068278739
 30
0.0
 10
-822.2634115441408
 20
241.6463618018829
 30
0.0
 10
-818.0899594035983
 20
245.3598567674855
 30
0.0
 10
-805.3266070411886
 20
256.141448044983
 30
0.0
 10
-796.4254773587665
 20
262.9086358460156
 30
0.0
 10
-777.8594037692207
 20
275.6682392461806
 30
0.0
 10
-768.1940938681178
 20
281.6600912070983
 30
0.0
 10
-748.1766051791919
 20
292.8903384299705
 30
0.0
 10
-737.8242369555794
 20
298.1283893147684
 30
0.0
 10
-716.5270331180315
 20
307.8711962362875
 30
0.0
 10
-705.5834433039766
 20
312.3753227643573
 30
0.0
 10
-684.9422534481758
 20
320.0311714667979
 30
0.0
 10
-675.3128668667168
 20
323.2839527654999
 30
0.0
 10
-658.5143363245667
 20
328.4550454137173
 30
0.0
 10
-651.4099169643202
 20
330.4922903307598
 30
0.0
 10
-630.5049120802622
 20
336.0771237023826
 30
0.0
 10
-616.5310031441144
 20
339.2974598676363
 30
0.0
 10
-588.1207079224298
 20
344.9720534164137
 30
0.0
 10
-573.6861909153251
 20
347.4257386790372
 30
0.0
 10
-541.9136437491416
 20
352.0641215164895
 30
0.0
 10
-524.4972614311645
 20
354.1325271206641
 30
0.0
 10
-497.0971766753051
 20
356.8516004314455
 30
0.0
 10
-487.2907793885459
 20
357.7216121771487
 30
0.0
 10
-471.2571755792782
 20
359.0140644759956
 30
0.0
 10
-465.076155470508
 20
359.4815352557485
 30
0.0
 10
-449.7463939870852
 20
360.5791099683058
 30
0.0
 10
-440.5813976230019
 20
361.1814672870265
 30
0.0
 10
-424.4468283016924
 20
362.1678762610477
 30
0.0
 10
-417.5002731612137
 20
362.5686673068183
 30
0.0
 10
-405.3742620667255
 20
363.2269544528063
 30
0.0
 10
-400.1983477882086
 20
363.4947900547906
 30
0.0
 10
-389.8219494347463
 20
364.0063634327198
 30
0.0
 10
-384.6246730815425
 20
364.2500350551281
 30
0.0
 10
-369.0398268922809
 20
364.9455590472467
 30
0.0
 10
-358.6592870555498
 20
365.3619087238574
 30
0.0
 10
-339.7448336637629
 20
366.0453543299551
 30
0.0
 10
-331.1958587848964
 20
366.3253342551577
 30
0.0
 10
-314.1348207560425
 20
366.829749654386
 30
0.0
 10
-305.620168961188
 20
367.0542532944065
 30
0.0
 10
-279.9019432920662
 20
367.6576771086064
 30
0.0
 10
-262.5228321984402
 20
367.9665279952253
 30
0.0
 10
-239.3728384174803
 20
368.2840251667067
 30
0.0
 10
-234.3546843120712
 20
368.3476136602634
 30
0.0
 10
-219.0604005492604
 20
368.5274971528528
 30
0.0
 10
-208.5801977736211
 20
368.632313590091
 30
0.0
 10
-165.264205345267
 20
369.0013002568981
 30
0.0
 10
-131.0646289942307
 20
369.1460438193065
 30
0.0
 10
-78.68956133968076
 20
369.2164636369061
 30
0.0
 10
-59.44996647146665
 20
369.2054414085818
 30
0.0
 10
-41.57991975725028
 20
369.1643258204404
 30
0.0
1001
ACAD_SPLINE_DATA
1070
   100
1070
     0
1070
   101
1070
     0
1070
   102
1070
    15
  0
SPLINE
  5
31A7
330
1F
100
AcDbEntity
  8
0
100
AcDbSpline
210
0.0
220
0.0
230
1.0
 70
     8
 71
     3
 72
    64
 73
    60
 74
     0
 42
0.0000000001
 43
0.0000000001
 40
96.05634165082257
 40
96.05634165082257
 40
96.05634165082257
 40
96.05634165082257
 40
135.9758091789908
 40
135.9758091789908
 40
167.1785385684728
 40
167.1785385684728
 40
198.3812679579549
 40
198.3812679579549
 40
229.5839973474369
 40
229.5839973474369
 40
248.8537006235115
 40
248.8537006235115
 40
263.2962206421282
 40
263.2962206421282
 40
277.7387406607449
 40
277.7387406607449
 40
306.6237806979783
 40
306.6237806979783
 40
344.3319810159932
 40
344.3319810159932
 40
382.0401813340081
 40
382.0401813340081
 40
419.7483816520231
 40
419.7483816520231
 40
439.439410986283
 40
439.439410986283
 40
456.3530492929431
 40
456.3530492929431
 40
473.2666875996033
 40
473.2666875996033
 40
507.0939642129235
 40
507.0939642129235
 40
540.9212408262438
 40
540.9212408262438
 40
610.4881129838471
 40
610.4881129838471
 40
643.2977965208484
 40
643.2977965208484
 40
715.5571413775203
 40
715.5571413775203
 40
787.8164862341922
 40
787.8164862341922
 40
848.4644310760575
 40
848.4644310760575
 40
874.4717183201437
 40
874.4717183201437
 40
900.4790055642299
 40
900.4790055642299
 40
926.4862928083161
 40
926.4862928083161
 40
952.4935800524024
 40
952.4935800524024
 40
1004.508154540575
 40
1004.508154540575
 40
1128.797922234474
 40
1128.797922234474
 40
1253.087689928373
 40
1253.087689928373
 40
1263.049641105379
 40
1263.049641105379
 40
1263.049641105379
 40
1263.049641105379
 10
820.0121936618227
 20
-1.046653895747452
 30
0.0
 10
819.8488658503132
 20
11.51808295291956
 30
0.0
 10
819.4078249176461
 20
23.74136053281064
 30
0.0
 10
817.9831652494943
 20
44.81546480046781
 30
0.0
 10
817.1394464593763
 20
53.81888642808139
 30
0.0
 10
814.9517979620194
 20
71.30337446563626
 30
0.0
 10
813.6077005811811
 20
79.78808216731774
 30
0.0
 10
810.3687646221988
 20
96.23050271567084
 30
0.0
 10
808.4744382586146
 20
104.1871682892325
 30
0.0
 10
804.9259503511143
 20
116.6481172758142
 30
0.0
 10
803.4571135327388
 20
121.3091108339132
 30
0.0
 10
800.6768327724138
 20
129.3029675742622
 30
0.0
 10
799.4180167518793
 20
132.6766266762361
 30
0.0
 10
796.7496946190815
 20
139.3495885594552
 30
0.0
 10
795.3269717819164
 20
142.6818191980803
 30
0.0
 10
790.7922726829894
 20
152.6682988460303
 30
0.0
 10
787.4128969605924
 20
159.3131752965295
 30
0.0
 10
778.8578865792326
 20
174.4883359298755
 30
0.0
 10
773.4472829151021
 20
182.9757818647946
 30
0.0
 10
761.6166400770834
 20
199.5600897261615
 30
0.0
 10
755.1984333744467
 20
207.6543549364762
 30
0.0
 10
741.5175936725099
 20
223.2591009588788
 30
0.0
 10
734.2508100129752
 20
230.7738586215847
 30
0.0
 10
722.6873537989786
 20
241.6386194927654
 30
0.0
 10
718.631433367905
 20
245.2623685288717
 30
0.0
 10
710.9477843134454
 20
251.7889160170748
 30
0.0
 10
707.3323699212828
 20
254.7279149928582
 30
0.0
 10
699.9617138893706
 20
260.4669691084791
 30
0.0
 10
696.2082696180724
 20
263.2655197958218
 30
0.0
 10
684.7468738827902
 20
271.4545162978719
 30
0.0
 10
676.8361927858105
 20
276.6394107841799
 30
0.0
 10
660.5124049397333
 20
286.4785898470448
 30
0.0
 10
652.100632745256
 20
291.1318914507458
 30
0.0
 10
625.7013087220122
 20
304.560039235751
 30
0.0
 10
606.9812910067825
 20
312.4950189525993
 30
0.0
 10
578.4544621216343
 20
322.624935759231
 30
0.0
 10
569.1657720916372
 20
325.6374331815738
 30
0.0
 10
539.0449323452205
 20
334.5638885273154
 30
0.0
 10
517.7992731457351
 20
339.5949622825053
 30
0.0
 10
474.2335838913795
 20
347.9150109134239
 30
0.0
 10
451.9208201330185
 20
351.2031846397615
 30
0.0
 10
410.0334061191948
 20
356.1039102448414
 30
0.0
 10
390.6001788224415
 20
357.8997021950988
 30
0.0
 10
362.4215105303171
 20
360.0752963668597
 30
0.0
 10
353.9076001890718
 20
360.6794955046789
 30
0.0
 10
336.8269443204827
 20
361.808943926864
 30
0.0
 10
328.2517049203603
 20
362.3348965369667
 30
0.0
 10
311.1029075227419
 20
363.3168772754112
 30
0.0
 10
302.5256261640649
 20
363.7719923603649
 30
0.0
 10
285.3568257432279
 20
364.6142861563269
 30
0.0
 10
276.7653616345401
 20
365.0016467298069
 30
0.0
 10
250.9720240831032
 20
366.0701928090129
 30
0.0
 10
233.7510919306033
 20
366.6579470229582
 30
0.0
 10
175.3189106240518
 20
368.2972602068531
 30
0.0
 10
134.0205815013418
 20
368.8574082230504
 30
0.0
 10
51.35495248169082
 20
369.3486273407511
 30
0.0
 10
9.987703867518082
 20
369.2801285417764
 30
0.0
 10
-34.65613431070193
 20
369.1795636091806
 30
0.0
 10
-37.96863410885318
 20
369.1719466423463
 30
0.0
 10
-41.28086797477851
 20
369.1643258204404
 30
0.0
1001
ACAD_SPLINE_DATA
1070
   100
1070
     0
1070
   101
1070
     0
1070
   102
1070
    15
  0
SPLINE
  5
31A8
330
1F
100
AcDbEntity
  8
0
100
AcDbSpline
210
0.0
220
0.0
230
1.0
 70
     8
 71
     3
 72
    64
 73
    60
 74
     0
 42
0.0000000001
 43
0.0000000001
 40
96.05634165082257
 40
96.05634165082257
 40
96.05634165082257
 40
96.05634165082257
 40
135.9758091791177
 40
135.9758091791177
 40
167.1785385689218
 40
167.1785385689218
 40
198.3812679587258
 40
198.3812679587258
 40
229.5839973485299
 40
229.5839973485299
 40
248.8537006243744
 40
248.8537006243744
 40
263.2962206416252
 40
263.2962206416252
 40
277.738740658876
 40
277.738740658876
 40
306.6237806933778
 40
306.6237806933778
 40
344.3319810096447
 40
344.3319810096447
 40
382.0401813259117
 40
382.0401813259117
 40
419.7483816421787
 40
419.7483816421787
 40
439.4394109675054
 40
439.4394109675054
 40
456.353049174751
 40
456.353049174751
 40
473.2666873819964
 40
473.2666873819964
 40
507.0939637964873
 40
507.0939637964873
 40
540.9212402109783
 40
540.9212402109783
 40
610.4881126106793
 40
610.4881126106793
 40
643.2977962489162
 40
643.2977962489162
 40
715.5571429228033
 40
715.5571429228033
 40
787.8164895966904
 40
787.8164895966904
 40
848.4644335530468
 40
848.4644335530468
 40
874.4717194592306
 40
874.4717194592306
 40
900.4790053654144
 40
900.4790053654144
 40
926.486291271598
 40
926.486291271598
 40
952.4935771777817
 40
952.4935771777817
 40
1004.508148990149
 40
1004.508148990149
 40
1128.797936245961
 40
1128.797936245961
 40
1253.087723501774
 40
1253.087723501774
 40
1263.049641105379
 40
1263.049641105379
 40
1263.049641105379
 40
1263.049641105379
 10
820.0121936618227
 20
1.032696988473059
 30
0.0
 10
819.8488658503125
 20
-11.53203986023376
 30
0.0
 10
819.4078249176435
 20
-23.75531744016259
 30
0.0
 10
817.9831652494785
 20
-44.82942170794847
 30
0.0
 10
817.1394464593475
 20
-53.83284333565041
 30
0.0
 10
814.9517979619538
 20
-71.31733137337128
 30
0.0
 10
813.6077005810912
 20
-79.8020390751301
 30
0.0
 10
810.3687646220485
 20
-96.24445962362658
 30
0.0
 10
808.4744382584279
 20
-104.201125197254
 30
0.0
 10
804.9259503508872
 20
-116.6620741838299
 30
0.0
 10
803.4571135325171
 20
-121.323067741864
 30
0.0
 10
800.6768327723047
 20
-129.3169244818209
 30
0.0
 10
799.4180167518862
 20
-132.6905835834774
 30
0.0
 10
796.7496946193534
 20
-139.3635454660655
 30
0.0
 10
795.3269717823372
 20
-142.695776104376
 30
0.0
 10
790.7922726839078
 20
-152.6822557513847
 30
0.0
 10
787.412896961909
 20
-159.3271322012619
 30
0.0
 10
778.8578865813678
 20
-174.5022928336327
 30
0.0
 10
773.4472829176467
 20
-182.9897387681989
 30
0.0
 10
761.6166400805146
 20
-199.5740466289298
 30
0.0
 10
755.1984333783551
 20
-207.6683118389611
 30
0.0
 10
741.5175936774143
 20
-223.2730578608905
 30
0.0
 10
734.2508100184025
 20
-230.7878155234015
 30
0.0
 10
722.6873538068166
 20
-241.6525763928623
 30
0.0
 10
718.6314333777064
 20
-245.2763254274799
 30
0.0
 10
710.9477843462646
 20
-251.8028728967647
 30
0.0
 10
707.3323699759285
 20
-254.7418718558502
 30
0.0
 10
699.9617139892428
 20
-260.480925939723
 30
0.0
 10
696.2082697413522
 20
-263.2794766120098
 30
0.0
 10
684.7468740786094
 20
-271.4684730712465
 30
0.0
 10
676.8361930331169
 20
-276.6533675321287
 30
0.0
 10
660.5124052952968
 20
-286.4925465502644
 30
0.0
 10
652.1006331575768
 20
-291.1458481346724
 30
0.0
 10
625.7013091483321
 20
-304.5739959541829
 30
0.0
 10
606.9812913791049
 20
-312.5089757138824
 30
0.0
 10
578.4544624087111
 20
-322.6388925710627
 30
0.0
 10
569.1657723525963
 20
-325.6513900072091
 30
0.0
 10
539.044932062394
 20
-334.5778455278829
 30
0.0
 10
517.7992723186349
 20
-339.60891938926
 30
0.0
 10
474.2335819234923
 20
-347.9289681549964
 30
0.0
 10
451.9208175692703
 20
-351.2171419098293
 30
0.0
 10
410.0334031832047
 20
-356.1178674428763
 30
0.0
 10
390.6001761414758
 20
-357.9136593332787
 30
0.0
 10
362.4215085389323
 20
-360.0892534176276
 30
0.0
 10
353.9075986301818
 20
-360.6934525186991
 30
0.0
 10
336.826943635039
 20
-361.8229008757976
 30
0.0
 10
328.2517046758485
 20
-362.3488534576927
 30
0.0
 10
311.1029081605415
 20
-363.3308341467135
 30
0.0
 10
302.5256272433244
 20
-363.7859492106577
 30
0.0
 10
285.356827707378
 20
-364.6282429712746
 30
0.0
 10
276.7653640418179
 20
-365.0156035304044
 30
0.0
 10
250.9720278214652
 20
-366.0841495753173
 30
0.0
 10
233.7510965585089
 20
-366.6719037780535
 30
0.0
 10
175.3189096688389
 20
-368.3112171943159
 30
0.0
 10
134.0205740358692
 20
-368.8713652454353
 30
0.0
 10
51.35493198987171
 20
-369.3625842990442
 30
0.0
 10
9.987676859895877
 20
-369.2940854012641
 30
0.0
 10
-34.65615663803166
 20
-369.1935204651143
 30
0.0
 10
-37.96864527162178
 20
-369.1859035239373
 30
0.0
 10
-41.28086797477851
 20
-369.1782827277148
 30
0.0
1001
ACAD_SPLINE_DATA
1070
   100
1070
     0
1070
   101
1070
     0
1070
   102
1070
    15
  0
SPLINE
  5
31A9
330
1F
100
AcDbEntity
  8
0
100
AcDbSpline
210
0.0
220
0.0
230
1.0
 70
     8
 71
     3
 72
    84
 73
    80
 74
     0
 42
0.0000000001
 43
0.0000000001
 40
96.05634165082257
 40
96.05634165082257
 40
96.05634165082257
 40
96.05634165082257
 40
135.9123302514189
 40
135.9123302514189
 40
167.1102949965212
 40
167.1102949965212
 40
198.3082597416235
 40
198.3082597416235
 40
229.5062244867259
 40
229.5062244867259
 40
248.7930699987823
 40
248.7930699987823
 40
263.3028053685552
 40
263.3028053685552
 40
277.8125407383281
 40
277.8125407383281
 40
306.8320114778738
 40
306.8320114778738
 40
344.5965603385305
 40
344.5965603385305
 40
382.3611091991872
 40
382.3611091991872
 40
420.1256580598439
 40
420.1256580598439
 40
440.1833772589578
 40
440.1833772589578
 40
471.4769501767456
 40
471.4769501767456
 40
502.7705230945334
 40
502.7705230945334
 40
534.0640960123213
 40
534.0640960123213
 40
593.5788308677523
 40
593.5788308677523
 40
653.0935657231833
 40
653.0935657231833
 40
694.9058686672138
 40
694.9058686672138
 40
736.7181716112444
 40
736.7181716112444
 40
809.0927763243469
 40
809.0927763243469
 40
838.8461525975731
 40
838.8461525975731
 40
860.6621994567452
 40
860.6621994567452
 40
883.1558072124073
 40
883.1558072124073
 40
898.3043387379449
 40
898.3043387379449
 40
913.4528702634826
 40
913.4528702634826
 40
928.3409213306702
 40
928.3409213306702
 40
943.2289723978581
 40
943.2289723978581
 40
973.0050745322332
 40
973.0050745322332
 40
990.8802480299923
 40
990.8802480299923
 40
1008.755421527751
 40
1008.755421527751
 40
1044.505768523269
 40
1044.505768523269
 40
1065.004758638966
 40
1065.004758638966
 40
1082.81659984738
 40
1082.81659984738
 40
1096.000435110666
 40
1096.000435110666
 40
1109.184270373951
 40
1109.184270373951
 40
1135.551940900522
 40
1135.551940900522
 40
1198.447707822946
 40
1198.447707822946
 40
1261.34347474537
 40
1261.34347474537
 40
1263.049641105379
 40
1263.049641105379
 40
1263.049641105379
 40
1263.049641105379
 10
-920.0229883953991
 20
0.6427628027797223
 30
0.0
 10
-919.859920303644
 20
-11.90199391915501
 30
0.0
 10
-919.4200261059265
 20
-24.10637779727959
 30
0.0
 10
-917.9987550014082
 20
-45.16249322808498
 30
0.0
 10
-917.1561545098963
 20
-54.16562605986927
 30
0.0
 10
-914.9710260412813
 20
-71.64968854562919
 30
0.0
 10
-913.6283241814165
 20
-80.13428827295664
 30
0.0
 10
-910.3924568621581
 20
-96.57665413696783
 30
0.0
 10
-908.4998037649333
 20
-104.5333711749941
 30
0.0
 10
-904.9528603976304
 20
-116.9994095992594
 30
0.0
 10
-903.4835564083612
 20
-121.6652389710745
 30
0.0
 10
-900.6976552624692
 20
-129.6800890918331
 30
0.0
 10
-899.4332768901777
 20
-133.0695573248948
 30
0.0
 10
-896.7523741616931
 20
-139.7735672305456
 30
0.0
 10
-895.3225345459612
 20
-143.121283217492
 30
0.0
 10
-890.7639946725218
 20
-153.1541335183261
 30
0.0
 10
-887.3654520111161
 20
-159.8296792487979
 30
0.0
 10
-878.7748997324644
 20
-175.0462373116894
 30
0.0
 10
-873.3493785106803
 20
-183.5445773371272
 30
0.0
 10
-861.4869568792643
 20
-200.1481091047199
 30
0.0
 10
-855.0518809039498
 20
-208.2507111389098
 30
0.0
 10
-841.3362469800187
 20
-223.868827924251
 30
0.0
 10
-834.0513762014252
 20
-231.3888138247035
 30
0.0
 10
-822.3926945600476
 20
-242.3220023940589
 30
0.0
 10
-818.2563109152631
 20
-246.0070377181202
 30
0.0
 10
-807.462011562845
 20
-255.1406128065669
 30
0.0
 10
-800.6515053047193
 20
-260.4527856384706
 30
0.0
 10
-786.5667920162974
 20
-270.607675320093
 30
0.0
 10
-779.2933777587813
 20
-275.4494102255236
 30
0.0
 10
-764.3112054073582
 20
-284.6776517775349
 30
0.0
 10
-756.603313462906
 20
-289.0634669927622
 30
0.0
 10
-733.6659432011353
 20
-301.1403426263994
 30
0.0
 10
-717.9142400662881
 20
-308.2477052856197
 30
0.0
 10
-685.3280116083624
 20
-320.9044377196601
 30
0.0
 10
-668.4984306442138
 20
-326.4515008857161
 30
0.0
 10
-639.2441082269527
 20
-334.6476424575876
 30
0.0
 10
-627.0002251082583
 20
-337.6673369739891
 30
0.0
 10
-602.1453060732466
 20
-343.0795642462665
 30
0.0
 10
-589.5361756413691
 20
-345.4716331483913
 30
0.0
 10
-554.6335929741738
 20
-351.2726938082129
 30
0.0
 10
-531.9972216214559
 20
-354.1451029403937
 30
0.0
 10
-499.4385085653946
 20
-357.4260016405904
 30
0.0
 10
-489.8806831137122
 20
-358.2894138054373
 30
0.0
 10
-473.1908356880564
 20
-359.6609146966436
 30
0.0
 10
-466.0920492790046
 20
-360.2024050230753
 30
0.0
 10
-451.5995118919334
 20
-361.2404782695602
 30
0.0
 10
-444.2131043303243
 20
-361.7344484755268
 30
0.0
 10
-431.8242078918384
 20
-362.5148758164909
 30
0.0
 10
-426.8310778932202
 20
-362.8167189632754
 30
0.0
 10
-416.8520811946719
 20
-363.3957146112272
 30
0.0
 10
-411.8621451731524
 20
-363.6729051682349
 30
0.0
 10
-401.9538870205427
 20
-364.1984774230881
 30
0.0
 10
-397.0331737965705
 20
-364.4472171494447
 30
0.0
 10
-387.1695710127126
 20
-364.9229719558909
 30
0.0
 10
-382.2297377970917
 20
-365.1499165310929
 30
0.0
 10
-367.415434737806
 20
-365.7998702594828
 30
0.0
 10
-357.5462410244441
 20
-366.1919866920051
 30
0.0
 10
-341.8868440802085
 20
-366.7620908954717
 30
0.0
 10
-336.0510176332447
 20
-366.9629732957352
 30
0.0
 10
-324.4273682426753
 20
-367.3392506440048
 30
0.0
 10
-318.636873866811
 20
-367.5147001928535
 30
0.0
 10
-301.2597844557252
 20
-368.0041897585102
 30
0.0
 10
-289.6675273637687
 20
-368.281390390515
 30
0.0
 10
-271.1242113862679
 20
-368.6449888413489
 30
0.0
 10
-264.3029060926037
 20
-368.7623299502109
 30
0.0
 10
-251.3706654222792
 20
-368.9542698295094
 30
0.0
 10
-245.2838268621622
 20
-369.0324544592148
 30
0.0
 10
-234.5230346198228
 20
-369.1498470210982
 30
0.0
 10
-229.8919003135749
 20
-369.1938555507567
 30
0.0
 10
-220.5090409479562
 20
-369.2706505135437
 30
0.0
 10
-215.7606015283667
 20
-369.3034933749043
 30
0.0
 10
-201.3777393272061
 20
-369.3870260129433
 30
0.0
 10
-191.6058704488139
 20
-369.4227142432278
 30
0.0
 10
-158.201507971961
 20
-369.4912186371097
 30
0.0
 10
-134.123227409238
 20
-369.4514995364523
 30
0.0
 10
-87.20994548746322
 20
-369.3222625749005
 30
0.0
 10
-64.37582769252642
 20
-369.2327622481343
 30
0.0
 10
-42.71992805700526
 20
-369.1809327450124
 30
0.0
 10
-42.14927061419992
 20
-369.1795926960499
 30
0.0
 10
-41.57991975725034
 20
-369.1782827277148
 30
0.0
1001
ACAD_SPLINE_DATA
1070
   100
1070
     0
1070
   101
1070
     0
1070
   102
1070
    15
  0
LINE
  5
31BC
330
1F
100
AcDbEntity
  8
0
  6
AM_DIN_F_W050
 62
     6
 48
4.0
100
AcDbLine
 10
722.3219000107631
 20
-4.767460219624921
 30
0.0
 11
722.3219000107631
 21
443.2330215463628
 31
0.0
  0
LINE
  5
31BD
330
1F
100
AcDbEntity
  8
0
  6
AM_DIN_F_W050
 62
     6
 48
4.0
100
AcDbLine
 10
747.4977761149283
 20
-4.767460219625149
 30
0.0
 11
747.4977761149283
 21
449.9930215463628
 31
0.0
  0
LINE
  5
31BE
330
1F
100
AcDbEntity
  8
0
  6
AM_DIN_F_W050
 62
     6
 48
4.0
100
AcDbLine
 10
-28.01146260707709
 20
-268.0122358791083
 30
0.0
 11
-992.7460309296701
 21
-268.0122358791081
 31
0.0
  0
LINE
  5
31BF
330
1F
100
AcDbEntity
  8
0
  6
AM_DIN_F_W050
 62
     6
 48
4.0
100
AcDbLine
 10
-27.50603092966955
 20
-293.0071261333076
 30
0.0
 11
-1000.00603092967
 21
-293.0071261333073
 31
0.0
  0
LINE
  5
31C1
330
1F
100
AcDbEntity
  8
0
  6
AM_DIN_F_W050
 62
     6
 48
4.0
100
AcDbLine
 10
722.3219000107631
 20
443.2330215463628
 30
0.0
 11
-992.7460309296701
 21
443.233021546363
 31
0.0
  0
LINE
  5
31C3
330
1F
100
AcDbEntity
  8
0
  6
AM_DIN_F_W050
 62
     6
 48
4.0
100
AcDbLine
 10
-992.7460309296701
 20
-268.0122358791081
 30
0.0
 11
-992.7460309296701
 21
443.233021546363
 31
0.0
  0
REGION
  5
3208
330
1F
100
AcDbEntity
  8
0
100
AcDbModelerGeometry
 70
     1
  1
mogoo lm m o          
  1
ni ^ *+0;:,4 ^ *+0\^ [ nf ^ LR mniqoqoqkjon QK o  
  1
n fqfffffffffffffffj:rooh n:rono 
  1
>,27:>;:- {rn rn _nm mniqoqoqkjon |
  1
=0;& {rn rn {rn {m {rn {rn |
  1
3*2/ {rn rn {rn {rn {l {n |
  1
,7:33 {rn rn {rn {rn {rn {k {rn {m |
  1
9><: {rn rn {rn {rn {j {l {rn {i 90-(>-; ;0*=3: 0*+ |
  1
300/ {rn rn {rn {rn {h {k |
  1
/3>1:r,*-9><: {rn rn {rn rfoqmkjfhhmjloklflm mkqogkgfiglngjofgl o o o n n o o 90-(>-;@) V V V V |
  1
<0:;8: {rn rn {rn {g {f {rn {no 90-(>-; {j {rn |
  1
<0:;8: {rn rn {rn {nn {h {rn {nm 90-(>-; {j {rn |
  1
<0:;8: {rn rn {rn {h {nl {rn {nk -:):-,:; {j {rn |
  1
:;8: {rn rn {rn {nj o {ni kjoqoooooooooooojh {h {nh 90-(>-; _h *1410(1 |
  1
<0:;8: {rn rn {rn {nl {g {rn {ng 90-(>-; {j {rn |
  1
:;8: {rn rn {rn {ni o {nf nfooqoooooooooooom {g {mo 90-(>-; _h *1410(1 |
  1
<0:;8: {rn rn {rn {f {nn {rn {mn 90-(>-; {j {rn |
  1
:;8: {rn rn {rn {nj fiqojilknijogmmikj {mm nmilqokfiknnojlhgh {f {ml 90-(>-; _h *1410(1 |
  1
):-+:' {rn rn {rn {no {mk |
  1
):-+:' {rn rn {rn {no {mj |
  1
,+->687+r<*-): {rn rn {rn gffqfflfifohollokm roqooifhgkjlilhijhliif o o n o V V |
  1
:;8: {rn rn {rn {nf o {mi foo {nn {mh 90-(>-; _h *1410(1 |
  1
):-+:' {rn rn {rn {nm {mg |
  1
,+->687+r<*-): {rn rn {rn gffqfflfifohollokm kkfqfflomnjkilimfn o rn jqfgljnhhhkgmngfim:ronh o V V |
  1
:;8: {rn rn {rn {mi o {mm fjoqooooooooooooml {nl {mf 90-(>-; _h *1410(1 |
  1
):-+:' {rn rn {rn {mn {lo |
  1
61+<*-):r<*-): {rn rn {rn 90-(>-; $ :'><+<*- 9*33 1*=, l 0/:1 i 
  1
 fiqojilknijogmmikj l mimqjiimhonmokiimk n kkmqiglfmffkoklnfk n ijiqjhlifljjfjgiji n ghjqfknklhnofkkklk n 
  1
 nmilqokfiknnojlhgh l 
  1
 gffqfflfifohollokm roqooifhgkjlilhmominfi o 
  1
 gffqmkgnjlnjjfgnjl rjhqlgmmiflhhjjhnmm o 
  1
 ggiqimoojjogfkflml rnhlqhoiffilmkgkjmj o 
  1
 hikqijflikkihlgfkm rlllqnnlgnnmlnlknoi o 
  1
 jifqjnnfjljjlkofhk rkmnqofjgnoliflgfmi o 
  1
 mfkqjfikfhhofljjlf rkkfqhnoknfjhffgmmh o 
  1
 hgqhojikojgmgflfmn rkjoqlolnnfjfhjolin o 
  1
 rjoqooiolofmfiifjhg rkjoqooifhgkjlilifg o 
  1
 o 
  1
 1*33@,*-9><: 
  1
 1*33@,*-9><: 
  1
 1*33=, 
  1
 1*33=, 
  1
 V V 
  1
 o 
  1
 o 
  1
 k mimqjiimhonmokiimk kkmqiglfmffkoklnfk ijiqjhlifljjfjgiji ghjqfknklhnofkkklk 
  1
 Y n Y o " V V |
  1
/061+ {rn rn {rn gffqfflfifohollokm roqooifhgkjlilhijhliif o |
  1
/061+ {rn rn {rn gffqfflfifohollokm kkfqfflomnjkilimfn o |
  1
):-+:' {rn rn {rn {ng {ln |
  1
,+->687+r<*-): {rn rn {rn rnoooqooiolofmfiifg kkfqfflomnjkililom o rmqjmilhknhnjfnkihl:roni rn o V V |
  1
/061+ {rn rn {rn rnoooqooiolofmfiifg kkfqfflomnjkililom o |
  1
,+->687+r<*-): {rn rn {rn rnoooqooiolofmfih rkjoqooifhgkjlilifg o n o o V V |
  1
/061+ {rn rn {rn rjoqooiolofmfiifgoj rkjoqooifhgkjlilifg o |
  1
/061+ {rn rn {rn rnoooqooiolofmfih rkjoqooifhgkjlilifg o |
  0
ENDSEC
  0
SECTION
  2
OBJECTS
  0
DICTIONARY
  5
C
330
0
100
AcDbDictionary
281
     1
  3
ACAD_2007HEADERVARS_RT
350
3259
  3
ACAD_COLOR
350
251F
  3
ACAD_GROUP
350
D
  3
ACAD_IMAGE_DICT
350
28A6
  3
ACAD_IMAGE_VARS
350
28A8
  3
ACAD_LAYOUT
350
1A
  3
ACAD_MATERIAL
350
24F5
  3
ACAD_MLEADERSTYLE
350
2534
  3
ACAD_MLINESTYLE
350
17
  3
ACAD_PLOTSETTINGS
350
19
  3
ACAD_PLOTSTYLENAME
350
E
  3
ACAD_SCALELIST
350
2522
  3
ACAD_TABLESTYLE
350
2520
  3
ACAD_VISUALSTYLE
350
250E
  3
ACDB_RECOMPOSE_DATA
350
3258
  3
AcDbVariableDictionary
350
86
  3
AcmDictionary
350
45
  3
AEC_PROPERTY_SET_DEFS
350
2EFC
  3
AMG
350
41
  3
AMGSNAPSETTINGS
350
332
  3
ASE_INDEX_DICTIONARY
350
427
  0
DICTIONARY
  5
25A6
330
8
100
AcDbDictionary
280
     1
281
     1
  0
DICTIONARY
  5
2692
330
2
100
AcDbDictionary
280
     1
281
     1
  3
ACAD_LAYERSTATES
360
2693
  0
DICTIONARY
  5
25A1
330
10
100
AcDbDictionary
280
     1
281
     1
  3
ADSK_XREC_LAYER_RECONCILED
360
25A2
  0
DICTIONARY
  5
81
330
1F
100
AcDbDictionary
280
     1
281
     1
  3
ACAD_SORTENTS
360
278F
  0
DICTIONARY
  5
2D4B
330
2D3A
100
AcDbDictionary
280
     1
281
     1
  3
ACAD_SORTENTS
360
2D4C
  0
DICTIONARY
  5
3259
102
{ACAD_REACTORS
330
C
102
}
330
C
100
AcDbDictionary
281
     1
  3
DIMJOGANG
350
325A
  3
DIMLTEX1
350
325C
  3
DIMLTEX2
350
325D
  3
DIMLTYPE
350
325B
  0
DICTIONARY
  5
251F
102
{ACAD_REACTORS
330
C
102
}
330
C
100
AcDbDictionary
281
     1
  0
DICTIONARY
  5
D
102
{ACAD_REACTORS
330
C
102
}
330
C
100
AcDbDictionary
281
     1
  0
DICTIONARY
  5
28A6
102
{ACAD_REACTORS
330
C
102
}
330
C
100
AcDbDictionary
281
     1
  3
$RGNZ9UX
350
28A7
  0
RASTERVARIABLES
  5
28A8
102
{ACAD_REACTORS
330
C
102
}
330
C
100
AcDbRasterVariables
 90
        0
 70
     1
 71
     1
 72
     1
  0
DICTIONARY
  5
1A
102
{ACAD_REACTORS
330
C
102
}
330
C
100
AcDbDictionary
281
     1
  3
Layout1
350
1E
  3
Layout2
350
26
  3
Model
350
22
  0
DICTIONARY
  5
24F5
102
{ACAD_REACTORS
330
C
102
}
330
C
100
AcDbDictionary
281
     1
  3
ByBlock
350
24FE
  3
ByLayer
350
24F6
  3
Global
350
2506
  0
DICTIONARY
  5
2534
102
{ACAD_REACTORS
330
C
102
}
330
C
100
AcDbDictionary
281
     1
  3
Standard
350
2535
  0
DICTIONARY
  5
17
102
{ACAD_REACTORS
330
C
102
}
330
C
100
AcDbDictionary
281
     1
  3
Standard
350
18
  0
DICTIONARY
  5
19
102
{ACAD_REACTORS
330
C
102
}
330
C
100
AcDbDictionary
281
     1
  0
ACDBDICTIONARYWDFLT
  5
E
102
{ACAD_REACTORS
330
C
102
}
330
C
100
AcDbDictionary
281
     1
  3
Normal
350
F
100
AcDbDictionaryWithDefault
340
F
  0
DICTIONARY
  5
2522
102
{ACAD_REACTORS
330
C
102
}
330
C
100
AcDbDictionary
281
     1
  3
A0
350
2523
  3
A1
350
2524
  3
A2
350
2525
  3
A3
350
2526
  3
A4
350
2527
  3
A5
350
2528
  3
A6
350
2529
  3
A7
350
252A
  3
A8
350
252B
  3
A9
350
252C
  3
B0
350
252D
  3
B1
350
252E
  3
B2
350
252F
  3
B3
350
2530
  3
B4
350
2531
  3
B5
350
2532
  3
B6
350
2533
  0
DICTIONARY
  5
2520
102
{ACAD_REACTORS
330
C
102
}
330
C
100
AcDbDictionary
281
     1
  3
Standard
350
2521
  0
DICTIONARY
  5
250E
102
{ACAD_REACTORS
330
C
102
}
330
C
100
AcDbDictionary
281
     1
  3
2dWireframe
350
2514
  3
3D Hidden
350
2516
  3
3dWireframe
350
2515
  3
Basic
350
2513
  3
Brighten
350
251A
  3
ColorChange
350
251E
  3
Conceptual
350
2517
  3
Dim
350
2519
  3
EdgeColorOff
350
264E
  3
Facepattern
350
251D
  3
Flat
350
250F
  3
FlatWithEdges
350
2510
  3
Gouraud
350
2511
  3
GouraudWithEdges
350
2512
  3
Hidden
350
2646
  3
JitterOff
350
264C
  3
Linepattern
350
251C
  3
OverhangOff
350
264D
  3
Realistic
350
2518
  3
Shaded
350
264B
  3
Shaded with edges
350
264A
  3
Shades of Gray
350
2647
  3
Sketchy
350
2648
  3
Thicken
350
251B
  3
Wireframe
350
2645
  3
X-Ray
350
2649
  0
XRECORD
  5
3258
102
{ACAD_REACTORS
330
C
102
}
330
C
100
AcDbXrecord
280
     1
 90
        1
330
2521
  0
DICTIONARY
  5
86
102
{ACAD_REACTORS
330
C
102
}
330
C
100
AcDbDictionary
281
     1
  3
CANNOSCALE
350
25AE
  3
CMLEADERSTYLE
350
25AD
  3
CTABLESTYLE
350
25AC
  3
DIMASSOC
350
89
  3
HIDETEXT
350
88
  3
INDEXCTL
350
87
  3
LAYEREVAL
350
269C
  3
LAYERNOTIFY
350
269D
  3
LIGHTINGUNITS
350
269B
  3
MSLTSCALE
350
269A
  0
DICTIONARY
  5
45
102
{ACAD_REACTORS
330
C
102
}
330
C
100
AcDbDictionary
281
     1
  3
AcmStdDictionary
350
4A
  3
AMDTSECTSYM_ARROWCOLOR
350
258D
  0
DICTIONARY
  5
2EFC
102
{ACAD_REACTORS
330
C
102
}
330
C
100
AcDbDictionary
281
     1
  0
DICTIONARY
  5
41
102
{ACAD_REACTORS
330
C
102
}
330
C
100
AcDbDictionary
281
     1
  0
DICTIONARY
  5
332
102
{ACAD_REACTORS
330
C
102
}
330
C
100
AcDbDictionary
281
     1
  0
DICTIONARY
  5
427
102
{ACAD_REACTORS
330
C
102
}
330
C
100
AcDbDictionary
281
     1
  3
ASEBlockHierarchyIndexRecord
350
429
1001
DCO15
1040
1566620334.734
  0
DICTIONARY
  5
2693
102
{ACAD_REACTORS
330
2692
102
}
330
2692
100
AcDbDictionary
281
     1
  0
XRECORD
  5
25A2
102
{ACAD_REACTORS
330
25A1
102
}
330
25A1
100
AcDbXrecord
280
     1
290
     1
  0
SORTENTSTABLE
  5
278F
102
{ACAD_REACTORS
330
81
102
}
330
81
100
AcDbSortentsTable
330
1F
331
3187
  5
3122
331
2DC1
  5
2DC1
331
2DC4
  5
2DC4
331
3164
  5
316B
331
2FE2
  5
2FF1
331
3167
  5
316E
331
3170
  5
3185
331
316A
  5
3171
331
3173
  5
319D
331
316D
  5
3175
331
310F
  5
3165
331
31A8
  5
311D
331
300D
  5
300D
331
2DF0
  5
2DF0
331
3185
  5
3051
331
3188
  5
31A6
331
2DC5
  5
2DC5
331
3165
  5
316C
331
2FE3
  5
2FF2
331
3168
  5
316F
331
3171
  5
3186
331
316B
  5
3172
331
31A6
  5
3164
331
316E
  5
3183
331
31A9
  5
3121
331
2FF5
  5
2FF5
331
2DF1
  5
2DF1
331
3186
  5
3120
331
2FD3
  5
2FEC
331
2FE1
  5
2FF0
331
2DC6
  5
2DC6
331
3166
  5
316D
331
2FE4
  5
2FF3
331
2DCF
  5
2DCF
331
2FED
  5
2FED
331
2F5B
  5
2F5B
331
3169
  5
3170
331
3172
  5
3188
331
316C
  5
3173
331
316F
  5
3184
331
300C
  5
300C
  0
SORTENTSTABLE
  5
2D4C
102
{ACAD_REACTORS
330
2D4B
102
}
330
2D4B
100
AcDbSortentsTable
330
2D3A
  0
XRECORD
  5
325A
102
{ACAD_REACTORS
330
3259
102
}
330
3259
100
AcDbXrecord
280
     1
 40
1.570796326794896
  0
XRECORD
  5
325C
102
{ACAD_REACTORS
330
3259
102
}
330
3259
100
AcDbXrecord
280
     1
340
14
  0
XRECORD
  5
325D
102
{ACAD_REACTORS
330
3259
102
}
330
3259
100
AcDbXrecord
280
     1
340
14
  0
XRECORD
  5
325B
102
{ACAD_REACTORS
330
3259
102
}
330
3259
100
AcDbXrecord
280
     1
340
14
  0
IMAGEDEF
  5
28A7
102
{ACAD_REACTORS
330
28A6
102
}
330
28A6
100
AcDbRasterImageDef
 90
        0
  1
C:\Users\Administrator\Desktop\$RGNZ9UX.JPG
 10
1291.0
 20
610.0
 11
0.0007745933384973
 21
0.0007745933384973
280
     1
281
     0
  0
LAYOUT
  5
1E
102
{ACAD_REACTORS
330
1A
102
}
330
1A
100
AcDbPlotSettings
  1

  2
Epson Stylus COLOR 440 ESC/P 2
  4

  6

 40
0.0
 41
0.0
 42
0.0
 43
0.0
 44
0.0
 45
0.0
 46
0.0
 47
0.0
 48
0.0
 49
0.0
140
0.0
141
0.0
142
1.0
143
1.0
 70
   688
 72
     0
 73
     0
 74
     5
  7

 75
    16
147
1.0
 76
     0
 77
     2
 78
   300
148
0.0
149
0.0
100
AcDbLayout
  1
Layout1
 70
     1
 71
     1
 10
0.0
 20
0.0
 11
420.0
 21
297.0
 12
0.0
 22
0.0
 32
0.0
 14
1.000000000000000E+20
 24
1.000000000000000E+20
 34
1.000000000000000E+20
 15
-1.000000000000000E+20
 25
-1.000000000000000E+20
 35
-1.000000000000000E+20
146
0.0
 13
0.0
 23
0.0
 33
0.0
 16
1.0
 26
0.0
 36
0.0
 17
0.0
 27
1.0
 37
0.0
 76
     0
330
1B
  0
LAYOUT
  5
26
102
{ACAD_REACTORS
330
1A
102
}
330
1A
100
AcDbPlotSettings
  1

  2
Epson Stylus COLOR 440 ESC/P 2
  4

  6

 40
0.0
 41
0.0
 42
0.0
 43
0.0
 44
0.0
 45
0.0
 46
0.0
 47
0.0
 48
0.0
 49
0.0
140
0.0
141
0.0
142
1.0
143
1.0
 70
   688
 72
     0
 73
     0
 74
     5
  7

 75
    16
147
1.0
 76
     0
 77
     2
 78
   300
148
0.0
149
0.0
100
AcDbLayout
  1
Layout2
 70
     1
 71
     2
 10
0.0
 20
0.0
 11
12.0
 21
9.0
 12
0.0
 22
0.0
 32
0.0
 14
0.0
 24
0.0
 34
0.0
 15
0.0
 25
0.0
 35
0.0
146
0.0
 13
0.0
 23
0.0
 33
0.0
 16
1.0
 26
0.0
 36
0.0
 17
0.0
 27
1.0
 37
0.0
 76
     0
330
23
  0
LAYOUT
  5
22
102
{ACAD_XDICTIONARY
360
2698
102
}
102
{ACAD_REACTORS
330
1A
102
}
330
1A
100
AcDbPlotSettings
  1

  2
none_device
  4
ISO_A4_(210.00_x_297.00_MM)
  6

 40
7.5
 41
20.0
 42
7.5
 43
20.0
 44
210.0
 45
297.0
 46
0.0
 47
0.0
 48
0.0
 49
0.0
140
0.0
141
0.0
142
1.0
143
9.177602477623295
 70
 11952
 72
     1
 73
     1
 74
     0
  7

 75
     0
147
0.1089609189805492
 76
     0
 77
     2
 78
   300
148
1638.945968138709
149
521.9759445033046
100
AcDbLayout
  1
Model
 70
     1
 71
     0
 10
0.0
 20
0.0
 11
12.0
 21
9.0
 12
0.0
 22
0.0
 32
0.0
 14
0.0
 24
0.0
 34
0.0
 15
0.0
 25
0.0
 35
0.0
146
0.0
 13
0.0
 23
0.0
 33
0.0
 16
1.0
 26
0.0
 36
0.0
 17
0.0
 27
1.0
 37
0.0
 76
     0
330
1F
331
24F3
1001
ACAD_PSEXT
1000
Kein
1000
Kein
1000
Nicht anwendbar
1000
Das Layout wird erst geplottet, wenn ein neuer Plotter-Konfigurationsname ausgewählt wird.
1070
     0
  0
MATERIAL
  5
24FE
102
{ACAD_XDICTIONARY
360
24FF
102
}
102
{ACAD_REACTORS
330
24F5
102
}
330
24F5
100
AcDbMaterial
  1
ByBlock
 72
     0
 43
0.0008202099737533
 43
0.0
 43
0.0
 43
0.0
 43
0.0
 43
0.0008202099737533
 43
0.0
 43
0.0
 43
0.0
 43
0.0
 43
1.0
 43
0.0
 43
0.0
 43
0.0
 43
0.0
 43
1.0
 77
     0
 47
0.0008202099737533
 47
0.0
 47
0.0
 47
0.0
 47
0.0
 47
0.0008202099737533
 47
0.0
 47
0.0
 47
0.0
 47
0.0
 47
1.0
 47
0.0
 47
0.0
 47
0.0
 47
0.0
 47
1.0
171
     0
 49
0.0008202099737533
 49
0.0
 49
0.0
 49
0.0
 49
0.0
 49
0.0008202099737533
 49
0.0
 49
0.0
 49
0.0
 49
0.0
 49
1.0
 49
0.0
 49
0.0
 49
0.0
 49
0.0
 49
1.0
175
     0
142
0.0008202099737533
142
0.0
142
0.0
142
0.0
142
0.0
142
0.0008202099737533
142
0.0
142
0.0
142
0.0
142
0.0
142
1.0
142
0.0
142
0.0
142
0.0
142
0.0
142
1.0
179
     0
144
0.0008202099737533
144
0.0
144
0.0
144
0.0
144
0.0
144
0.0008202099737533
144
0.0
144
0.0
144
0.0
144
0.0
144
1.0
144
0.0
144
0.0
144
0.0
144
0.0
144
1.0
147
0.0008202099737533
147
0.0
147
0.0
147
0.0
147
0.0
147
0.0008202099737533
147
0.0
147
0.0
147
0.0
147
0.0
147
1.0
147
0.0
147
0.0
147
0.0
147
0.0
147
1.0
  0
MATERIAL
  5
24F6
102
{ACAD_XDICTIONARY
360
24F7
102
}
102
{ACAD_REACTORS
330
24F5
102
}
330
24F5
100
AcDbMaterial
  1
ByLayer
 72
     0
 43
0.0008202099737533
 43
0.0
 43
0.0
 43
0.0
 43
0.0
 43
0.0008202099737533
 43
0.0
 43
0.0
 43
0.0
 43
0.0
 43
1.0
 43
0.0
 43
0.0
 43
0.0
 43
0.0
 43
1.0
 77
     0
 47
0.0008202099737533
 47
0.0
 47
0.0
 47
0.0
 47
0.0
 47
0.0008202099737533
 47
0.0
 47
0.0
 47
0.0
 47
0.0
 47
1.0
 47
0.0
 47
0.0
 47
0.0
 47
0.0
 47
1.0
171
     0
 49
0.0008202099737533
 49
0.0
 49
0.0
 49
0.0
 49
0.0
 49
0.0008202099737533
 49
0.0
 49
0.0
 49
0.0
 49
0.0
 49
1.0
 49
0.0
 49
0.0
 49
0.0
 49
0.0
 49
1.0
175
     0
142
0.0008202099737533
142
0.0
142
0.0
142
0.0
142
0.0
142
0.0008202099737533
142
0.0
142
0.0
142
0.0
142
0.0
142
1.0
142
0.0
142
0.0
142
0.0
142
0.0
142
1.0
179
     0
144
0.0008202099737533
144
0.0
144
0.0
144
0.0
144
0.0
144
0.0008202099737533
144
0.0
144
0.0
144
0.0
144
0.0
144
1.0
144
0.0
144
0.0
144
0.0
144
0.0
144
1.0
147
0.0008202099737533
147
0.0
147
0.0
147
0.0
147
0.0
147
0.0008202099737533
147
0.0
147
0.0
147
0.0
147
0.0
147
1.0
147
0.0
147
0.0
147
0.0
147
0.0
147
1.0
  0
MATERIAL
  5
2506
102
{ACAD_XDICTIONARY
360
2507
102
}
102
{ACAD_REACTORS
330
24F5
102
}
330
24F5
100
AcDbMaterial
  1
Global
 72
     0
 43
0.0008202099737533
 43
0.0
 43
0.0
 43
0.0
 43
0.0
 43
0.0008202099737533
 43
0.0
 43
0.0
 43
0.0
 43
0.0
 43
1.0
 43
0.0
 43
0.0
 43
0.0
 43
0.0
 43
1.0
 77
     0
 47
0.0008202099737533
 47
0.0
 47
0.0
 47
0.0
 47
0.0
 47
0.0008202099737533
 47
0.0
 47
0.0
 47
0.0
 47
0.0
 47
1.0
 47
0.0
 47
0.0
 47
0.0
 47
0.0
 47
1.0
171
     0
 49
0.0008202099737533
 49
0.0
 49
0.0
 49
0.0
 49
0.0
 49
0.0008202099737533
 49
0.0
 49
0.0
 49
0.0
 49
0.0
 49
1.0
 49
0.0
 49
0.0
 49
0.0
 49
0.0
 49
1.0
175
     0
142
0.0008202099737533
142
0.0
142
0.0
142
0.0
142
0.0
142
0.0008202099737533
142
0.0
142
0.0
142
0.0
142
0.0
142
1.0
142
0.0
142
0.0
142
0.0
142
0.0
142
1.0
179
     0
144
0.0008202099737533
144
0.0
144
0.0
144
0.0
144
0.0
144
0.0008202099737533
144
0.0
144
0.0
144
0.0
144
0.0
144
1.0
144
0.0
144
0.0
144
0.0
144
0.0
144
1.0
147
0.0008202099737533
147
0.0
147
0.0
147
0.0
147
0.0
147
0.0008202099737533
147
0.0
147
0.0
147
0.0
147
0.0
147
1.0
147
0.0
147
0.0
147
0.0
147
0.0
147
1.0
  0
MLEADERSTYLE
  5
2535
102
{ACAD_REACTORS
330
2534
102
}
330
2534
100
AcDbMLeaderStyle
170
     2
171
     1
172
     0
 90
        2
 40
0.0
 41
0.0
173
     1
 91
-1056964608
340
14
 92
       -2
290
     1
 42
2.0
291
     1
 43
0.36
  3
Standard
 44
4.0
300

342
11
174
     1
178
     6
175
     1
176
     0
 93
-1056964608
 45
4.0
292
     0
297
     0
 46
4.0
 94
-1056964608
 47
1.0
 49
1.0
140
1.0
293
     1
141
0.0
294
     1
177
     0
142
1.0
295
     0
296
     0
143
0.125
1001
ACAD_MLEADERVER
1070
     2
  0
MLINESTYLE
  5
18
102
{ACAD_REACTORS
330
17
102
}
330
17
100
AcDbMlineStyle
  2
STANDARD
 70
     0
  3

 62
   256
 51
90.0
 52
90.0
 71
     2
 49
0.5
 62
   256
  6
BYLAYER
 49
-0.5
 62
   256
  6
BYLAYER
  0
ACDBPLACEHOLDER
  5
F
102
{ACAD_REACTORS
330
E
102
}
330
E
  0
SCALE
  5
2523
102
{ACAD_REACTORS
330
2522
102
}
330
2522
100
AcDbScale
 70
     0
300
1:1
140
1.0
141
1.0
290
     1
  0
SCALE
  5
2524
102
{ACAD_REACTORS
330
2522
102
}
330
2522
100
AcDbScale
 70
     0
300
1:2
140
1.0
141
2.0
290
     0
  0
SCALE
  5
2525
102
{ACAD_REACTORS
330
2522
102
}
330
2522
100
AcDbScale
 70
     0
300
1:4
140
1.0
141
4.0
290
     0
  0
SCALE
  5
2526
102
{ACAD_REACTORS
330
2522
102
}
330
2522
100
AcDbScale
 70
     0
300
1:5
140
1.0
141
5.0
290
     0
  0
SCALE
  5
2527
102
{ACAD_REACTORS
330
2522
102
}
330
2522
100
AcDbScale
 70
     0
300
1:8
140
1.0
141
8.0
290
     0
  0
SCALE
  5
2528
102
{ACAD_REACTORS
330
2522
102
}
330
2522
100
AcDbScale
 70
     0
300
1:10
140
1.0
141
10.0
290
     0
  0
SCALE
  5
2529
102
{ACAD_REACTORS
330
2522
102
}
330
2522
100
AcDbScale
 70
     0
300
1:16
140
1.0
141
16.0
290
     0
  0
SCALE
  5
252A
102
{ACAD_REACTORS
330
2522
102
}
330
2522
100
AcDbScale
 70
     0
300
1:20
140
1.0
141
20.0
290
     0
  0
SCALE
  5
252B
102
{ACAD_REACTORS
330
2522
102
}
330
2522
100
AcDbScale
 70
     0
300
1:30
140
1.0
141
30.0
290
     0
  0
SCALE
  5
252C
102
{ACAD_REACTORS
330
2522
102
}
330
2522
100
AcDbScale
 70
     0
300
1:40
140
1.0
141
40.0
290
     0
  0
SCALE
  5
252D
102
{ACAD_REACTORS
330
2522
102
}
330
2522
100
AcDbScale
 70
     0
300
1:50
140
1.0
141
50.0
290
     0
  0
SCALE
  5
252E
102
{ACAD_REACTORS
330
2522
102
}
330
2522
100
AcDbScale
 70
     0
300
1:100
140
1.0
141
100.0
290
     0
  0
SCALE
  5
252F
102
{ACAD_REACTORS
330
2522
102
}
330
2522
100
AcDbScale
 70
     0
300
2:1
140
2.0
141
1.0
290
     0
  0
SCALE
  5
2530
102
{ACAD_REACTORS
330
2522
102
}
330
2522
100
AcDbScale
 70
     0
300
4:1
140
4.0
141
1.0
290
     0
  0
SCALE
  5
2531
102
{ACAD_REACTORS
330
2522
102
}
330
2522
100
AcDbScale
 70
     0
300
8:1
140
8.0
141
1.0
290
     0
  0
SCALE
  5
2532
102
{ACAD_REACTORS
330
2522
102
}
330
2522
100
AcDbScale
 70
     0
300
10:1
140
10.0
141
1.0
290
     0
  0
SCALE
  5
2533
102
{ACAD_REACTORS
330
2522
102
}
330
2522
100
AcDbScale
 70
     0
300
100:1
140
100.0
141
1.0
290
     0
  0
TABLESTYLE
  5
2521
102
{ACAD_XDICTIONARY
360
25A3
102
}
102
{ACAD_REACTORS
330
2520
102
}
330
2520
100
AcDbTableStyle
  3
Standard
 70
     0
 71
     0
 40
1.5
 41
1.5
280
     0
281
     0
  7
STANDARD
140
4.5
170
     2
 62
     0
 63
     7
283
     0
274
    -2
284
     1
 64
     0
275
    -2
285
     1
 65
     0
276
    -2
286
     1
 66
     0
277
    -2
287
     1
 67
     0
278
    -2
288
     1
 68
     0
279
    -2
289
     1
 69
     0
  7
STANDARD
140
6.0
170
     5
 62
     0
 63
     7
283
     0
274
    -2
284
     1
 64
     0
275
    -2
285
     1
 65
     0
276
    -2
286
     1
 66
     0
277
    -2
287
     1
 67
     0
278
    -2
288
     1
 68
     0
279
    -2
289
     1
 69
     0
  7
STANDARD
140
4.5
170
     5
 62
     0
 63
     7
283
     0
274
    -2
284
     1
 64
     0
275
    -2
285
     1
 65
     0
276
    -2
286
     1
 66
     0
277
    -2
287
     1
 67
     0
278
    -2
288
     1
 68
     0
279
    -2
289
     1
 69
     0
  0
VISUALSTYLE
  5
2514
102
{ACAD_XDICTIONARY
360
326B
102
}
102
{ACAD_REACTORS
330
250E
102
}
330
250E
100
AcDbVisualStyle
  2
2dWireframe
 70
     4
 71
     0
 72
     2
 73
     0
 90
        0
 40
-0.6
 41
-30.0
 62
     5
 63
     7
421
 16777215
 74
     1
 91
        4
 64
     7
 65
   257
 75
     1
175
     1
 42
1.0
 92
        0
 66
   257
 43
1.0
 76
     1
 77
     6
 78
     2
 67
     7
 79
     5
170
     0
171
     0
290
     0
174
     0
 93
        1
 44
0.0
173
     0
291
     0
 45
0.0
1001
ACAD
1000
AcDbSavedByObjectVersion
1070
     0
  0
VISUALSTYLE
  5
2516
102
{ACAD_XDICTIONARY
360
326F
102
}
102
{ACAD_REACTORS
330
250E
102
}
330
250E
100
AcDbVisualStyle
  2
3D Hidden
 70
     6
 71
     1
 72
     2
 73
     2
 90
        0
 40
-0.6
 41
-30.0
 62
     5
 63
     7
421
 16777215
 74
     2
 91
        2
 64
     7
 65
   257
 75
     2
175
     1
 42
40.0
 92
        0
 66
   257
 43
1.0
 76
     1
 77
     6
 78
     2
 67
     7
 79
     3
170
     0
171
     0
290
     0
174
     0
 93
        1
 44
0.0
173
     0
291
     0
 45
0.0
1001
ACAD
1000
AcDbSavedByObjectVersion
1070
     0
  0
VISUALSTYLE
  5
2515
102
{ACAD_XDICTIONARY
360
326D
102
}
102
{ACAD_REACTORS
330
250E
102
}
330
250E
100
AcDbVisualStyle
  2
3dWireframe
 70
     5
 71
     0
 72
     2
 73
     0
 90
        0
 40
-0.6
 41
-30.0
 62
     5
 63
     7
421
 16777215
 74
     1
 91
        4
 64
     7
 65
   257
 75
     1
175
     1
 42
1.0
 92
        0
 66
   257
 43
1.0
 76
     1
 77
     6
 78
     2
 67
     7
 79
     5
170
     0
171
     0
290
     0
174
     0
 93
        1
 44
0.0
173
     0
291
     0
 45
0.0
1001
ACAD
1000
AcDbSavedByObjectVersion
1070
     0
  0
VISUALSTYLE
  5
2513
102
{ACAD_XDICTIONARY
360
3269
102
}
102
{ACAD_REACTORS
330
250E
102
}
330
250E
100
AcDbVisualStyle
  2
Basic
 70
     7
 71
     1
 72
     0
 73
     1
 90
        0
 40
-0.6
 41
-30.0
 62
     5
 63
     7
421
 16777215
 74
     0
 91
        4
 64
     7
 65
   257
 75
     1
175
     1
 42
1.0
 92
        8
 66
     7
 43
1.0
 76
     1
 77
     6
 78
     2
 67
     7
 79
     5
170
     0
171
     0
290
     0
174
     0
 93
        1
 44
0.0
173
     0
291
     1
 45
0.0
1001
ACAD
1000
AcDbSavedByObjectVersion
1070
     0
  0
VISUALSTYLE
  5
251A
102
{ACAD_XDICTIONARY
360
3277
102
}
102
{ACAD_REACTORS
330
250E
102
}
330
250E
100
AcDbVisualStyle
  2
Brighten
 70
    12
 71
     2
 72
     2
 73
     0
 90
        0
 40
-0.6
 41
-30.0
 62
     5
 63
     7
421
 16777215
 74
     1
 91
        4
 64
     7
 65
   257
 75
     1
175
     1
 42
1.0
 92
        8
 66
     7
 43
1.0
 76
     1
 77
     6
 78
     2
 67
     7
 79
     5
170
     0
171
     0
290
     0
174
     0
 93
        1
 44
50.0
173
     0
291
     1
 45
0.0
1001
ACAD
1000
AcDbSavedByObjectVersion
1070
     0
  0
VISUALSTYLE
  5
251E
102
{ACAD_XDICTIONARY
360
327F
102
}
102
{ACAD_REACTORS
330
250E
102
}
330
250E
100
AcDbVisualStyle
  2
ColorChange
 70
    16
 71
     2
 72
     2
 73
     3
 90
        0
 40
-0.6
 41
-30.0
 62
     5
 63
     8
421
  8421504
 74
     1
 91
        4
 64
     7
 65
   257
 75
     1
175
     1
 42
1.0
 92
        8
 66
     8
424
  8421504
 43
1.0
 76
     1
 77
     6
 78
     2
 67
     7
 79
     5
170
     0
171
     0
290
     0
174
     0
 93
        1
 44
0.0
173
     0
291
     1
 45
0.0
1001
ACAD
1000
AcDbSavedByObjectVersion
1070
     0
  0
VISUALSTYLE
  5
2517
102
{ACAD_XDICTIONARY
360
3271
102
}
102
{ACAD_REACTORS
330
250E
102
}
330
250E
100
AcDbVisualStyle
  2
Conceptual
 70
     9
 71
     3
 72
     2
 73
     0
 90
        0
 40
-0.6
 41
-30.0
 62
     5
 63
     7
421
 16777215
 74
     2
 91
        2
 64
     7
 65
   257
 75
     1
175
     1
 42
40.0
 92
        8
 66
     7
 43
1.0
 76
     1
 77
     6
 78
     2
 67
     7
 79
     3
170
     0
171
     0
290
     0
174
     0
 93
        1
 44
0.0
173
     0
291
     0
 45
0.0
1001
ACAD
1000
AcDbSavedByObjectVersion
1070
     0
  0
VISUALSTYLE
  5
2519
102
{ACAD_XDICTIONARY
360
3275
102
}
102
{ACAD_REACTORS
330
250E
102
}
330
250E
100
AcDbVisualStyle
  2
Dim
 70
    11
 71
     2
 72
     2
 73
     0
 90
        0
 40
-0.6
 41
-30.0
 62
     5
 63
     7
421
 16777215
 74
     1
 91
        4
 64
     7
 65
   257
 75
     1
175
     1
 42
1.0
 92
        8
 66
     7
 43
1.0
 76
     1
 77
     6
 78
     2
 67
     7
 79
     5
170
     0
171
     0
290
     0
174
     0
 93
        1
 44
-50.0
173
     0
291
     1
 45
0.0
1001
ACAD
1000
AcDbSavedByObjectVersion
1070
     0
  0
VISUALSTYLE
  5
264E
102
{ACAD_XDICTIONARY
360
3294
102
}
102
{ACAD_REACTORS
330
250E
102
}
330
250E
100
AcDbVisualStyle
  2
EdgeColorOff
 70
    22
 71
     2
 72
     2
 73
     0
 90
        0
 40
-0.6
 41
-30.0
 62
     5
 63
     7
421
 16777215
 74
     1
 91
        4
 64
     7
 65
   257
 75
     1
175
     1
 42
1.0
 92
        8
 66
     7
 43
1.0
 76
     1
 77
     6
 78
     2
 67
     7
 79
     5
170
     0
171
     0
290
     0
174
     0
 93
        1
 44
0.0
173
     0
291
     1
 45
0.0
1001
ACAD
1000
AcDbSavedByObjectVersion
1070
     0
  0
VISUALSTYLE
  5
251D
102
{ACAD_XDICTIONARY
360
327D
102
}
102
{ACAD_REACTORS
330
250E
102
}
330
250E
100
AcDbVisualStyle
  2
Facepattern
 70
    15
 71
     2
 72
     2
 73
     0
 90
        0
 40
-0.6
 41
-30.0
 62
     5
 63
     7
421
 16777215
 74
     1
 91
        4
 64
     7
 65
   257
 75
     1
175
     1
 42
1.0
 92
        8
 66
     7
 43
1.0
 76
     1
 77
     6
 78
     2
 67
     7
 79
     5
170
     0
171
     0
290
     0
174
     0
 93
        1
 44
0.0
173
     0
291
     1
 45
0.0
1001
ACAD
1000
AcDbSavedByObjectVersion
1070
     0
  0
VISUALSTYLE
  5
250F
102
{ACAD_XDICTIONARY
360
3261
102
}
102
{ACAD_REACTORS
330
250E
102
}
330
250E
100
AcDbVisualStyle
  2
Flat
 70
     0
 71
     2
 72
     1
 73
     1
 90
        2
 40
-0.6
 41
30.0
 62
     5
 63
     7
421
 16777215
 74
     0
 91
        4
 64
     7
 65
   257
 75
     1
175
     1
 42
1.0
 92
        8
 66
     7
 43
1.0
 76
     1
 77
     6
 78
     2
 67
     7
 79
     5
170
     0
171
     0
290
     0
174
     0
 93
       13
 44
0.0
173
     0
291
     1
 45
0.0
1001
ACAD
1000
AcDbSavedByObjectVersion
1070
     0
  0
VISUALSTYLE
  5
2510
102
{ACAD_XDICTIONARY
360
3263
102
}
102
{ACAD_REACTORS
330
250E
102
}
330
250E
100
AcDbVisualStyle
  2
FlatWithEdges
 70
     1
 71
     2
 72
     1
 73
     1
 90
        2
 40
-0.6
 41
30.0
 62
     5
 63
     7
421
 16777215
 74
     1
 91
        4
 64
     7
 65
   257
 75
     1
175
     1
 42
1.0
 92
        0
 66
   257
 43
1.0
 76
     1
 77
     6
 78
     2
 67
     7
 79
     5
170
     0
171
     0
290
     0
174
     0
 93
       13
 44
0.0
173
     0
291
     1
 45
0.0
1001
ACAD
1000
AcDbSavedByObjectVersion
1070
     0
  0
VISUALSTYLE
  5
2511
102
{ACAD_XDICTIONARY
360
3265
102
}
102
{ACAD_REACTORS
330
250E
102
}
330
250E
100
AcDbVisualStyle
  2
Gouraud
 70
     2
 71
     2
 72
     2
 73
     1
 90
        2
 40
-0.6
 41
30.0
 62
     5
 63
     7
421
 16777215
 74
     0
 91
        4
 64
     7
 65
   257
 75
     1
175
     1
 42
1.0
 92
        0
 66
     7
 43
1.0
 76
     1
 77
     6
 78
     2
 67
     7
 79
     5
170
     0
171
     0
290
     0
174
     0
 93
       13
 44
0.0
173
     0
291
     1
 45
0.0
1001
ACAD
1000
AcDbSavedByObjectVersion
1070
     0
  0
VISUALSTYLE
  5
2512
102
{ACAD_XDICTIONARY
360
3267
102
}
102
{ACAD_REACTORS
330
250E
102
}
330
250E
100
AcDbVisualStyle
  2
GouraudWithEdges
 70
     3
 71
     2
 72
     2
 73
     1
 90
        2
 40
-0.6
 41
30.0
 62
     5
 63
     7
421
 16777215
 74
     1
 91
        4
 64
     7
 65
   257
 75
     1
175
     1
 42
1.0
 92
        0
 66
   257
 43
1.0
 76
     1
 77
     6
 78
     2
 67
     7
 79
     5
170
     0
171
     0
290
     0
174
     0
 93
       13
 44
0.0
173
     0
291
     1
 45
0.0
1001
ACAD
1000
AcDbSavedByObjectVersion
1070
     0
  0
VISUALSTYLE
  5
2646
102
{ACAD_XDICTIONARY
360
3284
102
}
102
{ACAD_REACTORS
330
250E
102
}
330
250E
100
AcDbVisualStyle
  2
Hidden
 70
     6
 71
     1
 72
     2
 73
     2
 90
        0
 40
-0.6
 41
-30.0
 62
     5
 63
     7
421
 16777215
 74
     2
 91
        2
 64
     7
 65
   257
 75
     2
175
     1
 42
40.0
 92
        0
 66
   257
 43
1.0
 76
     1
 77
     6
 78
     2
 67
     7
 79
     3
170
     0
171
     0
290
     0
174
     0
 93
        1
 44
0.0
173
     0
291
     0
 45
0.0
1001
ACAD
1000
AcDbSavedByObjectVersion
1070
     0
  0
VISUALSTYLE
  5
264C
102
{ACAD_XDICTIONARY
360
3290
102
}
102
{ACAD_REACTORS
330
250E
102
}
330
250E
100
AcDbVisualStyle
  2
JitterOff
 70
    20
 71
     2
 72
     2
 73
     0
 90
        0
 40
-0.6
 41
-30.0
 62
     5
 63
     7
421
 16777215
 74
     1
 91
        4
 64
     7
 65
   257
 75
     1
175
     1
 42
1.0
 92
       10
 66
     7
 43
1.0
 76
     1
 77
     6
 78
     2
 67
     7
 79
     5
170
     0
171
     0
290
     0
174
     0
 93
        1
 44
0.0
173
     0
291
     1
 45
0.0
1001
ACAD
1000
AcDbSavedByObjectVersion
1070
     0
  0
VISUALSTYLE
  5
251C
102
{ACAD_XDICTIONARY
360
327B
102
}
102
{ACAD_REACTORS
330
250E
102
}
330
250E
100
AcDbVisualStyle
  2
Linepattern
 70
    14
 71
     2
 72
     2
 73
     0
 90
        0
 40
-0.6
 41
-30.0
 62
     5
 63
     7
421
 16777215
 74
     1
 91
        4
 64
     7
 65
   257
 75
     7
175
     7
 42
1.0
 92
        8
 66
     7
 43
1.0
 76
     1
 77
     6
 78
     2
 67
     7
 79
     5
170
     0
171
     0
290
     0
174
     0
 93
        1
 44
0.0
173
     0
291
     1
 45
0.0
1001
ACAD
1000
AcDbSavedByObjectVersion
1070
     0
  0
VISUALSTYLE
  5
264D
102
{ACAD_XDICTIONARY
360
3292
102
}
102
{ACAD_REACTORS
330
250E
102
}
330
250E
100
AcDbVisualStyle
  2
OverhangOff
 70
    21
 71
     2
 72
     2
 73
     0
 90
        0
 40
-0.6
 41
-30.0
 62
     5
 63
     7
421
 16777215
 74
     1
 91
        4
 64
     7
 65
   257
 75
     1
175
     1
 42
1.0
 92
        9
 66
     7
 43
1.0
 76
     1
 77
     6
 78
     2
 67
     7
 79
     5
170
     0
171
     0
290
     0
174
     0
 93
        1
 44
0.0
173
     0
291
     1
 45
0.0
1001
ACAD
1000
AcDbSavedByObjectVersion
1070
     0
  0
VISUALSTYLE
  5
2518
102
{ACAD_XDICTIONARY
360
3273
102
}
102
{ACAD_REACTORS
330
250E
102
}
330
250E
100
AcDbVisualStyle
  2
Realistic
 70
     8
 71
     2
 72
     2
 73
     0
 90
        0
 40
-0.6
 41
-30.0
 62
     5
 63
     7
421
 16777215
 74
     1
 91
        0
 64
     7
 65
   257
 75
     1
175
     1
 42
1.0
 92
        8
 66
     8
424
  7895160
 43
1.0
 76
     1
 77
     6
 78
     2
 67
     7
 79
     5
170
     0
171
     0
290
     0
174
     0
 93
       13
 44
0.0
173
     0
291
     0
 45
0.0
1001
ACAD
1000
AcDbSavedByObjectVersion
1070
     0
  0
VISUALSTYLE
  5
264B
102
{ACAD_XDICTIONARY
360
328E
102
}
102
{ACAD_REACTORS
330
250E
102
}
330
250E
100
AcDbVisualStyle
  2
Shaded
 70
    27
 71
     2
 72
     2
 73
     1
 90
        2
 40
-0.6
 41
30.0
 62
     5
 63
     7
421
 16777215
 74
     0
 91
        4
 64
     7
 65
   257
 75
     1
175
     1
 42
1.0
 92
        8
 66
   257
 43
1.0
 76
     1
 77
     6
 78
     2
 67
     8
425
  7895160
 79
     3
170
     0
171
     0
290
     0
174
     0
 93
        5
 44
0.0
173
     0
291
     0
 45
0.0
1001
ACAD
1000
AcDbSavedByObjectVersion
1070
     0
  0
VISUALSTYLE
  5
264A
102
{ACAD_XDICTIONARY
360
328C
102
}
102
{ACAD_REACTORS
330
250E
102
}
330
250E
100
AcDbVisualStyle
  2
Shaded with edges
 70
    26
 71
     2
 72
     2
 73
     1
 90
        2
 40
-0.6
 41
30.0
 62
     5
 63
     7
421
 16777215
 74
     1
 91
       10
 64
     7
 65
   257
 75
     2
175
     1
 42
1.0
 92
        8
 66
   257
 43
1.0
 76
     1
 77
     6
 78
     2
 67
     7
 79
     3
170
     0
171
     0
290
     0
174
     0
 93
        5
 44
0.0
173
     0
291
     0
 45
0.0
1001
ACAD
1000
AcDbSavedByObjectVersion
1070
     0
  0
VISUALSTYLE
  5
2647
102
{ACAD_XDICTIONARY
360
3286
102
}
102
{ACAD_REACTORS
330
250E
102
}
330
250E
100
AcDbVisualStyle
  2
Shades of Gray
 70
    23
 71
     2
 72
     2
 73
     3
 90
        0
 40
-0.6
 41
-30.0
 62
     5
 63
     7
421
 16777215
 74
     2
 91
        2
 64
     7
 65
     7
 75
     1
175
     1
 42
40.0
 92
        8
 66
     7
 43
1.0
 76
     1
 77
     6
 78
     2
 67
     7
 79
     3
170
     0
171
     0
290
     0
174
     0
 93
        1
 44
0.0
173
     0
291
     0
 45
0.0
1001
ACAD
1000
AcDbSavedByObjectVersion
1070
     0
  0
VISUALSTYLE
  5
2648
102
{ACAD_XDICTIONARY
360
3288
102
}
102
{ACAD_REACTORS
330
250E
102
}
330
250E
100
AcDbVisualStyle
  2
Sketchy
 70
    24
 71
     1
 72
     2
 73
     2
 90
        0
 40
-0.6
 41
-30.0
 62
     5
 63
     7
421
 16777215
 74
     2
 91
        2
 64
     7
 65
     7
 75
     1
175
     1
 42
40.0
 92
       11
 66
     7
 43
1.0
 76
     1
 77
     6
 78
     2
 67
     7
 79
     6
170
     0
171
     0
290
     0
174
     0
 93
        1
 44
0.0
173
     0
291
     0
 45
0.0
1001
ACAD
1000
AcDbSavedByObjectVersion
1070
     0
  0
VISUALSTYLE
  5
251B
102
{ACAD_XDICTIONARY
360
3279
102
}
102
{ACAD_REACTORS
330
250E
102
}
330
250E
100
AcDbVisualStyle
  2
Thicken
 70
    13
 71
     2
 72
     2
 73
     0
 90
        0
 40
-0.6
 41
-30.0
 62
     5
 63
     7
421
 16777215
 74
     1
 91
        4
 64
     7
 65
   257
 75
     1
175
     1
 42
1.0
 92
       12
 66
     7
 43
1.0
 76
     1
 77
     6
 78
     2
 67
     7
 79
     5
170
     0
171
     0
290
     0
174
     0
 93
        1
 44
0.0
173
     0
291
     1
 45
0.0
1001
ACAD
1000
AcDbSavedByObjectVersion
1070
     0
  0
VISUALSTYLE
  5
2645
102
{ACAD_XDICTIONARY
360
3282
102
}
102
{ACAD_REACTORS
330
250E
102
}
330
250E
100
AcDbVisualStyle
  2
Wireframe
 70
     5
 71
     0
 72
     2
 73
     0
 90
        0
 40
-0.6
 41
-30.0
 62
     5
 63
     7
421
 16777215
 74
     1
 91
        4
 64
     7
 65
   257
 75
     1
175
     1
 42
1.0
 92
        0
 66
   257
 43
1.0
 76
     1
 77
     6
 78
     2
 67
     7
 79
     3
170
     0
171
     0
290
     0
174
     0
 93
        1
 44
0.0
173
     0
291
     0
 45
0.0
1001
ACAD
1000
AcDbSavedByObjectVersion
1070
     0
  0
VISUALSTYLE
  5
2649
102
{ACAD_XDICTIONARY
360
328A
102
}
102
{ACAD_REACTORS
330
250E
102
}
330
250E
100
AcDbVisualStyle
  2
X-Ray
 70
    25
 71
     2
 72
     2
 73
     1
 90
        1
 40
0.5
 41
-30.0
 62
     5
 63
     7
421
 16777215
 74
     1
 91
        0
 64
     7
 65
   257
 75
     1
175
     1
 42
1.0
 92
        8
 66
     7
 43
1.0
 76
     1
 77
     6
 78
     2
 67
     7
 79
     3
170
     0
171
     0
290
     0
174
     0
 93
       13
 44
0.0
173
     0
291
     0
 45
0.0
1001
ACAD
1000
AcDbSavedByObjectVersion
1070
     0
  0
DICTIONARYVAR
  5
25AE
102
{ACAD_REACTORS
330
86
102
}
330
86
100
DictionaryVariables
280
     0
  1
1:1
  0
DICTIONARYVAR
  5
25AD
102
{ACAD_REACTORS
330
86
102
}
330
86
100
DictionaryVariables
280
     0
  1
STANDARD
  0
DICTIONARYVAR
  5
25AC
102
{ACAD_REACTORS
330
86
102
}
330
86
100
DictionaryVariables
280
     0
  1
STANDARD
  0
DICTIONARYVAR
  5
89
102
{ACAD_REACTORS
330
86
102
}
330
86
100
DictionaryVariables
280
     0
  1
2
  0
DICTIONARYVAR
  5
88
102
{ACAD_REACTORS
330
86
102
}
330
86
100
DictionaryVariables
280
     0
  1
1
  0
DICTIONARYVAR
  5
87
102
{ACAD_REACTORS
330
86
102
}
330
86
100
DictionaryVariables
280
     0
  1
1
  0
DICTIONARYVAR
  5
269C
102
{ACAD_REACTORS
330
86
102
}
330
86
100
DictionaryVariables
280
     0
  1
1
  0
DICTIONARYVAR
  5
269D
102
{ACAD_REACTORS
330
86
102
}
330
86
100
DictionaryVariables
280
     0
  1
15
  0
DICTIONARYVAR
  5
269B
102
{ACAD_REACTORS
330
86
102
}
330
86
100
DictionaryVariables
280
     0
  1
0
  0
DICTIONARYVAR
  5
269A
102
{ACAD_REACTORS
330
86
102
}
330
86
100
DictionaryVariables
280
     0
  1
0
  0
DICTIONARY
  5
4A
102
{ACAD_REACTORS
330
45
102
}
330
45
100
AcDbDictionary
281
     1
  0
XRECORD
  5
258D
102
{ACAD_REACTORS
330
45
102
}
330
45
100
AcDbXrecord
280
     1
 90
-1023410169
  0
XRECORD
  5
429
102
{ACAD_REACTORS
330
427
102
}
330
427
100
AcDbXrecord
280
     1
330
0
  0
DICTIONARY
  5
2698
330
22
100
AcDbDictionary
280
     1
281
     1
  3
ADSK_XREC_LAYOUTTHUMBNAIL
360
2699
  0
DICTIONARY
  5
24FF
330
24FE
100
AcDbDictionary
280
     1
281
     1
  3
ACAD_XREC_ROUNDTRIP
360
325F
  3
BUMPTILE
360
2501
  3
DIFFUSETILE
360
2500
  3
OPACITYTILE
360
2504
  3
REFLECTIONTILE
360
2503
  3
REFRACTIONTILE
360
2505
  3
SPECULARTILE
360
2502
  0
DICTIONARY
  5
24F7
330
24F6
100
AcDbDictionary
280
     1
281
     1
  3
ACAD_XREC_ROUNDTRIP
360
325E
  3
BUMPTILE
360
24F9
  3
DIFFUSETILE
360
24F8
  3
OPACITYTILE
360
24FC
  3
REFLECTIONTILE
360
24FB
  3
REFRACTIONTILE
360
24FD
  3
SPECULARTILE
360
24FA
  0
DICTIONARY
  5
2507
330
2506
100
AcDbDictionary
280
     1
281
     1
  3
ACAD_XREC_ROUNDTRIP
360
3260
  3
BUMPTILE
360
2509
  3
DIFFUSETILE
360
2508
  3
OPACITYTILE
360
250C
  3
REFLECTIONTILE
360
250B
  3
REFRACTIONTILE
360
250D
  3
SPECULARTILE
360
250A
  0
DICTIONARY
  5
25A3
330
2521
100
AcDbDictionary
280
     1
281
     1
  3
ACAD_ROUNDTRIP_2008_TABLESTYLE_CELLSTYLEMAP
360
3257
  3
ACAD_XREC_ROUNDTRIP
360
3281
  0
DICTIONARY
  5
326B
330
2514
100
AcDbDictionary
280
     1
281
     1
  3
ACAD_XREC_ROUNDTRIP
360
326C
  0
DICTIONARY
  5
326F
330
2516
100
AcDbDictionary
280
     1
281
     1
  3
ACAD_XREC_ROUNDTRIP
360
3270
  0
DICTIONARY
  5
326D
330
2515
100
AcDbDictionary
280
     1
281
     1
  3
ACAD_XREC_ROUNDTRIP
360
326E
  0
DICTIONARY
  5
3269
330
2513
100
AcDbDictionary
280
     1
281
     1
  3
ACAD_XREC_ROUNDTRIP
360
326A
  0
DICTIONARY
  5
3277
330
251A
100
AcDbDictionary
280
     1
281
     1
  3
ACAD_XREC_ROUNDTRIP
360
3278
  0
DICTIONARY
  5
327F
330
251E
100
AcDbDictionary
280
     1
281
     1
  3
ACAD_XREC_ROUNDTRIP
360
3280
  0
DICTIONARY
  5
3271
330
2517
100
AcDbDictionary
280
     1
281
     1
  3
ACAD_XREC_ROUNDTRIP
360
3272
  0
DICTIONARY
  5
3275
330
2519
100
AcDbDictionary
280
     1
281
     1
  3
ACAD_XREC_ROUNDTRIP
360
3276
  0
DICTIONARY
  5
3294
330
264E
100
AcDbDictionary
280
     1
281
     1
  3
ACAD_XREC_ROUNDTRIP
360
3295
  0
DICTIONARY
  5
327D
330
251D
100
AcDbDictionary
280
     1
281
     1
  3
ACAD_XREC_ROUNDTRIP
360
327E
  0
DICTIONARY
  5
3261
330
250F
100
AcDbDictionary
280
     1
281
     1
  3
ACAD_XREC_ROUNDTRIP
360
3262
  0
DICTIONARY
  5
3263
330
2510
100
AcDbDictionary
280
     1
281
     1
  3
ACAD_XREC_ROUNDTRIP
360
3264
  0
DICTIONARY
  5
3265
330
2511
100
AcDbDictionary
280
     1
281
     1
  3
ACAD_XREC_ROUNDTRIP
360
3266
  0
DICTIONARY
  5
3267
330
2512
100
AcDbDictionary
280
     1
281
     1
  3
ACAD_XREC_ROUNDTRIP
360
3268
  0
DICTIONARY
  5
3284
330
2646
100
AcDbDictionary
280
     1
281
     1
  3
ACAD_XREC_ROUNDTRIP
360
3285
  0
DICTIONARY
  5
3290
330
264C
100
AcDbDictionary
280
     1
281
     1
  3
ACAD_XREC_ROUNDTRIP
360
3291
  0
DICTIONARY
  5
327B
330
251C
100
AcDbDictionary
280
     1
281
     1
  3
ACAD_XREC_ROUNDTRIP
360
327C
  0
DICTIONARY
  5
3292
330
264D
100
AcDbDictionary
280
     1
281
     1
  3
ACAD_XREC_ROUNDTRIP
360
3293
  0
DICTIONARY
  5
3273
330
2518
100
AcDbDictionary
280
     1
281
     1
  3
ACAD_XREC_ROUNDTRIP
360
3274
  0
DICTIONARY
  5
328E
330
264B
100
AcDbDictionary
280
     1
281
     1
  3
ACAD_XREC_ROUNDTRIP
360
328F
  0
DICTIONARY
  5
328C
330
264A
100
AcDbDictionary
280
     1
281
     1
  3
ACAD_XREC_ROUNDTRIP
360
328D
  0
DICTIONARY
  5
3286
330
2647
100
AcDbDictionary
280
     1
281
     1
  3
ACAD_XREC_ROUNDTRIP
360
3287
  0
DICTIONARY
  5
3288
330
2648
100
AcDbDictionary
280
     1
281
     1
  3
ACAD_XREC_ROUNDTRIP
360
3289
  0
DICTIONARY
  5
3279
330
251B
100
AcDbDictionary
280
     1
281
     1
  3
ACAD_XREC_ROUNDTRIP
360
327A
  0
DICTIONARY
  5
3282
330
2645
100
AcDbDictionary
280
     1
281
     1
  3
ACAD_XREC_ROUNDTRIP
360
3283
  0
DICTIONARY
  5
328A
330
2649
100
AcDbDictionary
280
     1
281
     1
  3
ACAD_XREC_ROUNDTRIP
360
328B
  0
XRECORD
  5
2699
102
{ACAD_REACTORS
330
2698
102
}
330
2698
100
AcDbXrecord
280
     1
310
28000000000100007100000001000800000000000071000000000000000000000001000000000000FFFFFF0000000000FFFFFF000000000000000000000000000000000000000000000000000000000000000000330000006600000099000000CC000000FF00000000330000333300006633000099330000CC330000FF3300
310
0000660000336600006666000099660000CC660000FF66000000990000339900006699000099990000CC990000FF99000000CC000033CC000066CC000099CC0000CCCC0000FFCC000000FF000033FF000066FF000099FF0000CCFF0000FFFF000000003300330033006600330099003300CC003300FF003300003333003333
310
33006633330099333300CC333300FF33330000663300336633006666330099663300CC663300FF66330000993300339933006699330099993300CC993300FF99330000CC330033CC330066CC330099CC3300CCCC3300FFCC330000FF330033FF330066FF330099FF3300CCFF3300FFFF330000006600330066006600660099
310
006600CC006600FF00660000336600333366006633660099336600CC336600FF33660000666600336666006666660099666600CC666600FF66660000996600339966006699660099996600CC996600FF99660000CC660033CC660066CC660099CC6600CCCC6600FFCC660000FF660033FF660066FF660099FF6600CCFF6600
310
FFFF660000009900330099006600990099009900CC009900FF00990000339900333399006633990099339900CC339900FF33990000669900336699006666990099669900CC669900FF66990000999900339999006699990099999900CC999900FF99990000CC990033CC990066CC990099CC9900CCCC9900FFCC990000FF99
310
0033FF990066FF990099FF9900CCFF9900FFFF99000000CC003300CC006600CC009900CC00CC00CC00FF00CC000033CC003333CC006633CC009933CC00CC33CC00FF33CC000066CC003366CC006666CC009966CC00CC66CC00FF66CC000099CC003399CC006699CC009999CC00CC99CC00FF99CC0000CCCC0033CCCC0066CC
310
CC0099CCCC00CCCCCC00FFCCCC0000FFCC0033FFCC0066FFCC0099FFCC00CCFFCC00FFFFCC000000FF003300FF006600FF009900FF00CC00FF00FF00FF000033FF003333FF006633FF009933FF00CC33FF00FF33FF000066FF003366FF006666FF009966FF00CC66FF00FF66FF000099FF003399FF006699FF009999FF00CC
310
99FF00FF99FF0000CCFF0033CCFF0066CCFF0099CCFF00CCCCFF00FFCCFF0000FFFF0033FFFF0066FFFF0099FFFF00CCFFFF00FFFFFF00000000000D0D0D001A1A1A00282828003535350043434300505050005D5D5D006B6B6B00787878008686860093939300A1A1A100AEAEAE00BBBBBB00C9C9C900D6D6D600E4E4E400
310
F1F1F100FFFFFF000000000000000000000000000000000000000000000000000000000000000000000000000000000000000000000000000000000000000000000000000000000000000000000000000000000000000000000000000000000000000000000000000000000000000000000000000000000000000000000000
310
00000000000000000000000000000000000000000000000000000000000000000000000000000000000000000000000000000000000000000000000000000000000000000000000000000000000000000000000000000000000000000000000000000000000000000000000000000000000000000000000000000000000000
310
00000000000000000000000000000000000000000000000000000000000000000000000000000000000000000000000000000000000000000000000000000000000000000000000000000000000000000000000000000000000000000000000000000000000000000000000000000000000000000000000000000000000000
310
00000000000000000000000000000000000000000000000000000000000000000000000000000000000000000000000000000000000000000000000000000000000000000000000000000000000000000000000000000000000000000000000000000000000000000000000000000000000000000000000000000000000000
310
00000000000000000000000000000000000000000000000000000000000000000000000000000000000000000000000000000000000000000000000000000000000000000000000000000000000000000000000000000000000000000000000000000000000000000000000000000000000000000000000000000000000000
310
00000000000000000000000000000000000000000000000000000000000000000000000000000000000000000000000000000000000000000000000000000000000000000000000000000000000000000000000000000000000000000000000000000000000000000000000000000000000000000000000000000000000000
310
00000000000000000000000000000000000000000000000000000000000000000000000000000000000000000000000000000000000000000000000000000000000000000000000000000000000000000000000000000000000000000000000000000000000000000000000000000000000000000000000000000000000000
310
00000000000000000000000000000000000000000000000000000000000000000000000000000000000000000000000000000000000000000000000000000000000000000000000000000000000000000000000000000000000000000000000000000000000000000000000000000000000000000000000000000000000000
310
00000000000000000000000000000000000000000000000000000000000000000000000000000000000000000000000000000000000000000000000000000000000000000000000000000000000000000000000000000000000000000000000000000000000000000000000000000000000000000000000000000000000000
310
00000000000000000000000000000000000000000000000000000000000000000000000000000000000000000000000000000000000000000000000000000000000000000000000000000000000000000000000000000000000000000000000000000000000000000000000000000000000000000000000000000000000000
310
00000000000000000000000000000000000000000000000000000000000000000000000000000000000000000000000000000000000000000000000000000000000000000000000000000000000000000000000000000000000000000000000000000000000000000000000000000000000000000000000000000000000000
310
00000000000000000000000000000000000000000000000000000000000000000000000000000000000000000000000000000000000000000000000000000000000000000000000000000000000000000000000000000000000000000000000000000000000000000000000000000000000000000000000000000000000000
310
00000000000000000000000000000000000000000000000000000000000000000000000000000000000000000000000000000000000000000000000000000000000000000000000000000000000000000000000000000000000000000000000000000000000000000000000000000000000000000000000000000000000000
310
00000000000000000000000000000000000000000000000000000000000000000000000000000000000000000000000000000000000000000000000000000000000000000000000000000000000000000000000000000000000000000000000000000000000000000000000000000000000000000000000000000000000000
310
00000000000000000000000000000000000000000000000000000000000000000000000000000000000000000000000000000000000000000000000000000000000000000000000000000000000000000000000000000000000000000000000000000000000000000000000000000000000000000000000000000000000000
310
00000000000000000000000000000000000000000000000000000000000000000000000000000000000000000000000000000000000000000000000000000000000000000000000000000000000000000000000000000000000000000000000000000000000000000000000000000000000000000000000000000000000000
310
00000000000000000000000000000000000000000000000000000000000000000000000000000000000000000000000000000000000000000000000000000000000000000000000000000000000000000000000000000000000000000000000000000000000000000000000000000000000000000000000000000000000000
310
00000000000000000000000000000000000000000000000000000000000000000000000000000000000000000000000000000000000000000000000000000000000000000000000000000000000000000000000000000000000000000000000000000000000000000000000000000000000000000000000000000000000000
310
00000000000000000000000000000000000000000000000000000000000000000000000000000000000000000000000000000000000000000000000000000000000000000000000000000000000000000000000000000000000000000000000000000000000000000000000000000000000000000000000000000000000000
310
00000000000000000000000000000000000000000000000000000000000000000000000000000000000000000000000000000000000000000000000000000000000000000000000000000000000000000000000000000000000000000000000000000000000000000000000000000000000000000000000000000000000000
310
00000000000000000000000000000000000000000000000000000000000000000000000000000000000000000000000000000000000000000000000000000000000000000000000000000000000000000000000000000000000000000000000000000000000000000000000000000000000000000000000000000000000000
310
00000000000000000000000000000000000000000000000000000000000000000000000000000000000000000000000000000000000000000000000000000000000000000000000000000000000000000000000000000000000000000000000000000000000000000000000000000000000000000000000000000000000000
310
00000000000000000000000000000000000000000000000000000000000000000000000000000000000000000000000000000000000000000000000000000000000000000000000000000000000000000000000000000000000000000000000000000000000000000000000000000000000000000000000000000000000000
310
00000000000000000000000000000000000000000000000000000000000000000000000000000000000000000000000000000000000000000000000000000000000000000000000000000000000000000000000000000000000000000000000000000000000000000000000000000000000000000000000000000000000000
310
00000000000000000000000000000000000000000000000000000000000000000000000000000000000000000000000000000000000000000000000000000000000000000000000000000000000000000000000000000000000000000000000000000000000000000000000000000000000000000000000000000000000000
310
00000000000000000000000000000000000000000000000000000000000000000000000000000000000000000000000000000000000000000000000000000000000000000000000000000000000000000000000000000000000000000000000000000000000000000000000000000000000000000000000000000000000000
310
00000000000000000000000000000000000000000000000000000000000000000000000000000000000000000000000000000000000000000000000000000000000000000000000000000000000000000000000000000000000000000000000000000000000000000000000000000000000000000000000000000000000000
310
00000000000000000000000000000000000000000000000000000000000000000000000000000000000000000000000000000000000000000000000000000000000000000000000000000000000000000000000000000000000000000000000000000000000000000000000000000000000000000000000000000000000000
310
00000000000000000000000000000000000000000000000000000000000000000000000000000000000000000000000000000000000000000000000000000000000000000000000000000000000000000000000000000000000000000000000000000000000000000000000000000000000000000000000000000000000000
310
00000000000000000000000000000000000000000000000000000000000000000000000000000000000000000000000000000000000000000000000000000000000000000000000000000000000000000000000000000000000000000000000000000000000000000000000000000000000000000000000000000000000000
310
00000000000000000000000000000000000000000000000000000000000000000000000000000000000000000000000000000000000000000000000000000000000000000000000000000000000000000000000000000000000000000000000000000000000000000000000000000000000000000000000000000000000000
310
00000000000000000000000000000000000000000000000000000000000000000000000000000000000000000000000000000000000000000000000000000000000000000000000000000000000000000000000000000000000000000000000000000000000000000000000000000000000000000000000000000000000000
310
00000000000000000000000000000000000000000000000000000000000000000000000000000000000000000000000000000000000000000000000000000000000000000000000000000000000000000000000000000000000000000000000000000000000000000000000000000000000000000000000000000000000000
310
00000000000000000000000000000000000000000000000000000000000000000000000000000000000000000000000000000000000000000000000000000000000000000000000000000000000000000000000000000000000000000000000000000000000000000000000000000000000000000000000000000000000000
310
00000000000000000000000000000000000000000000000000000000000000000000000000000000000000000000000000000000000000000000000000000000000000000000000000000000000000000000000000000000000000000000000000000000000000000000000000000000000000000000000000000000000000
310
00000000000000000000000000000000000000000000000000000000000000000000000000000000000000000000000000000000000000000000000000000000000000000000000000000000000000000000000000000000000000000000000000000000000000000000000000000000000000000000000000000000000000
310
00000000000000000000000000000000000000000000000000000000000000000000000000000000000000000000000000000000000000000000000000000000000000000000000000000000000000000000000000000000000000000000000000000000000000000000000000000000000000000000000000000000000000
310
00000000000000000000000000000000000000000000000000000000000000000000000000000000000000000000000000000000000000000000000000000000000000000000000000000000000000000000000000000000000000000000000000000000000000000000000000000000000000000000000000000000000000
310
00000000000000000000000000000000000000000000000000000000000000000000000000000000000000000000000000000000000000000000000000000000000000000000000000000000000000000000000000000000000000000000000000000000000000000000000000000000000000000000000000000000000000
310
00000000000000000000000000000000000000000000000000000000000000000000000000000000000000000000000000000000000000000000000000000000000000000000000000000000000000000000000000000000000000000000000000000000000000000000000000000000000000000000000000000000000000
310
00000000000000000000000000000000000000000000000000000000000000000000000000000000000000000000000000000000000000000000000000000000000000000000000000000000000000000000000000000000000000000000000000000000000000000000000000000000000000000000000000000000000000
310
0000E2E2E2E2E2E2E2E2E2E2E2E2E2E2E2E2E2E2E2E2E2E2E2E2E2E2E2E2E2E2E2E2E2E2E2E2E2E2E2E2E2E2E2E2E2E2E2E2E2E2E2E2E2E2E2E2E2E2E2E2E2E2E2E2E2E2E2E2E2E2E2E2E2E2E2E2E2E2E2E2E2E2E2E2E2E2E2E2E2E2E2E2E2E2E2E2E2E2E2E2E2E2E2E2E2E2E2E2E2E2E2E2E2E20000000000000000000000
310
00000000000000000000000000000000000000000000000000000000000000000000000000000000000000000000000000000000000000000000000000000000000000000000000000000000000000000000000000000000000000000000000000000000000000000000000000000000000000000000000000000000000000
310
00000000E20000000000000000000000000000000000000000000000000000000000000000000000000000000000000000000000000000000000000000E2E2E2E2E2E2E2E2E2E2E2E2E2E2E2E2E2E2E2E2E2E2E2E2E2E2E2E2E2E2E2E2E2E2E2E2E2E2E2E2E2E2E2E2E2E2E2E2E2E2E2E2E2E2E20000E2E2E2E2E2E2E2E2E2
310
E2E2E200000000000000000000000000000000000000000000000000000000000000000000000000000000000000000000000000000000000000000000000000000000000000000000000000000000000000000000000000000000000000000000000000000000000000000000000000000000000000000000000000000000
310
000000000000E20000000000000000000000000000000000000000000000000000000000000000000000000000000000E2E2E2E2E2E2E2E2E2E2E2E2E2E2E200000000000000000000000000000000000000000000000000000000000000000000000000000000000000000000000000000000000000E2E2E2E2E2E2E2E2E2
310
E2E2E2E200E2E2E2E2E2E2E2E2E2E200000000000000000000000000000000000000000000000000000000000000000000000000000000000000000000000000000000000000000000000000000000000000000000000000000000000000000000000000000000000000000000000000000000000000000000000000000000
310
0000000000000000E2000000000000000000000000000000000000000000000000000000000000000000E2E2E2E2E2E2E2E20000000000000000000000000000000000000000000000000000000000000000000000000000000000000000000000000000000000000000000000000000000000000000000000000000000000
310
000000000000E2E2E2E2E2E2E200000000E2E2E20000000000000000000000000000000000000000000000000000000000000000000000000000000000000000000000000000000000000000000000000000000000000000000000000000000000000000000000000000000000000000000000000000000000000000000000
310
00000000000000000000E2000000000000000000000000000000000000000000000000000000000000E2E2E20000000000000000000000000000000000000000000000000000000000000000000000000000000000000000000000000000000000000000000000000000000000000000000000000000000000000000000000
310
000000000000000000000000000000E2E2E2E2000000E2E200000000000000000000000000000000000000000000000000000000000000000000000000000000000000000000000000000000000000000000000000000000000000000000000000000000000000000000000000000000000000000000000000000000000000
310
000000000000000000000000E200000000000000000000000000000000000000000000000000E2E2E2E2E2000000000000000000000000000000000000000000000000000000000000000000000000000000000000000000000000000000000000000000000000000000000000000000000000000000000000000000000000
310
000000000000000000000000000000000000000000E2E2E2E2E2E2E2000000000000000000000000000000000000000000000000000000000000000000000000000000000000000000000000000000000000000000000000000000000000000000000000000000000000000000000000000000000000000000000000000000
310
0000000000000000000000000000E20000000000000000000000000000000000000000000000E2E2E20000000000000000000000000000000000000000000000000000000000000000000000000000000000000000000000000000000000000000000000000000000000000000000000000000000000000000000000000000
310
00000000000000000000000000000000000000000000000000000000E2E2E2E2E200000000000000000000000000000000000000000000000000000000000000000000000000000000000000000000000000000000000000000000000000000000000000000000000000000000000000000000000000000000000000000000
310
00000000000000000000000000000000E20000000000000000000000000000000000000000E2E2E2000000000000000000000000000000000000000000000000E2E2E2E2E2E2E2E2E2E2E2E2E2E2E2E2E2E2E2E2E2E2E2E2E2E2E2E2E2E2E2E2E2E2E2E2E2E2E2E2E2E2E2E2E2E2E2E2E2E2E2E2E2E2E2E2E2E2E2E2E2E2E2
310
E2E2E2E2E2E2E2E2000000000000000000000000000000000000000000000000E2E2E2E2E2000000000000000000000000000000000000000000000000000000000000000000000000000000000000000000000000000000000000000000000000000000000000000000000000000000000000000000000000000000000000
310
000000000000000000000000000000000000E200000000000000000000000000000000000000E2E20000000000000000000000000000000000000000E2E2E2E2E2E200000000000000000000000000000000000000000000000000000000000000000000000000000000000000000000000000000000000000000000000000
310
00000000000000000000E2E2E2E2E2E2000000000000000000000000000000000000000000E2E2E2E20000000000000000000000000000000000000000000000000000000000000000000000000000000000000000000000000000000000000000000000000000000000000000000000000000000000000000000000000000
310
0000000000000000000000000000000000000000E20000000000000000000000000000000000E2E20000000000000000000000000000E2E2E2E2E2E2E2E20000000000000000000000000000000000000000000000000000000000000000000000000000000000000000000000000000000000000000000000000000000000
310
000000000000000000000000000000000000E2E2E2E2E2E2E2E20000000000000000000000000000E2E2E2E2E200000000000000000000000000000000000000000000000000000000000000000000000000000000000000000000000000000000000000000000000000000000000000000000000000000000000000000000
310
00000000000000000000000000000000000000000000E2000000000000000000000000000000E2E20000000000000000000000E2E2E2E2E2E2E200000000E2E2E2E200000000000000000000000000000000000000000000000000000000000000000000000000000000000000000000000000000000000000000000000000
310
00000000000000000000000000000000000000000000000000000000E2E2E2E2E2E200000000000000000000E2E200E2E2000000000000000000000000000000000000000000000000000000000000000000000000000000000000000000000000000000000000000000000000000000000000000000000000000000000000
310
000000000000000000000000000000000000000000000000E200000000000000000000000000E2E2E2000000000000000000E2E2E200E2E2E20000000000E2E2000000000000000000000000000000000000000000000000000000000000000000000000000000000000000000000000000000000000000000000000000000
310
000000000000000000000000000000000000000000000000000000000000000000000000E2E200000000000000000000E2E200E2000000000000000000000000000000000000000000000000000000000000000000000000000000000000000000000000000000000000000000000000000000000000000000000000000000
310
0000000000000000000000000000000000000000000000000000E2000000000000000000000000E2E2000000000000000000E2E20000E2E2000000000000E2E2000000000000000000000000000000000000000000000000000000000000000000000000000000000000000000000000000000000000000000000000000000
310
00000000000000000000000000000000000000000000000000000000000000000000000000000000E2E200000000000000000000E200E2000000000000000000000000000000000000000000000000000000000000000000000000000000000000000000000000000000000000000000000000000000000000000000000000
310
00000000000000000000000000000000000000000000000000000000E20000000000000000000000E2E2000000000000000000E20000E2E2000000000000E2E2000000000000000000000000000000000000000000000000000000000000000000000000000000000000000000000000000000000000000000000000000000
310
0000000000000000000000000000000000000000000000000000000000000000000000000000000000000000E2E2000000000000000000E2E2E2000000000000000000000000000000000000000000000000000000000000000000000000000000000000000000000000000000000000000000000000000000000000000000
310
000000000000000000000000000000000000000000000000000000000000E2C3C3C3C3C3C3C3C3C3C3C3C3C3C3C3C3C3C3C3C3C3C3C3C3C3C3C3C3C3C3C3C3C3C3C3C3C3C3C3C3C3C3C3C3C3C3C3C3C3C3C3C3C3C3C3C3C3C3C3C3C3C3C3C3C3C3C3C3C3C3C3C3C3C3C3C3C3C3C3C3C3C3C3C3C3C3C3C3C3C3C3C3C3C3C3C3
310
C3C3C3C3C3C3C3C3C3C3C3C3C3C3C3C3C3C3000000000000000000000000000000000000000000000000000000000000E2000000000000000000E2E2E2000000000000000000000000000000000000000000000000000000000000000000000000000000000000000000000000000000000000000000000000000000000000
310
0000000000000000000000000000000000000000000000000000000000000000E2000000000000000000E20000000000000000E2E2000000E2000000000000E2000000000000000000000000000000000000000000000000000000000000000000000000000000000000000000000000000000000000000000000000000000
310
0000000000000000000000000000000000000000C3C3C3C3C3C3C3C3C3C3C3C3C3000000000000000000000000000000000000E2E20000000000000000E200E2000000000000000000000000000000000000000000000000000000000000000000000000000000000000000000000000000000000000000000000000000000
310
00000000000000000000000000000000000000000000000000000000000000000000E2C3C3C3C3C3C3C3C3C3C3C3C3C3C3C3C3C3C3C3C3C3C3C3C3C3C3C3C3C3C3C3C3C3C3C3C3C3C3C3C3C3C3C3C3C3C3C3C3C3C3C3C3C3C3C3C3C3C3C3C3C3C3C3C3C3C3C3C3C3C3C3C3C3C3C3C3C3C3C3C3C3C3C3C3C3C3C3C3C3C3C3C3
310
C3C3C3C3C3C3C3C3C3C3C3C3C3C3C3C3C3C3C300000000000000000000000000000000C3C3C3C3C3C30000000000000000000000000000E2E200000000000000E200E2000000000000000000000000000000000000000000000000000000000000000000000000000000000000000000000000000000000000000000000000
310
000000000000000000000000000000000000000000000000000000000000000000000000E200000000000000E2E2000000000000E20000000000E2000000000000E2000000000000000000000000000000000000000000000000000000000000000000000000000000E2E2E2E2E2E2E2E2E2E2E2E2E2E2E2E2E2E2E2E2E2E2
310
E2E2E2E2E2E2E2E2E2E2E200000000000000000000C3C3C3C3C3C3C3C3C3C3C3C3C3C300000000000000C3C3C3C300000000000000000000000000E200000000000000E200E2000000000000000000000000000000000000000000000000000000000000000000000000000000000000000000000000000000000000000000
310
0000000000000000000000000000000000000000000000000000000000000000000000000000E200000000000000E2000000000000E20000000000E2000000000000E20000000000000000000000000000000000000000000000000000E2E2E2E2E2E2E2E2E2E2E2E2E2E20000000000000000000000000000000000000000
310
00000000000000000000000000E2E2E2E2E2E2E2E2E2E2E2E2E2E200000000000000000000C3C3C3C3C3C3C300000000C3C3C3C300000000000000000000E200000000000000E2E200000000000000000000000000000000000000000000000000000000000000000000000000000000000000000000000000000000000000
310
00000000000000000000000000000000000000000000000000000000000000000000000000000000E2000000000000E2000000000000E20000000000E2000000000000E2000000000000000000000000000000000000000000E2E2E2E2E2E20000000000000000000000000000000000000000000000000000000000000000
310
0000000000000000000000000000000000000000000000000000000000E2E2E2E2E2E200000000000000000000C3C3C3C300000000C3C3C3000000000000000000E2000000000000E2E2E2E2000000000000000000000000000000000000000000000000000000000000000000000000000000000000000000000000000000
310
000000000000000000000000000000000000000000000000000000000000000000000000000000000000E20000000000E2000000000000E2000000000000E20000000000E200000000000000000000000000000000000000E2E2E2000000000000000000000000000000000000000000000000000000000000000000000000
310
00000000000000000000000000000000000000000000000000000000000000000000000000E2E2E20000000000000000000000C3C3C3000000C3C3000000000000000000E2000000000000E20000E2000000000000000000000000000000000000000000000000000000000000000000000000000000000000000000000000
310
0000000000000000000000000000000000000000000000000000000000000000000000000000000000000000E200000000E2E2000000000000E20000000000E20000000000E2000000000000000000000000000000000000E2E200000000000000000000000000000000000000000000000000000000000000000000000000
310
000000000000000000000000000000000000000000000000000000000000000000000000000000000000E2E2E20000000000000000000000C3C3C30000C3C30000000000000000E2000000000000E200E200000000000000000000000000000000000000000000000000000000000000000000000000000000000000000000
310
00000000000000000000000000000000000000000000000000000000000000000000000000000000000000000000E200000000E2000000000000E20000000000E2000000000000E200000000000000000000000000000000E2E200000000000000000000C3C32DC30000000000000000000000000000000000000000000000
310
0000000000000000000000000000000000000000000000000000000000000000000000000000C32DC30000000000E2E2E20000000000000000000000C3C30000C3C30000000000000000E2000000000000E200E200000000000000000000000000000000000000000000000000000000000000000000000000000000000000
310
000000000000000000000000000000000000000000000000000000000000000000000000000000000000000000000000E2000000E2E20000000000E2000000000000E20000000000E2000000000000000000000000000000E2E20000000000000000000000C3C3C32DC3C30000000000000000000000000000000000000000
310
0000000000000000000000000000000000000000000000000000000000000000000000000000C3C3C32DC3C3C30000000000E2E2000000000000000000000000C3C30000C3C300000000000000E20000000000E200E20000000000000000000000000000000000000000000000000000000000000000000000000000000000
310
0000000000000000000000000000000000000000000000000000000000000000000000000000000000000000000000000000E2000000E20000000000E2000000000000E20000000000E2000000000000000000000000000000E2E2000000000000000000000000C3C3002DC3C3C30000000000000000000000000000000000
310
00000000000000000000000000000000000000000000000000000000000000000000000000000000C3C3002D00C3C300000000000000E200000000000000000000000000C30000C3C3000000000000E2000000000000E2E2000000000000000000000000000000000000000000000000000000000000000000000000000000
310
00000000000000000000000000000000000000000000000000000000000000000000000000000000000000000000000000000000E20000E2E20000000000E20000000000E2000000000000E20000000000000000000000000000E2E2000000000000000000000000C3C300002D00C3C3000000000000000000000000000000
310
0000000000000000000000000000000000000000000000000000000000000000000000000000000000C3C300002D00C3C30000000000000000E200000000000000000000000000C3C300C300000000000000E20000000000E2E200000000000000000000000000000000000000000000000000000000000000000000000000
310
000000000000000000000000000000000000000000000000000000000000000000000000000000000000000000000000000000000000E20000E20000000000E2000000000000E20000000000E20000000000000000000000000000E2E2000000000000000000000000002D2D2D2D2D2D2D2D00000000000000000000000000
310
000000000000000000000000000000000000000000000000000000000000000000000000000000000000002D2D2D2D2D2D2D2D000000000000000000E200000000000000000000000000C30000C3000000000000E20000000000E200E200000000000000000000000000000000000000000000000000000000000000000000
310
0000000000000000000000000000000000000000000000000000000000000000000000000000000000000000000000000000000000000000E20000E20000000000E20000000000E2000000000000E200000000000000000000000000E2E20000000000000000000000000000C3C300002D00C3C30000000000000000000000
310
000000000000000000000000000000000000000000000000000000000000000000000000000000000000000000C3C300002D00C3C3000000000000000000E2E200000000000000000000000000C30000C30000000000E2000000000000E2E20000000000000000000000000000000000000000000000000000000000000000
310
00000000000000000000000000000000000000000000000000000000000000000000000000000000000000000000000000000000000000000000E200E20000000000E2000000000000E20000000000E20000000000000000000000000000E200000000000000000000000000000000C3C3002DC3C3C3000000000000000000
310
000000000000000000000000000000000000000000000000000000000000000000000000000000000000000000000000C3C3C32DC3C3C300000000000000000000E2E200000000000000000000000000C300C3000000000000E20000000000E2E2000000000000000000000000000000000000000000000000000000000000
310
000000000000000000000000000000000000000000000000000000000000000000000000000000000000000000000000000000000000000000000000E200E20000000000E20000000000E2000000000000E200000000000000000000000000E20000000000000000000000000000000000C3C3C32DC3C30000000000000000
310
0000000000000000000000000000000000000000000000000000000000000000000000000000000000000000000000000000C3C3C32DC3C3000000000000000000000000E200000000000000000000000000C30000C30000000000E20000000000E2E200000000000000000000000000000000000000000000000000000000
310
0000000000000000000000000000000000000000000000000000000000000000000000000000000000000000000000000000000000000000000000000000E200E20000000000E20000000000E2000000000000E200000000000000000000000000E200000000000000000000000000000000000000002D0000000000000000
310
000000000000000000000000000000000000000000000000000000000000000000000000000000000000000000000000000000000000002D000000000000000000000000000000E200000000000000000000000000C300C3000000000000E200000000E2E2E200000000000000000000000000000000000000000000000000
310
00000000000000000000000000000000000000000000000000000000000000000000000000000000000000000000000000000000000000000000000000000000E200E20000000000E20000000000E20000000000E200000000000000000000000000E200000000000000000000000000000000000000000000000000000000
310
00000000000000000000000000000000000000000000000000000000000000000000000000000000000000000000000000000000000000000000000000000000000000000000000000E200000000000000000000000000C300C3000000000000E20000000000E2E20000000000000000000000000000000000000000000000
310
000000000000000000000000000000000000000000000000000000000000000000000000000000000000000000000000000000000000000000000000000000000000E200E20000000000E20000000000E20000000000E200000000000000000000000000E20000000000000000000000000000000000000000000000000000
310
000000000000000000000000000000000000000000000000000000000000000000000000000000000000000000000000000000000000000000000000000000000000000000000000000000E2E2000000000000000000000000C30000C30000000000E20000000000E2E2000000000000000000000000000000000000000000
310
0000000000000000000000000000000000000000000000000000000000000000000000000000000000000000000000000000000000000000000000000000000000000000E2E20000000000E20000000000E2000000000000E200000000000000000000000000E2000000000000000000000000000000000000000000000000
310
000000000000000000000000000000000000000000000000000000000000000000000000000000000000000000000000000000000000000000000000000000000000000000000000000000000000E200000000000000000000000000C300C30000000000E20000000000E2E200000000000000000000000000000000000000
310
00000000000000000000000000000000000000000000000000000000000000000000000000000000000000000000000000000000000000000000000000000000000000000000E2E20000000000E20000000000E2000000000000E2000000000000000000000000E20000000000000000000000000000000000000000000000
310
000000000000000000000000000000000000000000000000000000000000002D000000000000000000000000000000000000000000000000000000000000000000000000000000000000000000000000E200000000000000000000000000C300C30000000000E20000000000E200E200000000000000000000000000000000
310
000000000000000000000000000000000000000000000000000000000000000000000000000000000000000000000000000000000000000000000000000000000000000000000000E2E20000000000E20000000000E2000000000000E2000000000000000000000000E2000000000000000000000000000000000000000000
310
0000000000000000000000000000000000000000000000000000000000000000002D000000000000000000000000000000000000000000000000000000000000000000000000000000000000000000000000E200000000000000000000000000C300C3000000000000E200000000E200E20000000000000000000000000000
310
0000000000000000000000000000000000000000000000000000000000000000000000000000000000000000000000000000000000000000000000000000000000000000000000000000E2E20000000000E20000000000E2000000000000E2000000000000000000000000E200000000000000000000000000000000000000
310
000000000000000000000000000000000000000000000000000000000000000000E2E22DE2E200000000000000000000000000000000000000000000000000000000000000000000000000000000000000000000E200000000000000000000000000C300C3000000000000E200000000E200E2000000000000000000000000
310
00000000000000000000000000000000000000000000000000000000000000000000000000000000000000000000000000000000000000000000000000000000000000000000000000000000E2E20000000000E20000000000E2000000000000E2000000000000000000000000E20000000000000000000000000000000000
310
00000000000000000000000000000000000000000000000000000000000000000000E200E22DE2E20000000000000000000000000000000000000000000000000000000000000000000000000000000000000000000000E2000000000000000000000000C300C3000000000000E200000000E200E200000000000000000000
310
000000000000000000000000000000000000000000000000000000000000000000000000000000000000000000000000000000000000000000000000000000000000000000000000000000000000E2E20000000000E20000000000E2000000000000E2000000000000000000000000E2000000000000000000000000000000
310
000000000000000000000000000000000000000000000000000000000000000000000000E2E2002DE2E2E200000000000000000000000000000000000000000000000000000000000000000000000000000000000000000000E2000000000000000000000000C300C3000000000000E200000000E200E20000000000000000
310
0000000000000000000000000000000000000000000000000000000000000000000000000000000000000000000000000000000000000000000000000000000000000000000000000000000000000000E2E20000000000E20000000000E2000000000000E2000000000000000000000000E200000000000000000000000000
310
0000000000000000000000000000000000000000000000000000000000000000000000002D2D2D2D2D2D2D2D2D2D000000000000000000000000000000000000000000000000000000000000000000000000000000000000000000E2000000000000000000000000C300C3000000000000E200000000E200E2000000000000
310
00000000000000000000000000000000000000000000000000000000000000000000000000000000000000000000000000000000000000000000000000000000000000000000000000000000000000000000E2E20000000000E20000000000E2000000000000E2000000000000000000000000E20000000000000000000000
310
00000000000000000000000000000000000000000000000000000000000000000000000000000000E2E2002D00E2E200000000000000000000000000000000000000000000000000000000000000000000000000000000000000000000E2000000000000000000000000C300C3000000000000E200000000E200E200000000
310
000000000000000000000000000000000000000000000000000000000000000000000000000000000000000000000000000000000000000000000000000000000000000000000000000000000000000000000000E2E20000000000E20000000000E2000000000000E2000000000000000000000000E2000000000000000000
310
000000000000000000000000000000000000000000000000000000000000000000000000000000000000E2E2E22DE2E20000000000000000000000000000000000000000000000000000000000000000000000000000000000000000000000E2000000000000000000000000C300C3000000000000E200000000E200E20000
310
0000000000000000000000000000000000000000000000000000000000000000000000000000000000000000000000000000000000000000000000000000000000000000000000000000000000000000000000000000E2E20000000000E20000000000E2000000000000E2000000000000000000000000E200000000000000
310
000000000000000000000000000000000000000000000000000000000000000000000000000000000000000000E2E22DE2E200000000000000000000000000000000000000000000000000000000000000000000000000000000000000000000E200000000000000000000000000C300C3000000000000E200000000E200E2
310
00000000000000000000000000000000000000000000000000000000000000000000000000000000000000000000000000000000000000000000000000000000000000000000000000000000000000000000000000000000E2E20000000000E20000000000E2000000000000E2000000000000000000000000E20000000000
310
000000000000000000000000000000000000000000000000000000000000000000000000000000000000000000000000002D000000000000000000000000000000000000000000000000000000000000000000000000000000000000000000000000E200000000000000000000000000C300C3000000000000E200000000E2
310
00E200000000000000000000000000000000000000000000000000000000000000000000000000000000000000000000000000000000000000000000000000000000000000000000000000000000000000000000000000000000E2E20000000000E20000000000E2000000000000E2000000000000000000000000E2000000
310
0000000000000000000000000000000000000000000000000000000000000000000000000000000000000000000000000000002D000000000000000000000000000000000000000000000000000000000000000000000000000000000000000000000000E200000000000000000000000000C300C30000000000E200000000
310
00E200E200000000000000000000000000000000000000000000000000000000000000000000000000000000000000000000000000000000000000000000000000000000000000000000000000000000000000000000000000000000E2E20000000000E20000000000E2000000000000E2000000000000000000000000E2E2
310
000000000000000000000000000000000000000000000000000000000000000000000000000000000000000000000000000000000000000000000000000000000000000000000000000000000000000000000000000000000000000000000000000000000000E200000000000000000000000000C300C30000000000E20000
310
000000E200E200000000000000000000000000000000000000000000000000000000000000000000000000000000000000000000000000000000000000000000000000000000000000000000000000000000000000000000000000000000E200E20000000000E20000000000E20000000000E2000000000000000000000000
310
00E20000000000000000000000000000000000000000000000000000000000000000000000000000000000000000000000000000000000000000000000000000000000000000000000000000000000000000000000000000000000000000000000000000000000E2E200000000000000000000000000C300C30000000000E2
310
0000000000E200E200000000000000000000000000000000000000000000000000000000000000000000000000000000000000000000000000000000000000000000000000000000000000000000000000000000000000000000000000000000E200E20000000000E20000000000E20000000000E200000000000000000000
310
000000E20000000000000000000000000000000000000000000000000000000000000000000000000000000000000000000000000000000000000000000000000000000000000000000000000000000000000000000000000000000000000000000000000000000000E20000000000000000000000000000C300C300000000
310
00E20000000000E200E200000000000000000000000000000000000000000000000000000000000000000000000000000000000000000000000000000000000000000000000000000000000000000000000000000000000000000000000000000000E200E20000000000E20000000000E2000000000000E200000000000000
310
000000000000E200000000000000000000000000000000000000000000000000000000000000000000000000000000000000000000000000000000000000000000000000000000000000000000000000000000000000000000000000000000000000000000000000000000E20000000000000000000000000000C300C30000
310
000000E200000000E2E200E200000000000000000000000000000000000000000000000000000000000000000000000000000000000000000000000000000000000000000000000000000000000000000000000000000000000000000000000000000000E200E20000000000E20000000000E2000000000000E20000000000
310
0000000000000000E20000000000000000000000000000000000C3C3C32DC3C30000000000000000000000000000000000000000000000000000000000000000000000000000000000000000000000000000000000000000000000C3C32DC3C3000000000000000000000000E2000000000000000000000000000000C300C3
310
00000000E20000000000E20000E200000000000000000000000000000000000000000000000000000000000000000000000000000000000000000000000000000000000000000000000000000000000000000000000000000000000000000000000000000000E200E20000000000E2000000000000E20000000000E2000000
310
00000000000000000000E2E200000000000000000000000000000000C3C3C32DC3C3C3000000000000000000000000000000000000000000000000000000000000000000000000000000000000000000000000000000000000000000C3C3C32DC3C3C300000000000000000000E2E2000000000000000000000000000000C3
310
00C300000000E20000000000E20000E200000000000000000000000000000000000000000000000000000000000000000000000000000000000000000000000000000000000000000000000000000000000000000000000000000000000000000000000000000000E20000E20000000000E20000000000E2000000000000E2
310
00000000000000000000000000E2E20000000000000000000000000000C3C300002D00C3C30000000000000000000000000000000000000000000000000000000000000000000000000000000000000000000000000000000000000000C3C300002D00C3C300000000000000000000E2000000000000000000000000000000
310
00C300C300000000E20000000000E20000E200000000000000000000000000000000000000000000000000000000000000000000000000000000000000000000000000000000000000000000000000000000000000000000000000000000000000000000000000000000E20000E20000000000E2000000000000E200000000
310
00E20000000000000000000000000000E2E2000000000000000000000000002D2D2D2D2D2D2D2D00000000000000000000000000000000000000000000000000000000000000000000000000000000000000000000000000000000000000002D2D2D2D2D2D2D2D000000000000000000E20000000000000000000000000000
310
000000C300C3000000E20000000000E2000000E200000000000000000000000000000000000000000000000000000000000000000000000000000000000000000000000000000000000000000000000000000000000000000000000000000000000000000000000000000000E20000E2000000000000E20000000000E20000
310
00000000E20000000000000000000000000000E200000000000000000000000000C3C300002D00C3C30000000000000000000000000000000000000000000000000000000000000000000000000000000000000000000000000000000000000000C3C300002D00C3C30000000000000000E200000000000000000000000000
310
0000000000C300C3000000E20000000000E2000000E200000000000000000000000000000000000000000000000000000000000000000000000000000000000000000000000000000000000000000000000000000000000000000000000000000000000000000000000000000000E2000000E20000000000E2000000000000
310
E20000000000E2000000000000000000000000000000E2E20000000000000000000000C300C3002D00C3C30000000000000000000000000000000000000000000000000000000000000000000000000000000000000000000000000000000000000000C300C3002D00C3C300000000000000E2E20000000000000000000000
310
00000000000000C300C30000E2000000000000E2000000E200000000000000000000000000000000000000000000000000000000000000000000000000000000000000000000000000000000000000000000000000000000000000000000000000000000000000000000000000000000E2000000E2000000000000E2000000
310
000000E20000000000E2000000000000000000000000000000E2E20000000000000000000000C3C3C32DC3C3C3000000000000000000000000000000000000000000000000000000000000000000000000000000000000000000000000000000000000000000C3C3C32DC3C3C30000000000E2E20000000000000000000000
310
000000000000000000C300C30000E20000000000E200000000E200000000000000000000000000000000000000000000000000000000000000000000000000000000000000000000000000000000000000000000000000000000000000000000000000000000000000000000000000000000E200000000E2000000000000E2
310
0000000000E2000000000000E2000000000000000000000000000000E2E2E200000000000000000000C3C32DC3C30000000000000000000000000000000000000000000000000000000000000000000000000000000000000000000000000000000000000000000000C3C32DC3C30000000000E2E200000000000000000000
310
0000000000000000000000C300C300E2000000000000E200000000E200000000000000000000000000000000000000000000000000000000000000000000000000000000000000000000000000000000000000000000000000000000000000000000000000000000000000000000000000000000E200000000E20000000000
310
0000E20000000000E20000000000E20000000000000000000000000000000000E2E2E200000000000000000000000000000000000000000000000000000000000000000000000000000000000000000000000000000000000000000000000000000000000000000000000000000000000000E2E2E200000000000000000000
310
00000000000000000000000000C300C3E2000000000000E20000000000E200000000000000000000000000000000000000000000000000000000000000000000000000000000000000000000000000000000000000000000000000000000000000000000000000000000000000000000000000000000E20000000000E20000
310
00000000E2000000000000E20000000000E2000000000000000000000000000000000000E2E2E2000000000000000000000000000000000000000000000000000000000000000000000000000000000000000000000000000000000000000000000000000000000000000000000000000000E2E2E200000000000000000000
310
000000000000000000000000000000C300C3000000000000E2E20000000000E200000000000000000000000000000000000000000000000000000000000000000000000000000000000000000000000000000000000000000000000000000000000000000000000000000000000000000000000000000000E2000000000000
310
E2000000000000E20000000000E2000000000000E20000000000000000000000000000000000000000E2E2E2E2E2E2000000000000000000000000000000000000000000000000000000000000000000000000000000000000000000000000000000000000000000000000000000E2E2E2E2E2E20000000000000000000000
310
0000000000000000000000000000000000C3E2C3000000000000E2000000000000E200000000000000000000000000000000000000000000000000000000000000000000000000000000000000000000000000000000000000000000000000000000000000000000000000000000000000000000000000000000E200000000
310
0000E2E2000000000000E20000000000E20000000000E20000000000000000000000000000000000000000000000000000E2E2E2E2E2E2E2E2E2E200000000000000000000000000000000000000000000000000000000000000000000000000000000000000E2E2E2E2E2E2E2E2E2E2000000000000000000000000000000
310
00000000000000000000000000000000000000C300C30000000000E200000000000000E200000000000000000000000000000000000000000000000000000000000000000000000000000000000000000000000000000000000000000000000000000000000000000000000000000000000000000000000000000000E20000
310
0000000000E2E2000000000000E20000000000E20000000000E20000000000000000000000000000000000000000000000000000000000000000000000E2E2E2E2E2E2E2E2E2E2E2E2E2E2E2E2E2E2E2E2E2E2E2E2E2E2E2E2E2E2E2E2E2E2E2E2E2E2E2E2E2E2E20000000000000000000000000000000000000000000000
310
0000000000000000000000000000000000000000E2C300C300000000E20000000000000000E200000000000000000000000000000000000000000000000000000000000000000000000000000000000000000000000000000000000000000000000000000000000000000000000000000000000000000000000000000000E2
310
0000000000000000E200000000000000E20000000000E20000000000E2E200000000000000000000000000000000000000000000000000000000000000000000000000000000000000000000000000000000000000000000000000000000000000000000000000000000000000000000000000000000000000000000000000
310
000000000000000000000000000000000000000000E200C300C3000000E2000000000000000000E2000000000000000000000000000000000000000000000000000000000000000000000000000000000000000000000000000000000000000000000000000000000000000000000000000000000000000000000000000000
310
00E2000000000000000000E200000000000000E2E200000000E2000000000000E200000000000000000000000000000000000000000000000000000000000000000000000000000000000000000000000000000000000000000000000000000000000000000000000000000000000000000000000000000000000000000000
310
000000000000000000000000000000000000000000E2E20000C300C30000E2E2000000000000000000E200000000000000000000000000000000000000000000000000000000000000000000000000000000000000000000000000000000000000000000000000000000000000000000000000000000000000000000000000
310
000000E200000000000000000000E20000000000000000E2E2000000E2000000000000E2E2000000000000000000000000000000000000000000000000000000000000000000000000000000000000000000000000000000000000000000000000000000000000000000000000000000000000000000000000000000000000
310
00000000000000000000000000000000000000000000E200000000C300C300E2E200000000000000000000E20000000000000000000000000000000000000000000000000000000000000000000000000000000000000000000000000000000000000000000000000000000000000000000000000000000000000000000000
310
0000000000E20000000000000000000000E2E20000000000000000E2000000E2E2000000000000E2000000000000000000000000000000000000000000000000000000000000000000000000000000000000000000000000000000000000000000000000000000000000000000000000000000000000000000000000000000
310
00000000000000000000000000000000000000000000E2E20000000000C300C3E2E20000000000000000000000E2000000000000000000000000000000000000000000000000000000000000000000000000000000000000000000000000000000000000000000000000000000000000000000000000000000000000000000
310
00000000000000E2000000000000000000000000E2E20000000000000000E2E2E20000E2E20000000000E2E20000000000000000000000000000000000000000000000000000000000000000000000000000000000000000000000000000000000000000000000000000000000000000000000000000000000000000000000
310
00000000000000000000000000000000000000000000E2E200000000000000C300C300000000000000000000000000E200000000000000000000000000000000000000000000000000000000000000000000000000000000000000000000000000000000000000000000000000000000000000000000000000000000000000
310
000000000000000000E200000000000000000000000000E2E200000000000000000000E2E2E200E2E2E200000000E2E200000000000000000000000000000000000000000000000000000000000000000000000000000000000000000000000000000000000000000000000000000000000000000000000000000000000000
310
000000000000000000000000000000000000000000E2E2E2000000000000000000C3E2C300000000000000000000000000E20000000000000000000000000000000000000000000000000000000000000000000000000000000000000000000000000000000000000000000000000000000000000000000000000000000000
310
0000000000000000000000E2000000000000000000000000000000E2E20000000000000000000000E2E2E2E2E2E2E2000000E2E2E20000000000000000000000000000000000000000000000000000000000000000000000000000000000000000000000000000000000000000000000000000000000000000000000000000
310
0000000000000000000000000000000000000000E2E2E20000000000000000000000E2C300C300000000000000000000000000E2000000000000000000000000000000000000000000000000000000000000000000000000000000000000000000000000000000000000000000000000000000000000000000000000000000
310
00000000000000000000000000E20000000000000000000000000000000000E2000000000000000000000000000000E2E2E2E200000000E2E200000000000000000000000000000000000000000000000000000000000000000000000000000000000000000000000000000000000000000000000000000000000000000000
310
00000000000000000000000000000000E2E2E2E2E2E2000000000000000000000000E2E200C300C300000000000000000000000000E200000000000000000000000000000000000000000000000000000000000000000000000000000000000000000000000000000000000000000000000000000000000000000000000000
310
000000000000000000000000000000E2000000000000000000000000000000000000E2E2E2000000000000000000000000000000E2E2E2E2E2E2E2E2E2E2E200000000000000000000000000000000000000000000000000000000000000000000000000E2E2E2E2E2E2000000000000000000000000000000000000000000
310
0000000000000000E2E2E2E2E2E2E2E2E2E200000000000000000000000000000000E2E2000000C300C300000000000000000000000000E20000000000000000000000000000000000000000000000000000000000000000000000000000000000000000000000000000000000000000000000000000000000000000000000
310
0000000000000000000000000000000000E20000000000000000000000000000000000000000E2E2E2000000000000000000000000000000000000000000000000E2E2E2E2E2E2E2E2E2E2E2E2E2E2E2E2E2E2E2E2E2E2E2E2E2E2E2E2E2E2E2E2E2E2E2E2E2E2E2E2E2E2E2E2E2E2E2E2E2E2E2E2E2E2E2E2E2E2E2E2E2E2
310
E2E2E2E2E2E2E2E2E2E2000000000000000000000000000000000000000000000000E2E20000000000C300C300000000000000000000000000E2000000000000000000000000000000000000000000000000000000000000000000000000000000000000000000000000000000000000000000000000000000000000000000
310
00000000000000000000000000000000000000E200000000000000000000000000000000000000000000E2E2E2E2000000000000000000000000000000000000000000000000000000000000000000000000000000000000000000000000000000000000000000000000000000000000000000000000000000000000000000
310
000000000000000000000000000000000000000000000000000000000000000000E2E2E200000000000000C300C300000000000000000000000000E200000000000000000000000000000000000000000000000000000000000000000000000000000000000000000000000000000000000000000000000000000000000000
310
000000000000000000000000000000000000000000E200000000000000000000000000000000000000000000000000E2E2E2E200000000000000000000000000000000000000000000000000000000000000000000000000000000000000000000000000000000000000000000000000000000000000000000000000000000
310
0000000000000000000000000000000000000000000000000000000000000000E2E2E200000000000000000000C300C300000000000000000000000000E20000000000000000000000000000000000000000000000000000000000000000000000000000000000000000000000000000000000000000000000000000000000
310
0000000000000000000000000000000000000000000000E20000000000000000000000000000000000000000000000000000000000E2E2E2E200000000000000000000000000000000000000000000000000000000000000000000000000000000000000000000000000000000000000000000000000000000000000000000
310
000000000000000000000000000000000000000000000000000000000000E2E2E2E200000000000000000000000000C300C300000000000000000000000000E2000000000000000000000000000000000000000000000000000000000000000000000000000000000000000000000000000000000000000000000000000000
310
00000000000000000000000000000000000000000000000000E2000000000000000000000000000000000000000000000000000000000000000000E2E2E2E2E2E20000000000000000000000000000000000000000000000000000000000000000000000000000000000000000000000000000000000000000000000000000
310
0000000000000000000000000000000000000000000000000000E2E2E2E2E2E20000000000000000000000000000000000C300C300000000000000000000000000E200000000000000000000000000000000000000000000000000000000000000000000000000000000000000000000000000000000000000000000000000
310
000000000000000000000000000000000000000000000000000000E2000000000000000000000000000000000000000000000000000000000000000000000000000000E2E2E2E2E2E2E2E2E2E2E2E2000000000000000000000000000000000000000000000000000000000000000000000000000000000000000000000000
310
000000000000000000000000000000E2E2E2E2E2E2E2E2E2E2E2E2E20000000000000000000000000000000000000000000000C300C300000000000000000000000000E20000000000000000000000000000000000000000000000000000000000000000000000000000000000000000000000000000000000000000000000
310
0000000000000000000000000000000000000000000000000000000000E2000000000000000000000000000000000000000000000000000000000000000000000000000000000000000000000000000000E2E2E2E2E2E2E2E2E2E2E2E2E2E2E2E2E2E2E2E2E2E2E2E2E2E2E2E2E2E2E2E2E2E2E2E2E2E2E2E2E2E2E2E2E2E2
310
E2E2E2E2E2E2E2E2E2E2E2E2E2E2E2E2E2000000000000000000000000000000000000000000000000000000000000000000000000C300C300000000000000000000000000E2000000000000000000000000000000000000000000000000000000000000000000000000000000000000000000000000000000000000000000
310
00000000000000000000000000000000000000000000000000000000000000E2E2E2E2E2E2E2E2E2E2E2E2E2E2E2E2E2E2E2E2E2E2E2E2E2E2E2E2E2E2E2E2E2E2E2E2E2E2E2E2E2E2E2E2E2E2E2E2E2E2E2E2E2E2E2E2E2E2E2E2E2E2E2E2E2E2E2E2E2E2E2E2E2E2E2E2E2E2E2E2E2E2E2E2E2E2E2E2E2E2E2E2E2E2E2E2
310
E2E2E2E2E2E2E2E2E2E2E2E2E2E2E2E2E2E2E2E2E2E2E2E2E2E2E2E2E2E2E2E2E2E2E2E2E2E2E2E2E2E2E2E2E2E2E2E2E2E2E2E2E2E2E2E2E2E2E2E2E2E2E2E2E2E2E2E2E2E2E2E200000000000000000000000000000000000000000000000000000000000000000000000000000000000000000000000000000000000000
310
00000000000000000000000000000000000000000000000000000000000000000000000000000000000000000000000000000000000000000000000000000000000000000000000000000000000000000000000000000000000000000000000000000000000000000000000000000000000000000000000000000000000000
310
00000000000000000000000000000000000000000000000000000000000000000000000000000000000000000000000000000000000000000000000000000000000000000000000000000000000000000000000000000000000000000000000000000000000000000000000000000000000000000000000000000000000000
310
00000000000000000000000000000000000000000000000000000000000000000000000000000000000000000000000000000000000000000000000000000000000000000000000000000000000000000000000000000000000000000000000000000000000000000000000000000000000000000000000000000000000000
310
00000000000000000000000000000000000000000000000000000000000000000000000000000000000000000000000000000000000000000000000000000000000000000000000000000000000000000000000000000000000000000000000000000000000000000000000000000000000000000000000000000000000000
310
00000000000000000000000000000000000000000000000000000000000000000000000000000000000000000000000000000000000000000000000000000000000000000000000000000000000000000000000000000000000000000000000000000000000000000000000000000000000000000000000000000000000000
310
00000000000000000000000000000000000000000000000000000000000000000000000000000000000000000000000000000000000000000000000000000000000000000000000000000000000000000000000000000000000000000000000000000000000000000000000000000000000000000000000000000000000000
310
00000000000000000000000000000000000000000000000000000000000000000000000000000000000000000000000000000000000000000000000000000000000000000000000000000000000000000000000000000000000000000000000000000000000000000000000000000000000000000000000000000000000000
310
00000000000000000000000000000000000000000000000000000000000000000000000000000000000000000000000000000000000000000000000000000000000000000000000000000000000000000000000000000000000000000000000000000000000000000000000000000000000000000000000000000000000000
310
00000000000000000000000000000000000000000000000000000000000000000000000000000000000000000000000000000000000000000000000000000000000000000000000000000000000000000000000000000000000000000000000000000000000000000000000000000000000000000000000000000000000000
310
00000000000000000000000000000000000000000000000000000000000000000000000000000000000000000000000000000000000000000000000000000000000000000000000000000000000000000000000000000000000000000000000000000000000000000000000000000000000000000000000000000000000000
310
00000000000000000000000000000000000000000000000000000000000000000000000000000000000000000000000000000000000000000000000000000000000000000000000000000000000000000000000000000000000000000000000000000000000000000000000000000000000000000000000000000000000000
310
00000000000000000000000000000000000000000000000000000000000000000000000000000000000000000000000000000000000000000000000000000000000000000000000000000000000000000000000000000000000000000000000000000000000000000000000000000000000000000000000000000000000000
310
00000000000000000000000000000000000000000000000000000000000000000000000000000000000000000000000000000000000000000000000000000000000000000000000000000000000000000000000000000000000000000000000000000000000000000000000000000000000000000000000000000000000000
310
00000000000000000000000000000000000000000000000000000000000000000000000000000000000000000000000000000000000000000000000000000000000000000000000000000000000000000000000000000000000000000000000000000000000000000000000000000000000000000000000000000000000000
310
00000000000000000000000000000000000000000000000000000000000000000000000000000000000000000000000000000000000000000000000000000000000000000000000000000000000000000000000000000000000000000000000000000000000000000000000000000000000000000000000000000000000000
310
00000000000000000000000000000000000000000000000000000000000000000000000000000000000000000000000000000000000000000000000000000000000000000000000000000000000000000000000000000000000000000000000000000000000000000000000000000000000000000000000000000000000000
310
00000000000000000000000000000000000000000000000000000000000000000000000000000000000000000000000000000000000000000000000000000000000000000000000000000000000000000000000000000000000000000000000000000000000000000000000000000000000000000000000000000000000000
310
00000000000000000000000000000000000000000000000000000000000000000000000000000000000000000000000000000000000000000000000000000000000000000000000000000000000000000000000000000000000000000000000000000000000000000000000000000000000000000000000000000000000000
310
00000000000000000000000000000000000000000000000000000000000000000000000000000000000000000000000000000000000000000000000000000000000000000000000000000000000000000000000000000000000000000000000000000000000000000000000000000000000000000000000000000000000000
310
00000000000000000000000000000000000000000000000000000000000000000000000000000000000000000000000000000000000000000000000000000000000000000000000000000000000000000000000000000000000000000000000000000000000000000000000000000000000000000000000000000000000000
310
00000000000000000000000000000000000000000000000000000000000000000000000000000000000000000000000000000000000000000000000000000000000000000000000000000000000000000000000000000000000000000000000000000000000000000000000000000000000000000000000000000000000000
310
00000000000000000000000000000000000000000000000000000000000000000000000000000000000000000000000000000000000000000000000000000000000000000000000000000000000000000000000000000000000000000000000000000000000000000000000000000000000000000000000000000000000000
310
00000000000000000000000000000000000000000000000000000000000000000000000000000000000000000000000000000000000000000000000000000000000000000000000000000000000000000000000000000000000000000000000000000000000000000000000000000000000000000000000000000000000000
310
00000000000000000000000000000000000000000000000000000000000000000000000000000000000000000000000000000000000000000000000000000000000000000000000000000000000000000000000000000000000000000000000000000000000000000000000000000000000000000000000000000000000000
310
00000000000000000000000000000000000000000000000000000000000000000000000000000000000000000000000000000000000000000000000000000000000000000000000000000000000000000000000000000000000000000000000000000000000000000000000000000000000000000000000000000000000000
310
00000000000000000000000000000000000000000000000000000000000000000000000000000000000000000000000000000000000000000000000000000000000000000000000000000000000000000000000000000000000000000000000000000000000000000000000000000000000000000000000000000000000000
310
00000000000000000000000000000000000000000000000000000000000000000000000000000000000000000000000000000000000000000000000000000000000000000000000000000000000000000000000000000000000000000000000000000000000000000000000000000000000000000000000000000000000000
310
00000000000000000000000000000000000000000000000000000000000000000000000000000000000000000000000000000000000000000000000000000000000000000000000000000000000000000000000000000000000000000000000000000000000000000000000000000000000000000000000000000000000000
310
0000000000000000000000000000000000000000
  0
XRECORD
  5
325F
102
{ACAD_REACTORS
330
24FF
102
}
330
24FF
100
AcDbXrecord
280
     1
102
MATERIAL
148
0.0
149
0.0
149
0.0
 93
        0
 94
      127
282
     0
 72
     0
 77
     0
171
     0
175
     0
179
     0
273
     0
  0
XRECORD
  5
2501
102
{ACAD_REACTORS
330
24FF
102
}
330
24FF
100
AcDbXrecord
280
     1
270
     1
271
     1
  0
XRECORD
  5
2500
102
{ACAD_REACTORS
330
24FF
102
}
330
24FF
100
AcDbXrecord
280
     1
270
     1
271
     1
  0
XRECORD
  5
2504
102
{ACAD_REACTORS
330
24FF
102
}
330
24FF
100
AcDbXrecord
280
     1
270
     1
271
     1
  0
XRECORD
  5
2503
102
{ACAD_REACTORS
330
24FF
102
}
330
24FF
100
AcDbXrecord
280
     1
270
     1
271
     1
  0
XRECORD
  5
2505
102
{ACAD_REACTORS
330
24FF
102
}
330
24FF
100
AcDbXrecord
280
     1
270
     1
271
     1
  0
XRECORD
  5
2502
102
{ACAD_REACTORS
330
24FF
102
}
330
24FF
100
AcDbXrecord
280
     1
270
     1
271
     1
  0
XRECORD
  5
325E
102
{ACAD_REACTORS
330
24F7
102
}
330
24F7
100
AcDbXrecord
280
     1
102
MATERIAL
148
0.0
149
0.0
149
0.0
 93
        0
 94
      127
282
     0
 72
     0
 77
     0
171
     0
175
     0
179
     0
273
     0
  0
XRECORD
  5
24F9
102
{ACAD_REACTORS
330
24F7
102
}
330
24F7
100
AcDbXrecord
280
     1
270
     1
271
     1
  0
XRECORD
  5
24F8
102
{ACAD_REACTORS
330
24F7
102
}
330
24F7
100
AcDbXrecord
280
     1
270
     1
271
     1
  0
XRECORD
  5
24FC
102
{ACAD_REACTORS
330
24F7
102
}
330
24F7
100
AcDbXrecord
280
     1
270
     1
271
     1
  0
XRECORD
  5
24FB
102
{ACAD_REACTORS
330
24F7
102
}
330
24F7
100
AcDbXrecord
280
     1
270
     1
271
     1
  0
XRECORD
  5
24FD
102
{ACAD_REACTORS
330
24F7
102
}
330
24F7
100
AcDbXrecord
280
     1
270
     1
271
     1
  0
XRECORD
  5
24FA
102
{ACAD_REACTORS
330
24F7
102
}
330
24F7
100
AcDbXrecord
280
     1
270
     1
271
     1
  0
XRECORD
  5
3260
102
{ACAD_REACTORS
330
2507
102
}
330
2507
100
AcDbXrecord
280
     1
102
MATERIAL
148
0.0
149
0.0
149
0.0
 93
        0
 94
      127
282
     0
 72
     0
 77
     0
171
     0
175
     0
179
     0
273
     0
  0
XRECORD
  5
2509
102
{ACAD_REACTORS
330
2507
102
}
330
2507
100
AcDbXrecord
280
     1
270
     1
271
     1
  0
XRECORD
  5
2508
102
{ACAD_REACTORS
330
2507
102
}
330
2507
100
AcDbXrecord
280
     1
270
     1
271
     1
  0
XRECORD
  5
250C
102
{ACAD_REACTORS
330
2507
102
}
330
2507
100
AcDbXrecord
280
     1
270
     1
271
     1
  0
XRECORD
  5
250B
102
{ACAD_REACTORS
330
2507
102
}
330
2507
100
AcDbXrecord
280
     1
270
     1
271
     1
  0
XRECORD
  5
250D
102
{ACAD_REACTORS
330
2507
102
}
330
2507
100
AcDbXrecord
280
     1
270
     1
271
     1
  0
XRECORD
  5
250A
102
{ACAD_REACTORS
330
2507
102
}
330
2507
100
AcDbXrecord
280
     1
270
     1
271
     1
  0
CELLSTYLEMAP
  5
3257
102
{ACAD_REACTORS
330
25A3
102
}
330
25A3
100
AcDbCellStyleMap
 90
        3
300
CELLSTYLE
  1
TABLEFORMAT_BEGIN
 90
        5
170
     1
 91
        0
 92
    32768
 62
   257
 93
        1
300
CONTENTFORMAT
  1
CONTENTFORMAT_BEGIN
 90
        0
 91
        0
 92
      512
 93
        0
300

 40
0.0
140
1.0
 94
        5
 62
     0
340
11
144
6.0
309
CONTENTFORMAT_END
171
     1
301
MARGIN
  1
CELLMARGIN_BEGIN
 40
1.5
 40
1.5
 40
1.5
 40
1.5
 40
4.5
 40
4.5
309
CELLMARGIN_END
 94
        6
 95
        1
302
GRIDFORMAT
  1
GRIDFORMAT_BEGIN
 90
        0
 91
        1
 62
     0
 92
       -2
340
0
 93
        0
 40
1.125
309
GRIDFORMAT_END
 95
        2
302
GRIDFORMAT
  1
GRIDFORMAT_BEGIN
 90
        0
 91
        1
 62
     0
 92
       -2
340
0
 93
        0
 40
1.125
309
GRIDFORMAT_END
 95
        4
302
GRIDFORMAT
  1
GRIDFORMAT_BEGIN
 90
        0
 91
        1
 62
     0
 92
       -2
340
0
 93
        0
 40
1.125
309
GRIDFORMAT_END
 95
        8
302
GRIDFORMAT
  1
GRIDFORMAT_BEGIN
 90
        0
 91
        1
 62
     0
 92
       -2
340
0
 93
        0
 40
1.125
309
GRIDFORMAT_END
 95
       16
302
GRIDFORMAT
  1
GRIDFORMAT_BEGIN
 90
        0
 91
        1
 62
     0
 92
       -2
340
0
 93
        0
 40
1.125
309
GRIDFORMAT_END
 95
       32
302
GRIDFORMAT
  1
GRIDFORMAT_BEGIN
 90
        0
 91
        1
 62
     0
 92
       -2
340
0
 93
        0
 40
1.125
309
GRIDFORMAT_END
309
TABLEFORMAT_END
  1
CELLSTYLE_BEGIN
 90
        1
 91
        1
300
_TITLE
309
CELLSTYLE_END
300
CELLSTYLE
  1
TABLEFORMAT_BEGIN
 90
        5
170
     1
 91
        0
 92
        0
 62
   257
 93
        1
300
CONTENTFORMAT
  1
CONTENTFORMAT_BEGIN
 90
        0
 91
        0
 92
      512
 93
        0
300

 40
0.0
140
1.0
 94
        5
 62
     0
340
11
144
4.5
309
CONTENTFORMAT_END
171
     1
301
MARGIN
  1
CELLMARGIN_BEGIN
 40
1.5
 40
1.5
 40
1.5
 40
1.5
 40
4.5
 40
4.5
309
CELLMARGIN_END
 94
        6
 95
        1
302
GRIDFORMAT
  1
GRIDFORMAT_BEGIN
 90
        0
 91
        1
 62
     0
 92
       -2
340
0
 93
        0
 40
1.125
309
GRIDFORMAT_END
 95
        2
302
GRIDFORMAT
  1
GRIDFORMAT_BEGIN
 90
        0
 91
        1
 62
     0
 92
       -2
340
0
 93
        0
 40
1.125
309
GRIDFORMAT_END
 95
        4
302
GRIDFORMAT
  1
GRIDFORMAT_BEGIN
 90
        0
 91
        1
 62
     0
 92
       -2
340
0
 93
        0
 40
1.125
309
GRIDFORMAT_END
 95
        8
302
GRIDFORMAT
  1
GRIDFORMAT_BEGIN
 90
        0
 91
        1
 62
     0
 92
       -2
340
0
 93
        0
 40
1.125
309
GRIDFORMAT_END
 95
       16
302
GRIDFORMAT
  1
GRIDFORMAT_BEGIN
 90
        0
 91
        1
 62
     0
 92
       -2
340
0
 93
        0
 40
1.125
309
GRIDFORMAT_END
 95
       32
302
GRIDFORMAT
  1
GRIDFORMAT_BEGIN
 90
        0
 91
        1
 62
     0
 92
       -2
340
0
 93
        0
 40
1.125
309
GRIDFORMAT_END
309
TABLEFORMAT_END
  1
CELLSTYLE_BEGIN
 90
        2
 91
        1
300
_HEADER
309
CELLSTYLE_END
300
CELLSTYLE
  1
TABLEFORMAT_BEGIN
 90
        5
170
     1
 91
        0
 92
        0
 62
   257
 93
        1
300
CONTENTFORMAT
  1
CONTENTFORMAT_BEGIN
 90
        0
 91
        0
 92
      512
 93
        0
300

 40
0.0
140
1.0
 94
        2
 62
     0
340
11
144
4.5
309
CONTENTFORMAT_END
171
     1
301
MARGIN
  1
CELLMARGIN_BEGIN
 40
1.5
 40
1.5
 40
1.5
 40
1.5
 40
4.5
 40
4.5
309
CELLMARGIN_END
 94
        6
 95
        1
302
GRIDFORMAT
  1
GRIDFORMAT_BEGIN
 90
        0
 91
        1
 62
     0
 92
       -2
340
0
 93
        0
 40
1.125
309
GRIDFORMAT_END
 95
        2
302
GRIDFORMAT
  1
GRIDFORMAT_BEGIN
 90
        0
 91
        1
 62
     0
 92
       -2
340
0
 93
        0
 40
1.125
309
GRIDFORMAT_END
 95
        4
302
GRIDFORMAT
  1
GRIDFORMAT_BEGIN
 90
        0
 91
        1
 62
     0
 92
       -2
340
0
 93
        0
 40
1.125
309
GRIDFORMAT_END
 95
        8
302
GRIDFORMAT
  1
GRIDFORMAT_BEGIN
 90
        0
 91
        1
 62
     0
 92
       -2
340
0
 93
        0
 40
1.125
309
GRIDFORMAT_END
 95
       16
302
GRIDFORMAT
  1
GRIDFORMAT_BEGIN
 90
        0
 91
        1
 62
     0
 92
       -2
340
0
 93
        0
 40
1.125
309
GRIDFORMAT_END
 95
       32
302
GRIDFORMAT
  1
GRIDFORMAT_BEGIN
 90
        0
 91
        1
 62
     0
 92
       -2
340
0
 93
        0
 40
1.125
309
GRIDFORMAT_END
309
TABLEFORMAT_END
  1
CELLSTYLE_BEGIN
 90
        3
 91
        2
300
_DATA
309
CELLSTYLE_END
  0
XRECORD
  5
3281
102
{ACAD_REACTORS
330
25A3
102
}
330
25A3
100
AcDbXrecord
280
     1
102
ACAD_ROUNDTRIP_PRE2007_TABLESTYLE
 90
      512
 91
        0
  1

 92
      512
 93
        0
  2

 94
      512
 95
        0
  3

  0
XRECORD
  5
326C
102
{ACAD_REACTORS
330
326B
102
}
330
326B
100
AcDbXrecord
280
     1
102
RTVSPropertyOp0
 70
     1
102
RTVSPropertyOp1
 70
     1
102
RTVSPropertyOp2
 70
     1
102
RTVSPropertyOp3
 70
     1
102
RTVSPropertyOp4
 70
     1
102
RTVSPropertyOp5
 70
     1
102
RTVSPropertyOp6
 70
     1
102
RTVSPropertyOp7
 70
     1
102
RTVSPropertyOp8
 70
     1
102
RTVSPropertyOp9
 70
     1
102
RTVSPropertyOp10
 70
     1
102
RTVSPropertyOp11
 70
     1
102
RTVSPropertyOp12
 70
     1
102
RTVSPropertyOp13
 70
     1
102
RTVSPropertyOp14
 70
     1
102
RTVSPropertyOp15
 70
     1
102
RTVSPropertyOp16
 70
     1
102
RTVSPropertyOp17
 70
     1
102
RTVSPropertyOp18
 70
     1
102
RTVSPropertyOp19
 70
     1
102
RTVSPropertyOp20
 70
     1
102
RTVSPropertyOp21
 70
     1
102
RTVSPropertyOp22
 70
     1
102
RTVSPropertyOp23
 70
     1
102
RTVSPropertyOp24
 70
     1
102
RTVSPropertyOp25
 70
     1
102
RTVSPropertyOp26
 70
     1
102
RTVSPropertyOp27
 70
     1
102
RTVSPropertyOp28
 70
     1
102
RTVSPropertyOp29
 70
     1
102
RTVSPropertyOp30
 70
     1
102
RTVSPropertyOp31
 70
     1
102
RTVSPropertyOp32
 70
     1
  0
XRECORD
  5
3270
102
{ACAD_REACTORS
330
326F
102
}
330
326F
100
AcDbXrecord
280
     1
102
RTVSPropertyOp0
 70
     1
102
RTVSPropertyOp1
 70
     1
102
RTVSPropertyOp2
 70
     1
102
RTVSPropertyOp3
 70
     1
102
RTVSPropertyOp4
 70
     1
102
RTVSPropertyOp5
 70
     1
102
RTVSPropertyOp6
 70
     1
102
RTVSPropertyOp7
 70
     1
102
RTVSPropertyOp8
 70
     1
102
RTVSPropertyOp9
 70
     1
102
RTVSPropertyOp10
 70
     1
102
RTVSPropertyOp11
 70
     1
102
RTVSPropertyOp12
 70
     1
102
RTVSPropertyOp13
 70
     1
102
RTVSPropertyOp14
 70
     1
102
RTVSPropertyOp15
 70
     1
102
RTVSPropertyOp16
 70
     1
102
RTVSPropertyOp17
 70
     1
102
RTVSPropertyOp18
 70
     1
102
RTVSPropertyOp19
 70
     1
102
RTVSPropertyOp20
 70
     1
102
RTVSPropertyOp21
 70
     1
102
RTVSPropertyOp22
 70
     1
102
RTVSPropertyOp23
 70
     1
102
RTVSPropertyOp24
 70
     1
102
RTVSPropertyOp25
 70
     1
102
RTVSPropertyOp26
 70
     1
102
RTVSPropertyOp27
 70
     1
102
RTVSPropertyOp28
 70
     1
102
RTVSPropertyOp29
 70
     1
102
RTVSPropertyOp30
 70
     1
102
RTVSPropertyOp31
 70
     1
102
RTVSPropertyOp32
 70
     1
  0
XRECORD
  5
326E
102
{ACAD_REACTORS
330
326D
102
}
330
326D
100
AcDbXrecord
280
     1
102
RTVSPropertyOp0
 70
     1
102
RTVSPropertyOp1
 70
     1
102
RTVSPropertyOp2
 70
     1
102
RTVSPropertyOp3
 70
     1
102
RTVSPropertyOp4
 70
     1
102
RTVSPropertyOp5
 70
     1
102
RTVSPropertyOp6
 70
     1
102
RTVSPropertyOp7
 70
     1
102
RTVSPropertyOp8
 70
     1
102
RTVSPropertyOp9
 70
     1
102
RTVSPropertyOp10
 70
     1
102
RTVSPropertyOp11
 70
     1
102
RTVSPropertyOp12
 70
     1
102
RTVSPropertyOp13
 70
     1
102
RTVSPropertyOp14
 70
     1
102
RTVSPropertyOp15
 70
     1
102
RTVSPropertyOp16
 70
     1
102
RTVSPropertyOp17
 70
     1
102
RTVSPropertyOp18
 70
     1
102
RTVSPropertyOp19
 70
     1
102
RTVSPropertyOp20
 70
     1
102
RTVSPropertyOp21
 70
     1
102
RTVSPropertyOp22
 70
     1
102
RTVSPropertyOp23
 70
     1
102
RTVSPropertyOp24
 70
     1
102
RTVSPropertyOp25
 70
     1
102
RTVSPropertyOp26
 70
     1
102
RTVSPropertyOp27
 70
     1
102
RTVSPropertyOp28
 70
     1
102
RTVSPropertyOp29
 70
     1
102
RTVSPropertyOp30
 70
     1
102
RTVSPropertyOp31
 70
     1
102
RTVSPropertyOp32
 70
     1
  0
XRECORD
  5
326A
102
{ACAD_REACTORS
330
3269
102
}
330
3269
100
AcDbXrecord
280
     1
102
RTVSPropertyOp0
 70
     1
102
RTVSPropertyOp1
 70
     1
102
RTVSPropertyOp2
 70
     1
102
RTVSPropertyOp3
 70
     1
102
RTVSPropertyOp4
 70
     1
102
RTVSPropertyOp5
 70
     1
102
RTVSPropertyOp6
 70
     1
102
RTVSPropertyOp7
 70
     1
102
RTVSPropertyOp8
 70
     1
102
RTVSPropertyOp9
 70
     1
102
RTVSPropertyOp10
 70
     1
102
RTVSPropertyOp11
 70
     1
102
RTVSPropertyOp12
 70
     1
102
RTVSPropertyOp13
 70
     1
102
RTVSPropertyOp14
 70
     1
102
RTVSPropertyOp15
 70
     1
102
RTVSPropertyOp16
 70
     1
102
RTVSPropertyOp17
 70
     1
102
RTVSPropertyOp18
 70
     1
102
RTVSPropertyOp19
 70
     1
102
RTVSPropertyOp20
 70
     1
102
RTVSPropertyOp21
 70
     1
102
RTVSPropertyOp22
 70
     1
102
RTVSPropertyOp23
 70
     1
102
RTVSPropertyOp24
 70
     1
102
RTVSPropertyOp25
 70
     1
102
RTVSPropertyOp26
 70
     1
102
RTVSPropertyOp27
 70
     1
102
RTVSPropertyOp28
 70
     1
102
RTVSPropertyOp29
 70
     1
102
RTVSPropertyOp30
 70
     1
102
RTVSPropertyOp31
 70
     1
102
RTVSPropertyOp32
 70
     1
  0
XRECORD
  5
3278
102
{ACAD_REACTORS
330
3277
102
}
330
3277
100
AcDbXrecord
280
     1
102
RTVSPropertyOp0
 70
     1
102
RTVSPropertyOp1
 70
     1
102
RTVSPropertyOp2
 70
     1
102
RTVSPropertyOp3
 70
     1
102
RTVSPropertyOp4
 70
     1
102
RTVSPropertyOp5
 70
     1
102
RTVSPropertyOp6
 70
     1
102
RTVSPropertyOp7
 70
     1
102
RTVSPropertyOp8
 70
     1
102
RTVSPropertyOp9
 70
     1
102
RTVSPropertyOp10
 70
     1
102
RTVSPropertyOp11
 70
     1
102
RTVSPropertyOp12
 70
     1
102
RTVSPropertyOp13
 70
     1
102
RTVSPropertyOp14
 70
     1
102
RTVSPropertyOp15
 70
     1
102
RTVSPropertyOp16
 70
     1
102
RTVSPropertyOp17
 70
     1
102
RTVSPropertyOp18
 70
     1
102
RTVSPropertyOp19
 70
     1
102
RTVSPropertyOp20
 70
     1
102
RTVSPropertyOp21
 70
     1
102
RTVSPropertyOp22
 70
     1
102
RTVSPropertyOp23
 70
     1
102
RTVSPropertyOp24
 70
     1
102
RTVSPropertyOp25
 70
     1
102
RTVSPropertyOp26
 70
     1
102
RTVSPropertyOp27
 70
     1
102
RTVSPropertyOp28
 70
     1
102
RTVSPropertyOp29
 70
     1
102
RTVSPropertyOp30
 70
     1
102
RTVSPropertyOp31
 70
     1
102
RTVSPropertyOp32
 70
     1
  0
XRECORD
  5
3280
102
{ACAD_REACTORS
330
327F
102
}
330
327F
100
AcDbXrecord
280
     1
102
RTVSPropertyOp0
 70
     1
102
RTVSPropertyOp1
 70
     1
102
RTVSPropertyOp2
 70
     1
102
RTVSPropertyOp3
 70
     1
102
RTVSPropertyOp4
 70
     1
102
RTVSPropertyOp5
 70
     1
102
RTVSPropertyOp6
 70
     1
102
RTVSPropertyOp7
 70
     1
102
RTVSPropertyOp8
 70
     1
102
RTVSPropertyOp9
 70
     1
102
RTVSPropertyOp10
 70
     1
102
RTVSPropertyOp11
 70
     1
102
RTVSPropertyOp12
 70
     1
102
RTVSPropertyOp13
 70
     1
102
RTVSPropertyOp14
 70
     1
102
RTVSPropertyOp15
 70
     1
102
RTVSPropertyOp16
 70
     1
102
RTVSPropertyOp17
 70
     1
102
RTVSPropertyOp18
 70
     1
102
RTVSPropertyOp19
 70
     1
102
RTVSPropertyOp20
 70
     1
102
RTVSPropertyOp21
 70
     1
102
RTVSPropertyOp22
 70
     1
102
RTVSPropertyOp23
 70
     1
102
RTVSPropertyOp24
 70
     1
102
RTVSPropertyOp25
 70
     1
102
RTVSPropertyOp26
 70
     1
102
RTVSPropertyOp27
 70
     1
102
RTVSPropertyOp28
 70
     1
102
RTVSPropertyOp29
 70
     1
102
RTVSPropertyOp30
 70
     1
102
RTVSPropertyOp31
 70
     1
102
RTVSPropertyOp32
 70
     1
  0
XRECORD
  5
3272
102
{ACAD_REACTORS
330
3271
102
}
330
3271
100
AcDbXrecord
280
     1
102
RTVSPropertyOp0
 70
     1
102
RTVSPropertyOp1
 70
     1
102
RTVSPropertyOp2
 70
     1
102
RTVSPropertyOp3
 70
     1
102
RTVSPropertyOp4
 70
     1
102
RTVSPropertyOp5
 70
     1
102
RTVSPropertyOp6
 70
     1
102
RTVSPropertyOp7
 70
     1
102
RTVSPropertyOp8
 70
     1
102
RTVSPropertyOp9
 70
     1
102
RTVSPropertyOp10
 70
     1
102
RTVSPropertyOp11
 70
     1
102
RTVSPropertyOp12
 70
     1
102
RTVSPropertyOp13
 70
     1
102
RTVSPropertyOp14
 70
     1
102
RTVSPropertyOp15
 70
     1
102
RTVSPropertyOp16
 70
     1
102
RTVSPropertyOp17
 70
     1
102
RTVSPropertyOp18
 70
     1
102
RTVSPropertyOp19
 70
     1
102
RTVSPropertyOp20
 70
     1
102
RTVSPropertyOp21
 70
     1
102
RTVSPropertyOp22
 70
     1
102
RTVSPropertyOp23
 70
     1
102
RTVSPropertyOp24
 70
     1
102
RTVSPropertyOp25
 70
     1
102
RTVSPropertyOp26
 70
     1
102
RTVSPropertyOp27
 70
     1
102
RTVSPropertyOp28
 70
     1
102
RTVSPropertyOp29
 70
     1
102
RTVSPropertyOp30
 70
     1
102
RTVSPropertyOp31
 70
     1
102
RTVSPropertyOp32
 70
     1
  0
XRECORD
  5
3276
102
{ACAD_REACTORS
330
3275
102
}
330
3275
100
AcDbXrecord
280
     1
102
RTVSPropertyOp0
 70
     1
102
RTVSPropertyOp1
 70
     1
102
RTVSPropertyOp2
 70
     1
102
RTVSPropertyOp3
 70
     1
102
RTVSPropertyOp4
 70
     1
102
RTVSPropertyOp5
 70
     1
102
RTVSPropertyOp6
 70
     1
102
RTVSPropertyOp7
 70
     1
102
RTVSPropertyOp8
 70
     1
102
RTVSPropertyOp9
 70
     1
102
RTVSPropertyOp10
 70
     1
102
RTVSPropertyOp11
 70
     1
102
RTVSPropertyOp12
 70
     1
102
RTVSPropertyOp13
 70
     1
102
RTVSPropertyOp14
 70
     1
102
RTVSPropertyOp15
 70
     1
102
RTVSPropertyOp16
 70
     1
102
RTVSPropertyOp17
 70
     1
102
RTVSPropertyOp18
 70
     1
102
RTVSPropertyOp19
 70
     1
102
RTVSPropertyOp20
 70
     1
102
RTVSPropertyOp21
 70
     1
102
RTVSPropertyOp22
 70
     1
102
RTVSPropertyOp23
 70
     1
102
RTVSPropertyOp24
 70
     1
102
RTVSPropertyOp25
 70
     1
102
RTVSPropertyOp26
 70
     1
102
RTVSPropertyOp27
 70
     1
102
RTVSPropertyOp28
 70
     1
102
RTVSPropertyOp29
 70
     1
102
RTVSPropertyOp30
 70
     1
102
RTVSPropertyOp31
 70
     1
102
RTVSPropertyOp32
 70
     1
  0
XRECORD
  5
3295
102
{ACAD_REACTORS
330
3294
102
}
330
3294
100
AcDbXrecord
280
     1
102
RTVSPropertyOp0
 70
     0
102
RTVSPropertyOp1
 70
     0
102
RTVSPropertyOp2
 70
     0
102
RTVSPropertyOp3
 70
     0
102
RTVSPropertyOp4
 70
     0
102
RTVSPropertyOp5
 70
     0
102
RTVSPropertyOp6
 70
     0
102
RTVSPropertyOp7
 70
     0
102
RTVSPropertyOp8
 70
     0
102
RTVSPropertyOp9
 70
     0
102
RTVSPropertyOp10
 70
     0
102
RTVSPropertyOp11
 70
     0
102
RTVSPropertyOp12
 70
     0
102
RTVSPropertyOp13
 70
     0
102
RTVSPropertyOp14
 70
     2
102
RTVSPropertyOp15
 70
     0
102
RTVSPropertyOp16
 70
     0
102
RTVSPropertyOp17
 70
     0
102
RTVSPropertyOp18
 70
     0
102
RTVSPropertyOp19
 70
     0
102
RTVSPropertyOp20
 70
     0
102
RTVSPropertyOp21
 70
     0
102
RTVSPropertyOp22
 70
     0
102
RTVSPropertyOp23
 70
     0
102
RTVSPropertyOp24
 70
     0
102
RTVSPropertyOp25
 70
     0
102
RTVSPropertyOp26
 70
     0
102
RTVSPropertyOp27
 70
     0
102
RTVSPropertyOp28
 70
     1
102
RTVSPropertyOp29
 70
     1
102
RTVSPropertyOp30
 70
     1
102
RTVSPropertyOp31
 70
     1
102
RTVSPropertyOp32
 70
     1
  0
XRECORD
  5
327E
102
{ACAD_REACTORS
330
327D
102
}
330
327D
100
AcDbXrecord
280
     1
102
RTVSPropertyOp0
 70
     1
102
RTVSPropertyOp1
 70
     1
102
RTVSPropertyOp2
 70
     1
102
RTVSPropertyOp3
 70
     1
102
RTVSPropertyOp4
 70
     1
102
RTVSPropertyOp5
 70
     1
102
RTVSPropertyOp6
 70
     1
102
RTVSPropertyOp7
 70
     1
102
RTVSPropertyOp8
 70
     1
102
RTVSPropertyOp9
 70
     1
102
RTVSPropertyOp10
 70
     1
102
RTVSPropertyOp11
 70
     1
102
RTVSPropertyOp12
 70
     1
102
RTVSPropertyOp13
 70
     1
102
RTVSPropertyOp14
 70
     1
102
RTVSPropertyOp15
 70
     1
102
RTVSPropertyOp16
 70
     1
102
RTVSPropertyOp17
 70
     1
102
RTVSPropertyOp18
 70
     1
102
RTVSPropertyOp19
 70
     1
102
RTVSPropertyOp20
 70
     1
102
RTVSPropertyOp21
 70
     1
102
RTVSPropertyOp22
 70
     1
102
RTVSPropertyOp23
 70
     1
102
RTVSPropertyOp24
 70
     1
102
RTVSPropertyOp25
 70
     1
102
RTVSPropertyOp26
 70
     1
102
RTVSPropertyOp27
 70
     1
102
RTVSPropertyOp28
 70
     1
102
RTVSPropertyOp29
 70
     1
102
RTVSPropertyOp30
 70
     1
102
RTVSPropertyOp31
 70
     1
102
RTVSPropertyOp32
 70
     1
  0
XRECORD
  5
3262
102
{ACAD_REACTORS
330
3261
102
}
330
3261
100
AcDbXrecord
280
     1
102
RTVSPropertyOp0
 70
     1
102
RTVSPropertyOp1
 70
     1
102
RTVSPropertyOp2
 70
     1
102
RTVSPropertyOp3
 70
     1
102
RTVSPropertyOp4
 70
     1
102
RTVSPropertyOp5
 70
     1
102
RTVSPropertyOp6
 70
     1
102
RTVSPropertyOp7
 70
     1
102
RTVSPropertyOp8
 70
     1
102
RTVSPropertyOp9
 70
     1
102
RTVSPropertyOp10
 70
     1
102
RTVSPropertyOp11
 70
     1
102
RTVSPropertyOp12
 70
     1
102
RTVSPropertyOp13
 70
     1
102
RTVSPropertyOp14
 70
     1
102
RTVSPropertyOp15
 70
     1
102
RTVSPropertyOp16
 70
     1
102
RTVSPropertyOp17
 70
     1
102
RTVSPropertyOp18
 70
     1
102
RTVSPropertyOp19
 70
     1
102
RTVSPropertyOp20
 70
     1
102
RTVSPropertyOp21
 70
     1
102
RTVSPropertyOp22
 70
     1
102
RTVSPropertyOp23
 70
     1
102
RTVSPropertyOp24
 70
     1
102
RTVSPropertyOp25
 70
     1
102
RTVSPropertyOp26
 70
     1
102
RTVSPropertyOp27
 70
     1
102
RTVSPropertyOp28
 70
     1
102
RTVSPropertyOp29
 70
     1
102
RTVSPropertyOp30
 70
     1
102
RTVSPropertyOp31
 70
     1
102
RTVSPropertyOp32
 70
     1
  0
XRECORD
  5
3264
102
{ACAD_REACTORS
330
3263
102
}
330
3263
100
AcDbXrecord
280
     1
102
RTVSPropertyOp0
 70
     1
102
RTVSPropertyOp1
 70
     1
102
RTVSPropertyOp2
 70
     1
102
RTVSPropertyOp3
 70
     1
102
RTVSPropertyOp4
 70
     1
102
RTVSPropertyOp5
 70
     1
102
RTVSPropertyOp6
 70
     1
102
RTVSPropertyOp7
 70
     1
102
RTVSPropertyOp8
 70
     1
102
RTVSPropertyOp9
 70
     1
102
RTVSPropertyOp10
 70
     1
102
RTVSPropertyOp11
 70
     1
102
RTVSPropertyOp12
 70
     1
102
RTVSPropertyOp13
 70
     1
102
RTVSPropertyOp14
 70
     1
102
RTVSPropertyOp15
 70
     1
102
RTVSPropertyOp16
 70
     1
102
RTVSPropertyOp17
 70
     1
102
RTVSPropertyOp18
 70
     1
102
RTVSPropertyOp19
 70
     1
102
RTVSPropertyOp20
 70
     1
102
RTVSPropertyOp21
 70
     1
102
RTVSPropertyOp22
 70
     1
102
RTVSPropertyOp23
 70
     1
102
RTVSPropertyOp24
 70
     1
102
RTVSPropertyOp25
 70
     1
102
RTVSPropertyOp26
 70
     1
102
RTVSPropertyOp27
 70
     1
102
RTVSPropertyOp28
 70
     1
102
RTVSPropertyOp29
 70
     1
102
RTVSPropertyOp30
 70
     1
102
RTVSPropertyOp31
 70
     1
102
RTVSPropertyOp32
 70
     1
  0
XRECORD
  5
3266
102
{ACAD_REACTORS
330
3265
102
}
330
3265
100
AcDbXrecord
280
     1
102
RTVSPropertyOp0
 70
     1
102
RTVSPropertyOp1
 70
     1
102
RTVSPropertyOp2
 70
     1
102
RTVSPropertyOp3
 70
     1
102
RTVSPropertyOp4
 70
     1
102
RTVSPropertyOp5
 70
     1
102
RTVSPropertyOp6
 70
     1
102
RTVSPropertyOp7
 70
     1
102
RTVSPropertyOp8
 70
     1
102
RTVSPropertyOp9
 70
     1
102
RTVSPropertyOp10
 70
     1
102
RTVSPropertyOp11
 70
     1
102
RTVSPropertyOp12
 70
     1
102
RTVSPropertyOp13
 70
     1
102
RTVSPropertyOp14
 70
     1
102
RTVSPropertyOp15
 70
     1
102
RTVSPropertyOp16
 70
     1
102
RTVSPropertyOp17
 70
     1
102
RTVSPropertyOp18
 70
     1
102
RTVSPropertyOp19
 70
     1
102
RTVSPropertyOp20
 70
     1
102
RTVSPropertyOp21
 70
     1
102
RTVSPropertyOp22
 70
     1
102
RTVSPropertyOp23
 70
     1
102
RTVSPropertyOp24
 70
     1
102
RTVSPropertyOp25
 70
     1
102
RTVSPropertyOp26
 70
     1
102
RTVSPropertyOp27
 70
     1
102
RTVSPropertyOp28
 70
     1
102
RTVSPropertyOp29
 70
     1
102
RTVSPropertyOp30
 70
     1
102
RTVSPropertyOp31
 70
     1
102
RTVSPropertyOp32
 70
     1
  0
XRECORD
  5
3268
102
{ACAD_REACTORS
330
3267
102
}
330
3267
100
AcDbXrecord
280
     1
102
RTVSPropertyOp0
 70
     1
102
RTVSPropertyOp1
 70
     1
102
RTVSPropertyOp2
 70
     1
102
RTVSPropertyOp3
 70
     1
102
RTVSPropertyOp4
 70
     1
102
RTVSPropertyOp5
 70
     1
102
RTVSPropertyOp6
 70
     1
102
RTVSPropertyOp7
 70
     1
102
RTVSPropertyOp8
 70
     1
102
RTVSPropertyOp9
 70
     1
102
RTVSPropertyOp10
 70
     1
102
RTVSPropertyOp11
 70
     1
102
RTVSPropertyOp12
 70
     1
102
RTVSPropertyOp13
 70
     1
102
RTVSPropertyOp14
 70
     1
102
RTVSPropertyOp15
 70
     1
102
RTVSPropertyOp16
 70
     1
102
RTVSPropertyOp17
 70
     1
102
RTVSPropertyOp18
 70
     1
102
RTVSPropertyOp19
 70
     1
102
RTVSPropertyOp20
 70
     1
102
RTVSPropertyOp21
 70
     1
102
RTVSPropertyOp22
 70
     1
102
RTVSPropertyOp23
 70
     1
102
RTVSPropertyOp24
 70
     1
102
RTVSPropertyOp25
 70
     1
102
RTVSPropertyOp26
 70
     1
102
RTVSPropertyOp27
 70
     1
102
RTVSPropertyOp28
 70
     1
102
RTVSPropertyOp29
 70
     1
102
RTVSPropertyOp30
 70
     1
102
RTVSPropertyOp31
 70
     1
102
RTVSPropertyOp32
 70
     1
  0
XRECORD
  5
3285
102
{ACAD_REACTORS
330
3284
102
}
330
3284
100
AcDbXrecord
280
     1
102
RTVSPropertyOp0
 70
     1
102
RTVSPropertyOp1
 70
     1
102
RTVSPropertyOp2
 70
     1
102
RTVSPropertyOp3
 70
     1
102
RTVSPropertyOp4
 70
     1
102
RTVSPropertyOp5
 70
     1
102
RTVSPropertyOp6
 70
     1
102
RTVSPropertyOp7
 70
     1
102
RTVSPropertyOp8
 70
     1
102
RTVSPropertyOp9
 70
     1
102
RTVSPropertyOp10
 70
     1
102
RTVSPropertyOp11
 70
     1
102
RTVSPropertyOp12
 70
     1
102
RTVSPropertyOp13
 70
     1
102
RTVSPropertyOp14
 70
     1
102
RTVSPropertyOp15
 70
     1
102
RTVSPropertyOp16
 70
     1
102
RTVSPropertyOp17
 70
     1
102
RTVSPropertyOp18
 70
     1
102
RTVSPropertyOp19
 70
     1
102
RTVSPropertyOp20
 70
     1
102
RTVSPropertyOp21
 70
     1
102
RTVSPropertyOp22
 70
     1
102
RTVSPropertyOp23
 70
     1
102
RTVSPropertyOp24
 70
     1
102
RTVSPropertyOp25
 70
     1
102
RTVSPropertyOp26
 70
     1
102
RTVSPropertyOp27
 70
     1
102
RTVSPropertyOp28
 70
     1
102
RTVSPropertyOp29
 70
     1
102
RTVSPropertyOp30
 70
     1
102
RTVSPropertyOp31
 70
     1
102
RTVSPropertyOp32
 70
     1
  0
XRECORD
  5
3291
102
{ACAD_REACTORS
330
3290
102
}
330
3290
100
AcDbXrecord
280
     1
102
RTVSPropertyOp0
 70
     0
102
RTVSPropertyOp1
 70
     0
102
RTVSPropertyOp2
 70
     0
102
RTVSPropertyOp3
 70
     0
102
RTVSPropertyOp4
 70
     0
102
RTVSPropertyOp5
 70
     0
102
RTVSPropertyOp6
 70
     0
102
RTVSPropertyOp7
 70
     0
102
RTVSPropertyOp8
 70
     0
102
RTVSPropertyOp9
 70
     0
102
RTVSPropertyOp10
 70
     0
102
RTVSPropertyOp11
 70
     0
102
RTVSPropertyOp12
 70
     0
102
RTVSPropertyOp13
 70
     0
102
RTVSPropertyOp14
 70
     2
102
RTVSPropertyOp15
 70
     0
102
RTVSPropertyOp16
 70
     0
102
RTVSPropertyOp17
 70
     0
102
RTVSPropertyOp18
 70
     0
102
RTVSPropertyOp19
 70
     0
102
RTVSPropertyOp20
 70
     0
102
RTVSPropertyOp21
 70
     0
102
RTVSPropertyOp22
 70
     0
102
RTVSPropertyOp23
 70
     0
102
RTVSPropertyOp24
 70
     0
102
RTVSPropertyOp25
 70
     0
102
RTVSPropertyOp26
 70
     0
102
RTVSPropertyOp27
 70
     0
102
RTVSPropertyOp28
 70
     1
102
RTVSPropertyOp29
 70
     1
102
RTVSPropertyOp30
 70
     1
102
RTVSPropertyOp31
 70
     1
102
RTVSPropertyOp32
 70
     1
  0
XRECORD
  5
327C
102
{ACAD_REACTORS
330
327B
102
}
330
327B
100
AcDbXrecord
280
     1
102
RTVSPropertyOp0
 70
     1
102
RTVSPropertyOp1
 70
     1
102
RTVSPropertyOp2
 70
     1
102
RTVSPropertyOp3
 70
     1
102
RTVSPropertyOp4
 70
     1
102
RTVSPropertyOp5
 70
     1
102
RTVSPropertyOp6
 70
     1
102
RTVSPropertyOp7
 70
     1
102
RTVSPropertyOp8
 70
     1
102
RTVSPropertyOp9
 70
     1
102
RTVSPropertyOp10
 70
     1
102
RTVSPropertyOp11
 70
     1
102
RTVSPropertyOp12
 70
     1
102
RTVSPropertyOp13
 70
     1
102
RTVSPropertyOp14
 70
     1
102
RTVSPropertyOp15
 70
     1
102
RTVSPropertyOp16
 70
     1
102
RTVSPropertyOp17
 70
     1
102
RTVSPropertyOp18
 70
     1
102
RTVSPropertyOp19
 70
     1
102
RTVSPropertyOp20
 70
     1
102
RTVSPropertyOp21
 70
     1
102
RTVSPropertyOp22
 70
     1
102
RTVSPropertyOp23
 70
     1
102
RTVSPropertyOp24
 70
     1
102
RTVSPropertyOp25
 70
     1
102
RTVSPropertyOp26
 70
     1
102
RTVSPropertyOp27
 70
     1
102
RTVSPropertyOp28
 70
     1
102
RTVSPropertyOp29
 70
     1
102
RTVSPropertyOp30
 70
     1
102
RTVSPropertyOp31
 70
     1
102
RTVSPropertyOp32
 70
     1
  0
XRECORD
  5
3293
102
{ACAD_REACTORS
330
3292
102
}
330
3292
100
AcDbXrecord
280
     1
102
RTVSPropertyOp0
 70
     0
102
RTVSPropertyOp1
 70
     0
102
RTVSPropertyOp2
 70
     0
102
RTVSPropertyOp3
 70
     0
102
RTVSPropertyOp4
 70
     0
102
RTVSPropertyOp5
 70
     0
102
RTVSPropertyOp6
 70
     0
102
RTVSPropertyOp7
 70
     0
102
RTVSPropertyOp8
 70
     0
102
RTVSPropertyOp9
 70
     0
102
RTVSPropertyOp10
 70
     0
102
RTVSPropertyOp11
 70
     0
102
RTVSPropertyOp12
 70
     0
102
RTVSPropertyOp13
 70
     0
102
RTVSPropertyOp14
 70
     2
102
RTVSPropertyOp15
 70
     0
102
RTVSPropertyOp16
 70
     0
102
RTVSPropertyOp17
 70
     0
102
RTVSPropertyOp18
 70
     0
102
RTVSPropertyOp19
 70
     0
102
RTVSPropertyOp20
 70
     0
102
RTVSPropertyOp21
 70
     0
102
RTVSPropertyOp22
 70
     0
102
RTVSPropertyOp23
 70
     0
102
RTVSPropertyOp24
 70
     0
102
RTVSPropertyOp25
 70
     0
102
RTVSPropertyOp26
 70
     0
102
RTVSPropertyOp27
 70
     0
102
RTVSPropertyOp28
 70
     1
102
RTVSPropertyOp29
 70
     1
102
RTVSPropertyOp30
 70
     1
102
RTVSPropertyOp31
 70
     1
102
RTVSPropertyOp32
 70
     1
  0
XRECORD
  5
3274
102
{ACAD_REACTORS
330
3273
102
}
330
3273
100
AcDbXrecord
280
     1
102
RTVSPropertyOp0
 70
     1
102
RTVSPropertyOp1
 70
     1
102
RTVSPropertyOp2
 70
     1
102
RTVSPropertyOp3
 70
     1
102
RTVSPropertyOp4
 70
     1
102
RTVSPropertyOp5
 70
     1
102
RTVSPropertyOp6
 70
     1
102
RTVSPropertyOp7
 70
     1
102
RTVSPropertyOp8
 70
     1
102
RTVSPropertyOp9
 70
     1
102
RTVSPropertyOp10
 70
     1
102
RTVSPropertyOp11
 70
     1
102
RTVSPropertyOp12
 70
     1
102
RTVSPropertyOp13
 70
     1
102
RTVSPropertyOp14
 70
     1
102
RTVSPropertyOp15
 70
     1
102
RTVSPropertyOp16
 70
     1
102
RTVSPropertyOp17
 70
     1
102
RTVSPropertyOp18
 70
     1
102
RTVSPropertyOp19
 70
     1
102
RTVSPropertyOp20
 70
     1
102
RTVSPropertyOp21
 70
     1
102
RTVSPropertyOp22
 70
     1
102
RTVSPropertyOp23
 70
     1
102
RTVSPropertyOp24
 70
     1
102
RTVSPropertyOp25
 70
     1
102
RTVSPropertyOp26
 70
     1
102
RTVSPropertyOp27
 70
     1
102
RTVSPropertyOp28
 70
     1
102
RTVSPropertyOp29
 70
     1
102
RTVSPropertyOp30
 70
     1
102
RTVSPropertyOp31
 70
     1
102
RTVSPropertyOp32
 70
     1
  0
XRECORD
  5
328F
102
{ACAD_REACTORS
330
328E
102
}
330
328E
100
AcDbXrecord
280
     1
102
RTVSPropertyOp0
 70
     1
102
RTVSPropertyOp1
 70
     1
102
RTVSPropertyOp2
 70
     1
102
RTVSPropertyOp3
 70
     1
102
RTVSPropertyOp4
 70
     1
102
RTVSPropertyOp5
 70
     1
102
RTVSPropertyOp6
 70
     1
102
RTVSPropertyOp7
 70
     1
102
RTVSPropertyOp8
 70
     1
102
RTVSPropertyOp9
 70
     1
102
RTVSPropertyOp10
 70
     1
102
RTVSPropertyOp11
 70
     1
102
RTVSPropertyOp12
 70
     1
102
RTVSPropertyOp13
 70
     1
102
RTVSPropertyOp14
 70
     1
102
RTVSPropertyOp15
 70
     1
102
RTVSPropertyOp16
 70
     1
102
RTVSPropertyOp17
 70
     1
102
RTVSPropertyOp18
 70
     1
102
RTVSPropertyOp19
 70
     1
102
RTVSPropertyOp20
 70
     1
102
RTVSPropertyOp21
 70
     1
102
RTVSPropertyOp22
 70
     1
102
RTVSPropertyOp23
 70
     1
102
RTVSPropertyOp24
 70
     1
102
RTVSPropertyOp25
 70
     1
102
RTVSPropertyOp26
 70
     1
102
RTVSPropertyOp27
 70
     1
102
RTVSPropertyOp28
 70
     1
102
RTVSPropertyOp29
 70
     1
102
RTVSPropertyOp30
 70
     1
102
RTVSPropertyOp31
 70
     1
102
RTVSPropertyOp32
 70
     1
  0
XRECORD
  5
328D
102
{ACAD_REACTORS
330
328C
102
}
330
328C
100
AcDbXrecord
280
     1
102
RTVSPropertyOp0
 70
     1
102
RTVSPropertyOp1
 70
     1
102
RTVSPropertyOp2
 70
     1
102
RTVSPropertyOp3
 70
     1
102
RTVSPropertyOp4
 70
     1
102
RTVSPropertyOp5
 70
     1
102
RTVSPropertyOp6
 70
     1
102
RTVSPropertyOp7
 70
     1
102
RTVSPropertyOp8
 70
     1
102
RTVSPropertyOp9
 70
     1
102
RTVSPropertyOp10
 70
     1
102
RTVSPropertyOp11
 70
     1
102
RTVSPropertyOp12
 70
     1
102
RTVSPropertyOp13
 70
     1
102
RTVSPropertyOp14
 70
     1
102
RTVSPropertyOp15
 70
     1
102
RTVSPropertyOp16
 70
     1
102
RTVSPropertyOp17
 70
     1
102
RTVSPropertyOp18
 70
     1
102
RTVSPropertyOp19
 70
     1
102
RTVSPropertyOp20
 70
     1
102
RTVSPropertyOp21
 70
     1
102
RTVSPropertyOp22
 70
     1
102
RTVSPropertyOp23
 70
     1
102
RTVSPropertyOp24
 70
     1
102
RTVSPropertyOp25
 70
     1
102
RTVSPropertyOp26
 70
     1
102
RTVSPropertyOp27
 70
     1
102
RTVSPropertyOp28
 70
     1
102
RTVSPropertyOp29
 70
     1
102
RTVSPropertyOp30
 70
     1
102
RTVSPropertyOp31
 70
     1
102
RTVSPropertyOp32
 70
     1
  0
XRECORD
  5
3287
102
{ACAD_REACTORS
330
3286
102
}
330
3286
100
AcDbXrecord
280
     1
102
RTVSPropertyOp0
 70
     1
102
RTVSPropertyOp1
 70
     1
102
RTVSPropertyOp2
 70
     1
102
RTVSPropertyOp3
 70
     1
102
RTVSPropertyOp4
 70
     1
102
RTVSPropertyOp5
 70
     1
102
RTVSPropertyOp6
 70
     1
102
RTVSPropertyOp7
 70
     1
102
RTVSPropertyOp8
 70
     1
102
RTVSPropertyOp9
 70
     1
102
RTVSPropertyOp10
 70
     1
102
RTVSPropertyOp11
 70
     1
102
RTVSPropertyOp12
 70
     1
102
RTVSPropertyOp13
 70
     1
102
RTVSPropertyOp14
 70
     1
102
RTVSPropertyOp15
 70
     1
102
RTVSPropertyOp16
 70
     1
102
RTVSPropertyOp17
 70
     1
102
RTVSPropertyOp18
 70
     1
102
RTVSPropertyOp19
 70
     1
102
RTVSPropertyOp20
 70
     1
102
RTVSPropertyOp21
 70
     1
102
RTVSPropertyOp22
 70
     1
102
RTVSPropertyOp23
 70
     1
102
RTVSPropertyOp24
 70
     1
102
RTVSPropertyOp25
 70
     1
102
RTVSPropertyOp26
 70
     1
102
RTVSPropertyOp27
 70
     1
102
RTVSPropertyOp28
 70
     1
102
RTVSPropertyOp29
 70
     1
102
RTVSPropertyOp30
 70
     1
102
RTVSPropertyOp31
 70
     1
102
RTVSPropertyOp32
 70
     1
  0
XRECORD
  5
3289
102
{ACAD_REACTORS
330
3288
102
}
330
3288
100
AcDbXrecord
280
     1
102
RTVSPropertyOp0
 70
     1
102
RTVSPropertyOp1
 70
     1
102
RTVSPropertyOp2
 70
     1
102
RTVSPropertyOp3
 70
     1
102
RTVSPropertyOp4
 70
     1
102
RTVSPropertyOp5
 70
     1
102
RTVSPropertyOp6
 70
     1
102
RTVSPropertyOp7
 70
     1
102
RTVSPropertyOp8
 70
     1
102
RTVSPropertyOp9
 70
     1
102
RTVSPropertyOp10
 70
     1
102
RTVSPropertyOp11
 70
     1
102
RTVSPropertyOp12
 70
     1
102
RTVSPropertyOp13
 70
     1
102
RTVSPropertyOp14
 70
     1
102
RTVSPropertyOp15
 70
     1
102
RTVSPropertyOp16
 70
     1
102
RTVSPropertyOp17
 70
     1
102
RTVSPropertyOp18
 70
     1
102
RTVSPropertyOp19
 70
     1
102
RTVSPropertyOp20
 70
     1
102
RTVSPropertyOp21
 70
     1
102
RTVSPropertyOp22
 70
     1
102
RTVSPropertyOp23
 70
     1
102
RTVSPropertyOp24
 70
     1
102
RTVSPropertyOp25
 70
     1
102
RTVSPropertyOp26
 70
     1
102
RTVSPropertyOp27
 70
     1
102
RTVSPropertyOp28
 70
     1
102
RTVSPropertyOp29
 70
     1
102
RTVSPropertyOp30
 70
     1
102
RTVSPropertyOp31
 70
     1
102
RTVSPropertyOp32
 70
     1
  0
XRECORD
  5
327A
102
{ACAD_REACTORS
330
3279
102
}
330
3279
100
AcDbXrecord
280
     1
102
RTVSPropertyOp0
 70
     1
102
RTVSPropertyOp1
 70
     1
102
RTVSPropertyOp2
 70
     1
102
RTVSPropertyOp3
 70
     1
102
RTVSPropertyOp4
 70
     1
102
RTVSPropertyOp5
 70
     1
102
RTVSPropertyOp6
 70
     1
102
RTVSPropertyOp7
 70
     1
102
RTVSPropertyOp8
 70
     1
102
RTVSPropertyOp9
 70
     1
102
RTVSPropertyOp10
 70
     1
102
RTVSPropertyOp11
 70
     1
102
RTVSPropertyOp12
 70
     1
102
RTVSPropertyOp13
 70
     1
102
RTVSPropertyOp14
 70
     1
102
RTVSPropertyOp15
 70
     1
102
RTVSPropertyOp16
 70
     1
102
RTVSPropertyOp17
 70
     1
102
RTVSPropertyOp18
 70
     1
102
RTVSPropertyOp19
 70
     1
102
RTVSPropertyOp20
 70
     1
102
RTVSPropertyOp21
 70
     1
102
RTVSPropertyOp22
 70
     1
102
RTVSPropertyOp23
 70
     1
102
RTVSPropertyOp24
 70
     1
102
RTVSPropertyOp25
 70
     1
102
RTVSPropertyOp26
 70
     1
102
RTVSPropertyOp27
 70
     1
102
RTVSPropertyOp28
 70
     1
102
RTVSPropertyOp29
 70
     1
102
RTVSPropertyOp30
 70
     1
102
RTVSPropertyOp31
 70
     1
102
RTVSPropertyOp32
 70
     1
  0
XRECORD
  5
3283
102
{ACAD_REACTORS
330
3282
102
}
330
3282
100
AcDbXrecord
280
     1
102
RTVSPropertyOp0
 70
     1
102
RTVSPropertyOp1
 70
     1
102
RTVSPropertyOp2
 70
     1
102
RTVSPropertyOp3
 70
     1
102
RTVSPropertyOp4
 70
     1
102
RTVSPropertyOp5
 70
     1
102
RTVSPropertyOp6
 70
     1
102
RTVSPropertyOp7
 70
     1
102
RTVSPropertyOp8
 70
     1
102
RTVSPropertyOp9
 70
     1
102
RTVSPropertyOp10
 70
     1
102
RTVSPropertyOp11
 70
     1
102
RTVSPropertyOp12
 70
     1
102
RTVSPropertyOp13
 70
     1
102
RTVSPropertyOp14
 70
     1
102
RTVSPropertyOp15
 70
     1
102
RTVSPropertyOp16
 70
     1
102
RTVSPropertyOp17
 70
     1
102
RTVSPropertyOp18
 70
     1
102
RTVSPropertyOp19
 70
     1
102
RTVSPropertyOp20
 70
     1
102
RTVSPropertyOp21
 70
     1
102
RTVSPropertyOp22
 70
     1
102
RTVSPropertyOp23
 70
     1
102
RTVSPropertyOp24
 70
     1
102
RTVSPropertyOp25
 70
     1
102
RTVSPropertyOp26
 70
     1
102
RTVSPropertyOp27
 70
     1
102
RTVSPropertyOp28
 70
     1
102
RTVSPropertyOp29
 70
     1
102
RTVSPropertyOp30
 70
     1
102
RTVSPropertyOp31
 70
     1
102
RTVSPropertyOp32
 70
     1
  0
XRECORD
  5
328B
102
{ACAD_REACTORS
330
328A
102
}
330
328A
100
AcDbXrecord
280
     1
102
RTVSPropertyOp0
 70
     1
102
RTVSPropertyOp1
 70
     1
102
RTVSPropertyOp2
 70
     1
102
RTVSPropertyOp3
 70
     1
102
RTVSPropertyOp4
 70
     1
102
RTVSPropertyOp5
 70
     1
102
RTVSPropertyOp6
 70
     1
102
RTVSPropertyOp7
 70
     1
102
RTVSPropertyOp8
 70
     1
102
RTVSPropertyOp9
 70
     1
102
RTVSPropertyOp10
 70
     1
102
RTVSPropertyOp11
 70
     1
102
RTVSPropertyOp12
 70
     1
102
RTVSPropertyOp13
 70
     1
102
RTVSPropertyOp14
 70
     1
102
RTVSPropertyOp15
 70
     1
102
RTVSPropertyOp16
 70
     1
102
RTVSPropertyOp17
 70
     1
102
RTVSPropertyOp18
 70
     1
102
RTVSPropertyOp19
 70
     1
102
RTVSPropertyOp20
 70
     1
102
RTVSPropertyOp21
 70
     1
102
RTVSPropertyOp22
 70
     1
102
RTVSPropertyOp23
 70
     1
102
RTVSPropertyOp24
 70
     1
102
RTVSPropertyOp25
 70
     1
102
RTVSPropertyOp26
 70
     1
102
RTVSPropertyOp27
 70
     1
102
RTVSPropertyOp28
 70
     1
102
RTVSPropertyOp29
 70
     1
102
RTVSPropertyOp30
 70
     1
102
RTVSPropertyOp31
 70
     1
102
RTVSPropertyOp32
 70
     1
  0
ENDSEC
  0
EOF
