  0
SECTION
  2
HEADER
  9
$ACADVER
  1
AC1021
  9
$ACADMAINTVER
 70
    25
  9
$DWGCODEPAGE
  3
ANSI_1252
  9
$INSBASE
 10
0.0
 20
0.0
 30
0.0
  9
$EXTMIN
 10
0.0
 20
0.0
 30
0.0
  9
$EXTMAX
 10
3000.0
 20
4500.0
 30
0.0
  9
$LIMMIN
 10
0.0
 20
0.0
  9
$LIMMAX
 10
3000.0
 20
4500.0
  9
$ORTHOMODE
 70
     0
  9
$REGENMODE
 70
     1
  9
$FILLMODE
 70
     1
  9
$QTEXTMODE
 70
     0
  9
$MIRRTEXT
 70
     1
  9
$LTSCALE
 40
1.0
  9
$ATTMODE
 70
     1
  9
$TEXTSIZE
 40
10.0
  9
$TRACEWID
 40
1.0
  9
$TEXTSTYLE
  7
Standard
  9
$CLAYER
  8
0
  9
$CELTYPE
  6
ByLayer
  9
$CECOLOR
 62
   256
  9
$CELTSCALE
 40
1.0
  9
$DISPSILH
 70
     0
  9
$DIMSCALE
 40
1.0
  9
$DIMASZ
 40
2.5
  9
$DIMEXO
 40
0.625
  9
$DIMDLI
 40
3.75
  9
$DIMRND
 40
0.0
  9
$DIMDLE
 40
0.0
  9
$DIMEXE
 40
1.25
  9
$DIMTP
 40
0.0
  9
$DIMTM
 40
0.0
  9
$DIMTXT
 40
2.5
  9
$DIMCEN
 40
2.5
  9
$DIMTSZ
 40
0.0
  9
$DIMTOL
 70
     0
  9
$DIMLIM
 70
     0
  9
$DIMTIH
 70
     0
  9
$DIMTOH
 70
     0
  9
$DIMSE1
 70
     0
  9
$DIMSE2
 70
     0
  9
$DIMTAD
 70
     1
  9
$DIMZIN
 70
     8
  9
$DIMBLK
  1

  9
$DIMASO
 70
     1
  9
$DIMSHO
 70
     1
  9
$DIMPOST
  1

  9
$DIMAPOST
  1

  9
$DIMALT
 70
     0
  9
$DIMALTD
 70
     3
  9
$DIMALTF
 40
0.0393700787
  9
$DIMLFAC
 40
1.0
  9
$DIMTOFL
 70
     1
  9
$DIMTVP
 40
0.0
  9
$DIMTIX
 70
     0
  9
$DIMSOXD
 70
     0
  9
$DIMSAH
 70
     0
  9
$DIMBLK1
  1

  9
$DIMBLK2
  1

  9
$DIMSTYLE
  2
ISO-25
  9
$DIMCLRD
 70
     0
  9
$DIMCLRE
 70
     0
  9
$DIMCLRT
 70
     0
  9
$DIMTFAC
 40
1.0
  9
$DIMGAP
 40
0.625
  9
$DIMJUST
 70
     0
  9
$DIMSD1
 70
     0
  9
$DIMSD2
 70
     0
  9
$DIMTOLJ
 70
     0
  9
$DIMTZIN
 70
     8
  9
$DIMALTZ
 70
     0
  9
$DIMALTTZ
 70
     0
  9
$DIMUPT
 70
     0
  9
$DIMDEC
 70
     2
  9
$DIMTDEC
 70
     2
  9
$DIMALTU
 70
     2
  9
$DIMALTTD
 70
     3
  9
$DIMTXSTY
  7
Standard
  9
$DIMAUNIT
 70
     0
  9
$DIMADEC
 70
     0
  9
$DIMALTRND
 40
0.0
  9
$DIMAZIN
 70
     0
  9
$DIMDSEP
 70
    44
  9
$DIMATFIT
 70
     3
  9
$DIMFRAC
 70
     0
  9
$DIMLDRBLK
  1

  9
$DIMLUNIT
 70
     2
  9
$DIMLWD
 70
    -2
  9
$DIMLWE
 70
    -2
  9
$DIMTMOVE
 70
     0
  9
$DIMFXL
 40
1.0
  9
$DIMFXLON
 70
     0
  9
$DIMJOGANG
 40
0.7853981634
  9
$DIMTFILL
 70
     0
  9
$DIMTFILLCLR
 70
     0
  9
$DIMARCSYM
 70
     0
  9
$DIMLTYPE
  6

  9
$DIMLTEX1
  6

  9
$DIMLTEX2
  6

  9
$LUNITS
 70
     2
  9
$LUPREC
 70
     4
  9
$SKETCHINC
 40
1.0
  9
$FILLETRAD
 40
10.0
  9
$AUNITS
 70
     0
  9
$AUPREC
 70
     0
  9
$MENU
  1
.
  9
$ELEVATION
 40
0.0
  9
$PELEVATION
 40
0.0
  9
$THICKNESS
 40
0.0
  9
$LIMCHECK
 70
     0
  9
$CHAMFERA
 40
0.0
  9
$CHAMFERB
 40
0.0
  9
$CHAMFERC
 40
0.0
  9
$CHAMFERD
 40
0.0
  9
$SKPOLY
 70
     0
  9
$TDCREATE
 40
2460342.323724363
  9
$TDUCREATE
 40
2460342.282057697
  9
$TDUPDATE
 40
2460342.32372618
  9
$TDUUPDATE
 40
2460342.282059514
  9
$TDINDWG
 40
0.0000000116
  9
$TDUSRTIMER
 40
0.0000000116
  9
$USRTIMER
 70
     1
  9
$ANGBASE
 50
0.0
  9
$ANGDIR
 70
     0
  9
$PDMODE
 70
     0
  9
$PDSIZE
 40
0.0
  9
$PLINEWID
 40
0.0
  9
$SPLFRAME
 70
     0
  9
$SPLINETYPE
 70
     6
  9
$SPLINESEGS
 70
     8
  9
$HANDSEED
  5
156
  9
$SURFTAB1
 70
     6
  9
$SURFTAB2
 70
     6
  9
$SURFTYPE
 70
     6
  9
$SURFU
 70
     6
  9
$SURFV
 70
     6
  9
$UCSBASE
  2

  9
$UCSNAME
  2

  9
$UCSORG
 10
0.0
 20
0.0
 30
0.0
  9
$UCSXDIR
 10
1.0
 20
0.0
 30
0.0
  9
$UCSYDIR
 10
0.0
 20
1.0
 30
0.0
  9
$UCSORTHOREF
  2

  9
$UCSORTHOVIEW
 70
     0
  9
$UCSORGTOP
 10
0.0
 20
0.0
 30
0.0
  9
$UCSORGBOTTOM
 10
0.0
 20
0.0
 30
0.0
  9
$UCSORGLEFT
 10
0.0
 20
0.0
 30
0.0
  9
$UCSORGRIGHT
 10
0.0
 20
0.0
 30
0.0
  9
$UCSORGFRONT
 10
0.0
 20
0.0
 30
0.0
  9
$UCSORGBACK
 10
0.0
 20
0.0
 30
0.0
  9
$PUCSBASE
  2

  9
$PUCSNAME
  2

  9
$PUCSORG
 10
0.0
 20
0.0
 30
0.0
  9
$PUCSXDIR
 10
1.0
 20
0.0
 30
0.0
  9
$PUCSYDIR
 10
0.0
 20
1.0
 30
0.0
  9
$PUCSORTHOREF
  2

  9
$PUCSORTHOVIEW
 70
     0
  9
$PUCSORGTOP
 10
0.0
 20
0.0
 30
0.0
  9
$PUCSORGBOTTOM
 10
0.0
 20
0.0
 30
0.0
  9
$PUCSORGLEFT
 10
0.0
 20
0.0
 30
0.0
  9
$PUCSORGRIGHT
 10
0.0
 20
0.0
 30
0.0
  9
$PUCSORGFRONT
 10
0.0
 20
0.0
 30
0.0
  9
$PUCSORGBACK
 10
0.0
 20
0.0
 30
0.0
  9
$USERI1
 70
     0
  9
$USERI2
 70
     0
  9
$USERI3
 70
     0
  9
$USERI4
 70
     0
  9
$USERI5
 70
     0
  9
$USERR1
 40
0.0
  9
$USERR2
 40
0.0
  9
$USERR3
 40
0.0
  9
$USERR4
 40
0.0
  9
$USERR5
 40
0.0
  9
$WORLDVIEW
 70
     1
  9
$SHADEDGE
 70
     3
  9
$SHADEDIF
 70
    70
  9
$TILEMODE
 70
     1
  9
$MAXACTVP
 70
    64
  9
$PINSBASE
 10
0.0
 20
0.0
 30
0.0
  9
$PLIMCHECK
 70
     0
  9
$PEXTMIN
 10
0.0
 20
0.0
 30
0.0
  9
$PEXTMAX
 10
3000.0
 20
4500.0
 30
0.0
  9
$PLIMMIN
 10
0.0
 20
0.0
  9
$PLIMMAX
 10
3000.0
 20
4500.0
  9
$UNITMODE
 70
     0
  9
$VISRETAIN
 70
     1
  9
$PLINEGEN
 70
     0
  9
$PSLTSCALE
 70
     1
  9
$TREEDEPTH
 70
  3020
  9
$CMLSTYLE
  2
Standard
  9
$CMLJUST
 70
     0
  9
$CMLSCALE
 40
20.0
  9
$PROXYGRAPHICS
 70
     1
  9
$MEASUREMENT
 70
     1
  9
$CELWEIGHT
370
    -1
  9
$ENDCAPS
280
     0
  9
$JOINSTYLE
280
     0
  9
$LWDISPLAY
290
     0
  9
$INSUNITS
 70
     4
  9
$HYPERLINKBASE
  1

  9
$STYLESHEET
  1

  9
$XEDIT
290
     1
  9
$CEPSNTYPE
380
     0
  9
$PSTYLEMODE
290
     1
  9
$FINGERPRINTGUID
  2
{D32D3A6E-5257-48D0-BED8-8A3C7703F0DC}
  9
$VERSIONGUID
  2
{FAEB1C32-E019-11D5-929B-00C0DF256EC4}
  9
$EXTNAMES
290
     1
  9
$PSVPSCALE
 40
0.0
  9
$OLESTARTUP
290
     0
  9
$SORTENTS
280
   127
  9
$INDEXCTL
280
     0
  9
$HIDETEXT
280
     1
  9
$XCLIPFRAME
290
     0
  9
$HALOGAP
280
     0
  9
$OBSCOLOR
 70
   257
  9
$OBSLTYPE
280
     0
  9
$INTERSECTIONDISPLAY
280
     0
  9
$INTERSECTIONCOLOR
 70
   257
  9
$DIMASSOC
280
     2
  9
$PROJECTNAME
  1

  9
$CAMERADISPLAY
290
     0
  9
$LENSLENGTH
 40
50.0
  9
$CAMERAHEIGHT
 40
0.0
  9
$STEPSPERSEC
 40
2.0
  9
$STEPSIZE
 40
6.0
  9
$3DDWFPREC
 40
2.0
  9
$PSOLWIDTH
 40
5.0
  9
$PSOLHEIGHT
 40
80.0
  9
$LOFTANG1
 40
1.5707963268
  9
$LOFTANG2
 40
1.5707963268
  9
$LOFTMAG1
 40
0.0
  9
$LOFTMAG2
 40
0.0
  9
$LOFTPARAM
 70
     7
  9
$LOFTNORMALS
280
     1
  9
$LATITUDE
 40
37.795
  9
$LONGITUDE
 40
-122.394
  9
$NORTHDIRECTION
 40
0.0
  9
$TIMEZONE
 70
 -8000
  9
$LIGHTGLYPHDISPLAY
280
     1
  9
$TILEMODELIGHTSYNCH
280
     1
  9
$CMATERIAL
347
44
  9
$SOLIDHIST
280
     0
  9
$SHOWHIST
280
     1
  9
$DWFFRAME
280
     2
  9
$DGNFRAME
280
     2
  9
$REALWORLDSCALE
290
     1
  9
$INTERFERECOLOR
 62
   256
  9
$CSHADOW
280
     0
  9
$SHADOWPLANELOCATION
 40
0.0
  0
ENDSEC
  0
SECTION
  2
CLASSES
  0
CLASS
  1
ACDBDICTIONARYWDFLT
  2
AcDbDictionaryWithDefault
  3
ObjectDBX Classes
 90
        0
 91
        4
280
     0
281
     0
  0
CLASS
  1
VISUALSTYLE
  2
AcDbVisualStyle
  3
ObjectDBX Classes
 90
     4095
 91
        4
280
     0
281
     0
  0
CLASS
  1
MATERIAL
  2
AcDbMaterial
  3
ObjectDBX Classes
 90
     1153
 91
        4
280
     0
281
     0
  0
CLASS
  1
SCALE
  2
AcDbScale
  3
ObjectDBX Classes
 90
     1153
 91
        4
280
     0
281
     0
  0
CLASS
  1
TABLESTYLE
  2
AcDbTableStyle
  3
ObjectDBX Classes
 90
     4095
 91
        4
280
     0
281
     0
  0
CLASS
  1
MLEADERSTYLE
  2
AcDbMLeaderStyle
  3
ACDB_MLEADERSTYLE_CLASS
 90
     4095
 91
        4
280
     0
281
     0
  0
CLASS
  1
SUN
  2
AcDbSun
  3
SCENEOE
 90
     1153
 91
        4
280
     0
281
     0
  0
CLASS
  1
DICTIONARYVAR
  2
AcDbDictionaryVar
  3
ObjectDBX Classes
 90
        0
 91
        4
280
     0
281
     0
  0
CLASS
  1
CELLSTYLEMAP
  2
AcDbCellStyleMap
  3
ObjectDBX Classes
 90
     1152
 91
        4
280
     0
281
     0
  0
ENDSEC
  0
SECTION
  2
TABLES
  0
TABLE
  2
VPORT
  5
8
330
0
100
AcDbSymbolTable
 70
     1
  0
VPORT
  5
29
330
8
100
AcDbSymbolTableRecord
100
AcDbViewportTableRecord
  2
*Active
 70
     0
 10
0.0
 20
0.0
 11
1.0
 21
1.0
 12
344.1869158879
 22
148.5
 13
0.0
 23
0.0
 14
10.0
 24
10.0
 15
10.0
 25
10.0
 16
0.0
 26
0.0
 36
1.0
 17
0.0
 27
0.0
 37
0.0
 40
297.0
 41
1.9729729729
 42
50.0
 43
0.0
 44
0.0
 50
0.0
 51
0.0
 71
     0
 72
   100
 73
     1
 74
     3
 75
     0
 76
     0
 77
     0
 78
     0
281
     0
 65
     1
110
0.0
120
0.0
130
0.0
111
1.0
121
0.0
131
0.0
112
0.0
122
1.0
132
0.0
 79
     0
146
0.0
348
2F
 60
     3
 61
     5
292
     1
282
     1
141
0.0
142
0.0
 63
   250
361
6D
  0
ENDTAB
  0
TABLE
  2
LTYPE
  5
5
330
0
100
AcDbSymbolTable
 70
     1
  0
LTYPE
  5
14
330
5
100
AcDbSymbolTableRecord
100
AcDbLinetypeTableRecord
  2
ByBlock
 70
     0
  3

 72
    65
 73
     0
 40
0.0
  0
LTYPE
  5
15
330
5
100
AcDbSymbolTableRecord
100
AcDbLinetypeTableRecord
  2
ByLayer
 70
     0
  3

 72
    65
 73
     0
 40
0.0
  0
LTYPE
  5
16
330
5
100
AcDbSymbolTableRecord
100
AcDbLinetypeTableRecord
  2
Continuous
 70
     0
  3
Solid line
 72
    65
 73
     0
 40
0.0
  0
ENDTAB
  0
TABLE
  2
LAYER
  5
2
330
0
100
AcDbSymbolTable
 70
     7
  0
LAYER
  5
10
330
2
100
AcDbSymbolTableRecord
100
AcDbLayerTableRecord
  2
0
 70
     0
 62
     7
  6
Continuous
370
    -3
390
F
347
46
  0
LAYER
  5
6E
330
2
100
AcDbSymbolTableRecord
100
AcDbLayerTableRecord
  2
Standard
 70
     0
 62
     7
  6
Continuous
370
    -3
390
F
347
46
  0
LAYER
  5
71
330
2
100
AcDbSymbolTableRecord
100
AcDbLayerTableRecord
  2
DV1_Standard
 70
     0
 62
     7
  6
Continuous
370
    -3
390
F
347
46
  0
LAYER
  5
91
330
2
100
AcDbSymbolTableRecord
100
AcDbLayerTableRecord
  2
DV1_Default
 70
     0
 62
     7
  6
Continuous
370
    -3
390
F
347
46
  0
LAYER
  5
B4
330
2
100
AcDbSymbolTableRecord
100
AcDbLayerTableRecord
  2
DV2_Standard
 70
     0
 62
     7
  6
Continuous
370
    -3
390
F
347
46
  0
LAYER
  5
CE
330
2
100
AcDbSymbolTableRecord
100
AcDbLayerTableRecord
  2
DV3_Standard
 70
     0
 62
     7
  6
Continuous
370
    -3
390
F
347
46
  0
LAYER
  5
111
330
2
100
AcDbSymbolTableRecord
100
AcDbLayerTableRecord
  2
Default
 70
     0
 62
     7
  6
Continuous
370
    -3
390
F
347
46
  0
ENDTAB
  0
TABLE
  2
STYLE
  5
3
330
0
100
AcDbSymbolTable
 70
     1
  0
STYLE
  5
11
330
3
100
AcDbSymbolTableRecord
100
AcDbTextStyleTableRecord
  2
Standard
 70
     0
 40
0.0
 41
1.0
 50
0.0
 71
     0
 42
10.0
  3
txt
  4

  0
ENDTAB
  0
TABLE
  2
VIEW
  5
6
330
0
100
AcDbSymbolTable
 70
     0
  0
ENDTAB
  0
TABLE
  2
UCS
  5
7
330
0
100
AcDbSymbolTable
 70
     0
  0
ENDTAB
  0
TABLE
  2
APPID
  5
9
330
0
100
AcDbSymbolTable
 70
     2
  0
APPID
  5
12
330
9
100
AcDbSymbolTableRecord
100
AcDbRegAppTableRecord
  2
ACAD
 70
     0
  0
APPID
  5
14C
330
9
100
AcDbSymbolTableRecord
100
AcDbRegAppTableRecord
  2
ACAD_MLEADERVER
 70
     0
  0
ENDTAB
  0
TABLE
  2
DIMSTYLE
  5
A
330
0
100
AcDbSymbolTable
 70
     1
100
AcDbDimStyleTable
  0
DIMSTYLE
105
27
330
A
100
AcDbSymbolTableRecord
100
AcDbDimStyleTableRecord
  2
ISO-25
 70
     0
 41
2.5
 42
0.625
 43
3.75
 44
1.25
 73
     0
 74
     0
 77
     1
 78
     8
140
2.5
141
2.5
143
0.0393700787
147
0.625
171
     3
172
     1
178
     0
271
     2
272
     2
274
     3
278
    44
283
     0
284
     8
340
11
  0
ENDTAB
  0
TABLE
  2
BLOCK_RECORD
  5
1
330
0
100
AcDbSymbolTable
 70
     4
  0
BLOCK_RECORD
  5
1F
330
1
100
AcDbSymbolTableRecord
100
AcDbBlockTableRecord
  2
*Model_Space
340
22
 70
     0
280
     1
281
     0
  0
BLOCK_RECORD
  5
1B
330
1
100
AcDbSymbolTableRecord
100
AcDbBlockTableRecord
  2
*Paper_Space
340
1E
 70
     0
280
     1
281
     0
  0
BLOCK_RECORD
  5
6F
330
1
100
AcDbSymbolTableRecord
100
AcDbBlockTableRecord
  2
SE
340
0
102
{BLKREFS
331
70
102
}
 70
     0
280
     1
281
     0
  0
BLOCK_RECORD
  5
B2
330
1
100
AcDbSymbolTableRecord
100
AcDbBlockTableRecord
  2
SE1
340
0
102
{BLKREFS
331
B3
102
}
 70
     0
280
     1
281
     0
  0
BLOCK_RECORD
  5
CC
330
1
100
AcDbSymbolTableRecord
100
AcDbBlockTableRecord
  2
SE2
340
0
102
{BLKREFS
331
CD
102
}
 70
     0
280
     1
281
     0
  0
ENDTAB
  0
ENDSEC
  0
SECTION
  2
BLOCKS
  0
BLOCK
  5
20
330
1F
100
AcDbEntity
  8
0
100
AcDbBlockBegin
  2
*Model_Space
 70
     0
 10
0.0
 20
0.0
 30
0.0
  3
*Model_Space
  1

  0
ENDBLK
  5
21
330
1F
100
AcDbEntity
  8
0
100
AcDbBlockEnd
  0
BLOCK
  5
1C
330
1B
100
AcDbEntity
 67
     1
  8
0
100
AcDbBlockBegin
  2
*Paper_Space
 70
     0
 10
0.0
 20
0.0
 30
0.0
  3
*Paper_Space
  1

  0
ENDBLK
  5
1D
330
1B
100
AcDbEntity
 67
     1
  8
0
100
AcDbBlockEnd
  0
BLOCK
  5
B0
330
6F
100
AcDbEntity
  8
0
100
AcDbBlockBegin
  2
SE
 70
     0
 10
0.0
 20
0.0
 30
0.0
  3
SE
  1

  0
ARC
  5
72
330
6F
100
AcDbEntity
  8
DV1_Standard
 62
     7
100
AcDbCircle
 10
374.1107814428
 20
1247.9033516688
 30
0.0
 40
19.97276143065187
100
AcDbArc
 50
350.4071848942
 51
0.1017329695
  0
ARC
  5
73
330
6F
100
AcDbEntity
  8
DV1_Standard
 62
     7
100
AcDbCircle
 10
57.0272980263
 20
1247.9032426512
 30
0.0
 40
19.97185895957323
100
AcDbArc
 50
181.1548131187
 51
189.5924608684
  0
ARC
  5
74
330
6F
100
AcDbEntity
  8
DV1_Standard
 62
     7
100
AcDbCircle
 10
4967.8606610284
 20
2077.3401842914
 30
0.0
 40
5000.358385961881
100
AcDbArc
 50
189.586770026
 51
192.5797322026
  0
LINE
  5
75
330
6F
100
AcDbEntity
  8
DV1_Standard
 62
     7
100
AcDbLine
 10
98.5319725517
 20
987.6042464251
 30
0.0
 11
87.6906401137
 21
987.6041818465
 31
0.0
  0
ARC
  5
76
330
6F
100
AcDbEntity
  8
DV1_Standard
 62
     7
100
AcDbCircle
 10
-4536.6204491311
 20
2077.3202653183
 30
0.0
 40
5000.255246838327
100
AcDbArc
 50
347.4193210763
 51
350.4132599436
  0
SPLINE
  5
77
330
6F
100
AcDbEntity
  8
DV1_Standard
 62
     7
100
AcDbSpline
210
0.0
220
0.0
230
1.0
 70
     8
 71
     2
 72
    20
 73
    17
 74
     0
 42
0.000000001
 43
0.0000000001
 40
0.0
 40
0.0
 40
0.0
 40
0.1531273352255186
 40
0.1531273352255186
 40
0.3062546704510372
 40
0.3062546704510372
 40
0.4593820056765558
 40
0.4593820056765558
 40
0.6125093409020744
 40
0.6125093409020744
 40
0.765636676127593
 40
0.765636676127593
 40
0.8422003437403524
 40
0.8422003437403524
 40
0.9187640113531117
 40
0.9187640113531117
 40
0.9999999999999999
 40
0.9999999999999999
 40
0.9999999999999999
 10
215.5694896040493
 20
987.6108868293923
 30
0.0
 10
235.485430193066
 20
987.6110054583662
 30
0.0
 10
254.1325237244789
 20
987.611012396668
 30
0.0
 10
273.2479791062581
 20
987.6110195092404
 30
0.0
 10
290.4825946030955
 20
987.6109058980021
 30
0.0
 10
307.7904138582226
 20
987.6107918042021
 30
0.0
 10
319.0667176021739
 20
987.6105887691277
 30
0.0
 10
329.979114174744
 20
987.6103922863707
 30
0.0
 10
335.7980315018456
 20
987.6100892757587
 30
0.0
 10
341.9385157065301
 20
987.609769520077
 30
0.0
 10
343.1057591872456
 20
987.609307841247
 30
0.0
 10
343.4721965843611
 20
987.6091629045723
 30
0.0
 10
343.4485642615122
 20
987.6088186609111
 30
0.0
 10
343.4421843227659
 20
987.6087257266073
 30
0.0
 10
343.4509055919789
 20
987.6082855056233
 30
0.0
 10
343.4511820392684
 20
987.6082715514734
 30
0.0
 10
343.4511552775443
 20
987.6080834560938
 30
0.0
  0
SPLINE
  5
78
330
6F
100
AcDbEntity
  8
DV1_Standard
 62
     7
100
AcDbSpline
210
0.0
220
0.0
230
1.0
 70
     8
 71
     2
 72
    28
 73
    25
 74
     0
 42
0.000000001
 43
0.0000000001
 40
0.0
 40
0.0
 40
0.0
 40
0.05
 40
0.05
 40
0.125
 40
0.125
 40
0.1875
 40
0.1875
 40
0.25
 40
0.25
 40
0.3125
 40
0.3125
 40
0.375
 40
0.375
 40
0.4375
 40
0.4375
 40
0.5
 40
0.5
 40
0.625
 40
0.625
 40
0.75
 40
0.75
 40
0.875
 40
0.875
 40
1.0
 40
1.0
 40
1.0
 10
332.5800330187788
 20
987.6056405922923
 30
0.0
 10
332.5987936219536
 20
987.6069125292449
 30
0.0
 10
332.5999394628254
 20
987.6070166625774
 30
0.0
 10
332.610005421751
 20
987.6079314508996
 30
0.0
 10
332.5825087820545
 20
987.60828364601
 30
0.0
 10
332.5522192017788
 20
987.608671614947
 30
0.0
 10
332.4505971213098
 20
987.6088761492751
 30
0.0
 10
332.3346426921425
 20
987.6091095302605
 30
0.0
 10
332.0628865947493
 20
987.6092537866479
 30
0.0
 10
331.7734445284676
 20
987.6094074312847
 30
0.0
 10
331.2110066937193
 20
987.6095206941467
 30
0.0
 10
330.6416885809735
 20
987.6096353425486
 30
0.0
 10
329.6799044481144
 20
987.6097309211892
 30
0.0
 10
328.7135091348948
 20
987.6098269580723
 30
0.0
 10
327.278325901743
 20
987.6099121433002
 30
0.0
 10
325.8445668777931
 20
987.6099972439943
 30
0.0
 10
323.871586332641
 20
987.610076202436
 30
0.0
 10
319.9647538794151
 20
987.6102325533961
 30
0.0
 10
313.9887845243727
 20
987.6103634283546
 30
0.0
 10
308.1848357195215
 20
987.6104905360276
 30
0.0
 10
300.8619531835238
 20
987.6105839787873
 30
0.0
 10
293.9533654727553
 20
987.6106721349878
 30
0.0
 10
285.9580979266175
 20
987.6107265098176
 30
0.0
 10
278.6073274047993
 20
987.6107765015025
 30
0.0
 10
270.0959356541984
 20
987.6100970859329
 30
0.0
  0
SPLINE
  5
79
330
6F
100
AcDbEntity
  8
DV1_Standard
 62
     7
100
AcDbSpline
210
0.0
220
0.0
230
1.0
 70
     8
 71
     2
 72
    14
 73
    11
 74
     0
 42
0.000000001
 43
0.0000000001
 40
0.0
 40
0.0
 40
0.0
 40
0.25
 40
0.25
 40
0.5
 40
0.5
 40
0.625
 40
0.625
 40
0.75
 40
0.75
 40
1.0
 40
1.0
 40
1.0
 10
215.5879789188927
 20
987.6106956321547
 30
0.0
 10
223.0397843183192
 20
987.6107381394949
 30
0.0
 10
230.1408444235282
 20
987.6107654522012
 30
0.0
 10
237.2476151415674
 20
987.6107927868725
 30
0.0
 10
244.2301070833324
 20
987.6108056762808
 30
0.0
 10
247.6714214444128
 20
987.6108120288133
 30
0.0
 10
251.0421960717499
 20
987.6108148065431
 30
0.0
 10
254.3953110774787
 20
987.6108175697203
 30
0.0
 10
257.6262414587792
 20
987.6108167609143
 30
0.0
 10
264.0844079677215
 20
987.610815144227
 30
0.0
 10
270.0959356541984
 20
987.6100970859329
 30
0.0
  0
LINE
  5
7A
330
6F
100
AcDbEntity
  8
DV1_Standard
 62
     7
100
AcDbLine
 10
161.0509604548
 20
987.6102010728
 30
0.0
 11
215.5879789189
 21
987.6106956322
 31
0.0
  0
SPLINE
  5
7B
330
6F
100
AcDbEntity
  8
DV1_Standard
 62
     7
100
AcDbSpline
210
0.0
220
0.0
230
1.0
 70
     8
 71
     2
 72
    20
 73
    17
 74
     0
 42
0.000000001
 43
0.0000000001
 40
0.0
 40
0.0
 40
0.0
 40
0.0504769298071318
 40
0.0504769298071318
 40
0.1514307894213953
 40
0.1514307894213953
 40
0.2120031051899535
 40
0.2120031051899535
 40
0.3028615788427907
 40
0.3028615788427907
 40
0.3785769735534883
 40
0.3785769735534883
 40
0.4542923682641861
 40
0.4542923682641861
 40
0.6057231576855814
 40
0.6057231576855814
 40
1.0
 40
1.0
 40
1.0
 10
161.0509604548204
 20
987.6102010727517
 30
0.0
 10
153.090503163285
 20
987.6100336664067
 30
0.0
 10
146.0639926640882
 20
987.6099043250649
 30
0.0
 10
131.9286639749381
 20
987.6096441272925
 30
0.0
 10
121.2883371126131
 20
987.6093229924826
 30
0.0
 10
114.7286274923543
 20
987.6091250144383
 30
0.0
 10
110.1035012206432
 20
987.608921172102
 30
0.0
 10
103.9205889001617
 20
987.6086486737488
 30
0.0
 10
101.420213416419
 20
987.6083671611565
 30
0.0
 10
100.0054592704985
 20
987.6082078766373
 30
0.0
 10
99.3935935576421
 20
987.6080007676044
 30
0.0
 10
99.0054224376799
 20
987.6078693764451
 30
0.0
 10
98.82475300570873
 20
987.6076797483886
 30
0.0
 10
98.6163115607707
 20
987.6074609712238
 30
0.0
 10
98.56633226154338
 20
987.6069959416155
 30
0.0
 10
98.53935792421348
 20
987.6067449603951
 30
0.0
 10
98.53783377337534
 20
987.6060883173045
 30
0.0
  0
SPLINE
  5
7C
330
6F
100
AcDbEntity
  8
DV1_Standard
 62
     7
100
AcDbSpline
210
0.0
220
0.0
230
1.0
 70
     8
 71
     2
 72
    20
 73
    17
 74
     0
 42
0.000000001
 43
0.0000000001
 40
0.0
 40
0.0
 40
0.0
 40
0.0812196524875254
 40
0.0812196524875254
 40
0.1577846814468983
 40
0.1577846814468983
 40
0.2343497104062712
 40
0.2343497104062712
 40
0.387479768325017
 40
0.387479768325017
 40
0.5406098262437627
 40
0.5406098262437627
 40
0.6937398841625084
 40
0.6937398841625084
 40
0.8468699420812542
 40
0.8468699420812542
 40
1.0
 40
1.0
 40
1.0
 10
87.68816481289369
 20
987.6065600781375
 30
0.0
 10
87.68813971069994
 20
987.6067482782789
 30
0.0
 10
87.68841891439547
 20
987.6067625442452
 30
0.0
 10
87.69703632642994
 20
987.6072028525641
 30
0.0
 10
87.69073356082879
 20
987.6072957195886
 30
0.0
 10
87.66739985883825
 20
987.6076395260401
 30
0.0
 10
88.03487604014548
 20
987.6077889790092
 30
0.0
 10
89.20400655091643
 20
987.6082644656801
 30
0.0
 10
95.34925891986212
 20
987.6086574455803
 30
0.0
 10
101.1699133080272
 20
987.6090296679145
 30
0.0
 10
112.0853545147021
 20
987.6093561375606
 30
0.0
 10
123.3635588552254
 20
987.6096934570799
 30
0.0
 10
140.6686757430721
 20
987.6100136466572
 30
0.0
 10
157.9028627716098
 20
987.6103325238481
 30
0.0
 10
177.0201904366355
 20
987.6105531327586
 30
0.0
 10
195.6592517564305
 20
987.6107682226019
 30
0.0
 10
215.5694896040493
 20
987.6108868293923
 30
0.0
  0
SPLINE
  5
7D
330
6F
100
AcDbEntity
  8
DV1_Standard
 62
     7
100
AcDbSpline
210
0.0
220
0.0
230
1.0
 70
     8
 71
     3
 72
    22
 73
    18
 74
     0
 42
0.000000001
 43
0.0000000001
 40
0.0
 40
0.0
 40
0.0
 40
0.0
 40
0.5396595544654541
 40
0.5396595544654541
 40
0.5396595544654541
 40
0.5814514974795308
 40
0.6232434404935924
 40
0.6650353835076991
 40
0.7068273265217307
 40
0.7486192695358375
 40
0.7904112125498691
 40
0.8322031555639757
 40
0.8739950985780073
 40
0.915787041592114
 40
0.9575789846062207
 40
0.9993709276202524
 40
0.9999999999999999
 40
0.9999999999999999
 40
0.9999999999999999
 40
0.9999999999999999
 10
394.0711084352704
 20
1249.215171118138
 30
0.0
 10
334.570219388038
 20
1249.161924566473
 30
0.0
 10
275.0693303408057
 20
1249.108678014809
 30
0.0
 10
215.5684412935733
 20
1249.055431463144
 30
0.0
 10
207.5544829708914
 20
1249.048259878775
 30
0.0
 10
191.2495443711844
 20
1249.019906884365
 30
0.0
 10
166.4297536349044
 20
1248.899667930735
 30
0.0
 10
142.1952678249244
 20
1248.835464374255
 30
0.0
 10
119.4976668510644
 20
1248.783418258235
 30
0.0
 10
99.19742858549441
 20
1248.729852626295
 30
0.0
 10
81.90042102259443
 20
1248.625811338625
 30
0.0
 10
67.26860653279442
 20
1248.339305152785
 30
0.0
 10
54.72010007259443
 20
1248.080211922925
 30
0.0
 10
44.99704613299438
 20
1247.594762411855
 30
0.0
 10
38.69836474859439
 20
1247.652526777805
 30
0.0
 10
37.31616957369843
 20
1247.533018152786
 30
0.0
 10
37.06315200705318
 20
1247.501197025559
 30
0.0
 10
37.05949557109611
 20
1247.500731272502
 30
0.0
  0
SPLINE
  5
7E
330
6F
100
AcDbEntity
  8
DV1_Standard
 62
     7
100
AcDbSpline
210
0.0
220
0.0
230
1.0
 70
     8
 71
     3
 72
   140
 73
   136
 74
     0
 42
0.000000001
 43
0.0000000001
 40
0.0
 40
0.0
 40
0.0
 40
0.0
 40
0.0339037204821923
 40
0.0640916535990122
 40
0.0935404304612997
 40
0.1238368129306481
 40
0.1556155910140961
 40
0.184798797714836
 40
0.2134722568562956
 40
0.2416838180306321
 40
0.2694709693360315
 40
0.2938556713839834
 40
0.3174471714538746
 40
0.3410560810790083
 40
0.3635424861213088
 40
0.3892188018134984
 40
0.4155459748915251
 40
0.4411952758673787
 40
0.4599449696921031
 40
0.4810724009491665
 40
0.5050837845192335
 40
0.5215745059669558
 40
0.5293543550878402
 40
0.5350110647254978
 40
0.5385230938722583
 40
0.5402203024047113
 40
0.5429977003591251
 40
0.5478692754811955
 40
0.5634528796505491
 40
0.5896623087231958
 40
0.6181550030820555
 40
0.625677438372773
 40
0.6302144103224748
 40
0.6322412543264254
 40
0.6336588681950002
 40
0.6369505584207653
 40
0.6543974963594548
 40
0.6628163105333587
 40
0.673593691607229
 40
0.6816800433581797
 40
0.685481897909698
 40
0.6872663829759649
 40
0.6882578245608285
 40
0.6927534662985214
 40
0.7058173877341862
 40
0.7156076999650566
 40
0.7227032428704084
 40
0.7260535984463801
 40
0.7273247543474776
 40
0.7297334105753507
 40
0.7359568884075722
 40
0.7457656437803465
 40
0.7549301294984337
 40
0.757890036168463
 40
0.7589465177277056
 40
0.7608911832831431
 40
0.7665706768464862
 40
0.7712318491178085
 40
0.7728524572540822
 40
0.7741769908759777
 40
0.7794838306764933
 40
0.7838357307790546
 40
0.7858764108259103
 40
0.7909348149897534
 40
0.7965285659782003
 40
0.7983716468787138
 40
0.7996398615403316
 40
0.8029096384118697
 40
0.8070395854658691
 40
0.8096120419444084
 40
0.8106623453559844
 40
0.8127801407762079
 40
0.8170976336190041
 40
0.8209551391271315
 40
0.8218450110945793
 40
0.8271941966465688
 40
0.831949577595155
 40
0.8326562333757285
 40
0.8382676843821557
 40
0.8415656781564819
 40
0.8429859138495893
 40
0.8478966415736968
 40
0.8508045598343947
 40
0.8517531794704948
 40
0.8559284388913935
 40
0.8598563112701596
 40
0.860905845727626
 40
0.8653715871240198
 40
0.8690047613102808
 40
0.8698079215667467
 40
0.8724608394768354
 40
0.8794754909864062
 40
0.8846302890435578
 40
0.8860048030316604
 40
0.8876876822060481
 40
0.8929637628299326
 40
0.8980993281652742
 40
0.9011670068322444
 40
0.9019153380731346
 40
0.9044522287902936
 40
0.9127035276236588
 40
0.9164188419418149
 40
0.9173547768754086
 40
0.9209930691130934
 40
0.9253810405958147
 40
0.929466407526777
 40
0.9311889200870391
 40
0.9320747117908257
 40
0.9369626462349969
 40
0.938395198806731
 40
0.9413401275674632
 40
0.9444959211029759
 40
0.9457039793763609
 40
0.949291538084541
 40
0.9538333740276986
 40
0.9579548468287161
 40
0.9590836743248287
 40
0.9612904609738641
 40
0.9639027332094899
 40
0.9653571594167428
 40
0.9669367938428556
 40
0.9709970462557793
 40
0.9722862640483094
 40
0.9754425151335274
 40
0.9774698189507913
 40
0.9792745147459775
 40
0.9837772237252713
 40
0.986090123435585
 40
0.98882091461445
 40
0.9898108834546164
 40
0.9930080066640167
 40
0.994698602023831
 40
0.9961338634884594
 40
0.9992392671965443
 40
0.9999999999999999
 40
0.9999999999999999
 40
0.9999999999999999
 40
0.9999999999999999
 10
215.5694902762949
 20
951.0392799168872
 30
0.0
 10
216.3045377376027
 20
951.0398157164769
 30
0.0
 10
217.4554342399694
 20
951.0624290708596
 30
0.0
 10
219.36330737294
 20
951.1678521321712
 30
0.0
 10
221.0960137719739
 20
951.3361443370111
 30
0.0
 10
222.9011919448159
 20
951.5812720840157
 30
0.0
 10
224.6613021349004
 20
951.9060487723212
 30
0.0
 10
226.3875658011841
 20
952.3068161661207
 30
0.0
 10
228.0178445756558
 20
952.7679906463122
 30
0.0
 10
229.6024290986937
 20
953.2974776971547
 30
0.0
 10
231.0782542096017
 20
953.8725324468003
 30
0.0
 10
232.4432698279282
 20
954.4791699959454
 30
0.0
 10
233.7052390065402
 20
955.1093869143774
 30
0.0
 10
234.9054967671867
 20
955.7766532178471
 30
0.0
 10
236.1104079379399
 20
956.5158628348854
 30
0.0
 10
237.3255472229198
 20
957.3380962258392
 30
0.0
 10
238.5498265300998
 20
958.2553183090217
 30
0.0
 10
239.6235216063695
 20
959.143426208903
 30
0.0
 10
240.5834208475294
 20
960.0067426605763
 30
0.0
 10
241.4877313584182
 20
960.8819410179187
 30
0.0
 10
242.3252570721701
 20
961.7603697580797
 30
0.0
 10
242.9568032431848
 20
962.4707995735462
 30
0.0
 10
243.3391668725978
 20
962.9189741654872
 30
0.0
 10
243.5528569802082
 20
963.1751755605625
 30
0.0
 10
243.6886064577917
 20
963.3404441456731
 30
0.0
 10
243.7878200750228
 20
963.4622868150229
 30
0.0
 10
243.9033282778016
 20
963.6051999441459
 30
0.0
 10
244.1882814234253
 20
963.9622645979275
 30
0.0
 10
244.7486594288279
 20
964.6886418687103
 30
0.0
 10
245.5560649228538
 20
965.8092094126517
 30
0.0
 10
246.2287576828751
 20
966.8282832960507
 30
0.0
 10
246.6496582033487
 20
967.5026414925792
 30
0.0
 10
246.7938973436151
 20
967.7381004634209
 30
0.0
 10
246.8749677805971
 20
967.8717954776068
 30
0.0
 10
246.9430366693607
 20
967.9846480161165
 30
0.0
 10
247.1656118643376
 20
968.3563382803442
 30
0.0
 10
247.4515775018085
 20
968.8494560552406
 30
0.0
 10
247.7997090533955
 20
969.4735404670828
 30
0.0
 10
248.052940204652
 20
969.9406889946995
 30
0.0
 10
248.2587675581476
 20
970.3310589991387
 30
0.0
 10
248.3812142990936
 20
970.5673356650092
 30
0.0
 10
248.4398035110213
 20
970.6813093731253
 30
0.0
 10
248.5041308674836
 20
970.8069467462199
 30
0.0
 10
248.6671426061635
 20
971.1278549192858
 30
0.0
 10
248.9020874339578
 20
971.6021711024406
 30
0.0
 10
249.1521035526852
 20
972.1232391223463
 30
0.0
 10
249.3179467416354
 20
972.476957025304
 30
0.0
 10
249.4127926218228
 20
972.6821493916002
 30
0.0
 10
249.4693634251555
 20
972.805300634752
 30
0.0
 10
249.5481817830373
 20
972.9777551659325
 30
0.0
 10
249.6937274979218
 20
973.2998703943115
 30
0.0
 10
249.8911543302853
 20
973.7464290590275
 30
0.0
 10
250.0557484856475
 20
974.1282507655501
 30
0.0
 10
250.1529388518003
 20
974.357194072294
 30
0.0
 10
250.1968963100173
 20
974.4612923672885
 30
0.0
 10
250.2609525526703
 20
974.6135681847811
 30
0.0
 10
250.3506442815504
 20
974.8289046142913
 30
0.0
 10
250.4369133697834
 20
975.038778835698
 30
0.0
 10
250.4912299940814
 20
975.1719758739822
 30
0.0
 10
250.550530107027
 20
975.3179344619438
 30
0.0
 10
250.6284020760163
 20
975.5112534011721
 30
0.0
 10
250.7093431220394
 20
975.7146038953284
 30
0.0
 10
250.7884653108073
 20
975.9149627485026
 30
0.0
 10
250.8754316600775
 20
976.1371061997969
 30
0.0
 10
250.960324639295
 20
976.356839052638
 30
0.0
 10
251.0182133480811
 20
976.5079877258123
 30
0.0
 10
251.0621575011785
 20
976.6231996980508
 30
0.0
 10
251.1209218923435
 20
976.7780392145621
 30
0.0
 10
251.1909695739186
 20
976.9644755351485
 30
0.0
 10
251.2360916084714
 20
977.0854611717153
 30
0.0
 10
251.266304284149
 20
977.1667401534071
 30
0.0
 10
251.3179729985891
 20
977.3062108382954
 30
0.0
 10
251.3816303146461
 20
977.4794489592648
 30
0.0
 10
251.4403232030851
 20
977.6405591222045
 30
0.0
 10
251.5033700989659
 20
977.814647586454
 30
0.0
 10
251.5725065701191
 20
978.0068517307856
 30
0.0
 10
251.6387114984296
 20
978.1930290933964
 30
0.0
 10
251.7064565247983
 20
978.3846620429201
 30
0.0
 10
251.7641223316103
 20
978.5489034645796
 30
0.0
 10
251.8266649467229
 20
978.7287587839368
 30
0.0
 10
251.8828201480397
 20
978.8910600972775
 30
0.0
 10
251.935445892203
 20
979.0441257043054
 30
0.0
 10
251.9890535375478
 20
979.2013275917888
 30
0.0
 10
252.0354863693175
 20
979.338078420685
 30
0.0
 10
252.0877227028325
 20
979.4926920059318
 30
0.0
 10
252.1399544827571
 20
979.6485912234582
 30
0.0
 10
252.1934988633768
 20
979.8091774884302
 30
0.0
 10
252.2453665218916
 20
979.9656110220452
 30
0.0
 10
252.2948121967717
 20
980.11591281811
 30
0.0
 10
252.3341068936266
 20
980.2358826994137
 30
0.0
 10
252.3932126900472
 20
980.4169142132754
 30
0.0
 10
252.4757362410216
 20
980.672189737839
 30
0.0
 10
252.5458475315029
 20
980.8914883330528
 30
0.0
 10
252.5897262452536
 20
981.0295370910111
 30
0.0
 10
252.633740493879
 20
981.1684017791179
 30
0.0
 10
252.6992050702375
 20
981.376294144346
 30
0.0
 10
252.7693170274175
 20
981.6010855340488
 30
0.0
 10
252.8143987834849
 20
981.7466562431988
 30
0.0
 10
252.8474386996338
 20
981.8536808036221
 30
0.0
 10
252.9095062823676
 20
982.0553967445883
 30
0.0
 10
252.980782422855
 20
982.2892577049065
 30
0.0
 10
253.0445697863663
 20
982.5005626591792
 30
0.0
 10
253.085958619263
 20
982.6382181149401
 30
0.0
 10
253.1313835914932
 20
982.7898728269537
 30
0.0
 10
253.1916152479711
 20
982.9923392796968
 30
0.0
 10
253.2398318416942
 20
983.1555120729915
 30
0.0
 10
253.2728460809914
 20
983.2677379309054
 30
0.0
 10
253.3091458786354
 20
983.3914051780935
 30
0.0
 10
253.3442393811814
 20
983.5115061660357
 30
0.0
 10
253.3887644249752
 20
983.6646447870037
 30
0.0
 10
253.4252166161869
 20
983.7904443812879
 30
0.0
 10
253.4601334972753
 20
983.9115175049632
 30
0.0
 10
253.4978296347874
 20
984.042661917754
 30
0.0
 10
253.5425547724085
 20
984.1988140971897
 30
0.0
 10
253.6020596156498
 20
984.4078912557106
 30
0.0
 10
253.6470066736711
 20
984.5668432814255
 30
0.0
 10
253.6815495868302
 20
984.6894442698717
 30
0.0
 10
253.7093758692163
 20
984.7884524418025
 30
0.0
 10
253.7384318898937
 20
984.8921902433581
 30
0.0
 10
253.7646639868883
 20
984.9861176240787
 30
0.0
 10
253.7971126221943
 20
985.1025510785427
 30
0.0
 10
253.8289064502239
 20
985.2170803468641
 30
0.0
 10
253.8676178417697
 20
985.3570405535884
 30
0.0
 10
253.8967201056478
 20
985.462572074102
 30
0.0
 10
253.9283178613558
 20
985.57754782959
 30
0.0
 10
253.965556548791
 20
985.713390321319
 30
0.0
 10
254.0040441400245
 20
985.8543634404573
 30
0.0
 10
254.046367023024
 20
986.0100568299539
 30
0.0
 10
254.0730242557351
 20
986.1084305215527
 30
0.0
 10
254.1037030820627
 20
986.2219072780858
 30
0.0
 10
254.1298960199188
 20
986.3190462524715
 30
0.0
 10
254.1578874495916
 20
986.4231691798666
 30
0.0
 10
254.1857614147182
 20
986.5270563807317
 30
0.0
 10
254.2092941160255
 20
986.6150104213117
 30
0.0
 10
254.2264665839191
 20
986.6793441699764
 30
0.0
 10
254.2298464623887
 20
986.692012185067
 30
0.0
  0
SPLINE
  5
7F
330
6F
100
AcDbEntity
  8
DV1_Standard
 62
     7
100
AcDbSpline
210
0.0
220
0.0
230
1.0
 70
     8
 71
     3
 72
   142
 73
   138
 74
     0
 42
0.000000001
 43
0.0000000001
 40
0.0
 40
0.0
 40
0.0
 40
0.0
 40
0.0012835254818733
 40
0.0041764525472864
 40
0.0051024102367254
 40
0.0075228202088102
 40
0.0103948122289623
 40
0.0118831288015305
 40
0.0157209572877278
 40
0.0192128170914352
 40
0.022391886746283
 40
0.0238815271676666
 40
0.0276803597486019
 40
0.0286893349910793
 40
0.0311335305581886
 40
0.0344913718221004
 40
0.0356581750543494
 40
0.0383419749332244
 40
0.0409316146467001
 40
0.0417836635111695
 40
0.0450441676690675
 40
0.0498288282320842
 40
0.054103627480111
 40
0.0552391520214379
 40
0.0583778183910411
 40
0.0617637235580257
 40
0.0630507392963237
 40
0.0660723925584343
 40
0.0682635790406606
 40
0.0692867160635047
 40
0.074499481142899
 40
0.079405841199313
 40
0.0820951154241565
 40
0.0856802840128627
 40
0.0925314143399564
 40
0.0977365030077866
 40
0.0986725750501161
 40
0.1016510207899889
 40
0.1063455411405592
 40
0.1115831506641448
 40
0.1139775299822899
 40
0.1163368816047251
 40
0.121915275845942
 40
0.12764735804049
 40
0.1302518092025195
 40
0.1309679206869471
 40
0.1344743419986998
 40
0.1390656982127207
 40
0.1399829459035289
 40
0.143788147445223
 40
0.148540013404441
 40
0.1495512962516329
 40
0.1536744468119313
 40
0.1576719363310196
 40
0.1590915221999846
 40
0.1625117832124247
 40
0.1674862524258202
 40
0.1682177680503741
 40
0.1732454385244176
 40
0.1782766332548591
 40
0.1791710557564046
 40
0.1825984249052838
 40
0.1865765077184967
 40
0.1889887970960547
 40
0.1897319938714503
 40
0.1917393572806373
 40
0.1958485168976727
 40
0.1996098966405546
 40
0.2014972905161869
 40
0.2027976400459771
 40
0.2075758806035776
 40
0.2136870018178766
 40
0.21440585482035
 40
0.2171816076753782
 40
0.2229461127000168
 40
0.2264854670125322
 40
0.2273721686509484
 40
0.229553641035533
 40
0.234554991957006
 40
0.2403582922253549
 40
0.2412994839248382
 40
0.2429161682183967
 40
0.2462995244028904
 40
0.2578379474460614
 40
0.266972072488543
 40
0.2715810616273289
 40
0.2730824275961281
 40
0.2753532141508691
 40
0.2795963531254908
 40
0.2898586471095357
 40
0.3013038852249447
 40
0.3093849816561803
 40
0.312400634482968
 40
0.3127574243006556
 40
0.3142869036912241
 40
0.3179639794089897
 40
0.3256187348207377
 40
0.3362372232120783
 40
0.3449482731669647
 40
0.3597925538994211
 40
0.3657677766957243
 40
0.3675504649409538
 40
0.3693742354791383
 40
0.3733206600498986
 40
0.3789710645900536
 40
0.4032550352076325
 40
0.4296122286992204
 40
0.450300882025621
 40
0.4558091184765555
 40
0.4592865152494258
 40
0.4609492579342708
 40
0.4638924700534305
 40
0.4715881194240655
 40
0.4818137318272939
 40
0.4938590422899194
 40
0.5094610808503013
 40
0.532596512089796
 40
0.5545386385924551
 40
0.5727268963641027
 40
0.5844671075181939
 40
0.598351988356725
 40
0.6128788651820696
 40
0.6292867364724042
 40
0.64784130137624
 40
0.6686948354310869
 40
0.6902271646100101
 40
0.7145980929234982
 40
0.7385179761859915
 40
0.762611256122316
 40
0.7881453175598571
 40
0.8153650044093368
 40
0.8433295154317024
 40
0.872974821085259
 40
0.9034623929577824
 40
0.933730746670363
 40
0.9672156735538846
 40
0.9999999999999999
 40
0.9999999999999999
 40
0.9999999999999999
 40
0.9999999999999999
 10
176.9091238685755
 20
986.6920503796995
 30
0.0
 10
176.9148159139965
 20
986.670716089499
 30
0.0
 10
176.9333223840671
 20
986.6014065793846
 30
0.0
 10
176.9560585172722
 20
986.5164731525279
 30
0.0
 10
176.9839503563732
 20
986.4125265232996
 30
0.0
 10
177.0114429123784
 20
986.3102805151768
 30
0.0
 10
177.0416787447159
 20
986.1981987896053
 30
0.0
 10
177.0779782669781
 20
986.0640093084735
 30
0.0
 10
177.1169325063071
 20
985.9204779599155
 30
0.0
 10
177.163809006663
 20
985.7485577149578
 30
0.0
 10
177.200190700048
 20
985.6156976423599
 30
0.0
 10
177.2383686819779
 20
985.4767031819972
 30
0.0
 10
177.2667536356316
 20
985.3737236587474
 30
0.0
 10
177.2996400775131
 20
985.2547955136426
 30
0.0
 10
177.3309000109964
 20
985.142016582046
 30
0.0
 10
177.362679696597
 20
985.0278177140957
 30
0.0
 10
177.3960201669844
 20
984.9083871827904
 30
0.0
 10
177.4259345778074
 20
984.8015235182314
 30
0.0
 10
177.4544915624693
 20
984.6998881311862
 30
0.0
 10
177.4857050505142
 20
984.5890850389923
 30
0.0
 10
177.5262078911584
 20
984.4457074115217
 30
0.0
 10
177.5857382239429
 20
984.2362219430115
 30
0.0
 10
177.6348478559724
 20
984.0646183003112
 30
0.0
 10
177.6752111351655
 20
983.9241488661127
 30
0.0
 10
177.7118614060012
 20
983.7970094021108
 30
0.0
 10
177.749560028096
 20
983.6668934929605
 30
0.0
 10
177.7867012748188
 20
983.5391698635831
 30
0.0
 10
177.8179185969821
 20
983.4321761468871
 30
0.0
 10
177.8486182075259
 20
983.3273857522778
 30
0.0
 10
177.8883765509628
 20
983.1920446440029
 30
0.0
 10
177.9405365992664
 20
983.0152482215332
 30
0.0
 10
178.0070216307521
 20
982.7918200680124
 30
0.0
 10
178.0624183343674
 20
982.6068531136273
 30
0.0
 10
178.1282684581546
 20
982.3881433385717
 30
0.0
 10
178.2039523171833
 20
982.1388937858867
 30
0.0
 10
178.2723899289651
 20
981.9157744056345
 30
0.0
 10
178.320624409468
 20
981.7594484892384
 30
0.0
 10
178.3638430252207
 20
981.6198514597107
 30
0.0
 10
178.4306253267256
 20
981.4055424713961
 30
0.0
 10
178.4974048492448
 20
981.1931939538671
 30
0.0
 10
178.5501842587054
 20
981.0265582039672
 30
0.0
 10
178.6051118469599
 20
980.8538866490833
 30
0.0
 10
178.6764447333626
 20
980.6312463792563
 30
0.0
 10
178.7543091644284
 20
980.3907364926149
 30
0.0
 10
178.8053339496669
 20
980.2344786355461
 30
0.0
 10
178.843187833446
 20
980.1189065085497
 30
0.0
 10
178.892074084208
 20
979.9702720603719
 30
0.0
 10
178.9432655105649
 20
979.8158460183737
 30
0.0
 10
178.9959901549144
 20
979.6576808887694
 30
0.0
 10
179.0501809344586
 20
979.4958616226107
 30
0.0
 10
179.1051110912572
 20
979.3332675853433
 30
0.0
 10
179.1626798233814
 20
979.1638232262563
 30
0.0
 10
179.2190324102526
 20
978.9989159082131
 30
0.0
 10
179.2721749305047
 20
978.8446958668487
 30
0.0
 10
179.3247061175294
 20
978.6930635605636
 30
0.0
 10
179.3836825234899
 20
978.5237280025833
 30
0.0
 10
179.4388777020929
 20
978.366660146406
 30
0.0
 10
179.5043355942128
 20
978.1815545395602
 30
0.0
 10
179.5707586431444
 20
977.9948861063125
 30
0.0
 10
179.6393553197089
 20
977.8042792332641
 30
0.0
 10
179.6980476728045
 20
977.6422688093023
 30
0.0
 10
179.7511197693111
 20
977.4965145853203
 30
0.0
 10
179.8131257496944
 20
977.3276255454892
 30
0.0
 10
179.8603967980741
 20
977.1998435874008
 30
0.0
 10
179.8922452072197
 20
977.1140760241568
 30
0.0
 10
179.9266965521349
 20
977.0215321894584
 30
0.0
 10
179.9962670441185
 20
976.8357796364776
 30
0.0
 10
180.0616159145765
 20
976.6631743594655
 30
0.0
 10
180.1101099386003
 20
976.5358783176666
 30
0.0
 10
180.1630890994348
 20
976.3974164509635
 30
0.0
 10
180.2456503614088
 20
976.1831521077568
 30
0.0
 10
180.3248766657955
 20
975.9802999511705
 30
0.0
 10
180.391231488537
 20
975.8118025356242
 30
0.0
 10
180.4550982172582
 20
975.6503435202907
 30
0.0
 10
180.5391604351544
 20
975.4400214454269
 30
0.0
 10
180.6120519163328
 20
975.2597843774487
 30
0.0
 10
180.6594457886055
 20
975.1432571400873
 30
0.0
 10
180.7171316572227
 20
975.0019764854211
 30
0.0
 10
180.8109937993297
 20
974.7741729196415
 30
0.0
 10
180.8970485476362
 20
974.5681971469401
 30
0.0
 10
180.9588006258168
 20
974.4216741279705
 30
0.0
 10
181.0026198481661
 20
974.318048602508
 30
0.0
 10
181.1245889645553
 20
974.0314527619951
 30
0.0
 10
181.3074008490789
 20
973.6100083366706
 30
0.0
 10
181.5069585460595
 20
973.1625805843257
 30
0.0
 10
181.6272924535709
 20
972.8977711593391
 30
0.0
 10
181.6943713277567
 20
972.7513335325366
 30
0.0
 10
181.7590379234493
 20
972.6108984956091
 30
0.0
 10
181.8954413116962
 20
972.3172747499841
 30
0.0
 10
182.109887198256
 20
971.8646777319924
 30
0.0
 10
182.3623261277205
 20
971.3476400774418
 30
0.0
 10
182.5583847263372
 20
970.957026915692
 30
0.0
 10
182.6593117410526
 20
970.7591326272799
 30
0.0
 10
182.7027472494003
 20
970.6743768591102
 30
0.0
 10
182.7522714524634
 20
970.5780044145503
 30
0.0
 10
182.8673732858087
 20
970.3556998276421
 30
0.0
 10
183.0664132884197
 20
969.9775538590296
 30
0.0
 10
183.3163532734683
 20
969.515268669179
 30
0.0
 10
183.640339864171
 20
968.9330383041835
 30
0.0
 10
183.9285861686602
 20
968.4330374892245
 30
0.0
 10
184.1546043611942
 20
968.0533363734339
 30
0.0
 10
184.251312107627
 20
967.892799512652
 30
0.0
 10
184.3279535594263
 20
967.7662807108732
 30
0.0
 10
184.4446906890273
 20
967.5752841315043
 30
0.0
 10
184.794781340326
 20
967.0109618233331
 30
0.0
 10
185.3964614936346
 20
966.085098840181
 30
0.0
 10
186.2033527353873
 20
964.939585962369
 30
0.0
 10
186.8286224754553
 20
964.1172048573083
 30
0.0
 10
187.191425318589
 20
963.6602693689538
 30
0.0
 10
187.322788551794
 20
963.4972695369079
 30
0.0
 10
187.4230703081761
 20
963.3738955358306
 30
0.0
 10
187.576439997972
 20
963.1866509715729
 30
0.0
 10
187.8393920025865
 20
962.8712736491115
 30
0.0
 10
188.2238511848599
 20
962.4238696261568
 30
0.0
 10
188.7203558778657
 20
961.8675771168049
 30
0.0
 10
189.4037194637868
 20
961.1375978272818
 30
0.0
 10
190.249680225016
 20
960.2934760647732
 30
0.0
 10
191.1670869366361
 20
959.4500222291687
 30
0.0
 10
191.9446720238734
 20
958.7870032866954
 30
0.0
 10
192.6168392278194
 20
958.2453825386622
 30
0.0
 10
193.2445301291691
 20
957.7637169078725
 30
0.0
 10
193.959140656219
 20
957.2446261108724
 30
0.0
 10
194.7643184351845
 20
956.6942441397119
 30
0.0
 10
195.6921546900387
 20
956.1031762196766
 30
0.0
 10
196.7280954445724
 20
955.4953534190764
 30
0.0
 10
197.8885397584511
 20
954.8748086378321
 30
0.0
 10
199.1289611206107
 20
954.2788345024275
 30
0.0
 10
200.4417342904658
 20
953.718868873324
 30
0.0
 10
201.7975091022785
 20
953.2074210341956
 30
0.0
 10
203.2379592476021
 20
952.7341745549255
 30
0.0
 10
204.7670820600692
 20
952.3040097738217
 30
0.0
 10
206.4006978662271
 20
951.9236862073693
 30
0.0
 10
208.0980582488467
 20
951.6047227365287
 30
0.0
 10
209.8804445941904
 20
951.3549397391241
 30
0.0
 10
211.6952375778913
 20
951.1722676405259
 30
0.0
 10
213.6641732656678
 20
951.0624558845417
 30
0.0
 10
214.8588056709216
 20
951.0397363077884
 30
0.0
 10
215.569490276308
 20
951.0392799168872
 30
0.0
  0
ARC
  5
80
330
6F
100
AcDbEntity
  8
DV1_Standard
 62
     7
100
AcDbCircle
 10
1885.6288261349
 20
1258.9857479662
 30
0.0
 40
1491.586223009185
100
AcDbArc
 50
178.9966664786
 51
180.4243458569
  0
LINE
  5
81
330
6F
100
AcDbEntity
  8
DV1_Standard
 62
     7
100
AcDbLine
 10
87.5310379305
 20
988.3208923566
 30
0.0
 11
87.6887604976
 21
987.6066914061
 31
0.0
  0
ARC
  5
82
330
6F
100
AcDbEntity
  8
DV1_Standard
 62
     7
100
AcDbCircle
 10
-2345.4216922125
 20
1254.2575606102
 30
0.0
 40
2382.490769108114
100
AcDbArc
 50
359.8375068949
 51
0.7428786417
  0
SPLINE
  5
83
330
6F
100
AcDbEntity
  8
DV1_Standard
 62
     7
100
AcDbSpline
210
0.0
220
0.0
230
1.0
 70
    24
 71
     3
 72
     8
 73
     4
 74
     0
 42
0.000000001
 43
0.0000000001
 40
0.0
 40
0.0
 40
0.0
 40
0.0
 40
0.9999999999999999
 40
0.9999999999999999
 40
0.9999999999999999
 40
0.9999999999999999
 10
98.53217157569662
 20
987.607960719518
 30
0.0
 10
98.52857026217758
 20
987.540751055114
 30
0.0
 10
98.52485806244668
 20
987.4714719729319
 30
0.0
 10
98.52097767612044
 20
987.3990541020389
 30
0.0
  0
LINE
  5
84
330
6F
100
AcDbEntity
  8
DV1_Standard
 62
     7
100
AcDbLine
 10
394.274525818
 20
1285.1468641662
 30
0.0
 11
394.2720361134
 21
1285.1468641662
 31
0.0
  0
SPLINE
  5
85
330
6F
100
AcDbEntity
  8
DV1_Standard
 62
     7
100
AcDbSpline
210
0.0
220
0.0
230
1.0
 70
     8
 71
     3
 72
   211
 73
   207
 74
     0
 42
0.000000001
 43
0.0000000001
 40
0.0
 40
0.0
 40
0.0
 40
0.0
 40
0.0078019802870965
 40
0.0172871485118934
 40
0.0271003075479289
 40
0.0372414208847477
 40
0.0477101054490454
 40
0.0585058403422559
 40
0.0696279548882855
 40
0.0810754832414829
 40
0.0928482609836239
 40
0.1049468217127892
 40
0.1173703741608192
 40
0.1301180183026984
 40
0.1431889066185109
 40
0.1565820092443353
 40
0.1702969340278485
 40
0.1843314761102144
 40
0.1986830341635401
 40
0.2133511790617576
 40
0.2180336273652647
 40
0.2229711866125786
 40
0.228163619905937
 40
0.2336106678912928
 40
0.2393120494348145
 40
0.2452674628385022
 40
0.251476587833332
 40
0.2579390885100332
 40
0.2646546173670157
 40
0.2716228655610834
 40
0.2788439785519304
 40
0.2863182612849979
 40
0.294045802434112
 40
0.3020264465773567
 40
0.3102599926127525
 40
0.3187462331834312
 40
0.3274849260741862
 40
0.3364757410893789
 40
0.3457182830300525
 40
0.355212102465732
 40
0.3649566895342874
 40
0.3749514692656997
 40
0.3851959712281103
 40
0.3956900257850524
 40
0.4064335242254207
 40
0.4201878780181984
 40
0.4339131615808428
 40
0.4476099207334102
 40
0.4612786760702662
 40
0.4749200191160341
 40
0.4885345720109421
 40
0.5021227204910833
 40
0.5156848153313888
 40
0.52922131314854
 40
0.5427326973319287
 40
0.5562191702222182
 40
0.5696808998439064
 40
0.5831181272088924
 40
0.5965310827326843
 40
0.6099197930115198
 40
0.6125916699826058
 40
0.6152634542519714
 40
0.6179351461299929
 40
0.6206067460593082
 40
0.6232782546183226
 40
0.6259496725247222
 40
0.6286210006389844
 40
0.631292239967894
 40
0.6339633916680543
 40
0.6366344570494044
 40
0.6393054375787363
 40
0.6419763348832109
 40
0.6446471507538734
 40
0.6473178871491744
 40
0.6499885461984866
 40
0.6526591302056234
 40
0.6553296416523572
 40
0.6580000832019361
 40
0.660670457702604
 40
0.6633407681911155
 40
0.6660110178962526
 40
0.6686812102423422
 40
0.6713513488527663
 40
0.6740214375534778
 40
0.6766914803765106
 40
0.6793614815634873
 40
0.6820314455691302
 40
0.6847013770647599
 40
0.687371280896375
 40
0.690041160004797
 40
0.6927110144555881
 40
0.6953808441108454
 40
0.6980506488518412
 40
0.7007204285828796
 40
0.7033901832351541
 40
0.7060599127706068
 40
0.7087296171857871
 40
0.7113992965157121
 40
0.7140689508377253
 40
0.7167385802753623
 40
0.7194081850022058
 40
0.722077765245753
 40
0.7247473212912761
 40
0.7274168534856877
 40
0.7300863622414016
 40
0.7327558480401994
 40
0.7354253114370942
 40
0.738094753064199
 40
0.7407641736345874
 40
0.7434335739461634
 40
0.7461029548855264
 40
0.748772317431838
 40
0.7514416626606908
 40
0.7541109917479725
 40
0.7567803059737345
 40
0.75944960672606
 40
0.7621188955049308
 40
0.7647881739260939
 40
0.7674574437249282
 40
0.7701267067603129
 40
0.772795965018492
 40
0.7754652206169415
 40
0.7781344758082333
 40
0.7808037329839026
 40
0.7834729946783083
 40
0.7861422635724972
 40
0.7888115424980675
 40
0.7914808344481774
 40
0.7941501434050661
 40
0.796819474974553
 40
0.7994888348289126
 40
0.802158228518324
 40
0.8048276614742849
 40
0.8074971390130258
 40
0.8101666663389251
 40
0.8128362485479239
 40
0.8155058906309447
 40
0.8181755974773075
 40
0.8208453738781503
 40
0.8235152245298454
 40
0.8261851540374195
 40
0.8288551669179728
 40
0.8315252676040974
 40
0.8341954604472993
 40
0.8368657497214127
 40
0.8395361396260227
 40
0.842206634289881
 40
0.8448772377743259
 40
0.847547954076697
 40
0.8502187871337539
 40
0.8528897408250905
 40
0.8555608189765517
 40
0.8582320253636441
 40
0.8609033637149506
 40
0.8635748377155444
 40
0.866246451010395
 40
0.8689182072077808
 40
0.8715901098826954
 40
0.8742621625802545
 40
0.8769343688191005
 40
0.8796067320948061
 40
0.882279255883275
 40
0.8849519436441445
 40
0.8876247988241799
 40
0.890297824860673
 40
0.8929710251848358
 40
0.895644403223457
 40
0.8983179611533351
 40
0.9009916975588131
 40
0.9036656101179581
 40
0.9063396961817427
 40
0.9090139527788023
 40
0.9116883766201813
 40
0.914362964104071
 40
0.9170377113205455
 40
0.9197126140562818
 40
0.9223876677992786
 40
0.9250628677435643
 40
0.9277382087938955
 40
0.9304136855704487
 40
0.9330892924135029
 40
0.9357650233881116
 40
0.9384408722887674
 40
0.9411168326440568
 40
0.9437928977213056
 40
0.9464690605312154
 40
0.9491453138324883
 40
0.9518216501364452
 40
0.954498061711634
 40
0.9571745405884239
 40
0.9598510785635955
 40
0.9625276672049201
 40
0.9652042978557244
 40
0.9678809616394539
 40
0.970557649464218
 40
0.9732343520273323
 40
0.9759110598198473
 40
0.978587763131069
 40
0.9812644520530722
 40
0.9839411164851992
 40
0.9866177461385555
 40
0.9892943305404915
 40
0.9919708590390794
 40
0.9946473208075761
 40
0.9973237048488851
 40
1.0
 40
1.0
 40
1.0
 40
1.0
 10
394.375862815467
 20
1289.997322822666
 30
0.0
 10
394.3758801530246
 20
1289.997636454226
 30
0.0
 10
394.3750705586228
 20
1289.998325011617
 30
0.0
 10
394.3682407039909
 20
1289.999166755409
 30
0.0
 10
394.3499915026687
 20
1289.998534717643
 30
0.0
 10
394.3161672529829
 20
1289.996748733757
 30
0.0
 10
394.2660095874061
 20
1289.993705598373
 30
0.0
 10
394.1972911248264
 20
1289.9894330944
 30
0.0
 10
394.1072833590222
 20
1289.98392227822
 30
0.0
 10
393.9875919838092
 20
1289.977174088959
 30
0.0
 10
393.8303850273781
 20
1289.969186770249
 30
0.0
 10
393.6295658080284
 20
1289.959960470033
 30
0.0
 10
393.3780029164699
 20
1289.949493679302
 30
0.0
 10
393.0680907423967
 20
1289.937785079645
 30
0.0
 10
392.6911417353359
 20
1289.924835181926
 30
0.0
 10
392.2363601394459
 20
1289.910637447577
 30
0.0
 10
391.6923421260924
 20
1289.895211207215
 30
0.0
 10
391.0452925395363
 20
1289.878483042904
 30
0.0
 10
390.2795338332826
 20
1289.860726276842
 30
0.0
 10
389.5891436194914
 20
1289.845522860565
 30
0.0
 10
389.0442612938055
 20
1289.835427220591
 30
0.0
 10
388.6976060455801
 20
1289.830700592971
 30
0.0
 10
388.3171502893441
 20
1289.826734821619
 30
0.0
 10
387.9005019054113
 20
1289.823631824845
 30
0.0
 10
387.4451520803318
 20
1289.82136226029
 30
0.0
 10
386.9484756275706
 20
1289.819934544254
 30
0.0
 10
386.4077359204178
 20
1289.819346182753
 30
0.0
 10
385.8200649560315
 20
1289.81959775795
 30
0.0
 10
385.1825424823708
 20
1289.820688925642
 30
0.0
 10
384.491863426905
 20
1289.822619666723
 30
0.0
 10
383.7462417952224
 20
1289.825389778379
 30
0.0
 10
382.944829983083
 20
1289.828998957443
 30
0.0
 10
382.0870133934833
 20
1289.833446929904
 30
0.0
 10
381.1723659957694
 20
1289.838733506511
 30
0.0
 10
380.1982486617806
 20
1289.844858444757
 30
0.0
 10
379.1621622077816
 20
1289.851821476393
 30
0.0
 10
378.0615326567472
 20
1289.8596223137
 30
0.0
 10
376.8937715572914
 20
1289.868260672834
 30
0.0
 10
375.6562689283509
 20
1289.877736340783
 30
0.0
 10
374.3464031137458
 20
1289.888048776643
 30
0.0
 10
372.9615405964724
 20
1289.899198683847
 30
0.0
 10
371.4990446403092
 20
1289.911182019565
 30
0.0
 10
369.9562129437773
 20
1289.924013659024
 30
0.0
 10
368.3301884221266
 20
1289.937635118541
 30
0.0
 10
366.4714234458506
 20
1289.953524374
 30
0.0
 10
364.3766708314856
 20
1289.970628894749
 30
0.0
 10
362.0432562568175
 20
1289.987661635088
 30
0.0
 10
359.6390487202929
 20
1290.003552148519
 30
0.0
 10
357.1652464406775
 20
1290.0182230102
 30
0.0
 10
354.6230563038449
 20
1290.031694888988
 30
0.0
 10
352.0136973578963
 20
1290.043962081871
 30
0.0
 10
349.3384141130983
 20
1290.055026136125
 30
0.0
 10
346.598465902159
 20
1290.064886618276
 30
0.0
 10
343.7951152056985
 20
1290.073543466117
 30
0.0
 10
340.9296449524163
 20
1290.080996541033
 30
0.0
 10
338.003604494825
 20
1290.087245399774
 30
0.0
 10
335.0185610428463
 20
1290.092291435057
 30
0.0
 10
331.9760700601674
 20
1290.096128685391
 30
0.0
 10
328.8777339232834
 20
1290.098778395739
 30
0.0
 10
326.5644259344601
 20
1290.099792586692
 30
0.0
 10
325.0779096437711
 20
1290.100165626105
 30
0.0
 10
324.439535087587
 20
1290.100346021376
 30
0.0
 10
323.798884017481
 20
1290.100531261495
 30
0.0
 10
323.1559671560146
 20
1290.100725613564
 30
0.0
 10
322.5107960524041
 20
1290.100927934276
 30
0.0
 10
321.8633820344407
 20
1290.10113852997
 30
0.0
 10
321.2137364892816
 20
1290.101357318574
 30
0.0
 10
320.5618707881947
 20
1290.101584322091
 30
0.0
 10
319.9077963066974
 20
1290.101819534642
 30
0.0
 10
319.2515244191378
 20
1290.102062957823
 30
0.0
 10
318.5930665001223
 20
1290.102314591229
 30
0.0
 10
317.9324339241117
 20
1290.102574434997
 30
0.0
 10
317.2696380655022
 20
1290.102842489122
 30
0.0
 10
316.6046902985844
 20
1290.103118753641
 30
0.0
 10
315.9376019975269
 20
1290.103403228582
 30
0.0
 10
315.2683845363607
 20
1290.103695913981
 30
0.0
 10
314.597049288957
 20
1290.103996809876
 30
0.0
 10
313.9236076290114
 20
1290.104305916307
 30
0.0
 10
313.2480709300237
 20
1290.104623233318
 30
0.0
 10
312.5704505652823
 20
1290.104948760956
 30
0.0
 10
311.8907579078357
 20
1290.105282499271
 30
0.0
 10
311.2090043305076
 20
1290.105624448314
 30
0.0
 10
310.5252012057601
 20
1290.105974608143
 30
0.0
 10
309.8393599061091
 20
1290.106332978818
 30
0.0
 10
309.1514918024919
 20
1290.106699560398
 30
0.0
 10
308.4616082702696
 20
1290.107074352951
 30
0.0
 10
307.7697206667376
 20
1290.107457356542
 30
0.0
 10
307.0758404189069
 20
1290.107848571253
 30
0.0
 10
306.3799788955053
 20
1290.108247996997
 30
0.0
 10
305.6821489732382
 20
1290.108655633682
 30
0.0
 10
304.9823658092791
 20
1290.10907148145
 30
0.0
 10
304.2806444961871
 20
1290.109495540211
 30
0.0
 10
303.5770002349572
 20
1290.109927809885
 30
0.0
 10
302.8714482024648
 20
1290.110368290395
 30
0.0
 10
302.1640035818714
 20
1290.110816981664
 30
0.0
 10
301.4546815544691
 20
1290.111273883621
 30
0.0
 10
300.7434973018612
 20
1290.111738996197
 30
0.0
 10
300.0304660053712
 20
1290.112212319326
 30
0.0
 10
299.3156028461932
 20
1290.112693852945
 30
0.0
 10
298.5989230053478
 20
1290.113183596995
 30
0.0
 10
297.8804416636853
 20
1290.113681551421
 30
0.0
 10
297.1601740018796
 20
1290.114187716169
 30
0.0
 10
296.4381352004229
 20
1290.114702091191
 30
0.0
 10
295.7143404396221
 20
1290.11522467644
 30
0.0
 10
294.9888048995908
 20
1290.115755471874
 30
0.0
 10
294.2615437602479
 20
1290.116294477452
 30
0.0
 10
293.5325722013091
 20
1290.116841693139
 30
0.0
 10
292.8019054022853
 20
1290.117397118902
 30
0.0
 10
292.069558542474
 20
1290.117960754711
 30
0.0
 10
291.3355468009576
 20
1290.11853260054
 30
0.0
 10
290.5998853565961
 20
1290.119112656366
 30
0.0
 10
289.8625893880227
 20
1290.119700922169
 30
0.0
 10
289.1236740736395
 20
1290.120297397934
 30
0.0
 10
288.3831545916118
 20
1290.120902083647
 30
0.0
 10
287.6410461198626
 20
1290.1215149793
 30
0.0
 10
286.8973638360689
 20
1290.122136084886
 30
0.0
 10
286.1521229176553
 20
1290.122765400402
 30
0.0
 10
285.4053385417903
 20
1290.123402925849
 30
0.0
 10
284.6570258853808
 20
1290.124048661231
 30
0.0
 10
283.9072001250635
 20
1290.124702606557
 30
0.0
 10
283.155876437218
 20
1290.125364761836
 30
0.0
 10
282.4030699978914
 20
1290.126035127084
 30
0.0
 10
281.6487959830576
 20
1290.126713702319
 30
0.0
 10
280.893069567624
 20
1290.127400487561
 30
0.0
 10
280.1359059291188
 20
1290.128095482835
 30
0.0
 10
279.3773202339008
 20
1290.128798688172
 30
0.0
 10
278.6173276879269
 20
1290.129510103594
 30
0.0
 10
277.8559432657279
 20
1290.13022972925
 30
0.0
 10
277.0931823216977
 20
1290.130957565318
 30
0.0
 10
276.3290618782135
 20
1290.131693611638
 30
0.0
 10
275.5635984974431
 20
1290.132437868315
 30
0.0
 10
274.7968087969216
 20
1290.133190335448
 30
0.0
 10
274.0287093742866
 20
1290.133951013149
 30
0.0
 10
273.2593168323438
 20
1290.134719901532
 30
0.0
 10
272.4886477723514
 20
1290.135497000713
 30
0.0
 10
271.7167187958202
 20
1290.136282310812
 30
0.0
 10
270.9435465040299
 20
1290.137075831953
 30
0.0
 10
270.1691474981607
 20
1290.137877564265
 30
0.0
 10
269.3935383792569
 20
1290.138687507877
 30
0.0
 10
268.616735748237
 20
1290.139505662925
 30
0.0
 10
267.8387562058917
 20
1290.140332029547
 30
0.0
 10
267.0596163528842
 20
1290.141166607885
 30
0.0
 10
266.27933278975
 20
1290.142009398084
 30
0.0
 10
265.4979221168973
 20
1290.142860400294
 30
0.0
 10
264.7154009346074
 20
1290.143719614666
 30
0.0
 10
263.9317858430343
 20
1290.144587041358
 30
0.0
 10
263.1470934422052
 20
1290.14546268053
 30
0.0
 10
262.3613403320199
 20
1290.146346532344
 30
0.0
 10
261.5745431122523
 20
1290.14723859697
 30
0.0
 10
260.7867183825487
 20
1290.148138874576
 30
0.0
 10
259.9978827424293
 20
1290.149047365339
 30
0.0
 10
259.2080527912882
 20
1290.149964069437
 30
0.0
 10
258.4172451283922
 20
1290.150888987051
 30
0.0
 10
257.6254763528828
 20
1290.151822118368
 30
0.0
 10
256.8327630637748
 20
1290.152763463576
 30
0.0
 10
256.039121859957
 20
1290.15371302287
 30
0.0
 10
255.2445693401925
 20
1290.154670796447
 30
0.0
 10
254.4491221031184
 20
1290.155636784506
 30
0.0
 10
253.6527967472454
 20
1290.156610987253
 30
0.0
 10
252.8556098709624
 20
1290.157593404896
 30
0.0
 10
252.0575780725171
 20
1290.158584037647
 30
0.0
 10
251.258717950092
 20
1290.159582885721
 30
0.0
 10
250.4590461015159
 20
1290.160589949339
 30
0.0
 10
249.658579125349
 20
1290.161605228724
 30
0.0
 10
248.8573336168259
 20
1290.1626287241
 30
0.0
 10
248.0553261831763
 20
1290.163660435713
 30
0.0
 10
247.2525735122743
 20
1290.164700363579
 30
0.0
 10
246.4490929471957
 20
1290.16574850735
 30
0.0
 10
245.6449036119674
 20
1290.166804868311
 30
0.0
 10
244.8400248994531
 20
1290.167869447083
 30
0.0
 10
244.0344762899182
 20
1290.168942244259
 30
0.0
 10
243.2282772548401
 20
1290.170023260425
 30
0.0
 10
242.4214472672542
 20
1290.171112496174
 30
0.0
 10
241.6140057989715
 20
1290.172209952103
 30
0.0
 10
240.8059723213154
 20
1290.173315628811
 30
0.0
 10
239.9973663049139
 20
1290.174429526901
 30
0.0
 10
239.1882072197457
 20
1290.175551646981
 30
0.0
 10
238.3785145351185
 20
1290.176681989661
 30
0.0
 10
237.5683077196652
 20
1290.177820555556
 30
0.0
 10
236.7576062413344
 20
1290.178967345285
 30
0.0
 10
235.9464295673845
 20
1290.18012235947
 30
0.0
 10
235.1347971643747
 20
1290.181285598736
 30
0.0
 10
234.3227284981578
 20
1290.182457063714
 30
0.0
 10
233.5102430338729
 20
1290.183636755037
 30
0.0
 10
232.6973602359371
 20
1290.184824673341
 30
0.0
 10
231.8840995680384
 20
1290.18602081927
 30
0.0
 10
231.0704804931275
 20
1290.187225193466
 30
0.0
 10
230.2565224734106
 20
1290.188437796579
 30
0.0
 10
229.4422449703415
 20
1290.189658629262
 30
0.0
 10
228.6276674446139
 20
1290.19088769217
 30
0.0
 10
227.8128093561534
 20
1290.192124985964
 30
0.0
 10
226.997690164111
 20
1290.193370511308
 30
0.0
 10
226.1823293268531
 20
1290.194624268869
 30
0.0
 10
225.3667463019569
 20
1290.195886259321
 30
0.0
 10
224.5509605461994
 20
1290.197156483336
 30
0.0
 10
223.7349915155525
 20
1290.1984349416
 30
0.0
 10
222.918858665173
 20
1290.199721634775
 30
0.0
 10
222.1025814493977
 20
1290.201016563625
 30
0.0
 10
221.2861793217294
 20
1290.20231972856
 30
0.0
 10
220.469671734848
 20
1290.203631131318
 30
0.0
 10
219.6530781405365
 20
1290.204950768706
 30
0.0
 10
218.8364179899179
 20
1290.206278655954
 30
0.0
 10
218.0197107325368
 20
1290.207614739553
 30
0.0
 10
217.2029758197478
 20
1290.208959222537
 30
0.0
 10
216.3862326920347
 20
1290.21031135058
 30
0.0
 10
215.8417349712651
 20
1290.2112197613
 30
0.0
 10
215.5694906320363
 20
1290.211673830241
 30
0.0
  0
LINE
  5
86
330
6F
100
AcDbEntity
  8
DV1_Standard
 62
     7
100
AcDbLine
 10
215.5694907354
 20
1296.1468641679
 30
0.0
 11
388.3725299005
 21
1296.1468641679
 31
0.0
  0
LINE
  5
87
330
6F
100
AcDbEntity
  8
DV1_Standard
 62
     7
100
AcDbLine
 10
42.7664130704
 20
1296.1468641682
 30
0.0
 11
215.5694907354
 21
1296.1468641679
 31
0.0
  0
SPLINE
  5
88
330
6F
100
AcDbEntity
  8
DV1_Standard
 62
     7
100
AcDbSpline
210
0.0
220
0.0
230
1.0
 70
     8
 71
     3
 72
   213
 73
   209
 74
     0
 42
0.000000001
 43
0.0000000001
 40
0.0
 40
0.0
 40
0.0
 40
0.0
 40
0.005084480452921
 40
0.0179113098693632
 40
0.0303634131854164
 40
0.0418465123850188
 40
0.0523546321694628
 40
0.0618927481693296
 40
0.0704667408933145
 40
0.0780735792260449
 40
0.0847083483447643
 40
0.0928929165514108
 40
0.1018907545248485
 40
0.1117044312678164
 40
0.1223369751461231
 40
0.1337918628147603
 40
0.1460734544707533
 40
0.1591868776708403
 40
0.1731381242776109
 40
0.1879333080452631
 40
0.2035771214155526
 40
0.2093920277825179
 40
0.2153888563644077
 40
0.2215676129439463
 40
0.2279281721772529
 40
0.2344700227795598
 40
0.2411924165753243
 40
0.2480940583971137
 40
0.2551732113325189
 40
0.2624273199940499
 40
0.2698532899654433
 40
0.277447594897903
 40
0.2852078417927267
 40
0.2931345192344441
 40
0.3012303243753619
 40
0.3094997221264553
 40
0.3179453755321412
 40
0.3265684995694605
 40
0.3353687022254271
 40
0.3443455495332241
 40
0.3534987643818846
 40
0.3628282204519468
 40
0.3723340094975201
 40
0.3820164120347147
 40
0.3918758086342047
 40
0.4040865446042883
 40
0.4163020134906365
 40
0.4285223274344551
 40
0.4407474854432409
 40
0.4529774301161698
 40
0.465212196552332
 40
0.4774519383086506
 40
0.4896968220999606
 40
0.5019470187203322
 40
0.5142026578789021
 40
0.5264635780081038
 40
0.5387296234133757
 40
0.5510006546169703
 40
0.563276527916306
 40
0.5755571552125549
 40
0.5878425532766709
 40
0.6001328215778008
 40
0.60288302546516
 40
0.6056331149861666
 40
0.6083830899166641
 40
0.6111329493126637
 40
0.61388269240468
 40
0.6166323186039585
 40
0.6193818275065525
 40
0.6221312188974023
 40
0.6248804927543992
 40
0.6276296492524577
 40
0.6303786887675766
 40
0.6331276118808906
 40
0.6358764193827304
 40
0.6386251122766623
 40
0.6413736917021372
 40
0.6441221572982648
 40
0.6468705072545446
 40
0.6496187398652671
 40
0.6523668535982247
 40
0.6551148470991119
 40
0.6578627191959172
 40
0.6606104689033168
 40
0.6633580954270578
 40
0.6661055981683434
 40
0.6688529767282105
 40
0.6716002309119012
 40
0.6743473607332363
 40
0.6770943660386972
 40
0.6798412451634631
 40
0.6825879961049116
 40
0.6853346169927357
 40
0.6880811060935524
 40
0.6908274618154849
 40
0.6935736827127399
 40
0.6963197674901881
 40
0.69906571500793
 40
0.7018115242858638
 40
0.7045571945082516
 40
0.7073027250126731
 40
0.7100481148393385
 40
0.7127933626147026
 40
0.7155384670262522
 40
0.7182834268550254
 40
0.7210282409802181
 40
0.7237729083838008
 40
0.7265174281551197
 40
0.729261799495501
 40
0.7320060217228476
 40
0.7347500942762315
 40
0.7374940166472098
 40
0.7402377879012906
 40
0.7429814069312806
 40
0.7457248726885893
 40
0.748468184188939
 40
0.7512113405170211
 40
0.7539543408311535
 40
0.7566971843679353
 40
0.7594398704468885
 40
0.7621823984751085
 40
0.7649247679184326
 40
0.7676669779264695
 40
0.7704090274259948
 40
0.7731509153684762
 40
0.77589264073921
 40
0.7786342025620355
 40
0.7813755999040468
 40
0.7841168318803006
 40
0.7868578976585182
 40
0.7895987964637825
 40
0.7923395275364621
 40
0.7950800896708368
 40
0.7978204813656699
 40
0.8005607011094974
 40
0.8033007473894328
 40
0.8060406186959839
 40
0.8087803135278674
 40
0.8115198303968234
 40
0.8142591678324174
 40
0.8169983243868456
 40
0.8197372986068926
 40
0.8224760887547172
 40
0.825214692886959
 40
0.8279531089966378
 40
0.8306913350193555
 40
0.8334293688382219
 40
0.8361672082887742
 40
0.8389048511638986
 40
0.8416422952187369
 40
0.8443795381755992
 40
0.847116577743398
 40
0.8498534116806122
 40
0.8525900376648641
 40
0.855326453236607
 40
0.8580626558039216
 40
0.8607986426475537
 40
0.8635344109259433
 40
0.8662699576802526
 40
0.8690052798393844
 40
0.8717403742249956
 40
0.8744752376831335
 40
0.8772098680150505
 40
0.8799442633619035
 40
0.8826784216422576
 40
0.8854123405526871
 40
0.8881460175728307
 40
0.8908794499704479
 40
0.8936126348064676
 40
0.896345568940025
 40
0.8990782490334973
 40
0.9018106716173143
 40
0.9045428343556469
 40
0.9072747359486645
 40
0.9100063748412036
 40
0.9127377491713352
 40
0.9154688567754274
 40
0.9181996951931995
 40
0.9209302616727724
 40
0.9236605531757106
 40
0.926390566382057
 40
0.9291202976953633
 40
0.9318497436227097
 40
0.9345789056988086
 40
0.9373077890793007
 40
0.9400363986923179
 40
0.9427647391494809
 40
0.9454928147498602
 40
0.9482206294839494
 40
0.9509481870376296
 40
0.9536754907961434
 40
0.9564025438480674
 40
0.959129348989279
 40
0.9618559087269363
 40
0.9645822250578371
 40
0.967308296186389
 40
0.9700341172776017
 40
0.9727596831691286
 40
0.9754849884518707
 40
0.9782100274746887
 40
0.9809347943490935
 40
0.9836592829539383
 40
0.9863834869400931
 40
0.98910739973512
 40
0.9918310145479268
 40
0.9945543243734262
 40
0.9972773219971728
 40
1.0
 40
1.0
 40
1.0
 40
1.0
 10
36.76268658494985
 20
1289.99022916397
 30
0.0
 10
36.76263614041591
 20
1289.990624040544
 30
0.0
 10
36.76309033053815
 20
1289.992080490857
 30
0.0
 10
36.76954018628734
 20
1289.994969255845
 30
0.0
 10
36.79582778595583
 20
1289.998472274363
 30
0.0
 10
36.84031175045099
 20
1290.001034039859
 30
0.0
 10
36.89771167421249
 20
1290.002774407464
 30
0.0
 10
36.96403813490434
 20
1290.003651361382
 30
0.0
 10
37.03703539852829
 20
1290.003677860843
 30
0.0
 10
37.11472281445824
 20
1290.002852756479
 30
0.0
 10
37.20402187671398
 20
1290.000983042655
 30
0.0
 10
37.31396408976357
 20
1289.997135960425
 30
0.0
 10
37.4598162468977
 20
1289.990926835087
 30
0.0
 10
37.64563333416609
 20
1289.982484115316
 30
0.0
 10
37.88064124605331
 20
1289.971806268354
 30
0.0
 10
38.17603153126664
 20
1289.958898125177
 30
0.0
 10
38.54542417271026
 20
1289.943761301633
 30
0.0
 10
39.00545722727738
 20
1289.926416056592
 30
0.0
 10
39.57641408582674
 20
1289.906814887743
 30
0.0
 10
40.28284564118506
 20
1289.885197892401
 30
0.0
 10
40.95565574075263
 20
1289.866232212818
 30
0.0
 10
41.52064098435584
 20
1289.852677720973
 30
0.0
 10
41.91131833875583
 20
1289.845339918672
 30
0.0
 10
42.33611021434861
 20
1289.838915446266
 30
0.0
 10
42.79753223767446
 20
1289.833503811805
 30
0.0
 10
43.29803008795515
 20
1289.829075385145
 30
0.0
 10
43.84015300812811
 20
1289.82563715486
 30
0.0
 10
44.42609924416166
 20
1289.823185995919
 30
0.0
 10
45.05807590045813
 20
1289.821721977655
 30
0.0
 10
45.7375952146484
 20
1289.821244464045
 30
0.0
 10
46.46598711702018
 20
1289.821753371531
 30
0.0
 10
47.24347455664643
 20
1289.823248963613
 30
0.0
 10
48.07024064452681
 20
1289.825732293097
 30
0.0
 10
48.94593358963234
 20
1289.829204253602
 30
0.0
 10
49.87110062585754
 20
1289.833666088203
 30
0.0
 10
50.84677498751519
 20
1289.839117588606
 30
0.0
 10
51.87487939669774
 20
1289.845560095333
 30
0.0
 10
52.95739612275588
 20
1289.852994663208
 30
0.0
 10
54.09626506975309
 20
1289.861423863864
 30
0.0
 10
55.29325416762737
 20
1289.870849403018
 30
0.0
 10
56.55006916327287
 20
1289.881274682865
 30
0.0
 10
57.86839214458164
 20
1289.89269763131
 30
0.0
 10
59.24993526096709
 20
1289.905138312639
 30
0.0
 10
60.69644511117578
 20
1289.918532527429
 30
0.0
 10
62.3209928662011
 20
1289.934213684659
 30
0.0
 10
64.12761005372374
 20
1289.951106600893
 30
0.0
 10
66.1201638680238
 20
1289.967914759522
 30
0.0
 10
68.17454383363189
 20
1289.983798834081
 30
0.0
 10
70.29027445253408
 20
1289.998669134842
 30
0.0
 10
72.46680282931995
 20
1290.012545416959
 30
0.0
 10
74.70357456424453
 20
1290.025418345492
 30
0.0
 10
77.00001060470213
 20
1290.037286614425
 30
0.0
 10
79.35555736248106
 20
1290.048147144077
 30
0.0
 10
81.76968796617604
 20
1290.057997654811
 30
0.0
 10
84.24182490626114
 20
1290.066835859577
 30
0.0
 10
86.77129449302437
 20
1290.074659995885
 30
0.0
 10
89.3574154799244
 20
1290.081468460125
 30
0.0
 10
91.99937289447725
 20
1290.087259427748
 30
0.0
 10
94.69624170540956
 20
1290.092033061719
 30
0.0
 10
97.44712766285508
 20
1290.095783204557
 30
0.0
 10
100.2510826090999
 20
1290.09852827868
 30
0.0
 10
102.3678227526905
 20
1290.099764184818
 30
0.0
 10
103.7606490866947
 20
1290.10032971927
 30
0.0
 10
104.4090568698017
 20
1290.10061142741
 30
0.0
 10
105.059916039957
 20
1290.100896494017
 30
0.0
 10
105.713214838094
 20
1290.101189226784
 30
0.0
 10
106.3689406800999
 20
1290.101488472056
 30
0.0
 10
107.0270811898209
 20
1290.101794539458
 30
0.0
 10
107.6876239412477
 20
1290.102107346564
 30
0.0
 10
108.3505565276228
 20
1290.102426916004
 30
0.0
 10
109.0158665429692
 20
1290.102753242271
 30
0.0
 10
109.6835415868699
 20
1290.103086327409
 30
0.0
 10
110.3535692638032
 20
1290.10342617145
 30
0.0
 10
111.0259371810154
 20
1290.103772774978
 30
0.0
 10
111.7006329576915
 20
1290.104126138436
 30
0.0
 10
112.3776441837008
 20
1290.104486262329
 30
0.0
 10
113.0569584067378
 20
1290.104853147019
 30
0.0
 10
113.7385623992427
 20
1290.105226793007
 30
0.0
 10
114.4224422143302
 20
1290.105607200931
 30
0.0
 10
115.1085838700956
 20
1290.105994371304
 30
0.0
 10
115.7969733583619
 20
1290.106388304663
 30
0.0
 10
116.487596683256
 20
1290.106789001547
 30
0.0
 10
117.1804398522942
 20
1290.107196462508
 30
0.0
 10
117.875488878778
 20
1290.107610688104
 30
0.0
 10
118.5727297811082
 20
1290.108031678906
 30
0.0
 10
119.2721485831284
 20
1290.108459435489
 30
0.0
 10
119.9737313134242
 20
1290.108893958442
 30
0.0
 10
120.6774640077705
 20
1290.109335248359
 30
0.0
 10
121.3833326674687
 20
1290.109783305828
 30
0.0
 10
122.0913231441976
 20
1290.110238131313
 30
0.0
 10
122.8014199924557
 20
1290.110699725562
 30
0.0
 10
123.5136075629565
 20
1290.111168089236
 30
0.0
 10
124.2278701804843
 20
1290.111643222975
 30
0.0
 10
124.9441921735594
 20
1290.112125127427
 30
0.0
 10
125.6625578772582
 20
1290.112613803253
 30
0.0
 10
126.3829516322649
 20
1290.113109251119
 30
0.0
 10
127.1053577858297
 20
1290.113611471702
 30
0.0
 10
127.8297606888804
 20
1290.114120465688
 30
0.0
 10
128.5561447065999
 20
1290.114636233769
 30
0.0
 10
129.2844941776213
 20
1290.115158776654
 30
0.0
 10
130.0147935193591
 20
1290.115688095002
 30
0.0
 10
130.7470265360473
 20
1290.116224189519
 30
0.0
 10
131.481176312413
 20
1290.116767060989
 30
0.0
 10
132.2172260231999
 20
1290.117316710148
 30
0.0
 10
132.9551588121667
 20
1290.117873137743
 30
0.0
 10
133.6949578388418
 20
1290.118436344532
 30
0.0
 10
134.4366062665287
 20
1290.119006331278
 30
0.0
 10
135.1800872659999
 20
1290.119583098757
 30
0.0
 10
135.9253840127032
 20
1290.120166647749
 30
0.0
 10
136.672479694233
 20
1290.120756979047
 30
0.0
 10
137.4213574765623
 20
1290.121354093448
 30
0.0
 10
138.1720005541361
 20
1290.121957991693
 30
0.0
 10
138.9243913542939
 20
1290.122568674637
 30
0.0
 10
139.6785120987524
 20
1290.123186143129
 30
0.0
 10
140.4343450334195
 20
1290.123810398002
 30
0.0
 10
141.1918724006317
 20
1290.124441440101
 30
0.0
 10
141.9510764521065
 20
1290.125079270278
 30
0.0
 10
142.711939446023
 20
1290.125723889392
 30
0.0
 10
143.474443645833
 20
1290.126375298315
 30
0.0
 10
144.2385713279198
 20
1290.127033497922
 30
0.0
 10
145.0043047490324
 20
1290.127698489103
 30
0.0
 10
145.7716262178461
 20
1290.128370272695
 30
0.0
 10
146.5405174649275
 20
1290.129048849616
 30
0.0
 10
147.3109599258495
 20
1290.129734220812
 30
0.0
 10
148.0829350794651
 20
1290.1304263872
 30
0.0
 10
148.8564243953134
 20
1290.131125349711
 30
0.0
 10
149.6314093541669
 20
1290.131831109282
 30
0.0
 10
150.4078714431232
 20
1290.132543666859
 30
0.0
 10
151.1857921550952
 20
1290.133263023397
 30
0.0
 10
151.9651529957426
 20
1290.133989179859
 30
0.0
 10
152.745935451809
 20
1290.134722137218
 30
0.0
 10
153.5281210442208
 20
1290.135461896374
 30
0.0
 10
154.3116907064517
 20
1290.136208458344
 30
0.0
 10
155.0966251027615
 20
1290.136961824164
 30
0.0
 10
155.8829049285477
 20
1290.137721994836
 30
0.0
 10
156.6705108725155
 20
1290.138488971374
 30
0.0
 10
157.4594236343057
 20
1290.1392627548
 30
0.0
 10
158.2496239203689
 20
1290.140043346144
 30
0.0
 10
159.0410924432094
 20
1290.140830746445
 30
0.0
 10
159.8338099285215
 20
1290.141624956747
 30
0.0
 10
160.6277570842204
 20
1290.142425978107
 30
0.0
 10
161.4229146737806
 20
1290.143233811535
 30
0.0
 10
162.2192628228775
 20
1290.144048458118
 30
0.0
 10
163.0167814487725
 20
1290.144869918956
 30
0.0
 10
163.8154505087976
 20
1290.145698195136
 30
0.0
 10
164.6152499555652
 20
1290.146533287754
 30
0.0
 10
165.4161597525513
 20
1290.147375197912
 30
0.0
 10
166.2181598704018
 20
1290.148223926722
 30
0.0
 10
167.0212302862399
 20
1290.149079475305
 30
0.0
 10
167.825350990117
 20
1290.149941844788
 30
0.0
 10
168.6305019613206
 20
1290.150811036309
 30
0.0
 10
169.4366632695093
 20
1290.151687051024
 30
0.0
 10
170.2438143746132
 20
1290.152569890061
 30
0.0
 10
171.0519346268328
 20
1290.153459554569
 30
0.0
 10
171.8610034270787
 20
1290.154356045718
 30
0.0
 10
172.6710001743747
 20
1290.155259364681
 30
0.0
 10
173.4819042781795
 20
1290.156169512643
 30
0.0
 10
174.2936951555374
 20
1290.157086490795
 30
0.0
 10
175.1063522301245
 20
1290.158010300336
 30
0.0
 10
175.9198549388982
 20
1290.158940942476
 30
0.0
 10
176.7341827190143
 20
1290.159878418429
 30
0.0
 10
177.5493152083901
 20
1290.160822729628
 30
0.0
 10
178.3652316615005
 20
1290.161773877163
 30
0.0
 10
179.1819113505115
 20
1290.162731862175
 30
0.0
 10
179.9993336545874
 20
1290.163696685916
 30
0.0
 10
180.8174779500922
 20
1290.164668349637
 30
0.0
 10
181.6363236242355
 20
1290.1656468546
 30
0.0
 10
182.4558500716682
 20
1290.166632202074
 30
0.0
 10
183.2760366940032
 20
1290.167624393333
 30
0.0
 10
184.0968629051252
 20
1290.168623429668
 30
0.0
 10
184.9183081164186
 20
1290.16962931235
 30
0.0
 10
185.7403519469311
 20
1290.170642042961
 30
0.0
 10
186.5629739942373
 20
1290.17166162279
 30
0.0
 10
187.3861538633502
 20
1290.172688052867
 30
0.0
 10
188.2098713695943
 20
1290.173721334534
 30
0.0
 10
189.0341063253428
 20
1290.174761469111
 30
0.0
 10
189.8588385551486
 20
1290.175808457936
 30
0.0
 10
190.6840478901362
 20
1290.176862302353
 30
0.0
 10
191.5097141696246
 20
1290.177923003713
 30
0.0
 10
192.3358172402359
 20
1290.178990563367
 30
0.0
 10
193.1623369578291
 20
1290.18006498271
 30
0.0
 10
193.9892532185146
 20
1290.181146263052
 30
0.0
 10
194.8165465191125
 20
1290.182234406996
 30
0.0
 10
195.6441982217219
 20
1290.183329415572
 30
0.0
 10
196.472190576411
 20
1290.184431289304
 30
0.0
 10
197.3005062633873
 20
1290.185540029667
 30
0.0
 10
198.1291279747815
 20
1290.186655638046
 30
0.0
 10
198.9580384105076
 20
1290.187778115863
 30
0.0
 10
199.7872202768505
 20
1290.188907464539
 30
0.0
 10
200.6166562868476
 20
1290.190043685504
 30
0.0
 10
201.4463291601659
 20
1290.191186780193
 30
0.0
 10
202.2762216232044
 20
1290.192336750056
 30
0.0
 10
203.1063164087939
 20
1290.193493596522
 30
0.0
 10
203.9365962343914
 20
1290.194657321098
 30
0.0
 10
204.7670434414045
 20
1290.195827924374
 30
0.0
 10
205.5976397342903
 20
1290.197005408028
 30
0.0
 10
206.4283661881218
 20
1290.1981897742
 30
0.0
 10
207.2592035924665
 20
1290.199381024327
 30
0.0
 10
208.0901327373113
 20
1290.200579159901
 30
0.0
 10
208.9211344198692
 20
1290.201784182481
 30
0.0
 10
209.7521894448232
 20
1290.202996093334
 30
0.0
 10
210.5832786242446
 20
1290.204214894861
 30
0.0
 10
211.4143827776607
 20
1290.205440585268
 30
0.0
 10
212.2454827318543
 20
1290.206673178444
 30
0.0
 10
213.0765593215825
 20
1290.207912629791
 30
0.0
 10
213.9075933868949
 20
1290.209159112972
 30
0.0
 10
214.7385657831247
 20
1290.210411987269
 30
0.0
 10
215.2925265202211
 20
1290.211253146431
 30
0.0
 10
215.5694906320363
 20
1290.211673830241
 30
0.0
  0
ARC
  5
89
330
6F
100
AcDbEntity
  8
DV1_Standard
 62
     7
100
AcDbCircle
 10
985.1629791444
 20
1274.9165058358
 30
0.0
 40
590.9794977726524
100
AcDbArc
 50
178.5377566368
 51
179.0122688028
  0
ARC
  5
8A
330
6F
100
AcDbEntity
  8
DV1_Standard
 62
     7
100
AcDbCircle
 10
388.3725299005
 20
1290.1468834716
 30
0.0
 40
5.999980696222726
100
AcDbArc
 50
358.5376209672
 51
90.0
  0
ARC
  5
8B
330
6F
100
AcDbEntity
  8
DV1_Standard
 62
     7
100
AcDbCircle
 10
42.7789900798
 20
1290.1470274471
 30
0.0
 40
5.999836751264057
100
AcDbArc
 50
90.0095930105
 51
90.0271922173
  0
ARC
  5
8C
330
6F
100
AcDbEntity
  8
DV1_Standard
 62
     7
100
AcDbCircle
 10
42.7664130704
 20
1290.1469582136
 30
0.0
 40
5.999905954583851
100
AcDbArc
 50
89.9999999999
 51
181.4925745704
  0
ARC
  5
8D
330
6F
100
AcDbEntity
  8
DV1_Standard
 62
     7
100
AcDbCircle
 10
-554.1474913067
 20
1274.9140009711
 30
0.0
 40
591.1030153647348
100
AcDbArc
 50
0.9877676126
 51
1.4615058456
  0
ARC
  5
8E
330
6F
100
AcDbEntity
  8
DV1_Standard
 62
     7
100
AcDbCircle
 10
350.5661068835
 20
1291.2412271189
 30
0.0
 40
4.905635931398312
100
AcDbArc
 50
90.0657388556
 51
90.253828367
  0
LINE
  5
8F
330
6F
100
AcDbEntity
  8
DV1_Standard
 62
     7
100
AcDbLine
 10
254.2298464624
 20
986.6920121851
 30
0.0
 11
254.3953110775
 21
987.6108175697
 31
0.0
  0
LINE
  5
90
330
6F
100
AcDbEntity
  8
DV1_Standard
 62
     7
100
AcDbLine
 10
176.9091238686
 20
986.6920503797
 30
0.0
 11
176.6661074664
 21
987.6105490364
 31
0.0
  0
CIRCLE
  5
92
330
6F
100
AcDbEntity
  8
DV1_Default
 62
     7
100
AcDbCircle
 10
215.5879788629
 20
1100.2114736517
 30
0.0
 40
39.56939166039
  0
CIRCLE
  5
93
330
6F
100
AcDbEntity
  8
DV1_Default
 62
     7
100
AcDbCircle
 10
305.5879788624
 20
1200.2114736517
 30
0.0
 40
13.89534883725
  0
CIRCLE
  5
94
330
6F
100
AcDbEntity
  8
DV1_Default
 62
     7
100
AcDbCircle
 10
125.5879788619
 20
1200.2114736517
 30
0.0
 40
13.89534883721
  0
ARC
  5
95
330
6F
100
AcDbEntity
  8
DV1_Default
 62
     7
100
AcDbCircle
 10
215.5879791153
 20
1235.2114744241
 30
0.0
 40
20.00000040493785
100
AcDbArc
 50
269.9999683465
 51
134.7483065888
  0
ARC
  5
96
330
6F
100
AcDbEntity
  8
DV1_Default
 62
     7
100
AcDbCircle
 10
215.5879782737
 20
1235.2114734305
 30
0.0
 40
19.99999941132478
100
AcDbArc
 50
134.7482996602
 51
269.9999707573
  0
LINE
  5
97
330
6F
100
AcDbEntity
  8
DV1_Standard
 62
     7
100
AcDbLine
 10
317.5879789667
 20
1200.2114736517
 30
0.0
 11
293.5879787581
 21
1200.2114736517
 31
0.0
  0
LINE
  5
98
330
6F
100
AcDbEntity
  8
DV1_Standard
 62
     7
100
AcDbLine
 10
305.5879788624
 20
1212.211473756
 30
0.0
 11
305.5879788624
 21
1188.2114735474
 31
0.0
  0
LINE
  5
99
330
6F
100
AcDbEntity
  8
DV1_Standard
 62
     7
100
AcDbLine
 10
320.5879794584
 20
1200.2114736517
 30
0.0
 11
321.2333276996
 21
1200.2114736517
 31
0.0
  0
LINE
  5
9A
330
6F
100
AcDbEntity
  8
DV1_Standard
 62
     7
100
AcDbLine
 10
305.5879788624
 20
1215.2114742478
 30
0.0
 11
305.5879788624
 21
1215.856822489
 31
0.0
  0
LINE
  5
9B
330
6F
100
AcDbEntity
  8
DV1_Standard
 62
     7
100
AcDbLine
 10
290.5879782664
 20
1200.2114736517
 30
0.0
 11
289.9426300251
 21
1200.2114736517
 31
0.0
  0
LINE
  5
9C
330
6F
100
AcDbEntity
  8
DV1_Standard
 62
     7
100
AcDbLine
 10
305.5879788624
 20
1185.2114730557
 30
0.0
 11
305.5879788624
 21
1184.5661248145
 31
0.0
  0
LINE
  5
9D
330
6F
100
AcDbEntity
  8
DV1_Standard
 62
     7
100
AcDbLine
 10
227.5879789672
 20
1100.2114736517
 30
0.0
 11
203.5879787586
 21
1100.2114736517
 31
0.0
  0
LINE
  5
9E
330
6F
100
AcDbEntity
  8
DV1_Standard
 62
     7
100
AcDbLine
 10
215.5879788629
 20
1112.211473756
 30
0.0
 11
215.5879788629
 21
1088.2114735474
 31
0.0
  0
LINE
  5
9F
330
6F
100
AcDbEntity
  8
DV1_Standard
 62
     7
100
AcDbLine
 10
230.587979459
 20
1100.2114736517
 30
0.0
 11
256.9073705233
 21
1100.2114736517
 31
0.0
  0
LINE
  5
A0
330
6F
100
AcDbEntity
  8
DV1_Standard
 62
     7
100
AcDbLine
 10
215.5879788629
 20
1115.2114742478
 30
0.0
 11
215.5879788629
 21
1141.5308653121
 31
0.0
  0
LINE
  5
A1
330
6F
100
AcDbEntity
  8
DV1_Standard
 62
     7
100
AcDbLine
 10
200.5879782669
 20
1100.2114736517
 30
0.0
 11
174.2685872025
 21
1100.2114736517
 31
0.0
  0
LINE
  5
A2
330
6F
100
AcDbEntity
  8
DV1_Standard
 62
     7
100
AcDbLine
 10
215.5879788629
 20
1085.2114730557
 30
0.0
 11
215.5879788629
 21
1058.8920819913
 31
0.0
  0
LINE
  5
A3
330
6F
100
AcDbEntity
  8
DV1_Standard
 62
     7
100
AcDbLine
 10
227.5879792196
 20
1235.2114744241
 30
0.0
 11
203.587979011
 21
1235.2114744241
 31
0.0
  0
LINE
  5
A4
330
6F
100
AcDbEntity
  8
DV1_Standard
 62
     7
100
AcDbLine
 10
215.5879791153
 20
1247.2114745284
 30
0.0
 11
215.5879791153
 21
1223.2114743198
 31
0.0
  0
LINE
  5
A5
330
6F
100
AcDbEntity
  8
DV1_Standard
 62
     7
100
AcDbLine
 10
230.5879797113
 20
1235.2114744241
 30
0.0
 11
237.3379795202
 21
1235.2114744241
 31
0.0
  0
LINE
  5
A6
330
6F
100
AcDbEntity
  8
DV1_Standard
 62
     7
100
AcDbLine
 10
215.5879791153
 20
1250.2114750201
 30
0.0
 11
215.5879791153
 21
1256.961474829
 31
0.0
  0
LINE
  5
A7
330
6F
100
AcDbEntity
  8
DV1_Standard
 62
     7
100
AcDbLine
 10
200.5879785192
 20
1235.2114744241
 30
0.0
 11
193.8379787103
 21
1235.2114744241
 31
0.0
  0
LINE
  5
A8
330
6F
100
AcDbEntity
  8
DV1_Standard
 62
     7
100
AcDbLine
 10
215.5879791153
 20
1220.211473828
 30
0.0
 11
215.5879791153
 21
1213.4614740191
 31
0.0
  0
LINE
  5
A9
330
6F
100
AcDbEntity
  8
DV1_Standard
 62
     7
100
AcDbLine
 10
129.0879789699
 20
1200.2114736517
 30
0.0
 11
122.0879787538
 21
1200.2114736517
 31
0.0
  0
LINE
  5
AA
330
6F
100
AcDbEntity
  8
DV1_Standard
 62
     7
100
AcDbLine
 10
125.5879788619
 20
1203.7114737597
 30
0.0
 11
125.5879788619
 21
1196.7114735437
 31
0.0
  0
LINE
  5
AB
330
6F
100
AcDbEntity
  8
DV1_Standard
 62
     7
100
AcDbLine
 10
130.8379792567
 20
1200.2114736517
 30
0.0
 11
140.9833276991
 21
1200.2114736517
 31
0.0
  0
LINE
  5
AC
330
6F
100
AcDbEntity
  8
DV1_Standard
 62
     7
100
AcDbLine
 10
125.5879788619
 20
1205.4614740466
 30
0.0
 11
125.5879788619
 21
1215.6068224889
 31
0.0
  0
LINE
  5
AD
330
6F
100
AcDbEntity
  8
DV1_Standard
 62
     7
100
AcDbLine
 10
120.337978467
 20
1200.2114736517
 30
0.0
 11
110.1926300246
 21
1200.2114736517
 31
0.0
  0
LINE
  5
AE
330
6F
100
AcDbEntity
  8
DV1_Standard
 62
     7
100
AcDbLine
 10
125.5879788619
 20
1194.9614732568
 30
0.0
 11
125.5879788619
 21
1184.8161248145
 31
0.0
  0
SPLINE
  5
AF
330
6F
100
AcDbEntity
  8
DV1_Standard
 62
     7
100
AcDbSpline
210
0.0
220
0.0
230
1.0
 70
     8
 71
     3
 72
    22
 73
    18
 74
     0
 42
0.000000001
 43
0.0000000001
 40
0.0
 40
0.0
 40
0.0
 40
0.0
 40
0.5392025016764599
 40
0.5392025016764599
 40
0.5392025016764599
 40
0.5810359381641111
 40
0.6228693746517472
 40
0.6647028111394285
 40
0.7065362476270347
 40
0.7483696841147159
 40
0.7902031206023221
 40
0.8320365570900032
 40
0.8738699935776093
 40
0.9157034300652905
 40
0.9575368665529719
 40
0.999370303040578
 40
1.0
 40
1.0
 40
1.0
 40
1.0
 10
394.0182180064279
 20
1246.28929819089
 30
0.0
 10
334.6266892950184
 20
1246.236149504331
 30
0.0
 10
275.2351605836088
 20
1246.183000817772
 30
0.0
 10
215.8436318721992
 20
1246.129852131213
 30
0.0
 10
207.8296735495173
 20
1246.122680546843
 30
0.0
 10
191.5247349498103
 20
1246.094327552433
 30
0.0
 10
166.7049442135303
 20
1245.974088598803
 30
0.0
 10
142.4704584035503
 20
1245.909885042323
 30
0.0
 10
119.7728574296903
 20
1245.857838926303
 30
0.0
 10
99.47261916412032
 20
1245.804273294363
 30
0.0
 10
82.17561160122034
 20
1245.700232006693
 30
0.0
 10
67.54379711142033
 20
1245.413725820853
 30
0.0
 10
54.99529065122033
 20
1245.154632590993
 30
0.0
 10
45.27223671162028
 20
1244.669183079923
 30
0.0
 10
38.9735553272203
 20
1244.726947445873
 30
0.0
 10
37.59136015232434
 20
1244.607438820855
 30
0.0
 10
37.33834258567909
 20
1244.575617693627
 30
0.0
 10
37.33468614972202
 20
1244.575151940571
 30
0.0
  0
ENDBLK
  5
B1
330
6F
100
AcDbEntity
  8
0
100
AcDbBlockEnd
  0
BLOCK
  5
CA
330
B2
100
AcDbEntity
  8
0
100
AcDbBlockBegin
  2
SE1
 70
     0
 10
0.0
 20
0.0
 30
0.0
  3
SE1
  1

  0
LINE
  5
B5
330
B2
100
AcDbEntity
  8
DV2_Standard
 62
     7
100
AcDbLine
 10
478.5377962709
 20
993.1468629849
 30
0.0
 11
478.5476880921
 21
992.8416789706
 31
0.0
  0
ARC
  5
B6
330
B2
100
AcDbEntity
  8
DV2_Standard
 62
     7
100
AcDbCircle
 10
625.0512967507
 20
1042.3143755425
 30
0.0
 40
108.1335689700776
100
AcDbArc
 50
326.4836948399
 51
326.7428539042
  0
SPLINE
  5
B7
330
B2
100
AcDbEntity
  8
DV2_Standard
 62
     7
100
AcDbSpline
210
0.0
220
0.0
230
1.0
 70
     8
 71
     3
 72
     8
 73
     4
 74
     0
 42
0.000000001
 43
0.0000000001
 40
0.0
 40
0.0
 40
0.0
 40
0.0
 40
1.0
 40
1.0
 40
1.0
 40
1.0
 10
715.474508075457
 20
983.0141934860923
 30
0.0
 10
716.4588090397577
 20
984.5150102938271
 30
0.0
 10
717.4022950348561
 20
986.03433729569
 30
0.0
 10
718.3125140922967
 20
987.5657821168355
 30
0.0
  0
SPLINE
  5
B8
330
B2
100
AcDbEntity
  8
DV2_Standard
 62
     7
100
AcDbSpline
210
0.0
220
0.0
230
1.0
 70
     8
 71
     3
 72
    15
 73
    11
 74
     0
 42
0.000000001
 43
0.0000000001
 40
0.0
 40
0.0
 40
0.0
 40
0.0
 40
0.041278687073856
 40
0.0861105194858295
 40
0.1832461563789236
 40
0.2729098212028704
 40
0.4434761920895222
 40
0.6140425629790861
 40
0.9284098186579058
 40
1.0
 40
1.0
 40
1.0
 40
1.0
 10
657.862851130457
 20
951.1719594518923
 30
0.0
 10
657.3582384355882
 20
951.1502353657067
 30
0.0
 10
656.3061127918543
 20
951.1099815574785
 30
0.0
 10
654.0464608715049
 20
951.0480880327494
 30
0.0
 10
651.1744562113781
 20
951.0253711723201
 30
0.0
 10
646.7254809827912
 20
951.1123708400153
 30
0.0
 10
641.3148234006744
 20
951.437476377684
 30
0.0
 10
633.0124491410708
 20
952.459986125058
 30
0.0
 10
625.9121682164304
 20
954.0743014485208
 30
0.0
 10
621.052543886263
 20
955.7347640226621
 30
0.0
 10
620.1547842841569
 20
956.0618456281923
 30
0.0
  0
SPLINE
  5
B9
330
B2
100
AcDbEntity
  8
DV2_Standard
 62
     7
100
AcDbSpline
210
0.0
220
0.0
230
1.0
 70
     8
 71
     3
 72
    19
 73
    15
 74
     0
 42
0.000000001
 43
0.0000000001
 40
0.0
 40
0.0
 40
0.0
 40
0.0
 40
0.1250001408228
 40
0.2500001207053
 40
0.3125001106465
 40
0.3750001005877
 40
0.5000000804702
 40
0.5625000704114
 40
0.6250000603526
 40
0.7500000402351
 40
0.8125000301763
 40
0.8750000201175
 40
0.9375000100588
 40
1.0
 40
1.0
 40
1.0
 40
1.0
 10
715.205358664957
 20
982.6058011283924
 30
0.0
 10
713.7096635869568
 20
980.3475751847923
 30
0.0
 10
710.493743736157
 20
975.8667236457923
 30
0.0
 10
705.7531161666569
 20
970.5365605534923
 30
0.0
 10
701.4775067853569
 20
966.5903443084924
 30
0.0
 10
696.8909953039569
 20
962.9168284487923
 30
0.0
 10
691.881302234257
 20
959.7445312823924
 30
0.0
 10
686.586934775157
 20
957.1664965444924
 30
0.0
 10
681.149490949657
 20
954.9875776682924
 30
0.0
 10
675.6201721461568
 20
953.4083290723923
 30
0.0
 10
670.0724454647568
 20
952.3217783494923
 30
0.0
 10
665.8964161049569
 20
951.7393196715923
 30
0.0
 10
661.8038072320569
 20
951.3723786974923
 30
0.0
 10
659.1709427932569
 20
951.2282741276923
 30
0.0
 10
657.862851130457
 20
951.1719594518923
 30
0.0
  0
ARC
  5
BA
330
B2
100
AcDbEntity
  8
DV2_Standard
 62
     7
100
AcDbCircle
 10
642.4980716306
 20
1017.0022752718
 30
0.0
 40
64.90730663491605
100
AcDbArc
 50
206.9908448486
 51
249.8649702821
  0
LINE
  5
BB
330
B2
100
AcDbEntity
  8
DV2_Standard
 62
     7
100
AcDbLine
 10
478.5375368029
 20
1285.1468641682
 30
0.0
 11
478.5375368028
 21
1247.7433214826
 31
0.0
  0
LINE
  5
BC
330
B2
100
AcDbEntity
  8
DV2_Standard
 62
     7
100
AcDbLine
 10
478.5375368029
 20
1247.7433214843
 30
0.0
 11
478.5375368029
 21
1244.5751513556
 31
0.0
  0
LINE
  5
BD
330
B2
100
AcDbEntity
  8
DV2_Standard
 62
     7
100
AcDbLine
 10
478.5375370197
 20
1244.5751519406
 30
0.0
 11
478.5375367962
 21
987.6041818464
 31
0.0
  0
ARC
  5
BE
330
B2
100
AcDbEntity
  8
DV2_Standard
 62
     7
100
AcDbCircle
 10
24.0463627117
 20
1576.5641538253
 30
0.0
 40
1001.564033958764
100
AcDbArc
 50
323.98241234
 51
340.5480917479
  0
ARC
  5
BF
330
B2
100
AcDbEntity
  8
DV2_Standard
 62
     7
100
AcDbCircle
 10
949.5816417464
 20
1249.6619253744
 30
0.0
 40
20.00067385483717
100
AcDbArc
 50
340.6210806736
 51
359.3536124981
  0
ARC
  5
C0
330
B2
100
AcDbEntity
  8
DV2_Standard
 62
     7
100
AcDbCircle
 10
-795.8916753913
 20
1271.1496067615
 30
0.0
 40
1765.606237775665
100
AcDbArc
 50
359.2953622949
 51
0.4542304835
  0
SPLINE
  5
C1
330
B2
100
AcDbEntity
  8
DV2_Standard
 62
     7
100
AcDbSpline
210
0.0
220
0.0
230
1.0
 70
     8
 71
     3
 72
   103
 73
    99
 74
     0
 42
0.000000001
 43
0.0000000001
 40
0.0
 40
0.0
 40
0.0
 40
0.0
 40
0.0070506250514601
 40
0.0141756808999533
 40
0.0213751546032482
 40
0.0286490296947902
 40
0.0359972860814189
 40
0.0434198999399067
 40
0.0509168436123093
 40
0.0584880855001172
 40
0.0661335899572038
 40
0.0738533171815541
 40
0.081647223105769
 40
0.0895152592863342
 40
0.0974573727916422
 40
0.10547350608876
 40
0.1135635969289301
 40
0.1217275782317951
 40
0.1299653779683354
 40
0.1382769190425097
 40
0.1466621191659764
 40
0.1551208906507963
 40
0.1636531402983715
 40
0.1722587693441779
 40
0.1809376733345846
 40
0.1896897420002589
 40
0.1985148591281949
 40
0.2074129024323557
 40
0.2163837434229146
 40
0.2254272472740871
 40
0.2345432726905378
 40
0.2437316717723521
 40
0.2529922898785592
 40
0.2623249654891956
 40
0.271729530065894
 40
0.2812058079109839
 40
0.2907536155542607
 40
0.300372757646351
 40
0.3100630286051544
 40
0.3198242147473863
 40
0.3296560941567064
 40
0.3395584365272113
 40
0.3495310030053043
 40
0.3595735469974176
 40
0.3696858370295331
 40
0.3798676587277791
 40
0.3901187918762602
 40
0.4004389766685597
 40
0.4108278146892769
 40
0.4212848607822662
 40
0.4318096767478797
 40
0.4424021488210772
 40
0.453062423278983
 40
0.463790648326761
 40
0.474585706921169
 40
0.4854443833971364
 40
0.4963661004685744
 40
0.5073524174998897
 40
0.5184033009897688
 40
0.5295171369766407
 40
0.5406963875656624
 40
0.5519410304780873
 40
0.563249559926944
 40
0.5746213970923739
 40
0.5860536715408942
 40
0.5975457118417177
 40
0.6090991509547811
 40
0.620712358108559
 40
0.6323859956098846
 40
0.6441247081356914
 40
0.6559287725058123
 40
0.6677971374970533
 40
0.6797281840134911
 40
0.6917212052256283
 40
0.7037771551725382
 40
0.7158972099083657
 40
0.728082461730139
 40
0.7403343104167106
 40
0.7526537089521711
 40
0.7650417694184615
 40
0.7774988802905816
 40
0.7900248372801221
 40
0.8026193459115925
 40
0.8152820543123166
 40
0.8280129333879397
 40
0.8408124313135455
 40
0.8536811847338569
 40
0.8666193215774484
 40
0.8796270225669433
 40
0.8927047619172288
 40
0.905853666758627
 40
0.9190756926440865
 40
0.9323727367882878
 40
0.945746600486478
 40
0.9591985472235783
 40
0.9727270618526761
 40
0.9863289437953526
 40
1.0
 40
1.0
 40
1.0
 40
1.0
 10
478.5375368028769
 20
1285.146864168171
 30
0.0
 10
479.9294283208762
 20
1285.146867609053
 30
0.0
 10
482.7279050321608
 20
1285.146874527141
 30
0.0
 10
486.947658386793
 20
1285.146927501817
 30
0.0
 10
491.2114846451563
 20
1285.147008620562
 30
0.0
 10
495.5193740579174
 20
1285.147118901799
 30
0.0
 10
499.8713146962295
 20
1285.147255134917
 30
0.0
 10
504.2672924301012
 20
1285.147415257889
 30
0.0
 10
508.7072908556221
 20
1285.14759689482
 30
0.0
 10
513.1912912352059
 20
1285.147797754749
 30
0.0
 10
517.7192724333829
 20
1285.148015524081
 30
0.0
 10
522.291210852892
 20
1285.14824789677
 30
0.0
 10
526.9070803697682
 20
1285.148492567043
 30
0.0
 10
531.5668522677751
 20
1285.148747232336
 30
0.0
 10
536.2704951720798
 20
1285.149009593394
 30
0.0
 10
541.0179749821903
 20
1285.14927735539
 30
0.0
 10
545.8092548041423
 20
1285.149548227913
 30
0.0
 10
550.6442948819274
 20
1285.149819928476
 30
0.0
 10
555.5230525281777
 20
1285.150090173016
 30
0.0
 10
560.4454820529065
 20
1285.150356715498
 30
0.0
 10
565.4115346746867
 20
1285.150617201903
 30
0.0
 10
570.4211584321008
 20
1285.150869898923
 30
0.0
 10
575.474298110384
 20
1285.151113547241
 30
0.0
 10
580.570895184986
 20
1285.151346847939
 30
0.0
 10
585.7108877612022
 20
1285.151568587517
 30
0.0
 10
590.8942104996671
 20
1285.151777606266
 30
0.0
 10
596.1207945405656
 20
1285.151972809171
 30
0.0
 10
601.3905674270459
 20
1285.152153165298
 30
0.0
 10
606.7034530277926
 20
1285.152317710318
 30
0.0
 10
612.0593714587717
 20
1285.152465548196
 30
0.0
 10
617.4582390041282
 20
1285.152595853109
 30
0.0
 10
622.8999680362357
 20
1285.152707871402
 30
0.0
 10
628.3844669348886
 20
1285.152800923216
 30
0.0
 10
633.9116400056278
 20
1285.152874405484
 30
0.0
 10
639.4813873971991
 20
1285.152927789798
 30
0.0
 10
645.0936049251605
 20
1285.152960639719
 30
0.0
 10
650.748183112386
 20
1285.152972554721
 30
0.0
 10
656.445006581852
 20
1285.152963535621
 30
0.0
 10
662.1839539927654
 20
1285.152933791394
 30
0.0
 10
667.9648987605568
 20
1285.152883609368
 30
0.0
 10
673.7877094206956
 20
1285.152813391091
 30
0.0
 10
679.6522495406106
 20
1285.152723647012
 30
0.0
 10
685.5583778168202
 20
1285.152614995507
 30
0.0
 10
691.5059527167281
 20
1285.152488186373
 30
0.0
 10
697.494837538356
 20
1285.152344004289
 30
0.0
 10
703.5249007813909
 20
1285.152183261871
 30
0.0
 10
709.5960053500672
 20
1285.15200690523
 30
0.0
 10
715.7079778099272
 20
1285.151815993715
 30
0.0
 10
721.8606003548653
 20
1285.151611669959
 30
0.0
 10
728.0536199616913
 20
1285.151395190513
 30
0.0
 10
734.2868398415017
 20
1285.151167959115
 30
0.0
 10
740.5601798064258
 20
1285.150931354876
 30
0.0
 10
746.8736757537513
 20
1285.150686774571
 30
0.0
 10
753.2271641283553
 20
1285.150435788776
 30
0.0
 10
759.6198227948461
 20
1285.150180018427
 30
0.0
 10
766.0506667420503
 20
1285.149920952813
 30
0.0
 10
772.5193180147505
 20
1285.149660199805
 30
0.0
 10
779.0255412197739
 20
1285.14939945469
 30
0.0
 10
785.5688686932738
 20
1285.149140326777
 30
0.0
 10
792.148161284144
 20
1285.148884317745
 30
0.0
 10
798.7598825876978
 20
1285.148633108646
 30
0.0
 10
805.4000849748553
 20
1285.148388149079
 30
0.0
 10
812.06254881974
 20
1285.148150855003
 30
0.0
 10
818.7380063762748
 20
1285.14792266445
 30
0.0
 10
825.4140698765812
 20
1285.147704661186
 30
0.0
 10
832.0739982662742
 20
1285.147497992765
 30
0.0
 10
838.6990713514799
 20
1285.147303783399
 30
0.0
 10
845.2749638508511
 20
1285.147122694812
 30
0.0
 10
851.7844232067065
 20
1285.146955579916
 30
0.0
 10
858.2361024032166
 20
1285.146803038056
 30
0.0
 10
864.6247804072314
 20
1285.146665554021
 30
0.0
 10
870.9394211215879
 20
1285.146543389539
 30
0.0
 10
877.1698697192198
 20
1285.14643674647
 30
0.0
 10
883.3054514626895
 20
1285.146345729307
 30
0.0
 10
889.3351246119284
 20
1285.146270180383
 30
0.0
 10
895.24774698831
 20
1285.146209978513
 30
0.0
 10
901.0312486278232
 20
1285.146164668932
 30
0.0
 10
906.6728740967167
 20
1285.146133866781
 30
0.0
 10
912.1596515679693
 20
1285.146116869361
 30
0.0
 10
917.4775066747951
 20
1285.146112976342
 30
0.0
 10
922.6134633468586
 20
1285.14612131024
 30
0.0
 10
927.554687481933
 20
1285.14614095331
 30
0.0
 10
932.287947130043
 20
1285.146170802387
 30
0.0
 10
936.7999717185054
 20
1285.146209545954
 30
0.0
 10
941.077074357123
 20
1285.146255894128
 30
0.0
 10
945.1050045541662
 20
1285.146308541644
 30
0.0
 10
948.8697392017086
 20
1285.14636611264
 30
0.0
 10
952.3594841294414
 20
1285.146427022756
 30
0.0
 10
955.5617723276489
 20
1285.146489688206
 30
0.0
 10
958.4638880439662
 20
1285.146552493026
 30
0.0
 10
961.053071580015
 20
1285.146613801259
 30
0.0
 10
963.3205604799373
 20
1285.146671994203
 30
0.0
 10
965.257575579889
 20
1285.146725437448
 30
0.0
 10
966.8544625641124
 20
1285.146772444705
 30
0.0
 10
968.1042006897949
 20
1285.14681140699
 30
0.0
 10
968.9946946721155
 20
1285.146840711413
 30
0.0
 10
969.5549917653542
 20
1285.146860250096
 30
0.0
 10
969.6243261723733
 20
1285.146862875336
 30
0.0
 10
969.659078242657
 20
1285.146864167005
 30
0.0
  0
SPLINE
  5
C2
330
B2
100
AcDbEntity
  8
DV2_Standard
 62
     7
100
AcDbSpline
210
0.0
220
0.0
230
1.0
 70
     8
 71
     2
 72
    20
 73
    17
 74
     0
 42
0.000000001
 43
0.0000000001
 40
0.0
 40
0.0
 40
0.0
 40
0.25
 40
0.25
 40
0.3125
 40
0.3125
 40
0.375
 40
0.375
 40
0.5
 40
0.5
 40
0.625
 40
0.625
 40
0.75
 40
0.75
 40
0.875
 40
0.875
 40
1.0
 40
1.0
 40
1.0
 10
478.5375368029169
 20
987.6041818463923
 30
0.0
 10
629.7344289026663
 20
987.6067087506575
 30
0.0
 10
632.9527592209736
 20
987.6067625442452
 30
0.0
 10
659.2952597613272
 20
987.6072028525641
 30
0.0
 10
664.8541462978569
 20
987.6072957195886
 30
0.0
 10
685.4339060494773
 20
987.6076395260401
 30
0.0
 10
694.2453563317736
 20
987.6077889790092
 30
0.0
 10
722.2791062540894
 20
987.6082644656801
 30
0.0
 10
743.6025467635236
 20
987.6086574455803
 30
0.0
 10
763.7996631910315
 20
987.6090296679145
 30
0.0
 10
779.4433336120903
 20
987.6093561375606
 30
0.0
 10
795.6069048598206
 20
987.6096934570799
 30
0.0
 10
808.5974297989569
 20
987.6100136466572
 30
0.0
 10
821.5347094400548
 20
987.6103325238481
 30
0.0
 10
827.9209870734736
 20
987.6105531327586
 30
0.0
 10
834.1474964737542
 20
987.6107682226019
 30
0.0
 10
834.1479386974569
 20
987.6108868293923
 30
0.0
  0
SPLINE
  5
C3
330
B2
100
AcDbEntity
  8
DV2_Standard
 62
     7
100
AcDbSpline
210
0.0
220
0.0
230
1.0
 70
     8
 71
     3
 72
    25
 73
    21
 74
     0
 42
0.000000001
 43
0.0000000001
 40
0.0
 40
0.0
 40
0.0
 40
0.0
 40
0.05555555555556
 40
0.1111111111111
 40
0.1666666666667
 40
0.2222222222222
 40
0.2777777777778
 40
0.3333333333333
 40
0.3888888888889
 40
0.4444444444444
 40
0.5
 40
0.5555555555556
 40
0.6111111111111
 40
0.6666666666667
 40
0.7222222222222
 40
0.7777777777778
 40
0.8333333333333
 40
0.8888888888889
 40
0.9444444444444
 40
1.0
 40
1.0
 40
1.0
 40
1.0
 10
969.5810428290443
 20
1249.436290755522
 30
0.0
 10
969.5806938890569
 20
1249.429119171152
 30
0.0
 10
968.408769460757
 20
1249.400766176742
 30
0.0
 10
962.9660374652569
 20
1249.280527223112
 30
0.0
 10
953.8599892076569
 20
1249.216323666632
 30
0.0
 10
941.4004689256569
 20
1249.164277550612
 30
0.0
 10
926.0975405538569
 20
1249.110711918672
 30
0.0
 10
908.6798189754569
 20
1249.006670631002
 30
0.0
 10
888.8463115558569
 20
1248.720164445162
 30
0.0
 10
865.5599126912568
 20
1248.461071215302
 30
0.0
 10
839.092151026057
 20
1247.975621704232
 30
0.0
 10
810.8111462417569
 20
1248.033386070182
 30
0.0
 10
780.6389755111569
 20
1247.855462230162
 30
0.0
 10
747.7151963307568
 20
1247.842802968212
 30
0.0
 10
711.7561814566569
 20
1247.801774863092
 30
0.0
 10
672.598274150157
 20
1247.821703972562
 30
0.0
 10
630.020023847457
 20
1247.793913538552
 30
0.0
 10
583.9232292922569
 20
1247.792030421252
 30
0.0
 10
534.048125392457
 20
1247.772037025942
 30
0.0
 10
497.5666070329769
 20
1247.754082831192
 30
0.0
 10
478.5375368028419
 20
1247.743321482612
 30
0.0
  0
ARC
  5
C4
330
B2
100
AcDbEntity
  8
DV2_Standard
 62
     7
100
AcDbCircle
 10
-790.0634829654
 20
1271.19825166
 30
0.0
 40
1759.77784399003
100
AcDbArc
 50
0.4541510739
 51
0.6190611187
  0
SPLINE
  5
C5
330
B2
100
AcDbEntity
  8
DV2_Standard
 62
     7
100
AcDbSpline
210
0.0
220
0.0
230
1.0
 70
    12
 71
     3
 72
     8
 73
     4
 74
     0
 42
0.000000001
 43
0.0000000001
 40
0.0
 40
0.0
 40
0.0
 40
0.0
 40
1.0
 40
1.0
 40
1.0
 40
1.0
 10
969.6116432938569
 20
1290.211673830241
 30
0.0
 41
1.152853471365604
 10
969.579585300033
 20
1293.178461558185
 30
0.0
 41
0.9660813946024168
 10
967.6800427041578
 20
1295.489638680463
 30
0.0
 41
0.9504723032794152
 10
964.7158317797785
 20
1296.044449638861
 30
0.0
 41
1.106026197396844
  0
LINE
  5
C6
330
B2
100
AcDbEntity
  8
DV2_Standard
 62
     7
100
AcDbLine
 10
478.5375368572
 20
1290.0455245498
 30
0.0
 11
478.5375367489
 21
1285.1468641661
 31
0.0
  0
SPLINE
  5
C7
330
B2
100
AcDbEntity
  8
DV2_Standard
 62
     7
100
AcDbSpline
210
0.0
220
0.0
230
1.0
 70
    12
 71
     3
 72
     8
 73
     4
 74
     0
 42
0.000000001
 43
0.0000000001
 40
0.0
 40
0.0
 40
0.0
 40
0.0
 40
1.0
 40
1.0
 40
1.0
 40
1.0
 10
478.5377958792194
 20
1296.044669263177
 30
0.0
 41
1.10609790430543
 10
478.5386932561822
 20
1295.475860601191
 30
0.0
 41
0.9469820973383994
 10
478.5403053584175
 20
1293.076595577504
 30
0.0
 41
0.9668366493469136
 10
478.5375368572369
 20
1290.045524549847
 30
0.0
 41
1.165661560330711
  0
LINE
  5
C8
330
B2
100
AcDbEntity
  8
DV2_Standard
 62
     7
100
AcDbLine
 10
964.7158664553
 20
1296.0444431434
 30
0.0
 11
478.5375601201
 21
1296.0444422297
 31
0.0
  0
SPLINE
  5
C9
330
B2
100
AcDbEntity
  8
DV2_Standard
 62
     7
100
AcDbSpline
210
0.0
220
0.0
230
1.0
 70
     8
 71
     3
 72
    25
 73
    21
 74
     0
 42
0.000000001
 43
0.0000000001
 40
0.0
 40
0.0
 40
0.0
 40
0.0
 40
0.0556168680206329
 40
0.1112337360412458
 40
0.1668506040619187
 40
0.2224674720824915
 40
0.2780843401031644
 40
0.3337012081237373
 40
0.3893180761444102
 40
0.444934944164983
 40
0.5005518121856559
 40
0.5561686802063288
 40
0.6117855482269016
 40
0.6674024162475747
 40
0.7230192842681474
 40
0.7786361522888203
 40
0.8342530203093931
 40
0.8898698883300662
 40
0.945486756350639
 40
0.9999999999999999
 40
0.9999999999999999
 40
0.9999999999999999
 40
0.9999999999999999
 10
968.4491735279225
 20
1243.025420336438
 30
0.0
 10
968.4488245879351
 20
1243.018248752069
 30
0.0
 10
967.276900159635
 20
1242.989895757659
 30
0.0
 10
961.8341681641351
 20
1242.869656804029
 30
0.0
 10
952.7281199065352
 20
1242.805453247549
 30
0.0
 10
940.268599624535
 20
1242.753407131529
 30
0.0
 10
924.9656712527351
 20
1242.699841499589
 30
0.0
 10
907.5479496743351
 20
1242.595800211919
 30
0.0
 10
887.7144422547352
 20
1242.309294026079
 30
0.0
 10
864.428043390135
 20
1242.050200796219
 30
0.0
 10
837.960281724935
 20
1241.564751285149
 30
0.0
 10
809.6792769406351
 20
1241.622515651099
 30
0.0
 10
779.5071062100351
 20
1241.444591811079
 30
0.0
 10
746.5833270296351
 20
1241.431932549129
 30
0.0
 10
710.6243121555351
 20
1241.390904444009
 30
0.0
 10
671.466404849035
 20
1241.410833553479
 30
0.0
 10
628.888154546335
 20
1241.383043119469
 30
0.0
 10
582.7913599911351
 20
1241.381160002169
 30
0.0
 10
533.2461522909623
 20
1241.3612988521
 30
0.0
 10
497.1583347688975
 20
1241.343568227975
 30
0.0
 10
478.5375370168454
 20
1241.333089584012
 30
0.0
  0
ENDBLK
  5
CB
330
B2
100
AcDbEntity
  8
0
100
AcDbBlockEnd
  0
BLOCK
  5
10F
330
CC
100
AcDbEntity
  8
0
100
AcDbBlockBegin
  2
SE2
 70
     0
 10
0.0
 20
0.0
 30
0.0
  3
SE2
  1

  0
ARC
  5
CF
330
CC
100
AcDbEntity
  8
DV3_Standard
 62
     7
100
AcDbCircle
 10
58.2027152471
 20
260.1157518528
 30
0.0
 40
128.8563743565146
100
AcDbArc
 50
14.8519051658
 51
23.3234401026
  0
ARC
  5
D0
330
CC
100
AcDbEntity
  8
DV3_Standard
 62
     7
100
AcDbCircle
 10
-45.6554169693
 20
229.4760832667
 30
0.0
 40
237.1172917969594
100
AcDbArc
 50
13.4491111841
 51
15.575613741
  0
ARC
  5
D1
330
CC
100
AcDbEntity
  8
DV3_Standard
 62
     7
100
AcDbCircle
 10
285.2882803995
 20
308.6244419896
 30
0.0
 40
103.1593509687373
100
AcDbArc
 50
193.4526865865
 51
200.0965640603
  0
ARC
  5
D2
330
CC
100
AcDbEntity
  8
DV3_Standard
 62
     7
100
AcDbCircle
 10
180.9877278289
 20
269.7962515663
 30
0.0
 40
8.15641155549376
100
AcDbArc
 50
18.1927462288
 51
24.4990752509
  0
ARC
  5
D3
330
CC
100
AcDbEntity
  8
DV3_Standard
 62
     7
100
AcDbCircle
 10
219.2430788355
 20
283.1435775853
 30
0.0
 40
32.36222148075373
100
AcDbArc
 50
199.4963250968
 51
226.8893673043
  0
ARC
  5
D4
330
CC
100
AcDbEntity
  8
DV3_Standard
 62
     7
100
AcDbCircle
 10
178.15362029
 20
234.478999947
 30
0.0
 40
31.41527819790963
100
AcDbArc
 50
48.6057494775
 51
52.8476858075
  0
ARC
  5
D5
330
CC
100
AcDbEntity
  8
DV3_Standard
 62
     7
100
AcDbCircle
 10
215.3246318337
 20
280.7294588471
 30
0.0
 40
27.98990642463968
100
AcDbArc
 50
234.1364500991
 51
270.5012726964
  0
SPLINE
  5
D6
330
CC
100
AcDbEntity
  8
DV3_Standard
 62
     7
100
AcDbSpline
210
0.0
220
0.0
230
1.0
 70
     8
 71
     3
 72
    25
 73
    21
 74
     0
 42
0.000000001
 43
0.0000000001
 40
0.0
 40
0.0
 40
0.0
 40
0.0
 40
0.0624999999999988
 40
0.1249999999999976
 40
0.1249999999999976
 40
0.2499999999999972
 40
0.2499999999999972
 40
0.3749999999999967
 40
0.3749999999999967
 40
0.4999999999999963
 40
0.4999999999999963
 40
0.6249999999999959
 40
0.6249999999999959
 40
0.6874999999999966
 40
0.7499999999999972
 40
0.812499999999998
 40
0.8749999999999987
 40
0.9374999999999993
 40
0.9374999999999993
 40
1.0
 40
1.0
 40
1.0
 40
1.0
 10
254.6095077268188
 20
311.1327215720833
 30
0.0
 10
254.0301209205321
 20
309.7096131292648
 30
0.0
 10
252.859340893794
 20
306.8557751719763
 30
0.0
 10
251.7587554953744
 20
303.9492484114464
 30
0.0
 10
250.2078376923026
 20
299.5377738576678
 30
0.0
 10
249.3071646608422
 20
296.527881053369
 30
0.0
 10
247.6458231519296
 20
290.435244481935
 30
0.0
 10
246.8851531497359
 20
287.352500703512
 30
0.0
 10
245.2891494131411
 20
281.179552690918
 30
0.0
 10
244.453813959073
 20
278.0893491992179
 30
0.0
 10
242.3742458371897
 20
272.0161717903746
 30
0.0
 10
241.1300125824383
 20
269.0332003552517
 30
0.0
 10
238.6645709418717
 20
264.8904315063887
 30
0.0
 10
236.8212466872408
 20
262.2391492875616
 30
0.0
 10
233.4179589599251
 20
258.8004253454869
 30
0.0
 10
229.4271330919041
 20
256.071274029404
 30
0.0
 10
225.0071079396365
 20
254.1407557939686
 30
0.0
 10
221.896958495654
 20
253.3843387770439
 30
0.0
 10
218.7499794960243
 20
252.8731527352676
 30
0.0
 10
217.1581328004649
 20
252.7384607888967
 30
0.0
 10
215.5695084545524
 20
252.7406236247833
 30
0.0
  0
SPLINE
  5
D7
330
CC
100
AcDbEntity
  8
DV3_Standard
 62
     7
100
AcDbSpline
210
0.0
220
0.0
230
1.0
 70
     8
 71
     3
 72
    66
 73
    62
 74
     0
 42
0.000000001
 43
0.0000000001
 40
0.0
 40
0.0
 40
0.0
 40
0.0
 40
0.00395647563967
 40
0.0080419505151296
 40
0.0122564500384787
 40
0.0165999973398722
 40
0.0210726135299975
 40
0.0256743179258326
 40
0.030405128245691
 40
0.0352650607784211
 40
0.0402541305307657
 40
0.0453723513561714
 40
0.0506197360677743
 40
0.0559962965378546
 40
0.0615020437856311
 40
0.0671369880550195
 40
0.0729011388836913
 40
0.0787945051645715
 40
0.0848170952007501
 40
0.0909689167546396
 40
0.0972499770920684
 40
0.1036602830219623
 40
0.1101998409320742
 40
0.1168686568212913
 40
0.1236667363288493
 40
0.1305940847608354
 40
0.1376507071142629
 40
0.1448366080989836
 40
0.1679705687682884
 40
0.1894727563988449
 40
0.209343163004541
 40
0.2275818203004824
 40
0.2441888117262232
 40
0.2591642910159284
 40
0.2725085121138784
 40
0.2842218799041101
 40
0.3121942071530293
 40
0.3392950761965501
 40
0.3655342047773582
 40
0.3909223037909541
 40
0.4154712017112969
 40
0.4391939859961831
 40
0.462105163505342
 40
0.4842208419733463
 40
0.5055589344424088
 40
0.5396866935595285
 40
0.5742702330012156
 40
0.6093852818683432
 40
0.64510418693139
 40
0.6814956918570991
 40
0.7186248027399796
 40
0.7489619813704859
 40
0.7809026506157092
 40
0.8144673159210386
 40
0.8496736157759387
 40
0.8899746678056514
 40
0.9351543625517335
 40
0.9852211940050485
 40
0.9900318578742653
 40
0.9949581255171814
 40
1.0
 40
1.0
 40
1.0
 40
1.0
 10
261.7456680288931
 20
352.8632445227898
 30
0.0
 10
261.7366917369398
 20
352.8510601461436
 30
0.0
 10
261.7184464938658
 20
352.826294166419
 30
0.0
 10
261.6907551729951
 20
352.7897876332794
 30
0.0
 10
261.6623054517341
 20
352.7530947402146
 30
0.0
 10
261.6331337595238
 20
352.7164012100009
 30
0.0
 10
261.6032684858811
 20
352.6797800760819
 30
0.0
 10
261.5727413222459
 20
352.6433409598355
 30
0.0
 10
261.5415840550392
 20
352.6071882675198
 30
0.0
 10
261.5098294336715
 20
352.5714329437358
 30
0.0
 10
261.477510894124
 20
352.5361892230762
 30
0.0
 10
261.4446625986764
 20
352.5015755671271
 30
0.0
 10
261.4113193832703
 20
352.4677144223863
 30
0.0
 10
261.3775167263482
 20
352.4347322959804
 30
0.0
 10
261.343290707195
 20
352.4027597307272
 30
0.0
 10
261.3086779624584
 20
352.3719312951381
 30
0.0
 10
261.2737156382568
 20
352.3423855551568
 30
0.0
 10
261.2384413382139
 20
352.3142650358792
 30
0.0
 10
261.2028930677402
 20
352.2877161697187
 30
0.0
 10
261.167109171864
 20
352.2628892316203
 30
0.0
 10
261.1311282763923
 20
352.2399382573857
 30
0.0
 10
261.0949891939556
 20
352.2190209553896
 30
0.0
 10
261.0587309421695
 20
352.2002985681278
 30
0.0
 10
261.0223923069613
 20
352.1839358468188
 30
0.0
 10
260.9860131296721
 20
352.1701005074379
 30
0.0
 10
260.9496289479156
 20
352.1589645903842
 30
0.0
 10
260.9132911266107
 20
352.1506984194359
 30
0.0
 10
260.8503512210101
 20
352.1416730877807
 30
0.0
 10
260.7675988332696
 20
352.1453506444641
 30
0.0
 10
260.6734134495965
 20
352.1796451003323
 30
0.0
 10
260.5937588382865
 20
352.2368570480531
 30
0.0
 10
260.5269641031255
 20
352.3108733006155
 30
0.0
 10
260.4715098845487
 20
352.3960568723796
 30
0.0
 10
260.4261097161158
 20
352.4872719159363
 30
0.0
 10
260.3896004755775
 20
352.5799309627619
 30
0.0
 10
260.3467159450458
 20
352.7157699595406
 30
0.0
 10
260.3043933467303
 20
352.9128454690721
 30
0.0
 10
260.2716548416892
 20
353.1957538275436
 30
0.0
 10
260.2580585516507
 20
353.5087125675646
 30
0.0
 10
260.2620356869276
 20
353.8466071651856
 30
0.0
 10
260.2822458337335
 20
354.2044786241109
 30
0.0
 10
260.3174535235298
 20
354.5775843123585
 30
0.0
 10
260.3665810168826
 20
354.961428938142
 30
0.0
 10
260.4286327528416
 20
355.3518455447713
 30
0.0
 10
260.5186516347997
 20
355.8279992194246
 30
0.0
 10
260.6495274971801
 20
356.4064013282177
 30
0.0
 10
260.8325860097301
 20
357.1001648000401
 30
0.0
 10
261.0470431430117
 20
357.8218431959072
 30
0.0
 10
261.2896144460407
 20
358.5623138534944
 30
0.0
 10
261.556867663647
 20
359.3113099418447
 30
0.0
 10
261.8259379324251
 20
360.0066566733813
 30
0.0
 10
262.0918502091916
 20
360.6476946591316
 30
0.0
 10
262.3506903539121
 20
361.2389684883906
 30
0.0
 10
262.6215799001811
 20
361.824238810684
 30
0.0
 10
262.9097360555417
 20
362.4102175679311
 30
0.0
 10
263.2188203549033
 20
362.9922817967516
 30
0.0
 10
263.5458524045832
 20
363.5525085211117
 30
0.0
 10
263.7668635224967
 20
363.8816809504639
 30
0.0
 10
263.8907468710866
 20
364.0462718399965
 30
0.0
 10
263.9210194868793
 20
364.085660306387
 30
0.0
 10
263.9411110250471
 20
364.110999287643
 30
0.0
 10
263.9514288445505
 20
364.1240104015604
 30
0.0
  0
ARC
  5
D8
330
CC
100
AcDbEntity
  8
DV3_Standard
 62
     7
100
AcDbCircle
 10
215.8346990924
 20
401.4574536937
 30
0.0
 40
32.55016851362472
100
AcDbArc
 50
269.5331663499
 51
300.1815885417
  0
SPLINE
  5
D9
330
CC
100
AcDbEntity
  8
DV3_Standard
 62
     7
100
AcDbSpline
210
0.0
220
0.0
230
1.0
 70
     8
 71
     3
 72
    64
 73
    60
 74
     0
 42
0.000000001
 43
0.0000000001
 40
0.0
 40
0.0
 40
0.0
 40
0.0
 40
0.0624999999999992
 40
0.0624999999999992
 40
0.0781249999999991
 40
0.0781249999999991
 40
0.0937499999999989
 40
0.1249999999999985
 40
0.1249999999999985
 40
0.1562499999999981
 40
0.1562499999999981
 40
0.1874999999999978
 40
0.2187499999999974
 40
0.2187499999999974
 40
0.249999999999997
 40
0.249999999999997
 40
0.2812499999999966
 40
0.2812499999999966
 40
0.3124999999999962
 40
0.3124999999999962
 40
0.3749999999999947
 40
0.3749999999999947
 40
0.4374999999999931
 40
0.4374999999999931
 40
0.4687499999999928
 40
0.4687499999999928
 40
0.4999999999999925
 40
0.5312499999999922
 40
0.5312499999999922
 40
0.5624999999999919
 40
0.5624999999999919
 40
0.5937499999999917
 40
0.5937499999999917
 40
0.6249999999999913
 40
0.6249999999999913
 40
0.6874999999999917
 40
0.6874999999999917
 40
0.7187499999999922
 40
0.7187499999999922
 40
0.7343749999999932
 40
0.7343749999999932
 40
0.7499999999999941
 40
0.7499999999999941
 40
0.7656249999999951
 40
0.7656249999999951
 40
0.781249999999996
 40
0.7968749999999969
 40
0.7968749999999969
 40
0.8124999999999979
 40
0.8124999999999979
 40
0.8437499999999984
 40
0.8437499999999984
 40
0.8749999999999991
 40
0.8749999999999991
 40
0.9062499999999997
 40
0.9062499999999997
 40
0.9375000000000003
 40
0.9375000000000003
 40
1.0
 40
1.0
 40
1.0
 40
1.0
 10
215.5694902763188
 20
425.5717356796833
 30
0.0
 10
218.059584818343
 20
425.5712491907798
 30
0.0
 10
220.377480285946
 20
425.4551938647392
 30
0.0
 10
223.0543077841257
 20
425.1806345706038
 30
0.0
 10
223.578640057084
 20
425.1192486307658
 30
0.0
 10
224.6051442546965
 20
424.9839018502702
 30
0.0
 10
226.1117980176718
 20
424.7620096123513
 30
0.0
 10
227.5230681622077
 20
424.4848748562368
 30
0.0
 10
229.3269519969169
 20
424.0686993592167
 30
0.0
 10
230.1900157784584
 20
423.837274224793
 30
0.0
 10
231.8451951960468
 20
423.330229501329
 30
0.0
 10
233.4290259601433
 20
422.7790824148979
 30
0.0
 10
234.8753666917395
 20
422.1466243266426
 30
0.0
 10
236.2555658247214
 20
421.4769574353697
 30
0.0
 10
236.9122577087645
 20
421.1238445066251
 30
0.0
 10
238.1648598507447
 20
420.3811975117977
 30
0.0
 10
238.7609311777363
 20
419.9915080962249
 30
0.0
 10
239.8997681443564
 20
419.1744546519386
 30
0.0
 10
240.4426900026742
 20
418.7470241484471
 30
0.0
 10
242.0011455969918
 20
417.4072668562249
 30
0.0
 10
242.944339698941
 20
416.4383378982176
 30
0.0
 10
244.6374057092458
 20
414.366528046435
 30
0.0
 10
245.3876316890202
 20
413.2651174700109
 30
0.0
 10
246.3609553949095
 20
411.5020660749984
 30
0.0
 10
246.6602063091433
 20
410.8956290617047
 30
0.0
 10
247.2059326035667
 20
409.6445780153504
 30
0.0
 10
247.698312863573
 20
408.3561627548565
 30
0.0
 10
248.0736983533832
 20
406.9995329149382
 30
0.0
 10
248.385435284616
 20
405.6120527771215
 30
0.0
 10
248.5094040580902
 20
404.9030486947274
 30
0.0
 10
248.6904062215019
 20
403.4534641719698
 30
0.0
 10
248.7474468913195
 20
402.7128681770661
 30
0.0
 10
248.7915166004355
 20
401.198924158896
 30
0.0
 10
248.7786304657543
 20
400.4253499051786
 30
0.0
 10
248.62958319562
 20
398.0557436458843
 30
0.0
 10
248.3829992909952
 20
396.4115246470703
 30
0.0
 10
247.7626373422599
 20
393.8669894807235
 30
0.0
 10
247.514071826166
 20
393.0058600560957
 30
0.0
 10
247.0758425366706
 20
391.6990381297663
 30
0.0
 10
246.9187794639532
 20
391.2606932936802
 30
0.0
 10
246.5830576118262
 20
390.3812426317461
 30
0.0
 10
246.404454299471
 20
389.9402703364154
 30
0.0
 10
246.0265417548147
 20
389.0595119606376
 30
0.0
 10
245.827214441097
 20
388.6197254732022
 30
0.0
 10
245.4087128178679
 20
387.7450206325055
 30
0.0
 10
244.9705322581925
 20
386.8751877087334
 30
0.0
 10
244.4973543068519
 20
386.0225218869353
 30
0.0
 10
244.0088578582486
 20
385.1821512231405
 30
0.0
 10
243.7569751267686
 20
384.7682527303799
 30
0.0
 10
242.9812641116872
 20
383.5485674753536
 30
0.0
 10
242.437446193748
 20
382.7647561348015
 30
0.0
 10
241.3104392395952
 20
381.2688231682559
 30
0.0
 10
240.7266214802505
 20
380.5557466799857
 30
0.0
 10
239.5212947226086
 20
379.1956634182138
 30
0.0
 10
238.8995886063196
 20
378.5484586730888
 30
0.0
 10
237.6272041402888
 20
377.322215655441
 30
0.0
 10
236.977078218066
 20
376.7435808815604
 30
0.0
 10
234.9900086879994
 20
375.1087318278354
 30
0.0
 10
233.6155283395751
 20
374.152874007445
 30
0.0
 10
232.1990422295388
 20
373.3199032680832
 30
0.0
  0
SPLINE
  5
DA
330
CC
100
AcDbEntity
  8
DV3_Standard
 62
     7
100
AcDbSpline
210
0.0
220
0.0
230
1.0
 70
     8
 71
     3
 72
   103
 73
    99
 74
     0
 42
0.000000001
 43
0.0000000001
 40
0.0
 40
0.0
 40
0.0
 40
0.0
 40
0.0039600080752877
 40
0.0079203082101513
 40
0.0118809006203931
 40
0.0158417855217637
 40
0.0198029631299642
 40
0.0237644336606525
 40
0.0277261973294346
 40
0.0316882543518719
 40
0.0356506049434768
 40
0.0396132493197112
 40
0.0435761876959931
 40
0.0475394202876908
 40
0.0515029473101253
 40
0.0554667689785669
 40
0.0594308855082408
 40
0.0633952971143232
 40
0.0673600040119446
 40
0.0713250064161797
 40
0.0752903045420674
 40
0.0792558986045887
 40
0.0832217888186778
 40
0.0871879753992237
 40
0.0911544585610669
 40
0.095121238518999
 40
0.0990883154877629
 40
0.1030556896820513
 40
0.1070233613165137
 40
0.1109913306057461
 40
0.1149595977643017
 40
0.1189281630066808
 40
0.1228970265473356
 40
0.1268661886006742
 40
0.1308356493810502
 40
0.1348054091027749
 40
0.1387754679801057
 40
0.1560606864774998
 40
0.1732822002225257
 40
0.1904404037165321
 40
0.2075356958442428
 40
0.2245684799107039
 40
0.2415391636778605
 40
0.2584481594007476
 40
0.2752958838632427
 40
0.3072923802888456
 40
0.3383041050859781
 40
0.368338366269899
 40
0.3974032148522392
 40
0.4255075406777006
 40
0.4526611827365279
 40
0.4788750562766083
 40
0.5041612993667121
 40
0.5514165175870634
 40
0.5981106415243291
 40
0.6443447457571205
 40
0.6902229459310912
 40
0.7358517946034951
 40
0.7416837027663213
 40
0.7475525937700892
 40
0.7534587093537299
 40
0.7594022867138407
 40
0.7653835585898769
 40
0.7714027533484605
 40
0.7774600950667212
 40
0.7835558036146425
 40
0.789690094736365
 40
0.7958631801304197
 40
0.8020752675288735
 40
0.8083265607753244
 40
0.814617259901781
 40
0.8209475612043565
 40
0.8273176573177876
 40
0.8337277372887701
 40
0.8401779866480887
 40
0.8466685874815376
 40
0.8531997184996404
 40
0.8597715551061322
 40
0.866384269465264
 40
0.8730380305678624
 40
0.8797330042962034
 40
0.8864693534876605
 40
0.8932472379971875
 40
0.9000668147585764
 40
0.90692823784456
 40
0.9138316585257433
 40
0.920777225328357
 40
0.9277650840908813
 40
0.9347953780195319
 40
0.9418682477426263
 40
0.9489838313638329
 40
0.9561422645143445
 40
0.9633436804039563
 40
0.9705882098710983
 40
0.9778759814318146
 40
0.9852071213277203
 40
0.9925817535729277
 40
1.0
 40
1.0
 40
1.0
 40
1.0
 10
263.9514288445505
 20
364.1240104015604
 30
0.0
 10
263.9587867433528
 20
364.1331729025687
 30
0.0
 10
263.9735030740045
 20
364.1514985445104
 30
0.0
 10
263.9952806720436
 20
364.1779906793028
 30
0.0
 10
264.0168422012065
 20
364.2037490406265
 30
0.0
 10
264.0381664983855
 20
364.2286979537074
 30
0.0
 10
264.0592595583045
 20
364.2528522488772
 30
0.0
 10
264.080120142031
 20
364.2762026420381
 30
0.0
 10
264.100748993117
 20
364.2987464510103
 30
0.0
 10
264.1211463678111
 20
364.3204793649141
 30
0.0
 10
264.1413126968466
 20
364.3413976504982
 30
0.0
 10
264.161248408027
 20
364.3614975615652
 30
0.0
 10
264.1809539736944
 20
364.3807754978902
 30
0.0
 10
264.2004298979277
 20
364.3992279632698
 30
0.0
 10
264.219676719886
 20
364.416851577382
 30
0.0
 10
264.2386950128194
 20
364.4336430732039
 30
0.0
 10
264.2574853842351
 20
364.4495992982821
 30
0.0
 10
264.276048475747
 20
364.4647172149472
 30
0.0
 10
264.2943849630057
 20
364.4789939007952
 30
0.0
 10
264.3124955555992
 20
364.4924265490741
 30
0.0
 10
264.3303809969569
 20
364.5050124690769
 30
0.0
 10
264.3480420642456
 20
364.5167490865123
 30
0.0
 10
264.3654795682636
 20
364.527633943861
 30
0.0
 10
264.3826943533258
 20
364.5376647007158
 30
0.0
 10
264.3996872971537
 20
364.5468391341039
 30
0.0
 10
264.4164593107313
 20
364.5551551387998
 30
0.0
 10
264.4330113382634
 20
364.5626107275947
 30
0.0
 10
264.4493443567303
 20
364.5692040316534
 30
0.0
 10
264.4654593769279
 20
364.5749333004644
 30
0.0
 10
264.4813574389401
 20
364.5797969032355
 30
0.0
 10
264.4970396283748
 20
364.5837933248116
 30
0.0
 10
264.5125070150744
 20
364.5869211819629
 30
0.0
 10
264.5277608811695
 20
364.5891791635649
 30
0.0
 10
264.5428018691475
 20
364.5905662547644
 30
0.0
 10
264.5576331609075
 20
364.5910809011127
 30
0.0
 10
264.5722486112597
 20
364.5907241291444
 30
0.0
 10
264.6028071510266
 20
364.5881058693726
 30
0.0
 10
264.6469147726331
 20
364.5767361599596
 30
0.0
 10
264.7002851542127
 20
364.5454112067043
 30
0.0
 10
264.7478588323951
 20
364.4981736300626
 30
0.0
 10
264.7897629787138
 20
364.4351955480311
 30
0.0
 10
264.8261716252224
 20
364.3566794097489
 30
0.0
 10
264.8572702747109
 20
364.2628698470847
 30
0.0
 10
264.8831979635771
 20
364.1540516800501
 30
0.0
 10
264.9106620826313
 20
363.9933710111554
 30
0.0
 10
264.9321379618947
 20
363.7642408228465
 30
0.0
 10
264.9384315260445
 20
363.4481447644522
 30
0.0
 10
264.9274947722424
 20
363.0977651176278
 30
0.0
 10
264.9010546979617
 20
362.7194486048164
 30
0.0
 10
264.8607683633118
 20
362.3192741157353
 30
0.0
 10
264.8080820779197
 20
361.9030357083537
 30
0.0
 10
264.7442817741623
 20
361.4761029891236
 30
0.0
 10
264.6481417082772
 20
360.9132071737941
 30
0.0
 10
264.5042769160863
 20
360.1927645200541
 30
0.0
 10
264.2979521024017
 20
359.3037475038034
 30
0.0
 10
264.061548491122
 20
358.4019042486183
 30
0.0
 10
263.7999824574825
 20
357.5067753509676
 30
0.0
 10
263.5991247553711
 20
356.888099268516
 30
0.0
 10
263.4766445139369
 20
356.533740847354
 30
0.0
 10
263.4387039626794
 20
356.4256079104199
 30
0.0
 10
263.400231176984
 20
356.3175403738383
 30
0.0
 10
263.3612371588158
 20
356.2095808872937
 30
0.0
 10
263.3217381403976
 20
356.1017767370619
 30
0.0
 10
263.2817491395421
 20
355.9941753630115
 30
0.0
 10
263.2412856936607
 20
355.8868255630265
 30
0.0
 10
263.2003633809791
 20
355.7797771574809
 30
0.0
 10
263.158997939855
 20
355.6730810687307
 30
0.0
 10
263.1172052258441
 20
355.5667892867666
 30
0.0
 10
263.0750012121862
 20
355.4609548640416
 30
0.0
 10
263.0324019780728
 20
355.3556319007498
 30
0.0
 10
262.9894236997417
 20
355.250875530991
 30
0.0
 10
262.9460826403273
 20
355.1467419069641
 30
0.0
 10
262.9023951395634
 20
355.0432881819171
 30
0.0
 10
262.8583776030389
 20
354.94057249163
 30
0.0
 10
262.814046491088
 20
354.8386539344445
 30
0.0
 10
262.7694183072883
 20
354.7375925498082
 30
0.0
 10
262.7245095865746
 20
354.6374492953069
 30
0.0
 10
262.679336882966
 20
354.5382860221562
 30
0.0
 10
262.6339167569062
 20
354.440165449129
 30
0.0
 10
262.5882657622186
 20
354.3431511348967
 30
0.0
 10
262.5424004326765
 20
354.2473074487558
 30
0.0
 10
262.4963372681904
 20
354.1526995397239
 30
0.0
 10
262.450092720615
 20
354.0593933039751
 30
0.0
 10
262.4036831791788
 20
353.9674553506194
 30
0.0
 10
262.3571249555327
 20
353.8769529657258
 30
0.0
 10
262.3104342684558
 20
353.7879540748694
 30
0.0
 10
262.2636272280876
 20
353.7005272030706
 30
0.0
 10
262.2167198202018
 20
353.6147414363282
 30
0.0
 10
262.1697278886069
 20
353.5306663688396
 30
0.0
 10
262.1226671229156
 20
353.4483720957641
 30
0.0
 10
262.075553024433
 20
353.3679290260713
 30
0.0
 10
262.0284009528264
 20
353.2894083644761
 30
0.0
 10
261.9812258669986
 20
353.2128800652335
 30
0.0
 10
261.9340432159603
 20
353.1384202977266
 30
0.0
 10
261.8868654977303
 20
353.0660830856492
 30
0.0
 10
261.8397151289482
 20
352.9960068430277
 30
0.0
 10
261.7925758962807
 20
352.9280129575436
 30
0.0
 10
261.7613346870833
 20
352.8848763804002
 30
0.0
 10
261.7456680288931
 20
352.8632445227898
 30
0.0
  0
SPLINE
  5
DB
330
CC
100
AcDbEntity
  8
DV3_Standard
 62
     7
100
AcDbSpline
210
0.0
220
0.0
230
1.0
 70
     8
 71
     3
 72
   110
 73
   106
 74
     0
 42
0.000000001
 43
0.0000000001
 40
0.0
 40
0.0
 40
0.0
 40
0.0
 40
0.0032583082371576
 40
0.0065383597370664
 40
0.0098411613792326
 40
0.0131677253820268
 40
0.0165190692192847
 40
0.0198963335806718
 40
0.0233014766113832
 40
0.026736811107653
 40
0.030204667668755
 40
0.0337073934653042
 40
0.0372473521632649
 40
0.0408265973971167
 40
0.044445062380774
 40
0.0481018200071588
 40
0.0517959317277355
 40
0.0555264499520016
 40
0.0592924181618063
 40
0.0630929472509486
 40
0.0669275449778917
 40
0.0707958479765727
 40
0.0746974888767263
 40
0.0786320962956332
 40
0.082599294915185
 40
0.0865987055605629
 40
0.0906299452805652
 40
0.0946926274296268
 40
0.0987863617515833
 40
0.1029107544652224
 40
0.1070654081085482
 40
0.1301928388427236
 40
0.1551668386838211
 40
0.1819372481715216
 40
0.2104053320520234
 40
0.2383540704262981
 40
0.2747340305800505
 40
0.2916408073534908
 40
0.3065921235300174
 40
0.3195958361843289
 40
0.3306717259150351
 40
0.3398465086712844
 40
0.347149914748263
 40
0.3618042041319945
 40
0.3757312249309044
 40
0.3889446244302179
 40
0.4014645577254486
 40
0.4133109414031556
 40
0.4245129028506967
 40
0.4382940874263286
 40
0.4517888556593984
 40
0.4649831938399553
 40
0.4778791117741008
 40
0.4904826908989565
 40
0.5027995882591528
 40
0.5409363334701984
 40
0.5782575233064082
 40
0.6127352956749205
 40
0.6485177496893088
 40
0.6789276834217488
 40
0.7129745565435123
 40
0.7252969890138147
 40
0.7392582751655088
 40
0.7549506565186429
 40
0.7725060200594368
 40
0.7899939448729018
 40
0.806388923233679
 40
0.8216330279381481
 40
0.8356497553218281
 40
0.8483509888391942
 40
0.8596433422157813
 40
0.8694338726480199
 40
0.8776350921043158
 40
0.8841691760288191
 40
0.8875959925140012
 40
0.8910414238932882
 40
0.8945057043899332
 40
0.8979890645305184
 40
0.9014917311437392
 40
0.9050139273616896
 40
0.9085558726235211
 40
0.9121177830025282
 40
0.9156998725609101
 40
0.9193023522330082
 40
0.9229254292974277
 40
0.9265693073894311
 40
0.9302341865153689
 40
0.9339202630687705
 40
0.9376277298479966
 40
0.9413567760753488
 40
0.9451075874175496
 40
0.9488803460074862
 40
0.952675230467145
 40
0.9564924159316335
 40
0.9603320740742187
 40
0.9641943731322941
 40
0.9680794779341972
 40
0.971987549926812
 40
0.9759187472038753
 40
0.9798732245349208
 40
0.9838511333948018
 40
0.9878526219937233
 40
0.9918778353077291
 40
0.995926915109584
 40
1.0
 40
1.0
 40
1.0
 40
1.0
 10
254.6095077268188
 20
311.1327215720833
 30
0.0
 10
254.6738201804302
 20
311.2913855574826
 30
0.0
 10
254.8025302046823
 20
311.6089018477275
 30
0.0
 10
254.9952061652293
 20
312.0872339745293
 30
0.0
 10
255.188452373952
 20
312.5691913577268
 30
0.0
 10
255.382246954676
 20
313.0549529500543
 30
0.0
 10
255.5766675388277
 20
313.544664882483
 30
0.0
 10
255.7717856428137
 20
314.0385293044698
 30
0.0
 10
255.9676861000193
 20
314.5368160003865
 30
0.0
 10
256.1644714173187
 20
315.0398547345159
 30
0.0
 10
256.3622528928001
 20
315.5479936259785
 30
0.0
 10
256.5611425636327
 20
316.0615832925785
 30
0.0
 10
256.7612464947788
 20
316.5809610218962
 30
0.0
 10
256.9626286504094
 20
317.1063447184264
 30
0.0
 10
257.1652614168382
 20
317.6378026199872
 30
0.0
 10
257.3690550150677
 20
318.1752586123474
 30
0.0
 10
257.5739041550178
 20
318.7185928363068
 30
0.0
 10
257.7797022149585
 20
319.2676840131732
 30
0.0
 10
257.986343388719
 20
319.8224130400911
 30
0.0
 10
258.1937290124624
 20
320.3826833097137
 30
0.0
 10
258.4017814242644
 20
320.9484232912792
 30
0.0
 10
258.6104332159858
 20
321.5195865732767
 30
0.0
 10
258.8196186322662
 20
322.096132633566
 30
0.0
 10
259.0292714764034
 20
322.678020188812
 30
0.0
 10
259.2393250234393
 20
323.2652072263803
 30
0.0
 10
259.4497120544348
 20
323.8576509999324
 30
0.0
 10
259.6603648283692
 20
324.4553080365501
 30
0.0
 10
259.871215184262
 20
325.0581341391969
 30
0.0
 10
260.0821941805862
 20
325.6660843968154
 30
0.0
 10
260.2932334697609
 20
326.2791131568412
 30
0.0
 10
260.8249919280386
 20
327.8365427233085
 30
0.0
 10
261.6881490394648
 20
330.4352854954954
 30
0.0
 10
262.8671158294714
 20
334.1774400414875
 30
0.0
 10
264.0594018437505
 20
338.2081958457126
 30
0.0
 10
265.2131557012482
 20
342.412114909765
 30
0.0
 10
266.3993785125087
 20
347.1281265044196
 30
0.0
 10
267.3309934112043
 20
351.2824763583878
 30
0.0
 10
268.031268562015
 20
354.789044620002
 30
0.0
 10
268.4571630784213
 20
357.1009995939776
 30
0.0
 10
268.7999457682646
 20
359.1173590891703
 30
0.0
 10
269.0705435088627
 20
360.8387990173368
 30
0.0
 10
269.279126090936
 20
362.2675205856828
 30
0.0
 10
269.4996675290244
 20
363.8839090516562
 30
0.0
 10
269.7297450588662
 20
365.7502583997146
 30
0.0
 10
269.9586016020915
 20
367.9284382659974
 30
0.0
 10
270.1384753959917
 20
369.9989655156858
 30
0.0
 10
270.2737355866333
 20
371.9636055999071
 30
0.0
 10
270.3686382549892
 20
373.8250749798609
 30
0.0
 10
270.4327519804712
 20
375.7539792033642
 30
0.0
 10
270.460426246338
 20
377.7702053121728
 30
0.0
 10
270.443217834658
 20
379.8909633237912
 30
0.0
 10
270.3788703627548
 20
381.9644206568154
 30
0.0
 10
270.268350515411
 20
383.9891563144395
 30
0.0
 10
270.1125970698905
 20
385.9648437296554
 30
0.0
 10
269.7713954817143
 20
389.2515521178829
 30
0.0
 10
269.0555485336496
 20
393.8011398530482
 30
0.0
 10
267.6414532152747
 20
399.3949851271568
 30
0.0
 10
265.7134192032919
 20
404.7026372262902
 30
0.0
 10
263.3632793504294
 20
409.4405508578186
 30
0.0
 10
260.4861564922422
 20
413.8471652824888
 30
0.0
 10
257.8811959131729
 20
416.931028290137
 30
0.0
 10
255.6281416072291
 20
419.1498278127943
 30
0.0
 10
253.9823516813605
 20
420.6108736927608
 30
0.0
 10
252.0390642347425
 20
422.144037136909
 30
0.0
 10
249.849354261
 20
423.6552457744496
 30
0.0
 10
247.5344584353694
 20
425.0394987905383
 30
0.0
 10
245.2483190549609
 20
426.2259021061399
 30
0.0
 10
243.0680442182418
 20
427.2131552572649
 30
0.0
 10
241.0240201913207
 20
428.0254776285934
 30
0.0
 10
239.1442883657124
 20
428.6854369147584
 30
0.0
 10
237.4543404428109
 20
429.2137183680456
 30
0.0
 10
235.9768875661696
 20
429.6288708677102
 30
0.0
 10
234.7316426421933
 20
429.9470631042154
 30
0.0
 10
233.8052752610255
 20
430.1653736497839
 30
0.0
 10
233.1195772395529
 20
430.3181076147882
 30
0.0
 10
232.5899222793583
 20
430.4314349347637
 30
0.0
 10
232.0564446345853
 20
430.5409659182159
 30
0.0
 10
231.5191435554274
 20
430.6466952145282
 30
0.0
 10
230.9780193190531
 20
430.7486192920445
 30
0.0
 10
230.4330720451332
 20
430.8467342687542
 30
0.0
 10
229.8843019988273
 20
430.9410364979481
 30
0.0
 10
229.3317094193386
 20
431.0315224338178
 30
0.0
 10
228.7752944887613
 20
431.1181885081332
 30
0.0
 10
228.2150573700024
 20
431.2010312667778
 30
0.0
 10
227.6509982961953
 20
431.2800473715409
 30
0.0
 10
227.0831175974847
 20
431.3552335902886
 30
0.0
 10
226.5114157012292
 20
431.4265867978941
 30
0.0
 10
225.9358931318423
 20
431.494103975497
 30
0.0
 10
225.3565505107246
 20
431.5577822102193
 30
0.0
 10
224.7733885561678
 20
431.6176186947582
 30
0.0
 10
224.1864080832635
 20
431.6736107269994
 30
0.0
 10
223.5956100038074
 20
431.7257557097025
 30
0.0
 10
223.0009953262013
 20
431.7740511498691
 30
0.0
 10
222.402565155353
 20
431.8184946593324
 30
0.0
 10
221.8003206925725
 20
431.8590839507386
 30
0.0
 10
221.1942632354672
 20
431.8958168509005
 30
0.0
 10
220.5843941778331
 20
431.9286912487303
 30
0.0
 10
219.970715009544
 20
431.9577052895128
 30
0.0
 10
219.3532273164396
 20
431.9828566416475
 30
0.0
 10
218.7319327802032
 20
432.0041452557829
 30
0.0
 10
218.1068331782674
 20
432.0215629741621
 30
0.0
 10
217.4779303836029
 20
432.0351326526913
 30
0.0
 10
216.8452263649326
 20
432.0447608527815
 30
0.0
 10
216.2087231853359
 20
432.0507925001758
 30
0.0
 10
215.7831190065824
 20
432.0515435531879
 30
0.0
 10
215.5696879791271
 20
432.0518994806832
 30
0.0
  0
SPLINE
  5
DC
330
CC
100
AcDbEntity
  8
DV3_Standard
 62
     7
100
AcDbSpline
210
0.0
220
0.0
230
1.0
 70
     8
 71
     3
 72
    29
 73
    25
 74
     0
 42
0.000000001
 43
0.0000000001
 40
0.0
 40
0.0
 40
0.0
 40
0.0
 40
0.0005299985267271
 40
0.0096443889730892
 40
0.026079656721025
 40
0.0425149242216452
 40
0.0589501917222654
 40
0.0753854592228857
 40
0.1082559956381657
 40
0.1411265306394061
 40
0.2068676020559266
 40
0.2726086720584075
 40
0.338349743474928
 40
0.4040908134774089
 40
0.4698318834798897
 40
0.5355729532961417
 40
0.5936263342040162
 40
0.6516797151117494
 40
0.7097330959264387
 40
0.7677864767411279
 40
0.8258398575558175
 40
0.8838932383705067
 40
0.9468091482093249
 40
1.0
 40
1.0
 40
1.0
 40
1.0
 10
176.5295244917488
 20
311.1327237962203
 30
0.0
 10
176.5176903333377
 20
311.1618857802986
 30
0.0
 10
176.3026991622764
 20
311.6916700404865
 30
0.0
 10
175.7440933832395
 20
313.0803562578937
 30
0.0
 10
174.9304041041461
 20
315.1449398360977
 30
0.0
 10
174.0759123882713
 20
317.3628370658754
 30
0.0
 10
173.2996166726208
 20
319.4212712943528
 30
0.0
 10
172.3444608936735
 20
322.0106016168701
 30
0.0
 10
171.2588607149283
 20
325.05599145304
 30
0.0
 10
169.6231650785199
 20
329.8643445579891
 30
0.0
 10
167.597218548824
 20
336.2730079736311
 30
0.0
 10
165.0544209917304
 20
345.5343288432483
 30
0.0
 10
162.6400997333982
 20
356.542791624042
 30
0.0
 10
160.852462412397
 20
368.9542205982649
 30
0.0
 10
160.4467946340174
 20
382.0543106395386
 30
0.0
 10
161.9189211733314
 20
394.3663100118441
 30
0.0
 10
165.2922684026521
 20
405.0464149937023
 30
0.0
 10
170.1996091629161
 20
413.674666871814
 30
0.0
 10
176.4203182850275
 20
420.3762408398914
 30
0.0
 10
183.4285957075932
 20
425.2056729513636
 30
0.0
 10
190.8674697318061
 20
428.5017434716985
 30
0.0
 10
198.8606017338577
 20
430.6791645944217
 30
0.0
 10
207.0538724775928
 20
431.8246949725504
 30
0.0
 10
212.8483789163304
 20
432.0518481797288
 30
0.0
 10
215.5696879791271
 20
432.0518994806832
 30
0.0
  0
SPLINE
  5
DD
330
CC
100
AcDbEntity
  8
DV3_Standard
 62
     7
100
AcDbSpline
210
0.0
220
0.0
230
1.0
 70
     8
 71
     3
 72
   162
 73
   158
 74
     0
 42
0.000000001
 43
0.0000000001
 40
0.0
 40
0.0
 40
0.0
 40
0.0
 40
0.0032389542356339
 40
0.0064827489934556
 40
0.0097310995644532
 40
0.0129837241301879
 40
0.0162403438878796
 40
0.0195006831767492
 40
0.0227644696055922
 40
0.0260314341815589
 40
0.0293013114401055
 40
0.0325738395760852
 40
0.0358487605759389
 40
0.0391258203509419
 40
0.0424047688714597
 40
0.0456853603021618
 40
0.0489673531381332
 40
0.0522505103418246
 40
0.0555345994807712
 40
0.0588193928660067
 40
0.0621046676910919
 40
0.0653902061716724
 40
0.0686757956854703
 40
0.0719612289126121
 40
0.07524630397618
 40
0.0785308245828765
 40
0.0818146001636735
 40
0.0850974460143164
 40
0.0883791834355399
 40
0.0916596398728457
 40
0.0949386490556836
 40
0.0982160511358627
 40
0.1014916928250171
 40
0.1047654275309324
 40
0.1080371154744978
 40
0.1113066221462707
 40
0.1145738169703152
 40
0.117838576037776
 40
0.1211007825408266
 40
0.1243603268948371
 40
0.1276171068581631
 40
0.1308710276493145
 40
0.1341220020612366
 40
0.1373699505724419
 40
0.1406148014547101
 40
0.1438564908770593
 40
0.1470949630056992
 40
0.1503301700996438
 40
0.1707004101726231
 40
0.1886724069590642
 40
0.2044824320323556
 40
0.2183195385724204
 40
0.2303328785900483
 40
0.2406393328031677
 40
0.2493294786840499
 40
0.2564725158495527
 40
0.2621203368095966
 40
0.2663107818829453
 40
0.272604094332897
 40
0.2787721712849687
 40
0.2848199419090061
 40
0.2907520697323619
 40
0.2965729527116022
 40
0.3022866690766294
 40
0.3078969903251687
 40
0.3134073971876978
 40
0.3188210954753271
 40
0.324141031734642
 40
0.3293699086398019
 40
0.3345102000592921
 40
0.3395641657422064
 40
0.3445338655767134
 40
0.3494211733810846
 40
0.3542277897931033
 40
0.3589551463504745
 40
0.3636043052024973
 40
0.3681762296693361
 40
0.394825801824942
 40
0.4210345362249628
 40
0.446887148894582
 40
0.4724540816745326
 40
0.4879389092163758
 40
0.5037924283045505
 40
0.5200240933742295
 40
0.5366437577261498
 40
0.5536610392927825
 40
0.5710850777549065
 40
0.5889253359387561
 40
0.6090305796058981
 40
0.6309684109633601
 40
0.6547489619127665
 40
0.6637488360438691
 40
0.6727536729464014
 40
0.6817624404617258
 40
0.6907740233885835
 40
0.6997872365538348
 40
0.7088008204817688
 40
0.7178133224190282
 40
0.7268231896072285
 40
0.7334996324307267
 40
0.7401490682661632
 40
0.746771120099927
 40
0.7533654307203959
 40
0.7599316647126528
 40
0.7664695102282626
 40
0.7729786805468455
 40
0.779458912623611
 40
0.7859099434877527
 40
0.7923315234409049
 40
0.7987234328530467
 40
0.8050854834729764
 40
0.8114175193628106
 40
0.8177194176498256
 40
0.8239910891120369
 40
0.8302324786127748
 40
0.8364435653984003
 40
0.8426243632723102
 40
0.8487749206573475
 40
0.8548953205578147
 40
0.8609856804313673
 40
0.8670461519802326
 40
0.8730769208703199
 40
0.8765415038209137
 40
0.8800150367690449
 40
0.8834975334323871
 40
0.8869890114080827
 40
0.8904894923398602
 40
0.8939990020881343
 40
0.8975175709031261
 40
0.9010452336010107
 40
0.9045820297430903
 40
0.9081280038180014
 40
0.9116832054269498
 40
0.9152476894719649
 40
0.918821516274909
 40
0.9224047486491002
 40
0.9259974509072467
 40
0.9295996931497222
 40
0.933211551793136
 40
0.9368331097816612
 40
0.9404644568007969
 40
0.9441056894934756
 40
0.9477569116783888
 40
0.9514182345704375
 40
0.9550897770031576
 40
0.9587716656529681
 40
0.9624640352651082
 40
0.9661670288810624
 40
0.9698807980673188
 40
0.9736055031452306
 40
0.9773413134217902
 40
0.9810884074210859
 40
0.9848469731161898
 40
0.98861720810391
 40
0.9923993165446807
 40
0.9961935075376271
 40
1.0
 40
1.0
 40
1.0
 40
1.0
 10
215.5694902763188
 20
425.5717356796833
 30
0.0
 10
215.4762973015918
 20
425.5716985928912
 30
0.0
 10
215.2897720772072
 20
425.5715143417183
 30
0.0
 10
215.0097879112164
 20
425.5700033281387
 30
0.0
 10
214.7294193815839
 20
425.5675666166184
 30
0.0
 10
214.4486956343362
 20
425.5640988179821
 30
0.0
 10
214.1676457931775
 20
425.5596058730861
 30
0.0
 10
213.8862989582625
 20
425.5540638478581
 30
0.0
 10
213.6046841998873
 20
425.5474568490018
 30
0.0
 10
213.3228305534813
 20
425.5397668494668
 30
0.0
 10
213.040767014183
 20
425.5309764235217
 30
0.0
 10
212.758522531464
 20
425.5210680167951
 30
0.0
 10
212.4761260036721
 20
425.5100241462899
 30
0.0
 10
212.1936062725316
 20
425.4978273508814
 30
0.0
 10
211.9109921175876
 20
425.4844602088036
 30
0.0
 10
211.6283122505982
 20
425.4699053372022
 30
0.0
 10
211.3455953098742
 20
425.4541453965379
 30
0.0
 10
211.0628698545639
 20
425.4371630937292
 30
0.0
 10
210.7801643588855
 20
425.4189411856703
 30
0.0
 10
210.4975072063048
 20
425.3994624826935
 30
0.0
 10
210.2149266836582
 20
425.3787098520831
 30
0.0
 10
209.9324509752218
 20
425.3566662216182
 30
0.0
 10
209.6501081567247
 20
425.3333145831494
 30
0.0
 10
209.3679261893077
 20
425.3086379962078
 30
0.0
 10
209.0859329134254
 20
425.2826195916484
 30
0.0
 10
208.8041560426939
 20
425.2552425753251
 30
0.0
 10
208.5226231576804
 20
425.2264902318032
 30
0.0
 10
208.2413616996378
 20
425.1963459280985
 30
0.0
 10
207.9603989641808
 20
425.1647931174782
 30
0.0
 10
207.6797620949102
 20
425.1318153431923
 30
0.0
 10
207.3994780769559
 20
425.0973962426386
 30
0.0
 10
207.1195737305557
 20
425.0615195500658
 30
0.0
 10
206.8400757042231
 20
425.0241691049125
 30
0.0
 10
206.5610104696846
 20
424.9853288393591
 30
0.0
 10
206.2824043594522
 20
424.9449828507495
 30
0.0
 10
206.0042836647887
 20
424.9031151776527
 30
0.0
 10
205.726674673933
 20
424.8597094233768
 30
0.0
 10
205.4496035858616
 20
424.8147493744639
 30
0.0
 10
205.1730964277766
 20
424.7682188903722
 30
0.0
 10
204.8971790388564
 20
424.7201019326943
 30
0.0
 10
204.621877064319
 20
424.6703825608816
 30
0.0
 10
204.3472159509315
 20
424.6190449383723
 30
0.0
 10
204.0732209349978
 20
424.5660733320327
 30
0.0
 10
203.799917058729
 20
424.5114521280892
 30
0.0
 10
203.527329080525
 20
424.4551657890159
 30
0.0
 10
203.2554817804817
 20
424.3971990299692
 30
0.0
 10
202.9843987928639
 20
424.3375361773622
 30
0.0
 10
202.2368193873985
 20
424.1677904347393
 30
0.0
 10
201.0872062932048
 20
423.8768138081979
 30
0.0
 10
199.6132547974752
 20
423.4342963730221
 30
0.0
 10
198.3391485268497
 20
422.9932186700369
 30
0.0
 10
197.2444241102259
 20
422.5658891245072
 30
0.0
 10
196.3115620847498
 20
422.1627203383053
 30
0.0
 10
195.5257126016203
 20
421.7925715418478
 30
0.0
 10
194.8744070484201
 20
421.4628748850965
 30
0.0
 10
194.3473682009286
 20
421.1797657373028
 30
0.0
 10
193.9362752584916
 20
420.9481802687232
 30
0.0
 10
193.5501676217564
 20
420.7225375279406
 30
0.0
 10
193.1566878125955
 20
420.4834340931032
 30
0.0
 10
192.7259334869092
 20
420.2094788580124
 30
0.0
 10
192.3102742035162
 20
419.9330756700462
 30
0.0
 10
191.9091900064489
 20
419.6545330127537
 30
0.0
 10
191.5222006459224
 20
419.3741564891098
 30
0.0
 10
191.1488330620152
 20
419.0922395783791
 30
0.0
 10
190.7886317998455
 20
418.8090675031813
 30
0.0
 10
190.4411562309578
 20
418.5249168098552
 30
0.0
 10
190.105980738116
 20
418.2400557333512
 30
0.0
 10
189.7826941220474
 20
417.9547443386004
 30
0.0
 10
189.4708992337349
 20
417.6692347085398
 30
0.0
 10
189.1702125288309
 20
417.3837711278749
 30
0.0
 10
188.8802637737012
 20
417.0985902068755
 30
0.0
 10
188.6006952946474
 20
416.8139212126241
 30
0.0
 10
188.3311629313955
 20
416.5299856272136
 30
0.0
 10
188.0713328207052
 20
416.2470016610857
 30
0.0
 10
187.8209026351321
 20
415.9651806215047
 30
0.0
 10
187.5796424960721
 20
415.6846839020805
 30
0.0
 10
186.9721788600789
 20
414.9551331748432
 30
0.0
 10
186.0699490558415
 20
413.7423844431247
 30
0.0
 10
185.0070808780191
 20
411.991070845506
 30
0.0
 10
184.132826738333
 20
410.1906690880018
 30
0.0
 10
183.5294027779759
 20
408.5889308843421
 30
0.0
 10
183.1184207221528
 20
407.2020264088719
 30
0.0
 10
182.8391158892726
 20
406.0297967420391
 30
0.0
 10
182.6192827609076
 20
404.8189863607412
 30
0.0
 10
182.4622249182289
 20
403.5711102062035
 30
0.0
 10
182.3710450968276
 20
402.2879620088887
 30
0.0
 10
182.3487223680281
 20
400.9715916621622
 30
0.0
 10
182.3996600505436
 20
399.5781847259667
 30
0.0
 10
182.5382560696137
 20
398.0757924627018
 30
0.0
 10
182.7863956347632
 20
396.4327693552141
 30
0.0
 10
183.0747306609466
 20
395.0780681603133
 30
0.0
 10
183.337007164793
 20
394.0516232702942
 30
0.0
 10
183.52100661819
 20
393.390599694504
 30
0.0
 10
183.7194191130642
 20
392.7324032921431
 30
0.0
 10
183.9320238469917
 20
392.0774380510622
 30
0.0
 10
184.1586242217909
 20
391.4261658351713
 30
0.0
 10
184.3990254977398
 20
390.7790570196368
 30
0.0
 10
184.6529866098435
 20
390.1365236121907
 30
0.0
 10
184.8973323396413
 20
389.5542207778845
 30
0.0
 10
185.1276598873484
 20
389.0309128677211
 30
0.0
 10
185.3401998351822
 20
388.5654506999414
 30
0.0
 10
185.5586856612491
 20
388.1041001010321
 30
0.0
 10
185.7829848407186
 20
387.6469257051467
 30
0.0
 10
186.0129898042314
 20
387.1940513104735
 30
0.0
 10
186.2485904750383
 20
386.7455781857944
 30
0.0
 10
186.4896810439293
 20
386.3016070919324
 30
0.0
 10
186.7361590262828
 20
385.8622327792685
 30
0.0
 10
186.9879166593949
 20
385.4275484108327
 30
0.0
 10
187.2448466337012
 20
384.997643455253
 30
0.0
 10
187.5068458383396
 20
384.5726022756722
 30
0.0
 10
187.7738144965922
 20
384.152504093824
 30
0.0
 10
188.0456562520207
 20
383.7374230294554
 30
0.0
 10
188.3222779519288
 20
383.3274282190237
 30
0.0
 10
188.6035895154623
 20
382.9225839169104
 30
0.0
 10
188.8895037834336
 20
382.5229496026473
 30
0.0
 10
189.1799363788451
 20
382.1285800915363
 30
0.0
 10
189.4748055643823
 20
381.739525635113
 30
0.0
 10
189.7740321226949
 20
381.3558320670622
 30
0.0
 10
190.077539170337
 20
380.9775407863631
 30
0.0
 10
190.3852522336699
 20
380.6046893489253
 30
0.0
 10
190.6970983708188
 20
380.2373098097446
 30
0.0
 10
190.9687159182491
 20
379.9261728033923
 30
0.0
 10
191.1983087802672
 20
379.6689079505907
 30
0.0
 10
191.3846365368902
 20
379.4634532775503
 30
0.0
 10
191.5733030795511
 20
379.2587613715293
 30
0.0
 10
191.7643241000054
 20
379.054863550278
 30
0.0
 10
191.9577153021865
 20
378.8517926387566
 30
0.0
 10
192.1534924469869
 20
378.6495814216325
 30
0.0
 10
192.3516713379353
 20
378.4482630629905
 30
0.0
 10
192.5522678226063
 20
378.2478709970025
 30
0.0
 10
192.7552977900369
 20
378.0484389611524
 30
0.0
 10
192.9607771679422
 20
377.8500009908526
 30
0.0
 10
193.1687219243728
 20
377.652591426125
 30
0.0
 10
193.3791480499229
 20
377.4562449107804
 30
0.0
 10
193.5920715453603
 20
377.2609964723881
 30
0.0
 10
193.8075081060921
 20
377.0668815262559
 30
0.0
 10
194.0254730171941
 20
376.8739358450513
 30
0.0
 10
194.2459815787263
 20
376.6821956278825
 30
0.0
 10
194.4690491170789
 20
376.491697398602
 30
0.0
 10
194.6946910080059
 20
376.302478010869
 30
0.0
 10
194.9229226682752
 20
376.1145746505294
 30
0.0
 10
195.1537595539078
 20
375.9280248404476
 30
0.0
 10
195.3872171565274
 20
375.7428664448768
 30
0.0
 10
195.6233110000456
 20
375.559137674084
 30
0.0
 10
195.862056637286
 20
375.3768770893043
 30
0.0
 10
196.1034696458894
 20
375.1961236070146
 30
0.0
 10
196.347565626542
 20
375.0169165065121
 30
0.0
 10
196.5943601919521
 20
374.8392954258285
 30
0.0
 10
196.8438689900099
 20
374.6633004021112
 30
0.0
 10
197.0961075982911
 20
374.4889717460504
 30
0.0
 10
197.3510919003228
 20
374.3163505391731
 30
0.0
 10
197.6088366553022
 20
374.1454767969008
 30
0.0
 10
197.8693608386893
 20
373.9763963842825
 30
0.0
 10
198.1326675150698
 20
373.8091351685787
 30
0.0
 10
198.3988188499134
 20
373.6437961827009
 30
0.0
 10
198.6676534426649
 20
373.4801933857964
 30
0.0
 10
198.8488184320777
 20
373.3730563628215
 30
0.0
 10
198.9399383230987
 20
373.3199032680832
 30
0.0
  0
ARC
  5
DE
330
CC
100
AcDbEntity
  8
DV3_Standard
 62
     7
100
AcDbCircle
 10
215.2854796155
 20
401.3865790286
 30
0.0
 40
32.4794551738386
100
AcDbArc
 50
239.7842262491
 51
270.5010188593
  0
LINE
  5
DF
330
CC
100
AcDbEntity
  8
DV3_Standard
 62
     7
100
AcDbLine
 10
394.4526468614
 20
599.6348734616
 30
0.0
 11
387.7302878004
 21
599.6348731668
 31
0.0
  0
LINE
  5
E0
330
CC
100
AcDbEntity
  8
DV3_Standard
 62
     7
100
AcDbLine
 10
387.3386898375
 20
599.634875815
 30
0.0
 11
386.5964570307
 21
599.634875815
 31
0.0
  0
LINE
  5
E1
330
CC
100
AcDbEntity
  8
DV3_Standard
 62
     7
100
AcDbLine
 10
386.3955252962
 20
599.634875815
 30
0.0
 11
386.27045743
 21
599.634875815
 31
0.0
  0
LINE
  5
E2
330
CC
100
AcDbEntity
  8
DV3_Standard
 62
     7
100
AcDbLine
 10
347.3758986483
 20
599.6348761479
 30
0.0
 11
347.2702641419
 21
599.6348762362
 31
0.0
  0
LINE
  5
E3
330
CC
100
AcDbEntity
  8
DV3_Standard
 62
     7
100
AcDbLine
 10
348.1619141268
 20
599.6348753312
 30
0.0
 11
347.5359787566
 21
599.6348758303
 31
0.0
  0
LINE
  5
E4
330
CC
100
AcDbEntity
  8
DV3_Standard
 62
     7
100
AcDbLine
 10
348.7499165726
 20
599.6348757934
 30
0.0
 11
348.5831342647
 21
599.6348756873
 31
0.0
  0
LINE
  5
E5
330
CC
100
AcDbEntity
  8
DV3_Standard
 62
     7
100
AcDbLine
 10
348.5438852218
 20
599.6348756624
 30
0.0
 11
348.4029202459
 21
599.6348755727
 31
0.0
  0
LINE
  5
E6
330
CC
100
AcDbEntity
  8
DV3_Standard
 62
     7
100
AcDbLine
 10
352.3237851778
 20
599.6348758211
 30
0.0
 11
350.8281124045
 21
599.6348758018
 31
0.0
  0
LINE
  5
E7
330
CC
100
AcDbEntity
  8
DV3_Standard
 62
     7
100
AcDbLine
 10
354.1614567003
 20
599.6348760972
 30
0.0
 11
353.6366352708
 21
599.6348758607
 31
0.0
  0
LINE
  5
E8
330
CC
100
AcDbEntity
  8
DV3_Standard
 62
     7
100
AcDbLine
 10
330.9429810549
 20
599.6348759374
 30
0.0
 11
330.6164457913
 21
599.6348762075
 31
0.0
  0
LINE
  5
E9
330
CC
100
AcDbEntity
  8
DV3_Standard
 62
     7
100
AcDbLine
 10
336.2444839927
 20
599.6348758072
 30
0.0
 11
334.8020188396
 21
599.6348754027
 31
0.0
  0
LINE
  5
EA
330
CC
100
AcDbEntity
  8
DV3_Standard
 62
     7
100
AcDbLine
 10
314.27724539
 20
599.6348757947
 30
0.0
 11
311.0905988008
 21
599.6348760478
 31
0.0
  0
ARC
  5
EB
330
CC
100
AcDbEntity
  8
DV3_Standard
 62
     7
100
AcDbCircle
 10
326.6179839553
 20
596.6519745861
 30
0.0
 40
2.982919954145197
100
AcDbArc
 50
89.8121616512
 51
96.6595252116
  0
ARC
  5
EC
330
CC
100
AcDbEntity
  8
DV3_Standard
 62
     7
100
AcDbCircle
 10
104.5215655633
 20
596.6524186951
 30
0.0
 40
2.982496540053899
100
AcDbArc
 50
83.3161825415
 51
89.8204296913
  0
ARC
  5
ED
330
CC
100
AcDbEntity
  8
DV3_Standard
 62
     7
100
AcDbCircle
 10
104.5215655633
 20
596.6524186951
 30
0.0
 40
2.982496540053899
100
AcDbArc
 50
90.04426183
 51
90.2707726456
  0
ARC
  5
EE
330
CC
100
AcDbEntity
  8
DV3_Standard
 62
     7
100
AcDbCircle
 10
104.5215655633
 20
596.6524186951
 30
0.0
 40
2.982496540053899
100
AcDbArc
 50
90.2723900567
 51
90.2854484409
  0
LINE
  5
EF
330
CC
100
AcDbEntity
  8
DV3_Standard
 62
     7
100
AcDbLine
 10
96.3442616163
 20
599.6348754102
 30
0.0
 11
94.8399732938
 21
599.6348757364
 31
0.0
  0
LINE
  5
F0
330
CC
100
AcDbEntity
  8
DV3_Standard
 62
     7
100
AcDbLine
 10
100.5224179489
 20
599.6348762315
 30
0.0
 11
100.1903018359
 21
599.6348759353
 31
0.0
  0
LINE
  5
F1
330
CC
100
AcDbEntity
  8
DV3_Standard
 62
     7
100
AcDbLine
 10
77.5000592802
 20
599.6348758622
 30
0.0
 11
76.9706647022
 21
599.6348761403
 31
0.0
  0
LINE
  5
F2
330
CC
100
AcDbEntity
  8
DV3_Standard
 62
     7
100
AcDbLine
 10
80.29644838
 20
599.6348758028
 30
0.0
 11
78.8028187306
 21
599.6348758215
 31
0.0
  0
LINE
  5
F3
330
CC
100
AcDbEntity
  8
DV3_Standard
 62
     7
100
AcDbLine
 10
83.8204600912
 20
599.6348762063
 30
0.0
 11
82.0792148838
 21
599.6348756618
 31
0.0
  0
LINE
  5
F4
330
CC
100
AcDbEntity
  8
DV3_Standard
 62
     7
100
AcDbLine
 10
197.9301180104
 20
599.6348758628
 30
0.0
 11
197.9285210078
 21
599.6348758629
 31
0.0
  0
LINE
  5
F5
330
CC
100
AcDbEntity
  8
DV3_Standard
 62
     7
100
AcDbLine
 10
198.3644279037
 20
599.6348758526
 30
0.0
 11
198.3628314662
 21
599.6348758527
 31
0.0
  0
SPLINE
  5
F6
330
CC
100
AcDbEntity
  8
DV3_Standard
 62
     7
100
AcDbSpline
210
0.0
220
0.0
230
1.0
 70
     8
 71
     3
 72
   158
 73
   154
 74
     0
 42
0.000000001
 43
0.0000000001
 40
0.0
 40
0.0
 40
0.0
 40
0.0
 40
0.0086306953112148
 40
0.0387030748271212
 40
0.0687207183482301
 40
0.0986841406035394
 40
0.1285934010068225
 40
0.1345621509782125
 40
0.1405306938617021
 40
0.1464990303506469
 40
0.1524671614338624
 40
0.1584350884034578
 40
0.1644028128626839
 40
0.1703703367337753
 40
0.1763376622658054
 40
0.1823047920425292
 40
0.188271728990241
 40
0.1942384763856322
 40
0.2002050378636438
 40
0.2061714174253212
 40
0.2121376194456799
 40
0.2181036486815602
 40
0.2240695102794888
 40
0.2300352097835383
 40
0.2360007531431821
 40
0.2419661467211593
 40
0.2479313973013263
 40
0.2538965120965117
 40
0.2598614987563765
 40
0.265826365375253
 40
0.2717911205000005
 40
0.277755773137846
 40
0.2837203327642202
 40
0.2896848093306001
 40
0.2956492132723263
 40
0.3016135554149547
 40
0.3075778423280346
 40
0.313542074158027
 40
0.319506250596868
 40
0.3254703713793297
 40
0.3314344362916358
 40
0.3373984451800782
 40
0.3433623979596385
 40
0.349326294622609
 40
0.3552901352472142
 40
0.3612539200062332
 40
0.3672176491756348
 40
0.3731813231431876
 40
0.3791449424171013
 40
0.3851085076346509
 40
0.3910720195708097
 40
0.397035479146875
 40
0.4029988874391081
 40
0.4089622456873607
 40
0.414925555303721
 40
0.4208888178811357
 40
0.4268520352020556
 40
0.43281520924707
 40
0.4387783422035441
 40
0.4447414364742612
 40
0.4507044946860573
 40
0.4566675196984596
 40
0.4626305146123302
 40
0.4685934827785032
 40
0.4745564278064221
 40
0.480519353572779
 40
0.4864822642301543
 40
0.4924451642156514
 40
0.4984080582595347
 40
0.5043709513938617
 40
0.5103338489611224
 40
0.5162967566228627
 40
0.522259680368317
 40
0.5282226265230398
 40
0.5341856017734962
 40
0.5401486150156753
 40
0.5461116787725105
 40
0.5520748057153887
 40
0.5580380082429458
 40
0.5640012984886947
 40
0.5699646883286505
 40
0.5759281893889594
 40
0.5818918130535281
 40
0.5878555704716606
 40
0.5938194725656895
 40
0.5997835300386166
 40
0.6057477533817457
 40
0.6117121528823218
 40
0.6176767386311691
 40
0.6236415205303284
 40
0.6296065083007008
 40
0.6355717114896742
 40
0.6415371394787713
 40
0.6475028014912787
 40
0.6534687065998868
 40
0.6594348637343184
 40
0.6654012816889652
 40
0.6713679691305164
 40
0.6773349346055899
 40
0.6833021865483522
 40
0.6892697332881456
 40
0.6952375830571162
 40
0.7012057439978208
 40
0.7071742241708528
 40
0.7131430315624486
 40
0.7191121740921009
 40
0.7250816596201628
 40
0.7310514959554518
 40
0.7370216908628465
 40
0.7429922520708875
 40
0.7489631872793604
 40
0.7549345041668882
 40
0.760906210398512
 40
0.7668783136293911
 40
0.772850818722312
 40
0.778823722514815
 40
0.7847970198198959
 40
0.7907707047198489
 40
0.7967447705768933
 40
0.8027192100437776
 40
0.8086940150743618
 40
0.8146691769341977
 40
0.8206446862110742
 40
0.8266205328255567
 40
0.8325967060415067
 40
0.8385731944765755
 40
0.8445499861126872
 40
0.8505270683064976
 40
0.8565044277998322
 40
0.8624820507301054
 40
0.8684599226407202
 40
0.8744380284914453
 40
0.8804163526687713
 40
0.8863948789962436
 40
0.8923735907447786
 40
0.8983524706429584
 40
0.9043315008872935
 40
0.9103106631524767
 40
0.9162899386016137
 40
0.9222693078964188
 40
0.9282487512074117
 40
0.9342282482240677
 40
0.9402077781649671
 40
0.9461873197879099
 40
0.9521668514000187
 40
0.9581463508678152
 40
0.9641257956272742
 40
0.9701051626938639
 40
0.9760844286725604
 40
0.9820635697678476
 40
0.9880425617936848
 40
0.9940213801834763
 40
1.0
 40
1.0
 40
1.0
 40
1.0
 10
338.8358713280514
 20
158.9013559671488
 30
0.0
 10
338.5551529055292
 20
158.6262915113844
 30
0.0
 10
337.2923319629123
 20
157.3968682056817
 30
0.0
 10
335.0185610428463
 20
155.2465042392219
 30
0.0
 10
331.9760700601673
 20
152.4966113536611
 30
0.0
 10
328.8777339232833
 20
149.8211718295066
 30
0.0
 10
326.56442593446
 20
147.9134380768916
 30
0.0
 10
325.077909643771
 20
146.721232101492
 30
0.0
 10
324.439535087587
 20
146.2139942568203
 30
0.0
 10
323.798884017481
 20
145.7096814225096
 30
0.0
 10
323.1559671560146
 20
145.2083056053551
 30
0.0
 10
322.5107960524041
 20
144.7098795545405
 30
0.0
 10
321.8633820344406
 20
144.2144158199242
 30
0.0
 10
321.2137364892815
 20
143.7219270043707
 30
0.0
 10
320.5618707881947
 20
143.2324256961419
 30
0.0
 10
319.9077963066973
 20
142.7459244870237
 30
0.0
 10
319.2515244191378
 20
142.2624359674712
 30
0.0
 10
318.5930665001223
 20
141.7819727279186
 30
0.0
 10
317.9324339241116
 20
141.3045473584318
 30
0.0
 10
317.2696380655022
 20
140.8301724488118
 30
0.0
 10
316.6046902985843
 20
140.3588605885686
 30
0.0
 10
315.9376019975268
 20
139.8906243669388
 30
0.0
 10
315.2683845363607
 20
139.4254763728832
 30
0.0
 10
314.597049288957
 20
138.9634291950966
 30
0.0
 10
313.9236076290113
 20
138.5044954220105
 30
0.0
 10
313.2480709300237
 20
138.0486876417988
 30
0.0
 10
312.5704505652823
 20
137.59601844238
 30
0.0
 10
311.8907579078357
 20
137.1465004114353
 30
0.0
 10
311.2090043305075
 20
136.7001461363627
 30
0.0
 10
310.52520120576
 20
136.2569682044719
 30
0.0
 10
309.8393599061091
 20
135.8169792022804
 30
0.0
 10
309.1514918024919
 20
135.3801917181636
 30
0.0
 10
308.4616082702696
 20
134.9466183324889
 30
0.0
 10
307.7697206667375
 20
134.5162716544599
 30
0.0
 10
307.0758404189068
 20
134.0891641870566
 30
0.0
 10
306.3799788955052
 20
133.6653089526903
 30
0.0
 10
305.6821489732381
 20
133.2447175311722
 30
0.0
 10
304.9823658092791
 20
132.8273987506832
 30
0.0
 10
304.2806444961871
 20
132.4133621493569
 30
0.0
 10
303.5770002349572
 20
132.0026171305487
 30
0.0
 10
302.8714482024648
 20
131.5951731366386
 30
0.0
 10
302.1640035818713
 20
131.191039599387
 30
0.0
 10
301.4546815544691
 20
130.7902259532471
 30
0.0
 10
300.7434973018611
 20
130.3927416318019
 30
0.0
 10
300.0304660053712
 20
129.9985960687289
 30
0.0
 10
299.3156028461931
 20
129.6077986975478
 30
0.0
 10
298.5989230053478
 20
129.2203589516951
 30
0.0
 10
297.8804416636852
 20
128.8362862645126
 30
0.0
 10
297.1601740018795
 20
128.4555900692564
 30
0.0
 10
296.4381352004228
 20
128.0782797991035
 30
0.0
 10
295.714340439622
 20
127.7043648871539
 30
0.0
 10
294.9888048995908
 20
127.3338547664421
 30
0.0
 10
294.2615437602479
 20
126.9667588699387
 30
0.0
 10
293.5325722013091
 20
126.603086630557
 30
0.0
 10
292.8019054022852
 20
126.2428474811584
 30
0.0
 10
292.0695585424739
 20
125.8860508545613
 30
0.0
 10
291.3355468009575
 20
125.5327061835405
 30
0.0
 10
290.599885356596
 20
125.1828229008405
 30
0.0
 10
289.8625893880227
 20
124.8364104391757
 30
0.0
 10
289.1236740736395
 20
124.4934782312388
 30
0.0
 10
288.3831545916117
 20
124.1540357097044
 30
0.0
 10
287.6410461198625
 20
123.8180923072391
 30
0.0
 10
286.8973638360688
 20
123.4856574565013
 30
0.0
 10
286.1521229176553
 20
123.1567405901523
 30
0.0
 10
285.4053385417902
 20
122.8313511408583
 30
0.0
 10
284.6570258853807
 20
122.5094985412968
 30
0.0
 10
283.9072001250634
 20
122.1911922241736
 30
0.0
 10
283.1558764372178
 20
121.8764416221777
 30
0.0
 10
282.4030699978914
 20
121.5652561681749
 30
0.0
 10
281.6487959830575
 20
121.2576452945208
 30
0.0
 10
280.893069567624
 20
120.9536184356464
 30
0.0
 10
280.1359059291188
 20
120.6531850184367
 30
0.0
 10
279.3773202339007
 20
120.3563544981649
 30
0.0
 10
278.6173276879269
 20
120.0631362241535
 30
0.0
 10
277.8559432657279
 20
119.7735399101529
 30
0.0
 10
277.0931823216977
 20
119.4875736255955
 30
0.0
 10
276.3290618782135
 20
119.2052402161968
 30
0.0
 10
275.563598497443
 20
118.9265431697176
 30
0.0
 10
274.7968087969215
 20
118.651485775392
 30
0.0
 10
274.0287093742865
 20
118.3800713731058
 30
0.0
 10
273.2593168323438
 20
118.1123032884559
 30
0.0
 10
272.4886477723514
 20
117.8481848501387
 30
0.0
 10
271.7167187958202
 20
117.5877193852732
 30
0.0
 10
270.9435465040298
 20
117.330910220646
 30
0.0
 10
270.1691474981606
 20
117.077760682362
 30
0.0
 10
269.3935383792569
 20
116.8282740959234
 30
0.0
 10
268.6167357482369
 20
116.5824537861982
 30
0.0
 10
267.8387562058917
 20
116.3403030774139
 30
0.0
 10
267.0596163528842
 20
116.1018252931446
 30
0.0
 10
266.2793327897499
 20
115.8670237563033
 30
0.0
 10
265.4979221168973
 20
115.6359017891301
 30
0.0
 10
264.7154009346074
 20
115.4084627131812
 30
0.0
 10
263.9317858430343
 20
115.1847098493195
 30
0.0
 10
263.1470934422052
 20
114.9646465177031
 30
0.0
 10
262.3613403320199
 20
114.7482760377763
 30
0.0
 10
261.5745431122523
 20
114.5356017282563
 30
0.0
 10
260.7867183825487
 20
114.3266269071269
 30
0.0
 10
259.9978827424292
 20
114.1213548916243
 30
0.0
 10
259.2080527912881
 20
113.9197889982264
 30
0.0
 10
258.4172451283922
 20
113.7219325426483
 30
0.0
 10
257.6254763528827
 20
113.5277888398226
 30
0.0
 10
256.8327630637747
 20
113.3373612038965
 30
0.0
 10
256.0391218599569
 20
113.1506529482169
 30
0.0
 10
255.2445693401925
 20
112.9676673853239
 30
0.0
 10
254.4491221031184
 20
112.7884078269339
 30
0.0
 10
253.6527967472453
 20
112.6128775839406
 30
0.0
 10
252.8556098709624
 20
112.4410799663741
 30
0.0
 10
252.057578072517
 20
112.273018283498
 30
0.0
 10
251.258717950092
 20
112.1086958433944
 30
0.0
 10
250.4590461015158
 20
111.9481159544755
 30
0.0
 10
249.658579125349
 20
111.7912819197732
 30
0.0
 10
248.8573336168259
 20
111.6381970582183
 30
0.0
 10
248.0553261831762
 20
111.4888646251961
 30
0.0
 10
247.2525735122742
 20
111.3432881318323
 30
0.0
 10
246.4490929471956
 20
111.2014702835664
 30
0.0
 10
245.6449036119673
 20
111.0634068020006
 30
0.0
 10
244.840024899453
 20
110.9290940672075
 30
0.0
 10
244.0344762899182
 20
110.7985283097351
 30
0.0
 10
243.22827725484
 20
110.6717058007006
 30
0.0
 10
242.4214472672541
 20
110.5486227981014
 30
0.0
 10
241.6140057989715
 20
110.4292755611663
 30
0.0
 10
240.8059723213154
 20
110.3136603464804
 30
0.0
 10
239.9973663049138
 20
110.2017734089902
 30
0.0
 10
239.1882072197457
 20
110.0936110017046
 30
0.0
 10
238.3785145351185
 20
109.9891693757387
 30
0.0
 10
237.5683077196651
 20
109.8884447802763
 30
0.0
 10
236.7576062413344
 20
109.7914334625411
 30
0.0
 10
235.9464295673845
 20
109.6981316677793
 30
0.0
 10
235.1347971643746
 20
109.608535639226
 30
0.0
 10
234.3227284981578
 20
109.5226416180877
 30
0.0
 10
233.5102430338728
 20
109.4404458435112
 30
0.0
 10
232.697360235937
 20
109.3619445525618
 30
0.0
 10
231.8840995680383
 20
109.2871339801974
 30
0.0
 10
231.0704804931275
 20
109.2160103592418
 30
0.0
 10
230.2565224734105
 20
109.1485699203621
 30
0.0
 10
229.4422449703414
 20
109.0848088920409
 30
0.0
 10
228.6276674446139
 20
109.0247235005537
 30
0.0
 10
227.8128093561533
 20
108.9683099699382
 30
0.0
 10
226.997690164111
 20
108.9155645219897
 30
0.0
 10
226.1823293268531
 20
108.86648337616
 30
0.0
 10
225.3667463019569
 20
108.8210627498063
 30
0.0
 10
224.5509605461994
 20
108.7792988571573
 30
0.0
 10
223.7349915155525
 20
108.7411879130462
 30
0.0
 10
222.918858665173
 20
108.7067261188491
 30
0.0
 10
222.1025814493976
 20
108.6759097148717
 30
0.0
 10
221.2861793217293
 20
108.6487347846835
 30
0.0
 10
220.4696717348479
 20
108.6251979852613
 30
0.0
 10
219.6530781405364
 20
108.6052938219622
 30
0.0
 10
218.8364179899178
 20
108.5890248181267
 30
0.0
 10
218.0197107325368
 20
108.5763635625122
 30
0.0
 10
217.2029758197478
 20
108.5673943454237
 30
0.0
 10
216.3862326920347
 20
108.5617845859561
 30
0.0
 10
215.841734971265
 20
108.5610997850919
 30
0.0
 10
215.5694906320362
 20
108.5607693243833
 30
0.0
  0
LINE
  5
F7
330
CC
100
AcDbEntity
  8
DV3_Standard
 62
     7
100
AcDbLine
 10
388.4526967123
 20
599.6348729229
 30
0.0
 11
36.6863322269
 21
599.6348729214
 31
0.0
  0
CIRCLE
  5
F8
330
CC
100
AcDbEntity
  8
DV3_Standard
 62
     7
100
AcDbCircle
 10
138.0694902758
 20
541.6348758154
 30
0.0
 40
8.0
  0
CIRCLE
  5
F9
330
CC
100
AcDbEntity
  8
DV3_Standard
 62
     7
100
AcDbCircle
 10
293.0694902758
 20
541.6348758154
 30
0.0
 40
8.0
  0
SPLINE
  5
FA
330
CC
100
AcDbEntity
  8
DV3_Standard
 62
     7
100
AcDbSpline
210
0.0
220
0.0
230
1.0
 70
     8
 71
     3
 72
   156
 73
   152
 74
     0
 42
0.000000001
 43
0.0000000001
 40
0.0
 40
0.0
 40
0.0
 40
0.0
 40
0.0200537672486699
 40
0.0484180798967249
 40
0.076793636863003
 40
0.0831432596021152
 40
0.0894926182941879
 40
0.0958417124216934
 40
0.1021905398051662
 40
0.1085390986680322
 40
0.1148873876509851
 40
0.1212354058213998
 40
0.1275831526827505
 40
0.1339306281839923
 40
0.1402778327289659
 40
0.1466247671857698
 40
0.1529714328961181
 40
0.1593178316847122
 40
0.1656639658685685
 40
0.1720098380784319
 40
0.1783554474810846
 40
0.1847007898964749
 40
0.1910458613864902
 40
0.1973906584135968
 40
0.2037351778509974
 40
0.2100794169927724
 40
0.2164233735640235
 40
0.2227670457309933
 40
0.2291104321111903
 40
0.2354535317834957
 40
0.2417963442982554
 40
0.248138869687379
 40
0.254481107596425
 40
0.2608230541816846
 40
0.267164704819538
 40
0.273506055191853
 40
0.2798471012966254
 40
0.2861878394585576
 40
0.2925282663396274
 40
0.2988683789496626
 40
0.3052081746568835
 40
0.311547651198448
 40
0.3178868066909945
 40
0.3242256396051388
 40
0.3305641477249351
 40
0.3369023278791658
 40
0.3432401770375235
 40
0.3495776923856904
 40
0.3559148713359734
 40
0.3622517115379638
 40
0.3685882108891597
 40
0.3749243675455976
 40
0.3812601799324631
 40
0.3875956467546958
 40
0.3939307668384113
 40
0.4002655380260712
 40
0.4065999577614066
 40
0.4129340236234507
 40
0.4192677333397196
 40
0.4256010847969651
 40
0.4319340760519265
 40
0.4382667053420766
 40
0.4445989710963402
 40
0.4509308719458291
 40
0.4572624066572779
 40
0.4635935732673183
 40
0.469924369298108
 40
0.4762547923288142
 40
0.4825848400167069
 40
0.488914510108043
 40
0.4952438004489457
 40
0.5015727089962736
 40
0.5079012338284759
 40
0.5142293731564376
 40
0.5205571252263348
 40
0.5268844872544223
 40
0.5332114557746703
 40
0.5395380272974377
 40
0.545864198329798
 40
0.5521899653866623
 40
0.5585153250018939
 40
0.5648402737394244
 40
0.5711648082043399
 40
0.5774889250539769
 40
0.5838126209331763
 40
0.5901358918296411
 40
0.5964587332565746
 40
0.6027811405802961
 40
0.6091031090345591
 40
0.6154246337319245
 40
0.6217457096751183
 40
0.6280663317683949
 40
0.6343864948288646
 40
0.640706193597837
 40
0.647025422785689
 40
0.653344177217236
 40
0.6596624515306126
 40
0.6659802400472608
 40
0.6722975367830017
 40
0.6786143354596696
 40
0.6849306295167201
 40
0.6912464121228398
 40
0.6975616761875332
 40
0.7038764143726977
 40
0.7101906193965415
 40
0.7165042861826353
 40
0.7228174104393138
 40
0.7291299873609973
 40
0.7354420116295762
 40
0.7417534774260843
 40
0.7480643784423727
 40
0.7543747078927652
 40
0.760684458525688
 40
0.7669936226352955
 40
0.7733021922111051
 40
0.779610161860195
 40
0.7859175285815391
 40
0.7922242887846032
 40
0.7985304381705979
 40
0.8048359717441674
 40
0.8111408838250592
 40
0.8174451680597821
 40
0.8237488174332499
 40
0.8300518242804032
 40
0.8363541802978253
 40
0.8426558774211234
 40
0.8489569191936154
 40
0.8552573175185537
 40
0.861557083773924
 40
0.8678562286069551
 40
0.8741547619432666
 40
0.8804526929960396
 40
0.8867500302751732
 40
0.8930467815964553
 40
0.8993429540907384
 40
0.9056385542130951
 40
0.9119335877520083
 40
0.9182280593176498
 40
0.924521964764388
 40
0.9308152929292804
 40
0.9371080318935927
 40
0.94340016916889
 40
0.9496916917079217
 40
0.9559825859154463
 40
0.9622728376590671
 40
0.9685624322800237
 40
0.974851354603985
 40
0.9811395889517978
 40
0.9874271191502376
 40
0.9937139285427192
 40
1.0
 40
1.0
 40
1.0
 40
1.0
 10
95.5044623170842
 20
155.8403321072799
 30
0.0
 10
96.15041334569442
 20
155.2374489530032
 30
0.0
 10
97.72061037491949
 20
153.7932018045979
 30
0.0
 10
100.2510826090998
 20
151.5467546575017
 30
0.0
 10
102.3678227526904
 20
149.744663061759
 30
0.0
 10
103.7606490866947
 20
148.5891482519055
 30
0.0
 10
104.4090568698016
 20
148.0563002575267
 30
0.0
 10
105.059916039957
 20
147.5265058848746
 30
0.0
 10
105.713214838094
 20
146.9997786642607
 30
0.0
 10
106.3689406800999
 20
146.4761328935437
 30
0.0
 10
107.0270811898208
 20
145.9555826734294
 30
0.0
 10
107.6876239412476
 20
145.4381421503693
 30
0.0
 10
108.3505565276227
 20
144.9238254514286
 30
0.0
 10
109.0158665429691
 20
144.4126467018013
 30
0.0
 10
109.6835415868699
 20
143.904620019889
 30
0.0
 10
110.3535692638031
 20
143.3997595194747
 30
0.0
 10
111.0259371810154
 20
142.8980793059532
 30
0.0
 10
111.7006329576914
 20
142.3995934892513
 30
0.0
 10
112.3776441837007
 20
141.9043161408117
 30
0.0
 10
113.0569584067378
 20
141.4122615748514
 30
0.0
 10
113.7385623992426
 20
140.923443625097
 30
0.0
 10
114.4224422143301
 20
140.4378756992197
 30
0.0
 10
115.1085838700956
 20
139.955571434737
 30
0.0
 10
115.7969733583618
 20
139.4765444313909
 30
0.0
 10
116.487596683256
 20
139.0008082931945
 30
0.0
 10
117.1804398522941
 20
138.5283766161437
 30
0.0
 10
117.8754888787779
 20
138.0592629915284
 30
0.0
 10
118.5727297811082
 20
137.5934810049735
 30
0.0
 10
119.2721485831284
 20
137.1310442369789
 30
0.0
 10
119.9737313134241
 20
136.6719662617193
 30
0.0
 10
120.6774640077704
 20
136.2162606513098
 30
0.0
 10
121.3833326674686
 20
135.7639409808332
 30
0.0
 10
122.0913231441975
 20
135.3150209807445
 30
0.0
 10
122.8014199924556
 20
134.8695128122973
 30
0.0
 10
123.5136075629565
 20
134.4274286952886
 30
0.0
 10
124.2278701804842
 20
133.9887808840641
 30
0.0
 10
124.9441921735594
 20
133.5535816242671
 30
0.0
 10
125.6625578772581
 20
133.1218431577237
 30
0.0
 10
126.3829516322648
 20
132.693577720797
 30
0.0
 10
127.1053577858297
 20
132.2687975460851
 30
0.0
 10
127.8297606888803
 20
131.8475148572878
 30
0.0
 10
128.5561447065998
 20
131.4297418880359
 30
0.0
 10
129.2844941776212
 20
131.0154908125151
 30
0.0
 10
130.014793519359
 20
130.6047740306945
 30
0.0
 10
130.7470265360472
 20
130.197603059918
 30
0.0
 10
131.4811763124129
 20
129.7939883129159
 30
0.0
 10
132.2172260231998
 20
129.3939404551526
 30
0.0
 10
132.9551588121667
 20
128.9974700873481
 30
0.0
 10
133.6949578388417
 20
128.6045878225586
 30
0.0
 10
134.4366062665287
 20
128.2153042648936
 30
0.0
 10
135.1800872659998
 20
127.8296300162083
 30
0.0
 10
135.9253840127031
 20
127.4475756706055
 30
0.0
 10
136.672479694233
 20
127.0691518297535
 30
0.0
 10
137.4213574765623
 20
126.6943690504497
 30
0.0
 10
138.172000554136
 20
126.3232380772835
 30
0.0
 10
138.9243913542938
 20
125.9557682905271
 30
0.0
 10
139.6785120987523
 20
125.5919687954132
 30
0.0
 10
140.4343450334194
 20
125.2318487821467
 30
0.0
 10
141.1918724006316
 20
124.8754174163038
 30
0.0
 10
141.9510764521064
 20
124.5226838650746
 30
0.0
 10
142.7119394460229
 20
124.1736572914405
 30
0.0
 10
143.474443645833
 20
123.8283468511781
 30
0.0
 10
144.2385713279198
 20
123.4867617106674
 30
0.0
 10
145.0043047490323
 20
123.1489109800338
 30
0.0
 10
145.771626217846
 20
122.814803984949
 30
0.0
 10
146.5405174649275
 20
122.4844488941214
 30
0.0
 10
147.3109599258494
 20
122.1578533273484
 30
0.0
 10
148.0829350794651
 20
121.8350250489808
 30
0.0
 10
148.8564243953134
 20
121.515971783583
 30
0.0
 10
149.6314093541669
 20
121.2007012621059
 30
0.0
 10
150.4078714431232
 20
120.8892212107716
 30
0.0
 10
151.1857921550951
 20
120.5815393491866
 30
0.0
 10
151.9651529957426
 20
120.2776634090015
 30
0.0
 10
152.7459354518089
 20
119.9776010628854
 30
0.0
 10
153.5281210442207
 20
119.6813602151139
 30
0.0
 10
154.3116907064516
 20
119.3889474541128
 30
0.0
 10
155.0966251027614
 20
119.1003688390705
 30
0.0
 10
155.8829049285476
 20
118.8156305728724
 30
0.0
 10
156.6705108725154
 20
118.5347388196287
 30
0.0
 10
157.4594236343057
 20
118.2576997502576
 30
0.0
 10
158.2496239203689
 20
117.9845195317928
 30
0.0
 10
159.0410924432094
 20
117.7152043244198
 30
0.0
 10
159.8338099285214
 20
117.4497603040371
 30
0.0
 10
160.6277570842204
 20
117.1881935760156
 30
0.0
 10
161.4229146737805
 20
116.9305105116091
 30
0.0
 10
162.2192628228774
 20
116.6767156677405
 30
0.0
 10
163.0167814487724
 20
116.4268130434739
 30
0.0
 10
163.8154505087975
 20
116.1808067834926
 30
0.0
 10
164.6152499555652
 20
115.9387009924876
 30
0.0
 10
165.4161597525512
 20
115.7004997832244
 30
0.0
 10
166.2181598704018
 20
115.4662072653623
 30
0.0
 10
167.0212302862398
 20
115.2358275420883
 30
0.0
 10
167.825350990117
 20
115.0093647347462
 30
0.0
 10
168.6305019613205
 20
114.7868228873089
 30
0.0
 10
169.4366632695092
 20
114.5682063203435
 30
0.0
 10
170.2438143746132
 20
114.3535170393251
 30
0.0
 10
171.0519346268327
 20
114.1427565054295
 30
0.0
 10
171.8610034270786
 20
113.9359263152299
 30
0.0
 10
172.6710001743746
 20
113.7330280276528
 30
0.0
 10
173.4819042781795
 20
113.5340632102106
 30
0.0
 10
174.2936951555374
 20
113.3390334287637
 30
0.0
 10
175.1063522301244
 20
113.1479402422681
 30
0.0
 10
175.9198549388981
 20
112.9607852339877
 30
0.0
 10
176.7341827190143
 20
112.7775698890989
 30
0.0
 10
177.54931520839
 20
112.5982960190274
 30
0.0
 10
178.3652316615004
 20
112.4229628602266
 30
0.0
 10
179.1819113505115
 20
112.2515688456763
 30
0.0
 10
179.9993336545874
 20
112.0841125889044
 30
0.0
 10
180.8174779500921
 20
111.9205926521446
 30
0.0
 10
181.6363236242354
 20
111.7610076113078
 30
0.0
 10
182.4558500716681
 20
111.6053560408007
 30
0.0
 10
183.2760366940032
 20
111.4536365093824
 30
0.0
 10
184.0968629051251
 20
111.3058476118994
 30
0.0
 10
184.9183081164185
 20
111.1619878454646
 30
0.0
 10
185.740351946931
 20
111.022056046353
 30
0.0
 10
186.5629739942373
 20
110.8860492958241
 30
0.0
 10
187.3861538633502
 20
110.7539629448613
 30
0.0
 10
188.2098713695943
 20
110.6257926794717
 30
0.0
 10
189.0341063253427
 20
110.5015340903585
 30
0.0
 10
189.8588385551485
 20
110.3811827954514
 30
0.0
 10
190.6840478901361
 20
110.2647344070455
 30
0.0
 10
191.5097141696245
 20
110.1521845416628
 30
0.0
 10
192.3358172402358
 20
110.0435288134555
 30
0.0
 10
193.1623369578291
 20
109.9387628507283
 30
0.0
 10
193.9892532185146
 20
109.837882231824
 30
0.0
 10
194.8165465191125
 20
109.7408826448161
 30
0.0
 10
195.6441982217218
 20
109.647758737055
 30
0.0
 10
196.4721905764109
 20
109.558504466641
 30
0.0
 10
197.3005062633873
 20
109.4731138782248
 30
0.0
 10
198.1291279747814
 20
109.3915809820076
 30
0.0
 10
198.9580384105075
 20
109.3138997998093
 30
0.0
 10
199.7872202768504
 20
109.2400643529834
 30
0.0
 10
200.6166562868476
 20
109.1700686657409
 30
0.0
 10
201.4463291601658
 20
109.1039067639348
 30
0.0
 10
202.2762216232043
 20
109.0415726766059
 30
0.0
 10
203.1063164087938
 20
108.983060430986
 30
0.0
 10
203.9365962343914
 20
108.9283640724585
 30
0.0
 10
204.7670434414045
 20
108.8774776170213
 30
0.0
 10
205.5976397342902
 20
108.8303953956678
 30
0.0
 10
206.4283661881217
 20
108.7871119766451
 30
0.0
 10
207.2592035924664
 20
108.7476219080937
 30
0.0
 10
208.0901327373112
 20
108.7119197405393
 30
0.0
 10
208.9211344198691
 20
108.6800000661168
 30
0.0
 10
209.7521894448232
 20
108.6518573199641
 30
0.0
 10
210.5832786242446
 20
108.627486534856
 30
0.0
 10
211.4143827776606
 20
108.6068805216914
 30
0.0
 10
212.2454827318542
 20
108.5900403913485
 30
0.0
 10
213.0765593215824
 20
108.5769362926709
 30
0.0
 10
213.9075933868948
 20
108.5676539161597
 30
0.0
 10
214.7385657831247
 20
108.5618478271442
 30
0.0
 10
215.2925265202211
 20
108.5611367674155
 30
0.0
 10
215.5694906320362
 20
108.5607693243833
 30
0.0
  0
LINE
  5
FB
330
CC
100
AcDbEntity
  8
DV3_Standard
 62
     7
100
AcDbLine
 10
85.5694902758
 20
325.6348758127
 30
0.0
 11
85.5694902758
 21
300.6348758154
 31
0.0
  0
SPLINE
  5
FC
330
CC
100
AcDbEntity
  8
DV3_Standard
 62
     7
100
AcDbSpline
210
0.0
220
0.0
230
1.0
 70
    12
 71
     3
 72
    30
 73
    26
 74
     0
 42
0.000000001
 43
0.0000000001
 40
0.0
 40
0.0
 40
0.0
 40
0.0
 40
0.07618601640334
 40
0.1499690858297
 40
0.2200325619814
 40
0.2849011224265
 40
0.343766164203
 40
0.3964648957703
 40
0.4432546043824
 40
0.4846924202224
 40
0.521678685994
 40
0.555503652716
 40
0.5876564826802
 40
0.6194613767169
 40
0.6514509696826
 40
0.6834652595262
 40
0.715423269623
 40
0.7474041884609
 40
0.7795373936683
 40
0.8120038450259
 40
0.8451091172108
 40
0.8790819487796
 40
0.9152225036476
 40
0.9550688028384
 40
1.0
 40
1.0
 40
1.0
 40
1.0
 10
85.56949027577876
 20
325.6348758126832
 30
0.0
 41
1.171572875461384
 10
85.5695210384288
 20
331.1538204679586
 30
0.0
 41
1.171572875461384
 10
86.07997524559008
 20
342.0211829755823
 30
0.0
 41
1.171572875461384
 10
88.33063334913263
 20
357.810435791903
 30
0.0
 41
1.171572875461384
 10
91.85690088328214
 20
372.5108751190983
 30
0.0
 41
1.171572875461384
 10
96.36309262482673
 20
385.7895385378642
 30
0.0
 41
1.171572875461384
 10
101.5064004035357
 20
397.4575982427544
 30
0.0
 41
1.171572875461384
 10
106.9692582242317
 20
407.4988990018726
 30
0.0
 41
1.171572875461384
 10
112.5004140132309
 20
416.0230710868195
 30
0.0
 41
1.171572875461384
 10
117.9358470843459
 20
423.2203713307052
 30
0.0
 41
1.171572875461384
 10
123.2150129057368
 20
429.3347968448562
 30
0.0
 41
1.171572875461384
 10
128.3847146673166
 20
434.6358408654414
 30
0.0
 41
1.171572875461384
 10
133.5735854566262
 20
439.3757703655078
 30
0.0
 41
1.171572875461384
 10
138.9192134858702
 20
443.7275593765753
 30
0.0
 41
1.171572875461384
 10
144.4966128263158
 20
447.7574586624251
 30
0.0
 41
1.171572875461384
 10
150.3075281289841
 20
451.4606444133355
 30
0.0
 41
1.171572875461384
 10
156.3242918552532
 20
454.8168880072132
 30
0.0
 41
1.171572875461384
 10
162.5352212453818
 20
457.8195805954584
 30
0.0
 41
1.171572875461384
 10
168.9459009239678
 20
460.4697549544503
 30
0.0
 41
1.171572875461384
 10
175.5785778217932
 20
462.7706705932254
 30
0.0
 41
1.171572875461384
 10
182.4644496133105
 20
464.7206731054518
 30
0.0
 41
1.171572875461384
 10
189.7146946455536
 20
466.3271167257512
 30
0.0
 41
1.171572875461384
 10
197.5328077612124
 20
467.5830097536017
 30
0.0
 41
1.171572875461384
 10
206.2080862709778
 20
468.4352461244759
 30
0.0
 41
1.171572875461384
 10
212.3258210070111
 20
468.6348698952585
 30
0.0
 41
1.171572875461384
 10
215.5694902715741
 20
468.6348758153832
 30
0.0
 41
1.171572875461384
  0
SPLINE
  5
FD
330
CC
100
AcDbEntity
  8
DV3_Standard
 62
     7
100
AcDbSpline
210
0.0
220
0.0
230
1.0
 70
    12
 71
     3
 72
    29
 73
    25
 74
     0
 42
0.000000001
 43
0.0000000001
 40
0.0
 40
0.0
 40
0.0
 40
0.0
 40
0.03924402524621
 40
0.07578662313658
 40
0.1111697239044
 40
0.1456640451635
 40
0.1795507648767
 40
0.2130357006291
 40
0.2461386159799
 40
0.2789041226338
 40
0.3115815637161
 40
0.344281744793
 40
0.3768225165858
 40
0.4096607019489
 40
0.444314742756
 40
0.4827821554952
 40
0.5267369539097
 40
0.5771745137873
 40
0.6349083127225
 40
0.6999301626687
 40
0.7707384848155
 40
0.8450778558205
 40
0.9217966800894
 40
1.0
 40
1.0
 40
1.0
 40
1.0
 10
215.5694902715741
 20
468.6348758153832
 30
0.0
 41
1.171572875675841
 10
218.4024890089042
 20
468.6348719910823
 30
0.0
 41
1.171572875675841
 10
223.8712299999438
 20
468.4790572784923
 30
0.0
 41
1.171572875675841
 10
231.8562191411748
 20
467.7871506868918
 30
0.0
 41
1.171572875675841
 10
239.4418510315795
 20
466.687803314588
 30
0.0
 41
1.171572875675841
 10
246.756971304365
 20
465.1901775757345
 30
0.0
 41
1.171572875675841
 10
253.8345186615524
 20
463.3033207234278
 30
0.0
 41
1.171572875675841
 10
260.6888611590987
 20
461.0336977355836
 30
0.0
 41
1.171572875675841
 10
267.3178395119542
 20
458.3903886135316
 30
0.0
 41
1.171572875675841
 10
273.7226484124124
 20
455.381141452486
 30
0.0
 41
1.171572875675841
 10
279.909909034837
 20
452.0084951359439
 30
0.0
 41
1.171572875675841
 10
285.8708796175095
 20
448.2801427078892
 30
0.0
 41
1.171572875675841
 10
291.6100329053016
 20
444.1965513295311
 30
0.0
 41
1.171572875675841
 10
297.2091566348681
 20
439.6918025606046
 30
0.0
 41
1.171572875675841
 10
302.8451463801866
 20
434.5696254063089
 30
0.0
 41
1.171572875675841
 10
308.7019302937323
 20
428.5191650962851
 30
0.0
 41
1.171572875675823
 10
314.8548507076743
 20
421.1958513998221
 30
0.0
 41
1.171572875675841
 10
321.2321862328635
 20
412.2766566865059
 30
0.0
 41
1.171572875675841
 10
327.6029596587957
 20
401.5225719702536
 30
0.0
 41
1.171572875675841
 10
333.584405191358
 20
388.8768616788623
 30
0.0
 41
1.171572875675841
 10
338.7147164029283
 20
374.5600666563183
 30
0.0
 41
1.171572875675841
 10
342.6100414876529
 20
358.967985563069
 30
0.0
 41
1.171572875675841
 10
345.0282022395272
 20
342.526019484021
 30
0.0
 41
1.171572875675823
 10
345.5694565677936
 20
331.2998046652435
 30
0.0
 41
1.17157287567584
 10
345.5694902757788
 20
325.6348758154833
 30
0.0
 41
1.171572875675841
  0
LINE
  5
FE
330
CC
100
AcDbEntity
  8
DV3_Standard
 62
     7
100
AcDbLine
 10
345.5694902758
 20
300.6348758227
 30
0.0
 11
345.5694902758
 21
325.6348758155
 31
0.0
  0
SPLINE
  5
FF
330
CC
100
AcDbEntity
  8
DV3_Standard
 62
     7
100
AcDbSpline
210
0.0
220
0.0
230
1.0
 70
    12
 71
     3
 72
    28
 73
    24
 74
     0
 42
0.000000001
 43
0.0000000001
 40
0.0
 40
0.0
 40
0.0
 40
0.0
 40
0.07672256824541
 40
0.1485024002078
 40
0.2188441690403
 40
0.2867139784671
 40
0.3519809544992
 40
0.4144606620216
 40
0.4731414271726
 40
0.5268437680472
 40
0.5750669954677
 40
0.6177783573174
 40
0.655612036366
 40
0.6899069231446
 40
0.7223509751412
 40
0.7544397334844
 40
0.7867131396213
 40
0.8189728403709
 40
0.8513398357643
 40
0.8841559588611
 40
0.9187621617861
 40
0.9568797032527
 40
1.0
 40
1.0
 40
1.0
 40
1.0
 10
345.5694902757788
 20
300.6348758226832
 30
0.0
 41
1.171572875371607
 10
345.5694605247081
 20
295.1006733724803
 30
0.0
 41
1.171572875371607
 10
345.0779277140989
 20
284.3887919629699
 30
0.0
 41
1.171572875371607
 10
342.8767196548635
 20
268.7628706911156
 30
0.0
 41
1.171572875371607
 10
339.3556778299708
 20
254.0502011460869
 30
0.0
 41
1.171572875371607
 10
334.5819460672087
 20
240.2067016813245
 30
0.0
 41
1.171572875371607
 10
328.7171478304454
 20
227.4245908935803
 30
0.0
 41
1.171572875371607
 10
321.9662350668368
 20
215.8615938243807
 30
0.0
 41
1.171572875371607
 10
314.6221370813166
 20
205.6889349967336
 30
0.0
 41
1.171572875371607
 10
307.0471290956899
 20
197.0188476841577
 30
0.0
 41
1.171572875371607
 10
299.5835379170432
 20
189.8337912028909
 30
0.0
 41
1.171572875371607
 10
292.4624605083524
 20
183.9811862824777
 30
0.0
 41
1.171572875371607
 10
285.7635019323445
 20
179.2230769841788
 30
0.0
 41
1.171572875371607
 10
279.4027231022616
 20
175.2869125822793
 30
0.0
 41
1.171572875371607
 10
273.1835029492506
 20
171.9276031155197
 30
0.0
 41
1.171572875371607
 10
266.9138844113415
 20
168.9888993390256
 30
0.0
 41
1.171572875371607
 10
260.499405036051
 20
166.4140847841766
 30
0.0
 41
1.171572875371607
 10
253.9297436448809
 20
164.1978475559913
 30
0.0
 41
1.171572875371607
 10
247.2070079314457
 20
162.3409983975914
 30
0.0
 41
1.171572875371607
 10
240.224499953857
 20
160.8242038313645
 30
0.0
 41
1.171572875371607
 10
232.7565873915554
 20
159.6388920149025
 30
0.0
 41
1.171572875371607
 10
224.4908531312462
 20
158.8278356209373
 30
0.0
 41
1.171572875371607
 10
218.663286701624
 20
158.6348809481325
 30
0.0
 41
1.171572875371607
 10
215.5694902769554
 20
158.6348758153832
 30
0.0
 41
1.171572875371607
  0
SPLINE
  5
100
330
CC
100
AcDbEntity
  8
DV3_Standard
 62
     7
100
AcDbSpline
210
0.0
220
0.0
230
1.0
 70
    12
 71
     3
 72
    28
 73
    24
 74
     0
 42
0.000000001
 43
0.0000000001
 40
0.0
 40
0.0
 40
0.0
 40
0.0
 40
0.03608744545062
 40
0.06959682694171
 40
0.1019460196734
 40
0.1335936575738
 40
0.1649777594681
 40
0.196403541921
 40
0.2277259677019
 40
0.2589567188971
 40
0.2910988002474
 40
0.3259689380394
 40
0.3653582207561
 40
0.4104461816334
 40
0.4615497757088
 40
0.5180033094991
 40
0.5784676478651
 40
0.6417512675425
 40
0.7076305715579
 40
0.7758326315197
 40
0.8471331697305
 40
0.9218771722425
 40
1.0
 40
1.0
 40
1.0
 40
1.0
 10
215.5694902769554
 20
158.6348758153832
 30
0.0
 41
1.171572875384139
 10
212.9803386334794
 20
158.6348786837016
 30
0.0
 41
1.171572875384139
 10
207.9880631892257
 20
158.7731710380762
 30
0.0
 41
1.171572875384139
 10
200.7038742285631
 20
159.3777235361609
 30
0.0
 41
1.171572875384139
 10
193.7819646826783
 20
160.3272729313194
 30
0.0
 41
1.171572875384139
 10
187.0734573176443
 20
161.6139881278571
 30
0.0
 41
1.171572875384139
 10
180.5101254079308
 20
163.2399196098021
 30
0.0
 41
1.171572875384139
 10
174.0685129581971
 20
165.209931973719
 30
0.0
 41
1.171572875384139
 10
167.7558448073382
 20
167.523726777423
 30
0.0
 41
1.171572875384139
 10
161.533504160633
 20
170.1996855281309
 30
0.0
 41
1.171572875384139
 10
155.2434244459309
 20
173.3315403472587
 30
0.0
 41
1.171572875384139
 10
148.6428701974249
 20
177.1205879708463
 30
0.0
 41
1.171572875384139
 10
141.5312357392891
 20
181.8471116982907
 30
0.0
 41
1.171572875384139
 10
133.8681532747642
 20
187.8023267978381
 30
0.0
 41
1.171572875384139
 10
125.8236471417979
 20
195.2072053063589
 30
0.0
 41
1.171572875384139
 10
117.7444414178516
 20
204.1405783148768
 30
0.0
 41
1.171572875384139
 10
110.041080103717
 20
214.5247113565153
 30
0.0
 41
1.171572875384139
 10
103.0518710911948
 20
226.2128688695437
 30
0.0
 41
1.171572875384139
 10
97.01930904812437
 20
239.0547364783616
 30
0.0
 41
1.171572875384139
 10
92.09083035199659
 20
252.9881558564086
 30
0.0
 41
1.171572875384139
 10
88.39898153378742
 20
267.9742133879016
 30
0.0
 41
1.171572875384139
 10
86.08472120643826
 20
283.9731118586196
 30
0.0
 41
1.171572875384139
 10
85.56952365055642
 20
294.9997223833747
 30
0.0
 41
1.171572875384139
 10
85.56949027577876
 20
300.6348758153832
 30
0.0
 41
1.171572875384139
  0
SPLINE
  5
101
330
CC
100
AcDbEntity
  8
DV3_Standard
 62
     7
100
AcDbSpline
210
0.0
220
0.0
230
1.0
 70
     8
 71
     3
 72
    77
 73
    73
 74
     0
 42
0.000000001
 43
0.0000000001
 40
0.0
 40
0.0
 40
0.0
 40
0.0
 40
0.0093812288407149
 40
0.0199701573948369
 40
0.0308983113933786
 40
0.0414577848244009
 40
0.0519518525650654
 40
0.0616618566055512
 40
0.071470894952325
 40
0.0824454245820878
 40
0.0935871301119952
 40
0.1044565303428194
 40
0.1155071094064765
 40
0.1264275926603955
 40
0.137069292698596
 40
0.1482944448129841
 40
0.1592178400177857
 40
0.1698862636087951
 40
0.1807354660260459
 40
0.1901034310508714
 40
0.1991983953576689
 40
0.2086720689970691
 40
0.2182970492646089
 40
0.2280108240084642
 40
0.2377039293873112
 40
0.2477691751183288
 40
0.2585835166938811
 40
0.269634345931603
 40
0.2810824262325532
 40
0.294025011064578
 40
0.307450476950084
 40
0.3213860381930665
 40
0.337709054746563
 40
0.3570157314096301
 40
0.3818053732263382
 40
0.4276423701981266
 40
0.5237098954236933
 40
0.743671541061315
 40
0.7546014590317114
 40
0.7660377144099786
 40
0.7763788661026507
 40
0.7864213732833222
 40
0.7966957782937336
 40
0.8066403368196501
 40
0.8167545007934781
 40
0.8213833349673398
 40
0.8251480158379072
 40
0.8291906402756198
 40
0.8335244082996385
 40
0.8379371096727206
 40
0.8427799177849876
 40
0.8477125624247108
 40
0.8527274846284237
 40
0.8584282739731746
 40
0.8643294062633344
 40
0.8702700081678343
 40
0.8762377419287848
 40
0.882933121669402
 40
0.8896397509704912
 40
0.896697098989733
 40
0.9040353611690941
 40
0.911771471475221
 40
0.9194656034272654
 40
0.9271896049328581
 40
0.9356135251007262
 40
0.9440841693567277
 40
0.9529634145107995
 40
0.9619938903091978
 40
0.9712201468544992
 40
0.9808433832812633
 40
0.9906606578528192
 40
1.0
 40
1.0
 40
1.0
 40
1.0
 10
338.8359235608378
 20
158.9015684251061
 30
0.0
 10
339.9566928725513
 20
159.9978546776507
 30
0.0
 10
341.9241076511909
 20
161.9784874984192
 30
0.0
 10
345.263716412454
 20
165.4887984652483
 30
0.0
 10
348.4679234806328
 20
169.0598348539549
 30
0.0
 10
351.6496037173397
 20
172.7849182702744
 30
0.0
 10
354.5752120869719
 20
176.4037543400592
 30
0.0
 10
357.3644018113697
 20
180.0250804975934
 30
0.0
 10
360.099003239045
 20
183.7581907378248
 30
0.0
 10
362.8702652198923
 20
187.7433676129986
 30
0.0
 10
365.6201943263852
 20
191.9315273670246
 30
0.0
 10
368.2676151574398
 20
196.2018610478302
 30
0.0
 10
370.7854644842929
 20
200.5093844172775
 30
0.0
 10
373.1745936266563
 20
204.8509851158724
 30
0.0
 10
375.4639078313275
 20
209.2754721483284
 30
0.0
 10
377.637363437896
 20
213.7587821960194
 30
0.0
 10
379.6924570347635
 20
218.301885571981
 30
0.0
 10
381.6074610583003
 20
222.8438857546093
 30
0.0
 10
383.3178286777076
 20
227.2140019874418
 30
0.0
 10
384.827930455808
 20
231.4040053285654
 30
0.0
 10
386.1556061921402
 20
235.4358880583863
 30
0.0
 10
387.374958084199
 20
239.5426619475599
 30
0.0
 10
388.4924041249964
 20
243.7756571987674
 30
0.0
 10
389.4899101245727
 20
248.0726999131477
 30
0.0
 10
390.3780174018377
 20
252.4619057125625
 30
0.0
 10
391.1760707539663
 20
257.0381615921124
 30
0.0
 10
391.8851617989805
 20
261.8376951965217
 30
0.0
 10
392.5019121745411
 20
266.8615934285226
 30
0.0
 10
393.0394944952148
 20
272.2197051135401
 30
0.0
 10
393.4885875979299
 20
277.9478154150327
 30
0.0
 10
393.847527691412
 20
284.0610069075756
 30
0.0
 10
394.1082118266982
 20
290.6930099332467
 30
0.0
 10
394.2918745238863
 20
298.2214926096154
 30
0.0
 10
394.3892424483193
 20
307.400700250106
 30
0.0
 10
394.3699090374728
 20
321.0644158425675
 30
0.0
 10
394.3711849710998
 20
346.3903347095313
 30
0.0
 10
394.3528822311127
 20
401.3689572074541
 30
0.0
 10
394.3642126815186
 20
451.0440549135722
 30
0.0
 10
394.3746635423728
 20
487.8611045159305
 30
0.0
 10
394.3765320758755
 20
492.8303495725256
 30
0.0
 10
394.3781983153266
 20
497.6647727813379
 30
0.0
 10
394.3800844725895
 20
502.3226733842623
 30
0.0
 10
394.3819890851133
 20
506.9203202519512
 30
0.0
 10
394.3840852946213
 20
511.5288533595542
 30
0.0
 10
394.3858834080629
 20
515.2796512193968
 30
0.0
 10
394.3873123286239
 20
518.0915357140007
 30
0.0
 10
394.3882936017633
 20
519.9809670918112
 30
0.0
 10
394.3892789367614
 20
521.8255687130941
 30
0.0
 10
394.3903422453322
 20
523.7686247520297
 30
0.0
 10
394.3915034445367
 20
525.8332528241283
 30
0.0
 10
394.3927488349299
 20
527.9888693787609
 30
0.0
 10
394.3940844213164
 20
530.2359803304588
 30
0.0
 10
394.3955372876389
 20
532.6134475236432
 30
0.0
 10
394.3971259719532
 20
535.1380528295119
 30
0.0
 10
394.3988556094551
 20
537.8033063771487
 30
0.0
 10
394.4006661302939
 20
540.5091000697375
 30
0.0
 10
394.4026140281582
 20
543.3355955043285
 30
0.0
 10
394.4047039354635
 20
546.2784155282845
 30
0.0
 10
394.4069796630646
 20
549.3868908174757
 30
0.0
 10
394.4093977812017
 20
552.5928338257277
 30
0.0
 10
394.412011033973
 20
555.9555741120724
 30
0.0
 10
394.4147799858597
 20
559.4143348634275
 30
0.0
 10
394.4176803661111
 20
562.9330498988616
 30
0.0
 10
394.4207483855689
 20
566.5537571461932
 30
0.0
 10
394.4240111565794
 20
570.297121836134
 30
0.0
 10
394.4275141985964
 20
574.2072273809249
 30
0.0
 10
394.4312175759812
 20
578.2260395199517
 30
0.0
 10
394.4350977046304
 20
582.3285514398581
 30
0.0
 10
394.4392549950394
 20
586.6028722651995
 30
0.0
 10
394.443520765813
 20
590.8835347525776
 30
0.0
 10
394.4481687567575
 20
595.4057511889359
 30
0.0
 10
394.4509769563225
 20
598.0740481200753
 30
0.0
 10
394.452646861419
 20
599.6348734616414
 30
0.0
  0
SPLINE
  5
102
330
CC
100
AcDbEntity
  8
DV3_Standard
 62
     7
100
AcDbSpline
210
0.0
220
0.0
230
1.0
 70
     8
 71
     3
 72
    70
 73
    66
 74
     0
 42
0.000000001
 43
0.0000000001
 40
0.0
 40
0.0
 40
0.0
 40
0.0
 40
0.0082445572239682
 40
0.017092390962567
 40
0.0258021098147652
 40
0.0339851214203826
 40
0.0422235800583848
 40
0.050009609610054
 40
0.0573019712335852
 40
0.0646380989972353
 40
0.0717300274136406
 40
0.0784109214170501
 40
0.0848966565782429
 40
0.0909682964120058
 40
0.0968109607412944
 40
0.1026159745289866
 40
0.1081969831238817
 40
0.1134278643621492
 40
0.1184231222852223
 40
0.1230455799967211
 40
0.1274361580988093
 40
0.1317187155515849
 40
0.136195813797469
 40
0.1532012026855571
 40
0.1702901700226589
 40
0.1886925674645849
 40
0.2074024774420288
 40
0.3043025469247087
 40
0.5100876199964517
 40
0.5855540318263148
 40
0.6280769720680366
 40
0.648513759427157
 40
0.6656489311699834
 40
0.6800940435435247
 40
0.6933026966398257
 40
0.7065089027138257
 40
0.7186551192256991
 40
0.7295341643630456
 40
0.7402902133223925
 40
0.7502849629352321
 40
0.7596946633755837
 40
0.7681772547529082
 40
0.7771399412594098
 40
0.7864866722270564
 40
0.7959338191064228
 40
0.8054489657940387
 40
0.8149450474451352
 40
0.8247872204156182
 40
0.8354107623101801
 40
0.8462358714764211
 40
0.8566249394445262
 40
0.8673645621976839
 40
0.8781956428862823
 40
0.8888605969982868
 40
0.8995274116660109
 40
0.9099107432230726
 40
0.9203049336022373
 40
0.9301506100344852
 40
0.9395721895965943
 40
0.949719597115489
 40
0.9600751255083462
 40
0.9704302694256522
 40
0.9805830944855096
 40
0.9904384813227577
 40
1.0
 40
1.0
 40
1.0
 40
1.0
 10
36.68633222687529
 20
599.6348729213772
 30
0.0
 10
36.687819976816
 20
598.2436218230926
 30
0.0
 10
36.69035750767935
 20
595.8363393999622
 30
0.0
 10
36.69458011634197
 20
591.746711306669
 30
0.0
 10
36.69847980859126
 20
587.862989760206
 30
0.0
 10
36.70229802578432
 20
583.9739112331531
 30
0.0
 10
36.70583379133996
 20
580.2783961043425
 30
0.0
 10
36.7091873379222
 20
576.6918115324806
 30
0.0
 10
36.71232207825265
 20
573.2583451007819
 30
0.0
 10
36.7152974579798
 20
569.9235249009362
 30
0.0
 10
36.71811571259762
 20
566.6867557124936
 30
0.0
 10
36.72075894207716
 20
563.5781508221872
 30
0.0
 10
36.72320836624596
 20
560.6272872397695
 30
0.0
 10
36.72549775965967
 20
557.8043648430495
 30
0.0
 10
36.72765020597499
 20
555.0862146481008
 30
0.0
 10
36.72969691412795
 20
552.4431456103312
 30
0.0
 10
36.73161979676728
 20
549.8940290183616
 30
0.0
 10
36.73341472199335
 20
547.4690805763597
 30
0.0
 10
36.73504720996026
 20
545.1912094247167
 30
0.0
 10
36.73658153209985
 20
543.0422316348215
 30
0.0
 10
36.73795453861475
 20
541.0025949704365
 30
0.0
 10
36.73937738461541
 20
538.9852537231546
 30
0.0
 10
36.74183276645529
 20
535.0327118019563
 30
0.0
 10
36.74586778892181
 20
529.1155735613632
 30
0.0
 10
36.74985407768558
 20
521.0621951891319
 30
0.0
 10
36.754907999309
 20
512.7473300085572
 30
0.0
 10
36.76212736703094
 20
492.1888690600633
 30
0.0
 10
36.7830538351597
 20
442.884553032239
 30
0.0
 10
36.77570760457277
 20
384.8733855716094
 30
0.0
 10
36.77294641749018
 20
335.2040528444891
 30
0.0
 10
36.75224409527173
 20
313.9684968775348
 30
0.0
 10
36.78616534213577
 20
301.6813448149776
 30
0.0
 10
36.9517747318702
 20
293.702795895097
 30
0.0
 10
37.16475628962837
 20
286.8352120627238
 30
0.0
 10
37.48390878261193
 20
280.5746173385654
 30
0.0
 10
37.89083889583306
 20
274.6729645112599
 30
0.0
 10
38.39473623060321
 20
269.1372159239243
 30
0.0
 10
38.97550787286782
 20
263.9873385600526
 30
0.0
 10
39.63214964623471
 20
259.1793047813876
 30
0.0
 10
40.37170633975601
 20
254.6116164520315
 30
0.0
 10
41.16403756743187
 20
250.4071653857918
 30
0.0
 10
42.03022097950765
 20
246.3791875947123
 30
0.0
 10
43.00041961863715
 20
242.3848326049615
 30
0.0
 10
44.12521222528748
 20
238.277525808999
 30
0.0
 10
45.39920761071991
 20
234.1252557287493
 30
0.0
 10
46.80496292536904
 20
229.991555034164
 30
0.0
 10
48.34648104617661
 20
225.8419323512277
 30
0.0
 10
50.05472192060528
 20
221.5744347441401
 30
0.0
 10
51.94837386283918
 20
217.1630815665897
 30
0.0
 10
53.99091818213233
 20
212.7260667953531
 30
0.0
 10
56.15456594306156
 20
208.327075780472
 30
0.0
 10
58.42985527079664
 20
203.9836065286137
 30
0.0
 10
60.83680958713347
 20
199.6633917088234
 30
0.0
 10
63.34826094899029
 20
195.4156482724683
 30
0.0
 10
65.93021804062799
 20
191.2919973985279
 30
0.0
 10
68.59361651993397
 20
187.2687107587739
 30
0.0
 10
71.28310071194599
 20
183.4183682641998
 30
0.0
 10
73.98208513966742
 20
179.7510285624874
 30
0.0
 10
76.73701632239649
 20
176.1835388008704
 30
0.0
 10
79.6376647024338
 20
172.6115368440662
 30
0.0
 10
82.69767912156847
 20
169.0256542471777
 30
0.0
 10
85.89246459524271
 20
165.4799406506507
 30
0.0
 10
89.04245225029727
 20
162.1465395687953
 30
0.0
 10
92.35192980941824
 20
158.8327374937219
 30
0.0
 10
94.32384674948425
 20
156.9402144232289
 30
0.0
 10
95.50425816406998
 20
155.8402871374589
 30
0.0
  0
LINE
  5
103
330
CC
100
AcDbEntity
  8
DV3_Standard
 62
     7
100
AcDbLine
 10
296.5694903838
 20
541.6348758154
 30
0.0
 11
289.5694901677
 21
541.6348758154
 31
0.0
  0
LINE
  5
104
330
CC
100
AcDbEntity
  8
DV3_Standard
 62
     7
100
AcDbLine
 10
293.0694902758
 20
545.1348759234
 30
0.0
 11
293.0694902758
 21
538.1348757073
 31
0.0
  0
LINE
  5
105
330
CC
100
AcDbEntity
  8
DV3_Standard
 62
     7
100
AcDbLine
 10
298.3194906707
 20
541.6348758154
 30
0.0
 11
302.5694902758
 21
541.6348758154
 31
0.0
  0
LINE
  5
106
330
CC
100
AcDbEntity
  8
DV3_Standard
 62
     7
100
AcDbLine
 10
293.0694902758
 20
546.8848762103
 30
0.0
 11
293.0694902758
 21
551.1348758154
 31
0.0
  0
LINE
  5
107
330
CC
100
AcDbEntity
  8
DV3_Standard
 62
     7
100
AcDbLine
 10
287.8194898809
 20
541.6348758154
 30
0.0
 11
283.5694902758
 21
541.6348758154
 31
0.0
  0
LINE
  5
108
330
CC
100
AcDbEntity
  8
DV3_Standard
 62
     7
100
AcDbLine
 10
293.0694902758
 20
536.3848754205
 30
0.0
 11
293.0694902758
 21
532.1348758154
 31
0.0
  0
LINE
  5
109
330
CC
100
AcDbEntity
  8
DV3_Standard
 62
     7
100
AcDbLine
 10
141.5694903838
 20
541.6348758154
 30
0.0
 11
134.5694901677
 21
541.6348758154
 31
0.0
  0
LINE
  5
10A
330
CC
100
AcDbEntity
  8
DV3_Standard
 62
     7
100
AcDbLine
 10
138.0694902758
 20
545.1348759234
 30
0.0
 11
138.0694902758
 21
538.1348757073
 31
0.0
  0
LINE
  5
10B
330
CC
100
AcDbEntity
  8
DV3_Standard
 62
     7
100
AcDbLine
 10
143.3194906707
 20
541.6348758154
 30
0.0
 11
147.5694902758
 21
541.6348758154
 31
0.0
  0
LINE
  5
10C
330
CC
100
AcDbEntity
  8
DV3_Standard
 62
     7
100
AcDbLine
 10
138.0694902758
 20
546.8848762103
 30
0.0
 11
138.0694902758
 21
551.1348758154
 31
0.0
  0
LINE
  5
10D
330
CC
100
AcDbEntity
  8
DV3_Standard
 62
     7
100
AcDbLine
 10
132.8194898809
 20
541.6348758154
 30
0.0
 11
128.5694902758
 21
541.6348758154
 31
0.0
  0
LINE
  5
10E
330
CC
100
AcDbEntity
  8
DV3_Standard
 62
     7
100
AcDbLine
 10
138.0694902758
 20
536.3848754205
 30
0.0
 11
138.0694902758
 21
532.1348758154
 31
0.0
  0
ENDBLK
  5
110
330
CC
100
AcDbEntity
  8
0
100
AcDbBlockEnd
  0
ENDSEC
  0
SECTION
  2
ENTITIES
  0
INSERT
  5
70
330
1F
100
AcDbEntity
  8
Standard
100
AcDbBlockReference
  2
SE
 10
0.0
 20
0.0
 30
0.0
  0
INSERT
  5
B3
330
1F
100
AcDbEntity
  8
Standard
100
AcDbBlockReference
  2
SE1
 10
0.0
 20
0.0
 30
0.0
  0
INSERT
  5
CD
330
1F
100
AcDbEntity
  8
Standard
100
AcDbBlockReference
  2
SE2
 10
0.0
 20
0.0
 30
0.0
  0
MTEXT
  5
112
330
1F
100
AcDbEntity
  8
Default
100
AcDbMText
 10
5.9362635081
 20
63.4225120485
 30
0.0
 40
10.0
 41
113.8626497168
 46
65.4545454545
 71
     1
 72
     1
  1
{\fArial Narrow|b0||i0||c0|p34;\C7;\H10.;\W1.;Grohe AG\P}{\fArial Narrow|b0||i0||c0|p34;\C7;\H10.;\W1.;\P}{\fArial Narrow|b0||i0||c0|p34;\C7;\H10.;\W1.;ecn:\P}{\fArial Narrow|b0||i0||c0|p34;\C7;\H10.;\W1.;unit: mm}
 73
     1
 44
1.0
1001
ACAD
1000
ACAD_MTEXT_DEFINED_HEIGHT_BEGIN
1070
    46
1040
65.4545454545
1000
ACAD_MTEXT_DEFINED_HEIGHT_END
  0
LINE
  5
113
330
1F
100
AcDbEntity
  8
Default
 62
     7
100
AcDbLine
 10
0.0
 20
0.0
 30
0.0
 11
100.0
 21
0.0
 31
0.0
  0
LINE
  5
114
330
1F
100
AcDbEntity
  8
Default
 62
     7
100
AcDbLine
 10
0.0
 20
0.0
 30
0.0
 11
0.0
 21
100.0
 31
0.0
  0
MTEXT
  5
115
330
1F
100
AcDbEntity
  8
Default
100
AcDbMText
 10
24.3923665681
 20
-8.2375342018
 30
0.0
 40
10.0
 41
35.00001
 46
16.3636363636
 71
     1
 72
     1
  1
{\fArial Narrow|b0||i0||c0|p34;\C7;\H10.;\W0.82;100 mm}
 73
     1
 44
1.0
1001
ACAD
1000
ACAD_MTEXT_DEFINED_HEIGHT_BEGIN
1070
    46
1040
16.3636363636
1000
ACAD_MTEXT_DEFINED_HEIGHT_END
  0
MTEXT
  5
116
330
1F
100
AcDbEntity
  8
Default
100
AcDbMText
 10
-17.6150308803
 20
24.6231930421
 30
0.0
 40
10.0
 41
35.00001
 46
16.3636363636
 71
     1
 72
     1
  1
{\fArial Narrow|b0||i0||c0|p34;\C7;\H10.;\W0.82;100 mm}
 11
6.123233995736766E-17
 21
1.0
 31
0.0
 73
     1
 44
1.0
1001
ACAD
1000
ACAD_MTEXT_DEFINED_HEIGHT_BEGIN
1070
    46
1040
16.3636363636
1000
ACAD_MTEXT_DEFINED_HEIGHT_END
  0
ENDSEC
  0
SECTION
  2
OBJECTS
  0
DICTIONARY
  5
C
330
0
100
AcDbDictionary
281
     1
  3
ACAD_DETAILVIEWSTYLE
350
152
  3
ACAD_GROUP
350
D
  3
ACAD_LAYOUT
350
1A
  3
ACAD_MATERIAL
350
43
  3
ACAD_MLEADERSTYLE
350
6B
  3
ACAD_MLINESTYLE
350
17
  3
ACAD_PLOTSETTINGS
350
19
  3
ACAD_PLOTSTYLENAME
350
E
  3
ACAD_SCALELIST
350
47
  3
ACAD_SECTIONVIEWSTYLE
350
153
  3
ACAD_TABLESTYLE
350
69
  3
ACAD_VISUALSTYLE
350
2A
  3
ACDB_RECOMPOSE_DATA
350
14F
  3
AcDbVariableDictionary
350
117
  0
SUN
  5
6D
330
29
100
AcDbSun
 90
        1
290
     0
 63
     7
421
 16777215
 40
1.0
291
     1
 91
  2455826
 92
 54000000
292
     0
 70
     2
 71
   256
280
     1
  0
DICTIONARY
  5
152
102
{ACAD_REACTORS
330
C
102
}
330
C
100
AcDbDictionary
281
     1
  0
DICTIONARY
  5
D
102
{ACAD_REACTORS
330
C
102
}
330
C
100
AcDbDictionary
281
     1
  0
DICTIONARY
  5
1A
102
{ACAD_REACTORS
330
C
102
}
330
C
100
AcDbDictionary
281
     1
  3
Layout1
350
1E
  3
Model
350
22
  0
DICTIONARY
  5
43
102
{ACAD_REACTORS
330
C
102
}
330
C
100
AcDbDictionary
281
     1
  3
ByBlock
350
45
  3
ByLayer
350
44
  3
Global
350
46
  0
DICTIONARY
  5
6B
102
{ACAD_REACTORS
330
C
102
}
330
C
100
AcDbDictionary
281
     1
  3
Standard
350
6C
  0
DICTIONARY
  5
17
102
{ACAD_REACTORS
330
C
102
}
330
C
100
AcDbDictionary
281
     1
  3
Standard
350
18
  0
DICTIONARY
  5
19
102
{ACAD_REACTORS
330
C
102
}
330
C
100
AcDbDictionary
281
     1
  0
ACDBDICTIONARYWDFLT
  5
E
102
{ACAD_REACTORS
330
C
102
}
330
C
100
AcDbDictionary
281
     1
  3
Normal
350
F
100
AcDbDictionaryWithDefault
340
F
  0
DICTIONARY
  5
47
102
{ACAD_REACTORS
330
C
102
}
330
C
100
AcDbDictionary
281
     1
  3
A0
350
48
  3
A1
350
49
  3
A2
350
4A
  3
A3
350
4B
  3
A4
350
4C
  3
A5
350
4D
  3
A6
350
4E
  3
A7
350
4F
  3
A8
350
50
  3
A9
350
51
  3
B0
350
52
  3
B1
350
53
  3
B2
350
54
  3
B3
350
55
  3
B4
350
56
  3
B5
350
57
  3
B6
350
58
  3
B7
350
59
  3
B8
350
5A
  3
B9
350
5B
  3
C0
350
5C
  3
C1
350
5D
  3
C2
350
5E
  3
C3
350
5F
  3
C4
350
60
  3
C5
350
61
  3
C6
350
62
  3
C7
350
63
  3
C8
350
64
  3
C9
350
65
  3
D0
350
66
  3
D1
350
67
  3
D2
350
68
  0
DICTIONARY
  5
153
102
{ACAD_REACTORS
330
C
102
}
330
C
100
AcDbDictionary
281
     1
  0
DICTIONARY
  5
69
102
{ACAD_REACTORS
330
C
102
}
330
C
100
AcDbDictionary
281
     1
  3
Standard
350
6A
  0
DICTIONARY
  5
2A
102
{ACAD_REACTORS
330
C
102
}
330
C
100
AcDbDictionary
281
     1
  3
2dWireframe
350
2F
  3
Basic
350
32
  3
Brighten
350
36
  3
ColorChange
350
3A
  3
Conceptual
350
34
  3
Dim
350
35
  3
EdgeColorOff
350
3D
  3
Facepattern
350
39
  3
Flat
350
2B
  3
FlatWithEdges
350
2C
  3
Gouraud
350
2D
  3
GouraudWithEdges
350
2E
  3
Hidden
350
31
  3
JitterOff
350
3B
  3
Linepattern
350
38
  3
OverhangOff
350
3C
  3
Realistic
350
33
  3
Shaded
350
42
  3
Shaded with edges
350
41
  3
Shades of Gray
350
3E
  3
Sketchy
350
3F
  3
Thicken
350
37
  3
Wireframe
350
30
  3
X-Ray
350
40
  0
XRECORD
  5
14F
102
{ACAD_REACTORS
330
C
102
}
330
C
100
AcDbXrecord
280
     1
 90
        1
330
6A
  0
DICTIONARY
  5
117
102
{ACAD_REACTORS
330
C
102
}
330
C
100
AcDbDictionary
281
     1
  3
CANNOSCALE
350
118
  3
CENTEREXE
350
154
  3
CENTERLTYPEFILE
350
155
  3
CMLEADERSTYLE
350
151
  3
CTABLESTYLE
350
150
  3
XCLIPFRAME
350
119
  0
LAYOUT
  5
1E
102
{ACAD_REACTORS
330
1A
102
}
330
1A
100
AcDbPlotSettings
  1

  2
none_device
  4

  6

 40
0.0
 41
0.0
 42
0.0
 43
0.0
 44
0.0
 45
0.0
 46
0.0
 47
0.0
 48
0.0
 49
0.0
140
0.0
141
0.0
142
1.0
143
1.0
 70
   688
 72
     1
 73
     0
 74
     5
  7

 75
    16
 76
     0
 77
     2
 78
   300
147
1.0
148
0.0
149
0.0
100
AcDbLayout
  1
Layout1
 70
     1
 71
     1
 10
0.0
 20
0.0
 11
3000.0
 21
4500.0
 12
0.0
 22
0.0
 32
0.0
 14
0.0
 24
0.0
 34
0.0
 15
3000.0
 25
4500.0
 35
0.0
146
0.0
 13
0.0
 23
0.0
 33
0.0
 16
1.0
 26
0.0
 36
0.0
 17
0.0
 27
1.0
 37
0.0
 76
     0
330
1B
  0
LAYOUT
  5
22
102
{ACAD_REACTORS
330
1A
102
}
330
1A
100
AcDbPlotSettings
  1

  2
none_device
  4
Letter_(8.50_x_11.00_Inches)
  6

 40
6.35
 41
6.35
 42
6.35000508
 43
6.35000508
 44
215.9
 45
279.4
 46
0.0
 47
0.0
 48
0.0
 49
0.0
140
0.0
141
0.0
142
1.0
143
1.0
 70
  1712
 72
     1
 73
     0
 74
     0
  7

 75
     0
 76
     0
 77
     2
 78
   300
147
1.0
148
0.0
149
0.0
100
AcDbLayout
  1
Model
 70
     1
 71
     0
 10
0.0
 20
0.0
 11
3000.0
 21
4500.0
 12
0.0
 22
0.0
 32
0.0
 14
0.0
 24
0.0
 34
0.0
 15
3000.0
 25
4500.0
 35
0.0
146
0.0
 13
0.0
 23
0.0
 33
0.0
 16
1.0
 26
0.0
 36
0.0
 17
0.0
 27
1.0
 37
0.0
 76
     0
330
1F
331
29
  0
MATERIAL
  5
45
102
{ACAD_REACTORS
330
43
102
}
330
43
100
AcDbMaterial
  1
ByBlock
 72
     1
 94
      127
  0
MATERIAL
  5
44
102
{ACAD_REACTORS
330
43
102
}
330
43
100
AcDbMaterial
  1
ByLayer
 72
     1
 94
      127
  0
MATERIAL
  5
46
102
{ACAD_REACTORS
330
43
102
}
330
43
100
AcDbMaterial
  1
Global
 72
     1
 94
      127
  0
MLEADERSTYLE
  5
6C
102
{ACAD_REACTORS
330
6B
102
}
102
{ACAD_XDICTIONARY
360
14D
102
}
330
6B
100
AcDbMLeaderStyle
170
     2
171
     1
172
     0
 90
        2
 40
0.0
 41
0.0
173
     1
 91
-1056964608
340
14
 92
       -2
290
     1
 42
2.0
291
     1
 43
8.0
  3
Standard
341
0
 44
4.0
300

342
11
174
     1
178
     6
175
     1
176
     0
 93
-1056964608
 45
4.0
292
     0
297
     0
 46
4.0
343
0
 94
-1056964608
 47
1.0
 49
1.0
140
1.0
293
     1
141
0.0
294
     1
177
     0
142
1.0
295
     0
296
     0
143
3.75
1001
ACAD_MLEADERVER
1070
     2
  0
MLINESTYLE
  5
18
102
{ACAD_REACTORS
330
17
102
}
330
17
100
AcDbMlineStyle
  2
Standard
 70
     0
  3

 62
   256
 51
90.0
 52
90.0
 71
     2
 49
0.5
 62
   256
  6
BYLAYER
 49
-0.5
 62
   256
  6
BYLAYER
  0
ACDBPLACEHOLDER
  5
F
102
{ACAD_REACTORS
330
E
102
}
330
E
  0
SCALE
  5
48
102
{ACAD_REACTORS
330
47
102
}
330
47
100
AcDbScale
 70
     0
300
1:1
140
1.0
141
1.0
290
     1
  0
SCALE
  5
49
102
{ACAD_REACTORS
330
47
102
}
330
47
100
AcDbScale
 70
     0
300
1:2
140
1.0
141
2.0
290
     0
  0
SCALE
  5
4A
102
{ACAD_REACTORS
330
47
102
}
330
47
100
AcDbScale
 70
     0
300
1:4
140
1.0
141
4.0
290
     0
  0
SCALE
  5
4B
102
{ACAD_REACTORS
330
47
102
}
330
47
100
AcDbScale
 70
     0
300
1:5
140
1.0
141
5.0
290
     0
  0
SCALE
  5
4C
102
{ACAD_REACTORS
330
47
102
}
330
47
100
AcDbScale
 70
     0
300
1:8
140
1.0
141
8.0
290
     0
  0
SCALE
  5
4D
102
{ACAD_REACTORS
330
47
102
}
330
47
100
AcDbScale
 70
     0
300
1:10
140
1.0
141
10.0
290
     0
  0
SCALE
  5
4E
102
{ACAD_REACTORS
330
47
102
}
330
47
100
AcDbScale
 70
     0
300
1:16
140
1.0
141
16.0
290
     0
  0
SCALE
  5
4F
102
{ACAD_REACTORS
330
47
102
}
330
47
100
AcDbScale
 70
     0
300
1:20
140
1.0
141
20.0
290
     0
  0
SCALE
  5
50
102
{ACAD_REACTORS
330
47
102
}
330
47
100
AcDbScale
 70
     0
300
1:30
140
1.0
141
30.0
290
     0
  0
SCALE
  5
51
102
{ACAD_REACTORS
330
47
102
}
330
47
100
AcDbScale
 70
     0
300
1:40
140
1.0
141
40.0
290
     0
  0
SCALE
  5
52
102
{ACAD_REACTORS
330
47
102
}
330
47
100
AcDbScale
 70
     0
300
1:50
140
1.0
141
50.0
290
     0
  0
SCALE
  5
53
102
{ACAD_REACTORS
330
47
102
}
330
47
100
AcDbScale
 70
     0
300
1:100
140
1.0
141
100.0
290
     0
  0
SCALE
  5
54
102
{ACAD_REACTORS
330
47
102
}
330
47
100
AcDbScale
 70
     0
300
2:1
140
2.0
141
1.0
290
     0
  0
SCALE
  5
55
102
{ACAD_REACTORS
330
47
102
}
330
47
100
AcDbScale
 70
     0
300
4:1
140
4.0
141
1.0
290
     0
  0
SCALE
  5
56
102
{ACAD_REACTORS
330
47
102
}
330
47
100
AcDbScale
 70
     0
300
8:1
140
8.0
141
1.0
290
     0
  0
SCALE
  5
57
102
{ACAD_REACTORS
330
47
102
}
330
47
100
AcDbScale
 70
     0
300
10:1
140
10.0
141
1.0
290
     0
  0
SCALE
  5
58
102
{ACAD_REACTORS
330
47
102
}
330
47
100
AcDbScale
 70
     0
300
100:1
140
100.0
141
1.0
290
     0
  0
SCALE
  5
59
102
{ACAD_REACTORS
330
47
102
}
330
47
100
AcDbScale
 70
     0
300
1/128" = 1'-0"
140
0.0078125
141
12.0
290
     0
  0
SCALE
  5
5A
102
{ACAD_REACTORS
330
47
102
}
330
47
100
AcDbScale
 70
     0
300
1/64" = 1'-0"
140
0.015625
141
12.0
290
     0
  0
SCALE
  5
5B
102
{ACAD_REACTORS
330
47
102
}
330
47
100
AcDbScale
 70
     0
300
1/32" = 1'-0"
140
0.03125
141
12.0
290
     0
  0
SCALE
  5
5C
102
{ACAD_REACTORS
330
47
102
}
330
47
100
AcDbScale
 70
     0
300
1/16" = 1'-0"
140
0.0625
141
12.0
290
     0
  0
SCALE
  5
5D
102
{ACAD_REACTORS
330
47
102
}
330
47
100
AcDbScale
 70
     0
300
3/32" = 1'-0"
140
0.09375
141
12.0
290
     0
  0
SCALE
  5
5E
102
{ACAD_REACTORS
330
47
102
}
330
47
100
AcDbScale
 70
     0
300
1/8" = 1'-0"
140
0.125
141
12.0
290
     0
  0
SCALE
  5
5F
102
{ACAD_REACTORS
330
47
102
}
330
47
100
AcDbScale
 70
     0
300
3/16" = 1'-0"
140
0.1875
141
12.0
290
     0
  0
SCALE
  5
60
102
{ACAD_REACTORS
330
47
102
}
330
47
100
AcDbScale
 70
     0
300
1/4" = 1'-0"
140
0.25
141
12.0
290
     0
  0
SCALE
  5
61
102
{ACAD_REACTORS
330
47
102
}
330
47
100
AcDbScale
 70
     0
300
3/8" = 1'-0"
140
0.375
141
12.0
290
     0
  0
SCALE
  5
62
102
{ACAD_REACTORS
330
47
102
}
330
47
100
AcDbScale
 70
     0
300
1/2" = 1'-0"
140
0.5
141
12.0
290
     0
  0
SCALE
  5
63
102
{ACAD_REACTORS
330
47
102
}
330
47
100
AcDbScale
 70
     0
300
3/4" = 1'-0"
140
0.75
141
12.0
290
     0
  0
SCALE
  5
64
102
{ACAD_REACTORS
330
47
102
}
330
47
100
AcDbScale
 70
     0
300
1" = 1'-0"
140
1.0
141
12.0
290
     0
  0
SCALE
  5
65
102
{ACAD_REACTORS
330
47
102
}
330
47
100
AcDbScale
 70
     0
300
1-1/2" = 1'-0"
140
1.5
141
12.0
290
     0
  0
SCALE
  5
66
102
{ACAD_REACTORS
330
47
102
}
330
47
100
AcDbScale
 70
     0
300
3" = 1'-0"
140
3.0
141
12.0
290
     0
  0
SCALE
  5
67
102
{ACAD_REACTORS
330
47
102
}
330
47
100
AcDbScale
 70
     0
300
6" = 1'-0"
140
6.0
141
12.0
290
     0
  0
SCALE
  5
68
102
{ACAD_REACTORS
330
47
102
}
330
47
100
AcDbScale
 70
     0
300
1'-0" = 1'-0"
140
12.0
141
12.0
290
     0
  0
TABLESTYLE
  5
6A
102
{ACAD_REACTORS
330
69
102
}
102
{ACAD_XDICTIONARY
360
14A
102
}
330
69
100
AcDbTableStyle
  3
Standard
 70
     0
 71
     0
 40
0.06
 41
0.06
280
     0
281
     0
  7
Standard
140
4.5
170
     2
 62
     0
 63
   257
283
     0
 90
        4
 91
        0
  1

274
    -2
284
     1
 64
     0
275
    -2
285
     1
 65
     0
276
    -2
286
     1
 66
     0
277
    -2
287
     1
 67
     0
278
    -2
288
     1
 68
     0
279
    -2
289
     1
 69
     0
  7
Standard
140
6.0
170
     5
 62
     0
 63
   257
283
     0
 90
        4
 91
        0
  1

274
    -2
284
     1
 64
     0
275
    -2
285
     1
 65
     0
276
    -2
286
     1
 66
     0
277
    -2
287
     1
 67
     0
278
    -2
288
     1
 68
     0
279
    -2
289
     1
 69
     0
  7
Standard
140
4.5
170
     5
 62
     0
 63
   257
283
     0
 90
        4
 91
        0
  1

274
    -2
284
     1
 64
     0
275
    -2
285
     1
 65
     0
276
    -2
286
     1
 66
     0
277
    -2
287
     1
 67
     0
278
    -2
288
     1
 68
     0
279
    -2
289
     1
 69
     0
  0
VISUALSTYLE
  5
2F
102
{ACAD_REACTORS
330
2A
102
}
102
{ACAD_XDICTIONARY
360
122
102
}
330
2A
100
AcDbVisualStyle
  2
2dWireframe
 70
     4
 71
     0
 72
     2
 73
     0
 90
        0
 40
0.6
 41
30.0
 62
     5
 63
     7
421
 16777215
 74
     1
 91
        4
 64
     7
 65
   257
 75
     1
175
     1
 42
1.0
 92
        0
 66
   257
 43
1.0
 76
     1
 77
     6
 78
     2
 67
     7
 79
     5
170
     0
171
     0
290
     0
174
     0
 93
        1
 44
0.0
173
     0
291
     0
 45
0.0
  0
VISUALSTYLE
  5
32
102
{ACAD_REACTORS
330
2A
102
}
102
{ACAD_XDICTIONARY
360
128
102
}
330
2A
100
AcDbVisualStyle
  2
Basic
 70
     7
 71
     1
 72
     0
 73
     1
 90
        0
 40
0.6
 41
30.0
 62
     5
 63
     7
421
 16777215
 74
     0
 91
        4
 64
     7
 65
   257
 75
     1
175
     1
 42
1.0
 92
        8
 66
     7
 43
1.0
 76
     1
 77
     6
 78
     2
 67
     7
 79
     5
170
     0
171
     0
290
     0
174
     0
 93
        1
 44
0.0
173
     0
291
     1
 45
0.0
  0
VISUALSTYLE
  5
36
102
{ACAD_REACTORS
330
2A
102
}
102
{ACAD_XDICTIONARY
360
130
102
}
330
2A
100
AcDbVisualStyle
  2
Brighten
 70
    12
 71
     2
 72
     2
 73
     0
 90
        0
 40
0.6
 41
30.0
 62
     5
 63
     7
421
 16777215
 74
     1
 91
        4
 64
     7
 65
   257
 75
     1
175
     1
 42
1.0
 92
        8
 66
     7
 43
1.0
 76
     1
 77
     6
 78
     2
 67
     7
 79
     5
170
     0
171
     0
290
     0
174
     0
 93
        1
 44
50.0
173
     0
291
     1
 45
0.0
  0
VISUALSTYLE
  5
3A
102
{ACAD_REACTORS
330
2A
102
}
102
{ACAD_XDICTIONARY
360
138
102
}
330
2A
100
AcDbVisualStyle
  2
ColorChange
 70
    16
 71
     2
 72
     2
 73
     3
 90
        0
 40
0.6
 41
30.0
 62
     5
 63
     8
421
  8421504
 74
     1
 91
        4
 64
     7
 65
   257
 75
     1
175
     1
 42
1.0
 92
        8
 66
     8
424
  8421504
 43
1.0
 76
     1
 77
     6
 78
     2
 67
     7
 79
     5
170
     0
171
     0
290
     0
174
     0
 93
        1
 44
0.0
173
     0
291
     1
 45
0.0
  0
VISUALSTYLE
  5
34
102
{ACAD_REACTORS
330
2A
102
}
102
{ACAD_XDICTIONARY
360
12C
102
}
330
2A
100
AcDbVisualStyle
  2
Conceptual
 70
     9
 71
     3
 72
     2
 73
     0
 90
        0
 40
0.6
 41
30.0
 62
     5
 63
     7
421
 16777215
 74
     2
 91
        2
 64
     7
 65
   257
 75
     1
175
     1
 42
179.0
 92
        8
 66
     7
 43
1.0
 76
     1
 77
     6
 78
     2
 67
     7
 79
     3
170
     0
171
     0
290
     0
174
     0
 93
        1
 44
0.0
173
     0
291
     0
 45
0.0
  0
VISUALSTYLE
  5
35
102
{ACAD_REACTORS
330
2A
102
}
102
{ACAD_XDICTIONARY
360
12E
102
}
330
2A
100
AcDbVisualStyle
  2
Dim
 70
    11
 71
     2
 72
     2
 73
     0
 90
        0
 40
0.6
 41
30.0
 62
     5
 63
     7
421
 16777215
 74
     1
 91
        4
 64
     7
 65
   257
 75
     1
175
     1
 42
1.0
 92
        8
 66
     7
 43
1.0
 76
     1
 77
     6
 78
     2
 67
     7
 79
     5
170
     0
171
     0
290
     0
174
     0
 93
        1
 44
-50.0
173
     0
291
     1
 45
0.0
  0
VISUALSTYLE
  5
3D
102
{ACAD_REACTORS
330
2A
102
}
102
{ACAD_XDICTIONARY
360
13E
102
}
330
2A
100
AcDbVisualStyle
  2
EdgeColorOff
 70
    22
 71
     2
 72
     2
 73
     0
 90
        0
 40
0.6
 41
30.0
 62
     5
 63
     7
421
 16777215
 74
     1
 91
        4
 64
     7
 65
   257
 75
     1
175
     1
 42
1.0
 92
        8
 66
     7
 43
1.0
 76
     1
 77
     6
 78
     2
 67
     7
 79
     5
170
     0
171
     0
290
     0
174
     0
 93
        1
 44
0.0
173
     0
291
     1
 45
0.0
  0
VISUALSTYLE
  5
39
102
{ACAD_REACTORS
330
2A
102
}
102
{ACAD_XDICTIONARY
360
136
102
}
330
2A
100
AcDbVisualStyle
  2
Facepattern
 70
    15
 71
     2
 72
     2
 73
     0
 90
        0
 40
0.6
 41
30.0
 62
     5
 63
     7
421
 16777215
 74
     1
 91
        4
 64
     7
 65
   257
 75
     1
175
     1
 42
1.0
 92
        8
 66
     7
 43
1.0
 76
     1
 77
     6
 78
     2
 67
     7
 79
     5
170
     0
171
     0
290
     0
174
     0
 93
        1
 44
0.0
173
     0
291
     1
 45
0.0
  0
VISUALSTYLE
  5
2B
102
{ACAD_REACTORS
330
2A
102
}
102
{ACAD_XDICTIONARY
360
11A
102
}
330
2A
100
AcDbVisualStyle
  2
Flat
 70
     0
 71
     2
 72
     1
 73
     1
 90
        2
 40
0.6
 41
30.0
 62
     5
 63
     7
421
 16777215
 74
     0
 91
        0
 64
     7
 65
   257
 75
     1
175
     1
 42
1.0
 92
        8
 66
     7
 43
1.0
 76
     1
 77
     6
 78
     2
 67
     7
 79
     5
170
     0
171
     0
290
     0
174
     0
 93
       13
 44
0.0
173
     0
291
     1
 45
0.0
  0
VISUALSTYLE
  5
2C
102
{ACAD_REACTORS
330
2A
102
}
102
{ACAD_XDICTIONARY
360
11C
102
}
330
2A
100
AcDbVisualStyle
  2
FlatWithEdges
 70
     1
 71
     2
 72
     1
 73
     1
 90
        2
 40
0.6
 41
30.0
 62
     5
 63
     7
421
 16777215
 74
     1
 91
        0
 64
     7
 65
   257
 75
     1
175
     1
 42
1.0
 92
        0
 66
   257
 43
1.0
 76
     1
 77
     6
 78
     2
 67
     7
 79
     5
170
     0
171
     0
290
     0
174
     0
 93
       13
 44
0.0
173
     0
291
     1
 45
0.0
  0
VISUALSTYLE
  5
2D
102
{ACAD_REACTORS
330
2A
102
}
102
{ACAD_XDICTIONARY
360
11E
102
}
330
2A
100
AcDbVisualStyle
  2
Gouraud
 70
     2
 71
     2
 72
     2
 73
     1
 90
        2
 40
0.6
 41
30.0
 62
     5
 63
     7
421
 16777215
 74
     0
 91
        0
 64
     7
 65
   257
 75
     1
175
     1
 42
1.0
 92
        0
 66
     7
 43
1.0
 76
     1
 77
     6
 78
     2
 67
     7
 79
     5
170
     0
171
     0
290
     0
174
     0
 93
       13
 44
0.0
173
     0
291
     1
 45
0.0
  0
VISUALSTYLE
  5
2E
102
{ACAD_REACTORS
330
2A
102
}
102
{ACAD_XDICTIONARY
360
120
102
}
330
2A
100
AcDbVisualStyle
  2
GouraudWithEdges
 70
     3
 71
     2
 72
     2
 73
     1
 90
        2
 40
0.6
 41
30.0
 62
     5
 63
     7
421
 16777215
 74
     1
 91
        0
 64
     7
 65
   257
 75
     1
175
     1
 42
1.0
 92
        0
 66
   257
 43
1.0
 76
     1
 77
     6
 78
     2
 67
     7
 79
     5
170
     0
171
     0
290
     0
174
     0
 93
       13
 44
0.0
173
     0
291
     1
 45
0.0
  0
VISUALSTYLE
  5
31
102
{ACAD_REACTORS
330
2A
102
}
102
{ACAD_XDICTIONARY
360
126
102
}
330
2A
100
AcDbVisualStyle
  2
Hidden
 70
     6
 71
     1
 72
     2
 73
     2
 90
        0
 40
0.6
 41
30.0
 62
     5
 63
     7
421
 16777215
 74
     2
 91
        2
 64
     7
 65
   257
 75
     2
175
     1
 42
40.0
 92
        0
 66
   257
 43
1.0
 76
     1
 77
     6
 78
     2
 67
     7
 79
     3
170
     0
171
     0
290
     0
174
     0
 93
        1
 44
0.0
173
     0
291
     0
 45
0.0
  0
VISUALSTYLE
  5
3B
102
{ACAD_REACTORS
330
2A
102
}
102
{ACAD_XDICTIONARY
360
13A
102
}
330
2A
100
AcDbVisualStyle
  2
JitterOff
 70
    20
 71
     2
 72
     2
 73
     0
 90
        0
 40
0.6
 41
30.0
 62
     5
 63
     7
421
 16777215
 74
     1
 91
        4
 64
     7
 65
   257
 75
     1
175
     1
 42
1.0
 92
       10
 66
     7
 43
1.0
 76
     1
 77
     6
 78
     2
 67
     7
 79
     5
170
     0
171
     0
290
     0
174
     0
 93
        1
 44
0.0
173
     0
291
     1
 45
0.0
  0
VISUALSTYLE
  5
38
102
{ACAD_REACTORS
330
2A
102
}
102
{ACAD_XDICTIONARY
360
134
102
}
330
2A
100
AcDbVisualStyle
  2
Linepattern
 70
    14
 71
     2
 72
     2
 73
     0
 90
        0
 40
0.6
 41
30.0
 62
     5
 63
     7
421
 16777215
 74
     1
 91
        4
 64
     7
 65
   257
 75
     7
175
     7
 42
1.0
 92
        8
 66
     7
 43
1.0
 76
     1
 77
     6
 78
     2
 67
     7
 79
     5
170
     0
171
     0
290
     0
174
     0
 93
        1
 44
0.0
173
     0
291
     1
 45
0.0
  0
VISUALSTYLE
  5
3C
102
{ACAD_REACTORS
330
2A
102
}
102
{ACAD_XDICTIONARY
360
13C
102
}
330
2A
100
AcDbVisualStyle
  2
OverhangOff
 70
    21
 71
     2
 72
     2
 73
     0
 90
        0
 40
0.6
 41
30.0
 62
     5
 63
     7
421
 16777215
 74
     1
 91
        4
 64
     7
 65
   257
 75
     1
175
     1
 42
1.0
 92
        9
 66
     7
 43
1.0
 76
     1
 77
     6
 78
     2
 67
     7
 79
     5
170
     0
171
     0
290
     0
174
     0
 93
        1
 44
0.0
173
     0
291
     1
 45
0.0
  0
VISUALSTYLE
  5
33
102
{ACAD_REACTORS
330
2A
102
}
102
{ACAD_XDICTIONARY
360
12A
102
}
330
2A
100
AcDbVisualStyle
  2
Realistic
 70
     8
 71
     2
 72
     3
 73
     0
 90
        2
 40
0.6
 41
30.0
 62
     5
 63
     7
421
 16777215
 74
     0
 91
        0
 64
     7
 65
   257
 75
     1
175
     1
 42
1.0
 92
        8
 66
   257
 43
1.0
 76
     1
 77
     6
 78
     2
 67
     7
 79
     3
170
     0
171
     0
290
     0
174
     0
 93
       13
 44
0.0
173
     0
291
     0
 45
0.0
  0
VISUALSTYLE
  5
42
102
{ACAD_REACTORS
330
2A
102
}
102
{ACAD_XDICTIONARY
360
148
102
}
330
2A
100
AcDbVisualStyle
  2
Shaded
 70
    27
 71
     2
 72
     2
 73
     1
 90
        2
 40
0.6
 41
30.0
 62
     5
 63
     7
421
 16777215
 74
     0
 91
        4
 64
     7
 65
   257
 75
     1
175
     1
 42
1.0
 92
        8
 66
   257
 43
1.0
 76
     1
 77
     6
 78
     2
 67
     8
425
  7895160
 79
     3
170
     0
171
     0
290
     0
174
     0
 93
        5
 44
0.0
173
     0
291
     0
 45
0.0
  0
VISUALSTYLE
  5
41
102
{ACAD_REACTORS
330
2A
102
}
102
{ACAD_XDICTIONARY
360
146
102
}
330
2A
100
AcDbVisualStyle
  2
Shaded with edges
 70
    26
 71
     2
 72
     2
 73
     1
 90
        2
 40
0.6
 41
30.0
 62
     5
 63
     7
421
 16777215
 74
     1
 91
       10
 64
     7
 65
   257
 75
     2
175
     1
 42
1.0
 92
        8
 66
   257
 43
1.0
 76
     1
 77
     6
 78
     2
 67
     7
 79
     3
170
     0
171
     0
290
     0
174
     0
 93
        5
 44
0.0
173
     0
291
     0
 45
0.0
  0
VISUALSTYLE
  5
3E
102
{ACAD_REACTORS
330
2A
102
}
102
{ACAD_XDICTIONARY
360
140
102
}
330
2A
100
AcDbVisualStyle
  2
Shades of Gray
 70
    23
 71
     2
 72
     2
 73
     3
 90
        0
 40
0.6
 41
30.0
 62
     5
 63
     7
421
 16777215
 74
     2
 91
        2
 64
     7
 65
     7
 75
     1
175
     1
 42
40.0
 92
        8
 66
     7
 43
1.0
 76
     1
 77
     6
 78
     2
 67
     7
 79
     3
170
     0
171
     0
290
     0
174
     0
 93
        1
 44
0.0
173
     0
291
     0
 45
0.0
  0
VISUALSTYLE
  5
3F
102
{ACAD_REACTORS
330
2A
102
}
102
{ACAD_XDICTIONARY
360
142
102
}
330
2A
100
AcDbVisualStyle
  2
Sketchy
 70
    24
 71
     1
 72
     2
 73
     2
 90
        0
 40
0.6
 41
30.0
 62
     5
 63
     7
421
 16777215
 74
     2
 91
        2
 64
     7
 65
     7
 75
     1
175
     1
 42
40.0
 92
       11
 66
     7
 43
1.0
 76
     1
 77
     6
 78
     2
 67
     7
 79
     6
170
     0
171
     0
290
     0
174
     0
 93
        1
 44
0.0
173
     0
291
     0
 45
0.0
  0
VISUALSTYLE
  5
37
102
{ACAD_REACTORS
330
2A
102
}
102
{ACAD_XDICTIONARY
360
132
102
}
330
2A
100
AcDbVisualStyle
  2
Thicken
 70
    13
 71
     2
 72
     2
 73
     0
 90
        0
 40
0.6
 41
30.0
 62
     5
 63
     7
421
 16777215
 74
     1
 91
        4
 64
     7
 65
   257
 75
     1
175
     1
 42
1.0
 92
       12
 66
     7
 43
1.0
 76
     1
 77
     6
 78
     2
 67
     7
 79
     5
170
     0
171
     0
290
     0
174
     0
 93
        1
 44
0.0
173
     0
291
     1
 45
0.0
  0
VISUALSTYLE
  5
30
102
{ACAD_REACTORS
330
2A
102
}
102
{ACAD_XDICTIONARY
360
124
102
}
330
2A
100
AcDbVisualStyle
  2
Wireframe
 70
     5
 71
     0
 72
     2
 73
     0
 90
        0
 40
0.6
 41
30.0
 62
     5
 63
     7
421
 16777215
 74
     1
 91
        4
 64
     7
 65
   257
 75
     1
175
     1
 42
1.0
 92
        0
 66
   257
 43
1.0
 76
     1
 77
     6
 78
     2
 67
     7
 79
     3
170
     0
171
     0
290
     0
174
     0
 93
        1
 44
0.0
173
     0
291
     0
 45
0.0
  0
VISUALSTYLE
  5
40
102
{ACAD_REACTORS
330
2A
102
}
102
{ACAD_XDICTIONARY
360
144
102
}
330
2A
100
AcDbVisualStyle
  2
X-Ray
 70
    25
 71
     2
 72
     2
 73
     1
 90
        1
 40
0.5
 41
30.0
 62
     5
 63
     7
421
 16777215
 74
     1
 91
        0
 64
     7
 65
   257
 75
     1
175
     1
 42
1.0
 92
        8
 66
     7
 43
1.0
 76
     1
 77
     6
 78
     2
 67
     7
 79
     3
170
     0
171
     0
290
     0
174
     0
 93
       13
 44
0.0
173
     0
291
     0
 45
0.0
  0
DICTIONARYVAR
  5
118
102
{ACAD_REACTORS
330
117
102
}
330
117
100
DictionaryVariables
280
     0
  1
1:1
  0
DICTIONARYVAR
  5
154
102
{ACAD_REACTORS
330
117
102
}
330
117
100
DictionaryVariables
280
     0
  1
3.500000
  0
DICTIONARYVAR
  5
155
102
{ACAD_REACTORS
330
117
102
}
330
117
100
DictionaryVariables
280
     0
  1
acadiso.lin
  0
DICTIONARYVAR
  5
151
102
{ACAD_REACTORS
330
117
102
}
330
117
100
DictionaryVariables
280
     0
  1
Standard
  0
DICTIONARYVAR
  5
150
102
{ACAD_REACTORS
330
117
102
}
330
117
100
DictionaryVariables
280
     0
  1
Standard
  0
DICTIONARYVAR
  5
119
102
{ACAD_REACTORS
330
117
102
}
330
117
100
DictionaryVariables
280
     0
  1
2
  0
DICTIONARY
  5
14D
330
6C
100
AcDbDictionary
280
     1
281
     1
  3
ACAD_XREC_ROUNDTRIP
360
14E
  0
DICTIONARY
  5
14A
330
6A
100
AcDbDictionary
280
     1
281
     1
  3
ACAD_ROUNDTRIP_2008_TABLESTYLE_CELLSTYLEMAP
360
14B
  0
DICTIONARY
  5
122
330
2F
100
AcDbDictionary
280
     1
281
     1
  3
ACAD_XREC_ROUNDTRIP
360
123
  0
DICTIONARY
  5
128
330
32
100
AcDbDictionary
280
     1
281
     1
  3
ACAD_XREC_ROUNDTRIP
360
129
  0
DICTIONARY
  5
130
330
36
100
AcDbDictionary
280
     1
281
     1
  3
ACAD_XREC_ROUNDTRIP
360
131
  0
DICTIONARY
  5
138
330
3A
100
AcDbDictionary
280
     1
281
     1
  3
ACAD_XREC_ROUNDTRIP
360
139
  0
DICTIONARY
  5
12C
330
34
100
AcDbDictionary
280
     1
281
     1
  3
ACAD_XREC_ROUNDTRIP
360
12D
  0
DICTIONARY
  5
12E
330
35
100
AcDbDictionary
280
     1
281
     1
  3
ACAD_XREC_ROUNDTRIP
360
12F
  0
DICTIONARY
  5
13E
330
3D
100
AcDbDictionary
280
     1
281
     1
  3
ACAD_XREC_ROUNDTRIP
360
13F
  0
DICTIONARY
  5
136
330
39
100
AcDbDictionary
280
     1
281
     1
  3
ACAD_XREC_ROUNDTRIP
360
137
  0
DICTIONARY
  5
11A
330
2B
100
AcDbDictionary
280
     1
281
     1
  3
ACAD_XREC_ROUNDTRIP
360
11B
  0
DICTIONARY
  5
11C
330
2C
100
AcDbDictionary
280
     1
281
     1
  3
ACAD_XREC_ROUNDTRIP
360
11D
  0
DICTIONARY
  5
11E
330
2D
100
AcDbDictionary
280
     1
281
     1
  3
ACAD_XREC_ROUNDTRIP
360
11F
  0
DICTIONARY
  5
120
330
2E
100
AcDbDictionary
280
     1
281
     1
  3
ACAD_XREC_ROUNDTRIP
360
121
  0
DICTIONARY
  5
126
330
31
100
AcDbDictionary
280
     1
281
     1
  3
ACAD_XREC_ROUNDTRIP
360
127
  0
DICTIONARY
  5
13A
330
3B
100
AcDbDictionary
280
     1
281
     1
  3
ACAD_XREC_ROUNDTRIP
360
13B
  0
DICTIONARY
  5
134
330
38
100
AcDbDictionary
280
     1
281
     1
  3
ACAD_XREC_ROUNDTRIP
360
135
  0
DICTIONARY
  5
13C
330
3C
100
AcDbDictionary
280
     1
281
     1
  3
ACAD_XREC_ROUNDTRIP
360
13D
  0
DICTIONARY
  5
12A
330
33
100
AcDbDictionary
280
     1
281
     1
  3
ACAD_XREC_ROUNDTRIP
360
12B
  0
DICTIONARY
  5
148
330
42
100
AcDbDictionary
280
     1
281
     1
  3
ACAD_XREC_ROUNDTRIP
360
149
  0
DICTIONARY
  5
146
330
41
100
AcDbDictionary
280
     1
281
     1
  3
ACAD_XREC_ROUNDTRIP
360
147
  0
DICTIONARY
  5
140
330
3E
100
AcDbDictionary
280
     1
281
     1
  3
ACAD_XREC_ROUNDTRIP
360
141
  0
DICTIONARY
  5
142
330
3F
100
AcDbDictionary
280
     1
281
     1
  3
ACAD_XREC_ROUNDTRIP
360
143
  0
DICTIONARY
  5
132
330
37
100
AcDbDictionary
280
     1
281
     1
  3
ACAD_XREC_ROUNDTRIP
360
133
  0
DICTIONARY
  5
124
330
30
100
AcDbDictionary
280
     1
281
     1
  3
ACAD_XREC_ROUNDTRIP
360
125
  0
DICTIONARY
  5
144
330
40
100
AcDbDictionary
280
     1
281
     1
  3
ACAD_XREC_ROUNDTRIP
360
145
  0
XRECORD
  5
14E
102
{ACAD_REACTORS
330
14D
102
}
330
14D
100
AcDbXrecord
280
     1
102
ACAD_ROUNDTRIP_2010_MLEADER_STYLE
  0
CELLSTYLEMAP
  5
14B
102
{ACAD_REACTORS
330
14A
102
}
330
14A
100
AcDbCellStyleMap
 90
        3
300
CELLSTYLE
  1
TABLEFORMAT_BEGIN
 90
        5
170
     1
 91
        0
 92
    32768
 62
   257
 93
        1
300
CONTENTFORMAT
  1
CONTENTFORMAT_BEGIN
 90
        0
 91
        0
 92
        4
 93
        0
300

 40
0.0
140
1.0
 94
        5
 62
     0
340
11
144
6.0
309
CONTENTFORMAT_END
171
     1
301
MARGIN
  1
CELLMARGIN_BEGIN
 40
1.5
 40
1.5
 40
1.5
 40
1.5
 40
1.5
 40
1.5
309
CELLMARGIN_END
 94
        6
 95
        1
302
GRIDFORMAT
  1
GRIDFORMAT_BEGIN
 90
        0
 91
        1
 62
     0
 92
       -2
340
14
 93
        0
 40
0.045
309
GRIDFORMAT_END
 95
        2
302
GRIDFORMAT
  1
GRIDFORMAT_BEGIN
 90
        0
 91
        1
 62
     0
 92
       -2
340
14
 93
        0
 40
0.045
309
GRIDFORMAT_END
 95
        4
302
GRIDFORMAT
  1
GRIDFORMAT_BEGIN
 90
        0
 91
        1
 62
     0
 92
       -2
340
14
 93
        0
 40
0.045
309
GRIDFORMAT_END
 95
        8
302
GRIDFORMAT
  1
GRIDFORMAT_BEGIN
 90
        0
 91
        1
 62
     0
 92
       -2
340
14
 93
        0
 40
0.045
309
GRIDFORMAT_END
 95
       16
302
GRIDFORMAT
  1
GRIDFORMAT_BEGIN
 90
        0
 91
        1
 62
     0
 92
       -2
340
14
 93
        0
 40
0.045
309
GRIDFORMAT_END
 95
       32
302
GRIDFORMAT
  1
GRIDFORMAT_BEGIN
 90
        0
 91
        1
 62
     0
 92
       -2
340
14
 93
        0
 40
0.045
309
GRIDFORMAT_END
309
TABLEFORMAT_END
  1
CELLSTYLE_BEGIN
 90
        1
 91
        1
300
_TITLE
309
CELLSTYLE_END
300
CELLSTYLE
  1
TABLEFORMAT_BEGIN
 90
        5
170
     1
 91
        0
 92
        0
 62
   257
 93
        1
300
CONTENTFORMAT
  1
CONTENTFORMAT_BEGIN
 90
        0
 91
        0
 92
        4
 93
        0
300

 40
0.0
140
1.0
 94
        5
 62
     0
340
11
144
4.5
309
CONTENTFORMAT_END
171
     1
301
MARGIN
  1
CELLMARGIN_BEGIN
 40
1.5
 40
1.5
 40
1.5
 40
1.5
 40
1.5
 40
1.5
309
CELLMARGIN_END
 94
        6
 95
        1
302
GRIDFORMAT
  1
GRIDFORMAT_BEGIN
 90
        0
 91
        1
 62
     0
 92
       -2
340
14
 93
        0
 40
0.045
309
GRIDFORMAT_END
 95
        2
302
GRIDFORMAT
  1
GRIDFORMAT_BEGIN
 90
        0
 91
        1
 62
     0
 92
       -2
340
14
 93
        0
 40
0.045
309
GRIDFORMAT_END
 95
        4
302
GRIDFORMAT
  1
GRIDFORMAT_BEGIN
 90
        0
 91
        1
 62
     0
 92
       -2
340
14
 93
        0
 40
0.045
309
GRIDFORMAT_END
 95
        8
302
GRIDFORMAT
  1
GRIDFORMAT_BEGIN
 90
        0
 91
        1
 62
     0
 92
       -2
340
14
 93
        0
 40
0.045
309
GRIDFORMAT_END
 95
       16
302
GRIDFORMAT
  1
GRIDFORMAT_BEGIN
 90
        0
 91
        1
 62
     0
 92
       -2
340
14
 93
        0
 40
0.045
309
GRIDFORMAT_END
 95
       32
302
GRIDFORMAT
  1
GRIDFORMAT_BEGIN
 90
        0
 91
        1
 62
     0
 92
       -2
340
14
 93
        0
 40
0.045
309
GRIDFORMAT_END
309
TABLEFORMAT_END
  1
CELLSTYLE_BEGIN
 90
        2
 91
        1
300
_HEADER
309
CELLSTYLE_END
300
CELLSTYLE
  1
TABLEFORMAT_BEGIN
 90
        5
170
     1
 91
        0
 92
        0
 62
   257
 93
        1
300
CONTENTFORMAT
  1
CONTENTFORMAT_BEGIN
 90
        0
 91
        0
 92
        4
 93
        0
300

 40
0.0
140
1.0
 94
        2
 62
     0
340
11
144
4.5
309
CONTENTFORMAT_END
171
     1
301
MARGIN
  1
CELLMARGIN_BEGIN
 40
1.5
 40
1.5
 40
1.5
 40
1.5
 40
1.5
 40
1.5
309
CELLMARGIN_END
 94
        6
 95
        1
302
GRIDFORMAT
  1
GRIDFORMAT_BEGIN
 90
        0
 91
        1
 62
     0
 92
       -2
340
14
 93
        0
 40
0.045
309
GRIDFORMAT_END
 95
        2
302
GRIDFORMAT
  1
GRIDFORMAT_BEGIN
 90
        0
 91
        1
 62
     0
 92
       -2
340
14
 93
        0
 40
0.045
309
GRIDFORMAT_END
 95
        4
302
GRIDFORMAT
  1
GRIDFORMAT_BEGIN
 90
        0
 91
        1
 62
     0
 92
       -2
340
14
 93
        0
 40
0.045
309
GRIDFORMAT_END
 95
        8
302
GRIDFORMAT
  1
GRIDFORMAT_BEGIN
 90
        0
 91
        1
 62
     0
 92
       -2
340
14
 93
        0
 40
0.045
309
GRIDFORMAT_END
 95
       16
302
GRIDFORMAT
  1
GRIDFORMAT_BEGIN
 90
        0
 91
        1
 62
     0
 92
       -2
340
14
 93
        0
 40
0.045
309
GRIDFORMAT_END
 95
       32
302
GRIDFORMAT
  1
GRIDFORMAT_BEGIN
 90
        0
 91
        1
 62
     0
 92
       -2
340
14
 93
        0
 40
0.045
309
GRIDFORMAT_END
309
TABLEFORMAT_END
  1
CELLSTYLE_BEGIN
 90
        3
 91
        2
300
_DATA
309
CELLSTYLE_END
  0
XRECORD
  5
123
102
{ACAD_REACTORS
330
122
102
}
330
122
100
AcDbXrecord
280
     1
102
RTVSPropertyOp0
 70
     1
102
RTVSPropertyOp1
 70
     1
102
RTVSPropertyOp2
 70
     1
102
RTVSPropertyOp3
 70
     1
102
RTVSPropertyOp4
 70
     1
102
RTVSPropertyOp5
 70
     1
102
RTVSPropertyOp6
 70
     1
102
RTVSPropertyOp7
 70
     1
102
RTVSPropertyOp8
 70
     1
102
RTVSPropertyOp9
 70
     1
102
RTVSPropertyOp10
 70
     1
102
RTVSPropertyOp11
 70
     1
102
RTVSPropertyOp12
 70
     1
102
RTVSPropertyOp13
 70
     1
102
RTVSPropertyOp14
 70
     1
102
RTVSPropertyOp15
 70
     1
102
RTVSPropertyOp16
 70
     1
102
RTVSPropertyOp17
 70
     1
102
RTVSPropertyOp18
 70
     1
102
RTVSPropertyOp19
 70
     1
102
RTVSPropertyOp20
 70
     1
102
RTVSPropertyOp21
 70
     1
102
RTVSPropertyOp22
 70
     1
102
RTVSPropertyOp23
 70
     1
102
RTVSPropertyOp24
 70
     1
102
RTVSPropertyOp25
 70
     1
102
RTVSPropertyOp26
 70
     1
102
RTVSPropertyOp27
 70
     1
102
RTVSPropertyOp28
 70
     1
102
RTVSPropertyOp29
 70
     1
102
RTVSPropertyOp30
 70
     1
102
RTVSPropertyOp31
 70
     1
102
RTVSPropertyOp32
 70
     1
102
RTVSPropertyOp33
 70
     1
102
RTVSPropertyOp34
 70
     1
102
RTVSPropertyOp35
 70
     1
102
RTVSPropertyOp36
 70
     1
102
RTVSPropertyOp37
 70
     1
102
RTVSPropertyOp38
 70
     1
102
RTVSPropertyOp39
 70
     1
102
RTVSPropertyOp40
 70
     1
102
RTVSPropertyOp41
 70
     1
102
RTVSPropertyOp42
 70
     1
102
RTVSPropertyOp43
 70
     1
102
RTVSPropertyOp44
 70
     1
102
RTVSPropertyOp45
 70
     1
102
RTVSPropertyOp46
 70
     1
102
RTVSPropertyOp47
 70
     1
102
RTVSPropertyOp48
 70
     1
102
RTVSPropertyOp49
 70
     1
102
RTVSPropertyOp50
 70
     1
102
RTVSPropertyOp51
 70
     0
102
RTVSPropertyOp52
 70
     0
102
RTVSPropertyOp53
 70
     1
102
RTVSPropertyOp54
 70
     1
102
RTVSPropertyOp55
 70
     1
102
RTVSPropertyOp56
 70
     1
102
RTVSPropertyOp57
 70
     1
102
RTVSPost2010Prop28
280
     1
102
RTVSPost2010PropOp28
 70
     1
102
RTVSPost2010Prop29
280
     1
102
RTVSPost2010PropOp29
 70
     1
102
RTVSPost2010Prop30
280
     0
102
RTVSPost2010PropOp30
 70
     1
102
RTVSPost2010Prop31
280
     0
102
RTVSPost2010PropOp31
 70
     1
102
RTVSPost2010Prop32
280
     0
102
RTVSPost2010PropOp32
 70
     1
102
RTVSPost2010Prop33
280
     0
102
RTVSPost2010PropOp33
 70
     1
102
RTVSPost2010Prop34
280
     0
102
RTVSPost2010PropOp34
 70
     1
102
RTVSPost2010Prop35
280
     0
102
RTVSPost2010PropOp35
 70
     1
102
RTVSPost2010Prop36
280
     0
102
RTVSPost2010PropOp36
 70
     1
102
RTVSPost2010Prop37
 90
       50
102
RTVSPost2010PropOp37
 70
     1
102
RTVSPost2010Prop38
140
0.0
102
RTVSPost2010PropOp38
 70
     1
102
RTVSPost2010Prop39
140
1.0
102
RTVSPost2010PropOp39
 70
     1
102
RTVSPost2010Prop40
 90
        0
102
RTVSPost2010PropOp40
 70
     1
102
RTVSPost2010Prop41ColorIndex
 90
       18
102
RTVSPost2010Prop41ColorRGB
 90
        0
102
RTVSPost2010PropOp41
 70
     1
102
RTVSPost2010Prop42
 90
       50
102
RTVSPost2010PropOp42
 70
     1
102
RTVSPost2010Prop43
 90
        3
102
RTVSPost2010PropOp43
 70
     1
102
RTVSPost2010Prop44ColorIndex
 90
        5
102
RTVSPost2010Prop44ColorRGB
 90
      255
102
RTVSPost2010PropOp44
 70
     1
102
RTVSPost2010Prop45
280
     0
102
RTVSPost2010PropOp45
 70
     1
102
RTVSPost2010Prop46
 90
       50
102
RTVSPost2010PropOp46
 70
     1
102
RTVSPost2010Prop47
 90
       50
102
RTVSPost2010PropOp47
 70
     1
102
RTVSPost2010Prop48
 90
       50
102
RTVSPost2010PropOp48
 70
     1
102
RTVSPost2010Prop49
280
     0
102
RTVSPost2010PropOp49
 70
     1
102
RTVSPost2010Prop50
 90
       50
102
RTVSPost2010PropOp50
 70
     1
102
RTVSPost2010Prop51ColorIndex
 90
      256
102
RTVSPost2010Prop51ColorRGB
 90
-16777216
102
RTVSPost2010PropOp51
 70
     0
102
RTVSPost2010Prop52
140
1.0
102
RTVSPost2010PropOp52
 70
     0
102
RTVSPost2010Prop53
 90
        2
102
RTVSPost2010PropOp53
 70
     1
102
RTVSPost2010Prop54
  1
strokes_ogs.tif
102
RTVSPost2010PropOp54
 70
     1
102
RTVSPost2010Prop55
280
     0
102
RTVSPost2010PropOp55
 70
     1
102
RTVSPost2010Prop56
140
1.0
102
RTVSPost2010PropOp56
 70
     1
102
RTVSPost2010Prop57
140
1.0
102
RTVSPost2010PropOp57
 70
     1
  0
XRECORD
  5
129
102
{ACAD_REACTORS
330
128
102
}
330
128
100
AcDbXrecord
280
     1
102
RTVSPropertyOp0
 70
     1
102
RTVSPropertyOp1
 70
     1
102
RTVSPropertyOp2
 70
     1
102
RTVSPropertyOp3
 70
     1
102
RTVSPropertyOp4
 70
     1
102
RTVSPropertyOp5
 70
     1
102
RTVSPropertyOp6
 70
     1
102
RTVSPropertyOp7
 70
     1
102
RTVSPropertyOp8
 70
     1
102
RTVSPropertyOp9
 70
     1
102
RTVSPropertyOp10
 70
     1
102
RTVSPropertyOp11
 70
     1
102
RTVSPropertyOp12
 70
     1
102
RTVSPropertyOp13
 70
     1
102
RTVSPropertyOp14
 70
     1
102
RTVSPropertyOp15
 70
     1
102
RTVSPropertyOp16
 70
     1
102
RTVSPropertyOp17
 70
     1
102
RTVSPropertyOp18
 70
     1
102
RTVSPropertyOp19
 70
     1
102
RTVSPropertyOp20
 70
     1
102
RTVSPropertyOp21
 70
     1
102
RTVSPropertyOp22
 70
     1
102
RTVSPropertyOp23
 70
     1
102
RTVSPropertyOp24
 70
     1
102
RTVSPropertyOp25
 70
     1
102
RTVSPropertyOp26
 70
     1
102
RTVSPropertyOp27
 70
     1
102
RTVSPropertyOp28
 70
     1
102
RTVSPropertyOp29
 70
     1
102
RTVSPropertyOp30
 70
     1
102
RTVSPropertyOp31
 70
     1
102
RTVSPropertyOp32
 70
     1
102
RTVSPropertyOp33
 70
     1
102
RTVSPropertyOp34
 70
     1
102
RTVSPropertyOp35
 70
     1
102
RTVSPropertyOp36
 70
     1
102
RTVSPropertyOp37
 70
     1
102
RTVSPropertyOp38
 70
     1
102
RTVSPropertyOp39
 70
     1
102
RTVSPropertyOp40
 70
     1
102
RTVSPropertyOp41
 70
     1
102
RTVSPropertyOp42
 70
     1
102
RTVSPropertyOp43
 70
     1
102
RTVSPropertyOp44
 70
     1
102
RTVSPropertyOp45
 70
     1
102
RTVSPropertyOp46
 70
     1
102
RTVSPropertyOp47
 70
     1
102
RTVSPropertyOp48
 70
     1
102
RTVSPropertyOp49
 70
     1
102
RTVSPropertyOp50
 70
     1
102
RTVSPropertyOp51
 70
     0
102
RTVSPropertyOp52
 70
     0
102
RTVSPropertyOp53
 70
     1
102
RTVSPropertyOp54
 70
     1
102
RTVSPropertyOp55
 70
     1
102
RTVSPropertyOp56
 70
     1
102
RTVSPropertyOp57
 70
     1
102
RTVSPost2010Prop28
280
     0
102
RTVSPost2010PropOp28
 70
     1
102
RTVSPost2010Prop29
280
     1
102
RTVSPost2010PropOp29
 70
     1
102
RTVSPost2010Prop30
280
     1
102
RTVSPost2010PropOp30
 70
     1
102
RTVSPost2010Prop31
280
     0
102
RTVSPost2010PropOp31
 70
     1
102
RTVSPost2010Prop32
280
     0
102
RTVSPost2010PropOp32
 70
     1
102
RTVSPost2010Prop33
280
     0
102
RTVSPost2010PropOp33
 70
     1
102
RTVSPost2010Prop34
280
     0
102
RTVSPost2010PropOp34
 70
     1
102
RTVSPost2010Prop35
280
     0
102
RTVSPost2010PropOp35
 70
     1
102
RTVSPost2010Prop36
280
     0
102
RTVSPost2010PropOp36
 70
     1
102
RTVSPost2010Prop37
 90
       50
102
RTVSPost2010PropOp37
 70
     1
102
RTVSPost2010Prop38
140
0.0
102
RTVSPost2010PropOp38
 70
     1
102
RTVSPost2010Prop39
140
1.0
102
RTVSPost2010PropOp39
 70
     1
102
RTVSPost2010Prop40
 90
        0
102
RTVSPost2010PropOp40
 70
     1
102
RTVSPost2010Prop41ColorIndex
 90
       18
102
RTVSPost2010Prop41ColorRGB
 90
        0
102
RTVSPost2010PropOp41
 70
     1
102
RTVSPost2010Prop42
 90
       50
102
RTVSPost2010PropOp42
 70
     1
102
RTVSPost2010Prop43
 90
        3
102
RTVSPost2010PropOp43
 70
     1
102
RTVSPost2010Prop44ColorIndex
 90
        5
102
RTVSPost2010Prop44ColorRGB
 90
      255
102
RTVSPost2010PropOp44
 70
     1
102
RTVSPost2010Prop45
280
     0
102
RTVSPost2010PropOp45
 70
     1
102
RTVSPost2010Prop46
 90
       50
102
RTVSPost2010PropOp46
 70
     1
102
RTVSPost2010Prop47
 90
       50
102
RTVSPost2010PropOp47
 70
     1
102
RTVSPost2010Prop48
 90
       50
102
RTVSPost2010PropOp48
 70
     1
102
RTVSPost2010Prop49
280
     0
102
RTVSPost2010PropOp49
 70
     1
102
RTVSPost2010Prop50
 90
       50
102
RTVSPost2010PropOp50
 70
     1
102
RTVSPost2010Prop51ColorIndex
 90
      256
102
RTVSPost2010Prop51ColorRGB
 90
-16777216
102
RTVSPost2010PropOp51
 70
     0
102
RTVSPost2010Prop52
140
1.0
102
RTVSPost2010PropOp52
 70
     0
102
RTVSPost2010Prop53
 90
        2
102
RTVSPost2010PropOp53
 70
     1
102
RTVSPost2010Prop54
  1
strokes_ogs.tif
102
RTVSPost2010PropOp54
 70
     1
102
RTVSPost2010Prop55
280
     0
102
RTVSPost2010PropOp55
 70
     1
102
RTVSPost2010Prop56
140
1.0
102
RTVSPost2010PropOp56
 70
     1
102
RTVSPost2010Prop57
140
1.0
102
RTVSPost2010PropOp57
 70
     1
  0
XRECORD
  5
131
102
{ACAD_REACTORS
330
130
102
}
330
130
100
AcDbXrecord
280
     1
102
RTVSPropertyOp0
 70
     1
102
RTVSPropertyOp1
 70
     1
102
RTVSPropertyOp2
 70
     1
102
RTVSPropertyOp3
 70
     1
102
RTVSPropertyOp4
 70
     1
102
RTVSPropertyOp5
 70
     1
102
RTVSPropertyOp6
 70
     1
102
RTVSPropertyOp7
 70
     1
102
RTVSPropertyOp8
 70
     1
102
RTVSPropertyOp9
 70
     1
102
RTVSPropertyOp10
 70
     1
102
RTVSPropertyOp11
 70
     1
102
RTVSPropertyOp12
 70
     1
102
RTVSPropertyOp13
 70
     1
102
RTVSPropertyOp14
 70
     1
102
RTVSPropertyOp15
 70
     1
102
RTVSPropertyOp16
 70
     1
102
RTVSPropertyOp17
 70
     1
102
RTVSPropertyOp18
 70
     1
102
RTVSPropertyOp19
 70
     1
102
RTVSPropertyOp20
 70
     1
102
RTVSPropertyOp21
 70
     1
102
RTVSPropertyOp22
 70
     1
102
RTVSPropertyOp23
 70
     1
102
RTVSPropertyOp24
 70
     1
102
RTVSPropertyOp25
 70
     1
102
RTVSPropertyOp26
 70
     1
102
RTVSPropertyOp27
 70
     1
102
RTVSPropertyOp28
 70
     1
102
RTVSPropertyOp29
 70
     1
102
RTVSPropertyOp30
 70
     1
102
RTVSPropertyOp31
 70
     1
102
RTVSPropertyOp32
 70
     1
102
RTVSPropertyOp33
 70
     1
102
RTVSPropertyOp34
 70
     1
102
RTVSPropertyOp35
 70
     1
102
RTVSPropertyOp36
 70
     1
102
RTVSPropertyOp37
 70
     1
102
RTVSPropertyOp38
 70
     1
102
RTVSPropertyOp39
 70
     1
102
RTVSPropertyOp40
 70
     1
102
RTVSPropertyOp41
 70
     1
102
RTVSPropertyOp42
 70
     1
102
RTVSPropertyOp43
 70
     1
102
RTVSPropertyOp44
 70
     1
102
RTVSPropertyOp45
 70
     1
102
RTVSPropertyOp46
 70
     1
102
RTVSPropertyOp47
 70
     1
102
RTVSPropertyOp48
 70
     1
102
RTVSPropertyOp49
 70
     1
102
RTVSPropertyOp50
 70
     1
102
RTVSPropertyOp51
 70
     0
102
RTVSPropertyOp52
 70
     0
102
RTVSPropertyOp53
 70
     1
102
RTVSPropertyOp54
 70
     1
102
RTVSPropertyOp55
 70
     1
102
RTVSPropertyOp56
 70
     1
102
RTVSPropertyOp57
 70
     1
102
RTVSPost2010Prop28
280
     0
102
RTVSPost2010PropOp28
 70
     1
102
RTVSPost2010Prop29
280
     1
102
RTVSPost2010PropOp29
 70
     1
102
RTVSPost2010Prop30
280
     1
102
RTVSPost2010PropOp30
 70
     1
102
RTVSPost2010Prop31
280
     0
102
RTVSPost2010PropOp31
 70
     1
102
RTVSPost2010Prop32
280
     0
102
RTVSPost2010PropOp32
 70
     1
102
RTVSPost2010Prop33
280
     0
102
RTVSPost2010PropOp33
 70
     1
102
RTVSPost2010Prop34
280
     0
102
RTVSPost2010PropOp34
 70
     1
102
RTVSPost2010Prop35
280
     0
102
RTVSPost2010PropOp35
 70
     1
102
RTVSPost2010Prop36
280
     0
102
RTVSPost2010PropOp36
 70
     1
102
RTVSPost2010Prop37
 90
       50
102
RTVSPost2010PropOp37
 70
     1
102
RTVSPost2010Prop38
140
0.0
102
RTVSPost2010PropOp38
 70
     1
102
RTVSPost2010Prop39
140
1.0
102
RTVSPost2010PropOp39
 70
     1
102
RTVSPost2010Prop40
 90
        0
102
RTVSPost2010PropOp40
 70
     1
102
RTVSPost2010Prop41ColorIndex
 90
       18
102
RTVSPost2010Prop41ColorRGB
 90
        0
102
RTVSPost2010PropOp41
 70
     1
102
RTVSPost2010Prop42
 90
       50
102
RTVSPost2010PropOp42
 70
     1
102
RTVSPost2010Prop43
 90
        3
102
RTVSPost2010PropOp43
 70
     1
102
RTVSPost2010Prop44ColorIndex
 90
        5
102
RTVSPost2010Prop44ColorRGB
 90
      255
102
RTVSPost2010PropOp44
 70
     1
102
RTVSPost2010Prop45
280
     0
102
RTVSPost2010PropOp45
 70
     1
102
RTVSPost2010Prop46
 90
       50
102
RTVSPost2010PropOp46
 70
     1
102
RTVSPost2010Prop47
 90
       50
102
RTVSPost2010PropOp47
 70
     1
102
RTVSPost2010Prop48
 90
       50
102
RTVSPost2010PropOp48
 70
     1
102
RTVSPost2010Prop49
280
     0
102
RTVSPost2010PropOp49
 70
     1
102
RTVSPost2010Prop50
 90
       50
102
RTVSPost2010PropOp50
 70
     1
102
RTVSPost2010Prop51ColorIndex
 90
      256
102
RTVSPost2010Prop51ColorRGB
 90
-16777216
102
RTVSPost2010PropOp51
 70
     0
102
RTVSPost2010Prop52
140
1.0
102
RTVSPost2010PropOp52
 70
     0
102
RTVSPost2010Prop53
 90
        2
102
RTVSPost2010PropOp53
 70
     1
102
RTVSPost2010Prop54
  1
strokes_ogs.tif
102
RTVSPost2010PropOp54
 70
     1
102
RTVSPost2010Prop55
280
     0
102
RTVSPost2010PropOp55
 70
     1
102
RTVSPost2010Prop56
140
1.0
102
RTVSPost2010PropOp56
 70
     1
102
RTVSPost2010Prop57
140
1.0
102
RTVSPost2010PropOp57
 70
     1
  0
XRECORD
  5
139
102
{ACAD_REACTORS
330
138
102
}
330
138
100
AcDbXrecord
280
     1
102
RTVSPropertyOp0
 70
     1
102
RTVSPropertyOp1
 70
     1
102
RTVSPropertyOp2
 70
     1
102
RTVSPropertyOp3
 70
     1
102
RTVSPropertyOp4
 70
     1
102
RTVSPropertyOp5
 70
     1
102
RTVSPropertyOp6
 70
     1
102
RTVSPropertyOp7
 70
     1
102
RTVSPropertyOp8
 70
     1
102
RTVSPropertyOp9
 70
     1
102
RTVSPropertyOp10
 70
     1
102
RTVSPropertyOp11
 70
     1
102
RTVSPropertyOp12
 70
     1
102
RTVSPropertyOp13
 70
     1
102
RTVSPropertyOp14
 70
     1
102
RTVSPropertyOp15
 70
     1
102
RTVSPropertyOp16
 70
     1
102
RTVSPropertyOp17
 70
     1
102
RTVSPropertyOp18
 70
     1
102
RTVSPropertyOp19
 70
     1
102
RTVSPropertyOp20
 70
     1
102
RTVSPropertyOp21
 70
     1
102
RTVSPropertyOp22
 70
     1
102
RTVSPropertyOp23
 70
     1
102
RTVSPropertyOp24
 70
     1
102
RTVSPropertyOp25
 70
     1
102
RTVSPropertyOp26
 70
     1
102
RTVSPropertyOp27
 70
     1
102
RTVSPropertyOp28
 70
     1
102
RTVSPropertyOp29
 70
     1
102
RTVSPropertyOp30
 70
     1
102
RTVSPropertyOp31
 70
     1
102
RTVSPropertyOp32
 70
     1
102
RTVSPropertyOp33
 70
     1
102
RTVSPropertyOp34
 70
     1
102
RTVSPropertyOp35
 70
     1
102
RTVSPropertyOp36
 70
     1
102
RTVSPropertyOp37
 70
     1
102
RTVSPropertyOp38
 70
     1
102
RTVSPropertyOp39
 70
     1
102
RTVSPropertyOp40
 70
     1
102
RTVSPropertyOp41
 70
     1
102
RTVSPropertyOp42
 70
     1
102
RTVSPropertyOp43
 70
     1
102
RTVSPropertyOp44
 70
     1
102
RTVSPropertyOp45
 70
     1
102
RTVSPropertyOp46
 70
     1
102
RTVSPropertyOp47
 70
     1
102
RTVSPropertyOp48
 70
     1
102
RTVSPropertyOp49
 70
     1
102
RTVSPropertyOp50
 70
     1
102
RTVSPropertyOp51
 70
     0
102
RTVSPropertyOp52
 70
     0
102
RTVSPropertyOp53
 70
     1
102
RTVSPropertyOp54
 70
     1
102
RTVSPropertyOp55
 70
     1
102
RTVSPropertyOp56
 70
     1
102
RTVSPropertyOp57
 70
     1
102
RTVSPost2010Prop28
280
     0
102
RTVSPost2010PropOp28
 70
     1
102
RTVSPost2010Prop29
280
     1
102
RTVSPost2010PropOp29
 70
     1
102
RTVSPost2010Prop30
280
     1
102
RTVSPost2010PropOp30
 70
     1
102
RTVSPost2010Prop31
280
     0
102
RTVSPost2010PropOp31
 70
     1
102
RTVSPost2010Prop32
280
     0
102
RTVSPost2010PropOp32
 70
     1
102
RTVSPost2010Prop33
280
     0
102
RTVSPost2010PropOp33
 70
     1
102
RTVSPost2010Prop34
280
     0
102
RTVSPost2010PropOp34
 70
     1
102
RTVSPost2010Prop35
280
     0
102
RTVSPost2010PropOp35
 70
     1
102
RTVSPost2010Prop36
280
     0
102
RTVSPost2010PropOp36
 70
     1
102
RTVSPost2010Prop37
 90
       50
102
RTVSPost2010PropOp37
 70
     1
102
RTVSPost2010Prop38
140
0.0
102
RTVSPost2010PropOp38
 70
     1
102
RTVSPost2010Prop39
140
1.0
102
RTVSPost2010PropOp39
 70
     1
102
RTVSPost2010Prop40
 90
        0
102
RTVSPost2010PropOp40
 70
     1
102
RTVSPost2010Prop41ColorIndex
 90
       18
102
RTVSPost2010Prop41ColorRGB
 90
        0
102
RTVSPost2010PropOp41
 70
     1
102
RTVSPost2010Prop42
 90
       50
102
RTVSPost2010PropOp42
 70
     1
102
RTVSPost2010Prop43
 90
        3
102
RTVSPost2010PropOp43
 70
     1
102
RTVSPost2010Prop44ColorIndex
 90
        5
102
RTVSPost2010Prop44ColorRGB
 90
      255
102
RTVSPost2010PropOp44
 70
     1
102
RTVSPost2010Prop45
280
     0
102
RTVSPost2010PropOp45
 70
     1
102
RTVSPost2010Prop46
 90
       50
102
RTVSPost2010PropOp46
 70
     1
102
RTVSPost2010Prop47
 90
       50
102
RTVSPost2010PropOp47
 70
     1
102
RTVSPost2010Prop48
 90
       50
102
RTVSPost2010PropOp48
 70
     1
102
RTVSPost2010Prop49
280
     0
102
RTVSPost2010PropOp49
 70
     1
102
RTVSPost2010Prop50
 90
       50
102
RTVSPost2010PropOp50
 70
     1
102
RTVSPost2010Prop51ColorIndex
 90
      256
102
RTVSPost2010Prop51ColorRGB
 90
-16777216
102
RTVSPost2010PropOp51
 70
     0
102
RTVSPost2010Prop52
140
1.0
102
RTVSPost2010PropOp52
 70
     0
102
RTVSPost2010Prop53
 90
        2
102
RTVSPost2010PropOp53
 70
     1
102
RTVSPost2010Prop54
  1
strokes_ogs.tif
102
RTVSPost2010PropOp54
 70
     1
102
RTVSPost2010Prop55
280
     0
102
RTVSPost2010PropOp55
 70
     1
102
RTVSPost2010Prop56
140
1.0
102
RTVSPost2010PropOp56
 70
     1
102
RTVSPost2010Prop57
140
1.0
102
RTVSPost2010PropOp57
 70
     1
  0
XRECORD
  5
12D
102
{ACAD_REACTORS
330
12C
102
}
330
12C
100
AcDbXrecord
280
     1
102
RTVSPropertyOp0
 70
     1
102
RTVSPropertyOp1
 70
     1
102
RTVSPropertyOp2
 70
     1
102
RTVSPropertyOp3
 70
     1
102
RTVSPropertyOp4
 70
     1
102
RTVSPropertyOp5
 70
     1
102
RTVSPropertyOp6
 70
     1
102
RTVSPropertyOp7
 70
     1
102
RTVSPropertyOp8
 70
     1
102
RTVSPropertyOp9
 70
     1
102
RTVSPropertyOp10
 70
     1
102
RTVSPropertyOp11
 70
     1
102
RTVSPropertyOp12
 70
     1
102
RTVSPropertyOp13
 70
     1
102
RTVSPropertyOp14
 70
     1
102
RTVSPropertyOp15
 70
     1
102
RTVSPropertyOp16
 70
     1
102
RTVSPropertyOp17
 70
     1
102
RTVSPropertyOp18
 70
     1
102
RTVSPropertyOp19
 70
     1
102
RTVSPropertyOp20
 70
     1
102
RTVSPropertyOp21
 70
     1
102
RTVSPropertyOp22
 70
     1
102
RTVSPropertyOp23
 70
     1
102
RTVSPropertyOp24
 70
     1
102
RTVSPropertyOp25
 70
     1
102
RTVSPropertyOp26
 70
     1
102
RTVSPropertyOp27
 70
     1
102
RTVSPropertyOp28
 70
     1
102
RTVSPropertyOp29
 70
     1
102
RTVSPropertyOp30
 70
     1
102
RTVSPropertyOp31
 70
     1
102
RTVSPropertyOp32
 70
     1
102
RTVSPropertyOp33
 70
     1
102
RTVSPropertyOp34
 70
     1
102
RTVSPropertyOp35
 70
     1
102
RTVSPropertyOp36
 70
     1
102
RTVSPropertyOp37
 70
     1
102
RTVSPropertyOp38
 70
     1
102
RTVSPropertyOp39
 70
     1
102
RTVSPropertyOp40
 70
     1
102
RTVSPropertyOp41
 70
     1
102
RTVSPropertyOp42
 70
     1
102
RTVSPropertyOp43
 70
     1
102
RTVSPropertyOp44
 70
     1
102
RTVSPropertyOp45
 70
     1
102
RTVSPropertyOp46
 70
     1
102
RTVSPropertyOp47
 70
     1
102
RTVSPropertyOp48
 70
     1
102
RTVSPropertyOp49
 70
     1
102
RTVSPropertyOp50
 70
     1
102
RTVSPropertyOp51
 70
     0
102
RTVSPropertyOp52
 70
     0
102
RTVSPropertyOp53
 70
     1
102
RTVSPropertyOp54
 70
     1
102
RTVSPropertyOp55
 70
     1
102
RTVSPropertyOp56
 70
     1
102
RTVSPropertyOp57
 70
     1
102
RTVSPost2010Prop28
280
     0
102
RTVSPost2010PropOp28
 70
     1
102
RTVSPost2010Prop29
280
     1
102
RTVSPost2010PropOp29
 70
     1
102
RTVSPost2010Prop30
280
     1
102
RTVSPost2010PropOp30
 70
     1
102
RTVSPost2010Prop31
280
     0
102
RTVSPost2010PropOp31
 70
     1
102
RTVSPost2010Prop32
280
     0
102
RTVSPost2010PropOp32
 70
     1
102
RTVSPost2010Prop33
280
     0
102
RTVSPost2010PropOp33
 70
     1
102
RTVSPost2010Prop34
280
     0
102
RTVSPost2010PropOp34
 70
     1
102
RTVSPost2010Prop35
280
     0
102
RTVSPost2010PropOp35
 70
     1
102
RTVSPost2010Prop36
280
     0
102
RTVSPost2010PropOp36
 70
     1
102
RTVSPost2010Prop37
 90
       50
102
RTVSPost2010PropOp37
 70
     1
102
RTVSPost2010Prop38
140
0.0
102
RTVSPost2010PropOp38
 70
     1
102
RTVSPost2010Prop39
140
1.0
102
RTVSPost2010PropOp39
 70
     1
102
RTVSPost2010Prop40
 90
        0
102
RTVSPost2010PropOp40
 70
     1
102
RTVSPost2010Prop41ColorIndex
 90
       18
102
RTVSPost2010Prop41ColorRGB
 90
        0
102
RTVSPost2010PropOp41
 70
     1
102
RTVSPost2010Prop42
 90
       50
102
RTVSPost2010PropOp42
 70
     1
102
RTVSPost2010Prop43
 90
        3
102
RTVSPost2010PropOp43
 70
     1
102
RTVSPost2010Prop44ColorIndex
 90
        5
102
RTVSPost2010Prop44ColorRGB
 90
      255
102
RTVSPost2010PropOp44
 70
     1
102
RTVSPost2010Prop45
280
     0
102
RTVSPost2010PropOp45
 70
     1
102
RTVSPost2010Prop46
 90
       50
102
RTVSPost2010PropOp46
 70
     1
102
RTVSPost2010Prop47
 90
       50
102
RTVSPost2010PropOp47
 70
     1
102
RTVSPost2010Prop48
 90
       50
102
RTVSPost2010PropOp48
 70
     1
102
RTVSPost2010Prop49
280
     0
102
RTVSPost2010PropOp49
 70
     1
102
RTVSPost2010Prop50
 90
       50
102
RTVSPost2010PropOp50
 70
     1
102
RTVSPost2010Prop51ColorIndex
 90
      256
102
RTVSPost2010Prop51ColorRGB
 90
-16777216
102
RTVSPost2010PropOp51
 70
     0
102
RTVSPost2010Prop52
140
1.0
102
RTVSPost2010PropOp52
 70
     0
102
RTVSPost2010Prop53
 90
        2
102
RTVSPost2010PropOp53
 70
     1
102
RTVSPost2010Prop54
  1
strokes_ogs.tif
102
RTVSPost2010PropOp54
 70
     1
102
RTVSPost2010Prop55
280
     0
102
RTVSPost2010PropOp55
 70
     1
102
RTVSPost2010Prop56
140
1.0
102
RTVSPost2010PropOp56
 70
     1
102
RTVSPost2010Prop57
140
1.0
102
RTVSPost2010PropOp57
 70
     1
  0
XRECORD
  5
12F
102
{ACAD_REACTORS
330
12E
102
}
330
12E
100
AcDbXrecord
280
     1
102
RTVSPropertyOp0
 70
     1
102
RTVSPropertyOp1
 70
     1
102
RTVSPropertyOp2
 70
     1
102
RTVSPropertyOp3
 70
     1
102
RTVSPropertyOp4
 70
     1
102
RTVSPropertyOp5
 70
     1
102
RTVSPropertyOp6
 70
     1
102
RTVSPropertyOp7
 70
     1
102
RTVSPropertyOp8
 70
     1
102
RTVSPropertyOp9
 70
     1
102
RTVSPropertyOp10
 70
     1
102
RTVSPropertyOp11
 70
     1
102
RTVSPropertyOp12
 70
     1
102
RTVSPropertyOp13
 70
     1
102
RTVSPropertyOp14
 70
     1
102
RTVSPropertyOp15
 70
     1
102
RTVSPropertyOp16
 70
     1
102
RTVSPropertyOp17
 70
     1
102
RTVSPropertyOp18
 70
     1
102
RTVSPropertyOp19
 70
     1
102
RTVSPropertyOp20
 70
     1
102
RTVSPropertyOp21
 70
     1
102
RTVSPropertyOp22
 70
     1
102
RTVSPropertyOp23
 70
     1
102
RTVSPropertyOp24
 70
     1
102
RTVSPropertyOp25
 70
     1
102
RTVSPropertyOp26
 70
     1
102
RTVSPropertyOp27
 70
     1
102
RTVSPropertyOp28
 70
     1
102
RTVSPropertyOp29
 70
     1
102
RTVSPropertyOp30
 70
     1
102
RTVSPropertyOp31
 70
     1
102
RTVSPropertyOp32
 70
     1
102
RTVSPropertyOp33
 70
     1
102
RTVSPropertyOp34
 70
     1
102
RTVSPropertyOp35
 70
     1
102
RTVSPropertyOp36
 70
     1
102
RTVSPropertyOp37
 70
     1
102
RTVSPropertyOp38
 70
     1
102
RTVSPropertyOp39
 70
     1
102
RTVSPropertyOp40
 70
     1
102
RTVSPropertyOp41
 70
     1
102
RTVSPropertyOp42
 70
     1
102
RTVSPropertyOp43
 70
     1
102
RTVSPropertyOp44
 70
     1
102
RTVSPropertyOp45
 70
     1
102
RTVSPropertyOp46
 70
     1
102
RTVSPropertyOp47
 70
     1
102
RTVSPropertyOp48
 70
     1
102
RTVSPropertyOp49
 70
     1
102
RTVSPropertyOp50
 70
     1
102
RTVSPropertyOp51
 70
     0
102
RTVSPropertyOp52
 70
     0
102
RTVSPropertyOp53
 70
     1
102
RTVSPropertyOp54
 70
     1
102
RTVSPropertyOp55
 70
     1
102
RTVSPropertyOp56
 70
     1
102
RTVSPropertyOp57
 70
     1
102
RTVSPost2010Prop28
280
     0
102
RTVSPost2010PropOp28
 70
     1
102
RTVSPost2010Prop29
280
     1
102
RTVSPost2010PropOp29
 70
     1
102
RTVSPost2010Prop30
280
     1
102
RTVSPost2010PropOp30
 70
     1
102
RTVSPost2010Prop31
280
     0
102
RTVSPost2010PropOp31
 70
     1
102
RTVSPost2010Prop32
280
     0
102
RTVSPost2010PropOp32
 70
     1
102
RTVSPost2010Prop33
280
     0
102
RTVSPost2010PropOp33
 70
     1
102
RTVSPost2010Prop34
280
     0
102
RTVSPost2010PropOp34
 70
     1
102
RTVSPost2010Prop35
280
     0
102
RTVSPost2010PropOp35
 70
     1
102
RTVSPost2010Prop36
280
     0
102
RTVSPost2010PropOp36
 70
     1
102
RTVSPost2010Prop37
 90
       50
102
RTVSPost2010PropOp37
 70
     1
102
RTVSPost2010Prop38
140
0.0
102
RTVSPost2010PropOp38
 70
     1
102
RTVSPost2010Prop39
140
1.0
102
RTVSPost2010PropOp39
 70
     1
102
RTVSPost2010Prop40
 90
        0
102
RTVSPost2010PropOp40
 70
     1
102
RTVSPost2010Prop41ColorIndex
 90
       18
102
RTVSPost2010Prop41ColorRGB
 90
        0
102
RTVSPost2010PropOp41
 70
     1
102
RTVSPost2010Prop42
 90
       50
102
RTVSPost2010PropOp42
 70
     1
102
RTVSPost2010Prop43
 90
        3
102
RTVSPost2010PropOp43
 70
     1
102
RTVSPost2010Prop44ColorIndex
 90
        5
102
RTVSPost2010Prop44ColorRGB
 90
      255
102
RTVSPost2010PropOp44
 70
     1
102
RTVSPost2010Prop45
280
     0
102
RTVSPost2010PropOp45
 70
     1
102
RTVSPost2010Prop46
 90
       50
102
RTVSPost2010PropOp46
 70
     1
102
RTVSPost2010Prop47
 90
       50
102
RTVSPost2010PropOp47
 70
     1
102
RTVSPost2010Prop48
 90
       50
102
RTVSPost2010PropOp48
 70
     1
102
RTVSPost2010Prop49
280
     0
102
RTVSPost2010PropOp49
 70
     1
102
RTVSPost2010Prop50
 90
       50
102
RTVSPost2010PropOp50
 70
     1
102
RTVSPost2010Prop51ColorIndex
 90
      256
102
RTVSPost2010Prop51ColorRGB
 90
-16777216
102
RTVSPost2010PropOp51
 70
     0
102
RTVSPost2010Prop52
140
1.0
102
RTVSPost2010PropOp52
 70
     0
102
RTVSPost2010Prop53
 90
        2
102
RTVSPost2010PropOp53
 70
     1
102
RTVSPost2010Prop54
  1
strokes_ogs.tif
102
RTVSPost2010PropOp54
 70
     1
102
RTVSPost2010Prop55
280
     0
102
RTVSPost2010PropOp55
 70
     1
102
RTVSPost2010Prop56
140
1.0
102
RTVSPost2010PropOp56
 70
     1
102
RTVSPost2010Prop57
140
1.0
102
RTVSPost2010PropOp57
 70
     1
  0
XRECORD
  5
13F
102
{ACAD_REACTORS
330
13E
102
}
330
13E
100
AcDbXrecord
280
     1
102
RTVSPropertyOp0
 70
     0
102
RTVSPropertyOp1
 70
     0
102
RTVSPropertyOp2
 70
     0
102
RTVSPropertyOp3
 70
     0
102
RTVSPropertyOp4
 70
     0
102
RTVSPropertyOp5
 70
     0
102
RTVSPropertyOp6
 70
     0
102
RTVSPropertyOp7
 70
     0
102
RTVSPropertyOp8
 70
     0
102
RTVSPropertyOp9
 70
     0
102
RTVSPropertyOp10
 70
     0
102
RTVSPropertyOp11
 70
     0
102
RTVSPropertyOp12
 70
     0
102
RTVSPropertyOp13
 70
     0
102
RTVSPropertyOp14
 70
     2
102
RTVSPropertyOp15
 70
     0
102
RTVSPropertyOp16
 70
     0
102
RTVSPropertyOp17
 70
     0
102
RTVSPropertyOp18
 70
     0
102
RTVSPropertyOp19
 70
     0
102
RTVSPropertyOp20
 70
     0
102
RTVSPropertyOp21
 70
     0
102
RTVSPropertyOp22
 70
     0
102
RTVSPropertyOp23
 70
     0
102
RTVSPropertyOp24
 70
     0
102
RTVSPropertyOp25
 70
     0
102
RTVSPropertyOp26
 70
     0
102
RTVSPropertyOp27
 70
     0
102
RTVSPropertyOp28
 70
     0
102
RTVSPropertyOp29
 70
     0
102
RTVSPropertyOp30
 70
     0
102
RTVSPropertyOp31
 70
     0
102
RTVSPropertyOp32
 70
     0
102
RTVSPropertyOp33
 70
     0
102
RTVSPropertyOp34
 70
     0
102
RTVSPropertyOp35
 70
     0
102
RTVSPropertyOp36
 70
     0
102
RTVSPropertyOp37
 70
     0
102
RTVSPropertyOp38
 70
     0
102
RTVSPropertyOp39
 70
     0
102
RTVSPropertyOp40
 70
     0
102
RTVSPropertyOp41
 70
     0
102
RTVSPropertyOp42
 70
     0
102
RTVSPropertyOp43
 70
     0
102
RTVSPropertyOp44
 70
     0
102
RTVSPropertyOp45
 70
     0
102
RTVSPropertyOp46
 70
     0
102
RTVSPropertyOp47
 70
     0
102
RTVSPropertyOp48
 70
     0
102
RTVSPropertyOp49
 70
     0
102
RTVSPropertyOp50
 70
     0
102
RTVSPropertyOp51
 70
     0
102
RTVSPropertyOp52
 70
     0
102
RTVSPropertyOp53
 70
     0
102
RTVSPropertyOp54
 70
     0
102
RTVSPropertyOp55
 70
     0
102
RTVSPropertyOp56
 70
     0
102
RTVSPropertyOp57
 70
     0
102
RTVSPost2010Prop28
280
     0
102
RTVSPost2010PropOp28
 70
     0
102
RTVSPost2010Prop29
280
     1
102
RTVSPost2010PropOp29
 70
     0
102
RTVSPost2010Prop30
280
     1
102
RTVSPost2010PropOp30
 70
     0
102
RTVSPost2010Prop31
280
     0
102
RTVSPost2010PropOp31
 70
     0
102
RTVSPost2010Prop32
280
     0
102
RTVSPost2010PropOp32
 70
     0
102
RTVSPost2010Prop33
280
     0
102
RTVSPost2010PropOp33
 70
     0
102
RTVSPost2010Prop34
280
     0
102
RTVSPost2010PropOp34
 70
     0
102
RTVSPost2010Prop35
280
     0
102
RTVSPost2010PropOp35
 70
     0
102
RTVSPost2010Prop36
280
     0
102
RTVSPost2010PropOp36
 70
     0
102
RTVSPost2010Prop37
 90
       50
102
RTVSPost2010PropOp37
 70
     0
102
RTVSPost2010Prop38
140
0.0
102
RTVSPost2010PropOp38
 70
     0
102
RTVSPost2010Prop39
140
1.0
102
RTVSPost2010PropOp39
 70
     0
102
RTVSPost2010Prop40
 90
        0
102
RTVSPost2010PropOp40
 70
     0
102
RTVSPost2010Prop41ColorIndex
 90
       18
102
RTVSPost2010Prop41ColorRGB
 90
        0
102
RTVSPost2010PropOp41
 70
     0
102
RTVSPost2010Prop42
 90
       50
102
RTVSPost2010PropOp42
 70
     0
102
RTVSPost2010Prop43
 90
        3
102
RTVSPost2010PropOp43
 70
     0
102
RTVSPost2010Prop44ColorIndex
 90
        5
102
RTVSPost2010Prop44ColorRGB
 90
      255
102
RTVSPost2010PropOp44
 70
     0
102
RTVSPost2010Prop45
280
     0
102
RTVSPost2010PropOp45
 70
     0
102
RTVSPost2010Prop46
 90
       50
102
RTVSPost2010PropOp46
 70
     0
102
RTVSPost2010Prop47
 90
       50
102
RTVSPost2010PropOp47
 70
     0
102
RTVSPost2010Prop48
 90
       50
102
RTVSPost2010PropOp48
 70
     0
102
RTVSPost2010Prop49
280
     0
102
RTVSPost2010PropOp49
 70
     0
102
RTVSPost2010Prop50
 90
       50
102
RTVSPost2010PropOp50
 70
     0
102
RTVSPost2010Prop51ColorIndex
 90
      256
102
RTVSPost2010Prop51ColorRGB
 90
-16777216
102
RTVSPost2010PropOp51
 70
     0
102
RTVSPost2010Prop52
140
1.0
102
RTVSPost2010PropOp52
 70
     0
102
RTVSPost2010Prop53
 90
        2
102
RTVSPost2010PropOp53
 70
     0
102
RTVSPost2010Prop54
  1
strokes_ogs.tif
102
RTVSPost2010PropOp54
 70
     0
102
RTVSPost2010Prop55
280
     0
102
RTVSPost2010PropOp55
 70
     0
102
RTVSPost2010Prop56
140
1.0
102
RTVSPost2010PropOp56
 70
     0
102
RTVSPost2010Prop57
140
1.0
102
RTVSPost2010PropOp57
 70
     0
  0
XRECORD
  5
137
102
{ACAD_REACTORS
330
136
102
}
330
136
100
AcDbXrecord
280
     1
102
RTVSPropertyOp0
 70
     1
102
RTVSPropertyOp1
 70
     1
102
RTVSPropertyOp2
 70
     1
102
RTVSPropertyOp3
 70
     1
102
RTVSPropertyOp4
 70
     1
102
RTVSPropertyOp5
 70
     1
102
RTVSPropertyOp6
 70
     1
102
RTVSPropertyOp7
 70
     1
102
RTVSPropertyOp8
 70
     1
102
RTVSPropertyOp9
 70
     1
102
RTVSPropertyOp10
 70
     1
102
RTVSPropertyOp11
 70
     1
102
RTVSPropertyOp12
 70
     1
102
RTVSPropertyOp13
 70
     1
102
RTVSPropertyOp14
 70
     1
102
RTVSPropertyOp15
 70
     1
102
RTVSPropertyOp16
 70
     1
102
RTVSPropertyOp17
 70
     1
102
RTVSPropertyOp18
 70
     1
102
RTVSPropertyOp19
 70
     1
102
RTVSPropertyOp20
 70
     1
102
RTVSPropertyOp21
 70
     1
102
RTVSPropertyOp22
 70
     1
102
RTVSPropertyOp23
 70
     1
102
RTVSPropertyOp24
 70
     1
102
RTVSPropertyOp25
 70
     1
102
RTVSPropertyOp26
 70
     1
102
RTVSPropertyOp27
 70
     1
102
RTVSPropertyOp28
 70
     1
102
RTVSPropertyOp29
 70
     1
102
RTVSPropertyOp30
 70
     1
102
RTVSPropertyOp31
 70
     1
102
RTVSPropertyOp32
 70
     1
102
RTVSPropertyOp33
 70
     1
102
RTVSPropertyOp34
 70
     1
102
RTVSPropertyOp35
 70
     1
102
RTVSPropertyOp36
 70
     1
102
RTVSPropertyOp37
 70
     1
102
RTVSPropertyOp38
 70
     1
102
RTVSPropertyOp39
 70
     1
102
RTVSPropertyOp40
 70
     1
102
RTVSPropertyOp41
 70
     1
102
RTVSPropertyOp42
 70
     1
102
RTVSPropertyOp43
 70
     1
102
RTVSPropertyOp44
 70
     1
102
RTVSPropertyOp45
 70
     1
102
RTVSPropertyOp46
 70
     1
102
RTVSPropertyOp47
 70
     1
102
RTVSPropertyOp48
 70
     1
102
RTVSPropertyOp49
 70
     1
102
RTVSPropertyOp50
 70
     1
102
RTVSPropertyOp51
 70
     0
102
RTVSPropertyOp52
 70
     0
102
RTVSPropertyOp53
 70
     1
102
RTVSPropertyOp54
 70
     1
102
RTVSPropertyOp55
 70
     1
102
RTVSPropertyOp56
 70
     1
102
RTVSPropertyOp57
 70
     1
102
RTVSPost2010Prop28
280
     0
102
RTVSPost2010PropOp28
 70
     1
102
RTVSPost2010Prop29
280
     1
102
RTVSPost2010PropOp29
 70
     1
102
RTVSPost2010Prop30
280
     1
102
RTVSPost2010PropOp30
 70
     1
102
RTVSPost2010Prop31
280
     0
102
RTVSPost2010PropOp31
 70
     1
102
RTVSPost2010Prop32
280
     0
102
RTVSPost2010PropOp32
 70
     1
102
RTVSPost2010Prop33
280
     0
102
RTVSPost2010PropOp33
 70
     1
102
RTVSPost2010Prop34
280
     0
102
RTVSPost2010PropOp34
 70
     1
102
RTVSPost2010Prop35
280
     0
102
RTVSPost2010PropOp35
 70
     1
102
RTVSPost2010Prop36
280
     0
102
RTVSPost2010PropOp36
 70
     1
102
RTVSPost2010Prop37
 90
       50
102
RTVSPost2010PropOp37
 70
     1
102
RTVSPost2010Prop38
140
0.0
102
RTVSPost2010PropOp38
 70
     1
102
RTVSPost2010Prop39
140
1.0
102
RTVSPost2010PropOp39
 70
     1
102
RTVSPost2010Prop40
 90
        0
102
RTVSPost2010PropOp40
 70
     1
102
RTVSPost2010Prop41ColorIndex
 90
       18
102
RTVSPost2010Prop41ColorRGB
 90
        0
102
RTVSPost2010PropOp41
 70
     1
102
RTVSPost2010Prop42
 90
       50
102
RTVSPost2010PropOp42
 70
     1
102
RTVSPost2010Prop43
 90
        3
102
RTVSPost2010PropOp43
 70
     1
102
RTVSPost2010Prop44ColorIndex
 90
        5
102
RTVSPost2010Prop44ColorRGB
 90
      255
102
RTVSPost2010PropOp44
 70
     1
102
RTVSPost2010Prop45
280
     0
102
RTVSPost2010PropOp45
 70
     1
102
RTVSPost2010Prop46
 90
       50
102
RTVSPost2010PropOp46
 70
     1
102
RTVSPost2010Prop47
 90
       50
102
RTVSPost2010PropOp47
 70
     1
102
RTVSPost2010Prop48
 90
       50
102
RTVSPost2010PropOp48
 70
     1
102
RTVSPost2010Prop49
280
     0
102
RTVSPost2010PropOp49
 70
     1
102
RTVSPost2010Prop50
 90
       50
102
RTVSPost2010PropOp50
 70
     1
102
RTVSPost2010Prop51ColorIndex
 90
      256
102
RTVSPost2010Prop51ColorRGB
 90
-16777216
102
RTVSPost2010PropOp51
 70
     0
102
RTVSPost2010Prop52
140
1.0
102
RTVSPost2010PropOp52
 70
     0
102
RTVSPost2010Prop53
 90
        2
102
RTVSPost2010PropOp53
 70
     1
102
RTVSPost2010Prop54
  1
strokes_ogs.tif
102
RTVSPost2010PropOp54
 70
     1
102
RTVSPost2010Prop55
280
     0
102
RTVSPost2010PropOp55
 70
     1
102
RTVSPost2010Prop56
140
1.0
102
RTVSPost2010PropOp56
 70
     1
102
RTVSPost2010Prop57
140
1.0
102
RTVSPost2010PropOp57
 70
     1
  0
XRECORD
  5
11B
102
{ACAD_REACTORS
330
11A
102
}
330
11A
100
AcDbXrecord
280
     1
102
RTVSPropertyOp0
 70
     1
102
RTVSPropertyOp1
 70
     1
102
RTVSPropertyOp2
 70
     1
102
RTVSPropertyOp3
 70
     1
102
RTVSPropertyOp4
 70
     1
102
RTVSPropertyOp5
 70
     1
102
RTVSPropertyOp6
 70
     1
102
RTVSPropertyOp7
 70
     1
102
RTVSPropertyOp8
 70
     1
102
RTVSPropertyOp9
 70
     1
102
RTVSPropertyOp10
 70
     1
102
RTVSPropertyOp11
 70
     1
102
RTVSPropertyOp12
 70
     1
102
RTVSPropertyOp13
 70
     1
102
RTVSPropertyOp14
 70
     1
102
RTVSPropertyOp15
 70
     1
102
RTVSPropertyOp16
 70
     1
102
RTVSPropertyOp17
 70
     1
102
RTVSPropertyOp18
 70
     1
102
RTVSPropertyOp19
 70
     1
102
RTVSPropertyOp20
 70
     1
102
RTVSPropertyOp21
 70
     1
102
RTVSPropertyOp22
 70
     1
102
RTVSPropertyOp23
 70
     1
102
RTVSPropertyOp24
 70
     1
102
RTVSPropertyOp25
 70
     1
102
RTVSPropertyOp26
 70
     1
102
RTVSPropertyOp27
 70
     1
102
RTVSPropertyOp28
 70
     1
102
RTVSPropertyOp29
 70
     1
102
RTVSPropertyOp30
 70
     1
102
RTVSPropertyOp31
 70
     1
102
RTVSPropertyOp32
 70
     1
102
RTVSPropertyOp33
 70
     1
102
RTVSPropertyOp34
 70
     1
102
RTVSPropertyOp35
 70
     1
102
RTVSPropertyOp36
 70
     1
102
RTVSPropertyOp37
 70
     1
102
RTVSPropertyOp38
 70
     1
102
RTVSPropertyOp39
 70
     1
102
RTVSPropertyOp40
 70
     1
102
RTVSPropertyOp41
 70
     1
102
RTVSPropertyOp42
 70
     1
102
RTVSPropertyOp43
 70
     1
102
RTVSPropertyOp44
 70
     1
102
RTVSPropertyOp45
 70
     1
102
RTVSPropertyOp46
 70
     1
102
RTVSPropertyOp47
 70
     1
102
RTVSPropertyOp48
 70
     1
102
RTVSPropertyOp49
 70
     1
102
RTVSPropertyOp50
 70
     1
102
RTVSPropertyOp51
 70
     0
102
RTVSPropertyOp52
 70
     0
102
RTVSPropertyOp53
 70
     1
102
RTVSPropertyOp54
 70
     1
102
RTVSPropertyOp55
 70
     1
102
RTVSPropertyOp56
 70
     1
102
RTVSPropertyOp57
 70
     1
102
RTVSPost2010Prop28
280
     0
102
RTVSPost2010PropOp28
 70
     1
102
RTVSPost2010Prop29
280
     1
102
RTVSPost2010PropOp29
 70
     1
102
RTVSPost2010Prop30
280
     1
102
RTVSPost2010PropOp30
 70
     1
102
RTVSPost2010Prop31
280
     0
102
RTVSPost2010PropOp31
 70
     1
102
RTVSPost2010Prop32
280
     0
102
RTVSPost2010PropOp32
 70
     1
102
RTVSPost2010Prop33
280
     0
102
RTVSPost2010PropOp33
 70
     1
102
RTVSPost2010Prop34
280
     0
102
RTVSPost2010PropOp34
 70
     1
102
RTVSPost2010Prop35
280
     0
102
RTVSPost2010PropOp35
 70
     1
102
RTVSPost2010Prop36
280
     0
102
RTVSPost2010PropOp36
 70
     1
102
RTVSPost2010Prop37
 90
       50
102
RTVSPost2010PropOp37
 70
     1
102
RTVSPost2010Prop38
140
0.0
102
RTVSPost2010PropOp38
 70
     1
102
RTVSPost2010Prop39
140
1.0
102
RTVSPost2010PropOp39
 70
     1
102
RTVSPost2010Prop40
 90
        0
102
RTVSPost2010PropOp40
 70
     1
102
RTVSPost2010Prop41ColorIndex
 90
       18
102
RTVSPost2010Prop41ColorRGB
 90
        0
102
RTVSPost2010PropOp41
 70
     1
102
RTVSPost2010Prop42
 90
       50
102
RTVSPost2010PropOp42
 70
     1
102
RTVSPost2010Prop43
 90
        3
102
RTVSPost2010PropOp43
 70
     1
102
RTVSPost2010Prop44ColorIndex
 90
        5
102
RTVSPost2010Prop44ColorRGB
 90
      255
102
RTVSPost2010PropOp44
 70
     1
102
RTVSPost2010Prop45
280
     0
102
RTVSPost2010PropOp45
 70
     1
102
RTVSPost2010Prop46
 90
       50
102
RTVSPost2010PropOp46
 70
     1
102
RTVSPost2010Prop47
 90
       50
102
RTVSPost2010PropOp47
 70
     1
102
RTVSPost2010Prop48
 90
       50
102
RTVSPost2010PropOp48
 70
     1
102
RTVSPost2010Prop49
280
     0
102
RTVSPost2010PropOp49
 70
     1
102
RTVSPost2010Prop50
 90
       50
102
RTVSPost2010PropOp50
 70
     1
102
RTVSPost2010Prop51ColorIndex
 90
      256
102
RTVSPost2010Prop51ColorRGB
 90
-16777216
102
RTVSPost2010PropOp51
 70
     0
102
RTVSPost2010Prop52
140
1.0
102
RTVSPost2010PropOp52
 70
     0
102
RTVSPost2010Prop53
 90
        2
102
RTVSPost2010PropOp53
 70
     1
102
RTVSPost2010Prop54
  1
strokes_ogs.tif
102
RTVSPost2010PropOp54
 70
     1
102
RTVSPost2010Prop55
280
     0
102
RTVSPost2010PropOp55
 70
     1
102
RTVSPost2010Prop56
140
1.0
102
RTVSPost2010PropOp56
 70
     1
102
RTVSPost2010Prop57
140
1.0
102
RTVSPost2010PropOp57
 70
     1
  0
XRECORD
  5
11D
102
{ACAD_REACTORS
330
11C
102
}
330
11C
100
AcDbXrecord
280
     1
102
RTVSPropertyOp0
 70
     1
102
RTVSPropertyOp1
 70
     1
102
RTVSPropertyOp2
 70
     1
102
RTVSPropertyOp3
 70
     1
102
RTVSPropertyOp4
 70
     1
102
RTVSPropertyOp5
 70
     1
102
RTVSPropertyOp6
 70
     1
102
RTVSPropertyOp7
 70
     1
102
RTVSPropertyOp8
 70
     1
102
RTVSPropertyOp9
 70
     1
102
RTVSPropertyOp10
 70
     1
102
RTVSPropertyOp11
 70
     1
102
RTVSPropertyOp12
 70
     1
102
RTVSPropertyOp13
 70
     1
102
RTVSPropertyOp14
 70
     1
102
RTVSPropertyOp15
 70
     1
102
RTVSPropertyOp16
 70
     1
102
RTVSPropertyOp17
 70
     1
102
RTVSPropertyOp18
 70
     1
102
RTVSPropertyOp19
 70
     1
102
RTVSPropertyOp20
 70
     1
102
RTVSPropertyOp21
 70
     1
102
RTVSPropertyOp22
 70
     1
102
RTVSPropertyOp23
 70
     1
102
RTVSPropertyOp24
 70
     1
102
RTVSPropertyOp25
 70
     1
102
RTVSPropertyOp26
 70
     1
102
RTVSPropertyOp27
 70
     1
102
RTVSPropertyOp28
 70
     1
102
RTVSPropertyOp29
 70
     1
102
RTVSPropertyOp30
 70
     1
102
RTVSPropertyOp31
 70
     1
102
RTVSPropertyOp32
 70
     1
102
RTVSPropertyOp33
 70
     1
102
RTVSPropertyOp34
 70
     1
102
RTVSPropertyOp35
 70
     1
102
RTVSPropertyOp36
 70
     1
102
RTVSPropertyOp37
 70
     1
102
RTVSPropertyOp38
 70
     1
102
RTVSPropertyOp39
 70
     1
102
RTVSPropertyOp40
 70
     1
102
RTVSPropertyOp41
 70
     1
102
RTVSPropertyOp42
 70
     1
102
RTVSPropertyOp43
 70
     1
102
RTVSPropertyOp44
 70
     1
102
RTVSPropertyOp45
 70
     1
102
RTVSPropertyOp46
 70
     1
102
RTVSPropertyOp47
 70
     1
102
RTVSPropertyOp48
 70
     1
102
RTVSPropertyOp49
 70
     1
102
RTVSPropertyOp50
 70
     1
102
RTVSPropertyOp51
 70
     0
102
RTVSPropertyOp52
 70
     0
102
RTVSPropertyOp53
 70
     1
102
RTVSPropertyOp54
 70
     1
102
RTVSPropertyOp55
 70
     1
102
RTVSPropertyOp56
 70
     1
102
RTVSPropertyOp57
 70
     1
102
RTVSPost2010Prop28
280
     0
102
RTVSPost2010PropOp28
 70
     1
102
RTVSPost2010Prop29
280
     1
102
RTVSPost2010PropOp29
 70
     1
102
RTVSPost2010Prop30
280
     1
102
RTVSPost2010PropOp30
 70
     1
102
RTVSPost2010Prop31
280
     0
102
RTVSPost2010PropOp31
 70
     1
102
RTVSPost2010Prop32
280
     0
102
RTVSPost2010PropOp32
 70
     1
102
RTVSPost2010Prop33
280
     0
102
RTVSPost2010PropOp33
 70
     1
102
RTVSPost2010Prop34
280
     0
102
RTVSPost2010PropOp34
 70
     1
102
RTVSPost2010Prop35
280
     0
102
RTVSPost2010PropOp35
 70
     1
102
RTVSPost2010Prop36
280
     0
102
RTVSPost2010PropOp36
 70
     1
102
RTVSPost2010Prop37
 90
       50
102
RTVSPost2010PropOp37
 70
     1
102
RTVSPost2010Prop38
140
0.0
102
RTVSPost2010PropOp38
 70
     1
102
RTVSPost2010Prop39
140
1.0
102
RTVSPost2010PropOp39
 70
     1
102
RTVSPost2010Prop40
 90
        0
102
RTVSPost2010PropOp40
 70
     1
102
RTVSPost2010Prop41ColorIndex
 90
       18
102
RTVSPost2010Prop41ColorRGB
 90
        0
102
RTVSPost2010PropOp41
 70
     1
102
RTVSPost2010Prop42
 90
       50
102
RTVSPost2010PropOp42
 70
     1
102
RTVSPost2010Prop43
 90
        3
102
RTVSPost2010PropOp43
 70
     1
102
RTVSPost2010Prop44ColorIndex
 90
        5
102
RTVSPost2010Prop44ColorRGB
 90
      255
102
RTVSPost2010PropOp44
 70
     1
102
RTVSPost2010Prop45
280
     0
102
RTVSPost2010PropOp45
 70
     1
102
RTVSPost2010Prop46
 90
       50
102
RTVSPost2010PropOp46
 70
     1
102
RTVSPost2010Prop47
 90
       50
102
RTVSPost2010PropOp47
 70
     1
102
RTVSPost2010Prop48
 90
       50
102
RTVSPost2010PropOp48
 70
     1
102
RTVSPost2010Prop49
280
     0
102
RTVSPost2010PropOp49
 70
     1
102
RTVSPost2010Prop50
 90
       50
102
RTVSPost2010PropOp50
 70
     1
102
RTVSPost2010Prop51ColorIndex
 90
      256
102
RTVSPost2010Prop51ColorRGB
 90
-16777216
102
RTVSPost2010PropOp51
 70
     0
102
RTVSPost2010Prop52
140
1.0
102
RTVSPost2010PropOp52
 70
     0
102
RTVSPost2010Prop53
 90
        2
102
RTVSPost2010PropOp53
 70
     1
102
RTVSPost2010Prop54
  1
strokes_ogs.tif
102
RTVSPost2010PropOp54
 70
     1
102
RTVSPost2010Prop55
280
     0
102
RTVSPost2010PropOp55
 70
     1
102
RTVSPost2010Prop56
140
1.0
102
RTVSPost2010PropOp56
 70
     1
102
RTVSPost2010Prop57
140
1.0
102
RTVSPost2010PropOp57
 70
     1
  0
XRECORD
  5
11F
102
{ACAD_REACTORS
330
11E
102
}
330
11E
100
AcDbXrecord
280
     1
102
RTVSPropertyOp0
 70
     1
102
RTVSPropertyOp1
 70
     1
102
RTVSPropertyOp2
 70
     1
102
RTVSPropertyOp3
 70
     1
102
RTVSPropertyOp4
 70
     1
102
RTVSPropertyOp5
 70
     1
102
RTVSPropertyOp6
 70
     1
102
RTVSPropertyOp7
 70
     1
102
RTVSPropertyOp8
 70
     1
102
RTVSPropertyOp9
 70
     1
102
RTVSPropertyOp10
 70
     1
102
RTVSPropertyOp11
 70
     1
102
RTVSPropertyOp12
 70
     1
102
RTVSPropertyOp13
 70
     1
102
RTVSPropertyOp14
 70
     1
102
RTVSPropertyOp15
 70
     1
102
RTVSPropertyOp16
 70
     1
102
RTVSPropertyOp17
 70
     1
102
RTVSPropertyOp18
 70
     1
102
RTVSPropertyOp19
 70
     1
102
RTVSPropertyOp20
 70
     1
102
RTVSPropertyOp21
 70
     1
102
RTVSPropertyOp22
 70
     1
102
RTVSPropertyOp23
 70
     1
102
RTVSPropertyOp24
 70
     1
102
RTVSPropertyOp25
 70
     1
102
RTVSPropertyOp26
 70
     1
102
RTVSPropertyOp27
 70
     1
102
RTVSPropertyOp28
 70
     1
102
RTVSPropertyOp29
 70
     1
102
RTVSPropertyOp30
 70
     1
102
RTVSPropertyOp31
 70
     1
102
RTVSPropertyOp32
 70
     1
102
RTVSPropertyOp33
 70
     1
102
RTVSPropertyOp34
 70
     1
102
RTVSPropertyOp35
 70
     1
102
RTVSPropertyOp36
 70
     1
102
RTVSPropertyOp37
 70
     1
102
RTVSPropertyOp38
 70
     1
102
RTVSPropertyOp39
 70
     1
102
RTVSPropertyOp40
 70
     1
102
RTVSPropertyOp41
 70
     1
102
RTVSPropertyOp42
 70
     1
102
RTVSPropertyOp43
 70
     1
102
RTVSPropertyOp44
 70
     1
102
RTVSPropertyOp45
 70
     1
102
RTVSPropertyOp46
 70
     1
102
RTVSPropertyOp47
 70
     1
102
RTVSPropertyOp48
 70
     1
102
RTVSPropertyOp49
 70
     1
102
RTVSPropertyOp50
 70
     1
102
RTVSPropertyOp51
 70
     0
102
RTVSPropertyOp52
 70
     0
102
RTVSPropertyOp53
 70
     1
102
RTVSPropertyOp54
 70
     1
102
RTVSPropertyOp55
 70
     1
102
RTVSPropertyOp56
 70
     1
102
RTVSPropertyOp57
 70
     1
102
RTVSPost2010Prop28
280
     0
102
RTVSPost2010PropOp28
 70
     1
102
RTVSPost2010Prop29
280
     1
102
RTVSPost2010PropOp29
 70
     1
102
RTVSPost2010Prop30
280
     1
102
RTVSPost2010PropOp30
 70
     1
102
RTVSPost2010Prop31
280
     0
102
RTVSPost2010PropOp31
 70
     1
102
RTVSPost2010Prop32
280
     0
102
RTVSPost2010PropOp32
 70
     1
102
RTVSPost2010Prop33
280
     0
102
RTVSPost2010PropOp33
 70
     1
102
RTVSPost2010Prop34
280
     0
102
RTVSPost2010PropOp34
 70
     1
102
RTVSPost2010Prop35
280
     0
102
RTVSPost2010PropOp35
 70
     1
102
RTVSPost2010Prop36
280
     0
102
RTVSPost2010PropOp36
 70
     1
102
RTVSPost2010Prop37
 90
       50
102
RTVSPost2010PropOp37
 70
     1
102
RTVSPost2010Prop38
140
0.0
102
RTVSPost2010PropOp38
 70
     1
102
RTVSPost2010Prop39
140
1.0
102
RTVSPost2010PropOp39
 70
     1
102
RTVSPost2010Prop40
 90
        0
102
RTVSPost2010PropOp40
 70
     1
102
RTVSPost2010Prop41ColorIndex
 90
       18
102
RTVSPost2010Prop41ColorRGB
 90
        0
102
RTVSPost2010PropOp41
 70
     1
102
RTVSPost2010Prop42
 90
       50
102
RTVSPost2010PropOp42
 70
     1
102
RTVSPost2010Prop43
 90
        3
102
RTVSPost2010PropOp43
 70
     1
102
RTVSPost2010Prop44ColorIndex
 90
        5
102
RTVSPost2010Prop44ColorRGB
 90
      255
102
RTVSPost2010PropOp44
 70
     1
102
RTVSPost2010Prop45
280
     0
102
RTVSPost2010PropOp45
 70
     1
102
RTVSPost2010Prop46
 90
       50
102
RTVSPost2010PropOp46
 70
     1
102
RTVSPost2010Prop47
 90
       50
102
RTVSPost2010PropOp47
 70
     1
102
RTVSPost2010Prop48
 90
       50
102
RTVSPost2010PropOp48
 70
     1
102
RTVSPost2010Prop49
280
     0
102
RTVSPost2010PropOp49
 70
     1
102
RTVSPost2010Prop50
 90
       50
102
RTVSPost2010PropOp50
 70
     1
102
RTVSPost2010Prop51ColorIndex
 90
      256
102
RTVSPost2010Prop51ColorRGB
 90
-16777216
102
RTVSPost2010PropOp51
 70
     0
102
RTVSPost2010Prop52
140
1.0
102
RTVSPost2010PropOp52
 70
     0
102
RTVSPost2010Prop53
 90
        2
102
RTVSPost2010PropOp53
 70
     1
102
RTVSPost2010Prop54
  1
strokes_ogs.tif
102
RTVSPost2010PropOp54
 70
     1
102
RTVSPost2010Prop55
280
     0
102
RTVSPost2010PropOp55
 70
     1
102
RTVSPost2010Prop56
140
1.0
102
RTVSPost2010PropOp56
 70
     1
102
RTVSPost2010Prop57
140
1.0
102
RTVSPost2010PropOp57
 70
     1
  0
XRECORD
  5
121
102
{ACAD_REACTORS
330
120
102
}
330
120
100
AcDbXrecord
280
     1
102
RTVSPropertyOp0
 70
     1
102
RTVSPropertyOp1
 70
     1
102
RTVSPropertyOp2
 70
     1
102
RTVSPropertyOp3
 70
     1
102
RTVSPropertyOp4
 70
     1
102
RTVSPropertyOp5
 70
     1
102
RTVSPropertyOp6
 70
     1
102
RTVSPropertyOp7
 70
     1
102
RTVSPropertyOp8
 70
     1
102
RTVSPropertyOp9
 70
     1
102
RTVSPropertyOp10
 70
     1
102
RTVSPropertyOp11
 70
     1
102
RTVSPropertyOp12
 70
     1
102
RTVSPropertyOp13
 70
     1
102
RTVSPropertyOp14
 70
     1
102
RTVSPropertyOp15
 70
     1
102
RTVSPropertyOp16
 70
     1
102
RTVSPropertyOp17
 70
     1
102
RTVSPropertyOp18
 70
     1
102
RTVSPropertyOp19
 70
     1
102
RTVSPropertyOp20
 70
     1
102
RTVSPropertyOp21
 70
     1
102
RTVSPropertyOp22
 70
     1
102
RTVSPropertyOp23
 70
     1
102
RTVSPropertyOp24
 70
     1
102
RTVSPropertyOp25
 70
     1
102
RTVSPropertyOp26
 70
     1
102
RTVSPropertyOp27
 70
     1
102
RTVSPropertyOp28
 70
     1
102
RTVSPropertyOp29
 70
     1
102
RTVSPropertyOp30
 70
     1
102
RTVSPropertyOp31
 70
     1
102
RTVSPropertyOp32
 70
     1
102
RTVSPropertyOp33
 70
     1
102
RTVSPropertyOp34
 70
     1
102
RTVSPropertyOp35
 70
     1
102
RTVSPropertyOp36
 70
     1
102
RTVSPropertyOp37
 70
     1
102
RTVSPropertyOp38
 70
     1
102
RTVSPropertyOp39
 70
     1
102
RTVSPropertyOp40
 70
     1
102
RTVSPropertyOp41
 70
     1
102
RTVSPropertyOp42
 70
     1
102
RTVSPropertyOp43
 70
     1
102
RTVSPropertyOp44
 70
     1
102
RTVSPropertyOp45
 70
     1
102
RTVSPropertyOp46
 70
     1
102
RTVSPropertyOp47
 70
     1
102
RTVSPropertyOp48
 70
     1
102
RTVSPropertyOp49
 70
     1
102
RTVSPropertyOp50
 70
     1
102
RTVSPropertyOp51
 70
     0
102
RTVSPropertyOp52
 70
     0
102
RTVSPropertyOp53
 70
     1
102
RTVSPropertyOp54
 70
     1
102
RTVSPropertyOp55
 70
     1
102
RTVSPropertyOp56
 70
     1
102
RTVSPropertyOp57
 70
     1
102
RTVSPost2010Prop28
280
     0
102
RTVSPost2010PropOp28
 70
     1
102
RTVSPost2010Prop29
280
     1
102
RTVSPost2010PropOp29
 70
     1
102
RTVSPost2010Prop30
280
     1
102
RTVSPost2010PropOp30
 70
     1
102
RTVSPost2010Prop31
280
     0
102
RTVSPost2010PropOp31
 70
     1
102
RTVSPost2010Prop32
280
     0
102
RTVSPost2010PropOp32
 70
     1
102
RTVSPost2010Prop33
280
     0
102
RTVSPost2010PropOp33
 70
     1
102
RTVSPost2010Prop34
280
     0
102
RTVSPost2010PropOp34
 70
     1
102
RTVSPost2010Prop35
280
     0
102
RTVSPost2010PropOp35
 70
     1
102
RTVSPost2010Prop36
280
     0
102
RTVSPost2010PropOp36
 70
     1
102
RTVSPost2010Prop37
 90
       50
102
RTVSPost2010PropOp37
 70
     1
102
RTVSPost2010Prop38
140
0.0
102
RTVSPost2010PropOp38
 70
     1
102
RTVSPost2010Prop39
140
1.0
102
RTVSPost2010PropOp39
 70
     1
102
RTVSPost2010Prop40
 90
        0
102
RTVSPost2010PropOp40
 70
     1
102
RTVSPost2010Prop41ColorIndex
 90
       18
102
RTVSPost2010Prop41ColorRGB
 90
        0
102
RTVSPost2010PropOp41
 70
     1
102
RTVSPost2010Prop42
 90
       50
102
RTVSPost2010PropOp42
 70
     1
102
RTVSPost2010Prop43
 90
        3
102
RTVSPost2010PropOp43
 70
     1
102
RTVSPost2010Prop44ColorIndex
 90
        5
102
RTVSPost2010Prop44ColorRGB
 90
      255
102
RTVSPost2010PropOp44
 70
     1
102
RTVSPost2010Prop45
280
     0
102
RTVSPost2010PropOp45
 70
     1
102
RTVSPost2010Prop46
 90
       50
102
RTVSPost2010PropOp46
 70
     1
102
RTVSPost2010Prop47
 90
       50
102
RTVSPost2010PropOp47
 70
     1
102
RTVSPost2010Prop48
 90
       50
102
RTVSPost2010PropOp48
 70
     1
102
RTVSPost2010Prop49
280
     0
102
RTVSPost2010PropOp49
 70
     1
102
RTVSPost2010Prop50
 90
       50
102
RTVSPost2010PropOp50
 70
     1
102
RTVSPost2010Prop51ColorIndex
 90
      256
102
RTVSPost2010Prop51ColorRGB
 90
-16777216
102
RTVSPost2010PropOp51
 70
     0
102
RTVSPost2010Prop52
140
1.0
102
RTVSPost2010PropOp52
 70
     0
102
RTVSPost2010Prop53
 90
        2
102
RTVSPost2010PropOp53
 70
     1
102
RTVSPost2010Prop54
  1
strokes_ogs.tif
102
RTVSPost2010PropOp54
 70
     1
102
RTVSPost2010Prop55
280
     0
102
RTVSPost2010PropOp55
 70
     1
102
RTVSPost2010Prop56
140
1.0
102
RTVSPost2010PropOp56
 70
     1
102
RTVSPost2010Prop57
140
1.0
102
RTVSPost2010PropOp57
 70
     1
  0
XRECORD
  5
127
102
{ACAD_REACTORS
330
126
102
}
330
126
100
AcDbXrecord
280
     1
102
RTVSPropertyOp0
 70
     1
102
RTVSPropertyOp1
 70
     1
102
RTVSPropertyOp2
 70
     1
102
RTVSPropertyOp3
 70
     1
102
RTVSPropertyOp4
 70
     1
102
RTVSPropertyOp5
 70
     1
102
RTVSPropertyOp6
 70
     1
102
RTVSPropertyOp7
 70
     1
102
RTVSPropertyOp8
 70
     1
102
RTVSPropertyOp9
 70
     1
102
RTVSPropertyOp10
 70
     1
102
RTVSPropertyOp11
 70
     1
102
RTVSPropertyOp12
 70
     1
102
RTVSPropertyOp13
 70
     1
102
RTVSPropertyOp14
 70
     1
102
RTVSPropertyOp15
 70
     1
102
RTVSPropertyOp16
 70
     1
102
RTVSPropertyOp17
 70
     1
102
RTVSPropertyOp18
 70
     1
102
RTVSPropertyOp19
 70
     1
102
RTVSPropertyOp20
 70
     1
102
RTVSPropertyOp21
 70
     1
102
RTVSPropertyOp22
 70
     1
102
RTVSPropertyOp23
 70
     1
102
RTVSPropertyOp24
 70
     1
102
RTVSPropertyOp25
 70
     1
102
RTVSPropertyOp26
 70
     1
102
RTVSPropertyOp27
 70
     1
102
RTVSPropertyOp28
 70
     1
102
RTVSPropertyOp29
 70
     1
102
RTVSPropertyOp30
 70
     1
102
RTVSPropertyOp31
 70
     1
102
RTVSPropertyOp32
 70
     1
102
RTVSPropertyOp33
 70
     1
102
RTVSPropertyOp34
 70
     1
102
RTVSPropertyOp35
 70
     1
102
RTVSPropertyOp36
 70
     1
102
RTVSPropertyOp37
 70
     1
102
RTVSPropertyOp38
 70
     1
102
RTVSPropertyOp39
 70
     1
102
RTVSPropertyOp40
 70
     1
102
RTVSPropertyOp41
 70
     1
102
RTVSPropertyOp42
 70
     1
102
RTVSPropertyOp43
 70
     1
102
RTVSPropertyOp44
 70
     1
102
RTVSPropertyOp45
 70
     1
102
RTVSPropertyOp46
 70
     1
102
RTVSPropertyOp47
 70
     1
102
RTVSPropertyOp48
 70
     1
102
RTVSPropertyOp49
 70
     1
102
RTVSPropertyOp50
 70
     1
102
RTVSPropertyOp51
 70
     0
102
RTVSPropertyOp52
 70
     0
102
RTVSPropertyOp53
 70
     1
102
RTVSPropertyOp54
 70
     1
102
RTVSPropertyOp55
 70
     1
102
RTVSPropertyOp56
 70
     1
102
RTVSPropertyOp57
 70
     1
102
RTVSPost2010Prop28
280
     0
102
RTVSPost2010PropOp28
 70
     1
102
RTVSPost2010Prop29
280
     1
102
RTVSPost2010PropOp29
 70
     1
102
RTVSPost2010Prop30
280
     1
102
RTVSPost2010PropOp30
 70
     1
102
RTVSPost2010Prop31
280
     0
102
RTVSPost2010PropOp31
 70
     1
102
RTVSPost2010Prop32
280
     0
102
RTVSPost2010PropOp32
 70
     1
102
RTVSPost2010Prop33
280
     0
102
RTVSPost2010PropOp33
 70
     1
102
RTVSPost2010Prop34
280
     0
102
RTVSPost2010PropOp34
 70
     1
102
RTVSPost2010Prop35
280
     0
102
RTVSPost2010PropOp35
 70
     1
102
RTVSPost2010Prop36
280
     0
102
RTVSPost2010PropOp36
 70
     1
102
RTVSPost2010Prop37
 90
       50
102
RTVSPost2010PropOp37
 70
     1
102
RTVSPost2010Prop38
140
0.0
102
RTVSPost2010PropOp38
 70
     1
102
RTVSPost2010Prop39
140
1.0
102
RTVSPost2010PropOp39
 70
     1
102
RTVSPost2010Prop40
 90
        0
102
RTVSPost2010PropOp40
 70
     1
102
RTVSPost2010Prop41ColorIndex
 90
       18
102
RTVSPost2010Prop41ColorRGB
 90
        0
102
RTVSPost2010PropOp41
 70
     1
102
RTVSPost2010Prop42
 90
       50
102
RTVSPost2010PropOp42
 70
     1
102
RTVSPost2010Prop43
 90
        3
102
RTVSPost2010PropOp43
 70
     1
102
RTVSPost2010Prop44ColorIndex
 90
        5
102
RTVSPost2010Prop44ColorRGB
 90
      255
102
RTVSPost2010PropOp44
 70
     1
102
RTVSPost2010Prop45
280
     0
102
RTVSPost2010PropOp45
 70
     1
102
RTVSPost2010Prop46
 90
       50
102
RTVSPost2010PropOp46
 70
     1
102
RTVSPost2010Prop47
 90
       50
102
RTVSPost2010PropOp47
 70
     1
102
RTVSPost2010Prop48
 90
       50
102
RTVSPost2010PropOp48
 70
     1
102
RTVSPost2010Prop49
280
     0
102
RTVSPost2010PropOp49
 70
     1
102
RTVSPost2010Prop50
 90
       50
102
RTVSPost2010PropOp50
 70
     1
102
RTVSPost2010Prop51ColorIndex
 90
      256
102
RTVSPost2010Prop51ColorRGB
 90
-16777216
102
RTVSPost2010PropOp51
 70
     0
102
RTVSPost2010Prop52
140
1.0
102
RTVSPost2010PropOp52
 70
     0
102
RTVSPost2010Prop53
 90
        2
102
RTVSPost2010PropOp53
 70
     1
102
RTVSPost2010Prop54
  1
strokes_ogs.tif
102
RTVSPost2010PropOp54
 70
     1
102
RTVSPost2010Prop55
280
     0
102
RTVSPost2010PropOp55
 70
     1
102
RTVSPost2010Prop56
140
1.0
102
RTVSPost2010PropOp56
 70
     1
102
RTVSPost2010Prop57
140
1.0
102
RTVSPost2010PropOp57
 70
     1
  0
XRECORD
  5
13B
102
{ACAD_REACTORS
330
13A
102
}
330
13A
100
AcDbXrecord
280
     1
102
RTVSPropertyOp0
 70
     0
102
RTVSPropertyOp1
 70
     0
102
RTVSPropertyOp2
 70
     0
102
RTVSPropertyOp3
 70
     0
102
RTVSPropertyOp4
 70
     0
102
RTVSPropertyOp5
 70
     0
102
RTVSPropertyOp6
 70
     0
102
RTVSPropertyOp7
 70
     0
102
RTVSPropertyOp8
 70
     0
102
RTVSPropertyOp9
 70
     0
102
RTVSPropertyOp10
 70
     0
102
RTVSPropertyOp11
 70
     0
102
RTVSPropertyOp12
 70
     0
102
RTVSPropertyOp13
 70
     0
102
RTVSPropertyOp14
 70
     2
102
RTVSPropertyOp15
 70
     0
102
RTVSPropertyOp16
 70
     0
102
RTVSPropertyOp17
 70
     0
102
RTVSPropertyOp18
 70
     0
102
RTVSPropertyOp19
 70
     0
102
RTVSPropertyOp20
 70
     0
102
RTVSPropertyOp21
 70
     0
102
RTVSPropertyOp22
 70
     0
102
RTVSPropertyOp23
 70
     0
102
RTVSPropertyOp24
 70
     0
102
RTVSPropertyOp25
 70
     0
102
RTVSPropertyOp26
 70
     0
102
RTVSPropertyOp27
 70
     0
102
RTVSPropertyOp28
 70
     0
102
RTVSPropertyOp29
 70
     0
102
RTVSPropertyOp30
 70
     0
102
RTVSPropertyOp31
 70
     0
102
RTVSPropertyOp32
 70
     0
102
RTVSPropertyOp33
 70
     0
102
RTVSPropertyOp34
 70
     0
102
RTVSPropertyOp35
 70
     0
102
RTVSPropertyOp36
 70
     0
102
RTVSPropertyOp37
 70
     0
102
RTVSPropertyOp38
 70
     0
102
RTVSPropertyOp39
 70
     0
102
RTVSPropertyOp40
 70
     0
102
RTVSPropertyOp41
 70
     0
102
RTVSPropertyOp42
 70
     0
102
RTVSPropertyOp43
 70
     0
102
RTVSPropertyOp44
 70
     0
102
RTVSPropertyOp45
 70
     0
102
RTVSPropertyOp46
 70
     0
102
RTVSPropertyOp47
 70
     0
102
RTVSPropertyOp48
 70
     0
102
RTVSPropertyOp49
 70
     0
102
RTVSPropertyOp50
 70
     0
102
RTVSPropertyOp51
 70
     0
102
RTVSPropertyOp52
 70
     0
102
RTVSPropertyOp53
 70
     0
102
RTVSPropertyOp54
 70
     0
102
RTVSPropertyOp55
 70
     0
102
RTVSPropertyOp56
 70
     0
102
RTVSPropertyOp57
 70
     0
102
RTVSPost2010Prop28
280
     0
102
RTVSPost2010PropOp28
 70
     0
102
RTVSPost2010Prop29
280
     1
102
RTVSPost2010PropOp29
 70
     0
102
RTVSPost2010Prop30
280
     1
102
RTVSPost2010PropOp30
 70
     0
102
RTVSPost2010Prop31
280
     0
102
RTVSPost2010PropOp31
 70
     0
102
RTVSPost2010Prop32
280
     0
102
RTVSPost2010PropOp32
 70
     0
102
RTVSPost2010Prop33
280
     0
102
RTVSPost2010PropOp33
 70
     0
102
RTVSPost2010Prop34
280
     0
102
RTVSPost2010PropOp34
 70
     0
102
RTVSPost2010Prop35
280
     0
102
RTVSPost2010PropOp35
 70
     0
102
RTVSPost2010Prop36
280
     0
102
RTVSPost2010PropOp36
 70
     0
102
RTVSPost2010Prop37
 90
       50
102
RTVSPost2010PropOp37
 70
     0
102
RTVSPost2010Prop38
140
0.0
102
RTVSPost2010PropOp38
 70
     0
102
RTVSPost2010Prop39
140
1.0
102
RTVSPost2010PropOp39
 70
     0
102
RTVSPost2010Prop40
 90
        0
102
RTVSPost2010PropOp40
 70
     0
102
RTVSPost2010Prop41ColorIndex
 90
       18
102
RTVSPost2010Prop41ColorRGB
 90
        0
102
RTVSPost2010PropOp41
 70
     0
102
RTVSPost2010Prop42
 90
       50
102
RTVSPost2010PropOp42
 70
     0
102
RTVSPost2010Prop43
 90
        3
102
RTVSPost2010PropOp43
 70
     0
102
RTVSPost2010Prop44ColorIndex
 90
        5
102
RTVSPost2010Prop44ColorRGB
 90
      255
102
RTVSPost2010PropOp44
 70
     0
102
RTVSPost2010Prop45
280
     0
102
RTVSPost2010PropOp45
 70
     0
102
RTVSPost2010Prop46
 90
       50
102
RTVSPost2010PropOp46
 70
     0
102
RTVSPost2010Prop47
 90
       50
102
RTVSPost2010PropOp47
 70
     0
102
RTVSPost2010Prop48
 90
       50
102
RTVSPost2010PropOp48
 70
     0
102
RTVSPost2010Prop49
280
     0
102
RTVSPost2010PropOp49
 70
     0
102
RTVSPost2010Prop50
 90
       50
102
RTVSPost2010PropOp50
 70
     0
102
RTVSPost2010Prop51ColorIndex
 90
      256
102
RTVSPost2010Prop51ColorRGB
 90
-16777216
102
RTVSPost2010PropOp51
 70
     0
102
RTVSPost2010Prop52
140
1.0
102
RTVSPost2010PropOp52
 70
     0
102
RTVSPost2010Prop53
 90
        2
102
RTVSPost2010PropOp53
 70
     0
102
RTVSPost2010Prop54
  1
strokes_ogs.tif
102
RTVSPost2010PropOp54
 70
     0
102
RTVSPost2010Prop55
280
     0
102
RTVSPost2010PropOp55
 70
     0
102
RTVSPost2010Prop56
140
1.0
102
RTVSPost2010PropOp56
 70
     0
102
RTVSPost2010Prop57
140
1.0
102
RTVSPost2010PropOp57
 70
     0
  0
XRECORD
  5
135
102
{ACAD_REACTORS
330
134
102
}
330
134
100
AcDbXrecord
280
     1
102
RTVSPropertyOp0
 70
     1
102
RTVSPropertyOp1
 70
     1
102
RTVSPropertyOp2
 70
     1
102
RTVSPropertyOp3
 70
     1
102
RTVSPropertyOp4
 70
     1
102
RTVSPropertyOp5
 70
     1
102
RTVSPropertyOp6
 70
     1
102
RTVSPropertyOp7
 70
     1
102
RTVSPropertyOp8
 70
     1
102
RTVSPropertyOp9
 70
     1
102
RTVSPropertyOp10
 70
     1
102
RTVSPropertyOp11
 70
     1
102
RTVSPropertyOp12
 70
     1
102
RTVSPropertyOp13
 70
     1
102
RTVSPropertyOp14
 70
     1
102
RTVSPropertyOp15
 70
     1
102
RTVSPropertyOp16
 70
     1
102
RTVSPropertyOp17
 70
     1
102
RTVSPropertyOp18
 70
     1
102
RTVSPropertyOp19
 70
     1
102
RTVSPropertyOp20
 70
     1
102
RTVSPropertyOp21
 70
     1
102
RTVSPropertyOp22
 70
     1
102
RTVSPropertyOp23
 70
     1
102
RTVSPropertyOp24
 70
     1
102
RTVSPropertyOp25
 70
     1
102
RTVSPropertyOp26
 70
     1
102
RTVSPropertyOp27
 70
     1
102
RTVSPropertyOp28
 70
     1
102
RTVSPropertyOp29
 70
     1
102
RTVSPropertyOp30
 70
     1
102
RTVSPropertyOp31
 70
     1
102
RTVSPropertyOp32
 70
     1
102
RTVSPropertyOp33
 70
     1
102
RTVSPropertyOp34
 70
     1
102
RTVSPropertyOp35
 70
     1
102
RTVSPropertyOp36
 70
     1
102
RTVSPropertyOp37
 70
     1
102
RTVSPropertyOp38
 70
     1
102
RTVSPropertyOp39
 70
     1
102
RTVSPropertyOp40
 70
     1
102
RTVSPropertyOp41
 70
     1
102
RTVSPropertyOp42
 70
     1
102
RTVSPropertyOp43
 70
     1
102
RTVSPropertyOp44
 70
     1
102
RTVSPropertyOp45
 70
     1
102
RTVSPropertyOp46
 70
     1
102
RTVSPropertyOp47
 70
     1
102
RTVSPropertyOp48
 70
     1
102
RTVSPropertyOp49
 70
     1
102
RTVSPropertyOp50
 70
     1
102
RTVSPropertyOp51
 70
     0
102
RTVSPropertyOp52
 70
     0
102
RTVSPropertyOp53
 70
     1
102
RTVSPropertyOp54
 70
     1
102
RTVSPropertyOp55
 70
     1
102
RTVSPropertyOp56
 70
     1
102
RTVSPropertyOp57
 70
     1
102
RTVSPost2010Prop28
280
     0
102
RTVSPost2010PropOp28
 70
     1
102
RTVSPost2010Prop29
280
     1
102
RTVSPost2010PropOp29
 70
     1
102
RTVSPost2010Prop30
280
     1
102
RTVSPost2010PropOp30
 70
     1
102
RTVSPost2010Prop31
280
     0
102
RTVSPost2010PropOp31
 70
     1
102
RTVSPost2010Prop32
280
     0
102
RTVSPost2010PropOp32
 70
     1
102
RTVSPost2010Prop33
280
     0
102
RTVSPost2010PropOp33
 70
     1
102
RTVSPost2010Prop34
280
     0
102
RTVSPost2010PropOp34
 70
     1
102
RTVSPost2010Prop35
280
     0
102
RTVSPost2010PropOp35
 70
     1
102
RTVSPost2010Prop36
280
     0
102
RTVSPost2010PropOp36
 70
     1
102
RTVSPost2010Prop37
 90
       50
102
RTVSPost2010PropOp37
 70
     1
102
RTVSPost2010Prop38
140
0.0
102
RTVSPost2010PropOp38
 70
     1
102
RTVSPost2010Prop39
140
1.0
102
RTVSPost2010PropOp39
 70
     1
102
RTVSPost2010Prop40
 90
        0
102
RTVSPost2010PropOp40
 70
     1
102
RTVSPost2010Prop41ColorIndex
 90
       18
102
RTVSPost2010Prop41ColorRGB
 90
        0
102
RTVSPost2010PropOp41
 70
     1
102
RTVSPost2010Prop42
 90
       50
102
RTVSPost2010PropOp42
 70
     1
102
RTVSPost2010Prop43
 90
        3
102
RTVSPost2010PropOp43
 70
     1
102
RTVSPost2010Prop44ColorIndex
 90
        5
102
RTVSPost2010Prop44ColorRGB
 90
      255
102
RTVSPost2010PropOp44
 70
     1
102
RTVSPost2010Prop45
280
     0
102
RTVSPost2010PropOp45
 70
     1
102
RTVSPost2010Prop46
 90
       50
102
RTVSPost2010PropOp46
 70
     1
102
RTVSPost2010Prop47
 90
       50
102
RTVSPost2010PropOp47
 70
     1
102
RTVSPost2010Prop48
 90
       50
102
RTVSPost2010PropOp48
 70
     1
102
RTVSPost2010Prop49
280
     0
102
RTVSPost2010PropOp49
 70
     1
102
RTVSPost2010Prop50
 90
       50
102
RTVSPost2010PropOp50
 70
     1
102
RTVSPost2010Prop51ColorIndex
 90
      256
102
RTVSPost2010Prop51ColorRGB
 90
-16777216
102
RTVSPost2010PropOp51
 70
     0
102
RTVSPost2010Prop52
140
1.0
102
RTVSPost2010PropOp52
 70
     0
102
RTVSPost2010Prop53
 90
        2
102
RTVSPost2010PropOp53
 70
     1
102
RTVSPost2010Prop54
  1
strokes_ogs.tif
102
RTVSPost2010PropOp54
 70
     1
102
RTVSPost2010Prop55
280
     0
102
RTVSPost2010PropOp55
 70
     1
102
RTVSPost2010Prop56
140
1.0
102
RTVSPost2010PropOp56
 70
     1
102
RTVSPost2010Prop57
140
1.0
102
RTVSPost2010PropOp57
 70
     1
  0
XRECORD
  5
13D
102
{ACAD_REACTORS
330
13C
102
}
330
13C
100
AcDbXrecord
280
     1
102
RTVSPropertyOp0
 70
     0
102
RTVSPropertyOp1
 70
     0
102
RTVSPropertyOp2
 70
     0
102
RTVSPropertyOp3
 70
     0
102
RTVSPropertyOp4
 70
     0
102
RTVSPropertyOp5
 70
     0
102
RTVSPropertyOp6
 70
     0
102
RTVSPropertyOp7
 70
     0
102
RTVSPropertyOp8
 70
     0
102
RTVSPropertyOp9
 70
     0
102
RTVSPropertyOp10
 70
     0
102
RTVSPropertyOp11
 70
     0
102
RTVSPropertyOp12
 70
     0
102
RTVSPropertyOp13
 70
     0
102
RTVSPropertyOp14
 70
     2
102
RTVSPropertyOp15
 70
     0
102
RTVSPropertyOp16
 70
     0
102
RTVSPropertyOp17
 70
     0
102
RTVSPropertyOp18
 70
     0
102
RTVSPropertyOp19
 70
     0
102
RTVSPropertyOp20
 70
     0
102
RTVSPropertyOp21
 70
     0
102
RTVSPropertyOp22
 70
     0
102
RTVSPropertyOp23
 70
     0
102
RTVSPropertyOp24
 70
     0
102
RTVSPropertyOp25
 70
     0
102
RTVSPropertyOp26
 70
     0
102
RTVSPropertyOp27
 70
     0
102
RTVSPropertyOp28
 70
     0
102
RTVSPropertyOp29
 70
     0
102
RTVSPropertyOp30
 70
     0
102
RTVSPropertyOp31
 70
     0
102
RTVSPropertyOp32
 70
     0
102
RTVSPropertyOp33
 70
     0
102
RTVSPropertyOp34
 70
     0
102
RTVSPropertyOp35
 70
     0
102
RTVSPropertyOp36
 70
     0
102
RTVSPropertyOp37
 70
     0
102
RTVSPropertyOp38
 70
     0
102
RTVSPropertyOp39
 70
     0
102
RTVSPropertyOp40
 70
     0
102
RTVSPropertyOp41
 70
     0
102
RTVSPropertyOp42
 70
     0
102
RTVSPropertyOp43
 70
     0
102
RTVSPropertyOp44
 70
     0
102
RTVSPropertyOp45
 70
     0
102
RTVSPropertyOp46
 70
     0
102
RTVSPropertyOp47
 70
     0
102
RTVSPropertyOp48
 70
     0
102
RTVSPropertyOp49
 70
     0
102
RTVSPropertyOp50
 70
     0
102
RTVSPropertyOp51
 70
     0
102
RTVSPropertyOp52
 70
     0
102
RTVSPropertyOp53
 70
     0
102
RTVSPropertyOp54
 70
     0
102
RTVSPropertyOp55
 70
     0
102
RTVSPropertyOp56
 70
     0
102
RTVSPropertyOp57
 70
     0
102
RTVSPost2010Prop28
280
     0
102
RTVSPost2010PropOp28
 70
     0
102
RTVSPost2010Prop29
280
     1
102
RTVSPost2010PropOp29
 70
     0
102
RTVSPost2010Prop30
280
     1
102
RTVSPost2010PropOp30
 70
     0
102
RTVSPost2010Prop31
280
     0
102
RTVSPost2010PropOp31
 70
     0
102
RTVSPost2010Prop32
280
     0
102
RTVSPost2010PropOp32
 70
     0
102
RTVSPost2010Prop33
280
     0
102
RTVSPost2010PropOp33
 70
     0
102
RTVSPost2010Prop34
280
     0
102
RTVSPost2010PropOp34
 70
     0
102
RTVSPost2010Prop35
280
     0
102
RTVSPost2010PropOp35
 70
     0
102
RTVSPost2010Prop36
280
     0
102
RTVSPost2010PropOp36
 70
     0
102
RTVSPost2010Prop37
 90
       50
102
RTVSPost2010PropOp37
 70
     0
102
RTVSPost2010Prop38
140
0.0
102
RTVSPost2010PropOp38
 70
     0
102
RTVSPost2010Prop39
140
1.0
102
RTVSPost2010PropOp39
 70
     0
102
RTVSPost2010Prop40
 90
        0
102
RTVSPost2010PropOp40
 70
     0
102
RTVSPost2010Prop41ColorIndex
 90
       18
102
RTVSPost2010Prop41ColorRGB
 90
        0
102
RTVSPost2010PropOp41
 70
     0
102
RTVSPost2010Prop42
 90
       50
102
RTVSPost2010PropOp42
 70
     0
102
RTVSPost2010Prop43
 90
        3
102
RTVSPost2010PropOp43
 70
     0
102
RTVSPost2010Prop44ColorIndex
 90
        5
102
RTVSPost2010Prop44ColorRGB
 90
      255
102
RTVSPost2010PropOp44
 70
     0
102
RTVSPost2010Prop45
280
     0
102
RTVSPost2010PropOp45
 70
     0
102
RTVSPost2010Prop46
 90
       50
102
RTVSPost2010PropOp46
 70
     0
102
RTVSPost2010Prop47
 90
       50
102
RTVSPost2010PropOp47
 70
     0
102
RTVSPost2010Prop48
 90
       50
102
RTVSPost2010PropOp48
 70
     0
102
RTVSPost2010Prop49
280
     0
102
RTVSPost2010PropOp49
 70
     0
102
RTVSPost2010Prop50
 90
       50
102
RTVSPost2010PropOp50
 70
     0
102
RTVSPost2010Prop51ColorIndex
 90
      256
102
RTVSPost2010Prop51ColorRGB
 90
-16777216
102
RTVSPost2010PropOp51
 70
     0
102
RTVSPost2010Prop52
140
1.0
102
RTVSPost2010PropOp52
 70
     0
102
RTVSPost2010Prop53
 90
        2
102
RTVSPost2010PropOp53
 70
     0
102
RTVSPost2010Prop54
  1
strokes_ogs.tif
102
RTVSPost2010PropOp54
 70
     0
102
RTVSPost2010Prop55
280
     0
102
RTVSPost2010PropOp55
 70
     0
102
RTVSPost2010Prop56
140
1.0
102
RTVSPost2010PropOp56
 70
     0
102
RTVSPost2010Prop57
140
1.0
102
RTVSPost2010PropOp57
 70
     0
  0
XRECORD
  5
12B
102
{ACAD_REACTORS
330
12A
102
}
330
12A
100
AcDbXrecord
280
     1
102
RTVSPropertyOp0
 70
     1
102
RTVSPropertyOp1
 70
     1
102
RTVSPropertyOp2
 70
     1
102
RTVSPropertyOp3
 70
     1
102
RTVSPropertyOp4
 70
     1
102
RTVSPropertyOp5
 70
     1
102
RTVSPropertyOp6
 70
     1
102
RTVSPropertyOp7
 70
     1
102
RTVSPropertyOp8
 70
     1
102
RTVSPropertyOp9
 70
     1
102
RTVSPropertyOp10
 70
     1
102
RTVSPropertyOp11
 70
     1
102
RTVSPropertyOp12
 70
     1
102
RTVSPropertyOp13
 70
     1
102
RTVSPropertyOp14
 70
     1
102
RTVSPropertyOp15
 70
     1
102
RTVSPropertyOp16
 70
     1
102
RTVSPropertyOp17
 70
     1
102
RTVSPropertyOp18
 70
     1
102
RTVSPropertyOp19
 70
     1
102
RTVSPropertyOp20
 70
     1
102
RTVSPropertyOp21
 70
     1
102
RTVSPropertyOp22
 70
     1
102
RTVSPropertyOp23
 70
     1
102
RTVSPropertyOp24
 70
     1
102
RTVSPropertyOp25
 70
     1
102
RTVSPropertyOp26
 70
     1
102
RTVSPropertyOp27
 70
     1
102
RTVSPropertyOp28
 70
     1
102
RTVSPropertyOp29
 70
     1
102
RTVSPropertyOp30
 70
     1
102
RTVSPropertyOp31
 70
     1
102
RTVSPropertyOp32
 70
     1
102
RTVSPropertyOp33
 70
     1
102
RTVSPropertyOp34
 70
     1
102
RTVSPropertyOp35
 70
     1
102
RTVSPropertyOp36
 70
     1
102
RTVSPropertyOp37
 70
     1
102
RTVSPropertyOp38
 70
     1
102
RTVSPropertyOp39
 70
     1
102
RTVSPropertyOp40
 70
     1
102
RTVSPropertyOp41
 70
     1
102
RTVSPropertyOp42
 70
     1
102
RTVSPropertyOp43
 70
     1
102
RTVSPropertyOp44
 70
     1
102
RTVSPropertyOp45
 70
     1
102
RTVSPropertyOp46
 70
     1
102
RTVSPropertyOp47
 70
     1
102
RTVSPropertyOp48
 70
     1
102
RTVSPropertyOp49
 70
     1
102
RTVSPropertyOp50
 70
     1
102
RTVSPropertyOp51
 70
     0
102
RTVSPropertyOp52
 70
     0
102
RTVSPropertyOp53
 70
     1
102
RTVSPropertyOp54
 70
     1
102
RTVSPropertyOp55
 70
     1
102
RTVSPropertyOp56
 70
     1
102
RTVSPropertyOp57
 70
     1
102
RTVSPost2010Prop28
280
     0
102
RTVSPost2010PropOp28
 70
     1
102
RTVSPost2010Prop29
280
     1
102
RTVSPost2010PropOp29
 70
     1
102
RTVSPost2010Prop30
280
     1
102
RTVSPost2010PropOp30
 70
     1
102
RTVSPost2010Prop31
280
     0
102
RTVSPost2010PropOp31
 70
     1
102
RTVSPost2010Prop32
280
     0
102
RTVSPost2010PropOp32
 70
     1
102
RTVSPost2010Prop33
280
     0
102
RTVSPost2010PropOp33
 70
     1
102
RTVSPost2010Prop34
280
     0
102
RTVSPost2010PropOp34
 70
     1
102
RTVSPost2010Prop35
280
     0
102
RTVSPost2010PropOp35
 70
     1
102
RTVSPost2010Prop36
280
     0
102
RTVSPost2010PropOp36
 70
     1
102
RTVSPost2010Prop37
 90
       50
102
RTVSPost2010PropOp37
 70
     1
102
RTVSPost2010Prop38
140
0.0
102
RTVSPost2010PropOp38
 70
     1
102
RTVSPost2010Prop39
140
1.0
102
RTVSPost2010PropOp39
 70
     1
102
RTVSPost2010Prop40
 90
        0
102
RTVSPost2010PropOp40
 70
     1
102
RTVSPost2010Prop41ColorIndex
 90
       18
102
RTVSPost2010Prop41ColorRGB
 90
        0
102
RTVSPost2010PropOp41
 70
     1
102
RTVSPost2010Prop42
 90
       50
102
RTVSPost2010PropOp42
 70
     1
102
RTVSPost2010Prop43
 90
        3
102
RTVSPost2010PropOp43
 70
     1
102
RTVSPost2010Prop44ColorIndex
 90
        5
102
RTVSPost2010Prop44ColorRGB
 90
      255
102
RTVSPost2010PropOp44
 70
     1
102
RTVSPost2010Prop45
280
     0
102
RTVSPost2010PropOp45
 70
     1
102
RTVSPost2010Prop46
 90
       50
102
RTVSPost2010PropOp46
 70
     1
102
RTVSPost2010Prop47
 90
       50
102
RTVSPost2010PropOp47
 70
     1
102
RTVSPost2010Prop48
 90
       50
102
RTVSPost2010PropOp48
 70
     1
102
RTVSPost2010Prop49
280
     0
102
RTVSPost2010PropOp49
 70
     1
102
RTVSPost2010Prop50
 90
       50
102
RTVSPost2010PropOp50
 70
     1
102
RTVSPost2010Prop51ColorIndex
 90
      256
102
RTVSPost2010Prop51ColorRGB
 90
-16777216
102
RTVSPost2010PropOp51
 70
     0
102
RTVSPost2010Prop52
140
1.0
102
RTVSPost2010PropOp52
 70
     0
102
RTVSPost2010Prop53
 90
        2
102
RTVSPost2010PropOp53
 70
     1
102
RTVSPost2010Prop54
  1
strokes_ogs.tif
102
RTVSPost2010PropOp54
 70
     1
102
RTVSPost2010Prop55
280
     0
102
RTVSPost2010PropOp55
 70
     1
102
RTVSPost2010Prop56
140
1.0
102
RTVSPost2010PropOp56
 70
     1
102
RTVSPost2010Prop57
140
1.0
102
RTVSPost2010PropOp57
 70
     1
  0
XRECORD
  5
149
102
{ACAD_REACTORS
330
148
102
}
330
148
100
AcDbXrecord
280
     1
102
RTVSPropertyOp0
 70
     1
102
RTVSPropertyOp1
 70
     1
102
RTVSPropertyOp2
 70
     1
102
RTVSPropertyOp3
 70
     1
102
RTVSPropertyOp4
 70
     1
102
RTVSPropertyOp5
 70
     1
102
RTVSPropertyOp6
 70
     1
102
RTVSPropertyOp7
 70
     1
102
RTVSPropertyOp8
 70
     1
102
RTVSPropertyOp9
 70
     1
102
RTVSPropertyOp10
 70
     1
102
RTVSPropertyOp11
 70
     1
102
RTVSPropertyOp12
 70
     1
102
RTVSPropertyOp13
 70
     1
102
RTVSPropertyOp14
 70
     1
102
RTVSPropertyOp15
 70
     1
102
RTVSPropertyOp16
 70
     1
102
RTVSPropertyOp17
 70
     1
102
RTVSPropertyOp18
 70
     1
102
RTVSPropertyOp19
 70
     1
102
RTVSPropertyOp20
 70
     1
102
RTVSPropertyOp21
 70
     1
102
RTVSPropertyOp22
 70
     1
102
RTVSPropertyOp23
 70
     1
102
RTVSPropertyOp24
 70
     1
102
RTVSPropertyOp25
 70
     1
102
RTVSPropertyOp26
 70
     1
102
RTVSPropertyOp27
 70
     1
102
RTVSPropertyOp28
 70
     1
102
RTVSPropertyOp29
 70
     1
102
RTVSPropertyOp30
 70
     1
102
RTVSPropertyOp31
 70
     1
102
RTVSPropertyOp32
 70
     1
102
RTVSPropertyOp33
 70
     1
102
RTVSPropertyOp34
 70
     1
102
RTVSPropertyOp35
 70
     1
102
RTVSPropertyOp36
 70
     1
102
RTVSPropertyOp37
 70
     1
102
RTVSPropertyOp38
 70
     1
102
RTVSPropertyOp39
 70
     1
102
RTVSPropertyOp40
 70
     1
102
RTVSPropertyOp41
 70
     1
102
RTVSPropertyOp42
 70
     1
102
RTVSPropertyOp43
 70
     1
102
RTVSPropertyOp44
 70
     1
102
RTVSPropertyOp45
 70
     1
102
RTVSPropertyOp46
 70
     1
102
RTVSPropertyOp47
 70
     1
102
RTVSPropertyOp48
 70
     1
102
RTVSPropertyOp49
 70
     1
102
RTVSPropertyOp50
 70
     1
102
RTVSPropertyOp51
 70
     0
102
RTVSPropertyOp52
 70
     0
102
RTVSPropertyOp53
 70
     1
102
RTVSPropertyOp54
 70
     1
102
RTVSPropertyOp55
 70
     1
102
RTVSPropertyOp56
 70
     1
102
RTVSPropertyOp57
 70
     1
102
RTVSPost2010Prop28
280
     0
102
RTVSPost2010PropOp28
 70
     1
102
RTVSPost2010Prop29
280
     1
102
RTVSPost2010PropOp29
 70
     1
102
RTVSPost2010Prop30
280
     1
102
RTVSPost2010PropOp30
 70
     1
102
RTVSPost2010Prop31
280
     0
102
RTVSPost2010PropOp31
 70
     1
102
RTVSPost2010Prop32
280
     0
102
RTVSPost2010PropOp32
 70
     1
102
RTVSPost2010Prop33
280
     0
102
RTVSPost2010PropOp33
 70
     1
102
RTVSPost2010Prop34
280
     0
102
RTVSPost2010PropOp34
 70
     1
102
RTVSPost2010Prop35
280
     0
102
RTVSPost2010PropOp35
 70
     1
102
RTVSPost2010Prop36
280
     0
102
RTVSPost2010PropOp36
 70
     1
102
RTVSPost2010Prop37
 90
       50
102
RTVSPost2010PropOp37
 70
     1
102
RTVSPost2010Prop38
140
0.0
102
RTVSPost2010PropOp38
 70
     1
102
RTVSPost2010Prop39
140
1.0
102
RTVSPost2010PropOp39
 70
     1
102
RTVSPost2010Prop40
 90
        0
102
RTVSPost2010PropOp40
 70
     1
102
RTVSPost2010Prop41ColorIndex
 90
       18
102
RTVSPost2010Prop41ColorRGB
 90
        0
102
RTVSPost2010PropOp41
 70
     1
102
RTVSPost2010Prop42
 90
       50
102
RTVSPost2010PropOp42
 70
     1
102
RTVSPost2010Prop43
 90
        3
102
RTVSPost2010PropOp43
 70
     1
102
RTVSPost2010Prop44ColorIndex
 90
        5
102
RTVSPost2010Prop44ColorRGB
 90
      255
102
RTVSPost2010PropOp44
 70
     1
102
RTVSPost2010Prop45
280
     0
102
RTVSPost2010PropOp45
 70
     1
102
RTVSPost2010Prop46
 90
       50
102
RTVSPost2010PropOp46
 70
     1
102
RTVSPost2010Prop47
 90
       50
102
RTVSPost2010PropOp47
 70
     1
102
RTVSPost2010Prop48
 90
       50
102
RTVSPost2010PropOp48
 70
     1
102
RTVSPost2010Prop49
280
     0
102
RTVSPost2010PropOp49
 70
     1
102
RTVSPost2010Prop50
 90
       50
102
RTVSPost2010PropOp50
 70
     1
102
RTVSPost2010Prop51ColorIndex
 90
      256
102
RTVSPost2010Prop51ColorRGB
 90
-16777216
102
RTVSPost2010PropOp51
 70
     0
102
RTVSPost2010Prop52
140
1.0
102
RTVSPost2010PropOp52
 70
     0
102
RTVSPost2010Prop53
 90
        2
102
RTVSPost2010PropOp53
 70
     1
102
RTVSPost2010Prop54
  1
strokes_ogs.tif
102
RTVSPost2010PropOp54
 70
     1
102
RTVSPost2010Prop55
280
     0
102
RTVSPost2010PropOp55
 70
     1
102
RTVSPost2010Prop56
140
1.0
102
RTVSPost2010PropOp56
 70
     1
102
RTVSPost2010Prop57
140
1.0
102
RTVSPost2010PropOp57
 70
     1
  0
XRECORD
  5
147
102
{ACAD_REACTORS
330
146
102
}
330
146
100
AcDbXrecord
280
     1
102
RTVSPropertyOp0
 70
     1
102
RTVSPropertyOp1
 70
     1
102
RTVSPropertyOp2
 70
     1
102
RTVSPropertyOp3
 70
     1
102
RTVSPropertyOp4
 70
     1
102
RTVSPropertyOp5
 70
     1
102
RTVSPropertyOp6
 70
     1
102
RTVSPropertyOp7
 70
     1
102
RTVSPropertyOp8
 70
     1
102
RTVSPropertyOp9
 70
     1
102
RTVSPropertyOp10
 70
     1
102
RTVSPropertyOp11
 70
     1
102
RTVSPropertyOp12
 70
     1
102
RTVSPropertyOp13
 70
     1
102
RTVSPropertyOp14
 70
     1
102
RTVSPropertyOp15
 70
     1
102
RTVSPropertyOp16
 70
     1
102
RTVSPropertyOp17
 70
     1
102
RTVSPropertyOp18
 70
     1
102
RTVSPropertyOp19
 70
     1
102
RTVSPropertyOp20
 70
     1
102
RTVSPropertyOp21
 70
     1
102
RTVSPropertyOp22
 70
     1
102
RTVSPropertyOp23
 70
     1
102
RTVSPropertyOp24
 70
     1
102
RTVSPropertyOp25
 70
     1
102
RTVSPropertyOp26
 70
     1
102
RTVSPropertyOp27
 70
     1
102
RTVSPropertyOp28
 70
     1
102
RTVSPropertyOp29
 70
     1
102
RTVSPropertyOp30
 70
     1
102
RTVSPropertyOp31
 70
     1
102
RTVSPropertyOp32
 70
     1
102
RTVSPropertyOp33
 70
     1
102
RTVSPropertyOp34
 70
     1
102
RTVSPropertyOp35
 70
     1
102
RTVSPropertyOp36
 70
     1
102
RTVSPropertyOp37
 70
     1
102
RTVSPropertyOp38
 70
     1
102
RTVSPropertyOp39
 70
     1
102
RTVSPropertyOp40
 70
     1
102
RTVSPropertyOp41
 70
     1
102
RTVSPropertyOp42
 70
     1
102
RTVSPropertyOp43
 70
     1
102
RTVSPropertyOp44
 70
     1
102
RTVSPropertyOp45
 70
     1
102
RTVSPropertyOp46
 70
     1
102
RTVSPropertyOp47
 70
     1
102
RTVSPropertyOp48
 70
     1
102
RTVSPropertyOp49
 70
     1
102
RTVSPropertyOp50
 70
     1
102
RTVSPropertyOp51
 70
     0
102
RTVSPropertyOp52
 70
     0
102
RTVSPropertyOp53
 70
     1
102
RTVSPropertyOp54
 70
     1
102
RTVSPropertyOp55
 70
     1
102
RTVSPropertyOp56
 70
     1
102
RTVSPropertyOp57
 70
     1
102
RTVSPost2010Prop28
280
     0
102
RTVSPost2010PropOp28
 70
     1
102
RTVSPost2010Prop29
280
     1
102
RTVSPost2010PropOp29
 70
     1
102
RTVSPost2010Prop30
280
     1
102
RTVSPost2010PropOp30
 70
     1
102
RTVSPost2010Prop31
280
     0
102
RTVSPost2010PropOp31
 70
     1
102
RTVSPost2010Prop32
280
     0
102
RTVSPost2010PropOp32
 70
     1
102
RTVSPost2010Prop33
280
     0
102
RTVSPost2010PropOp33
 70
     1
102
RTVSPost2010Prop34
280
     0
102
RTVSPost2010PropOp34
 70
     1
102
RTVSPost2010Prop35
280
     0
102
RTVSPost2010PropOp35
 70
     1
102
RTVSPost2010Prop36
280
     0
102
RTVSPost2010PropOp36
 70
     1
102
RTVSPost2010Prop37
 90
       50
102
RTVSPost2010PropOp37
 70
     1
102
RTVSPost2010Prop38
140
0.0
102
RTVSPost2010PropOp38
 70
     1
102
RTVSPost2010Prop39
140
1.0
102
RTVSPost2010PropOp39
 70
     1
102
RTVSPost2010Prop40
 90
        0
102
RTVSPost2010PropOp40
 70
     1
102
RTVSPost2010Prop41ColorIndex
 90
       18
102
RTVSPost2010Prop41ColorRGB
 90
        0
102
RTVSPost2010PropOp41
 70
     1
102
RTVSPost2010Prop42
 90
       50
102
RTVSPost2010PropOp42
 70
     1
102
RTVSPost2010Prop43
 90
        3
102
RTVSPost2010PropOp43
 70
     1
102
RTVSPost2010Prop44ColorIndex
 90
        5
102
RTVSPost2010Prop44ColorRGB
 90
      255
102
RTVSPost2010PropOp44
 70
     1
102
RTVSPost2010Prop45
280
     0
102
RTVSPost2010PropOp45
 70
     1
102
RTVSPost2010Prop46
 90
       50
102
RTVSPost2010PropOp46
 70
     1
102
RTVSPost2010Prop47
 90
       50
102
RTVSPost2010PropOp47
 70
     1
102
RTVSPost2010Prop48
 90
       50
102
RTVSPost2010PropOp48
 70
     1
102
RTVSPost2010Prop49
280
     0
102
RTVSPost2010PropOp49
 70
     1
102
RTVSPost2010Prop50
 90
       50
102
RTVSPost2010PropOp50
 70
     1
102
RTVSPost2010Prop51ColorIndex
 90
      256
102
RTVSPost2010Prop51ColorRGB
 90
-16777216
102
RTVSPost2010PropOp51
 70
     0
102
RTVSPost2010Prop52
140
1.0
102
RTVSPost2010PropOp52
 70
     0
102
RTVSPost2010Prop53
 90
        2
102
RTVSPost2010PropOp53
 70
     1
102
RTVSPost2010Prop54
  1
strokes_ogs.tif
102
RTVSPost2010PropOp54
 70
     1
102
RTVSPost2010Prop55
280
     0
102
RTVSPost2010PropOp55
 70
     1
102
RTVSPost2010Prop56
140
1.0
102
RTVSPost2010PropOp56
 70
     1
102
RTVSPost2010Prop57
140
1.0
102
RTVSPost2010PropOp57
 70
     1
  0
XRECORD
  5
141
102
{ACAD_REACTORS
330
140
102
}
330
140
100
AcDbXrecord
280
     1
102
RTVSPropertyOp0
 70
     1
102
RTVSPropertyOp1
 70
     1
102
RTVSPropertyOp2
 70
     1
102
RTVSPropertyOp3
 70
     1
102
RTVSPropertyOp4
 70
     1
102
RTVSPropertyOp5
 70
     1
102
RTVSPropertyOp6
 70
     1
102
RTVSPropertyOp7
 70
     1
102
RTVSPropertyOp8
 70
     1
102
RTVSPropertyOp9
 70
     1
102
RTVSPropertyOp10
 70
     1
102
RTVSPropertyOp11
 70
     1
102
RTVSPropertyOp12
 70
     1
102
RTVSPropertyOp13
 70
     1
102
RTVSPropertyOp14
 70
     1
102
RTVSPropertyOp15
 70
     1
102
RTVSPropertyOp16
 70
     1
102
RTVSPropertyOp17
 70
     1
102
RTVSPropertyOp18
 70
     1
102
RTVSPropertyOp19
 70
     1
102
RTVSPropertyOp20
 70
     1
102
RTVSPropertyOp21
 70
     1
102
RTVSPropertyOp22
 70
     1
102
RTVSPropertyOp23
 70
     1
102
RTVSPropertyOp24
 70
     1
102
RTVSPropertyOp25
 70
     1
102
RTVSPropertyOp26
 70
     1
102
RTVSPropertyOp27
 70
     1
102
RTVSPropertyOp28
 70
     1
102
RTVSPropertyOp29
 70
     1
102
RTVSPropertyOp30
 70
     1
102
RTVSPropertyOp31
 70
     1
102
RTVSPropertyOp32
 70
     1
102
RTVSPropertyOp33
 70
     1
102
RTVSPropertyOp34
 70
     1
102
RTVSPropertyOp35
 70
     1
102
RTVSPropertyOp36
 70
     1
102
RTVSPropertyOp37
 70
     1
102
RTVSPropertyOp38
 70
     1
102
RTVSPropertyOp39
 70
     1
102
RTVSPropertyOp40
 70
     1
102
RTVSPropertyOp41
 70
     1
102
RTVSPropertyOp42
 70
     1
102
RTVSPropertyOp43
 70
     1
102
RTVSPropertyOp44
 70
     1
102
RTVSPropertyOp45
 70
     1
102
RTVSPropertyOp46
 70
     1
102
RTVSPropertyOp47
 70
     1
102
RTVSPropertyOp48
 70
     1
102
RTVSPropertyOp49
 70
     1
102
RTVSPropertyOp50
 70
     1
102
RTVSPropertyOp51
 70
     0
102
RTVSPropertyOp52
 70
     0
102
RTVSPropertyOp53
 70
     1
102
RTVSPropertyOp54
 70
     1
102
RTVSPropertyOp55
 70
     1
102
RTVSPropertyOp56
 70
     1
102
RTVSPropertyOp57
 70
     1
102
RTVSPost2010Prop28
280
     0
102
RTVSPost2010PropOp28
 70
     1
102
RTVSPost2010Prop29
280
     1
102
RTVSPost2010PropOp29
 70
     1
102
RTVSPost2010Prop30
280
     1
102
RTVSPost2010PropOp30
 70
     1
102
RTVSPost2010Prop31
280
     0
102
RTVSPost2010PropOp31
 70
     1
102
RTVSPost2010Prop32
280
     0
102
RTVSPost2010PropOp32
 70
     1
102
RTVSPost2010Prop33
280
     0
102
RTVSPost2010PropOp33
 70
     1
102
RTVSPost2010Prop34
280
     0
102
RTVSPost2010PropOp34
 70
     1
102
RTVSPost2010Prop35
280
     0
102
RTVSPost2010PropOp35
 70
     1
102
RTVSPost2010Prop36
280
     0
102
RTVSPost2010PropOp36
 70
     1
102
RTVSPost2010Prop37
 90
       50
102
RTVSPost2010PropOp37
 70
     1
102
RTVSPost2010Prop38
140
0.0
102
RTVSPost2010PropOp38
 70
     1
102
RTVSPost2010Prop39
140
1.0
102
RTVSPost2010PropOp39
 70
     1
102
RTVSPost2010Prop40
 90
        0
102
RTVSPost2010PropOp40
 70
     1
102
RTVSPost2010Prop41ColorIndex
 90
       18
102
RTVSPost2010Prop41ColorRGB
 90
        0
102
RTVSPost2010PropOp41
 70
     1
102
RTVSPost2010Prop42
 90
       50
102
RTVSPost2010PropOp42
 70
     1
102
RTVSPost2010Prop43
 90
        3
102
RTVSPost2010PropOp43
 70
     1
102
RTVSPost2010Prop44ColorIndex
 90
        5
102
RTVSPost2010Prop44ColorRGB
 90
      255
102
RTVSPost2010PropOp44
 70
     1
102
RTVSPost2010Prop45
280
     0
102
RTVSPost2010PropOp45
 70
     1
102
RTVSPost2010Prop46
 90
       50
102
RTVSPost2010PropOp46
 70
     1
102
RTVSPost2010Prop47
 90
       50
102
RTVSPost2010PropOp47
 70
     1
102
RTVSPost2010Prop48
 90
       50
102
RTVSPost2010PropOp48
 70
     1
102
RTVSPost2010Prop49
280
     0
102
RTVSPost2010PropOp49
 70
     1
102
RTVSPost2010Prop50
 90
       50
102
RTVSPost2010PropOp50
 70
     1
102
RTVSPost2010Prop51ColorIndex
 90
      256
102
RTVSPost2010Prop51ColorRGB
 90
-16777216
102
RTVSPost2010PropOp51
 70
     0
102
RTVSPost2010Prop52
140
1.0
102
RTVSPost2010PropOp52
 70
     0
102
RTVSPost2010Prop53
 90
        2
102
RTVSPost2010PropOp53
 70
     1
102
RTVSPost2010Prop54
  1
strokes_ogs.tif
102
RTVSPost2010PropOp54
 70
     1
102
RTVSPost2010Prop55
280
     0
102
RTVSPost2010PropOp55
 70
     1
102
RTVSPost2010Prop56
140
1.0
102
RTVSPost2010PropOp56
 70
     1
102
RTVSPost2010Prop57
140
1.0
102
RTVSPost2010PropOp57
 70
     1
  0
XRECORD
  5
143
102
{ACAD_REACTORS
330
142
102
}
330
142
100
AcDbXrecord
280
     1
102
RTVSPropertyOp0
 70
     1
102
RTVSPropertyOp1
 70
     1
102
RTVSPropertyOp2
 70
     1
102
RTVSPropertyOp3
 70
     1
102
RTVSPropertyOp4
 70
     1
102
RTVSPropertyOp5
 70
     1
102
RTVSPropertyOp6
 70
     1
102
RTVSPropertyOp7
 70
     1
102
RTVSPropertyOp8
 70
     1
102
RTVSPropertyOp9
 70
     1
102
RTVSPropertyOp10
 70
     1
102
RTVSPropertyOp11
 70
     1
102
RTVSPropertyOp12
 70
     1
102
RTVSPropertyOp13
 70
     1
102
RTVSPropertyOp14
 70
     1
102
RTVSPropertyOp15
 70
     1
102
RTVSPropertyOp16
 70
     1
102
RTVSPropertyOp17
 70
     1
102
RTVSPropertyOp18
 70
     1
102
RTVSPropertyOp19
 70
     1
102
RTVSPropertyOp20
 70
     1
102
RTVSPropertyOp21
 70
     1
102
RTVSPropertyOp22
 70
     1
102
RTVSPropertyOp23
 70
     1
102
RTVSPropertyOp24
 70
     1
102
RTVSPropertyOp25
 70
     1
102
RTVSPropertyOp26
 70
     1
102
RTVSPropertyOp27
 70
     1
102
RTVSPropertyOp28
 70
     1
102
RTVSPropertyOp29
 70
     1
102
RTVSPropertyOp30
 70
     1
102
RTVSPropertyOp31
 70
     1
102
RTVSPropertyOp32
 70
     1
102
RTVSPropertyOp33
 70
     1
102
RTVSPropertyOp34
 70
     1
102
RTVSPropertyOp35
 70
     1
102
RTVSPropertyOp36
 70
     1
102
RTVSPropertyOp37
 70
     1
102
RTVSPropertyOp38
 70
     1
102
RTVSPropertyOp39
 70
     1
102
RTVSPropertyOp40
 70
     1
102
RTVSPropertyOp41
 70
     1
102
RTVSPropertyOp42
 70
     1
102
RTVSPropertyOp43
 70
     1
102
RTVSPropertyOp44
 70
     1
102
RTVSPropertyOp45
 70
     1
102
RTVSPropertyOp46
 70
     1
102
RTVSPropertyOp47
 70
     1
102
RTVSPropertyOp48
 70
     1
102
RTVSPropertyOp49
 70
     1
102
RTVSPropertyOp50
 70
     1
102
RTVSPropertyOp51
 70
     0
102
RTVSPropertyOp52
 70
     0
102
RTVSPropertyOp53
 70
     1
102
RTVSPropertyOp54
 70
     1
102
RTVSPropertyOp55
 70
     1
102
RTVSPropertyOp56
 70
     1
102
RTVSPropertyOp57
 70
     1
102
RTVSPost2010Prop28
280
     0
102
RTVSPost2010PropOp28
 70
     1
102
RTVSPost2010Prop29
280
     1
102
RTVSPost2010PropOp29
 70
     1
102
RTVSPost2010Prop30
280
     1
102
RTVSPost2010PropOp30
 70
     1
102
RTVSPost2010Prop31
280
     0
102
RTVSPost2010PropOp31
 70
     1
102
RTVSPost2010Prop32
280
     0
102
RTVSPost2010PropOp32
 70
     1
102
RTVSPost2010Prop33
280
     0
102
RTVSPost2010PropOp33
 70
     1
102
RTVSPost2010Prop34
280
     0
102
RTVSPost2010PropOp34
 70
     1
102
RTVSPost2010Prop35
280
     0
102
RTVSPost2010PropOp35
 70
     1
102
RTVSPost2010Prop36
280
     0
102
RTVSPost2010PropOp36
 70
     1
102
RTVSPost2010Prop37
 90
       50
102
RTVSPost2010PropOp37
 70
     1
102
RTVSPost2010Prop38
140
0.0
102
RTVSPost2010PropOp38
 70
     1
102
RTVSPost2010Prop39
140
1.0
102
RTVSPost2010PropOp39
 70
     1
102
RTVSPost2010Prop40
 90
        0
102
RTVSPost2010PropOp40
 70
     1
102
RTVSPost2010Prop41ColorIndex
 90
       18
102
RTVSPost2010Prop41ColorRGB
 90
        0
102
RTVSPost2010PropOp41
 70
     1
102
RTVSPost2010Prop42
 90
       50
102
RTVSPost2010PropOp42
 70
     1
102
RTVSPost2010Prop43
 90
        3
102
RTVSPost2010PropOp43
 70
     1
102
RTVSPost2010Prop44ColorIndex
 90
        5
102
RTVSPost2010Prop44ColorRGB
 90
      255
102
RTVSPost2010PropOp44
 70
     1
102
RTVSPost2010Prop45
280
     0
102
RTVSPost2010PropOp45
 70
     1
102
RTVSPost2010Prop46
 90
       50
102
RTVSPost2010PropOp46
 70
     1
102
RTVSPost2010Prop47
 90
       50
102
RTVSPost2010PropOp47
 70
     1
102
RTVSPost2010Prop48
 90
       50
102
RTVSPost2010PropOp48
 70
     1
102
RTVSPost2010Prop49
280
     0
102
RTVSPost2010PropOp49
 70
     1
102
RTVSPost2010Prop50
 90
       50
102
RTVSPost2010PropOp50
 70
     1
102
RTVSPost2010Prop51ColorIndex
 90
      256
102
RTVSPost2010Prop51ColorRGB
 90
-16777216
102
RTVSPost2010PropOp51
 70
     0
102
RTVSPost2010Prop52
140
1.0
102
RTVSPost2010PropOp52
 70
     0
102
RTVSPost2010Prop53
 90
        2
102
RTVSPost2010PropOp53
 70
     1
102
RTVSPost2010Prop54
  1
strokes_ogs.tif
102
RTVSPost2010PropOp54
 70
     1
102
RTVSPost2010Prop55
280
     0
102
RTVSPost2010PropOp55
 70
     1
102
RTVSPost2010Prop56
140
1.0
102
RTVSPost2010PropOp56
 70
     1
102
RTVSPost2010Prop57
140
1.0
102
RTVSPost2010PropOp57
 70
     1
  0
XRECORD
  5
133
102
{ACAD_REACTORS
330
132
102
}
330
132
100
AcDbXrecord
280
     1
102
RTVSPropertyOp0
 70
     1
102
RTVSPropertyOp1
 70
     1
102
RTVSPropertyOp2
 70
     1
102
RTVSPropertyOp3
 70
     1
102
RTVSPropertyOp4
 70
     1
102
RTVSPropertyOp5
 70
     1
102
RTVSPropertyOp6
 70
     1
102
RTVSPropertyOp7
 70
     1
102
RTVSPropertyOp8
 70
     1
102
RTVSPropertyOp9
 70
     1
102
RTVSPropertyOp10
 70
     1
102
RTVSPropertyOp11
 70
     1
102
RTVSPropertyOp12
 70
     1
102
RTVSPropertyOp13
 70
     1
102
RTVSPropertyOp14
 70
     1
102
RTVSPropertyOp15
 70
     1
102
RTVSPropertyOp16
 70
     1
102
RTVSPropertyOp17
 70
     1
102
RTVSPropertyOp18
 70
     1
102
RTVSPropertyOp19
 70
     1
102
RTVSPropertyOp20
 70
     1
102
RTVSPropertyOp21
 70
     1
102
RTVSPropertyOp22
 70
     1
102
RTVSPropertyOp23
 70
     1
102
RTVSPropertyOp24
 70
     1
102
RTVSPropertyOp25
 70
     1
102
RTVSPropertyOp26
 70
     1
102
RTVSPropertyOp27
 70
     1
102
RTVSPropertyOp28
 70
     1
102
RTVSPropertyOp29
 70
     1
102
RTVSPropertyOp30
 70
     1
102
RTVSPropertyOp31
 70
     1
102
RTVSPropertyOp32
 70
     1
102
RTVSPropertyOp33
 70
     1
102
RTVSPropertyOp34
 70
     1
102
RTVSPropertyOp35
 70
     1
102
RTVSPropertyOp36
 70
     1
102
RTVSPropertyOp37
 70
     1
102
RTVSPropertyOp38
 70
     1
102
RTVSPropertyOp39
 70
     1
102
RTVSPropertyOp40
 70
     1
102
RTVSPropertyOp41
 70
     1
102
RTVSPropertyOp42
 70
     1
102
RTVSPropertyOp43
 70
     1
102
RTVSPropertyOp44
 70
     1
102
RTVSPropertyOp45
 70
     1
102
RTVSPropertyOp46
 70
     1
102
RTVSPropertyOp47
 70
     1
102
RTVSPropertyOp48
 70
     1
102
RTVSPropertyOp49
 70
     1
102
RTVSPropertyOp50
 70
     1
102
RTVSPropertyOp51
 70
     0
102
RTVSPropertyOp52
 70
     0
102
RTVSPropertyOp53
 70
     1
102
RTVSPropertyOp54
 70
     1
102
RTVSPropertyOp55
 70
     1
102
RTVSPropertyOp56
 70
     1
102
RTVSPropertyOp57
 70
     1
102
RTVSPost2010Prop28
280
     0
102
RTVSPost2010PropOp28
 70
     1
102
RTVSPost2010Prop29
280
     1
102
RTVSPost2010PropOp29
 70
     1
102
RTVSPost2010Prop30
280
     1
102
RTVSPost2010PropOp30
 70
     1
102
RTVSPost2010Prop31
280
     0
102
RTVSPost2010PropOp31
 70
     1
102
RTVSPost2010Prop32
280
     0
102
RTVSPost2010PropOp32
 70
     1
102
RTVSPost2010Prop33
280
     0
102
RTVSPost2010PropOp33
 70
     1
102
RTVSPost2010Prop34
280
     0
102
RTVSPost2010PropOp34
 70
     1
102
RTVSPost2010Prop35
280
     0
102
RTVSPost2010PropOp35
 70
     1
102
RTVSPost2010Prop36
280
     0
102
RTVSPost2010PropOp36
 70
     1
102
RTVSPost2010Prop37
 90
       50
102
RTVSPost2010PropOp37
 70
     1
102
RTVSPost2010Prop38
140
0.0
102
RTVSPost2010PropOp38
 70
     1
102
RTVSPost2010Prop39
140
1.0
102
RTVSPost2010PropOp39
 70
     1
102
RTVSPost2010Prop40
 90
        0
102
RTVSPost2010PropOp40
 70
     1
102
RTVSPost2010Prop41ColorIndex
 90
       18
102
RTVSPost2010Prop41ColorRGB
 90
        0
102
RTVSPost2010PropOp41
 70
     1
102
RTVSPost2010Prop42
 90
       50
102
RTVSPost2010PropOp42
 70
     1
102
RTVSPost2010Prop43
 90
        3
102
RTVSPost2010PropOp43
 70
     1
102
RTVSPost2010Prop44ColorIndex
 90
        5
102
RTVSPost2010Prop44ColorRGB
 90
      255
102
RTVSPost2010PropOp44
 70
     1
102
RTVSPost2010Prop45
280
     0
102
RTVSPost2010PropOp45
 70
     1
102
RTVSPost2010Prop46
 90
       50
102
RTVSPost2010PropOp46
 70
     1
102
RTVSPost2010Prop47
 90
       50
102
RTVSPost2010PropOp47
 70
     1
102
RTVSPost2010Prop48
 90
       50
102
RTVSPost2010PropOp48
 70
     1
102
RTVSPost2010Prop49
280
     0
102
RTVSPost2010PropOp49
 70
     1
102
RTVSPost2010Prop50
 90
       50
102
RTVSPost2010PropOp50
 70
     1
102
RTVSPost2010Prop51ColorIndex
 90
      256
102
RTVSPost2010Prop51ColorRGB
 90
-16777216
102
RTVSPost2010PropOp51
 70
     0
102
RTVSPost2010Prop52
140
1.0
102
RTVSPost2010PropOp52
 70
     0
102
RTVSPost2010Prop53
 90
        2
102
RTVSPost2010PropOp53
 70
     1
102
RTVSPost2010Prop54
  1
strokes_ogs.tif
102
RTVSPost2010PropOp54
 70
     1
102
RTVSPost2010Prop55
280
     0
102
RTVSPost2010PropOp55
 70
     1
102
RTVSPost2010Prop56
140
1.0
102
RTVSPost2010PropOp56
 70
     1
102
RTVSPost2010Prop57
140
1.0
102
RTVSPost2010PropOp57
 70
     1
  0
XRECORD
  5
125
102
{ACAD_REACTORS
330
124
102
}
330
124
100
AcDbXrecord
280
     1
102
RTVSPropertyOp0
 70
     1
102
RTVSPropertyOp1
 70
     1
102
RTVSPropertyOp2
 70
     1
102
RTVSPropertyOp3
 70
     1
102
RTVSPropertyOp4
 70
     1
102
RTVSPropertyOp5
 70
     1
102
RTVSPropertyOp6
 70
     1
102
RTVSPropertyOp7
 70
     1
102
RTVSPropertyOp8
 70
     1
102
RTVSPropertyOp9
 70
     1
102
RTVSPropertyOp10
 70
     1
102
RTVSPropertyOp11
 70
     1
102
RTVSPropertyOp12
 70
     1
102
RTVSPropertyOp13
 70
     1
102
RTVSPropertyOp14
 70
     1
102
RTVSPropertyOp15
 70
     1
102
RTVSPropertyOp16
 70
     1
102
RTVSPropertyOp17
 70
     1
102
RTVSPropertyOp18
 70
     1
102
RTVSPropertyOp19
 70
     1
102
RTVSPropertyOp20
 70
     1
102
RTVSPropertyOp21
 70
     1
102
RTVSPropertyOp22
 70
     1
102
RTVSPropertyOp23
 70
     1
102
RTVSPropertyOp24
 70
     1
102
RTVSPropertyOp25
 70
     1
102
RTVSPropertyOp26
 70
     1
102
RTVSPropertyOp27
 70
     1
102
RTVSPropertyOp28
 70
     1
102
RTVSPropertyOp29
 70
     1
102
RTVSPropertyOp30
 70
     1
102
RTVSPropertyOp31
 70
     1
102
RTVSPropertyOp32
 70
     1
102
RTVSPropertyOp33
 70
     1
102
RTVSPropertyOp34
 70
     1
102
RTVSPropertyOp35
 70
     1
102
RTVSPropertyOp36
 70
     1
102
RTVSPropertyOp37
 70
     1
102
RTVSPropertyOp38
 70
     1
102
RTVSPropertyOp39
 70
     1
102
RTVSPropertyOp40
 70
     1
102
RTVSPropertyOp41
 70
     1
102
RTVSPropertyOp42
 70
     1
102
RTVSPropertyOp43
 70
     1
102
RTVSPropertyOp44
 70
     1
102
RTVSPropertyOp45
 70
     1
102
RTVSPropertyOp46
 70
     1
102
RTVSPropertyOp47
 70
     1
102
RTVSPropertyOp48
 70
     1
102
RTVSPropertyOp49
 70
     1
102
RTVSPropertyOp50
 70
     1
102
RTVSPropertyOp51
 70
     0
102
RTVSPropertyOp52
 70
     0
102
RTVSPropertyOp53
 70
     1
102
RTVSPropertyOp54
 70
     1
102
RTVSPropertyOp55
 70
     1
102
RTVSPropertyOp56
 70
     1
102
RTVSPropertyOp57
 70
     1
102
RTVSPost2010Prop28
280
     0
102
RTVSPost2010PropOp28
 70
     1
102
RTVSPost2010Prop29
280
     1
102
RTVSPost2010PropOp29
 70
     1
102
RTVSPost2010Prop30
280
     1
102
RTVSPost2010PropOp30
 70
     1
102
RTVSPost2010Prop31
280
     0
102
RTVSPost2010PropOp31
 70
     1
102
RTVSPost2010Prop32
280
     0
102
RTVSPost2010PropOp32
 70
     1
102
RTVSPost2010Prop33
280
     0
102
RTVSPost2010PropOp33
 70
     1
102
RTVSPost2010Prop34
280
     0
102
RTVSPost2010PropOp34
 70
     1
102
RTVSPost2010Prop35
280
     0
102
RTVSPost2010PropOp35
 70
     1
102
RTVSPost2010Prop36
280
     0
102
RTVSPost2010PropOp36
 70
     1
102
RTVSPost2010Prop37
 90
       50
102
RTVSPost2010PropOp37
 70
     1
102
RTVSPost2010Prop38
140
0.0
102
RTVSPost2010PropOp38
 70
     1
102
RTVSPost2010Prop39
140
1.0
102
RTVSPost2010PropOp39
 70
     1
102
RTVSPost2010Prop40
 90
        0
102
RTVSPost2010PropOp40
 70
     1
102
RTVSPost2010Prop41ColorIndex
 90
       18
102
RTVSPost2010Prop41ColorRGB
 90
        0
102
RTVSPost2010PropOp41
 70
     1
102
RTVSPost2010Prop42
 90
       50
102
RTVSPost2010PropOp42
 70
     1
102
RTVSPost2010Prop43
 90
        3
102
RTVSPost2010PropOp43
 70
     1
102
RTVSPost2010Prop44ColorIndex
 90
        5
102
RTVSPost2010Prop44ColorRGB
 90
      255
102
RTVSPost2010PropOp44
 70
     1
102
RTVSPost2010Prop45
280
     0
102
RTVSPost2010PropOp45
 70
     1
102
RTVSPost2010Prop46
 90
       50
102
RTVSPost2010PropOp46
 70
     1
102
RTVSPost2010Prop47
 90
       50
102
RTVSPost2010PropOp47
 70
     1
102
RTVSPost2010Prop48
 90
       50
102
RTVSPost2010PropOp48
 70
     1
102
RTVSPost2010Prop49
280
     0
102
RTVSPost2010PropOp49
 70
     1
102
RTVSPost2010Prop50
 90
       50
102
RTVSPost2010PropOp50
 70
     1
102
RTVSPost2010Prop51ColorIndex
 90
      256
102
RTVSPost2010Prop51ColorRGB
 90
-16777216
102
RTVSPost2010PropOp51
 70
     0
102
RTVSPost2010Prop52
140
1.0
102
RTVSPost2010PropOp52
 70
     0
102
RTVSPost2010Prop53
 90
        2
102
RTVSPost2010PropOp53
 70
     1
102
RTVSPost2010Prop54
  1
strokes_ogs.tif
102
RTVSPost2010PropOp54
 70
     1
102
RTVSPost2010Prop55
280
     0
102
RTVSPost2010PropOp55
 70
     1
102
RTVSPost2010Prop56
140
1.0
102
RTVSPost2010PropOp56
 70
     1
102
RTVSPost2010Prop57
140
1.0
102
RTVSPost2010PropOp57
 70
     1
  0
XRECORD
  5
145
102
{ACAD_REACTORS
330
144
102
}
330
144
100
AcDbXrecord
280
     1
102
RTVSPropertyOp0
 70
     1
102
RTVSPropertyOp1
 70
     1
102
RTVSPropertyOp2
 70
     1
102
RTVSPropertyOp3
 70
     1
102
RTVSPropertyOp4
 70
     1
102
RTVSPropertyOp5
 70
     1
102
RTVSPropertyOp6
 70
     1
102
RTVSPropertyOp7
 70
     1
102
RTVSPropertyOp8
 70
     1
102
RTVSPropertyOp9
 70
     1
102
RTVSPropertyOp10
 70
     1
102
RTVSPropertyOp11
 70
     1
102
RTVSPropertyOp12
 70
     1
102
RTVSPropertyOp13
 70
     1
102
RTVSPropertyOp14
 70
     1
102
RTVSPropertyOp15
 70
     1
102
RTVSPropertyOp16
 70
     1
102
RTVSPropertyOp17
 70
     1
102
RTVSPropertyOp18
 70
     1
102
RTVSPropertyOp19
 70
     1
102
RTVSPropertyOp20
 70
     1
102
RTVSPropertyOp21
 70
     1
102
RTVSPropertyOp22
 70
     1
102
RTVSPropertyOp23
 70
     1
102
RTVSPropertyOp24
 70
     1
102
RTVSPropertyOp25
 70
     1
102
RTVSPropertyOp26
 70
     1
102
RTVSPropertyOp27
 70
     1
102
RTVSPropertyOp28
 70
     1
102
RTVSPropertyOp29
 70
     1
102
RTVSPropertyOp30
 70
     1
102
RTVSPropertyOp31
 70
     1
102
RTVSPropertyOp32
 70
     1
102
RTVSPropertyOp33
 70
     1
102
RTVSPropertyOp34
 70
     1
102
RTVSPropertyOp35
 70
     1
102
RTVSPropertyOp36
 70
     1
102
RTVSPropertyOp37
 70
     1
102
RTVSPropertyOp38
 70
     1
102
RTVSPropertyOp39
 70
     1
102
RTVSPropertyOp40
 70
     1
102
RTVSPropertyOp41
 70
     1
102
RTVSPropertyOp42
 70
     1
102
RTVSPropertyOp43
 70
     1
102
RTVSPropertyOp44
 70
     1
102
RTVSPropertyOp45
 70
     1
102
RTVSPropertyOp46
 70
     1
102
RTVSPropertyOp47
 70
     1
102
RTVSPropertyOp48
 70
     1
102
RTVSPropertyOp49
 70
     1
102
RTVSPropertyOp50
 70
     1
102
RTVSPropertyOp51
 70
     0
102
RTVSPropertyOp52
 70
     0
102
RTVSPropertyOp53
 70
     1
102
RTVSPropertyOp54
 70
     1
102
RTVSPropertyOp55
 70
     1
102
RTVSPropertyOp56
 70
     1
102
RTVSPropertyOp57
 70
     1
102
RTVSPost2010Prop28
280
     0
102
RTVSPost2010PropOp28
 70
     1
102
RTVSPost2010Prop29
280
     1
102
RTVSPost2010PropOp29
 70
     1
102
RTVSPost2010Prop30
280
     1
102
RTVSPost2010PropOp30
 70
     1
102
RTVSPost2010Prop31
280
     0
102
RTVSPost2010PropOp31
 70
     1
102
RTVSPost2010Prop32
280
     0
102
RTVSPost2010PropOp32
 70
     1
102
RTVSPost2010Prop33
280
     0
102
RTVSPost2010PropOp33
 70
     1
102
RTVSPost2010Prop34
280
     0
102
RTVSPost2010PropOp34
 70
     1
102
RTVSPost2010Prop35
280
     0
102
RTVSPost2010PropOp35
 70
     1
102
RTVSPost2010Prop36
280
     0
102
RTVSPost2010PropOp36
 70
     1
102
RTVSPost2010Prop37
 90
       50
102
RTVSPost2010PropOp37
 70
     1
102
RTVSPost2010Prop38
140
0.0
102
RTVSPost2010PropOp38
 70
     1
102
RTVSPost2010Prop39
140
1.0
102
RTVSPost2010PropOp39
 70
     1
102
RTVSPost2010Prop40
 90
        0
102
RTVSPost2010PropOp40
 70
     1
102
RTVSPost2010Prop41ColorIndex
 90
       18
102
RTVSPost2010Prop41ColorRGB
 90
        0
102
RTVSPost2010PropOp41
 70
     1
102
RTVSPost2010Prop42
 90
       50
102
RTVSPost2010PropOp42
 70
     1
102
RTVSPost2010Prop43
 90
        3
102
RTVSPost2010PropOp43
 70
     1
102
RTVSPost2010Prop44ColorIndex
 90
        5
102
RTVSPost2010Prop44ColorRGB
 90
      255
102
RTVSPost2010PropOp44
 70
     1
102
RTVSPost2010Prop45
280
     0
102
RTVSPost2010PropOp45
 70
     1
102
RTVSPost2010Prop46
 90
       50
102
RTVSPost2010PropOp46
 70
     1
102
RTVSPost2010Prop47
 90
       50
102
RTVSPost2010PropOp47
 70
     1
102
RTVSPost2010Prop48
 90
       50
102
RTVSPost2010PropOp48
 70
     1
102
RTVSPost2010Prop49
280
     0
102
RTVSPost2010PropOp49
 70
     1
102
RTVSPost2010Prop50
 90
       50
102
RTVSPost2010PropOp50
 70
     1
102
RTVSPost2010Prop51ColorIndex
 90
      256
102
RTVSPost2010Prop51ColorRGB
 90
-16777216
102
RTVSPost2010PropOp51
 70
     0
102
RTVSPost2010Prop52
140
1.0
102
RTVSPost2010PropOp52
 70
     0
102
RTVSPost2010Prop53
 90
        2
102
RTVSPost2010PropOp53
 70
     1
102
RTVSPost2010Prop54
  1
strokes_ogs.tif
102
RTVSPost2010PropOp54
 70
     1
102
RTVSPost2010Prop55
280
     0
102
RTVSPost2010PropOp55
 70
     1
102
RTVSPost2010Prop56
140
1.0
102
RTVSPost2010PropOp56
 70
     1
102
RTVSPost2010Prop57
140
1.0
102
RTVSPost2010PropOp57
 70
     1
  0
ENDSEC
  0
EOF
