  0
SECTION
  2
HEADER
  9
$ACADVER
  1
AC1018
  9
$ACADMAINTVER
 70
   104
  9
$DWGCODEPAGE
  3
ANSI_1252
  9
$LASTSAVEDBY
  1
Administrator
  9
$CUSTOMPROPERTYTAG
  1
AmdtFileType
  9
$CUSTOMPROPERTY
  1
84
  9
$INSBASE
 10
0.0
 20
0.0
 30
0.0
  9
$EXTMIN
 10
-318.4206901834496
 20
-886.462483157234
 30
-0.0015258207003583
  9
$EXTMAX
 10
318.4268793436495
 20
14.41953999362067
 30
0.0000000349246037
  9
$LIMMIN
 10
0.0
 20
0.0
  9
$LIMMAX
 10
420.0
 20
297.0
  9
$ORTHOMODE
 70
     0
  9
$REGENMODE
 70
     1
  9
$FILLMODE
 70
     1
  9
$QTEXTMODE
 70
     0
  9
$MIRRTEXT
 70
     1
  9
$LTSCALE
 40
1.0
  9
$ATTMODE
 70
     1
  9
$TEXTSIZE
 40
2.5
  9
$TRACEWID
 40
1.0
  9
$TEXTSTYLE
  7
STANDARD
  9
$CLAYER
  8
0
  9
$CELTYPE
  6
ByLayer
  9
$CECOLOR
 62
   256
  9
$CELTSCALE
 40
1.0
  9
$DISPSILH
 70
     0
  9
$DIMSCALE
 40
1.0
  9
$DIMASZ
 40
2.5
  9
$DIMEXO
 40
1.0
  9
$DIMDLI
 40
10.0
  9
$DIMRND
 40
0.0
  9
$DIMDLE
 40
0.0
  9
$DIMEXE
 40
1.0
  9
$DIMTP
 40
0.1
  9
$DIMTM
 40
0.1
  9
$DIMTXT
 40
3.5
  9
$DIMCEN
 40
0.0
  9
$DIMTSZ
 40
0.0
  9
$DIMTOL
 70
     0
  9
$DIMLIM
 70
     0
  9
$DIMTIH
 70
     0
  9
$DIMTOH
 70
     0
  9
$DIMSE1
 70
     0
  9
$DIMSE2
 70
     0
  9
$DIMTAD
 70
     1
  9
$DIMZIN
 70
     8
  9
$DIMBLK
  1

  9
$DIMASO
 70
     1
  9
$DIMSHO
 70
     1
  9
$DIMPOST
  1

  9
$DIMAPOST
  1
"
  9
$DIMALT
 70
     0
  9
$DIMALTD
 70
     2
  9
$DIMALTF
 40
0.0393701
  9
$DIMLFAC
 40
1.0
  9
$DIMTOFL
 70
     1
  9
$DIMTVP
 40
0.0
  9
$DIMTIX
 70
     0
  9
$DIMSOXD
 70
     0
  9
$DIMSAH
 70
     0
  9
$DIMBLK1
  1

  9
$DIMBLK2
  1

  9
$DIMSTYLE
  2
AM_DIN
  9
$DIMCLRD
 70
   256
  9
$DIMCLRE
 70
   256
  9
$DIMCLRT
 70
     2
  9
$DIMTFAC
 40
0.71
  9
$DIMGAP
 40
1.5
  9
$DIMJUST
 70
     0
  9
$DIMSD1
 70
     0
  9
$DIMSD2
 70
     0
  9
$DIMTOLJ
 70
     0
  9
$DIMTZIN
 70
     8
  9
$DIMALTZ
 70
     0
  9
$DIMALTTZ
 70
     0
  9
$DIMUPT
 70
     0
  9
$DIMDEC
 70
     2
  9
$DIMTDEC
 70
     3
  9
$DIMALTU
 70
     2
  9
$DIMALTTD
 70
     4
  9
$DIMTXSTY
  7
STANDARD
  9
$DIMAUNIT
 70
     0
  9
$DIMADEC
 70
     0
  9
$DIMALTRND
 40
0.0
  9
$DIMAZIN
 70
     2
  9
$DIMDSEP
 70
    46
  9
$DIMATFIT
 70
     3
  9
$DIMFRAC
 70
     0
  9
$DIMLDRBLK
  1

  9
$DIMLUNIT
 70
     2
  9
$DIMLWD
 70
    -1
  9
$DIMLWE
 70
    -1
  9
$DIMTMOVE
 70
     0
  9
$LUNITS
 70
     2
  9
$LUPREC
 70
     2
  9
$SKETCHINC
 40
1.0
  9
$FILLETRAD
 40
0.0
  9
$AUNITS
 70
     0
  9
$AUPREC
 70
     0
  9
$MENU
  1
.
  9
$ELEVATION
 40
0.0
  9
$PELEVATION
 40
0.0
  9
$THICKNESS
 40
0.0
  9
$LIMCHECK
 70
     0
  9
$CHAMFERA
 40
2.5
  9
$CHAMFERB
 40
2.5
  9
$CHAMFERC
 40
20.0
  9
$CHAMFERD
 40
0.0
  9
$SKPOLY
 70
     0
  9
$TDCREATE
 40
2453918.262673241
  9
$TDUCREATE
 40
2453918.179339908
  9
$TDUPDATE
 40
2457547.922125255
  9
$TDUUPDATE
 40
2457547.838791921
  9
$TDINDWG
 40
0.8848954051
  9
$TDUSRTIMER
 40
0.8848912500
  9
$USRTIMER
 70
     1
  9
$ANGBASE
 50
0.0
  9
$ANGDIR
 70
     0
  9
$PDMODE
 70
     0
  9
$PDSIZE
 40
0.0
  9
$PLINEWID
 40
0.0
  9
$SPLFRAME
 70
     0
  9
$SPLINETYPE
 70
     6
  9
$SPLINESEGS
 70
     8
  9
$HANDSEED
  5
3DCC
  9
$SURFTAB1
 70
     6
  9
$SURFTAB2
 70
     6
  9
$SURFTYPE
 70
     6
  9
$SURFU
 70
     6
  9
$SURFV
 70
     6
  9
$UCSBASE
  2

  9
$UCSNAME
  2

  9
$UCSORG
 10
0.0
 20
0.0
 30
0.0
  9
$UCSXDIR
 10
1.0
 20
0.0
 30
0.0
  9
$UCSYDIR
 10
0.0
 20
1.0
 30
0.0
  9
$UCSORTHOREF
  2

  9
$UCSORTHOVIEW
 70
     0
  9
$UCSORGTOP
 10
0.0
 20
0.0
 30
0.0
  9
$UCSORGBOTTOM
 10
0.0
 20
0.0
 30
0.0
  9
$UCSORGLEFT
 10
0.0
 20
0.0
 30
0.0
  9
$UCSORGRIGHT
 10
0.0
 20
0.0
 30
0.0
  9
$UCSORGFRONT
 10
0.0
 20
0.0
 30
0.0
  9
$UCSORGBACK
 10
0.0
 20
0.0
 30
0.0
  9
$PUCSBASE
  2

  9
$PUCSNAME
  2

  9
$PUCSORG
 10
0.0
 20
0.0
 30
0.0
  9
$PUCSXDIR
 10
1.0
 20
0.0
 30
0.0
  9
$PUCSYDIR
 10
0.0
 20
1.0
 30
0.0
  9
$PUCSORTHOREF
  2

  9
$PUCSORTHOVIEW
 70
     0
  9
$PUCSORGTOP
 10
0.0
 20
0.0
 30
0.0
  9
$PUCSORGBOTTOM
 10
0.0
 20
0.0
 30
0.0
  9
$PUCSORGLEFT
 10
0.0
 20
0.0
 30
0.0
  9
$PUCSORGRIGHT
 10
0.0
 20
0.0
 30
0.0
  9
$PUCSORGFRONT
 10
0.0
 20
0.0
 30
0.0
  9
$PUCSORGBACK
 10
0.0
 20
0.0
 30
0.0
  9
$USERI1
 70
     0
  9
$USERI2
 70
     0
  9
$USERI3
 70
     0
  9
$USERI4
 70
     0
  9
$USERI5
 70
     0
  9
$USERR1
 40
0.0
  9
$USERR2
 40
0.0
  9
$USERR3
 40
0.0
  9
$USERR4
 40
0.0
  9
$USERR5
 40
0.0
  9
$WORLDVIEW
 70
     1
  9
$SHADEDGE
 70
     3
  9
$SHADEDIF
 70
    70
  9
$TILEMODE
 70
     1
  9
$MAXACTVP
 70
    64
  9
$PINSBASE
 10
0.0
 20
0.0
 30
0.0
  9
$PLIMCHECK
 70
     0
  9
$PEXTMIN
 10
1.000000000000000E+20
 20
1.000000000000000E+20
 30
1.000000000000000E+20
  9
$PEXTMAX
 10
-1.000000000000000E+20
 20
-1.000000000000000E+20
 30
-1.000000000000000E+20
  9
$PLIMMIN
 10
0.0
 20
0.0
  9
$PLIMMAX
 10
420.0
 20
297.0
  9
$UNITMODE
 70
     0
  9
$VISRETAIN
 70
     1
  9
$PLINEGEN
 70
     0
  9
$PSLTSCALE
 70
     1
  9
$TREEDEPTH
 70
  3020
  9
$CMLSTYLE
  2
Standard
  9
$CMLJUST
 70
     0
  9
$CMLSCALE
 40
20.0
  9
$PROXYGRAPHICS
 70
     1
  9
$MEASUREMENT
 70
     1
  9
$CELWEIGHT
370
    -1
  9
$ENDCAPS
280
     0
  9
$JOINSTYLE
280
     0
  9
$LWDISPLAY
290
     0
  9
$INSUNITS
 70
     4
  9
$HYPERLINKBASE
  1

  9
$STYLESHEET
  1

  9
$XEDIT
290
     1
  9
$CEPSNTYPE
380
     0
  9
$PSTYLEMODE
290
     1
  9
$FINGERPRINTGUID
  2
{E66C8CC1-E66B-408F-9010-06FD783B68A0}
  9
$VERSIONGUID
  2
{FC3377ED-D4B5-40E4-A6F7-0ED3E5E7C75B}
  9
$EXTNAMES
290
     1
  9
$PSVPSCALE
 40
0.0
  9
$OLESTARTUP
290
     0
  9
$SORTENTS
280
   127
  9
$INDEXCTL
280
     0
  9
$HIDETEXT
280
     1
  9
$XCLIPFRAME
290
     0
  9
$HALOGAP
280
     0
  9
$OBSCOLOR
 70
   257
  9
$OBSLTYPE
280
     0
  9
$INTERSECTIONDISPLAY
280
     0
  9
$INTERSECTIONCOLOR
 70
   257
  9
$DIMASSOC
280
     2
  9
$PROJECTNAME
  1

  0
ENDSEC
  0
SECTION
  2
CLASSES
  0
CLASS
  1
ACDBDICTIONARYWDFLT
  2
AcDbDictionaryWithDefault
  3
ObjectDBX Classes
 90
        0
 91
        1
280
     0
281
     0
  0
CLASS
  1
ACME_DOCUMENT
  2
AcMeDbDoc
  3
AcMeServices
 90
     1024
 91
        2
280
     0
281
     0
  0
CLASS
  1
ACMESCOPE
  2
AcMeScope
  3
AcMeServices
 90
     1024
 91
        1
280
     0
281
     0
  0
CLASS
  1
ACMECOMMANDHISTORY
  2
AcMeCommandHistory
  3
AcMeServices
 90
     1024
 91
        1
280
     0
281
     0
  0
CLASS
  1
ACIMSYSVARMAN
  2
AcImSysVarManager
  3
AcMeServices
 90
     1024
 91
        4
280
     0
281
     0
  0
CLASS
  1
ACIMREALSYSVAR
  2
AcImRealSysVar
  3
AcMeServices
 90
     1024
 91
        1
280
     0
281
     0
  0
CLASS
  1
ACIMINTSYSVAR
  2
AcImIntSysVar
  3
AcMeServices
 90
     1024
 91
       27
280
     0
281
     0
  0
CLASS
  1
ACMEDRAWINGMAN
  2
AcMeDrawingMan
  3
AcMeServices
 90
     1024
 91
        0
280
     0
281
     0
  0
CLASS
  1
ACMEVIEW
  2
AcMeView
  3
AcMeServices
 90
     1024
 91
        0
280
     0
281
     0
  0
CLASS
  1
ACDBENTITYCACHE
  2
AcMeEntityCache
  3
AcMeServices
 90
     1024
 91
        1
280
     0
281
     0
  0
CLASS
  1
GSMANAGER
  2
AcMeGSManager
  3
AcMeServices
 90
        0
 91
        0
280
     0
281
     0
  0
CLASS
  1
AMDTINTERNALREACTOR
  2
AmdtInternalReactor
  3
AcMeServices
 90
     1024
 91
        1
280
     0
281
     0
  0
CLASS
  1
ACMESTATEMGR
  2
AcMeStateMgr
  3
AcMeServices
 90
     1024
 91
        1
280
     0
281
     0
  0
CLASS
  1
ACGREFMASTER
  2
AcGrefMaster
  3
AcAttribServices
 90
     1024
 91
        1
280
     0
281
     0
  0
CLASS
  1
ACME_DATABASE
  2
AcMeDbDatabase
  3
AcMeServices
 90
     1024
 91
        1
280
     0
281
     0
  0
CLASS
  1
ACRFINSADJUSTERMGR
  2
AcRfInsAdjusterMgr
  3
AcMeServices
 90
     1024
 91
        1
280
     0
281
     0
  0
CLASS
  1
ACGREFACADMASTER
  2
AcGrefacadMaster
  3
AcGrefServices
 90
     1024
 91
        1
280
     0
281
     0
  0
CLASS
  1
AMIMASTER
  2
AmiMaster
  3
AmiServices
 90
     1024
 91
        1
280
     0
281
     0
  0
CLASS
  1
AMGSETTINGSOBJ
  2
AmgSettingsObj
  3
"AcadM|Product Description: AutoCAD Mechanical|Company: Autodesk, Inc."
 90
     1024
 91
        2
280
     0
281
     0
  0
CLASS
  1
ACMDATADICTIONARY
  2
AcmDataDictionary
  3
"AcmSymBB|Product Description: AutoCAD Mechanical|Company: Autodesk, Inc."
 90
     1024
 91
        1
280
     0
281
     0
  0
CLASS
  1
ACMDATAENTRYBLOCK
  2
AcmDataEntryBlock
  3
AcmSymBB|Product Description: AutoCAD Mechanical|Company: Autodesk, Inc.
 90
     1024
 91
        0
280
     0
281
     0
  0
CLASS
  1
ACIMSTRSYSVAR
  2
AcImStrSysVar
  3
AcMeServices
 90
     1024
 91
        5
280
     0
281
     0
  0
CLASS
  1
ACMSTANDARDDIN
  2
AcmStandardDIN
  3
"Amdt_StdImp|Product Description: AutoCAD Mechanical|Company: Autodesk, Inc."
 90
     1024
 91
        1
280
     0
281
     0
  0
CLASS
  1
AMGOBJPROPCFG
  2
AmgObjPropCfg
  3
"AmgLay|Product Description: AutoCAD Mechanical|Company: Autodesk, Inc."
 90
     1025
 91
        1
280
     0
281
     0
  0
CLASS
  1
AMDTEDGESTANDARDDIN
  2
AmdtEdgeStdDIN
  3
"Amdt_StdImp|Product Description: AutoCAD Mechanical|Company: Autodesk, Inc."
 90
     1024
 91
        0
280
     0
281
     0
  0
CLASS
  1
ACMSURFSTANDARDDIN
  2
AcmSurfTextStdDIN
  3
"Amdt_StdImp|Product Description: AutoCAD Mechanical|Company: Autodesk, Inc."
 90
     1024
 91
        0
280
     0
281
     0
  0
CLASS
  1
ACMFCFSTANDARDDIN
  2
AcmFCFStdDIN
  3
"Amdt_StdImp|Product Description: AutoCAD Mechanical|Company: Autodesk, Inc."
 90
     1024
 91
        1
280
     0
281
     0
  0
CLASS
  1
ACMWELDSTANDARDDIN
  2
AcmWeldingStdDIN
  3
"Amdt_StdImp|Product Description: AutoCAD Mechanical|Company: Autodesk, Inc."
 90
     1024
 91
        1
280
     0
281
     0
  0
CLASS
  1
ACMIDSTANDARDDIN
  2
AcmIdStdDIN
  3
"Amdt_StdImp|Product Description: AutoCAD Mechanical|Company: Autodesk, Inc."
 90
     1024
 91
        1
280
     0
281
     0
  0
CLASS
  1
ACMDATUMSTANDARDDIN
  2
AcmDatumStdDIN
  3
"Amdt_StdImp|Product Description: AutoCAD Mechanical|Company: Autodesk, Inc."
 90
     1024
 91
        1
280
     0
281
     0
  0
CLASS
  1
ACMBOMSTANDARDDIN
  2
AcmBOMStdDIN
  3
"Amdt_StdImp|Product Description: AutoCAD Mechanical|Company: Autodesk, Inc."
 90
     1024
 91
        1
280
     0
281
     0
  0
CLASS
  1
ACMDETAILSTANDARDDIN
  2
AmdtDetailSymStdDIN
  3
"Amdt_StdImp|Product Description: AutoCAD Mechanical|Company: Autodesk, Inc."
 90
     1024
 91
        1
280
     0
281
     0
  0
CLASS
  1
ACMSECTIONSTANDARDDIN
  2
AmdtSectionSymStdDIN
  3
"Amdt_StdImp|Product Description: AutoCAD Mechanical|Company: Autodesk, Inc."
 90
     1024
 91
        1
280
     0
281
     0
  0
CLASS
  1
ACMCENTERLINESTANDARDDIN
  2
AmdtCenterLineStdDIN
  3
"Amdt_StdImp|Product Description: AutoCAD Mechanical|Company: Autodesk, Inc."
 90
     1024
 91
        1
280
     0
281
     0
  0
CLASS
  1
ACMNOTESTANDARDDIN
  2
AmdtNoteStdDIN
  3
"Amdt_StdImp|Product Description: AutoCAD Mechanical|Company: Autodesk, Inc."
 90
     1024
 91
        1
280
     0
281
     0
  0
CLASS
  1
ACAMGLAYSTD
  2
AcAmgLayStd
  3
"AmgLay|Product Description: AutoCAD Mechanical|Company: Autodesk, Inc."
 90
     1024
 91
        1
280
     0
281
     0
  0
CLASS
  1
ACAMGDIMSTD
  2
AcAmgDimStd
  3
"AmgDim|Product Description: AutoCAD Mechanical|Company: Autodesk, Inc."
 90
     1024
 91
        1
280
     0
281
     0
  0
CLASS
  1
ACAMGHOLECHARTSTDDIN
  2
AcAmgHoleChartStdDIN
  3
AmgDim|Product Description: AutoCAD Mechanical|Company: Autodesk, Inc.
 90
     1024
 91
        1
280
     0
281
     0
  0
CLASS
  1
ACAMGTITLESTD
  2
AcAmgTitleStd
  3
"AmgTitle|Product Description: AutoCAD Mechanical|Company: Autodesk, Inc."
 90
     4095
 91
        1
280
     0
281
     0
  0
CLASS
  1
LAYER_INDEX
  2
AcDbLayerIndex
  3
ObjectDBX Classes
 90
        0
 91
        0
280
     0
281
     0
  0
CLASS
  1
IDBUFFER
  2
AcDbIdBuffer
  3
ObjectDBX Classes
 90
        0
 91
        0
280
     0
281
     0
  0
CLASS
  1
DICTIONARYVAR
  2
AcDbDictionaryVar
  3
ObjectDBX Classes
 90
        0
 91
       12
280
     0
281
     0
  0
CLASS
  1
ACAMGFILTERDAT
  2
AcAmgFilterDat
  3
"AcadM|Product Description: AutoCAD Mechanical|Company: Autodesk, Inc."
 90
     1024
 91
        0
280
     0
281
     0
  0
CLASS
  1
ACMSTANDARDANSI
  2
AcmStandardANSI
  3
"Amdt_StdImp|Product Description: AutoCAD Mechanical|Company: Autodesk, Inc."
 90
     1024
 91
        0
280
     0
281
     0
  0
CLASS
  1
ACMSURFSTANDARDANSI
  2
AcmSurfTextStdANSI
  3
"Amdt_StdImp|Product Description: AutoCAD Mechanical|Company: Autodesk, Inc."
 90
     1024
 91
        0
280
     0
281
     0
  0
CLASS
  1
ACMFCFSTANDARDANSI
  2
AcmFCFStdANSI
  3
"Amdt_StdImp|Product Description: AutoCAD Mechanical|Company: Autodesk, Inc."
 90
     1024
 91
        0
280
     0
281
     0
  0
CLASS
  1
ACMWELDSTANDARDANSI
  2
AcmWeldingStdANSI
  3
"Amdt_StdImp|Product Description: AutoCAD Mechanical|Company: Autodesk, Inc."
 90
     1024
 91
        0
280
     0
281
     0
  0
CLASS
  1
ACMIDSTANDARDANSI
  2
AcmIdStdANSI
  3
"Amdt_StdImp|Product Description: AutoCAD Mechanical|Company: Autodesk, Inc."
 90
     1024
 91
        0
280
     0
281
     0
  0
CLASS
  1
ACMDATUMSTANDARDANSI
  2
AcmDatumStdANSI
  3
"Amdt_StdImp|Product Description: AutoCAD Mechanical|Company: Autodesk, Inc."
 90
     1024
 91
        0
280
     0
281
     0
  0
CLASS
  1
ACMBOMSTANDARDANSI
  2
AcmBOMStdANSI
  3
"Amdt_StdImp|Product Description: AutoCAD Mechanical|Company: Autodesk, Inc."
 90
     1024
 91
        0
280
     0
281
     0
  0
CLASS
  1
ACMDETAILSTANDARDANSI
  2
AmdtDetailSymStdANSI
  3
"Amdt_StdImp|Product Description: AutoCAD Mechanical|Company: Autodesk, Inc."
 90
     1024
 91
        0
280
     0
281
     0
  0
CLASS
  1
ACMSECTIONSTANDARDANSI
  2
AmdtSectionSymStdANSI
  3
"Amdt_StdImp|Product Description: AutoCAD Mechanical|Company: Autodesk, Inc."
 90
     1024
 91
        0
280
     0
281
     0
  0
CLASS
  1
ACMCENTERLINESTANDARDANSI
  2
AmdtCenterLineStdANSI
  3
"Amdt_StdImp|Product Description: AutoCAD Mechanical|Company: Autodesk, Inc."
 90
     1024
 91
        0
280
     0
281
     0
  0
CLASS
  1
ACMNOTESTANDARDANSI
  2
AmdtNoteStdANSI
  3
"Amdt_StdImp|Product Description: AutoCAD Mechanical|Company: Autodesk, Inc."
 90
     1024
 91
        0
280
     0
281
     0
  0
CLASS
  1
ACAMGHOLECHARTSTDANSI
  2
AcAmgHoleChartStdANSI
  3
AmgDim|Product Description: AutoCAD Mechanical|Company: Autodesk, Inc.
 90
     1024
 91
        0
280
     0
281
     0
  0
CLASS
  1
AMDTFORMULAUPDATEDISPATCHER
  2
AmdtFormulaUpdateDispatcher
  3
AcMeServices
 90
     1024
 91
        0
280
     0
281
     0
  0
CLASS
  1
DIMASSOC
  2
AcDbDimAssoc
  3
"AcDbDimAssoc|Product Desc:     AcDim ARX App For Dimension|Company:          Autodesk, Inc.|WEB Address:      www.autodesk.com"
 90
        0
 91
        0
280
     0
281
     0
  0
CLASS
  1
MATERIAL
  2
AcDbMaterial
  3
ObjectDBX Classes
 90
     1153
 91
        3
280
     0
281
     0
  0
CLASS
  1
VISUALSTYLE
  2
AcDbVisualStyle
  3
ObjectDBX Classes
 90
     4095
 91
       24
280
     0
281
     0
  0
CLASS
  1
TABLESTYLE
  2
AcDbTableStyle
  3
ObjectDBX Classes
 90
     4095
 91
        1
280
     0
281
     0
  0
CLASS
  1
SCALE
  2
AcDbScale
  3
ObjectDBX Classes
 90
     1153
 91
       17
280
     0
281
     0
  0
CLASS
  1
MLEADERSTYLE
  2
AcDbMLeaderStyle
  3
ACDB_MLEADERSTYLE_CLASS
 90
     4095
 91
        1
280
     0
281
     0
  0
CLASS
  1
AM_DRAWING_MGR
  2
AcDmDwgMgr
  3
AcMechDwgViewMgmt
 90
     1024
 91
        1
280
     0
281
     0
  0
CLASS
  1
AM_DWG_DOCUMENT
  2
AcDmDwgDocument
  3
AcMechDwgViewMgmt
 90
     1024
 91
        1
280
     0
281
     0
  0
CLASS
  1
AM_DWG_SHEET
  2
AcDmSheet
  3
AcMechDwgViewMgmt
 90
     1024
 91
        2
280
     0
281
     0
  0
CLASS
  1
AM_VIEWDIMPARMAP
  2
AcDmViewDimParMap
  3
AcMechDwgViewMgmt
 90
     1024
 91
        2
280
     0
281
     0
  0
CLASS
  1
AM_DWGMGR_NAME
  2
AcDmDwgMgrName
  3
AcMechDwgViewMgmt
 90
     1024
 91
        1
280
     0
281
     0
  0
CLASS
  1
AMDTMENUSTATEMGR
  2
AmdtMenuStateMgr
  3
McadcomServices
 90
     1024
 91
        1
280
     0
281
     0
  0
CLASS
  1
AMDTMCOMMENUSTATE
  2
AmdtMcomMenuState
  3
McadcomServices
 90
     1024
 91
        1
280
     0
281
     0
  0
CLASS
  1
MAPIAMMOUDLE
  2
MApiAmModule
  3
MApiAmServices
 90
     1024
 91
        1
280
     0
281
     0
  0
CLASS
  1
AMDTDMMENUSTATE
  2
AmdtDmMenuState
  3
AcMechDwgViewMgmt
 90
     1024
 91
        1
280
     0
281
     0
  0
CLASS
  1
AMDTAMMENUSTATE
  2
AmdtAmMenuState
  3
DesignerAssemblies
 90
     1024
 91
        1
280
     0
281
     0
  0
CLASS
  1
ACAMPROJECT
  2
AcAmProject
  3
DesignerAssemblies
 90
     1024
 91
        1
280
     0
281
     0
  0
CLASS
  1
ACAMGRCOMPDEF
  2
AcAmGrCompDef
  3
DesignerAssemblies
 90
     1024
 91
        1
280
     0
281
     0
  0
CLASS
  1
ACAMCOMPDEF
  2
AcAmCompDef
  3
DesignerAssemblies
 90
     1024
 91
        1
280
     0
281
     0
  0
CLASS
  1
ACAMCOMPDEFMGR
  2
AcAmCompDefMgr
  3
DesignerAssemblies
 90
     1024
 91
        1
280
     0
281
     0
  0
CLASS
  1
AMCONTEXTMGR
  2
AcAmContextMgr
  3
DesignerAssemblies
 90
     1024
 91
        1
280
     0
281
     0
  0
CLASS
  1
ACAMCONTEXTMODELER
  2
AcAmContextModeler
  3
DesignerAssemblies
 90
     1024
 91
        1
280
     0
281
     0
  0
CLASS
  1
ACRFATTGENMGR
  2
AcRfAttGeneralMgr
  3
AcAttribServices
 90
     1024
 91
        0
280
     0
281
     0
  0
CLASS
  1
ACRFOBJATTMGR
  2
AcRfObjAttGroupMgr
  3
AcAttribServices
 90
     1024
 91
        0
280
     0
281
     0
  0
CLASS
  1
ACRFMCADAPIATTHOLDER
  2
AcRfMCADAPIAttHolder
  3
AcAttribServices
 90
     1024
 91
        0
280
     0
281
     0
  0
CLASS
  1
AMDTSYSATTR
  2
AmdtSystemAttribute
  3
AcAttribServices
 90
     1024
 91
        0
280
     0
281
     0
  0
CLASS
  1
ACMTHREADLINESTANDARDDIN
  2
AmdtThreadLineStdDIN
  3
"Amdt_StdImp|Product Description: AutoCAD Mechanical|Company: Autodesk, Inc."
 90
     1024
 91
        1
280
     0
281
     0
  0
CLASS
  1
ACMTAPERSTANDARDDIN
  2
AcmTaperStdDIN
  3
"Amdt_StdImp|Product Description: AutoCAD Mechanical|Company: Autodesk, Inc."
 90
     1024
 91
        1
280
     0
281
     0
  0
CLASS
  1
ACMANOOTATIONVIEWSTANDARDDIN
  2
AmdtAnViewStdDIN
  3
"Amdt_StdImp|Product Description: AutoCAD Mechanical|Company: Autodesk, Inc."
 90
     1024
 91
        1
280
     0
281
     0
  0
CLASS
  1
ACMTHREADLINESTANDARDANSI
  2
AmdtThreadLineStdANSI
  3
"Amdt_StdImp|Product Description: AutoCAD Mechanical|Company: Autodesk, Inc."
 90
     1024
 91
        0
280
     0
281
     0
  0
CLASS
  1
ACMTAPERSTANDARDANSI
  2
AcmTaperStdANSI
  3
"Amdt_StdImp|Product Description: AutoCAD Mechanical|Company: Autodesk, Inc."
 90
     1024
 91
        0
280
     0
281
     0
  0
CLASS
  1
ACMANOOTATIONVIEWSTANDARDANSI
  2
AmdtAnViewStdANSI
  3
"Amdt_StdImp|Product Description: AutoCAD Mechanical|Company: Autodesk, Inc."
 90
     1024
 91
        0
280
     0
281
     0
  0
CLASS
  1
ACAMGRCOMPDEFSET
  2
AcAmGrCompDefSet
  3
DesignerAssemblies
 90
     1024
 91
        1
280
     0
281
     0
  0
CLASS
  1
AMDTBROWSERDBTAB
  2
AmdtBrowserDbTab
  3
McadcomServices
 90
     1024
 91
        1
280
     0
281
     0
  0
CLASS
  1
CBROWSERAPPOBJECT
  2
CBrowserAppObject
  3
McadcomServices
 90
     1024
 91
        2
280
     0
281
     0
  0
CLASS
  1
DM_PLACEHOLDER
  2
AcDmSelsetPlaceholder
  3
AcMechDwgViewMgmt
 90
     1024
 91
        1
280
     0
281
     0
  0
CLASS
  1
CELLSTYLEMAP
  2
AcDbCellStyleMap
  3
ObjectDBX Classes
 90
     1152
 91
        2
280
     0
281
     0
  0
CLASS
  1
AMDTEDGESTANDARDDIN13715
  2
AmdtEdgeStdDIN13715
  3
"Amdt_StdImp|Product Description: AutoCAD Mechanical|Company: Autodesk, Inc."
 90
     1024
 91
        1
280
     0
281
     0
  0
CLASS
  1
ACMSURFSTANDARDDIN2002
  2
AcmSurfTextStdDIN2002
  3
"Amdt_StdImp|Product Description: AutoCAD Mechanical|Company: Autodesk, Inc."
 90
     1024
 91
        1
280
     0
281
     0
  0
CLASS
  1
AMDTNOTETEMPLATEDB
  2
AmdtNoteTemplateDB
  3
AcmSymBB|Product Description: AutoCAD Mechanical|Company: Autodesk, Inc.
 90
     1024
 91
        6
280
     0
281
     0
  0
CLASS
  1
CAMSSTRUCTBTNSTATE
  2
StructBtnState
  3
DesignerAssemblies
 90
     1024
 91
        0
280
     0
281
     0
  0
CLASS
  1
SORTENTSTABLE
  2
AcDbSortentsTable
  3
ObjectDBX Classes
 90
        0
 91
        2
280
     0
281
     0
  0
CLASS
  1
AEC_REFEDIT_STATUS_TRACKER
  2
AecDbRefEditStatusTracker
  3
AecArchBase60|Product Desc: Autodesk Architectural Desktop 2007 |Company: Autodesk,Inc. |WEB Address: www.autodesk.com
 90
      129
 91
        0
280
     0
281
     0
  0
CLASS
  1
NPOCOLLECTION
  2
AcDbImpNonPersistentObjectsCollection
  3
ObjectDBX Classes
 90
     1153
 91
        0
280
     0
281
     0
  0
ENDSEC
  0
SECTION
  2
TABLES
  0
TABLE
  2
VPORT
  5
8
102
{ACAD_XDICTIONARY
360
2972
102
}
330
0
100
AcDbSymbolTable
 70
     1
  0
VPORT
  5
28BF
330
8
100
AcDbSymbolTableRecord
100
AcDbViewportTableRecord
  2
*Active
 70
     0
 10
0.0
 20
0.0
 11
1.0
 21
1.0
 12
0.0030945800999689
 22
-436.0214715818067
 13
0.0
 23
0.0
 14
2.5
 24
2.5
 15
10.0
 25
10.0
 16
0.0
 26
0.0
 36
1.0
 17
0.0
 27
0.0
 37
0.0
 40
905.8684550133135
 41
2.251154201292705
 42
50.0
 43
0.0
 44
0.0
 50
0.0
 51
0.0
 71
     0
 72
   100
 73
     1
 74
     3
 75
     0
 76
     0
 77
     0
 78
     0
281
     0
 65
     1
110
0.0
120
0.0
130
0.0
111
1.0
121
0.0
131
0.0
112
0.0
122
1.0
132
0.0
 79
     0
146
0.0
  0
ENDTAB
  0
TABLE
  2
LTYPE
  5
5
330
0
100
AcDbSymbolTable
 70
    24
  0
LTYPE
  5
14
330
5
100
AcDbSymbolTableRecord
100
AcDbLinetypeTableRecord
  2
ByBlock
 70
     0
  3

 72
    65
 73
     0
 40
0.0
  0
LTYPE
  5
15
330
5
100
AcDbSymbolTableRecord
100
AcDbLinetypeTableRecord
  2
ByLayer
 70
     0
  3

 72
    65
 73
     0
 40
0.0
  0
LTYPE
  5
16
330
5
100
AcDbSymbolTableRecord
100
AcDbLinetypeTableRecord
  2
Continuous
 70
     0
  3
Solid line
 72
    65
 73
     0
 40
0.0
  0
LTYPE
  5
50
330
5
100
AcDbSymbolTableRecord
100
AcDbLinetypeTableRecord
  2
Amconstr
 70
     0
  3
_______________________
 72
    65
 73
     2
 40
9999.0
 49
9999.0
 74
     0
 49
0.0
 74
     0
  0
LTYPE
  5
55
330
5
100
AcDbSymbolTableRecord
100
AcDbLinetypeTableRecord
  2
Amzigzag
 70
     0
  3
/\/-/\/-/\/-/\/-/\/-/\/
 72
    65
 73
     2
 40
11.0001
 49
0.0001
 74
     4
 75
   135
340
54
 46
0.04
 50
0.0
 44
0.0
 45
0.0
 49
-11.0
 74
     0
  0
LTYPE
  5
56
330
5
100
AcDbSymbolTableRecord
100
AcDbLinetypeTableRecord
  2
AM_DIN_F_W050
 70
     0
  3
__ __ __ __ __ __ __ __ __ __ __ __ __ __ __
 72
    65
 73
     2
 40
6.25
 49
4.75
 74
     0
 49
-1.5
 74
     0
  0
LTYPE
  5
57
330
5
100
AcDbSymbolTableRecord
100
AcDbLinetypeTableRecord
  2
AM_DIN_G_W050
 70
     0
  3
____ . ____ . ____ . ____ . ____ . ____ . ____
 72
    65
 73
     4
 40
13.75
 49
9.75
 74
     0
 49
-1.5
 74
     0
 49
1.0
 74
     0
 49
-1.5
 74
     0
  0
LTYPE
  5
58
330
5
100
AcDbSymbolTableRecord
100
AcDbLinetypeTableRecord
  2
AM_DIN_K_W050
 70
     0
  3
_____ . . _____ . . _____ . . ____ .. ____
 72
    65
 73
     6
 40
16.25
 49
9.75
 74
     0
 49
-1.5
 74
     0
 49
1.0
 74
     0
 49
-1.5
 74
     0
 49
1.0
 74
     0
 49
-1.5
 74
     0
  0
LTYPE
  5
59
330
5
100
AcDbSymbolTableRecord
100
AcDbLinetypeTableRecord
  2
AM_DIN_G_W050x2
 70
     0
  3
__ . __ . __ . __ . __ . __
 72
    65
 73
     4
 40
6.875
 49
4.75
 74
     0
 49
-0.875
 74
     0
 49
0.375
 74
     0
 49
-0.875
 74
     0
  0
LTYPE
  5
5A
330
5
100
AcDbSymbolTableRecord
100
AcDbLinetypeTableRecord
  2
AM_DIN_F_W050x2
 70
     0
  3
 _ _ _ _ _ _ _ _ _ _ _ _
 72
    65
 73
     2
 40
3.125
 49
2.25
 74
     0
 49
-0.875
 74
     0
  0
LTYPE
  5
68
330
5
100
AcDbSymbolTableRecord
100
AcDbLinetypeTableRecord
  2
ACDINWELD
 70
     0
  3
_ _ _ _ _
 72
    65
 73
     2
 40
2.0
 49
2.0
 74
     0
 49
-1.0
 74
     0
  0
LTYPE
  5
69
330
5
100
AcDbSymbolTableRecord
100
AcDbLinetypeTableRecord
  2
ACDINTGB
 70
     0
  3
__ . . __ . .
 72
    65
 73
     6
 40
9.0
 49
4.0
 74
     0
 49
-1.0
 74
     0
 49
1.0
 74
     0
 49
-1.0
 74
     0
 49
1.0
 74
     0
 49
-1.0
 74
     0
  0
LTYPE
  5
6A
330
5
100
AcDbSymbolTableRecord
100
AcDbLinetypeTableRecord
  2
ACDINTGL
 70
     0
  3
_ _ _ _ _
 72
    65
 73
     2
 40
3.0
 49
2.0
 74
     0
 49
-1.0
 74
     0
  0
LTYPE
  5
6C
330
5
100
AcDbSymbolTableRecord
100
AcDbLinetypeTableRecord
  2
CENTER
 70
     0
  3
__ . __
 72
    65
 73
     4
 40
7.0
 49
4.0
 74
     0
 49
-1.0
 74
     0
 49
1.0
 74
     0
 49
-1.0
 74
     0
  0
LTYPE
  5
33D
330
5
100
AcDbSymbolTableRecord
100
AcDbLinetypeTableRecord
  2
PHANTOM2
 70
     0
  3
Phantom (.5x) ___ _ _ ___ _ _ ___ _ _ ___ _ _
 72
    65
 73
     6
 40
1.25
 49
0.625
 74
     0
 49
-0.125
 74
     0
 49
0.125
 74
     0
 49
-0.125
 74
     0
 49
0.125
 74
     0
 49
-0.125
 74
     0
  0
LTYPE
  5
341
330
5
100
AcDbSymbolTableRecord
100
AcDbLinetypeTableRecord
  2
ACANSTGB
 70
     0
  3
__ . . __ . .
 72
    65
 73
     6
 40
0.35433070866
 49
0.15748031496
 74
     0
 49
-0.03937007874
 74
     0
 49
0.03937007874
 74
     0
 49
-0.03937007874
 74
     0
 49
0.03937007874
 74
     0
 49
-0.03937007874
 74
     0
  0
LTYPE
  5
342
330
5
100
AcDbSymbolTableRecord
100
AcDbLinetypeTableRecord
  2
ACANSTGL
 70
     0
  3
_ _ _ _ _
 72
    65
 73
     2
 40
0.11811023622
 49
0.07874015748
 74
     0
 49
-0.03937007874
 74
     0
  0
LTYPE
  5
2935
330
5
100
AcDbSymbolTableRecord
100
AcDbLinetypeTableRecord
  2
HIDDEN
 70
     0
  3
Verdeckt
 72
    65
 73
     2
 40
9.525
 49
6.349999999999999
 74
     0
 49
-3.174999999999999
 74
     0
  0
LTYPE
  5
2A19
330
5
100
AcDbSymbolTableRecord
100
AcDbLinetypeTableRecord
  2
AM_ISO02W050
 70
     0
  3
__ __ __ __ __ __ __ __ __ __ __ __ __ __ __
 72
    65
 73
     2
 40
7.5
 49
6.0
 74
     0
 49
-1.5
 74
     0
  0
LTYPE
  5
2A1A
330
5
100
AcDbSymbolTableRecord
100
AcDbLinetypeTableRecord
  2
AM_ISO08W050
 70
     0
  3
____ . ____ . ____ . ____ . ____ . ____ . ____
 72
    65
 73
     4
 40
18.0
 49
12.0
 74
     0
 49
-1.5
 74
     0
 49
3.0
 74
     0
 49
-1.5
 74
     0
  0
LTYPE
  5
2A1B
330
5
100
AcDbSymbolTableRecord
100
AcDbLinetypeTableRecord
  2
AM_ISO09W050
 70
     0
  3
_____ . . _____ . . _____ . . ____ .. ____
 72
    65
 73
     6
 40
22.5
 49
12.0
 74
     0
 49
-1.5
 74
     0
 49
3.0
 74
     0
 49
-1.5
 74
     0
 49
3.0
 74
     0
 49
-1.5
 74
     0
  0
LTYPE
  5
2A1C
330
5
100
AcDbSymbolTableRecord
100
AcDbLinetypeTableRecord
  2
AM_ISO08W050x2
 70
     0
  3
__ . __ . __ . __ . __ . __
 72
    65
 73
     4
 40
9.0
 49
6.0
 74
     0
 49
-0.75
 74
     0
 49
1.5
 74
     0
 49
-0.75
 74
     0
  0
LTYPE
  5
2A1D
330
5
100
AcDbSymbolTableRecord
100
AcDbLinetypeTableRecord
  2
AM_ISO02W050x2
 70
     0
  3
 _ _ _ _ _ _ _ _ _ _ _ _
 72
    65
 73
     2
 40
3.75
 49
3.0
 74
     0
 49
-0.75
 74
     0
  0
LTYPE
  5
2B9E
330
5
100
AcDbSymbolTableRecord
100
AcDbLinetypeTableRecord
  2
CENTER2
 70
     0
  3
Center (.5x) ___ _ ___ _ ___ _ ___ _ ___ _ ___
 72
    65
 73
     4
 40
1.125
 49
0.75
 74
     0
 49
-0.125
 74
     0
 49
0.125
 74
     0
 49
-0.125
 74
     0
  0
LTYPE
  5
2B9F
330
5
100
AcDbSymbolTableRecord
100
AcDbLinetypeTableRecord
  2
HIDDEN2
 70
     0
  3
Hidden (.5x) _ _ _ _ _ _ _ _ _ _ _ _ _ _ _ _ _
 72
    65
 73
     2
 40
0.1875
 49
0.125
 74
     0
 49
-0.0625
 74
     0
  0
LTYPE
  5
2BA0
330
5
100
AcDbSymbolTableRecord
100
AcDbLinetypeTableRecord
  2
Amzigzag2
 70
     0
  3
/\/-/\/-/\/-/\/-/\/-/\/
 72
    65
 73
     2
 40
0.4401
 49
0.0001
 74
     4
 75
   136
340
2BA1
 46
0.0016
 50
0.0
 44
0.0
 45
0.0
 49
-0.4400000000000001
 74
     0
  0
ENDTAB
  0
TABLE
  2
LAYER
  5
2
102
{ACAD_XDICTIONARY
360
2967
102
}
330
0
100
AcDbSymbolTable
 70
     1
  0
LAYER
  5
10
102
{ACAD_XDICTIONARY
360
2962
102
}
330
2
100
AcDbSymbolTableRecord
100
AcDbLayerTableRecord
  2
0
 70
     0
 62
     7
  6
Continuous
370
    -3
390
F
  0
ENDTAB
  0
TABLE
  2
STYLE
  5
3
330
0
100
AcDbSymbolTable
 70
     7
  0
STYLE
  5
11
330
3
100
AcDbSymbolTableRecord
100
AcDbTextStyleTableRecord
  2
STANDARD
 70
     0
 40
0.0
 41
1.0
 50
0.0
 71
     0
 42
2.5
  3
ISOCP.SHX
  4

  0
STYLE
  5
54
330
3
100
AcDbSymbolTableRecord
100
AcDbTextStyleTableRecord
  2

 70
     1
 40
0.0
 41
1.0
 50
0.0
 71
     0
 42
2.5
  3
ltypeshp.shx
  4

  0
STYLE
  5
5B
330
3
100
AcDbSymbolTableRecord
100
AcDbTextStyleTableRecord
  2
ACDINTS
 70
     0
 40
1.0
 41
1.0
 50
0.0
 71
     0
 42
2.5
  3
isocp.shx
  4

  0
STYLE
  5
67
330
3
100
AcDbSymbolTableRecord
100
AcDbTextStyleTableRecord
  2
ACDINGDT
 70
     0
 40
0.0
 41
1.0
 50
0.0
 71
     0
 42
2.5
  3
amgdt.shx
  4

  0
STYLE
  5
343
330
3
100
AcDbSymbolTableRecord
100
AcDbTextStyleTableRecord
  2
ACANSTS
 70
     0
 40
1.0
 41
1.0
 50
0.0
 71
     0
 42
0.2
  3
romans.shx
  4

  0
STYLE
  5
344
330
3
100
AcDbSymbolTableRecord
100
AcDbTextStyleTableRecord
  2
ACANSGDT
 70
     0
 40
0.0
 41
1.0
 50
0.0
 71
     0
 42
0.2
  3
amgdtans.shx
  4

  0
STYLE
  5
2BA1
330
3
100
AcDbSymbolTableRecord
100
AcDbTextStyleTableRecord
  2

 70
     1
 40
0.0
 41
1.0
 50
0.0
 71
     0
 42
0.2
  3
genltshp.shx
  4

  0
ENDTAB
  0
TABLE
  2
VIEW
  5
6
330
0
100
AcDbSymbolTable
 70
     1
  0
ENDTAB
  0
TABLE
  2
UCS
  5
7
330
0
100
AcDbSymbolTable
 70
     0
  0
ENDTAB
  0
TABLE
  2
APPID
  5
9
330
0
100
AcDbSymbolTable
 70
    18
  0
APPID
  5
12
330
9
100
AcDbSymbolTableRecord
100
AcDbRegAppTableRecord
  2
ACAD
 70
     0
  0
APPID
  5
2C
330
9
100
AcDbSymbolTableRecord
100
AcDbRegAppTableRecord
  2
MCAD_NO_VIS
 70
     0
  0
APPID
  5
2D
330
9
100
AcDbSymbolTableRecord
100
AcDbRegAppTableRecord
  2
ACAD_TEMP_GRAPHIC
 70
     0
  0
APPID
  5
3E
330
9
100
AcDbSymbolTableRecord
100
AcDbRegAppTableRecord
  2
ACATTRIBSERVICES
 70
     0
  0
APPID
  5
428
330
9
100
AcDbSymbolTableRecord
100
AcDbRegAppTableRecord
  2
DCO15
 70
     0
  0
APPID
  5
217D
330
9
100
AcDbSymbolTableRecord
100
AcDbRegAppTableRecord
  2
GENIUS_GENREC_14
 70
     0
  0
APPID
  5
217E
330
9
100
AcDbSymbolTableRecord
100
AcDbRegAppTableRecord
  2
GENIUS_GENODEF_13
 70
     0
  0
APPID
  5
217F
330
9
100
AcDbSymbolTableRecord
100
AcDbRegAppTableRecord
  2
GENIUS_GENOBJ-N-REC_13
 70
     0
  0
APPID
  5
2937
330
9
100
AcDbSymbolTableRecord
100
AcDbRegAppTableRecord
  2
AD_DRAW
 70
     0
  0
APPID
  5
294E
330
9
100
AcDbSymbolTableRecord
100
AcDbRegAppTableRecord
  2
DESIGNERASSEMBLIES
 70
     0
  0
APPID
  5
295C
330
9
100
AcDbSymbolTableRecord
100
AcDbRegAppTableRecord
  2
ACADM_DIM_EDIT
 70
     0
  0
APPID
  5
295D
330
9
100
AcDbSymbolTableRecord
100
AcDbRegAppTableRecord
  2
AMDT_DM_ADJ
 70
     0
  0
APPID
  5
29A8
330
9
100
AcDbSymbolTableRecord
100
AcDbRegAppTableRecord
  2
ACAD_MLEADERVER
 70
     0
  0
APPID
  5
2A15
330
9
100
AcDbSymbolTableRecord
100
AcDbRegAppTableRecord
  2
ACAD_DSTYLE_DIMBREAK
 70
     0
  0
APPID
  5
2A16
330
9
100
AcDbSymbolTableRecord
100
AcDbRegAppTableRecord
  2
ACAD_DSTYLE_DIMJAG
 70
     0
  0
APPID
  5
2A26
330
9
100
AcDbSymbolTableRecord
100
AcDbRegAppTableRecord
  2
ACAD_PSEXT
 70
     0
  0
APPID
  5
2A6F
330
9
100
AcDbSymbolTableRecord
100
AcDbRegAppTableRecord
  2
ACAD_EXEMPT_FROM_CAD_STANDARDS
 70
     0
  0
APPID
  5
2A86
330
9
100
AcDbSymbolTableRecord
100
AcDbRegAppTableRecord
  2
GENIUS_GENOBJ-N-FIL_13
 70
     0
  0
ENDTAB
  0
TABLE
  2
DIMSTYLE
  5
A
330
0
100
AcDbSymbolTable
 70
    14
100
AcDbDimStyleTable
 71
     1
340
6F
  0
DIMSTYLE
105
6F
102
{ACAD_REACTORS
330
3D74
102
}
330
A
100
AcDbSymbolTableRecord
100
AcDbDimStyleTableRecord
  2
AM_DIN
 70
     0
  4
"
 41
2.5
 42
1.0
 43
10.0
 44
1.0
 47
0.1
 48
0.1
 73
     0
 74
     0
 77
     1
 78
     8
 79
     2
140
3.5
141
0.0
143
0.0393701
146
0.71
147
1.5
172
     1
176
   256
177
   256
178
     2
271
     2
272
     3
274
     4
283
     0
284
     8
340
11
371
    -1
372
    -1
  0
DIMSTYLE
105
70
330
A
100
AcDbSymbolTableRecord
100
AcDbDimStyleTableRecord
  2
AM_DIN$3
 70
     0
  4
"
 41
2.5
 42
1.0
 43
10.0
 44
1.0
 47
0.1
 48
0.1
 73
     0
 77
     1
 78
     8
 79
     2
140
3.5
141
0.0
143
0.0393701
146
0.71
147
1.5
176
   256
177
   256
178
     2
271
     2
272
     3
274
     4
283
     0
284
     8
288
     1
289
     0
340
11
371
    -1
372
    -1
  0
DIMSTYLE
105
71
330
A
100
AcDbSymbolTableRecord
100
AcDbDimStyleTableRecord
  2
AM_DIN$4
 70
     0
  4
"
 41
2.5
 42
1.0
 43
10.0
 44
1.0
 47
0.1
 48
0.1
 73
     0
 77
     1
 78
     8
 79
     2
140
3.5
141
0.0
143
0.0393701
146
0.71
147
1.5
176
   256
177
   256
178
     2
271
     2
272
     3
274
     4
283
     0
284
     8
288
     1
289
     0
340
11
371
    -1
372
    -1
  0
DIMSTYLE
105
72
330
A
100
AcDbSymbolTableRecord
100
AcDbDimStyleTableRecord
  2
AM_DIN$6
 70
     0
  4
"
 41
2.5
 42
1.0
 43
10.0
 44
1.0
 47
0.1
 48
0.1
 73
     0
 74
     0
 78
     8
 79
     2
140
3.5
141
0.0
143
0.0393701
146
0.71
147
1.5
172
     1
176
   256
177
   256
178
     2
271
     2
272
     3
274
     4
283
     0
284
     8
340
11
371
    -1
372
    -1
  0
DIMSTYLE
105
73
330
A
100
AcDbSymbolTableRecord
100
AcDbDimStyleTableRecord
  2
AM_DIN$7
 70
     0
  4
"
 41
2.5
 42
1.0
 43
10.0
 44
1.0
 47
0.1
 48
0.1
 73
     0
 74
     0
 77
     1
 78
     8
 79
     2
140
5.0
141
0.0
143
0.0393701
146
0.71
147
1.5
172
     1
176
   256
177
   256
178
     2
271
     2
272
     3
274
     4
283
     0
284
     8
340
11
371
    -1
372
    -1
  0
DIMSTYLE
105
74
330
A
100
AcDbSymbolTableRecord
100
AcDbDimStyleTableRecord
  2
AM_DIN$SF
 70
     0
  4
"
 41
2.5
 42
1.0
 43
10.0
 44
1.0
 47
0.1
 48
0.1
 73
     0
 74
     0
 75
     1
 76
     1
 77
     1
 78
     8
 79
     2
140
3.5
141
0.0
143
0.0393701
146
0.71
147
1.5
172
     1
176
   256
177
   256
178
     2
271
     2
272
     3
274
     4
283
     0
284
     8
340
11
371
    -1
372
    -1
  0
DIMSTYLE
105
79
330
A
100
AcDbSymbolTableRecord
100
AcDbDimStyleTableRecord
  2
AM_DIN$SH
 70
     0
  4
"
 41
2.5
 42
1.0
 43
10.0
 44
1.0
 47
0.1
 48
0.1
 73
     0
 74
     0
 75
     1
 76
     1
 77
     1
 78
     8
 79
     2
140
3.5
141
0.0
143
0.0393701
144
2.0
146
0.71
147
1.5
172
     1
173
     1
176
   256
177
   256
178
     2
271
     2
272
     3
274
     4
283
     0
284
     8
340
11
343
75
371
    -1
372
    -1
  0
DIMSTYLE
105
92
330
A
100
AcDbSymbolTableRecord
100
AcDbDimStyleTableRecord
  2
STANDARD
 70
     0
279
     2
340
11
  0
DIMSTYLE
105
345
330
A
100
AcDbSymbolTableRecord
100
AcDbDimStyleTableRecord
  2
AM_ANSI
 70
     0
  4
mm
 41
0.1
 42
0.05
 43
0.5
 44
0.1
 47
0.1
 48
0.1
 78
     7
 79
     2
140
0.12
141
0.0
146
0.71
147
0.06
176
   256
177
   256
178
     2
274
     4
284
     7
340
11
371
    -1
372
    -1
  0
DIMSTYLE
105
346
330
A
100
AcDbSymbolTableRecord
100
AcDbDimStyleTableRecord
  2
AM_ANSI$3
 70
     0
  4
mm
 41
0.1
 42
0.05
 43
0.5
 44
0.1
 47
0.1
 48
0.1
 78
     7
 79
     2
140
0.12
141
0.0
146
0.71
147
0.06
176
   256
177
   256
178
     2
274
     4
284
     7
288
     1
289
     0
340
11
371
    -1
372
    -1
  0
DIMSTYLE
105
347
330
A
100
AcDbSymbolTableRecord
100
AcDbDimStyleTableRecord
  2
AM_ANSI$4
 70
     0
  4
mm
 41
0.1
 42
0.05
 43
0.5
 44
0.1
 47
0.1
 48
0.1
 78
     7
 79
     2
140
0.12
141
0.0
146
0.71
147
0.06
176
   256
177
   256
178
     2
274
     4
284
     7
288
     1
289
     0
340
11
371
    -1
372
    -1
  0
DIMSTYLE
105
348
330
A
100
AcDbSymbolTableRecord
100
AcDbDimStyleTableRecord
  2
AM_ANSI$7
 70
     0
  4
mm
 41
0.1
 42
0.05
 43
0.5
 44
0.1
 47
0.1
 48
0.1
 78
     7
 79
     2
140
0.24
141
0.0
146
0.71
147
0.06
176
   256
177
   256
178
     2
274
     4
284
     7
340
11
371
    -1
372
    -1
  0
DIMSTYLE
105
349
330
A
100
AcDbSymbolTableRecord
100
AcDbDimStyleTableRecord
  2
AM_ANSI$SF
 70
     0
  4
mm
 41
0.1
 42
0.05
 43
0.5
 44
0.1
 47
0.1
 48
0.1
 75
     1
 76
     1
 78
     7
 79
     2
140
0.12
141
0.0
146
0.71
147
0.06
176
   256
177
   256
178
     2
274
     4
284
     7
340
11
371
    -1
372
    -1
  0
DIMSTYLE
105
34A
330
A
100
AcDbSymbolTableRecord
100
AcDbDimStyleTableRecord
  2
AM_ANSI$SH
 70
     0
  4
mm
 41
0.1
 42
0.05
 43
0.5
 44
0.1
 47
0.1
 48
0.1
 75
     1
 76
     1
 78
     7
 79
     2
140
0.12
141
0.0
146
0.71
147
0.06
173
     1
176
   256
177
   256
178
     2
274
     4
284
     7
340
11
343
75
371
    -1
372
    -1
  0
ENDTAB
  0
TABLE
  2
BLOCK_RECORD
  5
1
330
0
100
AcDbSymbolTable
 70
     5
  0
BLOCK_RECORD
  5
1F
102
{ACAD_XDICTIONARY
360
81
102
}
330
1
100
AcDbSymbolTableRecord
100
AcDbBlockTableRecord
  2
*Model_Space
340
22
  0
BLOCK_RECORD
  5
1B
330
1
100
AcDbSymbolTableRecord
100
AcDbBlockTableRecord
  2
*Paper_Space
340
1E
  0
BLOCK_RECORD
  5
23
330
1
100
AcDbSymbolTableRecord
100
AcDbBlockTableRecord
  2
*Paper_Space0
340
26
  0
BLOCK_RECORD
  5
75
330
1
100
AcDbSymbolTableRecord
100
AcDbBlockTableRecord
  2
GENAXEH
340
0
  0
BLOCK_RECORD
  5
2BA2
102
{ACAD_XDICTIONARY
360
2BD9
102
}
330
1
100
AcDbSymbolTableRecord
100
AcDbBlockTableRecord
  2
A$C5CF76E03
340
0
1001
ACAD
1000
DesignCenter Data
1002
{
1070
     1
1070
     1
1002
}
  0
BLOCK_RECORD
  5
3375
330
1
100
AcDbSymbolTableRecord
100
AcDbBlockTableRecord
  2
block 2
340
0
  0
ENDTAB
  0
ENDSEC
  0
SECTION
  2
BLOCKS
  0
BLOCK
  5
20
330
1F
100
AcDbEntity
  8
0
100
AcDbBlockBegin
  2
*Model_Space
 70
     0
 10
0.0
 20
0.0
 30
0.0
  3
*Model_Space
  1

  0
ENDBLK
  5
21
330
1F
100
AcDbEntity
  8
0
100
AcDbBlockEnd
  0
BLOCK
  5
1C
330
1B
100
AcDbEntity
 67
     1
  8
0
100
AcDbBlockBegin
  2
*Paper_Space
 70
     0
 10
0.0
 20
0.0
 30
0.0
  3
*Paper_Space
  1

  0
ENDBLK
  5
1D
330
1B
100
AcDbEntity
 67
     1
  8
0
100
AcDbBlockEnd
  0
BLOCK
  5
24
330
23
100
AcDbEntity
 67
     1
  8
0
100
AcDbBlockBegin
  2
*Paper_Space0
 70
     0
 10
0.0
 20
0.0
 30
0.0
  3
*Paper_Space0
  1

  0
ENDBLK
  5
25
330
23
100
AcDbEntity
 67
     1
  8
0
100
AcDbBlockEnd
  0
BLOCK
  5
77
330
75
100
AcDbEntity
  8
0
100
AcDbBlockBegin
  2
GENAXEH
 70
     0
 10
0.0
 20
0.0
 30
0.0
  3
GENAXEH
  1

  0
LINE
  5
76
330
75
100
AcDbEntity
  8
0
100
AcDbLine
 10
-1.0
 20
0.0
 30
0.0
 11
1.0
 21
0.0
 31
0.0
  0
ENDBLK
  5
78
330
75
100
AcDbEntity
  8
0
100
AcDbBlockEnd
  0
BLOCK
  5
2BDB
330
2BA2
100
AcDbEntity
  8
0
100
AcDbBlockBegin
  2
A$C5CF76E03
 70
     0
 10
0.0
 20
0.0
 30
0.0
  3
A$C5CF76E03
  1

  0
LINE
  5
2BA3
330
2BA2
100
AcDbEntity
  8
0
  6
AM_DIN_G_W050
 62
     4
 48
2.0
100
AcDbLine
 10
366.1550654608542
 20
72.90674161767242
 30
0.0
 11
366.1550654608542
 21
213.2074302418867
 31
0.0
  0
LINE
  5
2BA4
330
2BA2
100
AcDbEntity
  8
0
100
AcDbLine
 10
498.2284780222701
 20
84.83921669506662
 30
0.0
 11
234.0816528994383
 21
84.83921669506662
 31
0.0
  0
LINE
  5
2BA5
330
2BA2
100
AcDbEntity
  8
0
100
AcDbLine
 10
234.0816528994383
 20
84.83921669506662
 30
0.0
 11
226.311207446332
 21
88.92677735245502
 31
0.0
  0
LINE
  5
2BA6
330
2BA2
100
AcDbEntity
  8
0
100
AcDbLine
 10
226.311207446332
 20
88.92677735245502
 30
0.0
 11
226.311207446332
 21
90.28275374637791
 31
0.0
  0
LINE
  5
2BA7
330
2BA2
100
AcDbEntity
  8
0
100
AcDbLine
 10
223.1933751721683
 20
97.53780491046065
 30
0.0
 11
155.1556836957968
 21
162.0786046690097
 31
0.0
  0
ARC
  5
2BA8
330
2BA2
100
AcDbEntity
  8
0
100
AcDbCircle
 10
216.311207446332
 20
90.28275374637791
 30
0.0
 40
10.0
100
AcDbArc
 50
0.0
 51
46.5108837938069
1001
GENIUS_GENOBJ-N-FIL_13
1002
{
1000
OWNER
1000
GEN
1002
}
1001
GENIUS_GENODEF_13
1002
{
1000
HIER
1070
     0
1002
}
1002
{
1000
MANEDIT
1070
     0
1002
}
1002
{
1000
NOSEL
1070
     0
1002
}
1002
{
1000
BEHIND
1070
     0
1002
}
1002
{
1000
OTHER
1070
     0
1002
}
1002
{
1000
REACTOR
1002
}
  0
LINE
  5
2BA9
330
2BA2
100
AcDbEntity
  8
0
100
AcDbLine
 10
574.1570389920732
 20
206.3940685423148
 30
0.0
 11
158.1530919296352
 21
206.3940685423148
 31
0.0
  0
LINE
  5
2BAA
330
2BA2
100
AcDbEntity
  8
0
100
AcDbLine
 10
151.1550643394597
 20
199.2279064312821
 30
0.0
 11
151.8840537087847
 21
169.0962813887601
 31
0.0
  0
ARC
  5
2BAB
330
2BA2
100
AcDbEntity
  8
0
100
AcDbCircle
 10
158.1530919296352
 20
199.3940685423147
 30
0.0
 40
7.0
100
AcDbArc
 50
90.0
 51
181.3601831390692
1001
GENIUS_GENOBJ-N-FIL_13
1002
{
1000
OWNER
1000
GEN
1002
}
1001
GENIUS_GENODEF_13
1002
{
1000
HIER
1070
     0
1002
}
1002
{
1000
MANEDIT
1070
     0
1002
}
1002
{
1000
NOSEL
1070
     0
1002
}
1002
{
1000
BEHIND
1070
     0
1002
}
1002
{
1000
OTHER
1070
     0
1002
}
1002
{
1000
REACTOR
1002
}
  0
ARC
  5
2BAC
330
2BA2
100
AcDbEntity
  8
0
100
AcDbCircle
 10
162.9754188355865
 20
169.9956058148284
 30
0.0
 40
11.12776548995162
100
AcDbArc
 50
184.6355894237257
 51
225.354130651314
1001
GENIUS_GENOBJ-N-FIL_13
1002
{
1000
OWNER
1000
GEN
1002
}
1001
GENIUS_GENODEF_13
1002
{
1000
HIER
1070
     0
1002
}
1002
{
1000
MANEDIT
1070
     0
1002
}
1002
{
1000
NOSEL
1070
     0
1002
}
1002
{
1000
BEHIND
1070
     0
1002
}
1002
{
1000
OTHER
1070
     0
1002
}
1002
{
1000
REACTOR
1002
}
  0
LINE
  5
2BAD
330
2BA2
100
AcDbEntity
  8
0
  6
AM_DIN_F_W050
 62
     6
 48
4.0
100
AcDbLine
 10
366.4857946274381
 20
107.9387517266509
 30
0.0
 11
328.9948875187553
 21
107.9525321085919
 31
0.0
  0
ARC
  5
2BAE
330
2BA2
100
AcDbEntity
  8
0
  6
AM_DIN_F_W050
 62
     6
 48
4.0
100
AcDbCircle
 10
324.6746664411656
 20
292.7873431819228
 30
0.0
 40
184.8852933433949
100
AcDbArc
 50
240.0168046669468
 51
270.7842326473171
  0
ARC
  5
2BAF
330
2BA2
100
AcDbEntity
  8
0
  6
AM_DIN_F_W050
 62
     6
 48
4.0
100
AcDbCircle
 10
327.2736291892926
 20
102.9198366918944
 30
0.0
 40
5.0
100
AcDbArc
 50
51.17732147532817
 51
90.78423264731709
1001
GENIUS_GENODEF_13
1002
{
1000
HIER
1070
     0
1002
}
1002
{
1000
MANEDIT
1070
     0
1002
}
1002
{
1000
NOSEL
1070
     0
1002
}
1002
{
1000
BEHIND
1070
     0
1002
}
1002
{
1000
OTHER
1070
     0
1002
}
1002
{
1000
REACTOR
1002
}
1001
GENIUS_GENOBJ-N-FIL_13
1002
{
1000
OWNER
1000
GEN
1002
}
  0
ARC
  5
2BB0
330
2BA2
100
AcDbEntity
  8
0
  6
AM_DIN_F_W050
 62
     6
 48
4.0
100
AcDbCircle
 10
324.6746664411656
 20
292.7873431819228
 30
0.0
 40
193.7365580016737
100
AcDbArc
 50
240.0168046669468
 51
262.2704732321327
  0
ARC
  5
2BB1
330
2BA2
100
AcDbEntity
  8
0
  6
AM_DIN_F_W050
 62
     6
 48
4.0
100
AcDbCircle
 10
298.415962391913
 20
99.32470068473509
 30
0.0
 40
1.5
100
AcDbArc
 50
270.0
 51
82.2704732321325
1001
GENIUS_GENOBJ-N-FIL_13
1002
{
1000
OWNER
1000
GEN
1002
}
1001
GENIUS_GENODEF_13
1002
{
1000
HIER
1070
     0
1002
}
1002
{
1000
MANEDIT
1070
     0
1002
}
1002
{
1000
NOSEL
1070
     0
1002
}
1002
{
1000
BEHIND
1070
     0
1002
}
1002
{
1000
OTHER
1070
     0
1002
}
1002
{
1000
REACTOR
1002
}
  0
ARC
  5
2BB2
330
2BA2
100
AcDbEntity
  8
0
  6
AM_DIN_F_W050
 62
     6
 48
4.0
100
AcDbCircle
 10
298.7762575891217
 20
233.390081095037
 30
0.0
 40
120.7124001059592
100
AcDbArc
 50
197.3091639244275
 51
236.5730361873807
  0
ARC
  5
2BB3
330
2BA2
100
AcDbEntity
  8
0
  6
AM_DIN_F_W050
 62
     6
 48
4.0
100
AcDbCircle
 10
298.5290654539215
 20
233.1888584052421
 30
0.0
 40
129.2450933516911
100
AcDbArc
 50
197.3265216507092
 51
236.8510547679948
  0
ARC
  5
2BB4
330
2BA2
100
AcDbEntity
  8
0
  6
AM_DIN_F_W050
 62
     6
 48
4.0
100
AcDbCircle
 10
170.3756056182936
 20
193.2084154216733
 30
0.0
 40
5.0
100
AcDbArc
 50
17.32652165070922
 51
90.0
1001
GENIUS_GENODEF_13
1002
{
1000
HIER
1070
     0
1002
}
1002
{
1000
MANEDIT
1070
     0
1002
}
1002
{
1000
NOSEL
1070
     0
1002
}
1002
{
1000
BEHIND
1070
     0
1002
}
1002
{
1000
OTHER
1070
     0
1002
}
1002
{
1000
REACTOR
1002
}
1001
GENIUS_GENOBJ-N-FIL_13
1002
{
1000
OWNER
1000
GEN
1002
}
  0
ARC
  5
2BB5
330
2BA2
100
AcDbEntity
  8
0
  6
AM_DIN_F_W050
 62
     6
 48
4.0
100
AcDbCircle
 10
170.3350370238372
 20
192.1776727699692
 30
0.0
 40
14.21902975497416
100
AcDbArc
 50
21.87227852156606
 51
88.89715162821001
  0
LINE
  5
2BB6
330
2BA2
100
AcDbEntity
  8
0
  6
AM_DIN_F_W050
 62
     6
 48
4.0
100
AcDbLine
 10
159.9007041321842
 20
195.0923746694506
 30
0.0
 11
160.8416608411634
 21
170.7840386131906
 31
0.0
  0
ARC
  5
2BB7
330
2BA2
100
AcDbEntity
  8
0
  6
AM_DIN_F_W050
 62
     6
 48
4.0
100
AcDbCircle
 10
162.8984590494221
 20
195.2084154216733
 30
0.0
 40
3.0
100
AcDbArc
 50
90.0
 51
182.2167681264334
1001
GENIUS_GENOBJ-N-FIL_13
1002
{
1000
OWNER
1000
GEN
1002
}
1001
GENIUS_GENODEF_13
1002
{
1000
HIER
1070
     0
1002
}
1002
{
1000
MANEDIT
1070
     0
1002
}
1002
{
1000
NOSEL
1070
     0
1002
}
1002
{
1000
BEHIND
1070
     0
1002
}
1002
{
1000
OTHER
1070
     0
1002
}
1002
{
1000
REACTOR
1002
}
  0
LINE
  5
2BB8
330
2BA2
100
AcDbEntity
  8
0
  6
AM_DIN_F_W050
 62
     6
 48
4.0
100
AcDbLine
 10
170.3756056182936
 20
198.2084154216733
 30
0.0
 11
162.8984590494221
 21
198.2084154216733
 31
0.0
  0
LINE
  5
2BB9
330
2BA2
100
AcDbEntity
  8
0
  6
AM_DIN_F_W050
 62
     6
 48
4.0
100
AcDbLine
 10
330.4081903686411
 20
106.815286115635
 30
0.0
 11
343.3871184179351
 21
96.37149912537603
 31
0.0
  0
LINE
  5
2BBA
330
2BA2
100
AcDbEntity
  8
0
  6
AM_DIN_F_W050
 62
     6
 48
4.0
100
AcDbLine
 10
343.3871184179351
 20
96.37149912537603
 30
0.0
 11
366.1550654608542
 21
96.37149912537603
 31
0.0
  0
LINE
  5
2BBB
330
2BA2
100
AcDbEntity
  8
0
  6
AM_DIN_F_W050
 62
     6
 48
4.0
100
AcDbLine
 10
162.4099640507627
 20
167.1476314386908
 30
0.0
 11
229.2930885662601
 21
104.0296711229904
 31
0.0
  0
ARC
  5
2BBC
330
2BA2
100
AcDbEntity
  8
0
  6
AM_DIN_F_W050
 62
     6
 48
4.0
100
AcDbCircle
 10
165.8416608411634
 20
170.7840386131906
 30
0.0
 40
5.0
100
AcDbArc
 50
180.0
 51
226.6589686827682
1001
GENIUS_GENODEF_13
1002
{
1000
HIER
1070
     0
1002
}
1002
{
1000
MANEDIT
1070
     0
1002
}
1002
{
1000
NOSEL
1070
     0
1002
}
1002
{
1000
BEHIND
1070
     0
1002
}
1002
{
1000
OTHER
1070
     0
1002
}
1002
{
1000
REACTOR
1002
}
1001
GENIUS_GENOBJ-N-FIL_13
1002
{
1000
OWNER
1000
GEN
1002
}
  0
LINE
  5
2BBD
330
2BA2
100
AcDbEntity
  8
0
  6
AM_DIN_F_W050
 62
     6
 48
4.0
100
AcDbLine
 10
298.415962391913
 20
97.82470068473504
 30
0.0
 11
243.0118998550522
 21
97.82470068473504
 31
0.0
  0
ARC
  5
2BBE
330
2BA2
100
AcDbEntity
  8
0
  6
AM_DIN_F_W050
 62
     6
 48
4.0
100
AcDbCircle
 10
236.884865203258
 20
102.1566939399285
 30
0.0
 40
6.163630759715942
100
AcDbArc
 50
189.0886260167177
 51
303.2873920008539
  0
ARC
  5
2BBF
330
2BA2
100
AcDbEntity
  8
0
  6
AM_DIN_F_W050
 62
     6
 48
4.0
100
AcDbCircle
 10
243.0118998550522
 20
92.82470068473509
 30
0.0
 40
5.0
100
AcDbArc
 50
90.0
 51
123.2873920008538
1001
GENIUS_GENODEF_13
1002
{
1000
HIER
1070
     0
1002
}
1002
{
1000
MANEDIT
1070
     0
1002
}
1002
{
1000
NOSEL
1070
     0
1002
}
1002
{
1000
BEHIND
1070
     0
1002
}
1002
{
1000
OTHER
1070
     0
1002
}
1002
{
1000
REACTOR
1002
}
1001
GENIUS_GENOBJ-N-FIL_13
1002
{
1000
OWNER
1000
GEN
1002
}
  0
ARC
  5
2BC0
330
2BA2
100
AcDbEntity
  8
0
  6
AM_DIN_F_W050
 62
     6
 48
4.0
100
AcDbCircle
 10
225.8613917758594
 20
100.3932639484906
 30
0.0
 40
5.0
100
AcDbArc
 50
9.088626016717704
 51
46.65896868276813
1001
GENIUS_GENODEF_13
1002
{
1000
HIER
1070
     0
1002
}
1002
{
1000
MANEDIT
1070
     0
1002
}
1002
{
1000
NOSEL
1070
     0
1002
}
1002
{
1000
BEHIND
1070
     0
1002
}
1002
{
1000
OTHER
1070
     0
1002
}
1002
{
1000
REACTOR
1002
}
1001
GENIUS_GENOBJ-N-FIL_13
1002
{
1000
OWNER
1000
GEN
1002
}
  0
LINE
  5
2BC1
330
2BA2
100
AcDbEntity
  8
0
100
AcDbLine
 10
226.311207446332
 20
88.98521440500037
 30
0.0
 11
505.9989234753763
 21
88.98521440500037
 31
0.0
  0
LINE
  5
2BC2
330
2BA2
100
AcDbEntity
  8
0
  6
AM_DIN_F_W050
 62
     6
 48
4.0
100
AcDbLine
 10
331.5993807646805
 20
84.83921669506662
 30
0.0
 11
331.5993807646805
 21
87.67911913780386
 31
0.0
  0
ARC
  5
2BC3
330
2BA2
100
AcDbEntity
  8
0
  6
AM_DIN_F_W050
 62
     6
 48
4.0
100
AcDbCircle
 10
321.5993807646805
 20
87.67911913780386
 30
0.0
 40
10.0
100
AcDbArc
 50
0.0
 51
73.68822413827699
1001
GENIUS_GENODEF_13
1002
{
1000
HIER
1070
     0
1002
}
1002
{
1000
MANEDIT
1070
     0
1002
}
1002
{
1000
NOSEL
1070
     0
1002
}
1002
{
1000
BEHIND
1070
     0
1002
}
1002
{
1000
OTHER
1070
     0
1002
}
1002
{
1000
REACTOR
1002
}
1001
GENIUS_GENOBJ-N-FIL_13
1002
{
1000
OWNER
1000
GEN
1002
}
  0
LINE
  5
2BC4
330
2BA2
100
AcDbEntity
  8
0
  6
AM_DIN_F_W050
 62
     6
 48
4.0
100
AcDbLine
 10
324.4080204589865
 20
97.27659500740465
 30
0.0
 11
309.7113460181788
 21
99.00493501855402
 31
0.0
  0
ARC
  5
2BC5
330
2BA2
100
AcDbEntity
  8
0
  6
AM_DIN_F_W050
 62
     6
 48
4.0
100
AcDbCircle
 10
309.5361521855829
 20
97.51520110908552
 30
0.0
 40
1.5
100
AcDbArc
 50
83.29277999780783
 51
157.1232173371008
1001
GENIUS_GENODEF_13
1002
{
1000
HIER
1070
     0
1002
}
1002
{
1000
MANEDIT
1070
     0
1002
}
1002
{
1000
NOSEL
1070
     0
1002
}
1002
{
1000
BEHIND
1070
     0
1002
}
1002
{
1000
OTHER
1070
     0
1002
}
1002
{
1000
REACTOR
1002
}
1001
GENIUS_GENOBJ-N-FIL_13
1002
{
1000
OWNER
1000
GEN
1002
}
  0
LINE
  5
2BC6
330
2BA2
100
AcDbEntity
  8
0
  6
AM_DIN_F_W050
 62
     6
 48
4.0
100
AcDbLine
 10
306.0927172798943
 20
93.10458987567642
 30
0.0
 11
308.1541376700735
 21
98.09832706367979
 31
0.0
  0
ARC
  5
2BC7
330
2BA2
100
AcDbEntity
  8
0
  6
AM_DIN_F_W050
 62
     6
 48
4.0
100
AcDbCircle
 10
299.6433162075173
 20
95.82584433044962
 30
0.0
 40
7.0
100
AcDbArc
 50
282.2495301189741
 51
337.1232173371009
1001
GENIUS_GENOBJ-N-FIL_13
1002
{
1000
OWNER
1000
GEN
1002
}
1001
GENIUS_GENODEF_13
1002
{
1000
HIER
1070
     0
1002
}
1002
{
1000
MANEDIT
1070
     0
1002
}
1002
{
1000
NOSEL
1070
     0
1002
}
1002
{
1000
BEHIND
1070
     0
1002
}
1002
{
1000
OTHER
1070
     0
1002
}
1002
{
1000
REACTOR
1002
}
  0
LINE
  5
2BC8
330
2BA2
100
AcDbEntity
  8
0
  6
AM_DIN_F_W050
 62
     6
 48
4.0
100
AcDbLine
 10
107.3043710811224
 20
84.83921669506662
 30
0.0
 11
107.3043710811224
 21
-415.3740085591876
 31
0.0
  0
LINE
  5
2BC9
330
2BA2
100
AcDbEntity
  8
0
  6
AM_DIN_F_W050
 62
     6
 48
4.0
100
AcDbLine
 10
107.3043710811224
 20
-415.3740085591876
 30
0.0
 11
747.7110328361177
 21
-415.3740085591876
 31
0.0
  0
LINE
  5
2BCA
330
2BA2
100
AcDbEntity
  8
0
  6
AM_DIN_F_W050
 62
     6
 48
4.0
100
AcDbLine
 10
107.3043710811224
 20
68.6839557295201
 30
0.0
 11
747.7110328361177
 21
68.6839557295201
 31
0.0
  0
LINE
  5
2BCB
330
2BA2
100
AcDbEntity
  8
0
  6
AM_DIN_F_W050
 62
     6
 48
4.0
100
AcDbLine
 10
107.3043710811224
 20
-53.31376559414713
 30
0.0
 11
747.7110328361177
 21
-53.31376559414713
 31
0.0
  0
LINE
  5
2BCC
330
2BA2
100
AcDbEntity
  8
0
  6
AM_DIN_F_W050
 62
     6
 48
4.0
100
AcDbLine
 10
123.3033945146226
 20
68.68671180590832
 30
0.0
 11
123.3033945146226
 21
-53.31376559414713
 31
0.0
  0
LINE
  5
2BCD
330
2BA2
100
AcDbEntity
  8
0
  6
AM_DIN_F_W050
 62
     6
 48
4.0
100
AcDbLine
 10
599.8014412704982
 20
68.6839557295201
 30
0.0
 11
599.8014412704982
 21
-53.31100951775892
 31
0.0
  0
LINE
  5
2BCE
330
2BA2
100
AcDbEntity
  8
0
  6
AM_DIN_F_W050
 62
     6
 48
4.0
100
AcDbLine
 10
613.9125523780815
 20
68.69498003507295
 30
0.0
 11
613.9125523780815
 21
-53.30549736498253
 31
0.0
  0
LINE
  5
2BCF
330
2BA2
100
AcDbEntity
  8
0
  6
AM_DIN_F_W050
 62
     6
 48
4.0
100
AcDbLine
 10
343.3871184179351
 20
96.37149912537603
 30
0.0
 11
343.3871184179351
 21
84.83921669506662
 31
0.0
  0
LINE
  5
2BD0
330
2BA2
100
AcDbEntity
  8
0
  6
AM_DIN_F_W050
 62
     6
 48
4.0
100
AcDbLine
 10
234.0816528994383
 20
84.83921669506662
 30
0.0
 11
107.3043710811224
 21
84.83921669506662
 31
0.0
  0
LINE
  5
2BD1
330
2BA2
100
AcDbEntity
  8
0
100
AcDbLine
 10
498.2284780222701
 20
84.83921669506662
 30
0.0
 11
505.9989234753763
 21
88.92677735245502
 31
0.0
  0
LINE
  5
2BD2
330
2BA2
100
AcDbEntity
  8
0
100
AcDbLine
 10
505.9989234753763
 20
88.92677735245502
 30
0.0
 11
505.9989234753763
 21
90.28275374637791
 31
0.0
  0
LINE
  5
2BD3
330
2BA2
100
AcDbEntity
  8
0
100
AcDbLine
 10
509.11675574954
 20
97.53780491046065
 30
0.0
 11
577.1544472259115
 21
162.0786046690097
 31
0.0
  0
ARC
  5
2BD4
330
2BA2
100
AcDbEntity
  8
0
100
AcDbCircle
 10
515.9989234753764
 20
90.28275374637791
 30
0.0
 40
10.0
100
AcDbArc
 50
133.4891162061931
 51
180.0
1001
GENIUS_GENOBJ-N-FIL_13
1002
{
1000
OWNER
1000
GEN
1002
}
1001
GENIUS_GENODEF_13
1002
{
1000
HIER
1070
     0
1002
}
1002
{
1000
MANEDIT
1070
     0
1002
}
1002
{
1000
NOSEL
1070
     0
1002
}
1002
{
1000
BEHIND
1070
     0
1002
}
1002
{
1000
OTHER
1070
     0
1002
}
1002
{
1000
REACTOR
1002
}
  0
LINE
  5
2BD5
330
2BA2
100
AcDbEntity
  8
0
100
AcDbLine
 10
581.1550665822486
 20
199.2279064312821
 30
0.0
 11
580.4260772129237
 21
169.0962813887601
 31
0.0
  0
ARC
  5
2BD6
330
2BA2
100
AcDbEntity
  8
0
100
AcDbCircle
 10
574.1570389920732
 20
199.3940685423147
 30
0.0
 40
7.0
100
AcDbArc
 50
358.6398168609307
 51
90.0
1001
GENIUS_GENOBJ-N-FIL_13
1002
{
1000
OWNER
1000
GEN
1002
}
1001
GENIUS_GENODEF_13
1002
{
1000
HIER
1070
     0
1002
}
1002
{
1000
MANEDIT
1070
     0
1002
}
1002
{
1000
NOSEL
1070
     0
1002
}
1002
{
1000
BEHIND
1070
     0
1002
}
1002
{
1000
OTHER
1070
     0
1002
}
1002
{
1000
REACTOR
1002
}
  0
ARC
  5
2BD7
330
2BA2
100
AcDbEntity
  8
0
100
AcDbCircle
 10
569.3347120861219
 20
169.9956058148284
 30
0.0
 40
11.12776548995162
100
AcDbArc
 50
314.645869348686
 51
355.3644105762742
1001
GENIUS_GENOBJ-N-FIL_13
1002
{
1000
OWNER
1000
GEN
1002
}
1001
GENIUS_GENODEF_13
1002
{
1000
HIER
1070
     0
1002
}
1002
{
1000
MANEDIT
1070
     0
1002
}
1002
{
1000
NOSEL
1070
     0
1002
}
1002
{
1000
BEHIND
1070
     0
1002
}
1002
{
1000
OTHER
1070
     0
1002
}
1002
{
1000
REACTOR
1002
}
  0
LINE
  5
2BD8
330
2BA2
100
AcDbEntity
  8
0
  6
AM_DIN_F_W050
 62
     6
 48
4.0
100
AcDbLine
 10
498.2284780222701
 20
84.83921669506662
 30
0.0
 11
625.005759840586
 21
84.83921669506662
 31
0.0
  0
ENDBLK
  5
2BDC
330
2BA2
100
AcDbEntity
  8
0
100
AcDbBlockEnd
  0
BLOCK
  5
3376
330
3375
100
AcDbEntity
  8
0
100
AcDbBlockBegin
  2
block 2
 70
     0
 10
0.0
 20
0.0
 30
0.0
  3
block 2
  1

  0
POLYLINE
  5
3377
330
3375
100
AcDbEntity
  8
0
 62
   250
420
  1842203
370
     9
100
AcDb2dPolyline
 66
     1
 10
0.0
 20
0.0
 30
0.0
  0
VERTEX
  5
3378
330
3377
100
AcDbEntity
  8
0
 62
   250
420
  1842203
370
     9
100
AcDbVertex
100
AcDb2dVertex
 10
-474.298697798092
 20
220.0726995977596
 30
0.0
  0
VERTEX
  5
3379
330
3377
100
AcDbEntity
  8
0
 62
   250
420
  1842203
370
     9
100
AcDbVertex
100
AcDb2dVertex
 10
-474.298697798092
 20
-156.0573133290412
 30
0.0
  0
VERTEX
  5
337A
330
3377
100
AcDbEntity
  8
0
 62
   250
420
  1842203
370
     9
100
AcDbVertex
100
AcDb2dVertex
 10
14.54657117691891
 20
-156.0573133290412
 30
0.0
  0
SEQEND
  5
337B
330
3377
100
AcDbEntity
  8
0
370
     9
  0
POLYLINE
  5
337C
330
3375
100
AcDbEntity
  8
0
 62
   250
420
  1842203
370
     9
100
AcDb2dPolyline
 66
     1
 10
0.0
 20
0.0
 30
0.0
  0
VERTEX
  5
337D
330
337C
100
AcDbEntity
  8
0
 62
   250
420
  1842203
370
     9
100
AcDbVertex
100
AcDb2dVertex
 10
-474.298697798092
 20
33.56074217910982
 30
0.0
  0
VERTEX
  5
337E
330
337C
100
AcDbEntity
  8
0
 62
   250
420
  1842203
370
     9
100
AcDbVertex
100
AcDb2dVertex
 10
29.57545572177281
 20
33.56074217910982
 30
0.0
  0
SEQEND
  5
337F
330
337C
100
AcDbEntity
  8
0
370
     9
  0
POLYLINE
  5
3380
330
3375
100
AcDbEntity
  8
0
 62
   250
420
  1842203
370
     9
100
AcDb2dPolyline
 66
     1
 10
0.0
 20
0.0
 30
0.0
  0
VERTEX
  5
3381
330
3380
100
AcDbEntity
  8
0
 62
   250
420
  1842203
370
     9
100
AcDbVertex
100
AcDb2dVertex
 10
704.4586369766631
 20
220.078211750536
 30
0.0
  0
VERTEX
  5
3382
330
3380
100
AcDbEntity
  8
0
 62
   250
420
  1842203
370
     9
100
AcDbVertex
100
AcDb2dVertex
 10
704.4586369766631
 20
-156.054557252653
 30
0.0
  0
VERTEX
  5
3383
330
3380
100
AcDbEntity
  8
0
 62
   250
420
  1842203
370
     9
100
AcDbVertex
100
AcDb2dVertex
 10
216.9583332790938
 20
-156.054557252653
 30
0.0
  0
SEQEND
  5
3384
330
3380
100
AcDbEntity
  8
0
370
     9
  0
POLYLINE
  5
3385
330
3375
100
AcDbEntity
  8
0
 62
   250
420
  1842203
370
     9
100
AcDb2dPolyline
 66
     1
 10
0.0
 20
0.0
 30
0.0
  0
VERTEX
  5
3386
330
3385
100
AcDbEntity
  8
0
 62
   250
420
  1842203
370
     9
100
AcDbVertex
100
AcDb2dVertex
 10
704.4586369766631
 20
33.56349825549802
 30
0.0
  0
VERTEX
  5
3387
330
3385
100
AcDbEntity
  8
0
 62
   250
420
  1842203
370
     9
100
AcDbVertex
100
AcDb2dVertex
 10
201.4636718246341
 20
33.56349825549802
 30
0.0
  0
SEQEND
  5
3388
330
3385
100
AcDbEntity
  8
0
370
     9
  0
POLYLINE
  5
3389
330
3375
100
AcDbEntity
  8
0
 62
   250
420
  1842203
370
     9
100
AcDb2dPolyline
 66
     1
 10
0.0
 20
0.0
 30
0.0
  0
VERTEX
  5
338A
330
3389
100
AcDbEntity
  8
0
 62
   250
420
  1842203
370
     9
100
AcDbVertex
100
AcDb2dVertex
 10
225.8742403949204
 20
252.2140624369465
 30
0.0
  0
VERTEX
  5
338B
330
3389
100
AcDbEntity
  8
0
 62
   250
420
  1842203
370
     9
100
AcDbVertex
100
AcDb2dVertex
 10
285.8740233660315
 20
252.2140624369465
 30
0.0
  0
SEQEND
  5
338C
330
3389
100
AcDbEntity
  8
0
370
     9
  0
POLYLINE
  5
338D
330
3375
100
AcDbEntity
  8
0
 62
   250
420
  1842203
370
     9
100
AcDb2dPolyline
 66
     1
 10
0.0
 20
0.0
 30
0.0
  0
VERTEX
  5
338E
330
338D
100
AcDbEntity
  8
0
 62
   250
420
  1842203
370
     9
100
AcDbVertex
100
AcDb2dVertex
 10
255.8741318804759
 20
222.2141709513909
 30
0.0
  0
VERTEX
  5
338F
330
338D
100
AcDbEntity
  8
0
 62
   250
420
  1842203
370
     9
100
AcDbVertex
100
AcDb2dVertex
 10
255.8741318804759
 20
282.2139539225021
 30
0.0
  0
SEQEND
  5
3390
330
338D
100
AcDbEntity
  8
0
370
     9
  0
SPLINE
  5
3391
330
3375
100
AcDbEntity
  8
0
 62
   250
420
  1842203
370
     9
100
AcDbSpline
210
0.0
220
0.0
230
1.0
 70
    11
 71
     3
 72
    26
 73
    22
 74
     0
 42
0.0000000001
 43
0.0000000001
 40
0.0
 40
0.0
 40
0.0
 40
0.0
 40
1.0
 40
1.0
 40
1.0
 40
2.0
 40
2.0
 40
2.0
 40
3.0
 40
3.0
 40
3.0
 40
4.0
 40
4.0
 40
4.0
 40
5.0
 40
5.0
 40
5.0
 40
6.0
 40
6.0
 40
6.0
 40
7.0
 40
7.0
 40
7.0
 40
7.0
 10
250.8746093122814
 20
242.2122612241692
 30
0.0
 10
245.3514322303288
 20
242.2122612241692
 30
0.0
 10
240.8755641758922
 20
246.690885354994
 30
0.0
 10
240.8755641758922
 20
252.2140624369465
 30
0.0
 10
240.8755641758922
 20
257.7372395188991
 30
0.0
 10
245.3514322303288
 20
262.2131075733356
 30
0.0
 10
250.8746093122814
 20
262.2131075733356
 30
0.0
 10
250.8746093122814
 20
262.2131075733356
 30
0.0
 10
260.8764105250587
 20
262.2131075733356
 30
0.0
 10
260.8764105250587
 20
262.2131075733356
 30
0.0
 10
266.3995876070112
 20
262.2131075733356
 30
0.0
 10
270.8726995850596
 20
257.7372395188991
 30
0.0
 10
270.8726995850596
 20
252.2140624369465
 30
0.0
 10
270.8726995850596
 20
246.690885354994
 30
0.0
 10
266.3995876070112
 20
242.2122612241692
 30
0.0
 10
260.8764105250587
 20
242.2122612241692
 30
0.0
 10
255.3504773667179
 20
242.2122612241692
 30
0.0
 10
256.3977863942339
 20
242.2122612241692
 30
0.0
 10
250.8746093122814
 20
242.2122612241692
 30
0.0
 10
250.8746093122814
 20
242.2122612241692
 30
0.0
 10
250.8746093122814
 20
242.2122612241692
 30
0.0
 10
250.8746093122814
 20
242.2122612241692
 30
0.0
  0
POLYLINE
  5
3392
330
3375
100
AcDbEntity
  8
0
 62
   250
420
  1842203
370
     9
100
AcDb2dPolyline
 66
     1
 10
0.0
 20
0.0
 30
0.0
  0
VERTEX
  5
3393
330
3392
100
AcDbEntity
  8
0
 62
   250
420
  1842203
370
     9
100
AcDbVertex
100
AcDb2dVertex
 10
-54.12658418785724
 20
252.2140624369465
 30
0.0
  0
VERTEX
  5
3394
330
3392
100
AcDbEntity
  8
0
 62
   250
420
  1842203
370
     9
100
AcDbVertex
100
AcDb2dVertex
 10
5.873198783253922
 20
252.2140624369465
 30
0.0
  0
SEQEND
  5
3395
330
3392
100
AcDbEntity
  8
0
370
     9
  0
POLYLINE
  5
3396
330
3375
100
AcDbEntity
  8
0
 62
   250
420
  1842203
370
     9
100
AcDb2dPolyline
 66
     1
 10
0.0
 20
0.0
 30
0.0
  0
VERTEX
  5
3397
330
3396
100
AcDbEntity
  8
0
 62
   250
420
  1842203
370
     9
100
AcDbVertex
100
AcDb2dVertex
 10
-24.12669270230166
 20
222.2141709513909
 30
0.0
  0
VERTEX
  5
3398
330
3396
100
AcDbEntity
  8
0
 62
   250
420
  1842203
370
     9
100
AcDbVertex
100
AcDb2dVertex
 10
-24.12669270230166
 20
282.2139539225021
 30
0.0
  0
SEQEND
  5
3399
330
3396
100
AcDbEntity
  8
0
370
     9
  0
SPLINE
  5
339A
330
3375
100
AcDbEntity
  8
0
 62
   250
420
  1842203
370
     9
100
AcDbSpline
210
0.0
220
0.0
230
1.0
 70
    11
 71
     3
 72
    26
 73
    22
 74
     0
 42
0.0000000001
 43
0.0000000001
 40
0.0
 40
0.0
 40
0.0
 40
0.0
 40
1.0
 40
1.0
 40
1.0
 40
2.0
 40
2.0
 40
2.0
 40
3.0
 40
3.0
 40
3.0
 40
4.0
 40
4.0
 40
4.0
 40
5.0
 40
5.0
 40
5.0
 40
6.0
 40
6.0
 40
6.0
 40
7.0
 40
7.0
 40
7.0
 40
7.0
 10
-29.12621527049623
 20
242.2122612241692
 30
0.0
 10
-34.64939235244877
 20
242.2122612241692
 30
0.0
 10
-39.12526040688535
 20
246.690885354994
 30
0.0
 10
-39.12526040688535
 20
252.2140624369465
 30
0.0
 10
-39.12526040688535
 20
257.7372395188991
 30
0.0
 10
-34.64939235244877
 20
262.2131075733356
 30
0.0
 10
-29.12621527049623
 20
262.2131075733356
 30
0.0
 10
-29.12621527049623
 20
262.2131075733356
 30
0.0
 10
-19.1244140577189
 20
262.2131075733356
 30
0.0
 10
-19.1244140577189
 20
262.2131075733356
 30
0.0
 10
-13.60399305215455
 20
262.2131075733356
 30
0.0
 10
-9.125368921329769
 20
257.7372395188991
 30
0.0
 10
-9.125368921329769
 20
252.2140624369465
 30
0.0
 10
-9.125368921329769
 20
246.690885354994
 30
0.0
 10
-13.60399305215455
 20
242.2122612241692
 30
0.0
 10
-19.1244140577189
 20
242.2122612241692
 30
0.0
 10
-24.64759113967144
 20
242.2122612241692
 30
0.0
 10
-23.60303818854369
 20
242.2122612241692
 30
0.0
 10
-29.12621527049623
 20
242.2122612241692
 30
0.0
 10
-29.12621527049623
 20
242.2122612241692
 30
0.0
 10
-29.12621527049623
 20
242.2122612241692
 30
0.0
 10
-29.12621527049623
 20
242.2122612241692
 30
0.0
  0
SPLINE
  5
339B
330
3375
100
AcDbEntity
  8
0
 62
   250
420
  1842203
370
     9
100
AcDbSpline
210
0.0
220
0.0
230
1.0
 70
     8
 71
     3
 72
    20
 73
    16
 74
     0
 42
0.0000000001
 43
0.0000000001
 40
0.0
 40
0.0
 40
0.0
 40
0.0
 40
1.0
 40
1.0
 40
1.0
 40
2.0
 40
2.0
 40
2.0
 40
3.0
 40
3.0
 40
3.0
 40
4.0
 40
4.0
 40
4.0
 40
5.0
 40
5.0
 40
5.0
 40
5.0
 10
115.5181857350093
 20
313.3934461022072
 30
0.0
 10
115.5181857350093
 20
313.3934461022072
 30
0.0
 10
-478.5265189775905
 20
313.3934461022072
 30
0.0
 10
-478.5265189775905
 20
313.3934461022072
 30
0.0
 10
-483.2917750527881
 20
313.3934461022072
 30
0.0
 10
-485.7281465799569
 20
310.2156900266128
 30
0.0
 10
-485.6179035244288
 20
306.3075737081454
 30
0.0
 10
-484.6394964066178
 20
271.5341579182276
 30
0.0
 10
-484.1516708859065
 20
259.3853731990425
 30
0.0
 10
-482.4373913724462
 20
223.457161402469
 30
0.0
 10
-482.4373913724462
 20
223.457161402469
 30
0.0
 10
-482.2995875530362
 20
218.8131726883522
 30
0.0
 10
-477.5508679361678
 20
218.8131726883522
 30
0.0
 10
-477.5508679361678
 20
218.8131726883522
 30
0.0
 10
115.5181857350093
 20
218.8131726883522
 30
0.0
 10
115.5181857350093
 20
218.8131726883522
 30
0.0
  0
SPLINE
  5
339C
330
3375
100
AcDbEntity
  8
0
 62
   250
420
  1842203
370
     9
100
AcDbSpline
210
0.0
220
0.0
230
1.0
 70
     8
 71
     3
 72
    23
 73
    19
 74
     0
 42
0.0000000001
 43
0.0000000001
 40
0.0
 40
0.0
 40
0.0
 40
0.0
 40
1.0
 40
1.0
 40
1.0
 40
2.0
 40
2.0
 40
2.0
 40
3.0
 40
3.0
 40
3.0
 40
4.0
 40
4.0
 40
4.0
 40
5.0
 40
5.0
 40
5.0
 40
6.0
 40
6.0
 40
6.0
 40
6.0
 10
115.5181857350093
 20
147.4004773937054
 30
0.0
 10
115.5181857350093
 20
147.4004773937054
 30
0.0
 10
84.25049911088182
 20
147.4004773937054
 30
0.0
 10
84.25049911088182
 20
147.4004773937054
 30
0.0
 10
81.54127602128134
 20
147.4004773937054
 30
0.0
 10
79.68092445924644
 20
147.835937463041
 30
0.0
 10
79.59273001482404
 20
149.8947265250263
 30
0.0
 10
79.05253904273687
 20
162.3962890219009
 30
0.0
 10
78.92851560526787
 20
165.292925305899
 30
0.0
 10
78.3965928623453
 20
177.5988063792114
 30
0.0
 10
78.29737411237011
 20
181.2450954407998
 30
0.0
 10
74.72274303687488
 20
184.7949218288013
 30
0.0
 10
71.9087890445228
 20
184.874848044059
 30
0.0
 10
-21.35683593216079
 20
187.5206813767309
 30
0.0
 10
-311.2850476652343
 20
197.5996527283778
 30
0.0
 10
-361.4621743888012
 20
201.4609157482459
 30
0.0
 10
-382.9678384459247
 20
203.6630207824176
 30
0.0
 10
-398.4046222962322
 20
203.1834634908708
 30
0.0
 10
-419.141341041048
 20
218.8131726883522
 30
0.0
  0
SPLINE
  5
339D
330
3375
100
AcDbEntity
  8
0
 62
   250
420
  1842203
370
     9
100
AcDbSpline
210
0.0
220
0.0
230
1.0
 70
     8
 71
     3
 72
    23
 73
    19
 74
     0
 42
0.0000000001
 43
0.0000000001
 40
0.0
 40
0.0
 40
0.0
 40
0.0
 40
1.0
 40
1.0
 40
1.0
 40
2.0
 40
2.0
 40
2.0
 40
3.0
 40
3.0
 40
3.0
 40
4.0
 40
4.0
 40
4.0
 40
5.0
 40
5.0
 40
5.0
 40
6.0
 40
6.0
 40
6.0
 40
6.0
 10
-374.5342446980331
 20
202.7094183521005
 30
0.0
 10
-364.9238063323802
 20
200.9896266858637
 30
0.0
 10
-359.9904295975024
 20
201.3506726927179
 30
0.0
 10
-358.3836370631819
 20
192.7875433545809
 30
0.0
 10
-355.9693141471188
 20
179.9056423161347
 30
0.0
 10
-354.7015190085469
 20
173.1560112414332
 30
0.0
 10
-352.5958766479622
 20
158.9704860713685
 30
0.0
 10
-351.2040580719212
 20
150.4790147193247
 30
0.0
 10
-349.9831162319487
 20
145.7358072552327
 30
0.0
 10
-340.3809460954603
 20
145.5731987483289
 30
0.0
 10
-313.941905303459
 20
145.1294704498287
 30
0.0
 10
-306.5694009650243
 20
145.3499565608847
 30
0.0
 10
-286.4776040950473
 20
145.0523003109591
 30
0.0
 10
-283.2777994083472
 20
144.8290581235149
 30
0.0
 10
-280.9571830894829
 20
146.4000216647889
 30
0.0
 10
-278.0467664235439
 20
147.505208296457
 30
0.0
 10
-252.4069877841205
 20
157.2617187106846
 30
0.0
 10
-190.9519964800398
 20
176.862933983562
 30
0.0
 10
-143.2663628114056
 20
192.0654513408725
 30
0.0
  0
SPLINE
  5
339E
330
3375
100
AcDbEntity
  8
0
 62
   250
420
  1842203
370
     9
100
AcDbSpline
210
0.0
220
0.0
230
1.0
 70
     8
 71
     3
 72
    11
 73
     7
 74
     0
 42
0.0000000001
 43
0.0000000001
 40
0.0
 40
0.0
 40
0.0
 40
0.0
 40
1.0
 40
1.0
 40
1.0
 40
2.0
 40
2.0
 40
2.0
 40
2.0
 10
-308.8789929783358
 20
145.4712239219655
 30
0.0
 10
-300.9359808275438
 20
145.4712239219655
 30
0.0
 10
-300.3075954110343
 20
167.5032985692353
 30
0.0
 10
-298.8082898558535
 20
187.3084634948396
 30
0.0
 10
-298.2295138143316
 20
194.9593315484824
 30
0.0
 10
-298.9626301335927
 20
197.2220702631945
 30
0.0
 10
-291.89329419786
 20
197.2220702631945
 30
0.0
  0
SPLINE
  5
339F
330
3375
100
AcDbEntity
  8
0
 62
   250
420
  1842203
370
     9
100
AcDbSpline
210
0.0
220
0.0
230
1.0
 70
     8
 71
     3
 72
    17
 73
    13
 74
     0
 42
0.0000000001
 43
0.0000000001
 40
0.0
 40
0.0
 40
0.0
 40
0.0
 40
1.0
 40
1.0
 40
1.0
 40
2.0
 40
2.0
 40
2.0
 40
3.0
 40
3.0
 40
3.0
 40
4.0
 40
4.0
 40
4.0
 40
4.0
 10
115.4547959780807
 20
193.8844617570844
 30
0.0
 10
100.1475477180187
 20
193.8320963057086
 30
0.0
 10
91.50173608823569
 20
193.3056857155625
 30
0.0
 10
76.2027560573382
 20
193.8844617570844
 30
0.0
 10
-48.03841144632373
 20
198.5753037698006
 30
0.0
 10
-224.0028645273326
 20
204.5008680044304
 30
0.0
 10
-367.390494699819
 20
212.2151258150018
 30
0.0
 10
-419.7917750686632
 20
217.2945745984542
 30
0.0
 10
-439.4150389526463
 20
245.9577690357328
 30
0.0
 10
-460.2620007529901
 20
307.0434461037947
 30
0.0
 10
-461.4829425929626
 20
310.6208332556781
 30
0.0
 10
-463.4397568285844
 20
313.3934461022072
 30
0.0
 10
-467.5931639456017
 20
313.3934461022072
 30
0.0
  0
POLYLINE
  5
33A0
330
3375
100
AcDbEntity
  8
0
 62
   250
420
  1842203
370
     9
100
AcDb2dPolyline
 66
     1
 10
0.0
 20
0.0
 30
0.0
  0
VERTEX
  5
33A1
330
33A0
100
AcDbEntity
  8
0
 62
   250
420
  1842203
370
     9
100
AcDbVertex
100
AcDb2dVertex
 10
91.2592013660741
 20
146.9595051715934
 30
0.0
  0
VERTEX
  5
33A2
330
33A0
100
AcDbEntity
  8
0
 62
   250
420
  1842203
370
     9
100
AcDbVertex
100
AcDb2dVertex
 10
91.2592013660741
 20
182.6424261696172
 30
0.0
  0
VERTEX
  5
33A3
330
33A0
100
AcDbEntity
  8
0
 62
   250
420
  1842203
370
     9
100
AcDbVertex
100
AcDb2dVertex
 10
77.08470050156217
 20
193.6391709585346
 30
0.0
  0
SEQEND
  5
33A4
330
33A0
100
AcDbEntity
  8
0
370
     9
  0
POLYLINE
  5
33A5
330
3375
100
AcDbEntity
  8
0
 62
   250
420
  1842203
370
     9
100
AcDb2dPolyline
 66
     1
 10
0.0
 20
0.0
 30
0.0
  0
VERTEX
  5
33A6
330
33A5
100
AcDbEntity
  8
0
 62
   250
420
  1842203
370
     9
100
AcDbVertex
100
AcDb2dVertex
 10
91.2592013660741
 20
182.6424261696172
 30
0.0
  0
VERTEX
  5
33A7
330
33A5
100
AcDbEntity
  8
0
 62
   250
420
  1842203
370
     9
100
AcDbVertex
100
AcDb2dVertex
 10
115.4547959780807
 20
182.6424261696172
 30
0.0
  0
SEQEND
  5
33A8
330
33A5
100
AcDbEntity
  8
0
370
     9
  0
SPLINE
  5
33A9
330
3375
100
AcDbEntity
  8
0
 62
   250
420
  1842203
370
     9
100
AcDbSpline
210
0.0
220
0.0
230
1.0
 70
     8
 71
     3
 72
    20
 73
    16
 74
     0
 42
0.0000000001
 43
0.0000000001
 40
0.0
 40
0.0
 40
0.0
 40
0.0
 40
1.0
 40
1.0
 40
1.0
 40
2.0
 40
2.0
 40
2.0
 40
3.0
 40
3.0
 40
3.0
 40
4.0
 40
4.0
 40
4.0
 40
5.0
 40
5.0
 40
5.0
 40
5.0
 10
115.5181857350093
 20
313.3989582549836
 30
0.0
 10
115.5181857350093
 20
313.3989582549836
 30
0.0
 10
709.5656465239975
 20
313.3989582549836
 30
0.0
 10
709.5656465239975
 20
313.3989582549836
 30
0.0
 10
714.330902599195
 20
313.3989582549836
 30
0.0
 10
716.7617619735873
 20
310.218446103001
 30
0.0
 10
716.6515189180594
 20
306.3103297845336
 30
0.0
 10
715.6731118002483
 20
271.5369139946158
 30
0.0
 10
715.1880423559252
 20
259.390885351819
 30
0.0
 10
713.4765189188531
 20
223.4599174788573
 30
0.0
 10
713.4765189188531
 20
223.4599174788573
 30
0.0
 10
713.3387150994431
 20
218.8214409175169
 30
0.0
 10
708.5872394061865
 20
218.8214409175169
 30
0.0
 10
708.5872394061865
 20
218.8214409175169
 30
0.0
 10
115.5181857350093
 20
218.8214409175169
 30
0.0
 10
115.5181857350093
 20
218.8214409175169
 30
0.0
  0
SPLINE
  5
33AA
330
3375
100
AcDbEntity
  8
0
 62
   250
420
  1842203
370
     9
100
AcDbSpline
210
0.0
220
0.0
230
1.0
 70
     8
 71
     3
 72
    23
 73
    19
 74
     0
 42
0.0000000001
 43
0.0000000001
 40
0.0
 40
0.0
 40
0.0
 40
0.0
 40
1.0
 40
1.0
 40
1.0
 40
2.0
 40
2.0
 40
2.0
 40
3.0
 40
3.0
 40
3.0
 40
4.0
 40
4.0
 40
4.0
 40
5.0
 40
5.0
 40
5.0
 40
6.0
 40
6.0
 40
6.0
 40
6.0
 10
115.5181857350093
 20
147.4032334700936
 30
0.0
 10
115.5181857350093
 20
147.4032334700936
 30
0.0
 10
146.7858723591368
 20
147.4032334700936
 30
0.0
 10
146.7858723591368
 20
147.4032334700936
 30
0.0
 10
149.4950954487373
 20
147.4032334700936
 30
0.0
 10
151.3554470107722
 20
147.8414496158174
 30
0.0
 10
151.4436414551946
 20
149.8974826014145
 30
0.0
 10
151.9838324272818
 20
162.3990450982891
 30
0.0
 10
152.110611941139
 20
165.2984374586754
 30
0.0
 10
152.6397786076734
 20
177.6015624555996
 30
0.0
 10
152.7389973576486
 20
181.247851517188
 30
0.0
 10
156.3136284331438
 20
184.8004339815777
 30
0.0
 10
159.1303385018841
 20
184.8776041204472
 30
0.0
 10
252.3959634785677
 20
187.5234374531191
 30
0.0
 10
542.3241752116411
 20
197.602408804766
 30
0.0
 10
592.4985458588198
 20
201.4636718246341
 30
0.0
 10
614.0042099159434
 20
203.6657768588058
 30
0.0
 10
629.4437498426391
 20
203.186219567259
 30
0.0
 10
650.1804685874549
 20
218.8214409175169
 30
0.0
  0
SPLINE
  5
33AB
330
3375
100
AcDbEntity
  8
0
 62
   250
420
  1842203
370
     9
100
AcDbSpline
210
0.0
220
0.0
230
1.0
 70
     8
 71
     3
 72
    23
 73
    19
 74
     0
 42
0.0000000001
 43
0.0000000001
 40
0.0
 40
0.0
 40
0.0
 40
0.0
 40
1.0
 40
1.0
 40
1.0
 40
2.0
 40
2.0
 40
2.0
 40
3.0
 40
3.0
 40
3.0
 40
4.0
 40
4.0
 40
4.0
 40
5.0
 40
5.0
 40
5.0
 40
6.0
 40
6.0
 40
6.0
 40
6.0
 10
605.5706161680518
 20
202.7149305048769
 30
0.0
 10
595.9601778023989
 20
200.9923827622519
 30
0.0
 10
591.0268010675211
 20
201.3534287691061
 30
0.0
 10
589.4200085332005
 20
192.7930555073573
 30
0.0
 10
587.0056856171374
 20
179.9083983925229
 30
0.0
 10
585.7378904785655
 20
173.1587673178214
 30
0.0
 10
583.6294920415927
 20
158.9787543005331
 30
0.0
 10
582.243185618328
 20
150.4817707957129
 30
0.0
 10
581.0194877019673
 20
145.7385633316209
 30
0.0
 10
571.4200736418672
 20
145.5759548247171
 30
0.0
 10
544.9810328498658
 20
145.1322265262169
 30
0.0
 10
537.6030163586547
 20
145.3527126372729
 30
0.0
 10
517.5139755650659
 20
145.0578124637355
 30
0.0
 10
514.3141708783658
 20
144.8318141999031
 30
0.0
 10
511.9963106358897
 20
146.4027777411771
 30
0.0
 10
509.0803818171743
 20
147.5107204492334
 30
0.0
 10
483.4433592541391
 20
157.2699869398492
 30
0.0
 10
421.9883679500584
 20
176.8656900599502
 30
0.0
 10
374.3054903578125
 20
192.0682074172607
 30
0.0
  0
SPLINE
  5
33AC
330
3375
100
AcDbEntity
  8
0
 62
   250
420
  1842203
370
     9
100
AcDbSpline
210
0.0
220
0.0
230
1.0
 70
     8
 71
     3
 72
    11
 73
     7
 74
     0
 42
0.0000000001
 43
0.0000000001
 40
0.0
 40
0.0
 40
0.0
 40
0.0
 40
1.0
 40
1.0
 40
1.0
 40
2.0
 40
2.0
 40
2.0
 40
2.0
 10
539.9181205247426
 20
145.4739799983537
 30
0.0
 10
531.9751083739507
 20
145.4739799983537
 30
0.0
 10
531.3439668810529
 20
167.5060546456235
 30
0.0
 10
529.8446613258721
 20
187.3112195712277
 30
0.0
 10
529.263129207962
 20
194.9620876248706
 30
0.0
 10
529.9990016036113
 20
197.2248263395827
 30
0.0
 10
522.9324217442669
 20
197.2248263395827
 30
0.0
  0
POLYLINE
  5
33AD
330
3375
100
AcDbEntity
  8
0
 62
   250
420
  1842203
370
     9
100
AcDb2dPolyline
 66
     1
 10
0.0
 20
0.0
 30
0.0
  0
VERTEX
  5
33AE
330
33AD
100
AcDbEntity
  8
0
 62
   250
420
  1842203
370
     9
100
AcDbVertex
100
AcDb2dVertex
 10
449.7806422486659
 20
251.5636284093313
 30
0.0
  0
VERTEX
  5
33AF
330
33AD
100
AcDbEntity
  8
0
 62
   250
420
  1842203
370
     9
100
AcDbVertex
100
AcDb2dVertex
 10
509.7804252197772
 20
251.5636284093313
 30
0.0
  0
SEQEND
  5
33B0
330
33AD
100
AcDbEntity
  8
0
370
     9
  0
POLYLINE
  5
33B1
330
3375
100
AcDbEntity
  8
0
 62
   250
420
  1842203
370
     9
100
AcDb2dPolyline
 66
     1
 10
0.0
 20
0.0
 30
0.0
  0
VERTEX
  5
33B2
330
33B1
100
AcDbEntity
  8
0
 62
   250
420
  1842203
370
     9
100
AcDbVertex
100
AcDb2dVertex
 10
479.7805337342215
 20
221.5582247709993
 30
0.0
  0
VERTEX
  5
33B3
330
33B1
100
AcDbEntity
  8
0
 62
   250
420
  1842203
370
     9
100
AcDbVertex
100
AcDb2dVertex
 10
479.7805337342215
 20
281.5607638184987
 30
0.0
  0
SEQEND
  5
33B4
330
33B1
100
AcDbEntity
  8
0
370
     9
  0
SPLINE
  5
33B5
330
3375
100
AcDbEntity
  8
0
 62
   250
420
  1842203
370
     9
100
AcDbSpline
210
0.0
220
0.0
230
1.0
 70
    11
 71
     3
 72
    26
 73
    22
 74
     0
 42
0.0000000001
 43
0.0000000001
 40
0.0
 40
0.0
 40
0.0
 40
0.0
 40
1.0
 40
1.0
 40
1.0
 40
2.0
 40
2.0
 40
2.0
 40
3.0
 40
3.0
 40
3.0
 40
4.0
 40
4.0
 40
4.0
 40
5.0
 40
5.0
 40
5.0
 40
6.0
 40
6.0
 40
6.0
 40
7.0
 40
7.0
 40
7.0
 40
7.0
 10
474.7782550896388
 20
241.561827196554
 30
0.0
 10
469.2550780076863
 20
241.561827196554
 30
0.0
 10
464.7819660296378
 20
246.0349391746024
 30
0.0
 10
464.7819660296378
 20
251.5636284093313
 30
0.0
 10
464.7819660296378
 20
257.0840494148957
 30
0.0
 10
469.2550780076863
 20
261.5599174693323
 30
0.0
 10
474.7782550896388
 20
261.5599174693323
 30
0.0
 10
474.7782550896388
 20
261.5599174693323
 30
0.0
 10
484.7800563024161
 20
261.5599174693323
 30
0.0
 10
484.7800563024161
 20
261.5599174693323
 30
0.0
 10
490.3032333843686
 20
261.5599174693323
 30
0.0
 10
494.7818575151934
 20
257.0840494148957
 30
0.0
 10
494.7818575151934
 20
251.5636284093313
 30
0.0
 10
494.7818575151934
 20
246.0349391746024
 30
0.0
 10
490.3032333843686
 20
241.561827196554
 30
0.0
 10
484.7800563024161
 20
241.561827196554
 30
0.0
 10
479.2568792204636
 20
241.561827196554
 30
0.0
 10
480.3014321715913
 20
241.561827196554
 30
0.0
 10
474.7782550896388
 20
241.561827196554
 30
0.0
 10
474.7782550896388
 20
241.561827196554
 30
0.0
 10
474.7782550896388
 20
241.561827196554
 30
0.0
 10
474.7782550896388
 20
241.561827196554
 30
0.0
  0
POLYLINE
  5
33B6
330
3375
100
AcDbEntity
  8
0
 62
   250
420
  1842203
370
     9
100
AcDb2dPolyline
 66
     1
 10
0.0
 20
0.0
 30
0.0
  0
VERTEX
  5
33B7
330
33B6
100
AcDbEntity
  8
0
 62
   250
420
  1842203
370
     9
100
AcDbVertex
100
AcDb2dVertex
 10
-280.461089339607
 20
252.4373046243907
 30
0.0
  0
VERTEX
  5
33B8
330
33B6
100
AcDbEntity
  8
0
 62
   250
420
  1842203
370
     9
100
AcDbVertex
100
AcDb2dVertex
 10
-220.4613063684958
 20
252.4373046243907
 30
0.0
  0
SEQEND
  5
33B9
330
33B6
100
AcDbEntity
  8
0
370
     9
  0
POLYLINE
  5
33BA
330
3375
100
AcDbEntity
  8
0
 62
   250
420
  1842203
370
     9
100
AcDb2dPolyline
 66
     1
 10
0.0
 20
0.0
 30
0.0
  0
VERTEX
  5
33BB
330
33BA
100
AcDbEntity
  8
0
 62
   250
420
  1842203
370
     9
100
AcDbVertex
100
AcDb2dVertex
 10
-250.4611978540514
 20
222.4374131388351
 30
0.0
  0
VERTEX
  5
33BC
330
33BA
100
AcDbEntity
  8
0
 62
   250
420
  1842203
370
     9
100
AcDbVertex
100
AcDb2dVertex
 10
-250.4611978540514
 20
282.4371961099463
 30
0.0
  0
SEQEND
  5
33BD
330
33BA
100
AcDbEntity
  8
0
370
     9
  0
SPLINE
  5
33BE
330
3375
100
AcDbEntity
  8
0
 62
   250
420
  1842203
370
     9
100
AcDbSpline
210
0.0
220
0.0
230
1.0
 70
    11
 71
     3
 72
    26
 73
    22
 74
     0
 42
0.0000000001
 43
0.0000000001
 40
0.0
 40
0.0
 40
0.0
 40
0.0
 40
1.0
 40
1.0
 40
1.0
 40
2.0
 40
2.0
 40
2.0
 40
3.0
 40
3.0
 40
3.0
 40
4.0
 40
4.0
 40
4.0
 40
5.0
 40
5.0
 40
5.0
 40
6.0
 40
6.0
 40
6.0
 40
7.0
 40
7.0
 40
7.0
 40
7.0
 10
-255.460720422246
 20
242.4410155643897
 30
0.0
 10
-260.9838975041985
 20
242.4410155643897
 30
0.0
 10
-265.4597655586351
 20
246.9141275424381
 30
0.0
 10
-265.4597655586351
 20
252.4373046243907
 30
0.0
 10
-265.4597655586351
 20
257.9604817063432
 30
0.0
 10
-260.9838975041985
 20
262.439105837168
 30
0.0
 10
-255.460720422246
 20
262.439105837168
 30
0.0
 10
-255.460720422246
 20
262.439105837168
 30
0.0
 10
-245.4616752858568
 20
262.439105837168
 30
0.0
 10
-245.4616752858568
 20
262.439105837168
 30
0.0
 10
-239.9384982039043
 20
262.439105837168
 30
0.0
 10
-235.4598740730795
 20
257.9604817063432
 30
0.0
 10
-235.4598740730795
 20
252.4373046243907
 30
0.0
 10
-235.4598740730795
 20
246.9141275424381
 30
0.0
 10
-239.9384982039043
 20
242.4410155643897
 30
0.0
 10
-245.4616752858568
 20
242.4410155643897
 30
0.0
 10
-250.9848523678094
 20
242.4410155643897
 30
0.0
 10
-249.9375433402934
 20
242.4410155643897
 30
0.0
 10
-255.460720422246
 20
242.4410155643897
 30
0.0
 10
-255.460720422246
 20
242.4410155643897
 30
0.0
 10
-255.460720422246
 20
242.4410155643897
 30
0.0
 10
-255.460720422246
 20
242.4410155643897
 30
0.0
  0
ENDBLK
  5
33BF
330
3375
100
AcDbEntity
  8
0
100
AcDbBlockEnd
  0
ENDSEC
  0
SECTION
  2
ENTITIES
  0
ARC
  5
323C
330
1F
100
AcDbEntity
  8
0
  6
AM_DIN_F_W050
 62
     6
 48
4.0
100
AcDbCircle
 10
-39.19785424866291
 20
-125.0638702597601
 30
0.0
 40
5.0
100
AcDbArc
 50
48.60596337722334
 51
91.78716562860774
1001
GENIUS_GENOBJ-N-FIL_13
1002
{
1000
OWNER
1000
GEN
1002
}
1001
GENIUS_GENODEF_13
1002
{
1000
HIER
1070
     0
1002
}
1002
{
1000
MANEDIT
1070
     0
1002
}
1002
{
1000
NOSEL
1070
     0
1002
}
1002
{
1000
BEHIND
1070
     0
1002
}
1002
{
1000
OTHER
1070
     0
1002
}
1002
{
1000
REACTOR
1002
}
  0
LINE
  5
323D
330
1F
100
AcDbEntity
  8
0
  6
AM_DIN_F_W050
 62
     6
 48
4.0
100
AcDbLine
 10
-37.381242964173
 20
-120.0000245612336
 30
0.0
 11
-0.0005789110180103
 21
-120.0000245612336
 31
0.0
  0
LINE
  5
323E
330
1F
100
AcDbEntity
  8
0
  6
AM_DIN_F_W050
 62
     6
 48
4.0
100
AcDbLine
 10
-35.89168529988115
 20
-121.3129707833529
 30
0.0
 11
-24.15483237720196
 21
-131.658227683319
 31
0.0
  0
LINE
  5
323F
330
1F
100
AcDbEntity
  8
0
  6
AM_DIN_F_W050
 62
     6
 48
4.0
100
AcDbLine
 10
-24.15483237720196
 20
-131.658227683319
 30
0.0
 11
-0.0005789110180103
 21
-131.658227683319
 31
0.0
  0
LINE
  5
3240
330
1F
100
AcDbEntity
  8
0
  6
AM_DIN_G_W050
 62
     4
 48
2.0
100
AcDbLine
 10
-140.0005790289074
 20
-45.59946765708923
 30
0.0
 11
-140.0005790289074
 21
-75.37576650774167
 31
0.0
  0
LINE
  5
3241
330
1F
100
AcDbEntity
  8
0
  6
AM_DIN_G_W050
 62
     4
 48
2.0
100
AcDbLine
 10
-116.8940078642797
 20
-60.00002456123366
 30
0.0
 11
-162.9174130053791
 21
-60.00002456123366
 31
0.0
  0
ARC
  5
3242
330
1F
100
AcDbEntity
  8
0
  6
AM_DIN_F_W050
 62
     6
 48
4.0
100
AcDbCircle
 10
-145.1172891466969
 20
-60.00002456123366
 30
0.0
 40
10.0
100
AcDbArc
 50
90.0
 51
269.4558698763323
  0
ARC
  5
3243
330
1F
100
AcDbEntity
  8
0
  6
AM_DIN_F_W050
 62
     6
 48
4.0
100
AcDbCircle
 10
-135.1909188936024
 20
-60.00002456123366
 30
0.0
 40
10.0
100
AcDbArc
 50
270.0906636611027
 51
90.0
  0
LINE
  5
3244
330
1F
100
AcDbEntity
  8
0
  6
AM_DIN_F_W050
 62
     6
 48
4.0
100
AcDbLine
 10
-145.1172891466969
 20
-50.00002456123366
 30
0.0
 11
-135.1909188936024
 21
-50.00002456123366
 31
0.0
  0
LINE
  5
3245
330
1F
100
AcDbEntity
  8
0
  6
AM_DIN_F_W050
 62
     6
 48
4.0
100
AcDbLine
 10
-145.19450261372
 20
-70.01586655886865
 30
0.0
 11
-135.1750951062238
 21
-70.00001204161344
 31
0.0
  0
LINE
  5
3246
330
1F
100
AcDbEntity
  8
0
  6
AM_DIN_F_W050
 62
     6
 48
4.0
100
AcDbLine
 10
-24.15483237720196
 20
-131.658227683319
 30
0.0
 11
-24.15483237720196
 21
-170.0000245612336
 31
0.0
  0
ARC
  5
3249
330
1F
100
AcDbEntity
  8
0
  6
AM_DIN_F_W050
 62
     6
 48
4.0
100
AcDbCircle
 10
-48.97809089715654
 20
53.07584134378491
 30
0.0
 40
234.2408132482446
100
AcDbArc
 50
193.927994258056
 51
208.1564193688986
  0
ARC
  5
324A
330
1F
100
AcDbEntity
  8
0
  6
AM_DIN_F_W050
 62
     6
 48
4.0
100
AcDbCircle
 10
-281.036437287789
 20
-5.000024561233759
 30
0.0
 40
5.0
100
AcDbArc
 50
19.7984685220249
 51
90.0
1001
GENIUS_GENODEF_13
1002
{
1000
HIER
1070
     0
1002
}
1002
{
1000
MANEDIT
1070
     0
1002
}
1002
{
1000
NOSEL
1070
     0
1002
}
1002
{
1000
BEHIND
1070
     0
1002
}
1002
{
1000
OTHER
1070
     0
1002
}
1002
{
1000
REACTOR
1002
}
1001
GENIUS_GENOBJ-N-FIL_13
1002
{
1000
OWNER
1000
GEN
1002
}
  0
LINE
  5
324F
330
1F
100
AcDbEntity
  8
0
100
AcDbLine
 10
-245.9657823380543
 20
-95.00002456123338
 30
0.0
 11
245.9646245160157
 21
-95.0000245612334
 31
0.0
  0
LINE
  5
3250
330
1F
100
AcDbEntity
  8
0
100
AcDbLine
 10
-49.19023793901374
 20
-129.8949959780642
 30
0.0
 11
49.05473499399864
 21
-129.8949959780643
 31
0.0
  0
LINE
  5
3258
330
1F
100
AcDbEntity
  8
0
  6
AM_DIN_G_W050
 62
     4
 48
2.0
100
AcDbLine
 10
-0.0005789110180103
 20
-181.3900050005745
 30
0.0
 11
-0.0005789110180103
 21
14.3413094094152
 31
0.0
  0
ARC
  5
33F5
330
1F
100
AcDbEntity
  8
0
  6
AM_DIN_F_W050
 62
     6
 48
4.0
100
AcDbCircle
 10
-44.83078171865799
 20
536.9019376807515
 30
0.0
 40
656.991069903144
100
AcDbArc
 50
255.9150250772893
 51
270.4776506719739
  0
LINE
  5
38EC
330
1F
100
AcDbEntity
  8
0
100
AcDbLine
 10
-245.9657823380542
 20
-95.00002456123366
 30
0.0
 11
-239.5968167392955
 21
-95.00002456123366
 31
0.0
  0
LINE
  5
3908
330
1F
100
AcDbEntity
  8
0
100
AcDbLine
 10
239.595658917259
 20
-95.00002456123361
 30
0.0
 11
245.9646245160156
 21
-95.00002456123359
 31
0.0
  0
ELLIPSE
  5
3912
330
1F
100
AcDbEntity
  8
0
  6
AM_DIN_F_W050
 62
     6
 48
4.0
100
AcDbEllipse
 10
-0.0005789111906358
 20
-33.46053536453337
 30
0.0
 11
-12.5
 21
0.0
 31
0.0
210
0.0
220
0.0
230
1.0
 40
0.9708142392091058
 41
0.0
 42
6.283185307179586
  0
ARC
  5
391D
330
1F
100
AcDbEntity
  8
0
  6
AM_DIN_F_W050
 62
     6
 48
4.0
100
AcDbCircle
 10
-179.0387332881914
 20
-18.41531257690971
 30
0.0
 40
85.85195077071587
100
AcDbArc
 50
207.0498192214055
 51
252.5967841753497
  0
LINE
  5
3926
330
1F
100
AcDbEntity
  8
0
100
AcDbLine
 10
-185.4373019745932
 20
-165.9200401861596
 30
0.0
 11
-168.7509749078266
 21
-126.8099462908051
 31
0.0
  0
ARC
  5
3946
330
1F
100
AcDbEntity
  8
0
100
AcDbCircle
 10
-129.2456956160871
 20
95.41895669933822
 30
0.0
 40
223.3449508466613
100
AcDbArc
 50
238.4931788588506
 51
270.6133908304335
  0
ARC
  5
3951
330
1F
100
AcDbEntity
  8
0
  6
AM_DIN_F_W050
 62
     6
 48
4.0
100
AcDbCircle
 10
-291.8599658819464
 20
-88.00002456123342
 30
0.0
 40
6.99999999999996
100
AcDbArc
 50
270.0
 51
335.3756816468871
  0
ARC
  5
3952
330
1F
100
AcDbEntity
  8
0
  6
AM_DIN_F_W050
 62
     6
 48
4.0
100
AcDbCircle
 10
-280.9512537679465
 20
-93.00002456123342
 30
0.0
 40
4.999999999999929
100
AcDbArc
 50
90.0
 51
155.3756816461259
  0
LINE
  5
3953
330
1F
100
AcDbEntity
  8
0
  6
AM_DIN_F_W050
 62
     6
 48
4.0
100
AcDbLine
 10
-0.0005789110180103
 20
-88.00002456123342
 30
0.0
 11
-280.9512537675464
 21
-88.00002456123342
 31
0.0
  0
LINE
  5
3963
330
1F
100
AcDbEntity
  8
0
  6
AM_DIN_F_W050
 62
     6
 48
4.0
100
AcDbLine
 10
-293.3092690637167
 20
-9.830719990757103
 30
0.0
 11
-290.7819956544555
 21
-78.30504397788231
 31
0.0
  0
ARC
  5
3964
330
1F
100
AcDbEntity
  8
0
  6
AM_DIN_F_W050
 62
     6
 48
4.0
100
AcDbCircle
 10
-48.97809089715654
 20
53.07584134378491
 30
0.0
 40
241.7418145658616
100
AcDbArc
 50
194.8672415402086
 51
212.4363334768438
  0
LINE
  5
3965
330
1F
100
AcDbEntity
  8
0
  6
AM_DIN_F_W050
 62
     6
 48
4.0
100
AcDbLine
 10
-285.5266678857754
 20
-6.720070319714748
 30
0.0
 11
-290.3113103164525
 21
-6.720070319714748
 31
0.0
  0
LINE
  5
3966
330
1F
100
AcDbEntity
  8
0
  6
AM_DIN_F_W050
 62
     6
 48
4.0
100
AcDbLine
 10
-287.7840369071913
 20
-81.19439430683996
 30
0.0
 11
-255.5372374610887
 21
-81.19439430683996
 31
0.0
  0
ARC
  5
3967
330
1F
100
AcDbEntity
  8
0
  6
AM_DIN_F_W050
 62
     6
 48
4.0
100
AcDbCircle
 10
-290.3113103164525
 20
-9.720070319714748
 30
0.0
 40
3.0
100
AcDbArc
 50
90.0
 51
182.113732480408
1001
GENIUS_GENODEF_13
1002
{
1000
HIER
1070
     0
1002
}
1002
{
1000
MANEDIT
1070
     0
1002
}
1002
{
1000
NOSEL
1070
     0
1002
}
1002
{
1000
BEHIND
1070
     0
1002
}
1002
{
1000
OTHER
1070
     0
1002
}
1002
{
1000
REACTOR
1002
}
1001
GENIUS_GENOBJ-N-FIL_13
1002
{
1000
OWNER
1000
GEN
1002
}
  0
ARC
  5
3968
330
1F
100
AcDbEntity
  8
0
  6
AM_DIN_F_W050
 62
     6
 48
4.0
100
AcDbCircle
 10
-285.5266678857754
 20
-9.720070319714743
 30
0.0
 40
3.0
100
AcDbArc
 50
14.86724154021006
 51
90.0
1001
GENIUS_GENODEF_13
1002
{
1000
HIER
1070
     0
1002
}
1002
{
1000
MANEDIT
1070
     0
1002
}
1002
{
1000
NOSEL
1070
     0
1002
}
1002
{
1000
BEHIND
1070
     0
1002
}
1002
{
1000
OTHER
1070
     0
1002
}
1002
{
1000
REACTOR
1002
}
1001
GENIUS_GENOBJ-N-FIL_13
1002
{
1000
OWNER
1000
GEN
1002
}
  0
ARC
  5
3969
330
1F
100
AcDbEntity
  8
0
  6
AM_DIN_F_W050
 62
     6
 48
4.0
100
AcDbCircle
 10
-255.5372374610887
 20
-78.19439430683998
 30
0.0
 40
3.0
100
AcDbArc
 50
270.0
 51
32.43633347684421
1001
GENIUS_GENODEF_13
1002
{
1000
HIER
1070
     0
1002
}
1002
{
1000
MANEDIT
1070
     0
1002
}
1002
{
1000
NOSEL
1070
     0
1002
}
1002
{
1000
BEHIND
1070
     0
1002
}
1002
{
1000
OTHER
1070
     0
1002
}
1002
{
1000
REACTOR
1002
}
1001
GENIUS_GENOBJ-N-FIL_13
1002
{
1000
OWNER
1000
GEN
1002
}
  0
ARC
  5
396A
330
1F
100
AcDbEntity
  8
0
  6
AM_DIN_F_W050
 62
     6
 48
4.0
100
AcDbCircle
 10
-287.7840369071913
 20
-78.19439430683996
 30
0.0
 40
3.0
100
AcDbArc
 50
182.113732480408
 51
270.0
1001
GENIUS_GENODEF_13
1002
{
1000
HIER
1070
     0
1002
}
1002
{
1000
MANEDIT
1070
     0
1002
}
1002
{
1000
NOSEL
1070
     0
1002
}
1002
{
1000
BEHIND
1070
     0
1002
}
1002
{
1000
OTHER
1070
     0
1002
}
1002
{
1000
REACTOR
1002
}
1001
GENIUS_GENOBJ-N-FIL_13
1002
{
1000
OWNER
1000
GEN
1002
}
  0
LINE
  5
3979
330
1F
100
AcDbEntity
  8
0
  6
AM_DIN_G_W050
 62
     4
 48
2.0
100
AcDbLine
 10
139.9994212068706
 20
-45.5994676570885
 30
0.0
 11
139.9994212068708
 21
-75.37576650774093
 31
0.0
  0
LINE
  5
397A
330
1F
100
AcDbEntity
  8
0
  6
AM_DIN_G_W050
 62
     4
 48
2.0
100
AcDbLine
 10
116.8928500422431
 20
-60.00002456123304
 30
0.0
 11
162.9162551833424
 21
-60.00002456123279
 31
0.0
  0
ARC
  5
397B
330
1F
100
AcDbEntity
  8
0
  6
AM_DIN_F_W050
 62
     6
 48
4.0
100
AcDbCircle
 10
145.1161313246603
 20
-60.00002456123289
 30
0.0
 40
10.0
100
AcDbArc
 50
270.544130123668
 51
90.0000000000003
  0
ARC
  5
397C
330
1F
100
AcDbEntity
  8
0
  6
AM_DIN_F_W050
 62
     6
 48
4.0
100
AcDbCircle
 10
135.1897610715657
 20
-60.00002456123294
 30
0.0
 40
10.0
100
AcDbArc
 50
90.0000000000003
 51
269.9093363388976
  0
LINE
  5
397D
330
1F
100
AcDbEntity
  8
0
  6
AM_DIN_F_W050
 62
     6
 48
4.0
100
AcDbLine
 10
145.1161313246602
 20
-50.00002456123289
 30
0.0
 11
135.1897610715657
 21
-50.00002456123294
 31
0.0
  0
LINE
  5
397E
330
1F
100
AcDbEntity
  8
0
  6
AM_DIN_F_W050
 62
     6
 48
4.0
100
AcDbLine
 10
145.1933447916834
 20
-70.01586655886788
 30
0.0
 11
135.1739372841872
 21
-70.00001204161273
 31
0.0
  0
LINE
  5
398A
330
1F
100
AcDbEntity
  8
0
100
AcDbLine
 10
245.9646245160159
 20
-95.00002456123239
 30
0.0
 11
239.595658917259
 21
-95.00002456123239
 31
0.0
  0
LINE
  5
3991
330
1F
100
AcDbEntity
  8
0
100
AcDbLine
 10
185.4361441525571
 20
-165.9200401861587
 30
0.0
 11
168.7498170857903
 21
-126.8099462908042
 31
0.0
  0
ARC
  5
3996
330
1F
100
AcDbEntity
  8
0
100
AcDbCircle
 10
129.2445377940496
 20
95.41895669933891
 30
0.0
 40
223.3449508466613
100
AcDbArc
 50
269.3866091695668
 51
301.5068211411497
  0
REGION
  5
3A39
330
1F
100
AcDbEntity
  8
0
100
AcDbModelerGeometry
 70
     1
  1
mogoo njh m o         
  1
ni ^ *+0;:,4 ^ *+0\^ [ nf ^ LR mniqoqoqkjon QK o  
  1
n fqfffffffffffffffj:rooh n:rono 
  1
>,27:>;:- {rn rn _nm mniqoqoqkjon |
  1
=0;& {rn rn {rn {m {rn {rn |
  1
3*2/ {rn rn {rn {rn {l {n |
  1
,7:33 {rn rn {rn {rn {rn {k {rn {m |
  1
9><: {rn rn {rn {rn {j {l {rn {i 90-(>-; ;0*=3: 0*+ |
  1
300/ {rn rn {rn {rn {h {k |
  1
/3>1:r,*-9><: {rn rn {rn roqoooiogjnnklgflljgffk rhiqooigongkfgfljlk o o o n n o o 90-(>-;@) V V V V |
  1
<0:;8: {rn rn {rn {g {f {rn {no 90-(>-; {j {rn |
  1
<0:;8: {rn rn {rn {nn {h {rn {nm 90-(>-; {j {rn |
  1
<0:;8: {rn rn {rn {h {nl {rn {nk 90-(>-; {j {rn |
  1
:;8: {rn rn {rn {nj roqgolgklfjfokmngom {ni oqgolgklfjfokmnglm {h {nh 90-(>-; _h *1410(1 |
  1
<0:;8: {rn rn {rn {ng {g {rn {nf 90-(>-; {j {rn |
  1
:;8: {rn rn {rn {ni o {mo jgfqfflnfnnfnlgnli {g {mn 90-(>-; _h *1410(1 |
  1
<0:;8: {rn rn {rn {f {mm {rn {ml 90-(>-; {j {rn |
  1
:;8: {rn rn {rn {mk o {nj gjqojhghkghlmimmfl {f {mj 90-(>-; _h *1410(1 |
  1
):-+:' {rn rn {rn {no {mi |
  1
):-+:' {rn rn {rn {no {mh |
  1
:336/,:r<*-): {rn rn {rn mfkqffioniigkihmmn rjqoooomkjinmlmognn o o o n lqioonkkkgmijhjgl lqkifhmokohnhglg o n V V |
  1
<0:;8: {rn rn {rn {mg {nn {rn {mf 90-(>-; {j {rn |
  1
:;8: {rn rn {rn {mo roqgolgklfjfokmnglln {lo oqgolgklfjfokmngoof {nn {ln 90-(>-; _h *1410(1 |
  1
):-+:' {rn rn {rn {nm {lm |
  1
,+->687+r<*-): {rn rn {rn mfkqffioniigkihmmn rmqkjinmlmognojjofj:rooj o rn rmqifhigkfogigmgkfm:ronj o V V |
  1
<0:;8: {rn rn {rn {nl {ll {rn {lk 90-(>-; {j {rn |
  1
:;8: {rn rn {rn {lj roqhiifjmlihhjmhniif {mk oqhiifjmlihhjmhngfn {nl {li 90-(>-; _h *1410(1 |
  1
):-+:' {rn rn {rn {ml {lh |
  1
,+->687+r<*-): {rn rn {rn mfiqgjjkojfhmonhom rfoqngkkkoihfilhjkh o oqoligglmmligohhfofl oqffflnfjgmkmnknimh o V V |
  1
/061+ {rn rn {rn mffqffminkjfihhfmg rjqngkkkoihfilionnf o |
  1
/061+ {rn rn {rn mfkqffioniigkihmmn rmqkjinmlmognojjofj:rooj o |
  1
<0:;8: {rn rn {rn {lg {ng {rn {lf 90-(>-; {j {rn |
  1
:;8: {rn rn {rn {lo o {ko gjqojhghkghlmiogon {ng {kn 90-(>-; _h *1410(1 |
  1
):-+:' {rn rn {rn {nf {km |
  1
:336/,:r<*-): {rn rn {rn rmfkqffhnhkjoihofnk rjqoooomkjinmllihmh o o o n rlqioonkkkgmijhjhgi lqkifhmokohnhglhji o n V V |
  1
/061+ {rn rn {rn rmfkqffhnhkjoihofnk rmqkjinmllihmihogmk:rooj o |
  1
<0:;8: {rn rn {rn {mm {kl {rn {kk 90-(>-; {j {rn |
  1
:;8: {rn rn {rn {kj o {lj kjqgfkngljklgflfhl {mm {ki 90-(>-; _h *1410(1 |
  1
):-+:' {rn rn {rn {lk {kh |
  1
:336/,:r<*-): {rn rn {rn mfnqgjggogojffoffi rfoqoooomkjinmllikk o o o n lqkifhmokohnhglhnm rlqioonkkkgmijhjjom o n V V |
  1
/061+ {rn rn {rn mfiqgjjkojfhmonhom rfoqngkkkoihfilhjkh o |
  1
<0:;8: {rn rn {rn {kg {mg {rn {kf 90-(>-; {j {rn |
  1
:;8: {rn rn {rn {ko roqhiifjmlihhjmhmng {jo oqhiifjmlihhjmhnljg {mg {jn 90-(>-; _h *1410(1 |
  1
):-+:' {rn rn {rn {mf {jm |
  1
,+->687+r<*-): {rn rn {rn rmffqfflhhmknggnimn rjqngkkkoihfilhiolj o oqoligglmmligohgjogn roqffflnfjgmkmnknioj o V V |
  1
/061+ {rn rn {rn rmffqfflhhmknggnimn rjqngkkkoihfilhiolj o |
  1
<0:;8: {rn rn {rn {ll {jl {rn {jk 90-(>-; {j {rn |
  1
:;8: {rn rn {rn {jj o {kj igqookgmnhhkimfhhj {ll {ji 90-(>-; _h *1410(1 |
  1
):-+:' {rn rn {rn {kk {jh |
  1
,+->687+r<*-): {rn rn {rn mkjqfikimkjnionjff rfjqoooomkjinmlmmg o n rmqfnoijmgnoinkill:ronk o V V |
  1
/061+ {rn rn {rn mfnqgjggogojffoffi rfjqoooomkjinmllini o |
  1
<0:;8: {rn rn {rn {jg {lg {rn {jf 90-(>-; {j {rn |
  1
:;8: {rn rn {rn {jo o {io kjqgfkngljklgfmnmi {lg {in 90-(>-; _h *1410(1 |
  1
):-+:' {rn rn {rn {lf {im |
  1
:336/,:r<*-): {rn rn {rn rmfnqgjffijggnfkikk rfoqoooomkjinmllhl o o o n rlqkifhmokohnhgljkh rlqioonkkkgmijhjjki o n V V |
  1
/061+ {rn rn {rn rmfiqgjijilhfkojlj rfoqngkkkoihfilhilm o |
  1
<0:;8: {rn rn {rn {kl {il {rn {ik 90-(>-; {j {rn |
  1
:;8: {rn rn {rn {ij roqgmkokkjlfhlhhmhk {jj oqgmkokkjlfhlhhmgmf {kl {ii 90-(>-; _h *1410(1 |
  1
):-+:' {rn rn {rn {jk {ih |
  1
,+->687+r<*-): {rn rn {rn mloqmjmiofhogiomlf rninqnikggmnnililmf o oqmlnokmijgkogionl oqfhmfklimnngolmik o V V |
  1
/061+ {rn rn {rn mkjqfikimkjnionjff rfjqoooomkjinmlmmg o |
  1
<0:;8: {rn rn {rn {ig {kg {rn {if 90-(>-; {j {rn |
  1
:;8: {rn rn {rn {io o {ho igqookgmnhhkilonni {kg {hn 90-(>-; _h *1410(1 |
  1
):-+:' {rn rn {rn {kf {hm |
  1
,+->687+r<*-): {rn rn {rn rmfnqgjffijggnfkikk rfjqoooomkjinmllihl o n iqnfmghglmokjifnjk:ronj o V V |
  1
/061+ {rn rn {rn rmfnqgjffijggnfkikk rfjqoooomkjinmllihl o |
  1
<0:;8: {rn rn {rn {jl {hl {rn {hk 90-(>-; {j {rn |
  1
:;8: {rn rn {rn {hj o {ij miqonogjnmflogljog {jl {hi 90-(>-; _h *1410(1 |
  1
):-+:' {rn rn {rn {ik {hh |
  1
:336/,:r<*-): {rn rn {rn mngqfnnhgkkojljnfn rnioqjgmghjklhnhfin o o o n hqmhimnhijnljnfjn rgqhngljkiojmfnfml o n V V |
  1
/061+ {rn rn {rn mloqmjmiofhogiomlf rninqnikggmnnililmf o |
  1
<0:;8: {rn rn {rn {hg {jg {rn {hf 90-(>-; {j {rn |
  1
:;8: {rn rn {rn {ho roqgmkokkjlfhlhhkhfk {go oqgmkokkjlfhlhhkgoj {jg {gn 90-(>-; _h *1410(1 |
  1
):-+:' {rn rn {rn {jf {gm |
  1
,+->687+r<*-): {rn rn {rn rmkjqfijhgmllgojkln rfjqoooomkjinmlllgg o oqmlnokmijgkogilmll roqfhmfklimnngolnfoh o V V |
  1
/061+ {rn rn {rn rmkjqfijhgmllgojkln rfjqoooomkjinmlllgg o |
  1
<0:;8: {rn rn {rn {il {gl {rn {gk 90-(>-; {j {rn |
  1
:;8: {rn rn {rn {gj roqlhjnffkljflijgnhl {hj oqlhjnffkljflijgohl {il {gi 90-(>-; _h *1410(1 |
  1
):-+:' {rn rn {rn {hk {gh |
  1
,+->687+r<*-): {rn rn {rn nfnqkkjohmfojjmflh rnhnqfniffjmnjnioml o oqfffffinjgggflolmh oqoomhhnihflgfhoonmfg o V V |
  1
/061+ {rn rn {rn mnhqkjjgmkmggojlhj rnhnqgkkfonkhkhmmil o |
  1
<0:;8: {rn rn {rn {gg {ig {rn {gf 90-(>-; {j {rn |
  1
:;8: {rn rn {rn {go o {fo miqnmnhngmjkmfmnfg {ig {fn 90-(>-; _h *1410(1 |
  1
):-+:' {rn rn {rn {if {fm |
  1
:336/,:r<*-): {rn rn {rn rmngqfnmfkmmmhlggok rnioqjgmghjklhngohj o o o n rhqmhimnhijnljnfjli rgqhngljkiojmfnfnfk o n V V |
  1
/061+ {rn rn {rn rmloqmjlhihjloilgjl rninqnikggmnnilikm o |
  1
<0:;8: {rn rn {rn {hl {fl {rn {fk 90-(>-; {j {rn |
  1
:;8: {rn rn {rn {fj nqlglkhnjgmmhhjfkn:ronm {gj nnqijjfhhjolkkhofk {hl {fi 90-(>-; _h *1410(1 |
  1
):-+:' {rn rn {rn {gk {fh |
  1
:336/,:r<*-): {rn rn {rn nfnqllkmoimilokkf rnjnqfnhlomjmjjlnig o o o n rhqmmjgfjnfhjffjihl rngqikfollnjigjoklf o n V V |
  1
/061+ {rn rn {rn nfnqkkjohmfojjmflh rnhnqfniffjmnjnioml o |
  1
<0:;8: {rn rn {rn {fg {hg {rn {ff 90-(>-; {j {rn |
  1
:;8: {rn rn {rn {fo roqlgolonmonmhgnhmfi {noo oqlgolonmonmhgnhll {hg {non 90-(>-; _h *1410(1 |
  1
):-+:' {rn rn {rn {hf {nom |
  1
,+->687+r<*-): {rn rn {rn rmnhqkjifgmnnoogfij rnhnqgkkfonkhkhmlhh o oqfffffinjgggflolmh roqoomhhnihflgfifkjon o V V |
  1
/061+ {rn rn {rn rmnhqkjifgmnnoogfij rnhnqgkkfonkhkhmlhh o |
  1
<0:;8: {rn rn {rn {gl {nol {rn {nok 90-(>-; {j {rn |
  1
:;8: {rn rn {rn {noj oqlonfnhnomiiloikgm {fj oqjoghgikingimfkmfi {gl {noi 90-(>-; _h *1410(1 |
  1
):-+:' {rn rn {rn {fk {noh |
  1
,+->687+r<*-): {rn rn {rn nifqmhoojfnhhignf rnjgqijmiofnmgkflnn o oqhmfgmjfgjiinhgmnk roqiglilmfikgiifhlml o V V |
  1
/061+ {rn rn {rn nhhqhhigfkkkhfgihl rniiqimnonfjghjfhk o |
  1
<0:;8: {rn rn {rn {nog {gg {rn {nof -:):-,:; {j {rn |
  1
:;8: {rn rn {rn {noo o {nno nnqlknoklokohllkhn {gg {nnn 90-(>-; _h *1410(1 |
  1
):-+:' {rn rn {rn {gf {nnm |
  1
:336/,:r<*-): {rn rn {rn rnfnqlljlikogjognn rnjnqfnhlomjmjjlmjf o o o n hqkmkoolmklmhmlgkk rngqjhnojhkjlljigin o n V V |
  1
/061+ {rn rn {rn rnfnqlljliknfmmoggi rnhnqfnhlomjomglmil o |
  1
<0:;8: {rn rn {rn {fl {nnl {rn {nnk 90-(>-; {j {rn |
  1
:;8: {rn rn {rn {nnj roqokghnlkionoofgmnnf {noj oqokghnlkionoofgmnnf {fl {nni 90-(>-; _h *1410(1 |
  1
):-+:' {rn rn {rn {nok {nnh |
  1
:336/,:r<*-): {rn rn {rn roqoonoilnhokfjoonkgik rlkhqjfmjoionhljfgm o o o rn jjqhfjnhlkgnimhkl mkhqkilmonligfjoji o oqfffffjkngljgkgggm V V |
  1
/061+ {rn rn {rn nifqmhoojfnhhiglok rnjgqijmiofnmgkflfi o |
  1
<0:;8: {rn rn {rn {nng {fg {rn {nnf 90-(>-; {j {rn |
  1
:;8: {rn rn {rn {nmo oqlonfnhnomiiloiiij {nno oqjoghgikingimfklfi {fg {nmn 90-(>-; _h *1410(1 |
  1
):-+:' {rn rn {rn {ff {nmm |
  1
,+->687+r<*-): {rn rn {rn rnhhqjkgmokfnjljjnh rniiqkojhmooohnnjif o oqhmfgmjfgjiinhiifl oqiglilmfikgiifgflm o V V |
  1
/061+ {rn rn {rn rnhhqjkgmokfnjljjnh rniiqkojhmooohnnjif o |
  1
<0:;8: {rn rn {rn {nol {nml {rn {nmk 90-(>-; {j {rn |
  1
:;8: {rn rn {rn {nmj roqhojkmokflgfllmjhl {nnj oqhojkmokflgfllmioi {nol {nmi 90-(>-; _h *1410(1 |
  1
):-+:' {rn rn {rn {nnk {nmh |
  1
:336/,:r<*-): {rn rn {rn ihqhnjfinkmhfjkigm iiiqilnhmnokkfmflj o o o n moqlhhignlffnhognj rhfiqkgmoloigfkjmmk o n V V |
  1
/061+ {rn rn {rn nmiqgjljmnhjngikgf rnmhqfnlnfjmghmiimg o |
  1
<0:;8: {rn rn {rn {nmg {nog {rn {nmf 90-(>-; {j {rn |
  1
:;8: {rn rn {rn {nmo roqokgigifnfmgjlligih {nlo oqokgigifnfmgjllilfi {nog {nln 90-(>-; _h *1410(1 |
  1
):-+:' {rn rn {rn {nof {nlm |
  1
:336/,:r<*-): {rn rn {rn rfqkijnjkoniijmlhhl:rooj rlkhqjfmjoionhljfgm o o o n rjjqhfjnhlkgnimghni mkhqkilmonligfjomj o oqfffffjkngljgkgggm V V |
  1
/061+ {rn rn {rn rnifqmhnmnifffhnflk rnjgqijmiofnmgkfkfl o |
  1
<0:;8: {rn rn {rn {nnl {nll {rn {nlk 90-(>-; {j {rn |
  1
:;8: {rn rn {rn {nlj o {nmj mhqlimillkikjolgjj {nnl {nli 90-(>-; _h *1410(1 |
  1
):-+:' {rn rn {rn {nmk {nlh |
  1
:336/,:r<*-): {rn rn {rn kfqojkhnghfgmfjjnn rnlfqgfjoglkhhgginj o ro ro rn riqloinhjooiljkmnn hqhioflhggohhlfkom o n V V |
  1
/061+ {rn rn {rn kfqmgjknhmonhhliif rnmfqgfhhkkfnfhngmn o |
  1
<0:;8: {rn rn {rn {nlg {nng {rn {nlf 90-(>-; {j {rn |
  1
:;8: {rn rn {rn {nlo roqhohjlggioghljlomk {nko oqhohjlggioghljlonl {nng {nkn 90-(>-; _h *1410(1 |
  1
):-+:' {rn rn {rn {nnf {nkm |
  1
:336/,:r<*-): {rn rn {rn rihqhnhnnfmkfffhojk iiiqilnhmnokkfmgf o o o n rmoqlfggmoihkhmih rhfiqkgnkgfjigikoln o n V V |
  1
/061+ {rn rn {rn rnmiqgjkihfjhlfonjk rnmhqfnlnfjmghmihmh o |
  1
<0:;8: {rn rn {rn {nml {nlg {rn {nkl 90-(>-; {j {rn |
  1
:;8: {rn rn {rn {nkk roqhkggflnngimlhkmfh {nlj oqhkggflnngimlhknjl {nml {nkj 90-(>-; _h *1410(1 |
  1
):-+:' {rn rn {rn {nlk {nki |
  1
,+->687+r<*-): {rn rn {rn lhqmmjhhmiolfhjml rnijqlikhjohgonmhjh o oqohmfkjmklhhghhjgmg oqffhlljfkhnninklkg o V V |
  1
/061+ {rn rn {rn lfqmmnhkijhmkhmhjl rnlgqohjonmgngmnkhi o |
  1
<0:;8: {rn rn {rn {nll {nmg {rn {nkh 90-(>-; {j {rn |
  1
:;8: {rn rn {rn {nko o {nkg mhqlimillkikjolgmi {nmg {nkf 90-(>-; _h *1410(1 |
  1
):-+:' {rn rn {rn {nmf {njo |
  1
:336/,:r<*-): {rn rn {rn rkfqojjgfmgnioljnnm rnlfqgfkffjfhgoikmf o ro ro rn iqmgfhgfjlkhomgikn hqhhkmmlmgonnghkh o n V V |
  1
/061+ {rn rn {rn rkfqlmggjinllngoihf rnmfqgfghmmnmogfihi o |
  1
:;8: {rn rn {rn {njn o {nkk ikqkhflkljjggmjlkf {nll {njm 90-(>-; _h *1410(1 |
  1
):-+:' {rn rn {rn {nkl {njl |
  1
:336/,:r<*-): {rn rn {rn lmqmlfofmgiglfkklh rnijqoooomkjinmllhm o o o n lqkoknkmmkfnfiiimm rlqiimmnkjighokffol o n V V |
  1
/061+ {rn rn {rn lhqmmjhhmiolfhjml rnijqlikhjohgonmhjh o |
  1
:;8: {rn rn {rn {nkg roqhkggflnngimlhknnf {njn oqhkggflnngimlhlffh {nlg {njk 90-(>-; _h *1410(1 |
  1
):-+:' {rn rn {rn {nlf {njj |
  1
,+->687+r<*-): {rn rn {rn rlfqmmmfoklfkjofmmf rnlgqohjonmgngmnkhi o oqohmfkjmklhhghhjlfg roqffhlljfkhnninklkg o V V |
  1
/061+ {rn rn {rn rlfqmmmfoklfkjofmmf rnlgqohjonmgngmnkhi o |
  1
):-+:' {rn rn {rn {nkh {nji |
  1
,+->687+r<*-): {rn rn {rn rlmqmkomjoifoklofoj rnhoqoooomkjinmllhh o n rkqkohghgmmmfijmlif:roni o V V |
  1
/061+ {rn rn {rn lmqmlfofmgiglfkklh rnhoqoooomkjinmllhh o |
  1
:336/,:r<*-): {rn rn {rn rlmqmkomjoifoklogfg rnijqoooomkjinmllii o o o n rlqkoknkmmkfnfiiifh rlqiimmnkjighojonkl o n V V |
  1
/061+ {rn rn {rn rlhqmmiflokmionnhm rnijqlikhjohgonmhjh o |
  1
/061+ {rn rn {rn rlmqmkomjoifoklofoj rnhoqoooomkjinmllhh o |
  0
LINE
  5
3C87
330
1F
100
AcDbEntity
  8
0
100
AcDbLine
 10
-245.0005789110188
 20
-850.0000245612326
 30
0.0
 11
-218.0005789110188
 21
-850.0000245612326
 31
0.0
  0
LINE
  5
3C88
330
1F
100
AcDbEntity
  8
0
  6
AM_DIN_G_W050
 62
     4
 48
2.0
100
AcDbLine
 10
36.46057089347471
 20
-850.0000245612326
 30
0.0
 11
-36.46172871551096
 21
-850.0000245612326
 31
0.0
  0
LINE
  5
3C89
330
1F
100
AcDbEntity
  8
0
  6
AM_DIN_G_W050
 62
     4
 48
2.0
100
AcDbLine
 10
-0.000578911018124
 20
-813.5388747567398
 30
0.0
 11
-0.000578911018124
 21
-886.4611743657254
 31
0.0
  0
LINE
  5
3C8A
330
1F
100
AcDbEntity
  8
0
  6
CENTER2
 62
     4
 48
30.0
100
AcDbLine
 10
-286.5005789110183
 20
-299.3995842865826
 30
0.0
 11
-286.5005789110183
 21
-236.0204047404053
 31
0.0
  0
LINE
  5
3C8B
330
1F
100
AcDbEntity
  8
0
100
AcDbLine
 10
-289.0005789110183
 20
-280.0000245612326
 30
0.0
 11
-289.0005789110183
 21
-255.0000245612326
 31
0.0
  0
LINE
  5
3C8C
330
1F
100
AcDbEntity
  8
0
  6
AM_DIN_F_W050
 62
     6
 48
5.0
100
AcDbLine
 10
-284.0005789110183
 20
-280.0000245612326
 30
0.0
 11
-284.0005789110183
 21
-255.0000245612326
 31
0.0
  0
LINE
  5
3C8D
330
1F
100
AcDbEntity
  8
0
100
AcDbLine
 10
-289.0005789110183
 20
-255.0000245612326
 30
0.0
 11
288.9994210889824
 21
-255.0000245612321
 31
0.0
  0
LINE
  5
3C8E
330
1F
100
AcDbEntity
  8
0
100
AcDbLine
 10
-289.0005789110183
 20
-280.0000245612326
 30
0.0
 11
288.9994210889819
 21
-280.000024561232
 31
0.0
  0
LINE
  5
3C8F
330
1F
100
AcDbEntity
  8
0
  6
CENTER2
 62
     4
 48
30.0
100
AcDbLine
 10
-318.1894730634782
 20
-267.5000245612326
 30
0.0
 11
-254.8116847585585
 21
-267.5000245612326
 31
0.0
  0
ARC
  5
3C90
330
1F
100
AcDbEntity
  8
0
100
AcDbCircle
 10
-286.5005789110183
 20
-267.5000245612326
 30
0.0
 40
25.75
100
AcDbArc
 50
29.04110042645401
 51
330.958899573546
  0
ARC
  5
3C91
330
1F
100
AcDbEntity
  8
0
  6
AM_DIN_F_W050
 62
     6
 48
5.0
100
AcDbCircle
 10
-286.5005789110183
 20
-267.5000245612326
 30
0.0
 40
25.75
100
AcDbArc
 50
330.958899573546
 51
29.04110042645401
  0
LINE
  5
3C92
330
1F
100
AcDbEntity
  8
0
  6
CENTER2
 62
     4
 48
30.0
100
AcDbLine
 10
286.4994210889823
 20
-299.3995842865826
 30
0.0
 11
286.4994210889823
 21
-236.0204047404053
 31
0.0
  0
LINE
  5
3C93
330
1F
100
AcDbEntity
  8
0
100
AcDbLine
 10
288.9994210889819
 20
-280.0000245612326
 30
0.0
 11
288.9994210889824
 21
-255.0000245612326
 31
0.0
  0
LINE
  5
3C94
330
1F
100
AcDbEntity
  8
0
  6
AM_DIN_F_W050
 62
     6
 48
5.0
100
AcDbLine
 10
283.9994210889819
 20
-280.0000245612326
 30
0.0
 11
283.9994210889823
 21
-255.0000245612326
 31
0.0
  0
LINE
  5
3C95
330
1F
100
AcDbEntity
  8
0
  6
CENTER2
 62
     4
 48
30.0
100
AcDbLine
 10
318.1883152414422
 20
-267.5000245612326
 30
0.0
 11
254.8105269365225
 21
-267.5000245612326
 31
0.0
  0
ARC
  5
3C96
330
1F
100
AcDbEntity
  8
0
100
AcDbCircle
 10
286.4994210889823
 20
-267.5000245612326
 30
0.0
 40
25.75
100
AcDbArc
 50
209.041100426454
 51
150.958899573546
  0
ARC
  5
3C97
330
1F
100
AcDbEntity
  8
0
  6
AM_DIN_F_W050
 62
     6
 48
5.0
100
AcDbCircle
 10
286.4994210889823
 20
-267.5000245612326
 30
0.0
 40
25.75
100
AcDbArc
 50
150.958899573546
 51
209.041100426454
  0
LINE
  5
3C98
330
1F
100
AcDbEntity
  8
0
100
AcDbLine
 10
-244.0005789110184
 20
-770.0000245612326
 30
0.0
 11
-244.0005789110184
 21
-280.0000245612329
 31
0.0
  0
LINE
  5
3C99
330
1F
100
AcDbEntity
  8
0
100
AcDbLine
 10
-244.0005789110184
 20
-255.0000245612328
 30
0.0
 11
-244.0005789110184
 21
-100.0000245612326
 31
0.0
  0
LINE
  5
3C9A
330
1F
100
AcDbEntity
  8
0
100
AcDbLine
 10
-219.0005789110184
 20
-770.0000245612326
 30
0.0
 11
-219.0005789110184
 21
-280.0000245612325
 31
0.0
  0
LINE
  5
3C9B
330
1F
100
AcDbEntity
  8
0
100
AcDbLine
 10
-219.0005789110184
 20
-255.0000245612328
 30
0.0
 11
-219.0005789110184
 21
-100.0000245612326
 31
0.0
  0
LINE
  5
3C9C
330
1F
100
AcDbEntity
  8
0
100
AcDbLine
 10
-246.5005789110183
 20
-100.0000245612326
 30
0.0
 11
-244.0005789110184
 21
-100.0000245612326
 31
0.0
  0
LINE
  5
3C9D
330
1F
100
AcDbEntity
  8
0
100
AcDbLine
 10
-219.0005789110184
 20
-100.0000245612326
 30
0.0
 11
-216.5005789110184
 21
-100.0000245612326
 31
0.0
  0
LINE
  5
3C9E
330
1F
100
AcDbEntity
  8
0
100
AcDbLine
 10
-246.5005789110183
 20
-95.00002456123263
 30
0.0
 11
-246.5005789110183
 21
-100.0000245612326
 31
0.0
  0
LINE
  5
3C9F
330
1F
100
AcDbEntity
  8
0
100
AcDbLine
 10
-216.5005789110186
 20
-95.0000245612323
 30
0.0
 11
-216.5005789110184
 21
-100.0000245612326
 31
0.0
  0
LINE
  5
3CA0
330
1F
100
AcDbEntity
  8
0
100
AcDbLine
 10
-245.0005789110186
 20
-770.0000245612326
 30
0.0
 11
-244.0005789110184
 21
-770.0000245612326
 31
0.0
  0
LINE
  5
3CA1
330
1F
100
AcDbEntity
  8
0
100
AcDbLine
 10
-219.0005789110184
 20
-770.0000245612326
 30
0.0
 11
-218.0005789110186
 21
-770.0000245612326
 31
0.0
  0
LINE
  5
3CA2
330
1F
100
AcDbEntity
  8
0
100
AcDbLine
 10
-245.0005789110186
 20
-850.0000245612326
 30
0.0
 11
-245.0005789110186
 21
-770.0000245612326
 31
0.0
  0
LINE
  5
3CA3
330
1F
100
AcDbEntity
  8
0
100
AcDbLine
 10
-218.0005789110186
 20
-850.0000245612326
 30
0.0
 11
-218.0005789110186
 21
-770.0000245612326
 31
0.0
  0
LINE
  5
3CA4
330
1F
100
AcDbEntity
  8
0
100
AcDbLine
 10
-244.0005789110184
 20
-770.0000245612326
 30
0.0
 11
-219.0005789110184
 21
-770.0000245612326
 31
0.0
  0
LINE
  5
3CA5
330
1F
100
AcDbEntity
  8
0
  6
CENTER2
 62
     4
 48
30.0
100
AcDbLine
 10
-231.5005789110186
 20
-861.4305636525799
 30
0.0
 11
-231.5005789110186
 21
-831.7792691862097
 31
0.0
  0
LINE
  5
3CA6
330
1F
100
AcDbEntity
  8
0
100
AcDbLine
 10
-244.0005789110184
 20
-100.0000245612326
 30
0.0
 11
-219.0005789110184
 21
-100.0000245612326
 31
0.0
  0
LINE
  5
3CA7
330
1F
100
AcDbEntity
  8
0
  6
AM_DIN_F_W050
 62
     6
 48
5.0
100
AcDbLine
 10
-244.0005789110184
 20
-255.0000245612326
 30
0.0
 11
-244.0005789110184
 21
-260.0000245612327
 31
0.0
  0
LINE
  5
3CA8
330
1F
100
AcDbEntity
  8
0
  6
AM_DIN_F_W050
 62
     6
 48
5.0
100
AcDbLine
 10
-244.0005789110184
 20
-275.0000245612329
 30
0.0
 11
-244.0005789110184
 21
-280.0000245612329
 31
0.0
  0
LINE
  5
3CA9
330
1F
100
AcDbEntity
  8
0
  6
AM_DIN_F_W050
 62
     6
 48
5.0
100
AcDbLine
 10
-219.0005789110184
 20
-255.0000245612328
 30
0.0
 11
-219.0005789110184
 21
-280.0000245612326
 31
0.0
  0
LINE
  5
3CAA
330
1F
100
AcDbEntity
  8
0
  6
AM_DIN_F_W050
 62
     6
 48
5.0
100
AcDbLine
 10
-248.9484842728638
 20
-260.0000245612327
 30
0.0
 11
-238.858513583166
 21
-260.0000245612327
 31
0.0
  0
ELLIPSE
  5
3CAB
330
1F
100
AcDbEntity
  8
0
  6
AM_DIN_F_W050
 62
     6
 48
5.0
100
AcDbEllipse
 10
-248.9484842728638
 20
-267.5000245612326
 30
0.0
 11
0.0
 21
7.5
 31
0.0
210
0.0
220
0.0
230
1.0
 40
0.7453556958908545
 41
0.0
 42
6.283185307179586
  0
ELLIPSE
  5
3CAC
330
1F
100
AcDbEntity
  8
0
  6
AM_DIN_F_W050
 62
     6
 48
5.0
100
AcDbEllipse
 10
-238.858513583166
 20
-267.5000245612326
 30
0.0
 11
0.0
 21
7.5
 31
0.0
210
0.0
220
0.0
230
1.0
 40
0.7453556958908545
 41
3.141592653589793
 42
6.283185307179586
  0
LINE
  5
3CAD
330
1F
100
AcDbEntity
  8
0
  6
AM_DIN_F_W050
 62
     6
 48
5.0
100
AcDbLine
 10
-248.9484842728638
 20
-275.0000245612326
 30
0.0
 11
-238.858513583166
 21
-275.0000245612326
 31
0.0
  0
LINE
  5
3CAE
330
1F
100
AcDbEntity
  8
0
100
AcDbLine
 10
243.9994210889823
 20
-770.0000245612326
 30
0.0
 11
243.9994210889823
 21
-280.0000245612329
 31
0.0
  0
LINE
  5
3CAF
330
1F
100
AcDbEntity
  8
0
100
AcDbLine
 10
243.9994210889823
 20
-255.0000245612328
 30
0.0
 11
243.9994210889823
 21
-100.0000245612326
 31
0.0
  0
LINE
  5
3CB0
330
1F
100
AcDbEntity
  8
0
100
AcDbLine
 10
218.9994210889823
 20
-770.0000245612326
 30
0.0
 11
218.9994210889819
 21
-280.0000245612314
 31
0.0
  0
LINE
  5
3CB1
330
1F
100
AcDbEntity
  8
0
100
AcDbLine
 10
218.9994210889823
 20
-255.0000245612328
 30
0.0
 11
218.9994210889823
 21
-100.0000245612326
 31
0.0
  0
LINE
  5
3CB2
330
1F
100
AcDbEntity
  8
0
100
AcDbLine
 10
246.4994210889823
 20
-100.0000245612326
 30
0.0
 11
243.9994210889823
 21
-100.0000245612326
 31
0.0
  0
LINE
  5
3CB3
330
1F
100
AcDbEntity
  8
0
100
AcDbLine
 10
218.9994210889823
 20
-100.0000245612326
 30
0.0
 11
216.4994210889823
 21
-100.0000245612326
 31
0.0
  0
LINE
  5
3CB4
330
1F
100
AcDbEntity
  8
0
100
AcDbLine
 10
246.4994210889823
 20
-95.00002456123263
 30
0.0
 11
246.4994210889823
 21
-100.0000245612326
 31
0.0
  0
LINE
  5
3CB5
330
1F
100
AcDbEntity
  8
0
100
AcDbLine
 10
216.4994210889823
 20
-95.0000245612323
 30
0.0
 11
216.4994210889823
 21
-100.0000245612326
 31
0.0
  0
LINE
  5
3CB6
330
1F
100
AcDbEntity
  8
0
100
AcDbLine
 10
244.9994210889823
 20
-850.0000245612326
 30
0.0
 11
217.9994210889823
 21
-850.0000245612326
 31
0.0
  0
LINE
  5
3CB7
330
1F
100
AcDbEntity
  8
0
100
AcDbLine
 10
244.9994210889823
 20
-770.0000245612326
 30
0.0
 11
243.9994210889823
 21
-770.0000245612326
 31
0.0
  0
LINE
  5
3CB8
330
1F
100
AcDbEntity
  8
0
100
AcDbLine
 10
218.9994210889823
 20
-770.0000245612326
 30
0.0
 11
217.9994210889823
 21
-770.0000245612326
 31
0.0
  0
LINE
  5
3CB9
330
1F
100
AcDbEntity
  8
0
100
AcDbLine
 10
244.9994210889823
 20
-850.0000245612326
 30
0.0
 11
244.9994210889823
 21
-770.0000245612326
 31
0.0
  0
LINE
  5
3CBA
330
1F
100
AcDbEntity
  8
0
100
AcDbLine
 10
217.9994210889823
 20
-850.0000245612326
 30
0.0
 11
217.9994210889823
 21
-770.0000245612326
 31
0.0
  0
LINE
  5
3CBB
330
1F
100
AcDbEntity
  8
0
100
AcDbLine
 10
243.9994210889823
 20
-770.0000245612326
 30
0.0
 11
218.9994210889823
 21
-770.0000245612326
 31
0.0
  0
LINE
  5
3CBC
330
1F
100
AcDbEntity
  8
0
  6
CENTER2
 62
     4
 48
30.0
100
AcDbLine
 10
231.4994210889823
 20
-861.4305636525799
 30
0.0
 11
231.4994210889823
 21
-831.7792691862097
 31
0.0
  0
LINE
  5
3CBD
330
1F
100
AcDbEntity
  8
0
100
AcDbLine
 10
243.9994210889823
 20
-100.0000245612326
 30
0.0
 11
218.9994210889823
 21
-100.0000245612326
 31
0.0
  0
LINE
  5
3CBE
330
1F
100
AcDbEntity
  8
0
  6
AM_DIN_F_W050
 62
     6
 48
5.0
100
AcDbLine
 10
243.9994210889823
 20
-255.0000245612326
 30
0.0
 11
243.9994210889823
 21
-260.0000245612327
 31
0.0
  0
LINE
  5
3CBF
330
1F
100
AcDbEntity
  8
0
  6
AM_DIN_F_W050
 62
     6
 48
5.0
100
AcDbLine
 10
243.9994210889823
 20
-275.0000245612329
 30
0.0
 11
243.9994210889823
 21
-280.0000245612329
 31
0.0
  0
LINE
  5
3CC0
330
1F
100
AcDbEntity
  8
0
  6
AM_DIN_F_W050
 62
     6
 48
5.0
100
AcDbLine
 10
218.9994210889823
 20
-255.0000245612328
 30
0.0
 11
218.9994210889823
 21
-280.0000245612326
 31
0.0
  0
LINE
  5
3CC1
330
1F
100
AcDbEntity
  8
0
  6
AM_DIN_F_W050
 62
     6
 48
5.0
100
AcDbLine
 10
248.9473264508275
 20
-260.0000245612327
 30
0.0
 11
238.8573557611299
 21
-260.0000245612327
 31
0.0
  0
ELLIPSE
  5
3CC2
330
1F
100
AcDbEntity
  8
0
  6
AM_DIN_F_W050
 62
     6
 48
5.0
100
AcDbEllipse
 10
248.9473264508275
 20
-267.5000245612326
 30
0.0
 11
0.0000000000000007
 21
7.5
 31
0.0
210
0.0
220
0.0
230
-1.0
 40
0.7453556958908545
 41
0.0
 42
6.283185307179586
  0
ELLIPSE
  5
3CC3
330
1F
100
AcDbEntity
  8
0
  6
AM_DIN_F_W050
 62
     6
 48
5.0
100
AcDbEllipse
 10
238.8573557611299
 20
-267.5000245612326
 30
0.0
 11
0.0000000000000007
 21
7.5
 31
0.0
210
0.0
220
0.0
230
-1.0
 40
0.7453556958908545
 41
3.141592653589793
 42
6.283185307179586
  0
LINE
  5
3CC4
330
1F
100
AcDbEntity
  8
0
  6
AM_DIN_F_W050
 62
     6
 48
5.0
100
AcDbLine
 10
248.9473264508275
 20
-275.0000245612326
 30
0.0
 11
238.8573557611299
 21
-275.0000245612326
 31
0.0
  0
ENDSEC
  0
SECTION
  2
OBJECTS
  0
DICTIONARY
  5
C
330
0
100
AcDbDictionary
281
     1
  3
ACAD_COLOR
350
28F3
  3
ACAD_GROUP
350
D
  3
ACAD_LAYOUT
350
1A
  3
ACAD_MATERIAL
350
28C1
  3
ACAD_MLEADERSTYLE
350
2908
  3
ACAD_MLINESTYLE
350
17
  3
ACAD_PLOTSETTINGS
350
19
  3
ACAD_PLOTSTYLENAME
350
E
  3
ACAD_SCALELIST
350
28F6
  3
ACAD_TABLESTYLE
350
28F4
  3
ACAD_VISUALSTYLE
350
28DA
  3
ACDB_RECOMPOSE_DATA
350
3D97
  3
AcDbVariableDictionary
350
86
  3
AcmDictionary
350
45
  3
AEC_PROPERTY_SET_DEFS
350
30C5
  3
AMG
350
41
  3
AMGSNAPSETTINGS
350
332
  3
ASE_INDEX_DICTIONARY
350
3353
  0
DICTIONARY
  5
2972
330
8
100
AcDbDictionary
280
     1
281
     1
  0
DICTIONARY
  5
2967
330
2
100
AcDbDictionary
280
     1
281
     1
  3
ACAD_LAYERSTATES
360
2968
  0
DICTIONARY
  5
2962
330
10
100
AcDbDictionary
280
     1
281
     1
  3
ADSK_XREC_LAYER_RECONCILED
360
2963
  0
DICTIONARY
  5
81
330
1F
100
AcDbDictionary
280
     1
281
     1
  3
ACAD_SORTENTS
360
2A85
  0
DICTIONARY
  5
2BD9
330
2BA2
100
AcDbDictionary
280
     1
281
     1
  3
ACAD_SORTENTS
360
2BDA
  0
DICTIONARY
  5
28F3
102
{ACAD_REACTORS
330
C
102
}
330
C
100
AcDbDictionary
281
     1
  0
DICTIONARY
  5
D
102
{ACAD_REACTORS
330
C
102
}
330
C
100
AcDbDictionary
281
     1
  0
DICTIONARY
  5
1A
102
{ACAD_REACTORS
330
C
102
}
330
C
100
AcDbDictionary
281
     1
  3
Layout1
350
1E
  3
Layout2
350
26
  3
Model
350
22
  0
DICTIONARY
  5
28C1
102
{ACAD_REACTORS
330
C
102
}
330
C
100
AcDbDictionary
281
     1
  3
ByBlock
350
28CA
  3
ByLayer
350
28C2
  3
Global
350
28D2
  0
DICTIONARY
  5
2908
102
{ACAD_REACTORS
330
C
102
}
330
C
100
AcDbDictionary
281
     1
  3
Standard
350
2909
  0
DICTIONARY
  5
17
102
{ACAD_REACTORS
330
C
102
}
330
C
100
AcDbDictionary
281
     1
  3
Standard
350
18
  0
DICTIONARY
  5
19
102
{ACAD_REACTORS
330
C
102
}
330
C
100
AcDbDictionary
281
     1
  0
ACDBDICTIONARYWDFLT
  5
E
102
{ACAD_REACTORS
330
C
102
}
330
C
100
AcDbDictionary
281
     1
  3
Normal
350
F
100
AcDbDictionaryWithDefault
340
F
  0
DICTIONARY
  5
28F6
102
{ACAD_REACTORS
330
C
102
}
330
C
100
AcDbDictionary
281
     1
  3
A0
350
28F7
  3
A1
350
28F8
  3
A2
350
28F9
  3
A3
350
28FA
  3
A4
350
28FB
  3
A5
350
28FC
  3
A6
350
28FD
  3
A7
350
28FE
  3
A8
350
28FF
  3
A9
350
2900
  3
B0
350
2901
  3
B1
350
2902
  3
B2
350
2903
  3
B3
350
2904
  3
B4
350
2905
  3
B5
350
2906
  3
B6
350
2907
  0
DICTIONARY
  5
28F4
102
{ACAD_REACTORS
330
C
102
}
330
C
100
AcDbDictionary
281
     1
  3
Standard
350
28F5
  0
DICTIONARY
  5
28DA
102
{ACAD_REACTORS
330
C
102
}
330
C
100
AcDbDictionary
281
     1
  3
2dWireframe
350
28E0
  3
Basic
350
28DF
  3
Brighten
350
28E6
  3
ColorChange
350
28EA
  3
Conceptual
350
28E3
  3
Dim
350
28E5
  3
EdgeColorOff
350
28F2
  3
Facepattern
350
28E9
  3
Flat
350
28DB
  3
FlatWithEdges
350
28DC
  3
Gouraud
350
28DD
  3
GouraudWithEdges
350
28DE
  3
Hidden
350
28E2
  3
JitterOff
350
28F0
  3
Linepattern
350
28E8
  3
OverhangOff
350
28F1
  3
Realistic
350
28E4
  3
Shaded
350
28EF
  3
Shaded with edges
350
28EE
  3
Shades of Gray
350
28EB
  3
Sketchy
350
28EC
  3
Thicken
350
28E7
  3
Wireframe
350
28E1
  3
X-Ray
350
28ED
  0
XRECORD
  5
3D97
102
{ACAD_REACTORS
330
C
102
}
330
C
100
AcDbXrecord
280
     1
 90
        1
330
28F5
  0
DICTIONARY
  5
86
102
{ACAD_REACTORS
330
C
102
}
330
C
100
AcDbDictionary
281
     1
  3
CANNOSCALE
350
29AB
  3
CMLEADERSTYLE
350
29AA
  3
CTABLESTYLE
350
29A9
  3
DIMASSOC
350
89
  3
HIDETEXT
350
88
  3
INDEXCTL
350
87
  3
LAYEREVAL
350
2A32
  3
LAYERNOTIFY
350
2A33
  3
LIGHTINGUNITS
350
2A31
  3
MSLTSCALE
350
2A30
  3
XCLIPFRAME
350
3D95
  0
DICTIONARY
  5
45
102
{ACAD_REACTORS
330
C
102
}
330
C
100
AcDbDictionary
281
     1
  3
AcmStdDictionary
350
4A
  3
AMDTSECTSYM_ARROWCOLOR
350
2956
  0
DICTIONARY
  5
30C5
102
{ACAD_REACTORS
330
C
102
}
330
C
100
AcDbDictionary
281
     1
  0
DICTIONARY
  5
41
102
{ACAD_REACTORS
330
C
102
}
330
C
100
AcDbDictionary
281
     1
  0
DICTIONARY
  5
332
102
{ACAD_REACTORS
330
C
102
}
330
C
100
AcDbDictionary
281
     1
  0
DICTIONARY
  5
3353
102
{ACAD_REACTORS
330
C
102
}
330
C
100
AcDbDictionary
281
     1
  3
ASEBlockHierarchyIndexRecord
350
3354
1001
DCO15
1040
1828676709.132
  0
DICTIONARY
  5
2968
102
{ACAD_REACTORS
330
2967
102
}
330
2967
100
AcDbDictionary
281
     1
  0
XRECORD
  5
2963
102
{ACAD_REACTORS
330
2962
102
}
330
2962
100
AcDbXrecord
280
     1
290
     1
  0
SORTENTSTABLE
  5
2A85
102
{ACAD_REACTORS
330
81
102
}
330
81
100
AcDbSortentsTable
330
1F
331
3241
  5
3241
331
323C
  5
323C
331
3250
  5
3418
331
3965
  5
3969
331
324A
  5
3258
331
3946
  5
3965
331
3243
  5
3243
331
3967
  5
3816
331
3912
  5
3935
331
323E
  5
323E
331
3952
  5
3967
331
3969
  5
324F
331
3245
  5
3245
331
3964
  5
324A
331
3240
  5
3240
331
3258
  5
3419
331
3249
  5
3249
331
3242
  5
3242
331
323D
  5
323D
331
3908
  5
3914
331
3966
  5
396A
331
3244
  5
3244
331
3968
  5
3250
331
3951
  5
3966
331
38EC
  5
3818
331
323F
  5
323F
331
33F5
  5
341A
331
3953
  5
3968
331
396A
  5
3810
331
3246
  5
3246
331
324F
  5
333B
331
391D
  5
3946
331
3963
  5
380F
331
3926
  5
3951
  0
SORTENTSTABLE
  5
2BDA
102
{ACAD_REACTORS
330
2BD9
102
}
330
2BD9
100
AcDbSortentsTable
330
2BA2
  0
LAYOUT
  5
1E
102
{ACAD_REACTORS
330
1A
102
}
330
1A
100
AcDbPlotSettings
  1

  2
Epson Stylus COLOR 440 ESC/P 2
  4

  6

 40
0.0
 41
0.0
 42
0.0
 43
0.0
 44
0.0
 45
0.0
 46
0.0
 47
0.0
 48
0.0
 49
0.0
140
0.0
141
0.0
142
1.0
143
1.0
 70
   688
 72
     0
 73
     0
 74
     5
  7

 75
    16
147
1.0
 76
     0
 77
     2
 78
   300
148
0.0
149
0.0
100
AcDbLayout
  1
Layout1
 70
     1
 71
     1
 10
0.0
 20
0.0
 11
420.0
 21
297.0
 12
0.0
 22
0.0
 32
0.0
 14
1.000000000000000E+20
 24
1.000000000000000E+20
 34
1.000000000000000E+20
 15
-1.000000000000000E+20
 25
-1.000000000000000E+20
 35
-1.000000000000000E+20
146
0.0
 13
0.0
 23
0.0
 33
0.0
 16
1.0
 26
0.0
 36
0.0
 17
0.0
 27
1.0
 37
0.0
 76
     0
330
1B
  0
LAYOUT
  5
26
102
{ACAD_REACTORS
330
1A
102
}
330
1A
100
AcDbPlotSettings
  1

  2
Epson Stylus COLOR 440 ESC/P 2
  4

  6

 40
0.0
 41
0.0
 42
0.0
 43
0.0
 44
0.0
 45
0.0
 46
0.0
 47
0.0
 48
0.0
 49
0.0
140
0.0
141
0.0
142
1.0
143
1.0
 70
   688
 72
     0
 73
     0
 74
     5
  7

 75
    16
147
1.0
 76
     0
 77
     2
 78
   300
148
0.0
149
0.0
100
AcDbLayout
  1
Layout2
 70
     1
 71
     2
 10
0.0
 20
0.0
 11
12.0
 21
9.0
 12
0.0
 22
0.0
 32
0.0
 14
0.0
 24
0.0
 34
0.0
 15
0.0
 25
0.0
 35
0.0
146
0.0
 13
0.0
 23
0.0
 33
0.0
 16
1.0
 26
0.0
 36
0.0
 17
0.0
 27
1.0
 37
0.0
 76
     0
330
23
  0
LAYOUT
  5
22
102
{ACAD_XDICTIONARY
360
296D
102
}
102
{ACAD_REACTORS
330
1A
102
}
330
1A
100
AcDbPlotSettings
  1

  2
none_device
  4
ISO_A4_(210.00_x_297.00_MM)
  6

 40
7.5
 41
20.0
 42
7.5
 43
20.0
 44
210.0
 45
297.0
 46
0.0
 47
0.0
 48
0.0
 49
0.0
140
0.0
141
0.0
142
1.0
143
10.11828613724116
 70
 11952
 72
     1
 73
     1
 74
     0
  7

 75
     0
147
0.0988309666712646
 76
     0
 77
     2
 78
   300
148
1435.980100457849
149
751.845180125117
100
AcDbLayout
  1
Model
 70
     1
 71
     0
 10
0.0
 20
0.0
 11
12.0
 21
9.0
 12
0.0
 22
0.0
 32
0.0
 14
0.0
 24
0.0
 34
0.0
 15
0.0
 25
0.0
 35
0.0
146
0.0
 13
0.0
 23
0.0
 33
0.0
 16
1.0
 26
0.0
 36
0.0
 17
0.0
 27
1.0
 37
0.0
 76
     0
330
1F
331
28BF
1001
ACAD_PSEXT
1000
Kein
1000
Kein
1000
Nicht anwendbar
1000
Das Layout wird erst geplottet, wenn ein neuer Plotter-Konfigurationsname ausgewählt wird.
1070
     0
  0
MATERIAL
  5
28CA
102
{ACAD_XDICTIONARY
360
28CB
102
}
102
{ACAD_REACTORS
330
28C1
102
}
330
28C1
100
AcDbMaterial
  1
ByBlock
 72
     0
 43
0.0008202099737533
 43
0.0
 43
0.0
 43
0.0
 43
0.0
 43
0.0008202099737533
 43
0.0
 43
0.0
 43
0.0
 43
0.0
 43
1.0
 43
0.0
 43
0.0
 43
0.0
 43
0.0
 43
1.0
 77
     0
 47
0.0008202099737533
 47
0.0
 47
0.0
 47
0.0
 47
0.0
 47
0.0008202099737533
 47
0.0
 47
0.0
 47
0.0
 47
0.0
 47
1.0
 47
0.0
 47
0.0
 47
0.0
 47
0.0
 47
1.0
171
     0
 49
0.0008202099737533
 49
0.0
 49
0.0
 49
0.0
 49
0.0
 49
0.0008202099737533
 49
0.0
 49
0.0
 49
0.0
 49
0.0
 49
1.0
 49
0.0
 49
0.0
 49
0.0
 49
0.0
 49
1.0
175
     0
142
0.0008202099737533
142
0.0
142
0.0
142
0.0
142
0.0
142
0.0008202099737533
142
0.0
142
0.0
142
0.0
142
0.0
142
1.0
142
0.0
142
0.0
142
0.0
142
0.0
142
1.0
179
     0
144
0.0008202099737533
144
0.0
144
0.0
144
0.0
144
0.0
144
0.0008202099737533
144
0.0
144
0.0
144
0.0
144
0.0
144
1.0
144
0.0
144
0.0
144
0.0
144
0.0
144
1.0
147
0.0008202099737533
147
0.0
147
0.0
147
0.0
147
0.0
147
0.0008202099737533
147
0.0
147
0.0
147
0.0
147
0.0
147
1.0
147
0.0
147
0.0
147
0.0
147
0.0
147
1.0
  0
MATERIAL
  5
28C2
102
{ACAD_XDICTIONARY
360
28C3
102
}
102
{ACAD_REACTORS
330
28C1
102
}
330
28C1
100
AcDbMaterial
  1
ByLayer
 72
     0
 43
0.0008202099737533
 43
0.0
 43
0.0
 43
0.0
 43
0.0
 43
0.0008202099737533
 43
0.0
 43
0.0
 43
0.0
 43
0.0
 43
1.0
 43
0.0
 43
0.0
 43
0.0
 43
0.0
 43
1.0
 77
     0
 47
0.0008202099737533
 47
0.0
 47
0.0
 47
0.0
 47
0.0
 47
0.0008202099737533
 47
0.0
 47
0.0
 47
0.0
 47
0.0
 47
1.0
 47
0.0
 47
0.0
 47
0.0
 47
0.0
 47
1.0
171
     0
 49
0.0008202099737533
 49
0.0
 49
0.0
 49
0.0
 49
0.0
 49
0.0008202099737533
 49
0.0
 49
0.0
 49
0.0
 49
0.0
 49
1.0
 49
0.0
 49
0.0
 49
0.0
 49
0.0
 49
1.0
175
     0
142
0.0008202099737533
142
0.0
142
0.0
142
0.0
142
0.0
142
0.0008202099737533
142
0.0
142
0.0
142
0.0
142
0.0
142
1.0
142
0.0
142
0.0
142
0.0
142
0.0
142
1.0
179
     0
144
0.0008202099737533
144
0.0
144
0.0
144
0.0
144
0.0
144
0.0008202099737533
144
0.0
144
0.0
144
0.0
144
0.0
144
1.0
144
0.0
144
0.0
144
0.0
144
0.0
144
1.0
147
0.0008202099737533
147
0.0
147
0.0
147
0.0
147
0.0
147
0.0008202099737533
147
0.0
147
0.0
147
0.0
147
0.0
147
1.0
147
0.0
147
0.0
147
0.0
147
0.0
147
1.0
  0
MATERIAL
  5
28D2
102
{ACAD_XDICTIONARY
360
28D3
102
}
102
{ACAD_REACTORS
330
28C1
102
}
330
28C1
100
AcDbMaterial
  1
Global
 72
     0
 43
0.0008202099737533
 43
0.0
 43
0.0
 43
0.0
 43
0.0
 43
0.0008202099737533
 43
0.0
 43
0.0
 43
0.0
 43
0.0
 43
1.0
 43
0.0
 43
0.0
 43
0.0
 43
0.0
 43
1.0
 77
     0
 47
0.0008202099737533
 47
0.0
 47
0.0
 47
0.0
 47
0.0
 47
0.0008202099737533
 47
0.0
 47
0.0
 47
0.0
 47
0.0
 47
1.0
 47
0.0
 47
0.0
 47
0.0
 47
0.0
 47
1.0
171
     0
 49
0.0008202099737533
 49
0.0
 49
0.0
 49
0.0
 49
0.0
 49
0.0008202099737533
 49
0.0
 49
0.0
 49
0.0
 49
0.0
 49
1.0
 49
0.0
 49
0.0
 49
0.0
 49
0.0
 49
1.0
175
     0
142
0.0008202099737533
142
0.0
142
0.0
142
0.0
142
0.0
142
0.0008202099737533
142
0.0
142
0.0
142
0.0
142
0.0
142
1.0
142
0.0
142
0.0
142
0.0
142
0.0
142
1.0
179
     0
144
0.0008202099737533
144
0.0
144
0.0
144
0.0
144
0.0
144
0.0008202099737533
144
0.0
144
0.0
144
0.0
144
0.0
144
1.0
144
0.0
144
0.0
144
0.0
144
0.0
144
1.0
147
0.0008202099737533
147
0.0
147
0.0
147
0.0
147
0.0
147
0.0008202099737533
147
0.0
147
0.0
147
0.0
147
0.0
147
1.0
147
0.0
147
0.0
147
0.0
147
0.0
147
1.0
  0
MLEADERSTYLE
  5
2909
102
{ACAD_REACTORS
330
2908
102
}
330
2908
100
AcDbMLeaderStyle
170
     2
171
     1
172
     0
 90
        2
 40
0.0
 41
0.0
173
     1
 91
-1056964608
340
14
 92
       -2
290
     1
 42
2.0
291
     1
 43
0.36
  3
Standard
 44
4.0
300

342
11
174
     1
178
     6
175
     1
176
     0
 93
-1056964608
 45
4.0
292
     0
297
     0
 46
4.0
 94
-1056964608
 47
1.0
 49
1.0
140
1.0
293
     1
141
0.0
294
     1
177
     0
142
1.0
295
     0
296
     0
143
0.125
1001
ACAD_MLEADERVER
1070
     2
  0
MLINESTYLE
  5
18
102
{ACAD_REACTORS
330
17
102
}
330
17
100
AcDbMlineStyle
  2
STANDARD
 70
     0
  3

 62
   256
 51
90.0
 52
90.0
 71
     2
 49
0.5
 62
   256
  6
BYLAYER
 49
-0.5
 62
   256
  6
BYLAYER
  0
ACDBPLACEHOLDER
  5
F
102
{ACAD_REACTORS
330
E
102
}
330
E
  0
SCALE
  5
28F7
102
{ACAD_REACTORS
330
28F6
102
}
330
28F6
100
AcDbScale
 70
     0
300
1:1
140
1.0
141
1.0
290
     1
  0
SCALE
  5
28F8
102
{ACAD_REACTORS
330
28F6
102
}
330
28F6
100
AcDbScale
 70
     0
300
1:2
140
1.0
141
2.0
290
     0
  0
SCALE
  5
28F9
102
{ACAD_REACTORS
330
28F6
102
}
330
28F6
100
AcDbScale
 70
     0
300
1:4
140
1.0
141
4.0
290
     0
  0
SCALE
  5
28FA
102
{ACAD_REACTORS
330
28F6
102
}
330
28F6
100
AcDbScale
 70
     0
300
1:5
140
1.0
141
5.0
290
     0
  0
SCALE
  5
28FB
102
{ACAD_REACTORS
330
28F6
102
}
330
28F6
100
AcDbScale
 70
     0
300
1:8
140
1.0
141
8.0
290
     0
  0
SCALE
  5
28FC
102
{ACAD_REACTORS
330
28F6
102
}
330
28F6
100
AcDbScale
 70
     0
300
1:10
140
1.0
141
10.0
290
     0
  0
SCALE
  5
28FD
102
{ACAD_REACTORS
330
28F6
102
}
330
28F6
100
AcDbScale
 70
     0
300
1:16
140
1.0
141
16.0
290
     0
  0
SCALE
  5
28FE
102
{ACAD_REACTORS
330
28F6
102
}
330
28F6
100
AcDbScale
 70
     0
300
1:20
140
1.0
141
20.0
290
     0
  0
SCALE
  5
28FF
102
{ACAD_REACTORS
330
28F6
102
}
330
28F6
100
AcDbScale
 70
     0
300
1:30
140
1.0
141
30.0
290
     0
  0
SCALE
  5
2900
102
{ACAD_REACTORS
330
28F6
102
}
330
28F6
100
AcDbScale
 70
     0
300
1:40
140
1.0
141
40.0
290
     0
  0
SCALE
  5
2901
102
{ACAD_REACTORS
330
28F6
102
}
330
28F6
100
AcDbScale
 70
     0
300
1:50
140
1.0
141
50.0
290
     0
  0
SCALE
  5
2902
102
{ACAD_REACTORS
330
28F6
102
}
330
28F6
100
AcDbScale
 70
     0
300
1:100
140
1.0
141
100.0
290
     0
  0
SCALE
  5
2903
102
{ACAD_REACTORS
330
28F6
102
}
330
28F6
100
AcDbScale
 70
     0
300
2:1
140
2.0
141
1.0
290
     0
  0
SCALE
  5
2904
102
{ACAD_REACTORS
330
28F6
102
}
330
28F6
100
AcDbScale
 70
     0
300
4:1
140
4.0
141
1.0
290
     0
  0
SCALE
  5
2905
102
{ACAD_REACTORS
330
28F6
102
}
330
28F6
100
AcDbScale
 70
     0
300
8:1
140
8.0
141
1.0
290
     0
  0
SCALE
  5
2906
102
{ACAD_REACTORS
330
28F6
102
}
330
28F6
100
AcDbScale
 70
     0
300
10:1
140
10.0
141
1.0
290
     0
  0
SCALE
  5
2907
102
{ACAD_REACTORS
330
28F6
102
}
330
28F6
100
AcDbScale
 70
     0
300
100:1
140
100.0
141
1.0
290
     0
  0
TABLESTYLE
  5
28F5
102
{ACAD_XDICTIONARY
360
296F
102
}
102
{ACAD_REACTORS
330
28F4
102
}
330
28F4
100
AcDbTableStyle
  3
Standard
 70
     0
 71
     0
 40
1.5
 41
1.5
280
     0
281
     0
  7
STANDARD
140
4.5
170
     2
 62
     0
 63
     7
283
     0
274
    -2
284
     1
 64
     0
275
    -2
285
     1
 65
     0
276
    -2
286
     1
 66
     0
277
    -2
287
     1
 67
     0
278
    -2
288
     1
 68
     0
279
    -2
289
     1
 69
     0
  7
STANDARD
140
6.0
170
     5
 62
     0
 63
     7
283
     0
274
    -2
284
     1
 64
     0
275
    -2
285
     1
 65
     0
276
    -2
286
     1
 66
     0
277
    -2
287
     1
 67
     0
278
    -2
288
     1
 68
     0
279
    -2
289
     1
 69
     0
  7
STANDARD
140
4.5
170
     5
 62
     0
 63
     7
283
     0
274
    -2
284
     1
 64
     0
275
    -2
285
     1
 65
     0
276
    -2
286
     1
 66
     0
277
    -2
287
     1
 67
     0
278
    -2
288
     1
 68
     0
279
    -2
289
     1
 69
     0
  0
VISUALSTYLE
  5
28E0
102
{ACAD_XDICTIONARY
360
3DA5
102
}
102
{ACAD_REACTORS
330
28DA
102
}
330
28DA
100
AcDbVisualStyle
  2
2dWireframe
 70
     4
 71
     0
 72
     2
 73
     0
 90
        0
 40
-0.6
 41
-30.0
 62
     5
 63
     7
421
 16777215
 74
     1
 91
        4
 64
     7
 65
   257
 75
     1
175
     1
 42
1.0
 92
        0
 66
   257
 43
1.0
 76
     1
 77
     6
 78
     2
 67
     7
 79
     5
170
     0
171
     0
290
     0
174
     0
 93
        1
 44
0.0
173
     0
291
     0
 45
0.0
1001
ACAD
1000
AcDbSavedByObjectVersion
1070
     0
  0
VISUALSTYLE
  5
28DF
102
{ACAD_XDICTIONARY
360
3DA3
102
}
102
{ACAD_REACTORS
330
28DA
102
}
330
28DA
100
AcDbVisualStyle
  2
Basic
 70
     7
 71
     1
 72
     0
 73
     1
 90
        0
 40
-0.6
 41
-30.0
 62
     5
 63
     7
421
 16777215
 74
     0
 91
        4
 64
     7
 65
   257
 75
     1
175
     1
 42
1.0
 92
        8
 66
     7
 43
1.0
 76
     1
 77
     6
 78
     2
 67
     7
 79
     5
170
     0
171
     0
290
     0
174
     0
 93
        1
 44
0.0
173
     0
291
     1
 45
0.0
1001
ACAD
1000
AcDbSavedByObjectVersion
1070
     0
  0
VISUALSTYLE
  5
28E6
102
{ACAD_XDICTIONARY
360
3DB1
102
}
102
{ACAD_REACTORS
330
28DA
102
}
330
28DA
100
AcDbVisualStyle
  2
Brighten
 70
    12
 71
     2
 72
     2
 73
     0
 90
        0
 40
-0.6
 41
-30.0
 62
     5
 63
     7
421
 16777215
 74
     1
 91
        4
 64
     7
 65
   257
 75
     1
175
     1
 42
1.0
 92
        8
 66
     7
 43
1.0
 76
     1
 77
     6
 78
     2
 67
     7
 79
     5
170
     0
171
     0
290
     0
174
     0
 93
        1
 44
50.0
173
     0
291
     1
 45
0.0
1001
ACAD
1000
AcDbSavedByObjectVersion
1070
     0
  0
VISUALSTYLE
  5
28EA
102
{ACAD_XDICTIONARY
360
3DB9
102
}
102
{ACAD_REACTORS
330
28DA
102
}
330
28DA
100
AcDbVisualStyle
  2
ColorChange
 70
    16
 71
     2
 72
     2
 73
     3
 90
        0
 40
-0.6
 41
-30.0
 62
     5
 63
     8
421
  8421504
 74
     1
 91
        4
 64
     7
 65
   257
 75
     1
175
     1
 42
1.0
 92
        8
 66
     8
424
  8421504
 43
1.0
 76
     1
 77
     6
 78
     2
 67
     7
 79
     5
170
     0
171
     0
290
     0
174
     0
 93
        1
 44
0.0
173
     0
291
     1
 45
0.0
1001
ACAD
1000
AcDbSavedByObjectVersion
1070
     0
  0
VISUALSTYLE
  5
28E3
102
{ACAD_XDICTIONARY
360
3DAB
102
}
102
{ACAD_REACTORS
330
28DA
102
}
330
28DA
100
AcDbVisualStyle
  2
Conceptual
 70
     9
 71
     3
 72
     2
 73
     0
 90
        0
 40
-0.6
 41
-30.0
 62
     5
 63
     7
421
 16777215
 74
     2
 91
        2
 64
     7
 65
   257
 75
     1
175
     1
 42
179.0
 92
        8
 66
     7
 43
1.0
 76
     1
 77
     6
 78
     2
 67
     7
 79
     3
170
     0
171
     0
290
     0
174
     0
 93
        1
 44
0.0
173
     0
291
     0
 45
0.0
1001
ACAD
1000
AcDbSavedByObjectVersion
1070
     0
  0
VISUALSTYLE
  5
28E5
102
{ACAD_XDICTIONARY
360
3DAF
102
}
102
{ACAD_REACTORS
330
28DA
102
}
330
28DA
100
AcDbVisualStyle
  2
Dim
 70
    11
 71
     2
 72
     2
 73
     0
 90
        0
 40
-0.6
 41
-30.0
 62
     5
 63
     7
421
 16777215
 74
     1
 91
        4
 64
     7
 65
   257
 75
     1
175
     1
 42
1.0
 92
        8
 66
     7
 43
1.0
 76
     1
 77
     6
 78
     2
 67
     7
 79
     5
170
     0
171
     0
290
     0
174
     0
 93
        1
 44
-50.0
173
     0
291
     1
 45
0.0
1001
ACAD
1000
AcDbSavedByObjectVersion
1070
     0
  0
VISUALSTYLE
  5
28F2
102
{ACAD_XDICTIONARY
360
3DC9
102
}
102
{ACAD_REACTORS
330
28DA
102
}
330
28DA
100
AcDbVisualStyle
  2
EdgeColorOff
 70
    22
 71
     2
 72
     2
 73
     0
 90
        0
 40
-0.6
 41
-30.0
 62
     5
 63
     7
421
 16777215
 74
     1
 91
        4
 64
     7
 65
   257
 75
     1
175
     1
 42
1.0
 92
        8
 66
     7
 43
1.0
 76
     1
 77
     6
 78
     2
 67
     7
 79
     5
170
     0
171
     0
290
     0
174
     0
 93
        1
 44
0.0
173
     0
291
     1
 45
0.0
1001
ACAD
1000
AcDbSavedByObjectVersion
1070
     0
  0
VISUALSTYLE
  5
28E9
102
{ACAD_XDICTIONARY
360
3DB7
102
}
102
{ACAD_REACTORS
330
28DA
102
}
330
28DA
100
AcDbVisualStyle
  2
Facepattern
 70
    15
 71
     2
 72
     2
 73
     0
 90
        0
 40
-0.6
 41
-30.0
 62
     5
 63
     7
421
 16777215
 74
     1
 91
        4
 64
     7
 65
   257
 75
     1
175
     1
 42
1.0
 92
        8
 66
     7
 43
1.0
 76
     1
 77
     6
 78
     2
 67
     7
 79
     5
170
     0
171
     0
290
     0
174
     0
 93
        1
 44
0.0
173
     0
291
     1
 45
0.0
1001
ACAD
1000
AcDbSavedByObjectVersion
1070
     0
  0
VISUALSTYLE
  5
28DB
102
{ACAD_XDICTIONARY
360
3D9B
102
}
102
{ACAD_REACTORS
330
28DA
102
}
330
28DA
100
AcDbVisualStyle
  2
Flat
 70
     0
 71
     2
 72
     1
 73
     1
 90
        2
 40
-0.6
 41
30.0
 62
     5
 63
     7
421
 16777215
 74
     0
 91
        0
 64
     7
 65
   257
 75
     1
175
     1
 42
1.0
 92
        8
 66
     7
 43
1.0
 76
     1
 77
     6
 78
     2
 67
     7
 79
     5
170
     0
171
     0
290
     0
174
     0
 93
       13
 44
0.0
173
     0
291
     1
 45
0.0
1001
ACAD
1000
AcDbSavedByObjectVersion
1070
     0
  0
VISUALSTYLE
  5
28DC
102
{ACAD_XDICTIONARY
360
3D9D
102
}
102
{ACAD_REACTORS
330
28DA
102
}
330
28DA
100
AcDbVisualStyle
  2
FlatWithEdges
 70
     1
 71
     2
 72
     1
 73
     1
 90
        2
 40
-0.6
 41
30.0
 62
     5
 63
     7
421
 16777215
 74
     1
 91
        0
 64
     7
 65
   257
 75
     1
175
     1
 42
1.0
 92
        0
 66
   257
 43
1.0
 76
     1
 77
     6
 78
     2
 67
     7
 79
     5
170
     0
171
     0
290
     0
174
     0
 93
       13
 44
0.0
173
     0
291
     1
 45
0.0
1001
ACAD
1000
AcDbSavedByObjectVersion
1070
     0
  0
VISUALSTYLE
  5
28DD
102
{ACAD_XDICTIONARY
360
3D9F
102
}
102
{ACAD_REACTORS
330
28DA
102
}
330
28DA
100
AcDbVisualStyle
  2
Gouraud
 70
     2
 71
     2
 72
     2
 73
     1
 90
        2
 40
-0.6
 41
30.0
 62
     5
 63
     7
421
 16777215
 74
     0
 91
        0
 64
     7
 65
   257
 75
     1
175
     1
 42
1.0
 92
        0
 66
     7
 43
1.0
 76
     1
 77
     6
 78
     2
 67
     7
 79
     5
170
     0
171
     0
290
     0
174
     0
 93
       13
 44
0.0
173
     0
291
     1
 45
0.0
1001
ACAD
1000
AcDbSavedByObjectVersion
1070
     0
  0
VISUALSTYLE
  5
28DE
102
{ACAD_XDICTIONARY
360
3DA1
102
}
102
{ACAD_REACTORS
330
28DA
102
}
330
28DA
100
AcDbVisualStyle
  2
GouraudWithEdges
 70
     3
 71
     2
 72
     2
 73
     1
 90
        2
 40
-0.6
 41
30.0
 62
     5
 63
     7
421
 16777215
 74
     1
 91
        0
 64
     7
 65
   257
 75
     1
175
     1
 42
1.0
 92
        0
 66
   257
 43
1.0
 76
     1
 77
     6
 78
     2
 67
     7
 79
     5
170
     0
171
     0
290
     0
174
     0
 93
       13
 44
0.0
173
     0
291
     1
 45
0.0
1001
ACAD
1000
AcDbSavedByObjectVersion
1070
     0
  0
VISUALSTYLE
  5
28E2
102
{ACAD_XDICTIONARY
360
3DA9
102
}
102
{ACAD_REACTORS
330
28DA
102
}
330
28DA
100
AcDbVisualStyle
  2
Hidden
 70
     6
 71
     1
 72
     2
 73
     2
 90
        0
 40
-0.6
 41
-30.0
 62
     5
 63
     7
421
 16777215
 74
     2
 91
        2
 64
     7
 65
   257
 75
     2
175
     1
 42
40.0
 92
        0
 66
   257
 43
1.0
 76
     1
 77
     6
 78
     2
 67
     7
 79
     3
170
     0
171
     0
290
     0
174
     0
 93
        1
 44
0.0
173
     0
291
     0
 45
0.0
1001
ACAD
1000
AcDbSavedByObjectVersion
1070
     0
  0
VISUALSTYLE
  5
28F0
102
{ACAD_XDICTIONARY
360
3DC5
102
}
102
{ACAD_REACTORS
330
28DA
102
}
330
28DA
100
AcDbVisualStyle
  2
JitterOff
 70
    20
 71
     2
 72
     2
 73
     0
 90
        0
 40
-0.6
 41
-30.0
 62
     5
 63
     7
421
 16777215
 74
     1
 91
        4
 64
     7
 65
   257
 75
     1
175
     1
 42
1.0
 92
       10
 66
     7
 43
1.0
 76
     1
 77
     6
 78
     2
 67
     7
 79
     5
170
     0
171
     0
290
     0
174
     0
 93
        1
 44
0.0
173
     0
291
     1
 45
0.0
1001
ACAD
1000
AcDbSavedByObjectVersion
1070
     0
  0
VISUALSTYLE
  5
28E8
102
{ACAD_XDICTIONARY
360
3DB5
102
}
102
{ACAD_REACTORS
330
28DA
102
}
330
28DA
100
AcDbVisualStyle
  2
Linepattern
 70
    14
 71
     2
 72
     2
 73
     0
 90
        0
 40
-0.6
 41
-30.0
 62
     5
 63
     7
421
 16777215
 74
     1
 91
        4
 64
     7
 65
   257
 75
     7
175
     7
 42
1.0
 92
        8
 66
     7
 43
1.0
 76
     1
 77
     6
 78
     2
 67
     7
 79
     5
170
     0
171
     0
290
     0
174
     0
 93
        1
 44
0.0
173
     0
291
     1
 45
0.0
1001
ACAD
1000
AcDbSavedByObjectVersion
1070
     0
  0
VISUALSTYLE
  5
28F1
102
{ACAD_XDICTIONARY
360
3DC7
102
}
102
{ACAD_REACTORS
330
28DA
102
}
330
28DA
100
AcDbVisualStyle
  2
OverhangOff
 70
    21
 71
     2
 72
     2
 73
     0
 90
        0
 40
-0.6
 41
-30.0
 62
     5
 63
     7
421
 16777215
 74
     1
 91
        4
 64
     7
 65
   257
 75
     1
175
     1
 42
1.0
 92
        9
 66
     7
 43
1.0
 76
     1
 77
     6
 78
     2
 67
     7
 79
     5
170
     0
171
     0
290
     0
174
     0
 93
        1
 44
0.0
173
     0
291
     1
 45
0.0
1001
ACAD
1000
AcDbSavedByObjectVersion
1070
     0
  0
VISUALSTYLE
  5
28E4
102
{ACAD_XDICTIONARY
360
3DAD
102
}
102
{ACAD_REACTORS
330
28DA
102
}
330
28DA
100
AcDbVisualStyle
  2
Realistic
 70
     8
 71
     2
 72
     2
 73
     0
 90
        2
 40
-0.6
 41
30.0
 62
     5
 63
     7
421
 16777215
 74
     0
 91
        0
 64
     7
 65
   257
 75
     1
175
     1
 42
1.0
 92
        8
 66
   257
 43
1.0
 76
     1
 77
     6
 78
     2
 67
     7
 79
     3
170
     0
171
     0
290
     0
174
     0
 93
       13
 44
0.0
173
     0
291
     0
 45
0.0
1001
ACAD
1000
AcDbSavedByObjectVersion
1070
     0
  0
VISUALSTYLE
  5
28EF
102
{ACAD_XDICTIONARY
360
3DC3
102
}
102
{ACAD_REACTORS
330
28DA
102
}
330
28DA
100
AcDbVisualStyle
  2
Shaded
 70
    27
 71
     2
 72
     2
 73
     1
 90
        2
 40
-0.6
 41
30.0
 62
     5
 63
     7
421
 16777215
 74
     0
 91
        4
 64
     7
 65
   257
 75
     1
175
     1
 42
1.0
 92
        8
 66
   257
 43
1.0
 76
     1
 77
     6
 78
     2
 67
     8
425
  7895160
 79
     3
170
     0
171
     0
290
     0
174
     0
 93
        5
 44
0.0
173
     0
291
     0
 45
0.0
1001
ACAD
1000
AcDbSavedByObjectVersion
1070
     0
  0
VISUALSTYLE
  5
28EE
102
{ACAD_XDICTIONARY
360
3DC1
102
}
102
{ACAD_REACTORS
330
28DA
102
}
330
28DA
100
AcDbVisualStyle
  2
Shaded with edges
 70
    26
 71
     2
 72
     2
 73
     1
 90
        2
 40
-0.6
 41
30.0
 62
     5
 63
     7
421
 16777215
 74
     1
 91
       10
 64
     7
 65
   257
 75
     2
175
     1
 42
1.0
 92
        8
 66
   257
 43
1.0
 76
     1
 77
     6
 78
     2
 67
     7
 79
     3
170
     0
171
     0
290
     0
174
     0
 93
        5
 44
0.0
173
     0
291
     0
 45
0.0
1001
ACAD
1000
AcDbSavedByObjectVersion
1070
     0
  0
VISUALSTYLE
  5
28EB
102
{ACAD_XDICTIONARY
360
3DBB
102
}
102
{ACAD_REACTORS
330
28DA
102
}
330
28DA
100
AcDbVisualStyle
  2
Shades of Gray
 70
    23
 71
     2
 72
     2
 73
     3
 90
        0
 40
-0.6
 41
-30.0
 62
     5
 63
     7
421
 16777215
 74
     2
 91
        2
 64
     7
 65
     7
 75
     1
175
     1
 42
40.0
 92
        8
 66
     7
 43
1.0
 76
     1
 77
     6
 78
     2
 67
     7
 79
     3
170
     0
171
     0
290
     0
174
     0
 93
        1
 44
0.0
173
     0
291
     0
 45
0.0
1001
ACAD
1000
AcDbSavedByObjectVersion
1070
     0
  0
VISUALSTYLE
  5
28EC
102
{ACAD_XDICTIONARY
360
3DBD
102
}
102
{ACAD_REACTORS
330
28DA
102
}
330
28DA
100
AcDbVisualStyle
  2
Sketchy
 70
    24
 71
     1
 72
     2
 73
     2
 90
        0
 40
-0.6
 41
-30.0
 62
     5
 63
     7
421
 16777215
 74
     2
 91
        2
 64
     7
 65
     7
 75
     1
175
     1
 42
40.0
 92
       11
 66
     7
 43
1.0
 76
     1
 77
     6
 78
     2
 67
     7
 79
     6
170
     0
171
     0
290
     0
174
     0
 93
        1
 44
0.0
173
     0
291
     0
 45
0.0
1001
ACAD
1000
AcDbSavedByObjectVersion
1070
     0
  0
VISUALSTYLE
  5
28E7
102
{ACAD_XDICTIONARY
360
3DB3
102
}
102
{ACAD_REACTORS
330
28DA
102
}
330
28DA
100
AcDbVisualStyle
  2
Thicken
 70
    13
 71
     2
 72
     2
 73
     0
 90
        0
 40
-0.6
 41
-30.0
 62
     5
 63
     7
421
 16777215
 74
     1
 91
        4
 64
     7
 65
   257
 75
     1
175
     1
 42
1.0
 92
       12
 66
     7
 43
1.0
 76
     1
 77
     6
 78
     2
 67
     7
 79
     5
170
     0
171
     0
290
     0
174
     0
 93
        1
 44
0.0
173
     0
291
     1
 45
0.0
1001
ACAD
1000
AcDbSavedByObjectVersion
1070
     0
  0
VISUALSTYLE
  5
28E1
102
{ACAD_XDICTIONARY
360
3DA7
102
}
102
{ACAD_REACTORS
330
28DA
102
}
330
28DA
100
AcDbVisualStyle
  2
Wireframe
 70
     5
 71
     0
 72
     2
 73
     0
 90
        0
 40
-0.6
 41
-30.0
 62
     5
 63
     7
421
 16777215
 74
     1
 91
        4
 64
     7
 65
   257
 75
     1
175
     1
 42
1.0
 92
        0
 66
   257
 43
1.0
 76
     1
 77
     6
 78
     2
 67
     7
 79
     3
170
     0
171
     0
290
     0
174
     0
 93
        1
 44
0.0
173
     0
291
     0
 45
0.0
1001
ACAD
1000
AcDbSavedByObjectVersion
1070
     0
  0
VISUALSTYLE
  5
28ED
102
{ACAD_XDICTIONARY
360
3DBF
102
}
102
{ACAD_REACTORS
330
28DA
102
}
330
28DA
100
AcDbVisualStyle
  2
X-Ray
 70
    25
 71
     2
 72
     2
 73
     1
 90
        1
 40
0.5
 41
-30.0
 62
     5
 63
     7
421
 16777215
 74
     1
 91
        0
 64
     7
 65
   257
 75
     1
175
     1
 42
1.0
 92
        8
 66
     7
 43
1.0
 76
     1
 77
     6
 78
     2
 67
     7
 79
     3
170
     0
171
     0
290
     0
174
     0
 93
       13
 44
0.0
173
     0
291
     0
 45
0.0
1001
ACAD
1000
AcDbSavedByObjectVersion
1070
     0
  0
DICTIONARYVAR
  5
29AB
102
{ACAD_REACTORS
330
86
102
}
330
86
100
DictionaryVariables
280
     0
  1
1:1
  0
DICTIONARYVAR
  5
29AA
102
{ACAD_REACTORS
330
86
102
}
330
86
100
DictionaryVariables
280
     0
  1
STANDARD
  0
DICTIONARYVAR
  5
29A9
102
{ACAD_REACTORS
330
86
102
}
330
86
100
DictionaryVariables
280
     0
  1
STANDARD
  0
DICTIONARYVAR
  5
89
102
{ACAD_REACTORS
330
86
102
}
330
86
100
DictionaryVariables
280
     0
  1
2
  0
DICTIONARYVAR
  5
88
102
{ACAD_REACTORS
330
86
102
}
330
86
100
DictionaryVariables
280
     0
  1
1
  0
DICTIONARYVAR
  5
87
102
{ACAD_REACTORS
330
86
102
}
330
86
100
DictionaryVariables
280
     0
  1
1
  0
DICTIONARYVAR
  5
2A32
102
{ACAD_REACTORS
330
86
102
}
330
86
100
DictionaryVariables
280
     0
  1
1
  0
DICTIONARYVAR
  5
2A33
102
{ACAD_REACTORS
330
86
102
}
330
86
100
DictionaryVariables
280
     0
  1
15
  0
DICTIONARYVAR
  5
2A31
102
{ACAD_REACTORS
330
86
102
}
330
86
100
DictionaryVariables
280
     0
  1
0
  0
DICTIONARYVAR
  5
2A30
102
{ACAD_REACTORS
330
86
102
}
330
86
100
DictionaryVariables
280
     0
  1
0
  0
DICTIONARYVAR
  5
3D95
102
{ACAD_REACTORS
330
86
102
}
330
86
100
DictionaryVariables
280
     0
  1
2
  0
DICTIONARY
  5
4A
102
{ACAD_REACTORS
330
45
102
}
330
45
100
AcDbDictionary
281
     1
  0
XRECORD
  5
2956
102
{ACAD_REACTORS
330
45
102
}
330
45
100
AcDbXrecord
280
     1
 90
-1023410169
  0
XRECORD
  5
3354
102
{ACAD_REACTORS
330
3353
102
}
330
3353
100
AcDbXrecord
280
     1
330
0
  0
DICTIONARY
  5
296D
330
22
100
AcDbDictionary
280
     1
281
     1
  3
ADSK_XREC_LAYOUTTHUMBNAIL
360
296E
  0
DICTIONARY
  5
28CB
330
28CA
100
AcDbDictionary
280
     1
281
     1
  3
ACAD_XREC_ROUNDTRIP
360
3D99
  3
BUMPTILE
360
28CD
  3
DIFFUSETILE
360
28CC
  3
OPACITYTILE
360
28D0
  3
REFLECTIONTILE
360
28CF
  3
REFRACTIONTILE
360
28D1
  3
SPECULARTILE
360
28CE
  0
DICTIONARY
  5
28C3
330
28C2
100
AcDbDictionary
280
     1
281
     1
  3
ACAD_XREC_ROUNDTRIP
360
3D98
  3
BUMPTILE
360
28C5
  3
DIFFUSETILE
360
28C4
  3
OPACITYTILE
360
28C8
  3
REFLECTIONTILE
360
28C7
  3
REFRACTIONTILE
360
28C9
  3
SPECULARTILE
360
28C6
  0
DICTIONARY
  5
28D3
330
28D2
100
AcDbDictionary
280
     1
281
     1
  3
ACAD_XREC_ROUNDTRIP
360
3D9A
  3
BUMPTILE
360
28D5
  3
DIFFUSETILE
360
28D4
  3
OPACITYTILE
360
28D8
  3
REFLECTIONTILE
360
28D7
  3
REFRACTIONTILE
360
28D9
  3
SPECULARTILE
360
28D6
  0
DICTIONARY
  5
296F
330
28F5
100
AcDbDictionary
280
     1
281
     1
  3
ACAD_ROUNDTRIP_2008_TABLESTYLE_CELLSTYLEMAP
360
3D96
  3
ACAD_XREC_ROUNDTRIP
360
3DCB
  0
DICTIONARY
  5
3DA5
330
28E0
100
AcDbDictionary
280
     1
281
     1
  3
ACAD_XREC_ROUNDTRIP
360
3DA6
  0
DICTIONARY
  5
3DA3
330
28DF
100
AcDbDictionary
280
     1
281
     1
  3
ACAD_XREC_ROUNDTRIP
360
3DA4
  0
DICTIONARY
  5
3DB1
330
28E6
100
AcDbDictionary
280
     1
281
     1
  3
ACAD_XREC_ROUNDTRIP
360
3DB2
  0
DICTIONARY
  5
3DB9
330
28EA
100
AcDbDictionary
280
     1
281
     1
  3
ACAD_XREC_ROUNDTRIP
360
3DBA
  0
DICTIONARY
  5
3DAB
330
28E3
100
AcDbDictionary
280
     1
281
     1
  3
ACAD_XREC_ROUNDTRIP
360
3DAC
  0
DICTIONARY
  5
3DAF
330
28E5
100
AcDbDictionary
280
     1
281
     1
  3
ACAD_XREC_ROUNDTRIP
360
3DB0
  0
DICTIONARY
  5
3DC9
330
28F2
100
AcDbDictionary
280
     1
281
     1
  3
ACAD_XREC_ROUNDTRIP
360
3DCA
  0
DICTIONARY
  5
3DB7
330
28E9
100
AcDbDictionary
280
     1
281
     1
  3
ACAD_XREC_ROUNDTRIP
360
3DB8
  0
DICTIONARY
  5
3D9B
330
28DB
100
AcDbDictionary
280
     1
281
     1
  3
ACAD_XREC_ROUNDTRIP
360
3D9C
  0
DICTIONARY
  5
3D9D
330
28DC
100
AcDbDictionary
280
     1
281
     1
  3
ACAD_XREC_ROUNDTRIP
360
3D9E
  0
DICTIONARY
  5
3D9F
330
28DD
100
AcDbDictionary
280
     1
281
     1
  3
ACAD_XREC_ROUNDTRIP
360
3DA0
  0
DICTIONARY
  5
3DA1
330
28DE
100
AcDbDictionary
280
     1
281
     1
  3
ACAD_XREC_ROUNDTRIP
360
3DA2
  0
DICTIONARY
  5
3DA9
330
28E2
100
AcDbDictionary
280
     1
281
     1
  3
ACAD_XREC_ROUNDTRIP
360
3DAA
  0
DICTIONARY
  5
3DC5
330
28F0
100
AcDbDictionary
280
     1
281
     1
  3
ACAD_XREC_ROUNDTRIP
360
3DC6
  0
DICTIONARY
  5
3DB5
330
28E8
100
AcDbDictionary
280
     1
281
     1
  3
ACAD_XREC_ROUNDTRIP
360
3DB6
  0
DICTIONARY
  5
3DC7
330
28F1
100
AcDbDictionary
280
     1
281
     1
  3
ACAD_XREC_ROUNDTRIP
360
3DC8
  0
DICTIONARY
  5
3DAD
330
28E4
100
AcDbDictionary
280
     1
281
     1
  3
ACAD_XREC_ROUNDTRIP
360
3DAE
  0
DICTIONARY
  5
3DC3
330
28EF
100
AcDbDictionary
280
     1
281
     1
  3
ACAD_XREC_ROUNDTRIP
360
3DC4
  0
DICTIONARY
  5
3DC1
330
28EE
100
AcDbDictionary
280
     1
281
     1
  3
ACAD_XREC_ROUNDTRIP
360
3DC2
  0
DICTIONARY
  5
3DBB
330
28EB
100
AcDbDictionary
280
     1
281
     1
  3
ACAD_XREC_ROUNDTRIP
360
3DBC
  0
DICTIONARY
  5
3DBD
330
28EC
100
AcDbDictionary
280
     1
281
     1
  3
ACAD_XREC_ROUNDTRIP
360
3DBE
  0
DICTIONARY
  5
3DB3
330
28E7
100
AcDbDictionary
280
     1
281
     1
  3
ACAD_XREC_ROUNDTRIP
360
3DB4
  0
DICTIONARY
  5
3DA7
330
28E1
100
AcDbDictionary
280
     1
281
     1
  3
ACAD_XREC_ROUNDTRIP
360
3DA8
  0
DICTIONARY
  5
3DBF
330
28ED
100
AcDbDictionary
280
     1
281
     1
  3
ACAD_XREC_ROUNDTRIP
360
3DC0
  0
XRECORD
  5
296E
102
{ACAD_REACTORS
330
296D
102
}
330
296D
100
AcDbXrecord
280
     1
310
28000000000100007100000001000800000000000071000000000000000000000001000000000000FFFFFF0000000000FFFFFF000000000000000000000000000000000000000000000000000000000000000000330000006600000099000000CC000000FF00000000330000333300006633000099330000CC330000FF3300
310
0000660000336600006666000099660000CC660000FF66000000990000339900006699000099990000CC990000FF99000000CC000033CC000066CC000099CC0000CCCC0000FFCC000000FF000033FF000066FF000099FF0000CCFF0000FFFF000000003300330033006600330099003300CC003300FF003300003333003333
310
33006633330099333300CC333300FF33330000663300336633006666330099663300CC663300FF66330000993300339933006699330099993300CC993300FF99330000CC330033CC330066CC330099CC3300CCCC3300FFCC330000FF330033FF330066FF330099FF3300CCFF3300FFFF330000006600330066006600660099
310
006600CC006600FF00660000336600333366006633660099336600CC336600FF33660000666600336666006666660099666600CC666600FF66660000996600339966006699660099996600CC996600FF99660000CC660033CC660066CC660099CC6600CCCC6600FFCC660000FF660033FF660066FF660099FF6600CCFF6600
310
FFFF660000009900330099006600990099009900CC009900FF00990000339900333399006633990099339900CC339900FF33990000669900336699006666990099669900CC669900FF66990000999900339999006699990099999900CC999900FF99990000CC990033CC990066CC990099CC9900CCCC9900FFCC990000FF99
310
0033FF990066FF990099FF9900CCFF9900FFFF99000000CC003300CC006600CC009900CC00CC00CC00FF00CC000033CC003333CC006633CC009933CC00CC33CC00FF33CC000066CC003366CC006666CC009966CC00CC66CC00FF66CC000099CC003399CC006699CC009999CC00CC99CC00FF99CC0000CCCC0033CCCC0066CC
310
CC0099CCCC00CCCCCC00FFCCCC0000FFCC0033FFCC0066FFCC0099FFCC00CCFFCC00FFFFCC000000FF003300FF006600FF009900FF00CC00FF00FF00FF000033FF003333FF006633FF009933FF00CC33FF00FF33FF000066FF003366FF006666FF009966FF00CC66FF00FF66FF000099FF003399FF006699FF009999FF00CC
310
99FF00FF99FF0000CCFF0033CCFF0066CCFF0099CCFF00CCCCFF00FFCCFF0000FFFF0033FFFF0066FFFF0099FFFF00CCFFFF00FFFFFF00000000000D0D0D001A1A1A00282828003535350043434300505050005D5D5D006B6B6B00787878008686860093939300A1A1A100AEAEAE00BBBBBB00C9C9C900D6D6D600E4E4E400
310
F1F1F100FFFFFF000000000000000000000000000000000000000000000000000000000000000000000000000000000000000000000000000000000000000000000000000000000000000000000000000000000000000000000000000000000000000000000000000000000000000000000000000000000000000000000000
310
0000000000000000000000000000000000000000000000000000000000000000000000000000000000000000000000002D000000000000000000000000000000000000000000000000000000000000000000000000000000000000000000000000000000000000000000000000000000000000000000000000000000000000
310
00000000000000000000000000000000000000000000000000000000000000000000000000000000000000000000000000000000000000000000000000000000000000000000000000000000000000000000000000000000000000000000000000000000000000000000000000000000000000000000000000000000000000
310
00000000000000000000000000000000000000000000000000000000000000000000000000000000000000000000000000002D00000000000000000000000000000000000000000000000000000000000000000000000000000000000000000000000000000000000000000000000000000000000000000000000000000000
310
00000000000000000000000000000000000000000000000000000000000000000000000000000000000000000000000000000000000000000000000000000000000000000000000000000000000000000000000000000000000000000000000000000000000000000000000000000000000000000000000000000000000000
310
000000000000000000000000000000000000000000000000000000000000000000000000000000000000000000000000000000002D0000000000000000000000000000000000000000000000000000000000000000000000000000000000000000000000000000000000000000000000000000000000000000000000000000
310
00000000000000000000000000000000000000000000000000000000000000000000000000000000000000000000000000000000000000000000000000000000000000000000000000000000000000000000000000000000000000000000000000000000000000000000000000000000000000000000000000000000000000
310
00000000000000000000000000000000000000000000000000002D0000000000000000000000000000000000000000000000000000002D000000000000000000000000000000000000000000000000000000002D00000000000000000000000000000000000000000000000000000000000000000000000000000000000000
310
00000000000000000000000000000000000000000000000000000000000000000000000000000000000000000000000000000000000000000000000000000000000000000000000000000000000000000000000000000000000000000000000000000000000000000000000000000000000000000000000000000000000000
310
000000000000000000000000000000000000000000000000000000002D0000000000000000000000000000000000000000000000000000002D000000000000000000000000000000000000000000000000000000002D0000000000000000000000000000000000000000000000000000000000000000000000000000000000
310
00000000000000000000000000000000000000000000000000000000000000000000000000000000000000000000000000000000000000000000000000000000000000000000000000000000000000000000000000000000000000000000000000000000000000000000000000000000000000000000000000000000000000
310
00000000000000000000000000000000000000000000000000000000E2E22DE2000000000000000000000000000000000000000000002D2D2D2D2D2D2D2D2D2D00000000000000000000000000000000000000000000E22DE2E200000000000000000000000000000000000000000000000000000000000000000000000000
310
00000000000000000000000000000000000000000000000000000000000000000000000000000000000000000000000000000000000000000000000000000000000000000000000000000000000000000000000000000000000000000000000000000000000000000000000000000000000000000000000000000000000000
310
000000000000000000000000000000000000000000000000000000000000E2002DE200000000000000000000000000000000000000000000000000002D000000000000000000000000000000000000000000000000000000E22D00E20000000000000000000000000000000000000000000000000000000000000000000000
310
00000000000000000000000000000000000000000000000000000000000000000000000000000000000000000000000000000000000000000000000000000000000000000000000000000000000000000000000000000000000000000000000000000000000000000000000000000000000000000000000000000000000000
310
0000000000000000000000000000000000000000000000000000000000000000E2002DE200000000000000000000000000000000000000000000000000002D000000000000000000000000000000000000000000000000000000E22D00E2000000000000000000000000000000000000000000000000000000000000000000
310
00000000000000000000000000000000000000000000000000000000000000000000000000000000000000000000000000000000000000000000000000000000000000000000000000000000000000000000000000000000000000000000000000000000000000000000000000000000000000000000000000000000000000
310
00000000000000000000000000000000000000000000000000000000000000000000E20000E200000000000000000000000000000000000000000000000000002D000000000000000000000000000000000000000000000000000000E20000E200000000000000000000000000000000000000000000000000000000000000
310
00000000000000000000000000000000000000000000000000000000000000000000000000000000000000000000000000000000000000000000000000000000000000000000000000000000000000000000000000000000000000000000000000000000000000000000000000000000000000000000000000000000000000
310
000000000000000000000000000000000000000000000000000000000000000000000000E20000E200000000000000000000000000000000000000000000000000002D000000000000000000000000000000000000000000000000000000E20000E20000000000000000000000000000000000000000000000000000000000
310
00000000000000000000000000000000000000000000000000000000000000000000000000000000000000000000000000000000000000000000000000000000000000000000000000000000000000000000000000000000000000000000000000000000000000000000000000000000000000000000000000000000000000
310
0000000000000000000000000000000000000000000000000000000000000000000000000000E20000E2000000000000000000000000000000000000000000000000000000000000000000000000000000000000000000000000000000000000E20000E2000000000000000000000000000000000000000000000000000000
310
00000000000000000000000000000000000000000000000000000000000000000000000000000000000000000000000000000000000000000000000000000000000000000000000000000000000000000000000000000000000000000000000000000000000000000000000000000000000000000000000000000000000000
310
00000000000000000000000000000000000000000000000000000000000000000000000000000000E20000E2000000000000000000000000000000000000000000000000000000000000000000000000000000000000000000000000000000000000E20000E200000000000000000000000000000000000000000000000000
310
00000000000000000000000000000000000000000000000000000000000000000000000000000000000000000000000000000000000000000000000000000000000000000000000000000000000000000000000000000000000000000000000000000000000000000000000000000000000000000000000000000000000000
310
000000000000000000000000000000000000000000000000000000000000000000000000000000000000E20000E2000000000000000000000000000000000000000000000000000000000000000000000000000000000000000000000000000000000000E20000E20000000000000000000000000000000000000000000000
310
00000000000000000000000000000000000000000000000000000000000000000000000000000000000000000000000000000000000000000000000000000000000000000000000000000000000000000000000000000000000000000000000000000000000000000000000000000000000000000000000000000000000000
310
0000000000000000000000000000000000000000000000000000000000000000000000000000000000000000E20000E2000000000000000000000000000000000000000000000000000000000000000000000000000000000000000000000000000000000000E20000E2000000000000000000000000000000000000000000
310
00000000000000000000000000000000000000000000000000000000000000000000000000000000000000000000000000000000000000000000000000000000000000000000000000000000000000000000000000000000000000000000000000000000000000000000000000000000000000000000000000000000000000
310
00000000000000000000000000000000000000000000000000000000000000000000000000000000000000000000E20000E2000000000000000000000000000000000000000000000000000000000000000000000000000000000000000000000000000000000000E20000E200000000000000000000000000000000000000
310
00000000000000000000000000000000000000000000000000000000000000000000000000000000000000000000000000000000000000000000000000000000000000000000000000000000000000000000000000000000000000000000000000000000000000000000000000000000000000000000000000000000000000
310
000000000000000000000000000000000000000000000000000000000000000000000000000000000000000000000000E2E2E2E2000000000000000000000000000000000000000000000000000000000000000000000000000000000000000000000000000000000000E2E2E2E20000000000000000000000000000000000
310
00000000000000000000000000000000000000000000000000000000000000000000000000000000000000000000000000000000000000000000000000000000000000000000000000000000000000000000000000000000000000000000000000000000000000000000000000000000000000000000000000000000000000
310
0000000000000000000000000000000000000000000000000000000000000000000000000000000000000000000000000000E20000E2000000000000000000000000000000000000000000000000000000000000000000000000000000000000000000000000000000000000E20000E2000000000000000000000000000000
310
00000000000000000000000000000000000000000000000000000000000000000000000000000000000000000000000000000000000000000000000000000000000000000000000000000000000000000000000000000000000000000000000000000000000000000000000000000000000000000000000000000000000000
310
00000000000000000000000000000000000000000000000000000000000000000000000000000000000000000000000000000000E20000E2000000000000000000000000000000000000000000000000000000000000000000000000000000000000000000000000000000000000E20000E200000000000000000000000000
310
00000000000000000000000000000000000000000000000000000000000000000000000000000000000000000000000000000000000000000000000000000000000000000000000000000000000000000000000000000000000000000000000000000000000000000000000000000000000000000000000000000000000000
310
000000000000000000000000000000000000000000000000000000000000000000000000000000000000000000000000000000000000E20000E2000000000000000000000000000000000000000000000000000000000000000000000000000000000000000000000000000000000000E20000E20000000000000000000000
310
00000000000000000000000000000000000000000000000000000000000000000000000000000000000000000000000000000000000000000000000000000000000000000000000000000000000000000000000000000000000000000000000000000000000000000000000000000000000000000000000000000000000000
310
0000000000000000000000000000000000000000000000000000000000000000000000000000000000000000000000000000000000000000E20000E2000000000000000000000000000000000000000000000000000000000000000000000000000000000000000000000000000000000000E20000E2000000000000000000
310
00000000000000000000000000000000000000000000000000000000000000000000000000000000000000000000000000000000000000000000000000000000000000000000000000000000000000000000000000000000000000000000000000000000000000000000000000000000000000000000000000000000000000
310
00000000000000000000000000000000000000000000000000000000000000000000000000000000000000000000000000000000000000000000E20000E2000000000000000000000000000000000000000000000000000000000000000000000000000000000000000000000000000000000000E20000E200000000000000
310
00000000000000000000000000000000000000000000000000000000000000000000000000000000000000000000000000000000000000000000000000000000000000000000000000000000000000000000000000000000000000000000000000000000000000000000000000000000000000000000000000000000000000
310
000000000000000000000000000000000000000000000000000000000000000000000000000000000000000000000000000000000000000000000000E20000E2000000000000000000000000000000000000000000000000000000000000000000000000000000000000000000000000000000000000E20000E20000000000
310
00000000000000000000000000000000000000000000000000000000000000000000000000000000000000000000000000000000000000000000000000000000000000000000000000000000000000000000000000000000000000000000000000000000000000000000000000000000000000000000000000000000000000
310
0000000000000000000000000000000000000000000000000000000000000000000000000000000000000000000000000000000000000000000000000000E20000E2000000000000000000000000000000000000000000000000000000000000000000000000000000000000000000000000000000000000E20000E2000000
310
00000000000000000000000000000000000000000000000000000000000000000000000000000000000000000000000000000000000000000000000000000000000000000000000000000000000000000000000000000000000000000000000000000000000000000000000000000000000000000000000000000000000000
310
00000000000000000000000000000000000000000000000000000000000000000000000000000000000000000000000000000000000000000000000000000000E20000E2000000000000000000000000000000000000000000000000000000000000000000000000000000000000000000000000000000000000E20000E200
310
00000000000000000000000000000000000000000000000000000000000000000000000000000000000000000000000000000000000000000000000000000000000000000000000000000000000000000000000000000000000000000000000000000000000000000000000000000000000000000000000000000000000000
310
000000000000000000000000000000000000000000000000000000000000000000000000000000000000000000000000000000000000000000000000000000000000E20000E2000000000000000000000000000000000000000000000000000000000000000000000000000000000000000000000000000000000000E20000
310
E2000000000000000000000000000000000000000000000000000000000000000000000000000000000000000000000000000000000000000000000000000000000000000000000000000000000000000000000000000000000000000000000000000000000000000000000000000000000000000000000000000000000000
310
0000000000000000000000000000000000000000000000000000000000000000000000000000000000000000000000000000000000000000000000000000000000000000E20000E2000000000000000000000000000000000000000000000000000000000000000000000000000000000000000000000000000000000000E2
310
0000E200000000000000000000000000000000000000000000000000000000000000000000000000000000000000000000000000000000000000000000000000000000000000000000000000000000000000000000000000000000000000000000000000000000000000000000000000000000000000000000000000000000
310
00000000000000000000000000000000000000000000000000000000000000000000000000000000000000000000000000000000000000000000000000000000000000000000E20000E20000000000000000000000000000000000000000000000000000000000000000000000000000000000000000000000000000000000
310
00E20000E20000000000000000000000000000000000000000000000000000000000000000000000000000000000000000000000000000000000000000000000000000000000000000000000000000000000000000000000000000000000000000000000000000000000000000000000000000000000000000000000000000
310
000000000000000000000000000000000000000000000000000000000000000000000000000000000000000000000000000000000000000000000000000000000000000000000000E20000E2000000000000000000000000000000000000000000000000000000000000000000000000000000000000000000000000000000
310
000000E20000E2000000000000000000000000000000000000000000000000000000000000000000000000000000000000000000000000000000000000000000000000000000000000000000000000000000000000000000000000000000000000000000000000000000000000000000000000000000000000000000000000
310
0000000000000000000000000000000000000000000000000000000000000000000000000000000000000000000000000000000000000000000000000000000000000000000000000000E20000E200000000000000000000000000000000000000000000000000000000000000000000000000000000000000000000000000
310
0000000000E20000E200000000000000000000000000000000000000000000000000000000000000000000000000000000000000000000000000000000000000000000000000000000000000000000000000000000000000000000000000000000000000000000000000000000000000000000000000000000000000000000
310
00000000000000000000000000000000000000000000000000000000000000000000000000000000000000000000000000000000000000000000000000000000000000000000000000000000E20000E20000000000000000000000000000000000000000000000000000000000000000000000000000000000000000000000
310
00000000000000E20000E20000000000000000000000000000000000000000000000000000000000000000000000000000000000000000000000000000000000000000000000000000000000000000000000000000000000000000000000000000000000000000000000000000000000000000000000000000000000000000
310
000000000000000000000000000000000000000000000000000000000000000000000000000000000000000000000000000000000000000000000000000000000000000000000000000000000000E20000E2000000000000000000000000000000000000000000000000000000000000000000000000000000000000000000
310
000000000000000000E20000E2000000000000000000000000000000000000000000000000000000000000000000000000000000000000000000000000000000000000000000000000000000000000000000000000000000000000000000000000000000000000000000000000000000000000000000000000000000000000
310
0000000000000000000000000000000000000000000000000000000000000000000000000000000000000000000000000000000000000000000000000000000000000000000000000000000000000000E20000E200000000000000000000000000000000000000000000000000000000000000000000000000000000000000
310
0000000000000000000000E20000E200000000000000000000000000000000000000000000000000000000000000000000000000000000000000000000000000000000000000000000000000000000000000000000000000000000000000000000000000000000000000000000000000000000000000000000000000000000
310
00000000000000000000000000000000000000000000000000000000000000000000000000000000000000000000000000000000000000000000000000000000000000000000000000000000000000000000E20000E20000000000000000000000000000000000000000000000000000000000000000000000000000000000
310
00000000000000000000000000E20000E20000000000000000000000000000000000000000000000000000000000000000000000000000000000000000000000000000000000000000000000000000000000000000000000000000000000000000000000000000000000000000000000000000000000000000000000000000
310
000000000000000000000000000000000000000000000000000000000000000000000000000000000000000000000000000000000000000000000000000000000000000000000000000000000000000000000000E20000E2000000000000000000000000000000000000000000000000000000000000000000000000000000
310
000000000000000000000000000000E20000E2000000000000000000000000000000000000000000000000000000000000000000000000000000000000000000000000000000000000000000000000000000000000000000000000000000000000000000000000000000000000000000000000000000000000000000000000
310
0000000000000000000000000000000000000000000000000000000000000000000000000000000000000000000000000000000000000000000000000000000000000000000000000000000000000000000000000000E20000E200000000000000000000000000000000000000000000000000000000000000000000000000
310
0000000000000000000000000000000000E20000E200000000000000000000000000000000000000000000000000000000000000000000000000000000000000000000000000000000000000000000000000000000000000000000000000000000000000000000000000000000000000000000000000000000000000000000
310
00000000000000000000000000000000000000000000000000000000000000000000000000000000000000000000000000000000000000000000000000000000000000000000000000000000000000000000000000000000E20000E20000000000000000000000000000000000000000000000000000000000000000000000
310
00000000000000000000000000000000000000E20000E20000000000000000000000000000000000000000000000000000000000000000000000000000000000000000000000000000000000000000000000000000000000000000000000000000000000000000000000000000000000000000000000000000000000000000
310
000000000000000000000000000000000000000000000000000000000000000000000000000000000000000000000000000000000000000000000000000000000000000000000000000000000000000000000000000000000000E20000E2000000000000000000000000000000000000000000000000000000000000000000
310
000000000000000000000000000000000000000000E20000E2000000000000000000000000000000000000000000000000000000000000000000000000000000000000000000000000000000000000000000000000000000000000000000000000000000000000000000000000000000000000000000000000000000000000
310
0000000000000000000000000000000000000000000000000000000000000000000000000000000000000000000000000000000000000000000000000000000000000000000000000000000000000000000000000000000000000000E20000E200000000000000000000000000000000000000000000000000000000000000
310
0000000000000000000000000000000000000000000000E20000E200000000000000000000000000000000000000000000000000000000000000000000000000000000000000000000000000000000000000000000000000000000000000000000000000000000000000000000000000000000000000000000000000000000
310
00000000000000000000000000000000000000000000000000000000000000000000000000000000000000000000000000000000000000000000000000000000000000000000000000000000000000000000000000000000000000000000E20000E20000000000000000000000000000000000000000000000000000000000
310
00000000000000000000000000000000000000000000000000E20000E20000000000000000000000000000000000000000000000000000000000000000000000000000000000000000000000000000000000000000000000000000000000000000000000000000000000000000000000000000000000000000000000000000
310
000000000000000000000000000000000000000000000000000000000000000000000000000000000000000000000000000000000000000000000000000000000000000000000000000000000000000000000000000000000000000000000000E20000E2000000000000000000000000000000000000000000000000000000
310
000000000000000000000000000000000000000000000000000000E20000E2000000000000000000000000000000000000000000000000000000000000000000000000000000000000000000000000000000000000000000000000000000000000000000000000000000000000000000000000000000000000000000000000
310
0000000000000000000000000000000000000000000000000000000000000000000000000000000000000000000000000000000000000000000000000000000000000000000000000000000000000000000000000000000000000000000000000000E20000E200000000000000000000000000000000000000000000000000
310
0000000000000000000000000000000000000000000000000000000000E20000E200000000000000000000000000000000000000000000000000000000000000000000000000000000000000000000000000000000000000000000000000000000000000000000000000000000000000000000000000000000000000000000
310
00000000000000000000000000000000000000000000000000000000000000000000000000000000000000000000000000000000000000000000000000000000000000000000000000000000000000000000000000000000000000000000000000000000E20000E20000000000000000000000000000000000000000000000
310
00000000000000000000000000000000000000000000000000000000000000E20000E20000000000000000000000000000000000000000000000000000000000000000000000000000000000000000000000000000000000000000000000000000000000000000000000000000000000000000000000000000000000000000
310
000000000000000000000000000000000000000000000000000000000000000000000000000000000000000000000000000000000000000000000000000000000000000000000000000000000000000000000000000000000000000000000000000000000000E20000E2000000000000000000000000000000000000000000
310
000000000000000000000000000000000000000000000000000000000000000000E20000E2000000000000000000000000000000000000000000000000000000000000000000000000000000000000000000000000000000000000000000000000000000000000000000000000000000000000000000000000000000000000
310
0000000000000000000000000000000000000000000000000000000000000000000000000000000000000000000000000000000000000000000000000000000000000000000000000000000000000000000000000000000000000000000000000000000000000000E20000E200000000000000000000000000000000000000
310
0000000000000000000000000000000000000000000000000000000000000000000000E20000E200000000000000000000000000000000000000000000000000000000000000000000000000000000000000000000000000000000000000000000000000000000000000000000000000000000000000000000000000000000
310
00000000000000000000000000000000000000000000000000000000000000000000000000000000000000000000000000000000000000000000000000000000000000000000000000000000000000000000000000000000000000000000000000000000000000000000E20000E20000000000000000000000000000000000
310
00000000000000000000000000000000000000000000000000000000000000000000000000E20000E20000000000000000000000000000000000000000000000000000000000000000000000000000000000000000000000000000000000000000000000000000000000000000000000000000000000000000000000000000
310
000000000000000000000000000000000000000000000000000000000000000000000000000000000000000000000000000000000000000000000000000000000000000000000000000000000000000000000000000000000000000000000000000000000000000000000000E20000E2000000000000000000000000000000
310
000000000000000000000000000000000000000000000000000000000000000000000000000000E20000E2000000000000000000000000000000000000000000000000000000000000000000000000000000000000000000000000000000000000000000000000000000000000000000000000000000000000000000000000
310
0000000000000000000000000000000000000000000000000000000000000000000000000000000000000000000000000000000000000000000000000000000000000000000000000000000000000000000000000000000000000000000000000000000000000000000000000000E20000E200000000000000000000000000
310
0000000000000000000000000000000000000000000000000000000000000000000000000000000000E20000E200000000000000000000000000000000000000000000000000000000000000000000000000000000000000000000000000000000000000000000000000000000000000000000000000000000000000000000
310
00000000000000000000000000000000000000000000000000000000000000000000000000000000000000000000000000000000000000000000000000000000000000000000000000000000000000000000000000000000000000000000000000000000000000000000000000000000E20000E20000000000000000000000
310
00000000000000000000000000000000000000000000000000000000000000000000000000000000000000E20000E20000000000000000000000000000000000000000000000000000000000000000000000000000000000000000000000000000000000000000000000000000000000000000000000000000000000000000
310
000000000000000000000000000000000000000000000000000000000000000000000000000000000000000000000000000000000000000000000000000000000000000000000000000000000000000000000000000000000000000000000000000000000000000000000000000000000000E20000E2000000000000000000
310
000000000000000000000000000000000000000000000000000000000000000000000000000000000000000000E20000E2000000000000000000000000000000000000000000000000000000000000000000000000000000000000000000000000000000000000000000000000000000000000000000000000000000000000
310
0000000000000000000000000000000000000000000000000000000000000000000000000000000000000000000000000000000000000000000000000000000000000000000000000000000000000000000000000000000000000000000000000000000000000000000000000000000000000000E20000E200000000000000
310
0000000000000000000000000000000000000000000000000000000000000000000000000000000000000000000000E20000E200000000000000000000000000000000000000000000000000000000000000000000000000000000000000000000000000000000000000000000000000000000000000000000000000000000
310
00000000000000000000000000000000000000000000000000000000000000000000000000000000000000000000000000000000000000000000000000000000000000000000000000000000000000000000000000000000000000000000000000000000000000000000000000000000000000000000E20000E20000000000
310
00000000000000000000000000000000000000000000000000000000000000000000000000000000000000000000000000E20000E20000000000000000000000000000000000000000000000000000000000000000000000000000000000000000000000000000000000000000000000000000000000000000000000000000
310
000000000000000000000000000000000000000000000000000000000000000000000000000000000000000000000000000000000000000000000000000000000000000000000000000000000000000000000000000000000000000000000000000000000000000000000000000000000000000000000000E20000E2000000
310
000000000000000000000000000000000000000000000000000000000000000000000000000000000000000000000000000000E20000E2000000000000000000000000000000000000000000000000000000000000000000000000000000000000000000000000000000000000000000000000000000000000000000000000
310
0000000000000000000000000000000000000000000000000000000000000000000000000000000000000000000000000000000000000000000000000000000000000000000000000000000000000000000000000000000000000000000000000000000000000000000000000000000000000000000000000000E20000E200
310
0000000000000000000000000000000000000000000000000000000000000000000000000000000000000000000000000000000000E20000E200000000000000000000000000000000000000000000000000000000000000000000000000000000000000000000000000000000000000000000000000000000000000000000
310
00000000000000000000000000000000000000000000000000000000000000000000000000000000000000000000000000000000000000000000000000000000000000000000000000000000000000000000000000000000000000000000000000000000000000000000000000000000000000000000000000000000E20000
310
E2000000000000000000000000000000000000000000000000000000000000000000000000000000000000000000000000000000000000E20000E20000000000000000000000000000000000000000000000000000000000000000000000000000000000000000000000000000000000000000000000000000000000000000
310
000000000000000000000000000000000000000000000000000000000000000000000000000000000000000000000000000000000000000000000000000000000000000000000000000000000000000000000000000000000000000000000000000000000000000000000000000000000000000000000000000000000000E2
310
0000E2000000000000000000000000000000000000000000000000000000000000000000000000000000000000000000000000000000000000E20000E2000000000000000000000000000000000000000000000000000000000000000000000000000000000000000000000000000000000000000000000000000000000000
310
00000000000000000000000000000000000000000000000000000000000000000000000000000000000000000000000000000000000000000000000000000000000000000000000000000000000000000000000000000000000000000000000000000000000000000000000000000000000000000000000000000000000000
310
00E20000E2000000000000000000000000000000000000000000000000000000000000000000000000000000000000000000000000000000000000E20000E200000000000000000000000000000000000000000000000000000000000000000000000000000000000000000000000000000000000000000000000000000000
310
00000000000000000000000000000000000000000000000000000000000000000000000000000000000000000000000000000000000000000000000000000000000000000000000000000000000000000000000000000000000000000000000000000000000000000000000000000000000000000000000000000000000000
310
000000E20000E2000000000000000000000000000000000000000000000000000000000000000000000000000000000000000000000000000000000000E20000E20000000000000000000000000000000000000000000000000000000000000000000000000000000000000000000000000000000000000000000000000000
310
00000000000000000000000000000000000000000000000000000000000000000000000000000000000000000000000000000000000000000000000000000000000000000000000000000000000000000000000000000000000000000000000000000000000000000000000000000000000000000000000000000000000000
310
0000000000E20000E2000000000000000000000000000000000000000000000000000000000000000000000000000000000000000000000000000000000000E20000E2000000000000000000000000000000000000000000000000000000000000000000000000000000000000000000000000000000000000000000000000
310
00000000000000000000000000000000000000000000000000000000000000000000000000000000000000000000000000000000000000000000000000000000000000000000000000000000000000000000000000000000000000000000000000000000000000000000000000000000000000000000000000000000000000
310
00000000000000E20000E2000000000000000000000000000000000000000000000000000000000000000000000000000000000000000000000000000000000000E20000E200000000000000000000000000000000000000000000000000000000000000000000000000000000000000000000000000000000000000000000
310
00000000000000000000000000000000000000000000000000000000000000000000000000000000000000000000000000000000000000000000000000000000000000000000000000000000000000000000000000000000000000000000000000000000000000000000000000000000000000000000000000000000000000
310
000000000000000000E20000E2000000000000000000000000000000000000000000000000000000000000000000000000000000000000000000000000000000000000E20000E20000000000000000000000000000000000000000000000000000000000000000000000000000000000000000000000000000000000000000
310
00000000000000000000000000000000000000000000000000000000000000000000000000000000000000000000000000000000000000000000000000000000000000000000000000000000000000000000000000000000000000000000000000000000000000000000000000000000000000000000000000000000000000
310
0000000000000000000000E20000E2000000000000000000000000000000000000000000000000000000000000000000000000000000000000000000000000000000000000E20000E2000000000000000000000000000000000000000000000000000000000000000000000000000000000000000000000000000000000000
310
00000000000000000000000000000000000000000000000000000000000000000000000000000000000000000000000000000000000000000000000000000000000000000000000000000000000000000000000000000000000000000000000000000000000000000000000000000000000000000000000000000000000000
310
00000000000000000000000000E20000E2000000000000000000000000000000000000000000000000000000000000000000000000000000000000000000000000000000000000E20000E200000000000000000000000000000000000000000000000000000000000000000000000000000000000000000000000000000000
310
00000000000000000000000000000000000000000000000000000000000000000000000000000000000000000000000000000000000000000000000000000000000000000000000000000000000000000000000000000000000000000000000000000000000000000000000000000000000000000000000000000000000000
310
000000000000000000000000000000E20000E2000000000000000000000000000000000000000000000000000000000000000000000000000000000000000000000000000000000000E20000E20000000000000000000000000000000000000000000000000000000000000000000000000000000000000000000000000000
310
00000000000000000000000000000000000000000000000000000000000000000000000000000000000000000000000000000000000000000000000000000000000000000000000000000000000000000000000000000000000000000000000000000000000000000000000000000000000000000000000000000000000000
310
0000000000000000000000000000000000E20000E2000000000000000000000000000000000000000000000000000000000000000000000000000000000000000000000000000000000000E20000E2000000000000000000000000000000000000000000000000000000000000000000000000000000000000000000000000
310
00000000000000000000000000000000000000000000000000000000000000000000000000000000000000000000000000000000000000000000000000000000000000000000000000000000000000000000000000000000000000000000000000000000000000000000000000000000000000000000000000000000000000
310
00000000000000000000000000000000000000E20000E2000000000000000000000000000000000000000000000000000000000000000000000000000000000000000000000000000000000000E20000E200000000000000000000000000000000000000000000000000000000000000000000000000000000000000000000
310
00000000000000000000000000000000000000000000000000000000000000000000000000000000000000000000000000000000000000000000000000000000000000000000000000000000000000000000000000000000000000000000000000000000000000000000000000000000000000000000000000000000000000
310
000000000000000000000000000000000000000000E20000E2000000000000000000000000000000000000000000000000000000000000000000000000000000000000000000000000000000000000E20000E20000000000000000000000000000000000000000000000000000000000000000000000000000000000000000
310
00000000000000000000000000000000000000000000000000000000000000000000000000000000000000000000000000000000000000000000000000000000000000000000000000000000000000000000000000000000000000000000000000000000000000000000000000000000000000000000000000000000000000
310
0000000000000000000000000000000000000000000000E20000E2000000000000000000000000000000000000000000000000000000000000000000000000000000000000000000000000000000000000E20000E2000000000000000000000000000000000000000000000000000000000000000000000000000000000000
310
00000000000000000000000000000000000000000000000000000000000000000000000000000000000000000000000000000000000000000000000000000000000000000000000000000000000000000000000000000000000000000000000000000000000000000000000000000000000000000000000000000000000000
310
00000000000000000000000000000000000000000000000000E20000E2000000000000000000000000000000000000000000000000000000000000000000000000000000000000000000000000000000000000E20000E200000000000000000000000000000000000000000000000000000000000000000000000000000000
310
00000000000000000000000000000000000000000000000000000000000000000000000000000000000000000000000000000000000000000000000000000000000000000000000000000000000000000000000000000000000000000000000000000000000000000000000000000000000000000000000000000000000000
310
000000000000000000000000000000000000000000000000000000E20000E2000000000000000000000000000000000000000000000000000000000000000000000000000000000000000000000000000000000000E20000E20000000000000000000000000000000000000000000000000000000000000000000000000000
310
00000000000000000000000000000000000000000000000000000000000000000000000000000000000000000000000000000000000000000000000000000000000000000000000000000000000000000000000000000000000000000000000000000000000000000000000000000000000000000000000000000000000000
310
0000000000000000000000000000000000000000000000000000000000E20000E2000000000000000000000000000000000000000000000000000000000000000000000000000000000000000000000000000000000000E20000E2000000000000000000000000000000000000000000000000000000000000000000000000
310
00000000000000000000000000000000000000000000000000000000000000000000000000000000000000000000000000000000000000000000000000000000000000000000000000000000000000000000000000000000000000000000000000000000000000000000000000000000000000000000000000000000000000
310
00000000000000000000000000000000000000000000000000000000000000E20000E2000000000000000000000000000000000000000000000000000000000000000000000000000000000000000000000000000000000000E20000E200000000000000000000000000000000000000000000000000000000000000000000
310
00000000000000000000000000000000000000000000000000000000000000000000000000000000000000000000000000000000000000000000000000000000000000000000000000000000000000000000000000000000000000000000000000000000000000000000000000000000000000000000000000000000000000
310
000000000000000000000000000000000000000000000000000000000000000000E20000E2000000000000000000000000000000000000000000000000000000000000000000000000000000000000000000000000000000000000E20000E20000000000000000000000000000000000000000000000000000000000000000
310
00000000000000000000000000000000000000000000000000000000000000000000000000000000000000000000000000000000000000000000000000000000000000000000000000000000000000000000000000000000000000000000000000000000000000000000000000000000000000000000000000000000000000
310
0000000000000000000000000000000000000000000000000000000000000000000000E20000E2000000000000000000000000000000000000000000000000000000000000000000000000000000000000000000000000000000000000E20000E2000000000000000000000000000000000000000000000000000000000000
310
00000000000000000000000000000000000000000000000000000000000000000000000000000000000000000000000000000000000000000000000000000000000000000000000000000000000000000000000000000000000000000000000000000000000000000000000000000000000000000000000000000000000000
310
00000000000000000000000000000000000000000000000000000000000000002D00000000E20000E2000000000000000000000000000000000000000000000000000000000000000000000000000000000000000000000000000000000000E20000E2000000002D0000000000000000000000000000000000000000000000
310
00000000000000000000000000000000000000000000000000000000000000000000000000000000000000000000000000000000000000000000000000000000000000000000000000000000000000000000000000000000000000000000000000000000000000000000000000000000000000000000000000000000000000
310
0000000000000000000000000000000000000000000000000000000000000000E2E2E2E2E20000E20000E2000000000000000000000000000000000000000000000000000000000000000000000000000000000000000000000000000000000000E20000E20000E2E2E2E2E200000000000000000000000000000000000000
310
00000000000000000000000000000000000000000000000000000000000000000000000000000000000000000000000000000000000000000000000000000000000000000000000000000000000000000000000000000000000000000000000000000000000000000000000000000000000000000000000000000000000000
310
000000000000000000000000000000000000000000000000000000000000000000E200E2E2E2C3E2E2C3E2E2C3E2E2E2E2E2E2E2E2E2E2E2E2E2E2E2E2E2E2E2E2E2E2E2E2E2E2E2E2E2E2E2E2E2E2E2E2E2E2E2E2E2E2E2E2E2E2E2E2E2E2E2E2E2E2C3E2E2C3E2E2C3E2C3E200E200000000000000000000000000000000
310
00000000000000000000000000000000000000000000000000000000000000000000000000000000000000000000000000000000000000000000000000000000000000000000000000000000000000000000000000000000000000000000000000000000000000000000000000000000000000000000000000000000000000
310
0000000000000000000000000000000000000000000000000000000000000000000000E200E2C30000C3C3C3C300C3000000000000000000000000000000000000000000000000000000000000000000000000000000000000000000000000000000000000C300C3C3C3C30000C3E200E20000000000000000000000000000
310
00000000000000000000000000000000000000000000000000000000000000000000000000000000000000000000000000000000000000000000000000000000000000000000000000000000000000000000000000000000000000000000000000000000000000000000000000000000000000000000000000000000000000
310
0000000000000000000000000000000000000000000000000000000000000000000000002DE22D2D2D2D2DC3C3C3C300C3000000000000000000000000000000000000000000000000000000000000000000000000000000000000000000000000000000000000C300C3C3C3C32D2D2D2D2DE22D0000000000000000000000
310
00000000000000000000000000000000000000000000000000000000000000000000000000000000000000000000000000000000000000000000000000000000000000000000000000000000000000000000000000000000000000000000000000000000000000000000000000000000000000000000000000000000000000
310
000000000000000000000000000000000000000000000000000000000000000000000000000000E200E2E2E2C3E2C3C3C3E2C3E2E2E2E2E2E2E2E2E2E2E2E2E2E2E2E2E2E2E2E2E2E2E2E2E2E2E2E2E2E2E2E2E2E2E2E2E2E2E2E2E2E2E2E2E2E2E2E2E2E2E2E2E2E2C3E2C3C3C3E2C3E2C3E200E200000000000000000000
310
00000000000000000000000000000000000000000000000000000000000000000000000000000000000000000000000000000000000000000000000000000000000000000000000000000000000000000000000000000000000000000000000000000000000000000000000000000000000000000000000000000000000000
310
0000000000000000000000000000000000000000000000000000000000000000000000000000000000E200002D00E20000E20000E2000000000000000000000000000000000000000000000000000000000000000000000000000000000000000000000000000000000000E20000E20000E2002D0000E20000000000000000
310
00000000000000000000000000000000000000000000000000000000000000000000000000000000000000000000000000000000000000000000000000000000000000000000000000000000000000000000000000000000000000000000000000000000000000000000000000000000000000000000000000000000000000
310
0000000000000000000000000000000000000000000000000000000000000000000000000000000000000000E2E2E2E2000000E20000E2000000000000000000000000000000000000000000000000000000000000000000000000000000000000000000000000000000000000E20000E2000000E2E2E2E200000000000000
310
00000000000000000000000000000000000000000000000000000000000000000000000000000000000000000000000000000000000000000000000000000000000000000000000000000000000000000000000000000000000000000000000000000000000000000000000000000000000000000000000000000000000000
310
0000000000000000000000000000000000000000000000000000000000000000000000000000000000000000000000002D00000000E20000E2000000000000000000000000000000000000000000000000000000000000000000000000000000000000000000000000000000000000E20000E2000000002D00000000000000
310
00000000000000000000000000000000000000000000000000000000000000000000000000000000000000000000000000000000000000000000000000000000000000000000000000000000000000000000000000000000000000000000000000000000000000000000000000000000000000000000000000000000000000
310
00000000000000000000000000000000000000000000000000000000000000000000000000000000000000000000000000000000000000E20000E2000000000000000000000000000000000000000000000000000000000000000000000000000000000000000000000000000000000000E20000E200000000000000000000
310
00000000000000000000000000000000000000000000000000000000000000000000000000000000000000000000000000000000000000000000000000000000000000000000000000000000000000000000000000000000000000000000000000000000000000000000000000000000000000000000000000000000000000
310
000000000000000000000000000000000000000000000000000000000000000000000000000000000000000000000000000000000000000000E20000E2000000000000000000000000000000000000000000000000000000000000000000000000000000000000000000000000000000000000E20000E20000000000000000
310
00000000000000000000000000000000000000000000000000000000000000000000000000000000000000000000000000000000000000000000000000000000000000000000000000000000000000000000000000000000000000000000000000000000000000000000000000000000000000000000000000000000000000
310
0000000000000000000000000000000000000000000000000000000000000000000000000000000000000000000000000000000000000000000000E20000E2000000000000000000000000000000000000000000000000000000000000000000000000000000000000000000000000000000000000E20000E2000000000000
310
00000000000000000000000000000000000000000000000000000000000000000000000000000000000000000000000000000000000000000000000000000000000000000000000000000000000000000000000000000000000000000000000000000000000000000000000000000000000000000000000000000000000000
310
00000000000000000000000000000000000000000000000000000000000000000000000000000000000000000000000000000000000000000000000000E20000E2000000000000000000000000000000000000000000000000000000000000000000000000000000000000000000000000000000000000E20000E200000000
310
00000000000000000000000000000000000000000000000000000000000000000000000000000000000000000000000000000000000000000000000000000000000000000000000000000000000000000000000000000000000000000000000000000000000000000000000000000000000000000000000000000000000000
310
000000000000000000000000000000000000000000000000000000000000000000000000000000000000000000000000000000000000000000000000000000E20000E2000000000000000000000000000000000000000000000000000000000000000000000000000000000000000000000000000000000000E20000E20000
310
00000000000000000000000000000000000000000000000000000000000000000000000000000000000000000000000000000000000000000000000000000000000000000000000000000000000000000000000000000000000000000000000000000000000000000000000000000000000000000000000000000000000000
310
0000000000000000000000000000000000000000000000000000000000000000000000000000000000000000000000000000000000000000000000000000000000E20000E200000000000000000000000000000000000000000000000000002D000000000000000000000000000000000000000000000000000000E20000E2
310
00000000000000000000000000000000000000000000000000000000000000000000000000000000000000000000000000000000000000000000000000000000000000000000000000000000000000000000000000000000000000000000000000000000000000000000000000000000000000000000000000000000000000
310
00000000000000000000000000000000000000000000000000000000000000000000000000000000000000000000000000000000000000000000000000000000000000E20000E200000000000000000000000000000000000000000000000000002D000000000000000000000000000000000000000000000000000000E200
310
00E20000000000000000000000000000000000000000000000000000000000000000000000000000000000000000000000000000000000000000000000000000000000000000000000000000000000000000000000000000000000000000000000000000000000000000000000000000000000000000000000000000000000
310
000000000000000000000000000000000000000000000000000000000000000000000000000000000000000000000000000000000000000000000000000000000000000000E200E2E2E2E2E2E2E20000000000000000000000000000000000E2E2E2E2E2E2E2E2E2E20000000000000000000000000000000000E2E2E2E2E2
310
E2E200E2000000000000000000000000000000000000000000000000000000000000000000000000000000000000000000000000000000000000000000000000000000000000000000000000000000000000000000000000000000000000000000000000000000000000000000000000000000000000000000000000000000
310
0000000000000000000000000000000000000000000000000000000000000000000000000000000000000000000000000000000000000000000000000000000000000000000000E200E2E2000000E200E200000000000000000000000000000000E2C300002D00000000E200000000000000000000000000000000E200E200
310
0000E2E200E200000000000000000000000000000000000000000000000000000000000000000000000000000000000000000000000000000000000000000000000000000000000000000000000000000000000000000000000000000000000000000000000000000000000000000000000000000000000000000000000000
310
00000000000000000000000000000000000000000000000000000000000000000000000000000000000000000000000000000000000000000000000000000000000000000000000000E200E2E200000000E200E2E20000000000000000000000000000E2C300002D00000000E20000000000000000000000000000E2E200E2
310
00000000E2E200E20000000000000000000000000000000000000000000000000000000000000000000000000000000000000000000000000000000000000000000000000000000000000000000000000000000000000000000000000000000000000000000000000000000000000000000000000000000000000000000000
310
000000000000000000000000000000000000000000000000000000000000000000000000000000000000000000000000000000000000000000000000000000000000000000000000000000E200E2E200000000E2000000E200000000000000000000000000E2C300002D00000000E200000000000000000000000000E20000
310
00E200000000E200E2E2000000000000000000000000000000000000000000000000000000000000000000000000000000000000000000000000000000000000000000000000000000000000000000000000000000000000000000000000000000000000000000000000000000000000000000000000000000000000000000
310
0000000000000000000000000000000000000000000000000000000000000000000000000000000000000000000000000000000000000000000000000000000000000000000000000000000000E2E200E20000000000E2000000E2E200000000000000000000E2E2C300002D00000000E2E200000000000000000000E2E200
310
0000E20000000000E200E2E200000000000000000000000000000000000000000000000000000000000000000000000000000000000000000000000000000000000000000000000000000000000000000000000000000000000000000000000000000000000000000000000000000000000000000000000000000000000000
310
00000000000000000000000000000000000000000000000000000000000000000000000000000000000000000000000000000000000000000000000000000000000000000000000000000000000000E2E200E20000000000E2E2E2E2E2E2E2E2E2E2E2E2E2E2E2E2E2E2E2E2E22DE2E2E2E2E2E2E2E2E2E2E2E2E2E2E2E2E2
310
E2E2E2E2E20000000000E200E2E20000000000000000000000000000000000000000000000000000000000000000000000000000000000000000000000000000000000000000000000000000000000000000000000000000000000000000000000000000000000000000000000000000000000000000000000000000000000
310
000000000000000000000000000000000000000000000000000000000000000000000000000000000000000000000000000000000000000000000000000000000000000000000000000000000000000000E2E200E20000E2E2E2E200000000000000C3C3C3C3C3C3C3C3C3C3C3C3C32D000000000000000000000000000000
310
000000000000E2E2E2E20000E200E2E2000000000000000000000000000000000000000000000000000000000000000000000000000000000000000000000000000000000000000000000000000000000000000000000000000000000000000000000000000000000000000000000000000000000000000000000000000000
310
0000000000000000000000000000000000000000000000000000000000000000000000000000000000000000000000000000000000000000000000000000000000000000000000000000000000000000000000E2E200E2E2E200000000C3C3C3C3C3C3C3000000000000000000000000002D00000000000000000000000000
310
000000000000000000000000E2E2E20000E200000000000000000000000000000000000000000000000000000000000000000000000000000000000000000000000000000000000000000000000000000000000000000000000000000000000000000000000000000000000000000000000000000000000000000000000000
310
00000000000000000000000000000000000000000000000000000000000000000000000000000000000000000000000000000000000000000000000000000000000000000000000000000000000000000000000000E2E2E2E2000000C3C3C300000000000000000000000000000000000000002D0000000000000000000000
310
00000000000000000000000000000000E2E2E2E20000000000000000000000000000000000000000000000000000000000000000000000000000000000000000000000000000000000000000000000000000000000000000000000000000000000000000000000000000000000000000000000000000000000000000000000
310
000000000000000000000000000000000000000000000000000000000000000000000000000000000000000000000000000000000000000000000000000000000000000000000000000000000000000000E2E2E2E2E2E2E2E2E2E2C3C3C3E2E2E2E2E2E2E2E2E2E2E2E2E2E2E2E2E2E2E2E2E2E2E22DE2E2E2E2E2E2E2E2E2
310
E2E2E2E2E2E2E2E2E2E2E2E2E2E2E2E2E2E2E2E2E2E2E2E2E2E2E2E2000000000000000000000000000000000000000000000000000000000000000000000000000000000000000000000000000000000000000000000000000000000000000000000000000000000000000000000000000000000000000000000000000000
310
00000000000000000000000000000000000000000000000000000000000000000000000000000000000000000000000000000000000000000000000000000000000000000000000000000000000000000000E200C3C3C3C3C3C3C3C3C3C3C3C3C3C3C3C3C3C3C3C3C3C3C3C3C3C3C3C3C3C3C3C3C3C3C3C300000000000000
310
000000000000000000000000000000000000000000000000000000000000E2000000000000000000000000000000000000000000000000000000000000000000000000000000000000000000000000000000000000000000000000000000000000000000000000000000000000000000000000000000000000000000000000
310
000000000000000000000000000000000000000000000000000000000000000000000000000000000000000000000000000000000000000000000000000000000000000000000000000000000000000000000000E2C3C3C3C3C3C3C3C3000000000000000000000000000000000000000000000000000000002D0000000000
310
0000000000000000000000000000000000000000000000000000000000000000E200000000000000000000000000000000000000000000000000000000000000000000000000000000000000000000000000000000000000000000000000000000000000000000000000000000000000000000000000000000000000000000
310
0000000000000000000000000000000000000000000000000000000000000000000000000000000000000000000000000000000000000000000000000000000000000000000000000000000000000000000000000000E2C300000000C3C30000000000000000000000C3C3C30000000000000000000000000000002D000000
310
00000000000000000000000000C3C3C3000000000000000000000000000000000000E20000000000000000000000000000000000000000000000000000000000000000000000000000000000000000000000000000000000000000000000000000000000000000000000000000000000000000000000000000000000000000
310
00000000000000000000000000000000000000000000000000000000000000000000000000000000000000000000000000000000000000000000000000000000000000000000000000000000000000000000000000000000E2C3000000C300C30000000000000000002DC32D2D2DC32D000000000000000000000000002D00
310
000000000000000000000000002DC32D2D2DC32D00000000000000000000000000000000E2000000000000000000000000000000000000000000000000000000000000000000000000000000000000000000000000000000000000000000000000000000000000000000000000000000000000000000000000000000000000
310
000000000000000000000000000000000000000000000000000000000000000000000000000000000000000000000000000000000000000000000000000000000000000000000000000000000000000000000000000000000000E2C30000C3C3C30000000000000000000000C3002D00C30000000000000000000000000000
310
2D000000000000000000000000000000C3002D00C30000000000000000000000000000000000E200000000000000000000000000000000000000000000000000000000000000000000000000000000000000000000000000000000000000000000000000000000000000000000000000000000000000000000000000000000
310
0000000000000000000000000000000000000000000000000000000000000000000000000000000000000000000000000000000000000000000000000000000000000000000000000000000000000000000000000000000000000000E2C30000C3C300000000000000000000000000C3C3C300000000000000000000000000
310
0000C3C3000000000000000000000000000000C3C3C3000000000000000000000000000000000000E20000000000000000000000000000000000000000000000000000000000000000000000000000000000000000000000000000000000000000000000000000000000000000000000000000000000000000000000000000
310
00000000000000000000000000000000000000000000000000000000000000000000000000000000000000000000000000000000000000000000000000000000000000000000000000000000000000000000000000000000000000000000E2C300C300C3000000000000000000000000000000000000000000000000000000
310
000000C32D00C30000000000000000000000000000000000000000000000000000000000000000000000E2000000000000000000000000000000000000000000000000000000000000000000000000000000000000000000000000000000000000000000000000000000000000000000000000000000000000000000000000
310
000000000000000000000000000000000000000000000000000000000000000000000000000000000000000000000000000000000000000000000000000000000000000000000000000000000000000000000000000000000000000000000000E2C300C3C30000000000000000000000000000000000000000000000000000
310
0000000000C32D00C30000000000000000000000000000000000000000000000000000000000000000000000E200000000000000000000000000000000000000000000000000000000000000000000000000000000000000000000000000000000000000000000000000000000000000000000000000000000000000000000
310
0000000000000000000000000000000000000000000000000000000000000000000000000000000000000000000000000000000000000000000000000000000000000000000000000000000000000000000000000000000000000000000000000000E2C300C3C3000000000000000000000000000000000000000000000000
310
00000000000000C3C3C3C30000000000000000000000000000000000000000000000000000000000000000000000E20000000000000000000000000000000000000000000000000000000000000000000000000000000000000000000000000000000000000000000000000000000000000000000000000000000000000000
310
00000000000000000000000000000000000000000000000000000000000000000000000000000000000000000000000000000000000000000000000000000000000000000000000000000000000000000000000000000000000000000000000000000000E2C3C3C30000000000000000000000000000000000000000000000
310
000000000000000000002D00000000000000000000000000000000000000000000000000000000000000000000000000E2000000000000000000000000000000000000000000000000000000000000000000000000000000000000000000000000000000000000000000000000000000000000000000000000000000000000
310
000000000000000000000000000000000000000000000000000000000000000000000000000000000000000000000000000000000000000000000000000000000000000000000000000000000000000000000000000000000000000000000000000000000000E2C3C3C3000000000000000000000000000000000000000000
310
0000000000000000000000002D00000000000000000000000000000000000000000000000000000000000000000000000000E200000000000000000000000000000000000000000000000000000000000000000000000000000000000000000000000000000000000000000000000000000000000000000000000000000000
310
0000000000000000000000000000000000000000000000000000000000000000000000000000000000000000000000000000000000000000000000000000000000000000000000000000000000000000000000000000000000000000000000000000000000000000E2E2E2E2E2E2E2E2E2E2E2E2E2E2E2E2E2E2E2E2E2E2E2
310
E2E2E2E2E2E2E2E2E2E2E2E2E2E2E2E2E2E2E2E2E2E2E2E2E2E2E2E2E2E2E2E2E2E2E2E2E2E2E2E2E2E2E2E2E2E2E2E2E2E2E2E2E20000000000000000000000000000000000000000000000000000000000000000000000000000000000000000000000000000000000000000000000000000000000000000000000000000
310
00000000000000000000000000000000000000000000000000000000000000000000000000000000000000000000000000000000000000000000000000000000000000000000000000000000000000000000000000000000000000000000000000000000000000000000000000000000000000000000000000000000000000
310
000000000000000000000000000000002D0000000000000000000000000000000000000000000000000000000000000000000000000000000000000000000000000000000000000000000000000000000000000000000000000000000000000000000000000000000000000000000000000000000000000000000000000000
310
00000000000000000000000000000000000000000000000000000000000000000000000000000000000000000000000000000000000000000000000000000000000000000000000000000000000000000000000000000000000000000000000000000000000000000000000000000000000000000000000000000000000000
310
0000000000000000000000000000000000002D000000000000000000000000000000000000000000000000000000000000000000000000000000000000000000000000000000000000000000000000000000000000000000000000000000000000000000000000000000000000000000000000000000000000000000000000
310
0000000000000000000000000000000000000000
  0
XRECORD
  5
3D99
102
{ACAD_REACTORS
330
28CB
102
}
330
28CB
100
AcDbXrecord
280
     1
102
MATERIAL
148
0.0
149
0.0
149
0.0
 93
        0
 94
      127
282
     0
 72
     0
 77
     0
171
     0
175
     0
179
     0
273
     0
  0
XRECORD
  5
28CD
102
{ACAD_REACTORS
330
28CB
102
}
330
28CB
100
AcDbXrecord
280
     1
270
     1
271
     1
  0
XRECORD
  5
28CC
102
{ACAD_REACTORS
330
28CB
102
}
330
28CB
100
AcDbXrecord
280
     1
270
     1
271
     1
  0
XRECORD
  5
28D0
102
{ACAD_REACTORS
330
28CB
102
}
330
28CB
100
AcDbXrecord
280
     1
270
     1
271
     1
  0
XRECORD
  5
28CF
102
{ACAD_REACTORS
330
28CB
102
}
330
28CB
100
AcDbXrecord
280
     1
270
     1
271
     1
  0
XRECORD
  5
28D1
102
{ACAD_REACTORS
330
28CB
102
}
330
28CB
100
AcDbXrecord
280
     1
270
     1
271
     1
  0
XRECORD
  5
28CE
102
{ACAD_REACTORS
330
28CB
102
}
330
28CB
100
AcDbXrecord
280
     1
270
     1
271
     1
  0
XRECORD
  5
3D98
102
{ACAD_REACTORS
330
28C3
102
}
330
28C3
100
AcDbXrecord
280
     1
102
MATERIAL
148
0.0
149
0.0
149
0.0
 93
        0
 94
      127
282
     0
 72
     0
 77
     0
171
     0
175
     0
179
     0
273
     0
  0
XRECORD
  5
28C5
102
{ACAD_REACTORS
330
28C3
102
}
330
28C3
100
AcDbXrecord
280
     1
270
     1
271
     1
  0
XRECORD
  5
28C4
102
{ACAD_REACTORS
330
28C3
102
}
330
28C3
100
AcDbXrecord
280
     1
270
     1
271
     1
  0
XRECORD
  5
28C8
102
{ACAD_REACTORS
330
28C3
102
}
330
28C3
100
AcDbXrecord
280
     1
270
     1
271
     1
  0
XRECORD
  5
28C7
102
{ACAD_REACTORS
330
28C3
102
}
330
28C3
100
AcDbXrecord
280
     1
270
     1
271
     1
  0
XRECORD
  5
28C9
102
{ACAD_REACTORS
330
28C3
102
}
330
28C3
100
AcDbXrecord
280
     1
270
     1
271
     1
  0
XRECORD
  5
28C6
102
{ACAD_REACTORS
330
28C3
102
}
330
28C3
100
AcDbXrecord
280
     1
270
     1
271
     1
  0
XRECORD
  5
3D9A
102
{ACAD_REACTORS
330
28D3
102
}
330
28D3
100
AcDbXrecord
280
     1
102
MATERIAL
148
0.0
149
0.0
149
0.0
 93
        0
 94
      127
282
     0
 72
     0
 77
     0
171
     0
175
     0
179
     0
273
     0
  0
XRECORD
  5
28D5
102
{ACAD_REACTORS
330
28D3
102
}
330
28D3
100
AcDbXrecord
280
     1
270
     1
271
     1
  0
XRECORD
  5
28D4
102
{ACAD_REACTORS
330
28D3
102
}
330
28D3
100
AcDbXrecord
280
     1
270
     1
271
     1
  0
XRECORD
  5
28D8
102
{ACAD_REACTORS
330
28D3
102
}
330
28D3
100
AcDbXrecord
280
     1
270
     1
271
     1
  0
XRECORD
  5
28D7
102
{ACAD_REACTORS
330
28D3
102
}
330
28D3
100
AcDbXrecord
280
     1
270
     1
271
     1
  0
XRECORD
  5
28D9
102
{ACAD_REACTORS
330
28D3
102
}
330
28D3
100
AcDbXrecord
280
     1
270
     1
271
     1
  0
XRECORD
  5
28D6
102
{ACAD_REACTORS
330
28D3
102
}
330
28D3
100
AcDbXrecord
280
     1
270
     1
271
     1
  0
CELLSTYLEMAP
  5
3D96
102
{ACAD_REACTORS
330
296F
102
}
330
296F
100
AcDbCellStyleMap
 90
        3
300
CELLSTYLE
  1
TABLEFORMAT_BEGIN
 90
        5
170
     1
 91
        0
 92
    32768
 62
   257
 93
        1
300
CONTENTFORMAT
  1
CONTENTFORMAT_BEGIN
 90
        0
 91
        0
 92
      512
 93
        0
300

 40
0.0
140
1.0
 94
        5
 62
     0
340
11
144
6.0
309
CONTENTFORMAT_END
171
     1
301
MARGIN
  1
CELLMARGIN_BEGIN
 40
1.5
 40
1.5
 40
1.5
 40
1.5
 40
4.5
 40
4.5
309
CELLMARGIN_END
 94
        6
 95
        1
302
GRIDFORMAT
  1
GRIDFORMAT_BEGIN
 90
        0
 91
        1
 62
     0
 92
       -2
340
0
 93
        0
 40
1.125
309
GRIDFORMAT_END
 95
        2
302
GRIDFORMAT
  1
GRIDFORMAT_BEGIN
 90
        0
 91
        1
 62
     0
 92
       -2
340
0
 93
        0
 40
1.125
309
GRIDFORMAT_END
 95
        4
302
GRIDFORMAT
  1
GRIDFORMAT_BEGIN
 90
        0
 91
        1
 62
     0
 92
       -2
340
0
 93
        0
 40
1.125
309
GRIDFORMAT_END
 95
        8
302
GRIDFORMAT
  1
GRIDFORMAT_BEGIN
 90
        0
 91
        1
 62
     0
 92
       -2
340
0
 93
        0
 40
1.125
309
GRIDFORMAT_END
 95
       16
302
GRIDFORMAT
  1
GRIDFORMAT_BEGIN
 90
        0
 91
        1
 62
     0
 92
       -2
340
0
 93
        0
 40
1.125
309
GRIDFORMAT_END
 95
       32
302
GRIDFORMAT
  1
GRIDFORMAT_BEGIN
 90
        0
 91
        1
 62
     0
 92
       -2
340
0
 93
        0
 40
1.125
309
GRIDFORMAT_END
309
TABLEFORMAT_END
  1
CELLSTYLE_BEGIN
 90
        1
 91
        1
300
_TITLE
309
CELLSTYLE_END
300
CELLSTYLE
  1
TABLEFORMAT_BEGIN
 90
        5
170
     1
 91
        0
 92
        0
 62
   257
 93
        1
300
CONTENTFORMAT
  1
CONTENTFORMAT_BEGIN
 90
        0
 91
        0
 92
      512
 93
        0
300

 40
0.0
140
1.0
 94
        5
 62
     0
340
11
144
4.5
309
CONTENTFORMAT_END
171
     1
301
MARGIN
  1
CELLMARGIN_BEGIN
 40
1.5
 40
1.5
 40
1.5
 40
1.5
 40
4.5
 40
4.5
309
CELLMARGIN_END
 94
        6
 95
        1
302
GRIDFORMAT
  1
GRIDFORMAT_BEGIN
 90
        0
 91
        1
 62
     0
 92
       -2
340
0
 93
        0
 40
1.125
309
GRIDFORMAT_END
 95
        2
302
GRIDFORMAT
  1
GRIDFORMAT_BEGIN
 90
        0
 91
        1
 62
     0
 92
       -2
340
0
 93
        0
 40
1.125
309
GRIDFORMAT_END
 95
        4
302
GRIDFORMAT
  1
GRIDFORMAT_BEGIN
 90
        0
 91
        1
 62
     0
 92
       -2
340
0
 93
        0
 40
1.125
309
GRIDFORMAT_END
 95
        8
302
GRIDFORMAT
  1
GRIDFORMAT_BEGIN
 90
        0
 91
        1
 62
     0
 92
       -2
340
0
 93
        0
 40
1.125
309
GRIDFORMAT_END
 95
       16
302
GRIDFORMAT
  1
GRIDFORMAT_BEGIN
 90
        0
 91
        1
 62
     0
 92
       -2
340
0
 93
        0
 40
1.125
309
GRIDFORMAT_END
 95
       32
302
GRIDFORMAT
  1
GRIDFORMAT_BEGIN
 90
        0
 91
        1
 62
     0
 92
       -2
340
0
 93
        0
 40
1.125
309
GRIDFORMAT_END
309
TABLEFORMAT_END
  1
CELLSTYLE_BEGIN
 90
        2
 91
        1
300
_HEADER
309
CELLSTYLE_END
300
CELLSTYLE
  1
TABLEFORMAT_BEGIN
 90
        5
170
     1
 91
        0
 92
        0
 62
   257
 93
        1
300
CONTENTFORMAT
  1
CONTENTFORMAT_BEGIN
 90
        0
 91
        0
 92
      512
 93
        0
300

 40
0.0
140
1.0
 94
        2
 62
     0
340
11
144
4.5
309
CONTENTFORMAT_END
171
     1
301
MARGIN
  1
CELLMARGIN_BEGIN
 40
1.5
 40
1.5
 40
1.5
 40
1.5
 40
4.5
 40
4.5
309
CELLMARGIN_END
 94
        6
 95
        1
302
GRIDFORMAT
  1
GRIDFORMAT_BEGIN
 90
        0
 91
        1
 62
     0
 92
       -2
340
0
 93
        0
 40
1.125
309
GRIDFORMAT_END
 95
        2
302
GRIDFORMAT
  1
GRIDFORMAT_BEGIN
 90
        0
 91
        1
 62
     0
 92
       -2
340
0
 93
        0
 40
1.125
309
GRIDFORMAT_END
 95
        4
302
GRIDFORMAT
  1
GRIDFORMAT_BEGIN
 90
        0
 91
        1
 62
     0
 92
       -2
340
0
 93
        0
 40
1.125
309
GRIDFORMAT_END
 95
        8
302
GRIDFORMAT
  1
GRIDFORMAT_BEGIN
 90
        0
 91
        1
 62
     0
 92
       -2
340
0
 93
        0
 40
1.125
309
GRIDFORMAT_END
 95
       16
302
GRIDFORMAT
  1
GRIDFORMAT_BEGIN
 90
        0
 91
        1
 62
     0
 92
       -2
340
0
 93
        0
 40
1.125
309
GRIDFORMAT_END
 95
       32
302
GRIDFORMAT
  1
GRIDFORMAT_BEGIN
 90
        0
 91
        1
 62
     0
 92
       -2
340
0
 93
        0
 40
1.125
309
GRIDFORMAT_END
309
TABLEFORMAT_END
  1
CELLSTYLE_BEGIN
 90
        3
 91
        2
300
_DATA
309
CELLSTYLE_END
  0
XRECORD
  5
3DCB
102
{ACAD_REACTORS
330
296F
102
}
330
296F
100
AcDbXrecord
280
     1
102
ACAD_ROUNDTRIP_PRE2007_TABLESTYLE
 90
      512
 91
        0
  1

 92
      512
 93
        0
  2

 94
      512
 95
        0
  3

  0
XRECORD
  5
3DA6
102
{ACAD_REACTORS
330
3DA5
102
}
330
3DA5
100
AcDbXrecord
280
     1
102
RTVSPropertyOp0
 70
     1
102
RTVSPropertyOp1
 70
     1
102
RTVSPropertyOp2
 70
     1
102
RTVSPropertyOp3
 70
     1
102
RTVSPropertyOp4
 70
     1
102
RTVSPropertyOp5
 70
     1
102
RTVSPropertyOp6
 70
     1
102
RTVSPropertyOp7
 70
     1
102
RTVSPropertyOp8
 70
     1
102
RTVSPropertyOp9
 70
     1
102
RTVSPropertyOp10
 70
     1
102
RTVSPropertyOp11
 70
     1
102
RTVSPropertyOp12
 70
     1
102
RTVSPropertyOp13
 70
     1
102
RTVSPropertyOp14
 70
     1
102
RTVSPropertyOp15
 70
     1
102
RTVSPropertyOp16
 70
     1
102
RTVSPropertyOp17
 70
     1
102
RTVSPropertyOp18
 70
     1
102
RTVSPropertyOp19
 70
     1
102
RTVSPropertyOp20
 70
     1
102
RTVSPropertyOp21
 70
     1
102
RTVSPropertyOp22
 70
     1
102
RTVSPropertyOp23
 70
     1
102
RTVSPropertyOp24
 70
     1
102
RTVSPropertyOp25
 70
     1
102
RTVSPropertyOp26
 70
     1
102
RTVSPropertyOp27
 70
     1
102
RTVSPropertyOp28
 70
     1
102
RTVSPropertyOp29
 70
     1
102
RTVSPropertyOp30
 70
     1
102
RTVSPropertyOp31
 70
     1
102
RTVSPropertyOp32
 70
     1
  0
XRECORD
  5
3DA4
102
{ACAD_REACTORS
330
3DA3
102
}
330
3DA3
100
AcDbXrecord
280
     1
102
RTVSPropertyOp0
 70
     1
102
RTVSPropertyOp1
 70
     1
102
RTVSPropertyOp2
 70
     1
102
RTVSPropertyOp3
 70
     1
102
RTVSPropertyOp4
 70
     1
102
RTVSPropertyOp5
 70
     1
102
RTVSPropertyOp6
 70
     1
102
RTVSPropertyOp7
 70
     1
102
RTVSPropertyOp8
 70
     1
102
RTVSPropertyOp9
 70
     1
102
RTVSPropertyOp10
 70
     1
102
RTVSPropertyOp11
 70
     1
102
RTVSPropertyOp12
 70
     1
102
RTVSPropertyOp13
 70
     1
102
RTVSPropertyOp14
 70
     1
102
RTVSPropertyOp15
 70
     1
102
RTVSPropertyOp16
 70
     1
102
RTVSPropertyOp17
 70
     1
102
RTVSPropertyOp18
 70
     1
102
RTVSPropertyOp19
 70
     1
102
RTVSPropertyOp20
 70
     1
102
RTVSPropertyOp21
 70
     1
102
RTVSPropertyOp22
 70
     1
102
RTVSPropertyOp23
 70
     1
102
RTVSPropertyOp24
 70
     1
102
RTVSPropertyOp25
 70
     1
102
RTVSPropertyOp26
 70
     1
102
RTVSPropertyOp27
 70
     1
102
RTVSPropertyOp28
 70
     1
102
RTVSPropertyOp29
 70
     1
102
RTVSPropertyOp30
 70
     1
102
RTVSPropertyOp31
 70
     1
102
RTVSPropertyOp32
 70
     1
  0
XRECORD
  5
3DB2
102
{ACAD_REACTORS
330
3DB1
102
}
330
3DB1
100
AcDbXrecord
280
     1
102
RTVSPropertyOp0
 70
     1
102
RTVSPropertyOp1
 70
     1
102
RTVSPropertyOp2
 70
     1
102
RTVSPropertyOp3
 70
     1
102
RTVSPropertyOp4
 70
     1
102
RTVSPropertyOp5
 70
     1
102
RTVSPropertyOp6
 70
     1
102
RTVSPropertyOp7
 70
     1
102
RTVSPropertyOp8
 70
     1
102
RTVSPropertyOp9
 70
     1
102
RTVSPropertyOp10
 70
     1
102
RTVSPropertyOp11
 70
     1
102
RTVSPropertyOp12
 70
     1
102
RTVSPropertyOp13
 70
     1
102
RTVSPropertyOp14
 70
     1
102
RTVSPropertyOp15
 70
     1
102
RTVSPropertyOp16
 70
     1
102
RTVSPropertyOp17
 70
     1
102
RTVSPropertyOp18
 70
     1
102
RTVSPropertyOp19
 70
     1
102
RTVSPropertyOp20
 70
     1
102
RTVSPropertyOp21
 70
     1
102
RTVSPropertyOp22
 70
     1
102
RTVSPropertyOp23
 70
     1
102
RTVSPropertyOp24
 70
     1
102
RTVSPropertyOp25
 70
     1
102
RTVSPropertyOp26
 70
     1
102
RTVSPropertyOp27
 70
     1
102
RTVSPropertyOp28
 70
     1
102
RTVSPropertyOp29
 70
     1
102
RTVSPropertyOp30
 70
     1
102
RTVSPropertyOp31
 70
     1
102
RTVSPropertyOp32
 70
     1
  0
XRECORD
  5
3DBA
102
{ACAD_REACTORS
330
3DB9
102
}
330
3DB9
100
AcDbXrecord
280
     1
102
RTVSPropertyOp0
 70
     1
102
RTVSPropertyOp1
 70
     1
102
RTVSPropertyOp2
 70
     1
102
RTVSPropertyOp3
 70
     1
102
RTVSPropertyOp4
 70
     1
102
RTVSPropertyOp5
 70
     1
102
RTVSPropertyOp6
 70
     1
102
RTVSPropertyOp7
 70
     1
102
RTVSPropertyOp8
 70
     1
102
RTVSPropertyOp9
 70
     1
102
RTVSPropertyOp10
 70
     1
102
RTVSPropertyOp11
 70
     1
102
RTVSPropertyOp12
 70
     1
102
RTVSPropertyOp13
 70
     1
102
RTVSPropertyOp14
 70
     1
102
RTVSPropertyOp15
 70
     1
102
RTVSPropertyOp16
 70
     1
102
RTVSPropertyOp17
 70
     1
102
RTVSPropertyOp18
 70
     1
102
RTVSPropertyOp19
 70
     1
102
RTVSPropertyOp20
 70
     1
102
RTVSPropertyOp21
 70
     1
102
RTVSPropertyOp22
 70
     1
102
RTVSPropertyOp23
 70
     1
102
RTVSPropertyOp24
 70
     1
102
RTVSPropertyOp25
 70
     1
102
RTVSPropertyOp26
 70
     1
102
RTVSPropertyOp27
 70
     1
102
RTVSPropertyOp28
 70
     1
102
RTVSPropertyOp29
 70
     1
102
RTVSPropertyOp30
 70
     1
102
RTVSPropertyOp31
 70
     1
102
RTVSPropertyOp32
 70
     1
  0
XRECORD
  5
3DAC
102
{ACAD_REACTORS
330
3DAB
102
}
330
3DAB
100
AcDbXrecord
280
     1
102
RTVSPropertyOp0
 70
     1
102
RTVSPropertyOp1
 70
     1
102
RTVSPropertyOp2
 70
     1
102
RTVSPropertyOp3
 70
     1
102
RTVSPropertyOp4
 70
     1
102
RTVSPropertyOp5
 70
     1
102
RTVSPropertyOp6
 70
     1
102
RTVSPropertyOp7
 70
     1
102
RTVSPropertyOp8
 70
     1
102
RTVSPropertyOp9
 70
     1
102
RTVSPropertyOp10
 70
     1
102
RTVSPropertyOp11
 70
     1
102
RTVSPropertyOp12
 70
     1
102
RTVSPropertyOp13
 70
     1
102
RTVSPropertyOp14
 70
     1
102
RTVSPropertyOp15
 70
     1
102
RTVSPropertyOp16
 70
     1
102
RTVSPropertyOp17
 70
     1
102
RTVSPropertyOp18
 70
     1
102
RTVSPropertyOp19
 70
     1
102
RTVSPropertyOp20
 70
     1
102
RTVSPropertyOp21
 70
     1
102
RTVSPropertyOp22
 70
     1
102
RTVSPropertyOp23
 70
     1
102
RTVSPropertyOp24
 70
     1
102
RTVSPropertyOp25
 70
     1
102
RTVSPropertyOp26
 70
     1
102
RTVSPropertyOp27
 70
     1
102
RTVSPropertyOp28
 70
     1
102
RTVSPropertyOp29
 70
     1
102
RTVSPropertyOp30
 70
     1
102
RTVSPropertyOp31
 70
     1
102
RTVSPropertyOp32
 70
     1
  0
XRECORD
  5
3DB0
102
{ACAD_REACTORS
330
3DAF
102
}
330
3DAF
100
AcDbXrecord
280
     1
102
RTVSPropertyOp0
 70
     1
102
RTVSPropertyOp1
 70
     1
102
RTVSPropertyOp2
 70
     1
102
RTVSPropertyOp3
 70
     1
102
RTVSPropertyOp4
 70
     1
102
RTVSPropertyOp5
 70
     1
102
RTVSPropertyOp6
 70
     1
102
RTVSPropertyOp7
 70
     1
102
RTVSPropertyOp8
 70
     1
102
RTVSPropertyOp9
 70
     1
102
RTVSPropertyOp10
 70
     1
102
RTVSPropertyOp11
 70
     1
102
RTVSPropertyOp12
 70
     1
102
RTVSPropertyOp13
 70
     1
102
RTVSPropertyOp14
 70
     1
102
RTVSPropertyOp15
 70
     1
102
RTVSPropertyOp16
 70
     1
102
RTVSPropertyOp17
 70
     1
102
RTVSPropertyOp18
 70
     1
102
RTVSPropertyOp19
 70
     1
102
RTVSPropertyOp20
 70
     1
102
RTVSPropertyOp21
 70
     1
102
RTVSPropertyOp22
 70
     1
102
RTVSPropertyOp23
 70
     1
102
RTVSPropertyOp24
 70
     1
102
RTVSPropertyOp25
 70
     1
102
RTVSPropertyOp26
 70
     1
102
RTVSPropertyOp27
 70
     1
102
RTVSPropertyOp28
 70
     1
102
RTVSPropertyOp29
 70
     1
102
RTVSPropertyOp30
 70
     1
102
RTVSPropertyOp31
 70
     1
102
RTVSPropertyOp32
 70
     1
  0
XRECORD
  5
3DCA
102
{ACAD_REACTORS
330
3DC9
102
}
330
3DC9
100
AcDbXrecord
280
     1
102
RTVSPropertyOp0
 70
     0
102
RTVSPropertyOp1
 70
     0
102
RTVSPropertyOp2
 70
     0
102
RTVSPropertyOp3
 70
     0
102
RTVSPropertyOp4
 70
     0
102
RTVSPropertyOp5
 70
     0
102
RTVSPropertyOp6
 70
     0
102
RTVSPropertyOp7
 70
     0
102
RTVSPropertyOp8
 70
     0
102
RTVSPropertyOp9
 70
     0
102
RTVSPropertyOp10
 70
     0
102
RTVSPropertyOp11
 70
     0
102
RTVSPropertyOp12
 70
     0
102
RTVSPropertyOp13
 70
     0
102
RTVSPropertyOp14
 70
     2
102
RTVSPropertyOp15
 70
     0
102
RTVSPropertyOp16
 70
     0
102
RTVSPropertyOp17
 70
     0
102
RTVSPropertyOp18
 70
     0
102
RTVSPropertyOp19
 70
     0
102
RTVSPropertyOp20
 70
     0
102
RTVSPropertyOp21
 70
     0
102
RTVSPropertyOp22
 70
     0
102
RTVSPropertyOp23
 70
     0
102
RTVSPropertyOp24
 70
     0
102
RTVSPropertyOp25
 70
     0
102
RTVSPropertyOp26
 70
     0
102
RTVSPropertyOp27
 70
     0
102
RTVSPropertyOp28
 70
     1
102
RTVSPropertyOp29
 70
     1
102
RTVSPropertyOp30
 70
     1
102
RTVSPropertyOp31
 70
     1
102
RTVSPropertyOp32
 70
     1
  0
XRECORD
  5
3DB8
102
{ACAD_REACTORS
330
3DB7
102
}
330
3DB7
100
AcDbXrecord
280
     1
102
RTVSPropertyOp0
 70
     1
102
RTVSPropertyOp1
 70
     1
102
RTVSPropertyOp2
 70
     1
102
RTVSPropertyOp3
 70
     1
102
RTVSPropertyOp4
 70
     1
102
RTVSPropertyOp5
 70
     1
102
RTVSPropertyOp6
 70
     1
102
RTVSPropertyOp7
 70
     1
102
RTVSPropertyOp8
 70
     1
102
RTVSPropertyOp9
 70
     1
102
RTVSPropertyOp10
 70
     1
102
RTVSPropertyOp11
 70
     1
102
RTVSPropertyOp12
 70
     1
102
RTVSPropertyOp13
 70
     1
102
RTVSPropertyOp14
 70
     1
102
RTVSPropertyOp15
 70
     1
102
RTVSPropertyOp16
 70
     1
102
RTVSPropertyOp17
 70
     1
102
RTVSPropertyOp18
 70
     1
102
RTVSPropertyOp19
 70
     1
102
RTVSPropertyOp20
 70
     1
102
RTVSPropertyOp21
 70
     1
102
RTVSPropertyOp22
 70
     1
102
RTVSPropertyOp23
 70
     1
102
RTVSPropertyOp24
 70
     1
102
RTVSPropertyOp25
 70
     1
102
RTVSPropertyOp26
 70
     1
102
RTVSPropertyOp27
 70
     1
102
RTVSPropertyOp28
 70
     1
102
RTVSPropertyOp29
 70
     1
102
RTVSPropertyOp30
 70
     1
102
RTVSPropertyOp31
 70
     1
102
RTVSPropertyOp32
 70
     1
  0
XRECORD
  5
3D9C
102
{ACAD_REACTORS
330
3D9B
102
}
330
3D9B
100
AcDbXrecord
280
     1
102
RTVSPropertyOp0
 70
     1
102
RTVSPropertyOp1
 70
     1
102
RTVSPropertyOp2
 70
     1
102
RTVSPropertyOp3
 70
     1
102
RTVSPropertyOp4
 70
     1
102
RTVSPropertyOp5
 70
     1
102
RTVSPropertyOp6
 70
     1
102
RTVSPropertyOp7
 70
     1
102
RTVSPropertyOp8
 70
     1
102
RTVSPropertyOp9
 70
     1
102
RTVSPropertyOp10
 70
     1
102
RTVSPropertyOp11
 70
     1
102
RTVSPropertyOp12
 70
     1
102
RTVSPropertyOp13
 70
     1
102
RTVSPropertyOp14
 70
     1
102
RTVSPropertyOp15
 70
     1
102
RTVSPropertyOp16
 70
     1
102
RTVSPropertyOp17
 70
     1
102
RTVSPropertyOp18
 70
     1
102
RTVSPropertyOp19
 70
     1
102
RTVSPropertyOp20
 70
     1
102
RTVSPropertyOp21
 70
     1
102
RTVSPropertyOp22
 70
     1
102
RTVSPropertyOp23
 70
     1
102
RTVSPropertyOp24
 70
     1
102
RTVSPropertyOp25
 70
     1
102
RTVSPropertyOp26
 70
     1
102
RTVSPropertyOp27
 70
     1
102
RTVSPropertyOp28
 70
     1
102
RTVSPropertyOp29
 70
     1
102
RTVSPropertyOp30
 70
     1
102
RTVSPropertyOp31
 70
     1
102
RTVSPropertyOp32
 70
     1
  0
XRECORD
  5
3D9E
102
{ACAD_REACTORS
330
3D9D
102
}
330
3D9D
100
AcDbXrecord
280
     1
102
RTVSPropertyOp0
 70
     1
102
RTVSPropertyOp1
 70
     1
102
RTVSPropertyOp2
 70
     1
102
RTVSPropertyOp3
 70
     1
102
RTVSPropertyOp4
 70
     1
102
RTVSPropertyOp5
 70
     1
102
RTVSPropertyOp6
 70
     1
102
RTVSPropertyOp7
 70
     1
102
RTVSPropertyOp8
 70
     1
102
RTVSPropertyOp9
 70
     1
102
RTVSPropertyOp10
 70
     1
102
RTVSPropertyOp11
 70
     1
102
RTVSPropertyOp12
 70
     1
102
RTVSPropertyOp13
 70
     1
102
RTVSPropertyOp14
 70
     1
102
RTVSPropertyOp15
 70
     1
102
RTVSPropertyOp16
 70
     1
102
RTVSPropertyOp17
 70
     1
102
RTVSPropertyOp18
 70
     1
102
RTVSPropertyOp19
 70
     1
102
RTVSPropertyOp20
 70
     1
102
RTVSPropertyOp21
 70
     1
102
RTVSPropertyOp22
 70
     1
102
RTVSPropertyOp23
 70
     1
102
RTVSPropertyOp24
 70
     1
102
RTVSPropertyOp25
 70
     1
102
RTVSPropertyOp26
 70
     1
102
RTVSPropertyOp27
 70
     1
102
RTVSPropertyOp28
 70
     1
102
RTVSPropertyOp29
 70
     1
102
RTVSPropertyOp30
 70
     1
102
RTVSPropertyOp31
 70
     1
102
RTVSPropertyOp32
 70
     1
  0
XRECORD
  5
3DA0
102
{ACAD_REACTORS
330
3D9F
102
}
330
3D9F
100
AcDbXrecord
280
     1
102
RTVSPropertyOp0
 70
     1
102
RTVSPropertyOp1
 70
     1
102
RTVSPropertyOp2
 70
     1
102
RTVSPropertyOp3
 70
     1
102
RTVSPropertyOp4
 70
     1
102
RTVSPropertyOp5
 70
     1
102
RTVSPropertyOp6
 70
     1
102
RTVSPropertyOp7
 70
     1
102
RTVSPropertyOp8
 70
     1
102
RTVSPropertyOp9
 70
     1
102
RTVSPropertyOp10
 70
     1
102
RTVSPropertyOp11
 70
     1
102
RTVSPropertyOp12
 70
     1
102
RTVSPropertyOp13
 70
     1
102
RTVSPropertyOp14
 70
     1
102
RTVSPropertyOp15
 70
     1
102
RTVSPropertyOp16
 70
     1
102
RTVSPropertyOp17
 70
     1
102
RTVSPropertyOp18
 70
     1
102
RTVSPropertyOp19
 70
     1
102
RTVSPropertyOp20
 70
     1
102
RTVSPropertyOp21
 70
     1
102
RTVSPropertyOp22
 70
     1
102
RTVSPropertyOp23
 70
     1
102
RTVSPropertyOp24
 70
     1
102
RTVSPropertyOp25
 70
     1
102
RTVSPropertyOp26
 70
     1
102
RTVSPropertyOp27
 70
     1
102
RTVSPropertyOp28
 70
     1
102
RTVSPropertyOp29
 70
     1
102
RTVSPropertyOp30
 70
     1
102
RTVSPropertyOp31
 70
     1
102
RTVSPropertyOp32
 70
     1
  0
XRECORD
  5
3DA2
102
{ACAD_REACTORS
330
3DA1
102
}
330
3DA1
100
AcDbXrecord
280
     1
102
RTVSPropertyOp0
 70
     1
102
RTVSPropertyOp1
 70
     1
102
RTVSPropertyOp2
 70
     1
102
RTVSPropertyOp3
 70
     1
102
RTVSPropertyOp4
 70
     1
102
RTVSPropertyOp5
 70
     1
102
RTVSPropertyOp6
 70
     1
102
RTVSPropertyOp7
 70
     1
102
RTVSPropertyOp8
 70
     1
102
RTVSPropertyOp9
 70
     1
102
RTVSPropertyOp10
 70
     1
102
RTVSPropertyOp11
 70
     1
102
RTVSPropertyOp12
 70
     1
102
RTVSPropertyOp13
 70
     1
102
RTVSPropertyOp14
 70
     1
102
RTVSPropertyOp15
 70
     1
102
RTVSPropertyOp16
 70
     1
102
RTVSPropertyOp17
 70
     1
102
RTVSPropertyOp18
 70
     1
102
RTVSPropertyOp19
 70
     1
102
RTVSPropertyOp20
 70
     1
102
RTVSPropertyOp21
 70
     1
102
RTVSPropertyOp22
 70
     1
102
RTVSPropertyOp23
 70
     1
102
RTVSPropertyOp24
 70
     1
102
RTVSPropertyOp25
 70
     1
102
RTVSPropertyOp26
 70
     1
102
RTVSPropertyOp27
 70
     1
102
RTVSPropertyOp28
 70
     1
102
RTVSPropertyOp29
 70
     1
102
RTVSPropertyOp30
 70
     1
102
RTVSPropertyOp31
 70
     1
102
RTVSPropertyOp32
 70
     1
  0
XRECORD
  5
3DAA
102
{ACAD_REACTORS
330
3DA9
102
}
330
3DA9
100
AcDbXrecord
280
     1
102
RTVSPropertyOp0
 70
     1
102
RTVSPropertyOp1
 70
     1
102
RTVSPropertyOp2
 70
     1
102
RTVSPropertyOp3
 70
     1
102
RTVSPropertyOp4
 70
     1
102
RTVSPropertyOp5
 70
     1
102
RTVSPropertyOp6
 70
     1
102
RTVSPropertyOp7
 70
     1
102
RTVSPropertyOp8
 70
     1
102
RTVSPropertyOp9
 70
     1
102
RTVSPropertyOp10
 70
     1
102
RTVSPropertyOp11
 70
     1
102
RTVSPropertyOp12
 70
     1
102
RTVSPropertyOp13
 70
     1
102
RTVSPropertyOp14
 70
     1
102
RTVSPropertyOp15
 70
     1
102
RTVSPropertyOp16
 70
     1
102
RTVSPropertyOp17
 70
     1
102
RTVSPropertyOp18
 70
     1
102
RTVSPropertyOp19
 70
     1
102
RTVSPropertyOp20
 70
     1
102
RTVSPropertyOp21
 70
     1
102
RTVSPropertyOp22
 70
     1
102
RTVSPropertyOp23
 70
     1
102
RTVSPropertyOp24
 70
     1
102
RTVSPropertyOp25
 70
     1
102
RTVSPropertyOp26
 70
     1
102
RTVSPropertyOp27
 70
     1
102
RTVSPropertyOp28
 70
     1
102
RTVSPropertyOp29
 70
     1
102
RTVSPropertyOp30
 70
     1
102
RTVSPropertyOp31
 70
     1
102
RTVSPropertyOp32
 70
     1
  0
XRECORD
  5
3DC6
102
{ACAD_REACTORS
330
3DC5
102
}
330
3DC5
100
AcDbXrecord
280
     1
102
RTVSPropertyOp0
 70
     0
102
RTVSPropertyOp1
 70
     0
102
RTVSPropertyOp2
 70
     0
102
RTVSPropertyOp3
 70
     0
102
RTVSPropertyOp4
 70
     0
102
RTVSPropertyOp5
 70
     0
102
RTVSPropertyOp6
 70
     0
102
RTVSPropertyOp7
 70
     0
102
RTVSPropertyOp8
 70
     0
102
RTVSPropertyOp9
 70
     0
102
RTVSPropertyOp10
 70
     0
102
RTVSPropertyOp11
 70
     0
102
RTVSPropertyOp12
 70
     0
102
RTVSPropertyOp13
 70
     0
102
RTVSPropertyOp14
 70
     2
102
RTVSPropertyOp15
 70
     0
102
RTVSPropertyOp16
 70
     0
102
RTVSPropertyOp17
 70
     0
102
RTVSPropertyOp18
 70
     0
102
RTVSPropertyOp19
 70
     0
102
RTVSPropertyOp20
 70
     0
102
RTVSPropertyOp21
 70
     0
102
RTVSPropertyOp22
 70
     0
102
RTVSPropertyOp23
 70
     0
102
RTVSPropertyOp24
 70
     0
102
RTVSPropertyOp25
 70
     0
102
RTVSPropertyOp26
 70
     0
102
RTVSPropertyOp27
 70
     0
102
RTVSPropertyOp28
 70
     1
102
RTVSPropertyOp29
 70
     1
102
RTVSPropertyOp30
 70
     1
102
RTVSPropertyOp31
 70
     1
102
RTVSPropertyOp32
 70
     1
  0
XRECORD
  5
3DB6
102
{ACAD_REACTORS
330
3DB5
102
}
330
3DB5
100
AcDbXrecord
280
     1
102
RTVSPropertyOp0
 70
     1
102
RTVSPropertyOp1
 70
     1
102
RTVSPropertyOp2
 70
     1
102
RTVSPropertyOp3
 70
     1
102
RTVSPropertyOp4
 70
     1
102
RTVSPropertyOp5
 70
     1
102
RTVSPropertyOp6
 70
     1
102
RTVSPropertyOp7
 70
     1
102
RTVSPropertyOp8
 70
     1
102
RTVSPropertyOp9
 70
     1
102
RTVSPropertyOp10
 70
     1
102
RTVSPropertyOp11
 70
     1
102
RTVSPropertyOp12
 70
     1
102
RTVSPropertyOp13
 70
     1
102
RTVSPropertyOp14
 70
     1
102
RTVSPropertyOp15
 70
     1
102
RTVSPropertyOp16
 70
     1
102
RTVSPropertyOp17
 70
     1
102
RTVSPropertyOp18
 70
     1
102
RTVSPropertyOp19
 70
     1
102
RTVSPropertyOp20
 70
     1
102
RTVSPropertyOp21
 70
     1
102
RTVSPropertyOp22
 70
     1
102
RTVSPropertyOp23
 70
     1
102
RTVSPropertyOp24
 70
     1
102
RTVSPropertyOp25
 70
     1
102
RTVSPropertyOp26
 70
     1
102
RTVSPropertyOp27
 70
     1
102
RTVSPropertyOp28
 70
     1
102
RTVSPropertyOp29
 70
     1
102
RTVSPropertyOp30
 70
     1
102
RTVSPropertyOp31
 70
     1
102
RTVSPropertyOp32
 70
     1
  0
XRECORD
  5
3DC8
102
{ACAD_REACTORS
330
3DC7
102
}
330
3DC7
100
AcDbXrecord
280
     1
102
RTVSPropertyOp0
 70
     0
102
RTVSPropertyOp1
 70
     0
102
RTVSPropertyOp2
 70
     0
102
RTVSPropertyOp3
 70
     0
102
RTVSPropertyOp4
 70
     0
102
RTVSPropertyOp5
 70
     0
102
RTVSPropertyOp6
 70
     0
102
RTVSPropertyOp7
 70
     0
102
RTVSPropertyOp8
 70
     0
102
RTVSPropertyOp9
 70
     0
102
RTVSPropertyOp10
 70
     0
102
RTVSPropertyOp11
 70
     0
102
RTVSPropertyOp12
 70
     0
102
RTVSPropertyOp13
 70
     0
102
RTVSPropertyOp14
 70
     2
102
RTVSPropertyOp15
 70
     0
102
RTVSPropertyOp16
 70
     0
102
RTVSPropertyOp17
 70
     0
102
RTVSPropertyOp18
 70
     0
102
RTVSPropertyOp19
 70
     0
102
RTVSPropertyOp20
 70
     0
102
RTVSPropertyOp21
 70
     0
102
RTVSPropertyOp22
 70
     0
102
RTVSPropertyOp23
 70
     0
102
RTVSPropertyOp24
 70
     0
102
RTVSPropertyOp25
 70
     0
102
RTVSPropertyOp26
 70
     0
102
RTVSPropertyOp27
 70
     0
102
RTVSPropertyOp28
 70
     1
102
RTVSPropertyOp29
 70
     1
102
RTVSPropertyOp30
 70
     1
102
RTVSPropertyOp31
 70
     1
102
RTVSPropertyOp32
 70
     1
  0
XRECORD
  5
3DAE
102
{ACAD_REACTORS
330
3DAD
102
}
330
3DAD
100
AcDbXrecord
280
     1
102
RTVSPropertyOp0
 70
     1
102
RTVSPropertyOp1
 70
     1
102
RTVSPropertyOp2
 70
     1
102
RTVSPropertyOp3
 70
     1
102
RTVSPropertyOp4
 70
     1
102
RTVSPropertyOp5
 70
     1
102
RTVSPropertyOp6
 70
     1
102
RTVSPropertyOp7
 70
     1
102
RTVSPropertyOp8
 70
     1
102
RTVSPropertyOp9
 70
     1
102
RTVSPropertyOp10
 70
     1
102
RTVSPropertyOp11
 70
     1
102
RTVSPropertyOp12
 70
     1
102
RTVSPropertyOp13
 70
     1
102
RTVSPropertyOp14
 70
     1
102
RTVSPropertyOp15
 70
     1
102
RTVSPropertyOp16
 70
     1
102
RTVSPropertyOp17
 70
     1
102
RTVSPropertyOp18
 70
     1
102
RTVSPropertyOp19
 70
     1
102
RTVSPropertyOp20
 70
     1
102
RTVSPropertyOp21
 70
     1
102
RTVSPropertyOp22
 70
     1
102
RTVSPropertyOp23
 70
     1
102
RTVSPropertyOp24
 70
     1
102
RTVSPropertyOp25
 70
     1
102
RTVSPropertyOp26
 70
     1
102
RTVSPropertyOp27
 70
     1
102
RTVSPropertyOp28
 70
     1
102
RTVSPropertyOp29
 70
     1
102
RTVSPropertyOp30
 70
     1
102
RTVSPropertyOp31
 70
     1
102
RTVSPropertyOp32
 70
     1
  0
XRECORD
  5
3DC4
102
{ACAD_REACTORS
330
3DC3
102
}
330
3DC3
100
AcDbXrecord
280
     1
102
RTVSPropertyOp0
 70
     1
102
RTVSPropertyOp1
 70
     1
102
RTVSPropertyOp2
 70
     1
102
RTVSPropertyOp3
 70
     1
102
RTVSPropertyOp4
 70
     1
102
RTVSPropertyOp5
 70
     1
102
RTVSPropertyOp6
 70
     1
102
RTVSPropertyOp7
 70
     1
102
RTVSPropertyOp8
 70
     1
102
RTVSPropertyOp9
 70
     1
102
RTVSPropertyOp10
 70
     1
102
RTVSPropertyOp11
 70
     1
102
RTVSPropertyOp12
 70
     1
102
RTVSPropertyOp13
 70
     1
102
RTVSPropertyOp14
 70
     1
102
RTVSPropertyOp15
 70
     1
102
RTVSPropertyOp16
 70
     1
102
RTVSPropertyOp17
 70
     1
102
RTVSPropertyOp18
 70
     1
102
RTVSPropertyOp19
 70
     1
102
RTVSPropertyOp20
 70
     1
102
RTVSPropertyOp21
 70
     1
102
RTVSPropertyOp22
 70
     1
102
RTVSPropertyOp23
 70
     1
102
RTVSPropertyOp24
 70
     1
102
RTVSPropertyOp25
 70
     1
102
RTVSPropertyOp26
 70
     1
102
RTVSPropertyOp27
 70
     1
102
RTVSPropertyOp28
 70
     1
102
RTVSPropertyOp29
 70
     1
102
RTVSPropertyOp30
 70
     1
102
RTVSPropertyOp31
 70
     1
102
RTVSPropertyOp32
 70
     1
  0
XRECORD
  5
3DC2
102
{ACAD_REACTORS
330
3DC1
102
}
330
3DC1
100
AcDbXrecord
280
     1
102
RTVSPropertyOp0
 70
     1
102
RTVSPropertyOp1
 70
     1
102
RTVSPropertyOp2
 70
     1
102
RTVSPropertyOp3
 70
     1
102
RTVSPropertyOp4
 70
     1
102
RTVSPropertyOp5
 70
     1
102
RTVSPropertyOp6
 70
     1
102
RTVSPropertyOp7
 70
     1
102
RTVSPropertyOp8
 70
     1
102
RTVSPropertyOp9
 70
     1
102
RTVSPropertyOp10
 70
     1
102
RTVSPropertyOp11
 70
     1
102
RTVSPropertyOp12
 70
     1
102
RTVSPropertyOp13
 70
     1
102
RTVSPropertyOp14
 70
     1
102
RTVSPropertyOp15
 70
     1
102
RTVSPropertyOp16
 70
     1
102
RTVSPropertyOp17
 70
     1
102
RTVSPropertyOp18
 70
     1
102
RTVSPropertyOp19
 70
     1
102
RTVSPropertyOp20
 70
     1
102
RTVSPropertyOp21
 70
     1
102
RTVSPropertyOp22
 70
     1
102
RTVSPropertyOp23
 70
     1
102
RTVSPropertyOp24
 70
     1
102
RTVSPropertyOp25
 70
     1
102
RTVSPropertyOp26
 70
     1
102
RTVSPropertyOp27
 70
     1
102
RTVSPropertyOp28
 70
     1
102
RTVSPropertyOp29
 70
     1
102
RTVSPropertyOp30
 70
     1
102
RTVSPropertyOp31
 70
     1
102
RTVSPropertyOp32
 70
     1
  0
XRECORD
  5
3DBC
102
{ACAD_REACTORS
330
3DBB
102
}
330
3DBB
100
AcDbXrecord
280
     1
102
RTVSPropertyOp0
 70
     1
102
RTVSPropertyOp1
 70
     1
102
RTVSPropertyOp2
 70
     1
102
RTVSPropertyOp3
 70
     1
102
RTVSPropertyOp4
 70
     1
102
RTVSPropertyOp5
 70
     1
102
RTVSPropertyOp6
 70
     1
102
RTVSPropertyOp7
 70
     1
102
RTVSPropertyOp8
 70
     1
102
RTVSPropertyOp9
 70
     1
102
RTVSPropertyOp10
 70
     1
102
RTVSPropertyOp11
 70
     1
102
RTVSPropertyOp12
 70
     1
102
RTVSPropertyOp13
 70
     1
102
RTVSPropertyOp14
 70
     1
102
RTVSPropertyOp15
 70
     1
102
RTVSPropertyOp16
 70
     1
102
RTVSPropertyOp17
 70
     1
102
RTVSPropertyOp18
 70
     1
102
RTVSPropertyOp19
 70
     1
102
RTVSPropertyOp20
 70
     1
102
RTVSPropertyOp21
 70
     1
102
RTVSPropertyOp22
 70
     1
102
RTVSPropertyOp23
 70
     1
102
RTVSPropertyOp24
 70
     1
102
RTVSPropertyOp25
 70
     1
102
RTVSPropertyOp26
 70
     1
102
RTVSPropertyOp27
 70
     1
102
RTVSPropertyOp28
 70
     1
102
RTVSPropertyOp29
 70
     1
102
RTVSPropertyOp30
 70
     1
102
RTVSPropertyOp31
 70
     1
102
RTVSPropertyOp32
 70
     1
  0
XRECORD
  5
3DBE
102
{ACAD_REACTORS
330
3DBD
102
}
330
3DBD
100
AcDbXrecord
280
     1
102
RTVSPropertyOp0
 70
     1
102
RTVSPropertyOp1
 70
     1
102
RTVSPropertyOp2
 70
     1
102
RTVSPropertyOp3
 70
     1
102
RTVSPropertyOp4
 70
     1
102
RTVSPropertyOp5
 70
     1
102
RTVSPropertyOp6
 70
     1
102
RTVSPropertyOp7
 70
     1
102
RTVSPropertyOp8
 70
     1
102
RTVSPropertyOp9
 70
     1
102
RTVSPropertyOp10
 70
     1
102
RTVSPropertyOp11
 70
     1
102
RTVSPropertyOp12
 70
     1
102
RTVSPropertyOp13
 70
     1
102
RTVSPropertyOp14
 70
     1
102
RTVSPropertyOp15
 70
     1
102
RTVSPropertyOp16
 70
     1
102
RTVSPropertyOp17
 70
     1
102
RTVSPropertyOp18
 70
     1
102
RTVSPropertyOp19
 70
     1
102
RTVSPropertyOp20
 70
     1
102
RTVSPropertyOp21
 70
     1
102
RTVSPropertyOp22
 70
     1
102
RTVSPropertyOp23
 70
     1
102
RTVSPropertyOp24
 70
     1
102
RTVSPropertyOp25
 70
     1
102
RTVSPropertyOp26
 70
     1
102
RTVSPropertyOp27
 70
     1
102
RTVSPropertyOp28
 70
     1
102
RTVSPropertyOp29
 70
     1
102
RTVSPropertyOp30
 70
     1
102
RTVSPropertyOp31
 70
     1
102
RTVSPropertyOp32
 70
     1
  0
XRECORD
  5
3DB4
102
{ACAD_REACTORS
330
3DB3
102
}
330
3DB3
100
AcDbXrecord
280
     1
102
RTVSPropertyOp0
 70
     1
102
RTVSPropertyOp1
 70
     1
102
RTVSPropertyOp2
 70
     1
102
RTVSPropertyOp3
 70
     1
102
RTVSPropertyOp4
 70
     1
102
RTVSPropertyOp5
 70
     1
102
RTVSPropertyOp6
 70
     1
102
RTVSPropertyOp7
 70
     1
102
RTVSPropertyOp8
 70
     1
102
RTVSPropertyOp9
 70
     1
102
RTVSPropertyOp10
 70
     1
102
RTVSPropertyOp11
 70
     1
102
RTVSPropertyOp12
 70
     1
102
RTVSPropertyOp13
 70
     1
102
RTVSPropertyOp14
 70
     1
102
RTVSPropertyOp15
 70
     1
102
RTVSPropertyOp16
 70
     1
102
RTVSPropertyOp17
 70
     1
102
RTVSPropertyOp18
 70
     1
102
RTVSPropertyOp19
 70
     1
102
RTVSPropertyOp20
 70
     1
102
RTVSPropertyOp21
 70
     1
102
RTVSPropertyOp22
 70
     1
102
RTVSPropertyOp23
 70
     1
102
RTVSPropertyOp24
 70
     1
102
RTVSPropertyOp25
 70
     1
102
RTVSPropertyOp26
 70
     1
102
RTVSPropertyOp27
 70
     1
102
RTVSPropertyOp28
 70
     1
102
RTVSPropertyOp29
 70
     1
102
RTVSPropertyOp30
 70
     1
102
RTVSPropertyOp31
 70
     1
102
RTVSPropertyOp32
 70
     1
  0
XRECORD
  5
3DA8
102
{ACAD_REACTORS
330
3DA7
102
}
330
3DA7
100
AcDbXrecord
280
     1
102
RTVSPropertyOp0
 70
     1
102
RTVSPropertyOp1
 70
     1
102
RTVSPropertyOp2
 70
     1
102
RTVSPropertyOp3
 70
     1
102
RTVSPropertyOp4
 70
     1
102
RTVSPropertyOp5
 70
     1
102
RTVSPropertyOp6
 70
     1
102
RTVSPropertyOp7
 70
     1
102
RTVSPropertyOp8
 70
     1
102
RTVSPropertyOp9
 70
     1
102
RTVSPropertyOp10
 70
     1
102
RTVSPropertyOp11
 70
     1
102
RTVSPropertyOp12
 70
     1
102
RTVSPropertyOp13
 70
     1
102
RTVSPropertyOp14
 70
     1
102
RTVSPropertyOp15
 70
     1
102
RTVSPropertyOp16
 70
     1
102
RTVSPropertyOp17
 70
     1
102
RTVSPropertyOp18
 70
     1
102
RTVSPropertyOp19
 70
     1
102
RTVSPropertyOp20
 70
     1
102
RTVSPropertyOp21
 70
     1
102
RTVSPropertyOp22
 70
     1
102
RTVSPropertyOp23
 70
     1
102
RTVSPropertyOp24
 70
     1
102
RTVSPropertyOp25
 70
     1
102
RTVSPropertyOp26
 70
     1
102
RTVSPropertyOp27
 70
     1
102
RTVSPropertyOp28
 70
     1
102
RTVSPropertyOp29
 70
     1
102
RTVSPropertyOp30
 70
     1
102
RTVSPropertyOp31
 70
     1
102
RTVSPropertyOp32
 70
     1
  0
XRECORD
  5
3DC0
102
{ACAD_REACTORS
330
3DBF
102
}
330
3DBF
100
AcDbXrecord
280
     1
102
RTVSPropertyOp0
 70
     1
102
RTVSPropertyOp1
 70
     1
102
RTVSPropertyOp2
 70
     1
102
RTVSPropertyOp3
 70
     1
102
RTVSPropertyOp4
 70
     1
102
RTVSPropertyOp5
 70
     1
102
RTVSPropertyOp6
 70
     1
102
RTVSPropertyOp7
 70
     1
102
RTVSPropertyOp8
 70
     1
102
RTVSPropertyOp9
 70
     1
102
RTVSPropertyOp10
 70
     1
102
RTVSPropertyOp11
 70
     1
102
RTVSPropertyOp12
 70
     1
102
RTVSPropertyOp13
 70
     1
102
RTVSPropertyOp14
 70
     1
102
RTVSPropertyOp15
 70
     1
102
RTVSPropertyOp16
 70
     1
102
RTVSPropertyOp17
 70
     1
102
RTVSPropertyOp18
 70
     1
102
RTVSPropertyOp19
 70
     1
102
RTVSPropertyOp20
 70
     1
102
RTVSPropertyOp21
 70
     1
102
RTVSPropertyOp22
 70
     1
102
RTVSPropertyOp23
 70
     1
102
RTVSPropertyOp24
 70
     1
102
RTVSPropertyOp25
 70
     1
102
RTVSPropertyOp26
 70
     1
102
RTVSPropertyOp27
 70
     1
102
RTVSPropertyOp28
 70
     1
102
RTVSPropertyOp29
 70
     1
102
RTVSPropertyOp30
 70
     1
102
RTVSPropertyOp31
 70
     1
102
RTVSPropertyOp32
 70
     1
  0
ENDSEC
  0
EOF
