ISO-10303-21;
HEADER;
/* Generated by software containing ST-Developer
 * from STEP Tools, Inc. (www.steptools.com) 
 */
/* OPTION: using custom renumber hook */

FILE_DESCRIPTION(
/* description */ ('STEP AP242',
'CAx-IF Rec.Pracs.---Representation and Presentation of Product Manufa
cturing Information (PMI)---4.0---2014-10-13',
'CAx-IF Rec.Pracs.---3D Tessellated Geometry---0.4---2014-09-14','2;1'),

/* implementation_level */ '2;1');

FILE_NAME(
/* name */ 'eaton-iec-lv-fuses-mcad-3d-models-2-125a-C22x58',
/* time_stamp */ '2025-11-14T14:10:54+01:00',
/* author */ ('License CC BY-ND 4.0'),
/* organization */ ('CADENAS'),
/* preprocessor_version */ 'ST-DEVELOPER v20',
/* originating_system */ 'PARTsolutions',
/* authorisation */ '  ');

FILE_SCHEMA (('AP242_MANAGED_MODEL_BASED_3D_ENGINEERING_MIM_LF { 1 0 10303 442 1 1 4 }'));
ENDSEC;

DATA;
#10=SHAPE_REPRESENTATION_RELATIONSHIP('','',#113,#11);
#11=ADVANCED_BREP_SHAPE_REPRESENTATION('',(#111),#195);
#12=CYLINDRICAL_SURFACE('',#119,11.0575);
#13=CYLINDRICAL_SURFACE('',#123,10.1525);
#14=CYLINDRICAL_SURFACE('',#127,11.0575);
#15=TOROIDAL_SURFACE('',#117,9.7425,1.315);
#16=TOROIDAL_SURFACE('',#129,9.7425,1.315);
#17=ORIENTED_EDGE('',*,*,#33,.F.);
#18=ORIENTED_EDGE('',*,*,#33,.T.);
#19=ORIENTED_EDGE('',*,*,#34,.F.);
#20=ORIENTED_EDGE('',*,*,#35,.F.);
#21=ORIENTED_EDGE('',*,*,#34,.T.);
#22=ORIENTED_EDGE('',*,*,#36,.F.);
#23=ORIENTED_EDGE('',*,*,#35,.T.);
#24=ORIENTED_EDGE('',*,*,#37,.F.);
#25=ORIENTED_EDGE('',*,*,#36,.T.);
#26=ORIENTED_EDGE('',*,*,#38,.F.);
#27=ORIENTED_EDGE('',*,*,#37,.T.);
#28=ORIENTED_EDGE('',*,*,#39,.F.);
#29=ORIENTED_EDGE('',*,*,#38,.T.);
#30=ORIENTED_EDGE('',*,*,#39,.T.);
#31=ORIENTED_EDGE('',*,*,#40,.F.);
#32=ORIENTED_EDGE('',*,*,#40,.T.);
#33=EDGE_CURVE('',#41,#41,#49,.T.);
#34=EDGE_CURVE('',#42,#42,#50,.T.);
#35=EDGE_CURVE('',#43,#43,#51,.T.);
#36=EDGE_CURVE('',#44,#44,#52,.T.);
#37=EDGE_CURVE('',#45,#45,#53,.T.);
#38=EDGE_CURVE('',#46,#46,#54,.T.);
#39=EDGE_CURVE('',#47,#47,#55,.T.);
#40=EDGE_CURVE('',#48,#48,#56,.T.);
#41=VERTEX_POINT('',#171);
#42=VERTEX_POINT('',#174);
#43=VERTEX_POINT('',#177);
#44=VERTEX_POINT('',#180);
#45=VERTEX_POINT('',#183);
#46=VERTEX_POINT('',#186);
#47=VERTEX_POINT('',#189);
#48=VERTEX_POINT('',#192);
#49=CIRCLE('',#116,9.7425);
#50=CIRCLE('',#118,11.0575);
#51=CIRCLE('',#120,11.0575);
#52=CIRCLE('',#122,10.1525);
#53=CIRCLE('',#124,10.1525);
#54=CIRCLE('',#126,11.0575);
#55=CIRCLE('',#128,11.0575);
#56=CIRCLE('',#130,9.7425);
#57=EDGE_LOOP('',(#17));
#58=EDGE_LOOP('',(#18));
#59=EDGE_LOOP('',(#19));
#60=EDGE_LOOP('',(#20));
#61=EDGE_LOOP('',(#21));
#62=EDGE_LOOP('',(#22));
#63=EDGE_LOOP('',(#23));
#64=EDGE_LOOP('',(#24));
#65=EDGE_LOOP('',(#25));
#66=EDGE_LOOP('',(#26));
#67=EDGE_LOOP('',(#27));
#68=EDGE_LOOP('',(#28));
#69=EDGE_LOOP('',(#29));
#70=EDGE_LOOP('',(#30));
#71=EDGE_LOOP('',(#31));
#72=EDGE_LOOP('',(#32));
#73=FACE_BOUND('',#57,.T.);
#74=FACE_BOUND('',#58,.T.);
#75=FACE_BOUND('',#59,.T.);
#76=FACE_BOUND('',#60,.T.);
#77=FACE_BOUND('',#61,.T.);
#78=FACE_BOUND('',#62,.T.);
#79=FACE_BOUND('',#63,.T.);
#80=FACE_BOUND('',#64,.T.);
#81=FACE_BOUND('',#65,.T.);
#82=FACE_BOUND('',#66,.T.);
#83=FACE_BOUND('',#67,.T.);
#84=FACE_BOUND('',#68,.T.);
#85=FACE_BOUND('',#69,.T.);
#86=FACE_BOUND('',#70,.T.);
#87=FACE_BOUND('',#71,.T.);
#88=FACE_BOUND('',#72,.T.);
#89=PLANE('',#115);
#90=PLANE('',#121);
#91=PLANE('',#125);
#92=PLANE('',#131);
#93=ADVANCED_FACE('',(#73),#89,.F.);
#94=ADVANCED_FACE('',(#74,#75),#15,.T.);
#95=ADVANCED_FACE('',(#76,#77),#12,.T.);
#96=ADVANCED_FACE('',(#78,#79),#90,.F.);
#97=ADVANCED_FACE('',(#80,#81),#13,.T.);
#98=ADVANCED_FACE('',(#82,#83),#91,.F.);
#99=ADVANCED_FACE('',(#84,#85),#14,.T.);
#100=ADVANCED_FACE('',(#86,#87),#16,.T.);
#101=ADVANCED_FACE('',(#88),#92,.F.);
#102=CLOSED_SHELL('',(#93,#94,#95,#96,#97,#98,#99,#100,#101));
#103=STYLED_ITEM('',(#104),#111);
#104=PRESENTATION_STYLE_ASSIGNMENT((#105));
#105=SURFACE_STYLE_USAGE(.BOTH.,#106);
#106=SURFACE_SIDE_STYLE('',(#107));
#107=SURFACE_STYLE_FILL_AREA(#108);
#108=FILL_AREA_STYLE('',(#109));
#109=FILL_AREA_STYLE_COLOUR('',#110);
#110=COLOUR_RGB('',0.69803923368454,0.69803923368454,0.69803923368454);
#111=MANIFOLD_SOLID_BREP('C22G6',#102);
#112=SHAPE_DEFINITION_REPRESENTATION(#200,#113);
#113=SHAPE_REPRESENTATION('C22G6',(#114),#195);
#114=AXIS2_PLACEMENT_3D('',#168,#132,#133);
#115=AXIS2_PLACEMENT_3D('',#169,#134,#135);
#116=AXIS2_PLACEMENT_3D('',#170,#136,#137);
#117=AXIS2_PLACEMENT_3D('',#172,#138,#139);
#118=AXIS2_PLACEMENT_3D('',#173,#140,#141);
#119=AXIS2_PLACEMENT_3D('',#175,#142,#143);
#120=AXIS2_PLACEMENT_3D('',#176,#144,#145);
#121=AXIS2_PLACEMENT_3D('',#178,#146,#147);
#122=AXIS2_PLACEMENT_3D('',#179,#148,#149);
#123=AXIS2_PLACEMENT_3D('',#181,#150,#151);
#124=AXIS2_PLACEMENT_3D('',#182,#152,#153);
#125=AXIS2_PLACEMENT_3D('',#184,#154,#155);
#126=AXIS2_PLACEMENT_3D('',#185,#156,#157);
#127=AXIS2_PLACEMENT_3D('',#187,#158,#159);
#128=AXIS2_PLACEMENT_3D('',#188,#160,#161);
#129=AXIS2_PLACEMENT_3D('',#190,#162,#163);
#130=AXIS2_PLACEMENT_3D('',#191,#164,#165);
#131=AXIS2_PLACEMENT_3D('',#193,#166,#167);
#132=DIRECTION('',(0.,0.,1.));
#133=DIRECTION('',(1.,0.,0.));
#134=DIRECTION('',(0.,0.,-1.));
#135=DIRECTION('',(-1.,0.,0.));
#136=DIRECTION('',(0.,0.,-1.));
#137=DIRECTION('',(-1.,0.,0.));
#138=DIRECTION('',(0.,0.,-1.));
#139=DIRECTION('',(-1.,0.,0.));
#140=DIRECTION('',(0.,0.,-1.));
#141=DIRECTION('',(-1.,0.,0.));
#142=DIRECTION('',(0.,0.,-1.));
#143=DIRECTION('',(-1.,0.,0.));
#144=DIRECTION('',(0.,0.,-1.));
#145=DIRECTION('',(-1.,0.,0.));
#146=DIRECTION('',(0.,0.,1.));
#147=DIRECTION('',(1.,0.,0.));
#148=DIRECTION('',(0.,0.,-1.));
#149=DIRECTION('',(-1.,0.,0.));
#150=DIRECTION('',(0.,0.,-1.));
#151=DIRECTION('',(-1.,0.,0.));
#152=DIRECTION('',(0.,0.,-1.));
#153=DIRECTION('',(-1.,0.,0.));
#154=DIRECTION('',(0.,0.,-1.));
#155=DIRECTION('',(-1.,0.,0.));
#156=DIRECTION('',(0.,0.,-1.));
#157=DIRECTION('',(-1.,0.,0.));
#158=DIRECTION('',(0.,0.,-1.));
#159=DIRECTION('',(-1.,0.,0.));
#160=DIRECTION('',(0.,0.,-1.));
#161=DIRECTION('',(-1.,0.,0.));
#162=DIRECTION('',(0.,0.,-1.));
#163=DIRECTION('',(-1.,0.,0.));
#164=DIRECTION('',(0.,0.,-1.));
#165=DIRECTION('',(-1.,0.,0.));
#166=DIRECTION('',(0.,0.,1.));
#167=DIRECTION('',(1.,0.,0.));
#168=CARTESIAN_POINT('',(0.,0.,0.));
#169=CARTESIAN_POINT('',(0.,0.,57.43));
#170=CARTESIAN_POINT('',(0.,0.,57.43));
#171=CARTESIAN_POINT('',(-9.7425,0.,57.43));
#172=CARTESIAN_POINT('',(0.,0.,56.115));
#173=CARTESIAN_POINT('',(0.,0.,56.115));
#174=CARTESIAN_POINT('',(-11.0575,0.,56.115));
#175=CARTESIAN_POINT('',(0.,0.,0.));
#176=CARTESIAN_POINT('',(0.,0.,41.43));
#177=CARTESIAN_POINT('',(-11.0575,0.,41.43));
#178=CARTESIAN_POINT('',(0.,11.0575,41.43));
#179=CARTESIAN_POINT('',(0.,0.,41.43));
#180=CARTESIAN_POINT('',(-10.1525,0.,41.43));
#181=CARTESIAN_POINT('',(0.,0.,0.));
#182=CARTESIAN_POINT('',(0.,0.,16.));
#183=CARTESIAN_POINT('',(-10.1525,0.,16.));
#184=CARTESIAN_POINT('',(0.,10.1525,16.));
#185=CARTESIAN_POINT('',(0.,0.,16.));
#186=CARTESIAN_POINT('',(-11.0575,0.,16.));
#187=CARTESIAN_POINT('',(0.,0.,0.));
#188=CARTESIAN_POINT('',(0.,0.,1.315));
#189=CARTESIAN_POINT('',(-11.0575,0.,1.315));
#190=CARTESIAN_POINT('',(0.,0.,1.315));
#191=CARTESIAN_POINT('',(0.,0.,-4.33680868994202E-16));
#192=CARTESIAN_POINT('',(-9.7425,0.,-4.33680868994202E-16));
#193=CARTESIAN_POINT('',(0.,9.7425,-2.16840434497101E-16));
#194=MECHANICAL_DESIGN_GEOMETRIC_PRESENTATION_REPRESENTATION('',(#103),
#195);
#195=(
GEOMETRIC_REPRESENTATION_CONTEXT(3)
GLOBAL_UNCERTAINTY_ASSIGNED_CONTEXT((#196))
GLOBAL_UNIT_ASSIGNED_CONTEXT((#199,#198,#197))
REPRESENTATION_CONTEXT('C22G6','TOP_LEVEL_ASSEMBLY_PART')
);
#196=UNCERTAINTY_MEASURE_WITH_UNIT(LENGTH_MEASURE(1.E-5),#199,
'DISTANCE_ACCURACY_VALUE','Maximum Tolerance applied to model');
#197=(
NAMED_UNIT(*)
SI_UNIT($,.STERADIAN.)
SOLID_ANGLE_UNIT()
);
#198=(
NAMED_UNIT(*)
PLANE_ANGLE_UNIT()
SI_UNIT($,.RADIAN.)
);
#199=(
LENGTH_UNIT()
NAMED_UNIT(*)
SI_UNIT(.MILLI.,.METRE.)
);
#200=PRODUCT_DEFINITION_SHAPE('','',#201);
#201=PRODUCT_DEFINITION('','',#203,#202);
#202=PRODUCT_DEFINITION_CONTEXT('',#209,'design');
#203=PRODUCT_DEFINITION_FORMATION_WITH_SPECIFIED_SOURCE('','',#205,
 .NOT_KNOWN.);
#204=PRODUCT_RELATED_PRODUCT_CATEGORY('','',(#205));
#205=PRODUCT('C22G6','C22G6','C22G6',(#207));
#206=PRODUCT_CATEGORY('','');
#207=PRODUCT_CONTEXT('',#209,'mechanical');
#208=APPLICATION_PROTOCOL_DEFINITION('international standard',
'ap242_managed_model_based_3d_engineering',2011,#209);
#209=APPLICATION_CONTEXT('managed model based 3d engineering');
ENDSEC;
END-ISO-10303-21;
