  0
SECTION
  2
HEADER
  9
$ACADVER
  1
AC1021
  9
$ACADMAINTVER
 70
    25
  9
$DWGCODEPAGE
  3
ANSI_1252
  9
$INSBASE
 10
0.0
 20
0.0
 30
0.0
  9
$EXTMIN
 10
0.0
 20
0.0
 30
0.0
  9
$EXTMAX
 10
3000.0
 20
4500.0
 30
0.0
  9
$LIMMIN
 10
0.0
 20
0.0
  9
$LIMMAX
 10
3000.0
 20
4500.0
  9
$ORTHOMODE
 70
     0
  9
$REGENMODE
 70
     1
  9
$FILLMODE
 70
     1
  9
$QTEXTMODE
 70
     0
  9
$MIRRTEXT
 70
     1
  9
$LTSCALE
 40
1.0
  9
$ATTMODE
 70
     1
  9
$TEXTSIZE
 40
10.0
  9
$TRACEWID
 40
1.0
  9
$TEXTSTYLE
  7
Standard
  9
$CLAYER
  8
0
  9
$CELTYPE
  6
ByLayer
  9
$CECOLOR
 62
   256
  9
$CELTSCALE
 40
1.0
  9
$DISPSILH
 70
     0
  9
$DIMSCALE
 40
1.0
  9
$DIMASZ
 40
2.5
  9
$DIMEXO
 40
0.625
  9
$DIMDLI
 40
3.75
  9
$DIMRND
 40
0.0
  9
$DIMDLE
 40
0.0
  9
$DIMEXE
 40
1.25
  9
$DIMTP
 40
0.0
  9
$DIMTM
 40
0.0
  9
$DIMTXT
 40
2.5
  9
$DIMCEN
 40
2.5
  9
$DIMTSZ
 40
0.0
  9
$DIMTOL
 70
     0
  9
$DIMLIM
 70
     0
  9
$DIMTIH
 70
     0
  9
$DIMTOH
 70
     0
  9
$DIMSE1
 70
     0
  9
$DIMSE2
 70
     0
  9
$DIMTAD
 70
     1
  9
$DIMZIN
 70
     8
  9
$DIMBLK
  1

  9
$DIMASO
 70
     1
  9
$DIMSHO
 70
     1
  9
$DIMPOST
  1

  9
$DIMAPOST
  1

  9
$DIMALT
 70
     0
  9
$DIMALTD
 70
     3
  9
$DIMALTF
 40
0.0393700787
  9
$DIMLFAC
 40
1.0
  9
$DIMTOFL
 70
     1
  9
$DIMTVP
 40
0.0
  9
$DIMTIX
 70
     0
  9
$DIMSOXD
 70
     0
  9
$DIMSAH
 70
     0
  9
$DIMBLK1
  1

  9
$DIMBLK2
  1

  9
$DIMSTYLE
  2
ISO-25
  9
$DIMCLRD
 70
     0
  9
$DIMCLRE
 70
     0
  9
$DIMCLRT
 70
     0
  9
$DIMTFAC
 40
1.0
  9
$DIMGAP
 40
0.625
  9
$DIMJUST
 70
     0
  9
$DIMSD1
 70
     0
  9
$DIMSD2
 70
     0
  9
$DIMTOLJ
 70
     0
  9
$DIMTZIN
 70
     8
  9
$DIMALTZ
 70
     0
  9
$DIMALTTZ
 70
     0
  9
$DIMUPT
 70
     0
  9
$DIMDEC
 70
     2
  9
$DIMTDEC
 70
     2
  9
$DIMALTU
 70
     2
  9
$DIMALTTD
 70
     3
  9
$DIMTXSTY
  7
Standard
  9
$DIMAUNIT
 70
     0
  9
$DIMADEC
 70
     0
  9
$DIMALTRND
 40
0.0
  9
$DIMAZIN
 70
     0
  9
$DIMDSEP
 70
    44
  9
$DIMATFIT
 70
     3
  9
$DIMFRAC
 70
     0
  9
$DIMLDRBLK
  1

  9
$DIMLUNIT
 70
     2
  9
$DIMLWD
 70
    -2
  9
$DIMLWE
 70
    -2
  9
$DIMTMOVE
 70
     0
  9
$DIMFXL
 40
1.0
  9
$DIMFXLON
 70
     0
  9
$DIMJOGANG
 40
0.7853981634
  9
$DIMTFILL
 70
     0
  9
$DIMTFILLCLR
 70
     0
  9
$DIMARCSYM
 70
     0
  9
$DIMLTYPE
  6

  9
$DIMLTEX1
  6

  9
$DIMLTEX2
  6

  9
$LUNITS
 70
     2
  9
$LUPREC
 70
     4
  9
$SKETCHINC
 40
1.0
  9
$FILLETRAD
 40
10.0
  9
$AUNITS
 70
     0
  9
$AUPREC
 70
     0
  9
$MENU
  1
.
  9
$ELEVATION
 40
0.0
  9
$PELEVATION
 40
0.0
  9
$THICKNESS
 40
0.0
  9
$LIMCHECK
 70
     0
  9
$CHAMFERA
 40
0.0
  9
$CHAMFERB
 40
0.0
  9
$CHAMFERC
 40
0.0
  9
$CHAMFERD
 40
0.0
  9
$SKPOLY
 70
     0
  9
$TDCREATE
 40
2459711.633008646
  9
$TDUCREATE
 40
2459711.549675312
  9
$TDUPDATE
 40
2459711.633011551
  9
$TDUUPDATE
 40
2459711.549678218
  9
$TDINDWG
 40
0.0000000116
  9
$TDUSRTIMER
 40
0.0000000116
  9
$USRTIMER
 70
     1
  9
$ANGBASE
 50
0.0
  9
$ANGDIR
 70
     0
  9
$PDMODE
 70
     0
  9
$PDSIZE
 40
0.0
  9
$PLINEWID
 40
0.0
  9
$SPLFRAME
 70
     0
  9
$SPLINETYPE
 70
     6
  9
$SPLINESEGS
 70
     8
  9
$HANDSEED
  5
276
  9
$SURFTAB1
 70
     6
  9
$SURFTAB2
 70
     6
  9
$SURFTYPE
 70
     6
  9
$SURFU
 70
     6
  9
$SURFV
 70
     6
  9
$UCSBASE
  2

  9
$UCSNAME
  2

  9
$UCSORG
 10
0.0
 20
0.0
 30
0.0
  9
$UCSXDIR
 10
1.0
 20
0.0
 30
0.0
  9
$UCSYDIR
 10
0.0
 20
1.0
 30
0.0
  9
$UCSORTHOREF
  2

  9
$UCSORTHOVIEW
 70
     0
  9
$UCSORGTOP
 10
0.0
 20
0.0
 30
0.0
  9
$UCSORGBOTTOM
 10
0.0
 20
0.0
 30
0.0
  9
$UCSORGLEFT
 10
0.0
 20
0.0
 30
0.0
  9
$UCSORGRIGHT
 10
0.0
 20
0.0
 30
0.0
  9
$UCSORGFRONT
 10
0.0
 20
0.0
 30
0.0
  9
$UCSORGBACK
 10
0.0
 20
0.0
 30
0.0
  9
$PUCSBASE
  2

  9
$PUCSNAME
  2

  9
$PUCSORG
 10
0.0
 20
0.0
 30
0.0
  9
$PUCSXDIR
 10
1.0
 20
0.0
 30
0.0
  9
$PUCSYDIR
 10
0.0
 20
1.0
 30
0.0
  9
$PUCSORTHOREF
  2

  9
$PUCSORTHOVIEW
 70
     0
  9
$PUCSORGTOP
 10
0.0
 20
0.0
 30
0.0
  9
$PUCSORGBOTTOM
 10
0.0
 20
0.0
 30
0.0
  9
$PUCSORGLEFT
 10
0.0
 20
0.0
 30
0.0
  9
$PUCSORGRIGHT
 10
0.0
 20
0.0
 30
0.0
  9
$PUCSORGFRONT
 10
0.0
 20
0.0
 30
0.0
  9
$PUCSORGBACK
 10
0.0
 20
0.0
 30
0.0
  9
$USERI1
 70
     0
  9
$USERI2
 70
     0
  9
$USERI3
 70
     0
  9
$USERI4
 70
     0
  9
$USERI5
 70
     0
  9
$USERR1
 40
0.0
  9
$USERR2
 40
0.0
  9
$USERR3
 40
0.0
  9
$USERR4
 40
0.0
  9
$USERR5
 40
0.0
  9
$WORLDVIEW
 70
     1
  9
$SHADEDGE
 70
     3
  9
$SHADEDIF
 70
    70
  9
$TILEMODE
 70
     1
  9
$MAXACTVP
 70
    64
  9
$PINSBASE
 10
0.0
 20
0.0
 30
0.0
  9
$PLIMCHECK
 70
     0
  9
$PEXTMIN
 10
0.0
 20
0.0
 30
0.0
  9
$PEXTMAX
 10
3000.0
 20
4500.0
 30
0.0
  9
$PLIMMIN
 10
0.0
 20
0.0
  9
$PLIMMAX
 10
3000.0
 20
4500.0
  9
$UNITMODE
 70
     0
  9
$VISRETAIN
 70
     1
  9
$PLINEGEN
 70
     0
  9
$PSLTSCALE
 70
     1
  9
$TREEDEPTH
 70
  3020
  9
$CMLSTYLE
  2
Standard
  9
$CMLJUST
 70
     0
  9
$CMLSCALE
 40
20.0
  9
$PROXYGRAPHICS
 70
     1
  9
$MEASUREMENT
 70
     1
  9
$CELWEIGHT
370
    -1
  9
$ENDCAPS
280
     0
  9
$JOINSTYLE
280
     0
  9
$LWDISPLAY
290
     0
  9
$INSUNITS
 70
     4
  9
$HYPERLINKBASE
  1

  9
$STYLESHEET
  1

  9
$XEDIT
290
     1
  9
$CEPSNTYPE
380
     0
  9
$PSTYLEMODE
290
     1
  9
$FINGERPRINTGUID
  2
{D4FE39CC-6D5C-4CAF-9E6F-CF5CCAC844BE}
  9
$VERSIONGUID
  2
{FAEB1C32-E019-11D5-929B-00C0DF256EC4}
  9
$EXTNAMES
290
     1
  9
$PSVPSCALE
 40
0.0
  9
$OLESTARTUP
290
     0
  9
$SORTENTS
280
   127
  9
$INDEXCTL
280
     0
  9
$HIDETEXT
280
     1
  9
$XCLIPFRAME
290
     0
  9
$HALOGAP
280
     0
  9
$OBSCOLOR
 70
   257
  9
$OBSLTYPE
280
     0
  9
$INTERSECTIONDISPLAY
280
     0
  9
$INTERSECTIONCOLOR
 70
   257
  9
$DIMASSOC
280
     2
  9
$PROJECTNAME
  1

  9
$CAMERADISPLAY
290
     0
  9
$LENSLENGTH
 40
50.0
  9
$CAMERAHEIGHT
 40
0.0
  9
$STEPSPERSEC
 40
2.0
  9
$STEPSIZE
 40
6.0
  9
$3DDWFPREC
 40
2.0
  9
$PSOLWIDTH
 40
5.0
  9
$PSOLHEIGHT
 40
80.0
  9
$LOFTANG1
 40
1.5707963268
  9
$LOFTANG2
 40
1.5707963268
  9
$LOFTMAG1
 40
0.0
  9
$LOFTMAG2
 40
0.0
  9
$LOFTPARAM
 70
     7
  9
$LOFTNORMALS
280
     1
  9
$LATITUDE
 40
37.795
  9
$LONGITUDE
 40
-122.394
  9
$NORTHDIRECTION
 40
0.0
  9
$TIMEZONE
 70
 -8000
  9
$LIGHTGLYPHDISPLAY
280
     1
  9
$TILEMODELIGHTSYNCH
280
     1
  9
$CMATERIAL
347
44
  9
$SOLIDHIST
280
     0
  9
$SHOWHIST
280
     1
  9
$DWFFRAME
280
     2
  9
$DGNFRAME
280
     2
  9
$REALWORLDSCALE
290
     1
  9
$INTERFERECOLOR
 62
   256
  9
$CSHADOW
280
     0
  9
$SHADOWPLANELOCATION
 40
0.0
  0
ENDSEC
  0
SECTION
  2
CLASSES
  0
CLASS
  1
ACDBDICTIONARYWDFLT
  2
AcDbDictionaryWithDefault
  3
ObjectDBX Classes
 90
        0
 91
        4
280
     0
281
     0
  0
CLASS
  1
VISUALSTYLE
  2
AcDbVisualStyle
  3
ObjectDBX Classes
 90
     4095
 91
        4
280
     0
281
     0
  0
CLASS
  1
MATERIAL
  2
AcDbMaterial
  3
ObjectDBX Classes
 90
     1153
 91
        4
280
     0
281
     0
  0
CLASS
  1
SCALE
  2
AcDbScale
  3
ObjectDBX Classes
 90
     1153
 91
        4
280
     0
281
     0
  0
CLASS
  1
TABLESTYLE
  2
AcDbTableStyle
  3
ObjectDBX Classes
 90
     4095
 91
        4
280
     0
281
     0
  0
CLASS
  1
MLEADERSTYLE
  2
AcDbMLeaderStyle
  3
ACDB_MLEADERSTYLE_CLASS
 90
     4095
 91
        4
280
     0
281
     0
  0
CLASS
  1
SUN
  2
AcDbSun
  3
SCENEOE
 90
     1153
 91
        4
280
     0
281
     0
  0
CLASS
  1
DICTIONARYVAR
  2
AcDbDictionaryVar
  3
ObjectDBX Classes
 90
        0
 91
        4
280
     0
281
     0
  0
CLASS
  1
CELLSTYLEMAP
  2
AcDbCellStyleMap
  3
ObjectDBX Classes
 90
     1152
 91
        4
280
     0
281
     0
  0
ENDSEC
  0
SECTION
  2
TABLES
  0
TABLE
  2
VPORT
  5
8
330
0
100
AcDbSymbolTable
 70
     1
  0
VPORT
  5
29
330
8
100
AcDbSymbolTableRecord
100
AcDbViewportTableRecord
  2
*Active
 70
     0
 10
0.0
 20
0.0
 11
1.0
 21
1.0
 12
344.1869158879
 22
148.5
 13
0.0
 23
0.0
 14
10.0
 24
10.0
 15
10.0
 25
10.0
 16
0.0
 26
0.0
 36
1.0
 17
0.0
 27
0.0
 37
0.0
 40
297.0
 41
1.9729729729
 42
50.0
 43
0.0
 44
0.0
 50
0.0
 51
0.0
 71
     0
 72
   100
 73
     1
 74
     3
 75
     0
 76
     0
 77
     0
 78
     0
281
     0
 65
     1
110
0.0
120
0.0
130
0.0
111
1.0
121
0.0
131
0.0
112
0.0
122
1.0
132
0.0
 79
     0
146
0.0
348
2F
 60
     3
 61
     5
292
     1
282
     1
141
0.0
142
0.0
 63
   250
361
6D
  0
ENDTAB
  0
TABLE
  2
LTYPE
  5
5
330
0
100
AcDbSymbolTable
 70
     1
  0
LTYPE
  5
14
330
5
100
AcDbSymbolTableRecord
100
AcDbLinetypeTableRecord
  2
ByBlock
 70
     0
  3

 72
    65
 73
     0
 40
0.0
  0
LTYPE
  5
15
330
5
100
AcDbSymbolTableRecord
100
AcDbLinetypeTableRecord
  2
ByLayer
 70
     0
  3

 72
    65
 73
     0
 40
0.0
  0
LTYPE
  5
16
330
5
100
AcDbSymbolTableRecord
100
AcDbLinetypeTableRecord
  2
Continuous
 70
     0
  3
Solid line
 72
    65
 73
     0
 40
0.0
  0
ENDTAB
  0
TABLE
  2
LAYER
  5
2
330
0
100
AcDbSymbolTable
 70
     5
  0
LAYER
  5
10
330
2
100
AcDbSymbolTableRecord
100
AcDbLayerTableRecord
  2
0
 70
     0
 62
     7
  6
Continuous
370
    -3
390
F
347
46
  0
LAYER
  5
6E
330
2
100
AcDbSymbolTableRecord
100
AcDbLayerTableRecord
  2
Default
 70
     0
 62
     7
  6
Continuous
370
    -3
390
F
347
46
  0
LAYER
  5
71
330
2
100
AcDbSymbolTableRecord
100
AcDbLayerTableRecord
  2
DV1_Default
 70
     0
 62
     7
  6
Continuous
370
    -3
390
F
347
46
  0
LAYER
  5
1A0
330
2
100
AcDbSymbolTableRecord
100
AcDbLayerTableRecord
  2
DV2_Default
 70
     0
 62
     7
  6
Continuous
370
    -3
390
F
347
46
  0
LAYER
  5
1D8
330
2
100
AcDbSymbolTableRecord
100
AcDbLayerTableRecord
  2
DV3_Default
 70
     0
 62
     7
  6
Continuous
370
    -3
390
F
347
46
  0
ENDTAB
  0
TABLE
  2
STYLE
  5
3
330
0
100
AcDbSymbolTable
 70
     1
  0
STYLE
  5
11
330
3
100
AcDbSymbolTableRecord
100
AcDbTextStyleTableRecord
  2
Standard
 70
     0
 40
0.0
 41
1.0
 50
0.0
 71
     0
 42
10.0
  3
txt
  4

  0
ENDTAB
  0
TABLE
  2
VIEW
  5
6
330
0
100
AcDbSymbolTable
 70
     0
  0
ENDTAB
  0
TABLE
  2
UCS
  5
7
330
0
100
AcDbSymbolTable
 70
     0
  0
ENDTAB
  0
TABLE
  2
APPID
  5
9
330
0
100
AcDbSymbolTable
 70
     2
  0
APPID
  5
12
330
9
100
AcDbSymbolTableRecord
100
AcDbRegAppTableRecord
  2
ACAD
 70
     0
  0
APPID
  5
26C
330
9
100
AcDbSymbolTableRecord
100
AcDbRegAppTableRecord
  2
ACAD_MLEADERVER
 70
     0
  0
ENDTAB
  0
TABLE
  2
DIMSTYLE
  5
A
330
0
100
AcDbSymbolTable
 70
     1
100
AcDbDimStyleTable
  0
DIMSTYLE
105
27
330
A
100
AcDbSymbolTableRecord
100
AcDbDimStyleTableRecord
  2
ISO-25
 70
     0
 41
2.5
 42
0.625
 43
3.75
 44
1.25
 73
     0
 74
     0
 77
     1
 78
     8
140
2.5
141
2.5
143
0.0393700787
147
0.625
171
     3
172
     1
178
     0
271
     2
272
     2
274
     3
278
    44
283
     0
284
     8
340
11
  0
ENDTAB
  0
TABLE
  2
BLOCK_RECORD
  5
1
330
0
100
AcDbSymbolTable
 70
     4
  0
BLOCK_RECORD
  5
1F
330
1
100
AcDbSymbolTableRecord
100
AcDbBlockTableRecord
  2
*Model_Space
340
22
 70
     0
280
     1
281
     0
  0
BLOCK_RECORD
  5
1B
330
1
100
AcDbSymbolTableRecord
100
AcDbBlockTableRecord
  2
*Paper_Space
340
1E
 70
     0
280
     1
281
     0
  0
BLOCK_RECORD
  5
6F
330
1
100
AcDbSymbolTableRecord
100
AcDbBlockTableRecord
  2
SE
340
0
102
{BLKREFS
331
70
102
}
 70
     0
280
     1
281
     0
  0
BLOCK_RECORD
  5
19E
330
1
100
AcDbSymbolTableRecord
100
AcDbBlockTableRecord
  2
SE1
340
0
102
{BLKREFS
331
19F
102
}
 70
     0
280
     1
281
     0
  0
BLOCK_RECORD
  5
1D6
330
1
100
AcDbSymbolTableRecord
100
AcDbBlockTableRecord
  2
SE2
340
0
102
{BLKREFS
331
1D7
102
}
 70
     0
280
     1
281
     0
  0
ENDTAB
  0
ENDSEC
  0
SECTION
  2
BLOCKS
  0
BLOCK
  5
20
330
1F
100
AcDbEntity
  8
0
100
AcDbBlockBegin
  2
*Model_Space
 70
     0
 10
0.0
 20
0.0
 30
0.0
  3
*Model_Space
  1

  0
ENDBLK
  5
21
330
1F
100
AcDbEntity
  8
0
100
AcDbBlockEnd
  0
BLOCK
  5
1C
330
1B
100
AcDbEntity
 67
     1
  8
0
100
AcDbBlockBegin
  2
*Paper_Space
 70
     0
 10
0.0
 20
0.0
 30
0.0
  3
*Paper_Space
  1

  0
ENDBLK
  5
1D
330
1B
100
AcDbEntity
 67
     1
  8
0
100
AcDbBlockEnd
  0
BLOCK
  5
19C
330
6F
100
AcDbEntity
  8
0
100
AcDbBlockBegin
  2
SE
 70
     0
 10
0.0
 20
0.0
 30
0.0
  3
SE
  1

  0
LINE
  5
72
330
6F
100
AcDbEntity
  8
DV1_Default
 62
     7
100
AcDbLine
 10
112.3583645991
 20
982.9927688113
 30
0.0
 11
160.3583645991
 21
982.9927688113
 31
0.0
  0
SPLINE
  5
73
330
6F
100
AcDbEntity
  8
DV1_Default
 62
     7
100
AcDbSpline
210
0.0
220
0.0
230
1.0
 70
     8
 71
     3
 72
    10
 73
     6
 74
     0
 42
0.000000001
 43
0.0000000001
 40
0.0
 40
0.0
 40
0.0
 40
0.0
 40
0.7219148184216622
 40
0.9971467127340865
 40
1.0
 40
1.0
 40
1.0
 40
1.0
 10
162.2115459499134
 20
1031.093927686367
 30
0.0
 10
162.2581125856076
 20
1031.045556086111
 30
0.0
 10
162.2991424839754
 20
1031.003033019383
 30
0.0
 10
162.3081905473896
 20
1030.993601182146
 30
0.0
 10
162.3081037636524
 20
1030.993683358951
 30
0.0
 10
162.3081025992305
 20
1030.993684486854
 30
0.0
  0
SPLINE
  5
74
330
6F
100
AcDbEntity
  8
DV1_Default
 62
     7
100
AcDbSpline
210
0.0
220
0.0
230
1.0
 70
     8
 71
     3
 72
    33
 73
    29
 74
     0
 42
0.000000001
 43
0.0000000001
 40
0.0
 40
0.0
 40
0.0
 40
0.0
 40
0.0688776010321532
 40
0.1450153418285003
 40
0.2176349852264316
 40
0.2867683444250167
 40
0.3205312303292041
 40
0.3533842230828821
 40
0.3854471214040507
 40
0.4166558162136165
 40
0.4465605548642583
 40
0.4735679640058792
 40
0.4954431528920925
 40
0.5040885911331354
 40
0.5116619062297852
 40
0.5266803002851222
 40
0.5356965895187125
 40
0.5463340766974614
 40
0.571540147782906
 40
0.6002822482185589
 40
0.6310726714281634
 40
0.6628455845736677
 40
0.6952033988352307
 40
0.7281900688374385
 40
0.7966724719937888
 40
0.8680002070891997
 40
0.9332728185940518
 40
1.0
 40
1.0
 40
1.0
 40
1.0
 10
162.3077310360008
 20
1070.993298764047
 30
0.0
 10
162.305072399656
 20
1070.99058324906
 30
0.0
 10
161.9099000064257
 20
1070.579814292245
 30
0.0
 10
160.2381792277204
 20
1068.835385083998
 30
0.0
 10
157.836567707812
 20
1066.3023976778
 30
0.0
 10
155.563274538848
 20
1063.859197857475
 30
0.0
 10
153.7070375462546
 20
1061.807790697038
 30
0.0
 10
152.3291732883362
 20
1060.244284183154
 30
0.0
 10
150.9816220367881
 20
1058.65346084609
 30
0.0
 10
149.6969620114249
 20
1057.039392852248
 30
0.0
 10
148.5491376454582
 20
1055.424208499109
 30
0.0
 10
147.654341635953
 20
1053.8666908162
 30
0.0
 10
147.2540624053565
 20
1052.593001352422
 30
0.0
 10
147.1833614401811
 20
1051.718829988317
 30
0.0
 10
147.1760759207588
 20
1051.000683011165
 30
0.0
 10
147.1728633477717
 20
1050.272563998955
 30
0.0
 10
147.2616755354273
 20
1049.479511408364
 30
0.0
 10
147.5220339906738
 20
1048.4813087902
 30
0.0
 10
148.1788962663673
 20
1047.150630717826
 30
0.0
 10
149.2417758009885
 20
1045.559072635178
 30
0.0
 10
150.4816728532517
 20
1043.945488364023
 30
0.0
 10
151.8078309006753
 20
1042.348154967885
 30
0.0
 10
153.1688448401637
 20
1040.783271789778
 30
0.0
 10
155.0171698954297
 20
1038.721898882244
 30
0.0
 10
157.3007619221723
 20
1036.254738063162
 30
0.0
 10
159.6622632012675
 20
1033.756616733146
 30
0.0
 10
161.436542241193
 20
1031.900370394329
 30
0.0
 10
162.0639055584694
 20
1031.24729075179
 30
0.0
 10
162.2115459499134
 20
1031.093927686367
 30
0.0
  0
SPLINE
  5
75
330
6F
100
AcDbEntity
  8
DV1_Default
 62
     7
100
AcDbSpline
210
0.0
220
0.0
230
1.0
 70
     8
 71
     3
 72
     8
 73
     4
 74
     0
 42
0.000000001
 43
0.0000000001
 40
0.0
 40
0.0
 40
0.0
 40
0.0
 40
1.0
 40
1.0
 40
1.0
 40
1.0
 10
157.3551292607232
 20
1026.046346322651
 30
0.0
 10
157.3559589991692
 20
1026.045519352548
 30
0.0
 10
157.3254475023015
 20
1026.077315898757
 30
0.0
 10
157.2629100617399
 20
1026.142418498004
 30
0.0
  0
LINE
  5
76
330
6F
100
AcDbEntity
  8
DV1_Default
 62
     7
100
AcDbLine
 10
116.0583645991
 20
1089.9927688113
 30
0.0
 11
156.6583645991
 21
1089.9927688113
 31
0.0
  0
LINE
  5
77
330
6F
100
AcDbEntity
  8
DV1_Default
 62
     7
100
AcDbLine
 10
187.368480137
 20
1070.2936819574
 30
0.0
 11
187.368480137
 21
1031.6936819574
 31
0.0
  0
LINE
  5
78
330
6F
100
AcDbEntity
  8
DV1_Default
 62
     7
100
AcDbLine
 10
158.8452747958
 20
987.005973346
 30
0.0
 11
113.8714544023
 21
987.005973346
 31
0.0
  0
LINE
  5
79
330
6F
100
AcDbEntity
  8
DV1_Default
 62
     7
100
AcDbLine
 10
186.668480137
 20
1070.9936819574
 30
0.0
 11
162.2903491649
 21
1070.9936819574
 31
0.0
  0
LINE
  5
7A
330
6F
100
AcDbEntity
  8
DV1_Default
 62
     7
100
AcDbLine
 10
162.2798629732
 20
1030.9936819574
 30
0.0
 11
186.668480137
 21
1030.9936819574
 31
0.0
  0
SPLINE
  5
7B
330
6F
100
AcDbEntity
  8
DV1_Default
 62
     7
100
AcDbSpline
210
0.0
220
0.0
230
1.0
 70
     8
 71
     3
 72
    14
 73
    10
 74
     0
 42
0.000000001
 43
0.0000000001
 40
0.0
 40
0.0
 40
0.0
 40
0.0
 40
0.23177129228196
 40
0.3523034056569193
 40
0.4706327213164485
 40
0.5903956486177736
 40
0.7200350756118962
 40
0.8585754960066522
 40
1.0
 40
1.0
 40
1.0
 40
1.0
 10
162.3081028975584
 20
1070.992759268151
 30
0.0
 10
161.6088876395073
 20
1070.990070462706
 30
0.0
 10
160.7112867266804
 20
1071.011529568942
 30
0.0
 10
159.4438904047115
 20
1071.369925039658
 30
0.0
 10
158.5848038369871
 20
1071.873942038934
 30
0.0
 10
157.9272127864614
 20
1072.667725951736
 30
0.0
 10
157.5340535241776
 20
1073.665115601668
 30
0.0
 10
157.3637350834383
 20
1074.803460964566
 30
0.0
 10
157.3555976323211
 20
1075.515858102017
 30
0.0
 10
157.3583551375529
 20
1075.942506433056
 30
0.0
  0
SPLINE
  5
7C
330
6F
100
AcDbEntity
  8
DV1_Default
 62
     7
100
AcDbSpline
210
0.0
220
0.0
230
1.0
 70
     8
 71
     3
 72
    14
 73
    10
 74
     0
 42
0.000000001
 43
0.0000000001
 40
0.0
 40
0.0
 40
0.0
 40
0.0
 40
0.2317711642736839
 40
0.352303293842668
 40
0.4706326795470258
 40
0.5903956951533954
 40
0.7200351748902123
 40
0.8585755792899353
 40
1.0
 40
1.0
 40
1.0
 40
1.0
 10
157.3583564486023
 20
1026.043029609194
 30
0.0
 10
157.3556687791141
 20
1026.742243936212
 30
0.0
 10
157.3771292577686
 20
1027.639843799774
 30
0.0
 10
157.7355257867483
 20
1028.907238747574
 30
0.0
 10
158.239543167531
 20
1029.766324733901
 30
0.0
 10
159.0333267660874
 20
1030.423915757324
 30
0.0
 10
160.0307156621235
 20
1030.817075705761
 30
0.0
 10
161.1690599235276
 20
1030.98739534338
 30
0.0
 10
161.8814562491613
 20
1030.995533841454
 30
0.0
 10
162.3081040058781
 20
1030.992776986689
 30
0.0
  0
ARC
  5
7D
330
6F
100
AcDbEntity
  8
DV1_Default
 62
     7
100
AcDbCircle
 10
116.0583645991
 20
1089.2927688113
 30
0.0
 40
0.7000000000000062
100
AcDbArc
 50
90.0
 51
180.0
  0
ARC
  5
7E
330
6F
100
AcDbEntity
  8
DV1_Default
 62
     7
100
AcDbCircle
 10
156.6583645991
 20
1089.2927688113
 30
0.0
 40
0.6999999999999993
100
AcDbArc
 50
0.0
 51
90.0
  0
ARC
  5
7F
330
6F
100
AcDbEntity
  8
DV1_Default
 62
     7
100
AcDbCircle
 10
186.668480137
 20
1070.2936819574
 30
0.0
 40
0.6999999999999993
100
AcDbArc
 50
0.0
 51
90.0
  0
ARC
  5
80
330
6F
100
AcDbEntity
  8
DV1_Default
 62
     7
100
AcDbCircle
 10
186.668480137
 20
1031.6936819574
 30
0.0
 40
0.6999999999999993
100
AcDbArc
 50
270.0
 51
0.0
  0
LINE
  5
81
330
6F
100
AcDbEntity
  8
DV1_Default
 62
     7
100
AcDbLine
 10
160.3583645991
 20
982.9927688113
 30
0.0
 11
160.3583645991
 21
986.2988509639
 31
0.0
  0
LINE
  5
82
330
6F
100
AcDbEntity
  8
DV1_Default
 62
     7
100
AcDbLine
 10
112.3583645991
 20
986.2988509639
 30
0.0
 11
112.3583645991
 21
982.9927688113
 31
0.0
  0
LINE
  5
83
330
6F
100
AcDbEntity
  8
DV1_Default
 62
     7
100
AcDbLine
 10
157.3583645991
 20
1075.9095137156
 30
0.0
 11
157.3583645991
 21
1089.2927688113
 31
0.0
  0
LINE
  5
84
330
6F
100
AcDbEntity
  8
DV1_Default
 62
     7
100
AcDbLine
 10
157.3583645991
 20
988.5059162306
 30
0.0
 11
157.3583645991
 21
1026.072787126
 31
0.0
  0
LINE
  5
85
330
6F
100
AcDbEntity
  8
DV1_Default
 62
     7
100
AcDbLine
 10
115.3583645991
 20
1089.2927688113
 30
0.0
 11
115.3583645991
 21
988.5059162306
 31
0.0
  0
LINE
  5
86
330
6F
100
AcDbEntity
  8
DV1_Default
 62
     7
100
AcDbLine
 10
159.6644731739
 20
986.9988243101
 30
0.0
 11
158.8452747958
 21
987.005973346
 31
0.0
  0
LINE
  5
87
330
6F
100
AcDbEntity
  8
DV1_Default
 62
     7
100
AcDbLine
 10
113.8714544024
 20
987.005973346
 30
0.0
 11
113.0522560242
 21
986.9988243101
 31
0.0
  0
ARC
  5
88
330
6F
100
AcDbEntity
  8
DV1_Default
 62
     7
100
AcDbCircle
 10
158.8583645991
 20
988.5059162306
 30
0.0
 40
1.499999999999999
100
AcDbArc
 50
180.0
 51
269.5
  0
ARC
  5
89
330
6F
100
AcDbEntity
  8
DV1_Default
 62
     7
100
AcDbCircle
 10
113.8583645991
 20
988.5059162306
 30
0.0
 40
1.500000000000001
100
AcDbArc
 50
270.5
 51
0.0
  0
ARC
  5
8A
330
6F
100
AcDbEntity
  8
DV1_Default
 62
     7
100
AcDbCircle
 10
113.0583645991
 20
986.2988509639
 30
0.0
 40
0.699999999999998
100
AcDbArc
 50
90.5
 51
180.0
  0
ARC
  5
8B
330
6F
100
AcDbEntity
  8
DV1_Default
 62
     7
100
AcDbCircle
 10
159.6583645991
 20
986.2988509639
 30
0.0
 40
0.6999999999999993
100
AcDbArc
 50
0.0
 51
89.5
  0
ELLIPSE
  5
8C
330
6F
100
AcDbEntity
  8
DV1_Default
 62
     7
100
AcDbEllipse
 10
136.3583645991
 20
1230.5738516797
 30
0.0
 11
12.50000000000001
 21
0.0
 31
0.0
210
0.0
220
0.0
230
1.0
 40
0.1736481777
 41
0.0
 42
0.0098213144173667
  0
ELLIPSE
  5
8D
330
6F
100
AcDbEntity
  8
DV1_Default
 62
     7
100
AcDbEllipse
 10
136.3583645991
 20
1192.4617916381
 30
0.0
 11
12.50000000000001
 21
0.0
 31
0.0
210
0.0
220
0.0
230
1.0
 40
0.1736481777
 41
0.0
 42
3.139966023325123
  0
ELLIPSE
  5
8E
330
6F
100
AcDbEntity
  8
DV1_Default
 62
     7
100
AcDbEllipse
 10
136.3583645991
 20
1191.4769838851
 30
0.0
 11
11.50000000000001
 21
0.0
 31
0.0
210
0.0
220
0.0
230
1.0
 40
0.1736481777
 41
0.0
 42
0.829523982900189
  0
ELLIPSE
  5
8F
330
6F
100
AcDbEntity
  8
DV1_Default
 62
     7
100
AcDbEllipse
 10
136.3583645991
 20
1191.4769838851
 30
0.0
 11
11.50000000000001
 21
0.0
 31
0.0
210
0.0
220
0.0
230
1.0
 40
0.1736481777
 41
0.8295239829001888
 42
2.462504951060116
  0
ELLIPSE
  5
90
330
6F
100
AcDbEntity
  8
DV1_Default
 62
     7
100
AcDbEllipse
 10
136.3583645991
 20
1191.4769838851
 30
0.0
 11
11.50000000000001
 21
0.0
 31
0.0
210
0.0
220
0.0
230
1.0
 40
0.1736481777
 41
2.462504951060116
 42
4.35984338445659
  0
ELLIPSE
  5
91
330
6F
100
AcDbEntity
  8
DV1_Default
 62
     7
100
AcDbEllipse
 10
136.3583645991
 20
1191.4769838851
 30
0.0
 11
11.50000000000001
 21
0.0
 31
0.0
210
0.0
220
0.0
230
1.0
 40
0.1736481777
 41
4.359843384456589
 42
5.148196966677121
  0
ELLIPSE
  5
92
330
6F
100
AcDbEntity
  8
DV1_Default
 62
     7
100
AcDbEllipse
 10
136.3583645991
 20
1191.4769838851
 30
0.0
 11
11.50000000000001
 21
0.0
 31
0.0
210
0.0
220
0.0
230
1.0
 40
0.1736481777
 41
5.148196966677121
 42
6.283185307179586
  0
ELLIPSE
  5
93
330
6F
100
AcDbEntity
  8
DV1_Default
 62
     7
100
AcDbEllipse
 10
136.3583645991
 20
1191.4769838851
 30
0.0
 11
9.904382473088253
 21
0.0
 31
0.0
210
0.0
220
0.0
230
1.0
 40
0.1736481777
 41
5.761482331868748
 42
6.283185307179586
  0
ELLIPSE
  5
94
330
6F
100
AcDbEntity
  8
DV1_Default
 62
     7
100
AcDbEllipse
 10
136.3583645991
 20
1191.4769838851
 30
0.0
 11
9.904382473088253
 21
0.0
 31
0.0
210
0.0
220
0.0
230
1.0
 40
0.1736481777
 41
3.515732061504719
 42
5.761482331868748
  0
ELLIPSE
  5
95
330
6F
100
AcDbEntity
  8
DV1_Default
 62
     7
100
AcDbEllipse
 10
136.3583645991
 20
1191.4769838851
 30
0.0
 11
9.904382473088253
 21
0.0
 31
0.0
210
0.0
220
0.0
230
1.0
 40
0.1736481777
 41
2.836790945517806
 42
3.51573206150472
  0
ELLIPSE
  5
96
330
6F
100
AcDbEntity
  8
DV1_Default
 62
     7
100
AcDbEllipse
 10
136.3583645991
 20
1191.4769838851
 30
0.0
 11
9.904382473088253
 21
0.0
 31
0.0
210
0.0
220
0.0
230
1.0
 40
0.1736481777
 41
0.3107047285331914
 42
2.836790945517806
  0
ELLIPSE
  5
97
330
6F
100
AcDbEntity
  8
DV1_Default
 62
     7
100
AcDbEllipse
 10
136.3583645991
 20
1191.4769838851
 30
0.0
 11
9.904382473088253
 21
0.0
 31
0.0
210
0.0
220
0.0
230
1.0
 40
0.1736481777
 41
0.0
 42
0.3107047285331917
  0
ELLIPSE
  5
98
330
6F
100
AcDbEntity
  8
DV1_Default
 62
     7
100
AcDbEllipse
 10
136.3583645991
 20
1191.9736847415
 30
0.0
 11
9.404401511556161
 21
0.0
 31
0.0
210
0.0
220
0.0
230
1.0
 40
0.1736481777
 41
3.159704558400197
 42
3.440500727809219
  0
ELLIPSE
  5
99
330
6F
100
AcDbEntity
  8
DV1_Default
 62
     7
100
AcDbEllipse
 10
136.3583645991
 20
1191.9736847415
 30
0.0
 11
9.404401511556161
 21
0.0
 31
0.0
210
0.0
220
0.0
230
1.0
 40
0.1736481777
 41
5.984277232960146
 42
6.283185307179586
  0
LINE
  5
9A
330
6F
100
AcDbEntity
  8
DV1_Default
 62
     7
100
AcDbLine
 10
123.8583645991
 20
1230.5738516797
 30
0.0
 11
123.8583645991
 21
1192.4617916381
 31
0.0
  0
LINE
  5
9B
330
6F
100
AcDbEntity
  8
DV1_Default
 62
     7
100
AcDbLine
 10
148.8583645991
 20
1192.4617916381
 30
0.0
 11
148.8583645991
 21
1230.5738516797
 31
0.0
  0
ARC
  5
9C
330
6F
100
AcDbEntity
  8
DV1_Default
 62
     7
100
AcDbCircle
 10
124.7322938393
 20
1230.5231292976
 30
0.0
 40
0.8753999525274475
100
AcDbArc
 50
151.0214901684
 51
176.6783102861
  0
SPLINE
  5
9D
330
6F
100
AcDbEntity
  8
DV1_Default
 62
     7
100
AcDbSpline
210
0.0
220
0.0
230
1.0
 70
     8
 71
     3
 72
     9
 73
     5
 74
     0
 42
0.000000001
 43
0.0000000001
 40
0.0
 40
0.0
 40
0.0
 40
0.0
 40
0.2573076276564546
 40
1.0
 40
1.0
 40
1.0
 40
1.0
 10
148.8577839111261
 20
1230.594951005313
 30
0.0
 10
148.8594417207302
 20
1230.631247891941
 30
0.0
 10
148.8643822937167
 20
1230.751305720081
 30
0.0
 10
148.8048148013753
 20
1230.871787748086
 30
0.0
 10
148.7487322595681
 20
1230.954149038268
 30
0.0
  0
SPLINE
  5
9E
330
6F
100
AcDbEntity
  8
DV1_Default
 62
     7
100
AcDbSpline
210
0.0
220
0.0
230
1.0
 70
     8
 71
     3
 72
    19
 73
    15
 74
     0
 42
0.000000001
 43
0.0000000001
 40
0.0
 40
0.0
 40
0.0
 40
0.0
 40
0.0450088323119897
 40
0.149702548385788
 40
0.2548196977567123
 40
0.3606134722855993
 40
0.4675314959313783
 40
0.5764451159447423
 40
0.6892444534449474
 40
0.7938688310051264
 40
0.8654897328212282
 40
0.9287074673792659
 40
0.9884997627468639
 40
1.0
 40
1.0
 40
1.0
 40
1.0
 10
141.2120355196816
 20
1189.667547304247
 30
0.0
 10
141.4216123913753
 20
1189.683062578349
 30
0.0
 10
142.0146930624329
 20
1189.727482079578
 30
0.0
 10
143.0412072146806
 20
1189.839055938519
 30
0.0
 10
144.1856052577949
 20
1189.993926094263
 30
0.0
 10
145.2328582699658
 20
1190.177186572801
 30
0.0
 10
146.163796369088
 20
1190.386235136574
 30
0.0
 10
146.9786210456375
 20
1190.625984318774
 30
0.0
 10
147.6516797140287
 20
1190.898055285564
 30
0.0
 10
148.1504685502883
 20
1191.192195682213
 30
0.0
 10
148.5161700330234
 20
1191.531603081139
 30
0.0
 10
148.7614475623397
 20
1191.909041913
 30
0.0
 10
148.8515515309915
 20
1192.256635849248
 30
0.0
 10
148.8574233595085
 20
1192.429197627681
 30
0.0
 10
148.8583645990891
 20
1192.461791638096
 30
0.0
  0
SPLINE
  5
9F
330
6F
100
AcDbEntity
  8
DV1_Default
 62
     7
100
AcDbSpline
210
0.0
220
0.0
230
1.0
 70
     8
 71
     3
 72
    20
 73
    16
 74
     0
 42
0.000000001
 43
0.0000000001
 40
0.0
 40
0.0
 40
0.0
 40
0.0
 40
0.0257222502755073
 40
0.0833629145794261
 40
0.141130129911962
 40
0.2064905373425031
 40
0.2891633426464846
 40
0.3968924620547142
 40
0.4959921300661778
 40
0.6003069770154943
 40
0.701514551363152
 40
0.8011119649681542
 40
0.8998279756732774
 40
0.998027542632433
 40
1.0
 40
1.0
 40
1.0
 40
1.0
 10
123.8777161513838
 20
1192.473582793339
 30
0.0
 10
123.8735185627742
 20
1192.395768020656
 30
0.0
 10
123.8631630939919
 20
1192.18220755437
 30
0.0
 10
124.0140792080154
 20
1191.810862727539
 30
0.0
 10
124.2690258146202
 20
1191.463608828669
 30
0.0
 10
124.6156809678643
 20
1191.169211100092
 30
0.0
 10
125.0928756890099
 20
1190.891676207527
 30
0.0
 10
125.7314038400043
 20
1190.633490446638
 30
0.0
 10
126.5552236070388
 20
1190.390212306249
 30
0.0
 10
127.4993268500697
 20
1190.178029837273
 30
0.0
 10
128.5771161196477
 20
1189.991132723517
 30
0.0
 10
129.7540525519696
 20
1189.831831278587
 30
0.0
 10
131.0072651822393
 20
1189.704889058831
 30
0.0
 10
131.9285010811749
 20
1189.627340909355
 30
0.0
 10
132.377818732412
 20
1189.603822898707
 30
0.0
 10
132.388072198306
 20
1189.603286551637
 30
0.0
  0
SPLINE
  5
A0
330
6F
100
AcDbEntity
  8
DV1_Default
 62
     7
100
AcDbSpline
210
0.0
220
0.0
230
1.0
 70
     8
 71
     3
 72
    10
 73
     6
 74
     0
 42
0.000000001
 43
0.0000000001
 40
0.0
 40
0.0
 40
0.0
 40
0.0
 40
0.3204858639543257
 40
0.8334710988678344
 40
1.0
 40
1.0
 40
1.0
 40
1.0
 10
145.5352846919404
 20
1192.057591460274
 30
0.0
 10
145.5934529513472
 20
1192.026546497392
 30
0.0
 10
145.7188892862138
 20
1191.961369978156
 30
0.0
 10
145.7759481154887
 20
1191.897615794549
 30
0.0
 10
145.7796417165091
 20
1191.891225003668
 30
0.0
 10
145.7792939494045
 20
1191.891745310435
 30
0.0
  0
SPLINE
  5
A1
330
6F
100
AcDbEntity
  8
DV1_Default
 62
     7
100
AcDbSpline
210
0.0
220
0.0
230
1.0
 70
     8
 71
     3
 72
    10
 73
     6
 74
     0
 42
0.000000001
 43
0.0000000001
 40
0.0
 40
0.0
 40
0.0
 40
0.0
 40
0.040944801626619
 40
0.6236542253377584
 40
1.0
 40
1.0
 40
1.0
 40
1.0
 10
126.9362385208032
 20
1191.89074020062
 30
0.0
 10
126.9360503583525
 20
1191.890400773782
 30
0.0
 10
126.9346169398881
 20
1191.887572228064
 30
0.0
 10
126.9738598294096
 20
1191.945016655261
 30
0.0
 10
127.1040285476387
 20
1192.015180942894
 30
0.0
 10
127.1658433604185
 20
1192.05026641319
 30
0.0
  0
SPLINE
  5
A2
330
6F
100
AcDbEntity
  8
DV1_Default
 62
     7
100
AcDbSpline
210
0.0
220
0.0
230
1.0
 70
     8
 71
     3
 72
    24
 73
    20
 74
     0
 42
0.000000001
 43
0.0000000001
 40
0.0
 40
0.0
 40
0.0
 40
0.0
 40
0.0312742629967828
 40
0.0625588372403781
 40
0.1250931301596226
 40
0.1876247527952436
 40
0.250154127063152
 40
0.3126746582480835
 40
0.375188158146436
 40
0.4998280629908718
 40
0.5623331752651148
 40
0.624841332170158
 40
0.687355858961157
 40
0.7498723595000371
 40
0.8123977318377641
 40
0.842068971080429
 40
0.8749528664878585
 40
0.930529878714767
 40
1.0
 40
1.0
 40
1.0
 40
1.0
 10
216.1587957018108
 20
1039.751243538417
 30
0.0
 10
215.747587631281
 20
1039.841856109278
 30
0.0
 10
214.9250359133125
 20
1040.02311112632
 30
0.0
 10
213.3142578818293
 20
1040.487166157222
 30
0.0
 10
211.3589857815678
 20
1041.214218146439
 30
0.0
 10
209.142476965136
 20
1042.344675297408
 30
0.0
 10
207.0846803186219
 20
1043.736582859829
 30
0.0
 10
205.2187253256172
 20
1045.393825332278
 30
0.0
 10
203.0346950213933
 20
1047.931944367996
 30
0.0
 10
201.3532558828852
 20
1050.944808537869
 30
0.0
 10
200.2279321540223
 20
1054.144631923807
 30
0.0
 10
199.6252223068809
 20
1056.572990278735
 30
0.0
 10
199.2284009011085
 20
1058.951233004031
 30
0.0
 10
198.9893258610683
 20
1061.218909415038
 30
0.0
 10
198.883057438282
 20
1062.957849433843
 30
0.0
 10
198.8315518492327
 20
1064.265309029278
 30
0.0
 10
198.7994257756997
 20
1065.430258691217
 30
0.0
 10
198.778777772079
 20
1066.867173671723
 30
0.0
 10
198.776620685727
 20
1067.777599507377
 30
0.0
 10
198.7754223131911
 20
1068.28338793649
 30
0.0
  0
SPLINE
  5
A3
330
6F
100
AcDbEntity
  8
DV1_Default
 62
     7
100
AcDbSpline
210
0.0
220
0.0
230
1.0
 70
     8
 71
     3
 72
    15
 73
    11
 74
     0
 42
0.000000001
 43
0.0000000001
 40
0.0
 40
0.0
 40
0.0
 40
0.0
 40
0.1421371280904161
 40
0.2707279390268461
 40
0.3857723401180704
 40
0.4872710213776411
 40
0.6153401240007605
 40
0.7309054267439776
 40
0.9744088377525679
 40
1.0
 40
1.0
 40
1.0
 40
1.0
 10
198.7754223131911
 20
1068.28338793649
 30
0.0
 10
198.775765042179
 20
1068.522436628379
 30
0.0
 10
198.7764178365175
 20
1068.977751580578
 30
0.0
 10
198.7823400201605
 20
1069.517103509607
 30
0.0
 10
198.7919587508255
 20
1069.933511395505
 30
0.0
 10
198.8073721130094
 20
1070.283149156316
 30
0.0
 10
198.8315721236994
 20
1070.563769712392
 30
0.0
 10
198.8830446601458
 20
1070.853234545451
 30
0.0
 10
198.9508943627692
 20
1070.956702557632
 30
0.0
 10
199.0207960116414
 20
1070.962887165894
 30
0.0
 10
199.0276558541429
 20
1070.962878119394
 30
0.0
  0
LINE
  5
A4
330
6F
100
AcDbEntity
  8
DV1_Default
 62
     7
100
AcDbLine
 10
216.1587976999
 20
1049.3483085338
 30
0.0
 11
216.1587957018
 21
1039.7512435384
 31
0.0
  0
SPLINE
  5
A5
330
6F
100
AcDbEntity
  8
DV1_Default
 62
     7
100
AcDbSpline
210
0.0
220
0.0
230
1.0
 70
     8
 71
     3
 72
    30
 73
    26
 74
     0
 42
0.000000001
 43
0.0000000001
 40
0.0
 40
0.0
 40
0.0
 40
0.0
 40
0.0591554746374565
 40
0.0591554746374565
 40
0.137559185084335
 40
0.137559185084335
 40
0.2159628955312134
 40
0.2159628955312134
 40
0.3727703164249702
 40
0.3727703164249702
 40
0.5295777373187271
 40
0.5295777373187271
 40
0.6079814477656056
 40
0.6079814477656056
 40
0.6863851582124839
 40
0.6863851582124839
 40
0.7647888686593624
 40
0.7647888686593624
 40
0.8039907238828016
 40
0.8039907238828016
 40
0.8431925791062408
 40
0.8431925791062408
 40
0.9215962895531203
 40
0.9215962895531203
 40
0.9999999999999999
 40
0.9999999999999999
 40
0.9999999999999999
 40
0.9999999999999999
 10
216.3936833665219
 20
1120.742709858122
 30
0.0
 10
216.3893424818544
 20
1120.742524472355
 30
0.0
 10
216.3829382190067
 20
1120.601401466939
 30
0.0
 10
216.3675390576356
 20
1120.170412850661
 30
0.0
 10
216.3572888661648
 20
1119.840183410793
 30
0.0
 10
216.3309520057631
 20
1119.143451535587
 30
0.0
 10
216.315235515908
 20
1118.772650617997
 30
0.0
 10
216.2966720919946
 20
1117.625148565088
 30
0.0
 10
216.2995975756815
 20
1116.802480195953
 30
0.0
 10
216.2995795471803
 20
1115.047198969393
 30
0.0
 10
216.2967615571407
 20
1114.114228765308
 30
0.0
 10
216.3147773041419
 20
1112.635819171341
 30
0.0
 10
216.3302675908157
 20
1112.131718757331
 30
0.0
 10
216.3567600455307
 20
1111.085721842993
 30
0.0
 10
216.3670796164215
 20
1110.544152866719
 30
0.0
 10
216.3847586766658
 20
1109.337122245027
 30
0.0
 10
216.3931563067845
 20
1108.655237344322
 30
0.0
 10
216.398976032256
 20
1107.439205055344
 30
0.0
 10
216.3995525221477
 20
1106.994345033088
 30
0.0
 10
216.3983591024772
 20
1106.113813738483
 30
0.0
 10
216.3969106505708
 20
1105.67986894148
 30
0.0
 10
216.3923635199606
 20
1104.388397488138
 30
0.0
 10
216.389413771281
 20
1103.572664586004
 30
0.0
 10
216.3849351802554
 20
1101.957923686544
 30
0.0
 10
216.3832341595603
 20
1101.163294395527
 30
0.0
 10
216.3818138742093
 20
1100.367615379196
 30
0.0
  0
LINE
  5
A6
330
6F
100
AcDbEntity
  8
DV1_Default
 62
     7
100
AcDbLine
 10
216.3390300222
 20
1064.0713550918
 30
0.0
 11
216.3389823248
 21
1064.0186521112
 31
0.0
  0
SPLINE
  5
A7
330
6F
100
AcDbEntity
  8
DV1_Default
 62
     7
100
AcDbSpline
210
0.0
220
0.0
230
1.0
 70
     8
 71
     3
 72
    11
 73
     7
 74
     0
 42
0.000000001
 43
0.0000000001
 40
0.0
 40
0.0
 40
0.0
 40
0.0
 40
0.5032040577535518
 40
0.5032040577535518
 40
0.5032040577535518
 40
1.0
 40
1.0
 40
1.0
 40
1.0
 10
216.3818138742093
 20
1100.367615379196
 30
0.0
 10
216.3709465619276
 20
1094.279477991531
 30
0.0
 10
216.3644306037773
 20
1088.19133476212
 30
0.0
 10
216.3574406942732
 20
1082.103192727311
 30
0.0
 10
216.3505397986007
 20
1076.092580859315
 30
0.0
 10
216.3444771282921
 20
1070.081968180207
 30
0.0
 10
216.3390300222158
 20
1064.07135509183
 30
0.0
  0
ARC
  5
A8
330
6F
100
AcDbEntity
  8
DV1_Default
 62
     7
100
AcDbCircle
 10
-586.2762493679
 20
1066.5402836392
 30
0.0
 40
802.6191928746033
100
AcDbArc
 50
358.7726396744
 51
359.8199904974
  0
LINE
  5
A9
330
6F
100
AcDbEntity
  8
DV1_Default
 62
     7
100
AcDbLine
 10
189.1587957018
 20
1046.9202791319
 30
0.0
 11
189.1587957018
 21
1070.3628798608
 31
0.0
  0
ARC
  5
AA
330
6F
100
AcDbEntity
  8
DV1_Default
 62
     7
100
AcDbCircle
 10
204.1021565265
 20
1046.4601223053
 30
0.0
 40
14.95044404162335
100
AcDbArc
 50
178.2362257246
 51
210.2156171478
  0
ELLIPSE
  5
AB
330
6F
100
AcDbEntity
  8
DV1_Default
 62
     7
100
AcDbEllipse
 10
191.7221912036
 20
1039.1640133855
 30
0.0
 11
0.5123964267572736
 21
0.3121696683638168
 31
0.0
210
0.0
220
0.0
230
1.0
 40
0.5475238677
 41
2.87656479289563
 42
3.145431263624655
  0
ARC
  5
AC
330
6F
100
AcDbEntity
  8
DV1_Default
 62
     7
100
AcDbCircle
 10
-1489.8556549979
 20
1070.6223134204
 30
0.0
 40
1708.108419502496
100
AcDbArc
 50
0.0764709232
 51
1.0740274039
  0
SPLINE
  5
AD
330
6F
100
AcDbEntity
  8
DV1_Default
 62
     7
100
AcDbSpline
210
0.0
220
0.0
230
1.0
 70
     8
 71
     3
 72
    24
 73
    20
 74
     0
 42
0.000000001
 43
0.0000000001
 40
0.0
 40
0.0
 40
0.0
 40
0.0
 40
0.1250000000000005
 40
0.1250000000000005
 40
0.2500000000000011
 40
0.2500000000000011
 40
0.3750000000000016
 40
0.3750000000000016
 40
0.4375000000000017
 40
0.4375000000000017
 40
0.5000000000000019
 40
0.5000000000000019
 40
0.6250000000000014
 40
0.6250000000000014
 40
0.7500000000000009
 40
0.7500000000000009
 40
0.8750000000000004
 40
0.8750000000000004
 40
1.0
 40
1.0
 40
1.0
 40
1.0
 10
218.4855111060757
 20
1070.740592446489
 30
0.0
 10
218.4724464466899
 20
1070.636149699243
 30
0.0
 10
218.4587070140365
 20
1070.539594699711
 30
0.0
 10
218.4300011672204
 20
1070.370490534051
 30
0.0
 10
218.4150319944045
 20
1070.297806978154
 30
0.0
 10
218.3841637411287
 20
1070.198285105175
 30
0.0
 10
218.3683996717974
 20
1070.172549635111
 30
0.0
 10
218.34558249743
 20
1070.195067217212
 30
0.0
 10
218.3380306073543
 20
1070.213135999696
 30
0.0
 10
218.3238129829118
 20
1070.272253463051
 30
0.0
 10
218.3171210208053
 20
1070.313109234478
 30
0.0
 10
218.2984789207943
 20
1070.470465218013
 30
0.0
 10
218.2879783037414
 20
1070.625306363929
 30
0.0
 10
218.2721445383111
 20
1070.994605763638
 30
0.0
 10
218.2665300196213
 20
1071.211286363831
 30
0.0
 10
218.2585403689238
 20
1071.664572935149
 30
0.0
 10
218.2560402811959
 20
1071.903470915937
 30
0.0
 10
218.2526033457075
 20
1072.394134459844
 30
0.0
 10
218.2516707332607
 20
1072.645959510931
 30
0.0
 10
218.2512431418132
 20
1072.90207277012
 30
0.0
  0
ARC
  5
AE
330
6F
100
AcDbEntity
  8
DV1_Default
 62
     7
100
AcDbCircle
 10
376.0416232186
 20
1106.5727635567
 30
0.0
 40
158.1378764752912
100
AcDbArc
 50
179.798595347
 51
181.4252404222
  0
ARC
  5
AF
330
6F
100
AcDbEntity
  8
DV1_Default
 62
     7
100
AcDbCircle
 10
191.7277687673
 20
1073.7968230657
 30
0.0
 40
26.93171588789106
100
AcDbArc
 50
353.4839967067
 51
0.4984435435
  0
ARC
  5
B0
330
6F
100
AcDbEntity
  8
DV1_Default
 62
     7
100
AcDbCircle
 10
-614.0493653054
 20
1110.1159934961
 30
0.0
 40
831.9594524708864
100
AcDbArc
 50
359.7942653934
 51
0.0178922741
  0
ARC
  5
B1
330
6F
100
AcDbEntity
  8
DV1_Default
 62
     7
100
AcDbCircle
 10
159.3163403538
 20
1073.7628199023
 30
0.0
 40
59.34273168441118
100
AcDbArc
 50
0.2590386432
 51
4.3831430918
  0
ARC
  5
B2
330
6F
100
AcDbEntity
  8
DV1_Default
 62
     7
100
AcDbCircle
 10
-248.8907626632
 20
1110.7635948152
 30
0.0
 40
466.8009703457932
100
AcDbArc
 50
359.952401173
 51
0.2777296442
  0
ARC
  5
B3
330
6F
100
AcDbEntity
  8
DV1_Default
 62
     7
100
AcDbCircle
 10
281.7288338777
 20
1083.7609986282
 30
0.0
 40
63.47882175916872
100
AcDbArc
 50
179.6431741313
 51
184.9368753227
  0
ARC
  5
B4
330
6F
100
AcDbEntity
  8
DV1_Default
 62
     7
100
AcDbCircle
 10
-1246.2113879849
 20
1082.073149032
 30
0.0
 40
1464.464112770272
100
AcDbArc
 50
0.0815024669
 51
1.1598610923
  0
ARC
  5
B5
330
6F
100
AcDbEntity
  8
DV1_Default
 62
     7
100
AcDbCircle
 10
233.8895294101
 20
1113.0357644572
 30
0.0
 40
15.99134218969186
100
AcDbArc
 50
178.5982250435
 51
184.7309467204
  0
ARC
  5
B6
330
6F
100
AcDbEntity
  8
DV1_Default
 62
     7
100
AcDbCircle
 10
233.8895294101
 20
1113.0357644572
 30
0.0
 40
15.99134218969186
100
AcDbArc
 50
178.2877926767
 51
178.5982250435
  0
ELLIPSE
  5
B7
330
6F
100
AcDbEntity
  8
DV1_Default
 62
     7
100
AcDbEllipse
 10
217.3530154329
 20
1111.6980262482
 30
0.0
 11
-0.5998447645435417
 21
-0.01364765363398579
 31
0.0
210
0.0
220
0.0
230
1.0
 40
0.5554285595
 41
2.747647548300694
 42
3.157133142113116
  0
ARC
  5
B8
330
6F
100
AcDbEntity
  8
DV1_Default
 62
     7
100
AcDbCircle
 10
197.6191679759
 20
1084.5725591486
 30
0.0
 40
16.02635955069503
100
AcDbArc
 50
345.1166219957
 51
359.1256787989
  0
ARC
  5
B9
330
6F
100
AcDbEntity
  8
DV1_Default
 62
     7
100
AcDbCircle
 10
3447.5531785244
 20
963.9408287656
 30
0.0
 40
3236.149538724792
100
AcDbArc
 50
177.4541516125
 51
177.8680622643
  0
ARC
  5
BA
330
6F
100
AcDbEntity
  8
DV1_Default
 62
     7
100
AcDbCircle
 10
229.5985203433
 20
1110.6870592369
 30
0.0
 40
15.14621162200607
100
AcDbArc
 50
172.2049805472
 51
180.6996894872
  0
ARC
  5
BB
330
6F
100
AcDbEntity
  8
DV1_Default
 62
     7
100
AcDbCircle
 10
244.0097080543
 20
1110.6230560794
 30
0.0
 40
29.55651746774965
100
AcDbArc
 50
180.2344758712
 51
185.6787838945
  0
ARC
  5
BC
330
6F
100
AcDbEntity
  8
DV1_Default
 62
     7
100
AcDbCircle
 10
192.048468832
 20
1104.2654195659
 30
0.0
 40
22.79309858435825
100
AcDbArc
 50
355.9090674458
 51
7.3544727937
  0
ARC
  5
BD
330
6F
100
AcDbEntity
  8
DV1_Default
 62
     7
100
AcDbCircle
 10
4033.3629673148
 20
941.2203971652
 30
0.0
 40
3821.989702975708
100
AcDbArc
 50
177.5794342017
 51
178.0249947107
  0
SPLINE
  5
BE
330
6F
100
AcDbEntity
  8
DV1_Default
 62
     7
100
AcDbSpline
210
0.0
220
0.0
230
1.0
 70
     8
 71
     3
 72
    18
 73
    14
 74
     0
 42
0.000000001
 43
0.0000000001
 40
0.0
 40
0.0
 40
0.0
 40
0.0
 40
0.25
 40
0.25
 40
0.5
 40
0.5
 40
0.625
 40
0.625
 40
0.75
 40
0.75
 40
0.875
 40
0.875
 40
1.0
 40
1.0
 40
1.0
 40
1.0
 10
213.6436925547769
 20
1072.939612464716
 30
0.0
 10
213.6320812451984
 20
1072.62412307714
 30
0.0
 10
213.6169566092684
 20
1072.313367591811
 30
0.0
 10
213.5742907132398
 20
1071.715767227821
 30
0.0
 10
213.5468234837709
 20
1071.42980830635
 30
0.0
 10
213.486616670361
 20
1071.041638288373
 30
0.0
 10
213.4630714402541
 20
1070.918510040598
 30
0.0
 10
213.4091716068248
 20
1070.699013763023
 30
0.0
 10
213.3787438988555
 20
1070.601822669919
 30
0.0
 10
213.3102456963528
 20
1070.436797067421
 30
0.0
 10
213.2723743497568
 20
1070.370071915292
 30
0.0
 10
213.1930395067898
 20
1070.272057377827
 30
0.0
 10
213.1512193996827
 20
1070.239801828274
 30
0.0
 10
213.1078670753299
 20
1070.222578980997
 30
0.0
  0
SPLINE
  5
BF
330
6F
100
AcDbEntity
  8
DV1_Default
 62
     7
100
AcDbSpline
210
0.0
220
0.0
230
1.0
 70
     8
 71
     3
 72
    12
 73
     8
 74
     0
 42
0.000000001
 43
0.0000000001
 40
0.0
 40
0.0
 40
0.0
 40
0.0
 40
0.6383361162248177
 40
0.6383361162248177
 40
0.957504174337225
 40
0.957504174337225
 40
1.0
 40
1.0
 40
1.0
 40
1.0
 10
212.9746525594853
 20
1071.326046705501
 30
0.0
 10
213.0683357138793
 20
1071.185210823112
 30
0.0
 10
213.1677038724822
 20
1071.060199065469
 30
0.0
 10
213.3287817253599
 20
1070.924946751774
 30
0.0
 10
213.3845270152471
 20
1070.88898458883
 30
0.0
 10
213.4510083232233
 20
1070.866294760385
 30
0.0
 10
213.4588643723011
 20
1070.863919668325
 30
0.0
 10
213.4667626551572
 20
1070.861858919611
 30
0.0
  0
ARC
  5
C0
330
6F
100
AcDbEntity
  8
DV1_Default
 62
     7
100
AcDbCircle
 10
189.3816362438
 20
1087.2965021572
 30
0.0
 40
24.69258589975066
100
AcDbArc
 50
339.0595298322
 51
343.917541248
  0
ARC
  5
C1
330
6F
100
AcDbEntity
  8
DV1_Default
 62
     7
100
AcDbCircle
 10
224.1741592115
 20
1073.7404860182
 30
0.0
 40
12.64887708158618
100
AcDbArc
 50
170.5668275052
 51
178.2947750324
  0
ARC
  5
C2
330
6F
100
AcDbEntity
  8
DV1_Default
 62
     7
100
AcDbCircle
 10
217.6404275035
 20
1073.974444765
 30
0.0
 40
6.111204022564674
100
AcDbArc
 50
178.6644387494
 51
211.7424221645
  0
SPLINE
  5
C3
330
6F
100
AcDbEntity
  8
DV1_Default
 62
     7
100
AcDbSpline
210
0.0
220
0.0
230
1.0
 70
     8
 71
     3
 72
    14
 73
    10
 74
     0
 42
0.000000001
 43
0.0000000001
 40
0.0
 40
0.0
 40
0.0
 40
0.0
 40
0.1249999999999993
 40
0.1249999999999993
 40
0.2499999999999987
 40
0.2499999999999987
 40
0.4999999999999988
 40
0.4999999999999988
 40
1.0
 40
1.0
 40
1.0
 40
1.0
 10
213.1078670753299
 20
1070.222578980997
 30
0.0
 10
213.0798718919437
 20
1070.211404437233
 30
0.0
 10
213.050781142594
 20
1070.206689692356
 30
0.0
 10
212.9931079808108
 20
1070.209070555734
 30
0.0
 10
212.9640192449612
 20
1070.216025681658
 30
0.0
 10
212.8770170409396
 20
1070.250949798478
 30
0.0
 10
212.8198808175316
 20
1070.29235977575
 30
0.0
 10
212.6518372319994
 20
1070.44921706471
 30
0.0
 10
212.5443169474199
 20
1070.595163417934
 30
0.0
 10
212.4433262950693
 20
1070.759331449113
 30
0.0
  0
ARC
  5
C4
330
6F
100
AcDbEntity
  8
DV1_Default
 62
     7
100
AcDbCircle
 10
217.6691913666
 20
1074.3827474691
 30
0.0
 40
5.601974131495497
100
AcDbArc
 50
178.3406866654
 51
213.0688931367
  0
ARC
  5
C5
330
6F
100
AcDbEntity
  8
DV1_Default
 62
     7
100
AcDbCircle
 10
224.5670117373
 20
1074.1416373014
 30
0.0
 40
12.50395187748177
100
AcDbArc
 50
157.9864358272
 51
178.1515655736
  0
ARC
  5
C6
330
6F
100
AcDbEntity
  8
DV1_Default
 62
     7
100
AcDbCircle
 10
136.5028339179
 20
1107.8666486169
 30
0.0
 40
81.79949432467873
100
AcDbArc
 50
339.2070175162
 51
340.5322234466
  0
ARC
  5
C7
330
6F
100
AcDbEntity
  8
DV1_Default
 62
     7
100
AcDbCircle
 10
204.2309715432
 20
1083.8880683527
 30
0.0
 40
9.951999017244821
100
AcDbArc
 50
340.7365773053
 51
348.5827084181
  0
LINE
  5
C8
330
6F
100
AcDbEntity
  8
DV1_Default
 62
     7
100
AcDbLine
 10
217.0802270742
 20
1120.7424904782
 30
0.0
 11
216.3929884363
 21
1120.7424904782
 31
0.0
  0
ARC
  5
C9
330
6F
100
AcDbEntity
  8
DV1_Default
 62
     7
100
AcDbCircle
 10
283.1983587361
 20
1103.3797347923
 30
0.0
 40
69.24507415421893
100
AcDbArc
 50
165.6874144494
 51
172.2398735356
  0
SPLINE
  5
CA
330
6F
100
AcDbEntity
  8
DV1_Default
 62
     7
100
AcDbSpline
210
0.0
220
0.0
230
1.0
 70
     8
 71
     3
 72
    22
 73
    18
 74
     0
 42
0.000000001
 43
0.0000000001
 40
0.0
 40
0.0
 40
0.0
 40
0.0
 40
0.0242896483588762
 40
0.0923684194289136
 40
0.1455997170408098
 40
0.2154051543518589
 40
0.2936413793606862
 40
0.3823410421848241
 40
0.4647159622971991
 40
0.5316936776335635
 40
0.5819936673676981
 40
0.6707606390154394
 40
0.7162473053626182
 40
0.7752294644987329
 40
0.8338849924616528
 40
0.908493852980752
 40
0.9999999999999999
 40
0.9999999999999999
 40
0.9999999999999999
 40
0.9999999999999999
 10
211.704131802359
 20
1075.860040229159
 30
0.0
 10
211.6912631876858
 20
1075.814442052036
 30
0.0
 10
211.6387772986658
 20
1075.644457705604
 30
0.0
 10
211.542855345463
 20
1075.403250553379
 30
0.0
 10
211.3748000461175
 20
1075.098023885296
 30
0.0
 10
211.022152237614
 20
1074.585201945005
 30
0.0
 10
210.3887598550317
 20
1073.919395118902
 30
0.0
 10
209.4820424170161
 20
1073.22378660301
 30
0.0
 10
208.4833325850807
 20
1072.659266371392
 30
0.0
 10
207.5486156860651
 20
1072.238640418827
 30
0.0
 10
206.4278099784387
 20
1071.823755997719
 30
0.0
 10
205.3396029029924
 20
1071.524288198467
 30
0.0
 10
204.1839046549025
 20
1071.296386590769
 30
0.0
 10
203.1897090995057
 20
1071.152089291303
 30
0.0
 10
202.0121256643515
 20
1071.039677707248
 30
0.0
 10
200.5943673192599
 20
1070.970983822076
 30
0.0
 10
199.6473202042252
 20
1070.964428297723
 30
0.0
 10
199.0276266554908
 20
1070.962891727523
 30
0.0
  0
SPLINE
  5
CB
330
6F
100
AcDbEntity
  8
DV1_Default
 62
     7
100
AcDbSpline
210
0.0
220
0.0
230
1.0
 70
     8
 71
     3
 72
    18
 73
    14
 74
     0
 42
0.000000001
 43
0.0000000001
 40
0.0
 40
0.0
 40
0.0
 40
0.0
 40
0.0552456610238387
 40
0.1602995617288987
 40
0.2648814375898486
 40
0.3688507315621652
 40
0.4721544557923039
 40
0.5748517807909153
 40
0.6771597887759372
 40
0.7794427857694055
 40
0.8819285692649322
 40
0.9663552538210916
 40
1.0
 40
1.0
 40
1.0
 40
1.0
 10
191.2097947768497
 20
1038.851843717104
 30
0.0
 10
191.3812267295568
 20
1038.57303653403
 30
0.0
 10
191.8036459308759
 20
1037.888054219497
 30
0.0
 10
192.5617685350396
 20
1036.72295654318
 30
0.0
 10
193.4144036433815
 20
1035.500369139856
 30
0.0
 10
194.2472101103236
 20
1034.397302424017
 30
0.0
 10
195.0454467832525
 20
1033.435926369571
 30
0.0
 10
195.8084677942416
 20
1032.618135103639
 30
0.0
 10
196.5344890722585
 20
1031.950441702856
 30
0.0
 10
197.2298195167527
 20
1031.432919906568
 30
0.0
 10
197.8576825408963
 20
1031.108539304899
 30
0.0
 10
198.3567087560833
 20
1030.950419145417
 30
0.0
 10
198.605268756587
 20
1030.959357337916
 30
0.0
 10
198.6883094931186
 20
1030.962889846639
 30
0.0
  0
ARC
  5
CC
330
6F
100
AcDbEntity
  8
DV1_Default
 62
     7
100
AcDbCircle
 10
189.7587957018
 20
1070.3628798608
 30
0.0
 40
0.6000000000000033
100
AcDbArc
 50
90.0
 51
180.0
  0
LINE
  5
CD
330
6F
100
AcDbEntity
  8
DV1_Default
 62
     7
100
AcDbLine
 10
198.6882609822
 20
1030.9628798608
 30
0.0
 11
217.084108903
 21
1030.9628798608
 31
0.0
  0
LINE
  5
CE
330
6F
100
AcDbEntity
  8
DV1_Default
 62
     7
100
AcDbLine
 10
199.0312434573
 20
1070.9628798608
 30
0.0
 11
189.7587957018
 21
1070.9628798608
 31
0.0
  0
ARC
  5
CF
330
6F
100
AcDbEntity
  8
DV1_Default
 62
     7
100
AcDbCircle
 10
-520.965230333
 20
1089.927270589
 30
0.0
 40
739.2490283800612
100
AcDbArc
 50
1.8190714712
 51
2.357364137
  0
ARC
  5
D0
330
6F
100
AcDbEntity
  8
DV1_Default
 62
     7
100
AcDbCircle
 10
-779.7117084978
 20
1075.6843790736
 30
0.0
 40
998.3713113881465
100
AcDbArc
 50
357.4688267811
 51
359.9033756285
  0
ARC
  5
D1
330
6F
100
AcDbEntity
  8
DV1_Default
 62
     7
100
AcDbCircle
 10
217.3180666074
 20
1113.4874106228
 30
0.0
 40
0.586752187179714
100
AcDbArc
 50
353.0815188361
 51
357.4878087031
  0
ARC
  5
D2
330
6F
100
AcDbEntity
  8
DV1_Default
 62
     7
100
AcDbCircle
 10
178.840566712
 20
1050.9936800748
 30
0.0
 40
20.19999999999999
100
AcDbArc
 50
59.2826403367
 51
64.1580672368
  0
ARC
  5
D3
330
6F
100
AcDbEntity
  8
DV1_Default
 62
     7
100
AcDbCircle
 10
178.840566712
 20
1050.9936800748
 30
0.0
 40
20.2
100
AcDbArc
 50
295.8419327632
 51
313.7047546418
  0
ARC
  5
D4
330
6F
100
AcDbEntity
  8
DV1_Default
 62
     7
100
AcDbCircle
 10
187.5583645991
 20
1032.9936800748
 30
0.0
 40
0.1999999999999988
100
AcDbArc
 50
198.3005778897
 51
295.8419327653
  0
ARC
  5
D5
330
6F
100
AcDbEntity
  8
DV1_Default
 62
     7
100
AcDbCircle
 10
187.5583645991
 20
1068.9936800748
 30
0.0
 40
0.2000000000000082
100
AcDbArc
 50
64.1580672347
 51
161.6994221102
  0
ELLIPSE
  5
D6
330
6F
100
AcDbEntity
  8
DV1_Default
 62
     7
100
AcDbEllipse
 10
136.3583645991
 20
1231.8541017586
 30
0.0
 11
12.4
 21
2.775557561562891E-14
 31
0.0
210
0.0
220
0.0
230
1.0
 40
0.1736481777
 41
0.0
 42
3.14159265358978
  0
ELLIPSE
  5
D7
330
6F
100
AcDbEntity
  8
DV1_Default
 62
     7
100
AcDbEllipse
 10
136.3583645991
 20
1230.8692940056
 30
0.0
 11
12.4
 21
2.775557561562891E-14
 31
0.0
210
0.0
220
0.0
230
1.0
 40
0.1736481777
 41
0.0394183248180502
 42
3.105383249839045
  0
LINE
  5
D8
330
6F
100
AcDbEntity
  8
DV1_Default
 62
     7
100
AcDbLine
 10
148.7583645991
 20
1230.9393363208
 30
0.0
 11
148.7583645991
 21
1231.8541017586
 31
0.0
  0
LINE
  5
D9
330
6F
100
AcDbEntity
  8
DV1_Default
 62
     7
100
AcDbLine
 10
123.9583645991
 20
1231.8541017586
 30
0.0
 11
123.9583645991
 21
1230.932224162
 31
0.0
  0
LINE
  5
DA
330
6F
100
AcDbEntity
  8
DV1_Default
 62
     7
100
AcDbLine
 10
135.8583645991
 20
1090.0427688113
 30
0.0
 11
135.8583645991
 21
1089.9927688113
 31
0.0
  0
LINE
  5
DB
330
6F
100
AcDbEntity
  8
DV1_Default
 62
     7
100
AcDbLine
 10
136.8583645991
 20
1089.9927688113
 30
0.0
 11
136.8583645991
 21
1090.0427688113
 31
0.0
  0
LINE
  5
DC
330
6F
100
AcDbEntity
  8
DV1_Default
 62
     7
100
AcDbLine
 10
148.6083645991
 20
1089.9927688113
 30
0.0
 11
148.6083645991
 21
1090.0427688113
 31
0.0
  0
LINE
  5
DD
330
6F
100
AcDbEntity
  8
DV1_Default
 62
     7
100
AcDbLine
 10
124.1083645991
 20
1090.0427688113
 30
0.0
 11
124.1083645991
 21
1089.9927688113
 31
0.0
  0
LINE
  5
DE
330
6F
100
AcDbEntity
  8
DV1_Default
 62
     7
100
AcDbLine
 10
123.9583645991
 20
1090.0427688113
 30
0.0
 11
148.7583645991
 21
1090.0427688113
 31
0.0
  0
LINE
  5
DF
330
6F
100
AcDbEntity
  8
DV1_Default
 62
     7
100
AcDbLine
 10
123.9583645991
 20
1191.9988057418
 30
0.0
 11
123.9583645991
 21
1090.0427688113
 31
0.0
  0
LINE
  5
E0
330
6F
100
AcDbEntity
  8
DV1_Default
 62
     7
100
AcDbLine
 10
148.7583645991
 20
1090.0427688113
 30
0.0
 11
148.7583645991
 21
1191.960075886
 31
0.0
  0
ARC
  5
E1
330
6F
100
AcDbEntity
  8
DV1_Default
 62
     7
100
AcDbCircle
 10
136.3583645991
 20
1327.6427688113
 30
0.0
 40
12.4
100
AcDbArc
 50
0.0
 51
180.0
  0
LINE
  5
E2
330
6F
100
AcDbEntity
  8
DV1_Default
 62
     7
100
AcDbLine
 10
123.9583645991
 20
1327.6427688113
 30
0.0
 11
123.9583645991
 21
1241.7021792887
 31
0.0
  0
LINE
  5
E3
330
6F
100
AcDbEntity
  8
DV1_Default
 62
     7
100
AcDbLine
 10
148.7583645991
 20
1241.7021792887
 30
0.0
 11
148.7583645991
 21
1327.6427688113
 31
0.0
  0
LINE
  5
E4
330
6F
100
AcDbEntity
  8
DV1_Default
 62
     7
100
AcDbLine
 10
148.7583645991
 20
1231.8541017586
 30
0.0
 11
148.7583645991
 21
1241.7021792887
 31
0.0
  0
LINE
  5
E5
330
6F
100
AcDbEntity
  8
DV1_Default
 62
     7
100
AcDbLine
 10
123.9583645991
 20
1241.7021792887
 30
0.0
 11
123.9583645991
 21
1231.8541017586
 31
0.0
  0
ELLIPSE
  5
E6
330
6F
100
AcDbEntity
  8
DV1_Default
 62
     7
100
AcDbEllipse
 10
136.3583645991
 20
1191.5754646604
 30
0.0
 11
-9.0
 21
0.0
 31
0.0
210
0.0
220
0.0
230
1.0
 40
0.1736481777
 41
0.0
 42
6.283185307179586
  0
ELLIPSE
  5
E7
330
6F
100
AcDbEntity
  8
DV1_Default
 62
     7
100
AcDbEllipse
 10
136.3583645991
 20
1191.5754646604
 30
0.0
 11
5.250000000000002
 21
0.0
 31
0.0
210
0.0
220
0.0
230
1.0
 40
0.1736481777
 41
0.0
 42
6.283185307179586
  0
ELLIPSE
  5
E8
330
6F
100
AcDbEntity
  8
DV1_Default
 62
     7
100
AcDbEllipse
 10
136.3583645991
 20
1191.5754646604
 30
0.0
 11
-6.250000000000001
 21
0.0
 31
0.0
210
0.0
220
0.0
230
1.0
 40
0.1736481777
 41
0.0
 42
6.283185307179586
  0
ELLIPSE
  5
E9
330
6F
100
AcDbEntity
  8
DV1_Default
 62
     7
100
AcDbEllipse
 10
136.3583645991
 20
1191.5754646604
 30
0.0
 11
-2.750000000000001
 21
-2.775557561562891E-14
 31
0.0
210
0.0
220
0.0
230
1.0
 40
0.1736481777
 41
0.0
 42
6.283185307179586
  0
ELLIPSE
  5
EA
330
6F
100
AcDbEntity
  8
DV1_Default
 62
     7
100
AcDbEllipse
 10
136.3583645991
 20
1191.5754646604
 30
0.0
 11
2.150000000000001
 21
0.0
 31
0.0
210
0.0
220
0.0
230
1.0
 40
0.1736481777
 41
0.0
 42
6.283185307179586
  0
ELLIPSE
  5
EB
330
6F
100
AcDbEntity
  8
DV1_Default
 62
     7
100
AcDbEllipse
 10
136.3583645991
 20
1191.772426211
 30
0.0
 11
0.5196299438963558
 21
0.0
 31
0.0
210
0.0
220
0.0
230
1.0
 40
0.1736481777
 41
0.0
 42
6.283185307179586
  0
ELLIPSE
  5
EC
330
6F
100
AcDbEntity
  8
DV1_Default
 62
     7
100
AcDbEllipse
 10
136.3583645991
 20
1191.5754646604
 30
0.0
 11
8.700000000000005
 21
0.0
 31
0.0
210
0.0
220
0.0
230
1.0
 40
0.1736481777
 41
0.0
 42
6.283185307179586
  0
ARC
  5
ED
330
6F
100
AcDbEntity
  8
DV1_Default
 62
     7
100
AcDbCircle
 10
128.1152414783
 20
1191.772426211
 30
0.0
 40
0.256876225979309
100
AcDbArc
 50
176.1238526717
 51
183.8761473283
  0
ARC
  5
EE
330
6F
100
AcDbEntity
  8
DV1_Default
 62
     7
100
AcDbCircle
 10
130.2976010858
 20
1191.772426211
 30
0.0
 40
0.1892348465220835
100
AcDbArc
 50
174.7349422715
 51
180.0
  0
ELLIPSE
  5
EF
330
6F
100
AcDbEntity
  8
DV1_Default
 62
     7
100
AcDbEllipse
 10
136.3583645991
 20
1191.772426211
 30
0.0
 11
-8.50000000003029
 21
-1.304512053934559E-12
 31
0.0
210
0.0
220
0.0
230
1.0
 40
0.1736481777
 41
0.0117649772881121
 42
0.2500344105105875
  0
LINE
  5
F0
330
6F
100
AcDbEntity
  8
DV1_Default
 62
     7
100
AcDbLine
 10
130.1091646503
 20
1191.7897910288
 30
0.0
 11
130.1091646503
 21
1192.0452171594
 31
0.0
  0
LINE
  5
F1
330
6F
100
AcDbEntity
  8
DV1_Default
 62
     7
100
AcDbLine
 10
130.1091646503
 20
1191.7897910288
 30
0.0
 11
127.8589528547
 21
1191.7897910288
 31
0.0
  0
LINE
  5
F2
330
6F
100
AcDbEntity
  8
DV1_Default
 62
     7
100
AcDbLine
 10
130.1083645991
 20
1191.7550613932
 30
0.0
 11
127.8589528547
 21
1191.7550613932
 31
0.0
  0
LINE
  5
F3
330
6F
100
AcDbEntity
  8
DV1_Default
 62
     7
100
AcDbLine
 10
137.6425787752
 20
1191.7165414762
 30
0.0
 11
136.9122272197
 21
1191.9362074631
 31
0.0
  0
LINE
  5
F4
330
6F
100
AcDbEntity
  8
DV1_Default
 62
     7
100
AcDbLine
 10
137.6425787752
 20
1191.8748904156
 30
0.0
 11
137.6425787752
 21
1191.7165414762
 31
0.0
  0
LINE
  5
F5
330
6F
100
AcDbEntity
  8
DV1_Default
 62
     7
100
AcDbLine
 10
137.2095660733
 20
1191.6731294318
 30
0.0
 11
136.877994543
 21
1191.7728553609
 31
0.0
  0
ELLIPSE
  5
F6
330
6F
100
AcDbEntity
  8
DV1_Default
 62
     7
100
AcDbEllipse
 10
136.3583645991
 20
1192.0159672314
 30
0.0
 11
2.150000000001532
 21
-7.771561172376096E-13
 31
0.0
210
0.0
220
0.0
230
1.0
 40
0.1736481777
 41
-1.16374025964551
 42
-0.9306548427470132
  0
ELLIPSE
  5
F7
330
6F
100
AcDbEntity
  8
DV1_Default
 62
     7
100
AcDbEllipse
 10
136.3583645991
 20
1191.772426211
 30
0.0
 11
-8.500000000026468
 21
1.193489751472043E-12
 31
0.0
210
0.0
220
0.0
230
1.0
 40
0.1736481777
 41
6.17127138423624
 42
6.271420329891314
  0
ELLIPSE
  5
F8
330
6F
100
AcDbEntity
  8
DV1_Default
 62
     7
100
AcDbEllipse
 10
136.3583645774
 20
1191.772426212
 30
0.0
 11
-6.249999978293154
 21
-9.846012893888201E-10
 31
0.0
210
0.0
220
0.0
230
1.0
 40
0.1736481779
 41
-0.2778000710498434
 42
-0.245798705501719
  0
LINE
  5
F9
330
6F
100
AcDbEntity
  8
DV1_Default
 62
     7
100
AcDbLine
 10
130.3479828794
 20
1192.0700599769
 30
0.0
 11
130.3479828794
 21
1192.3549508071
 31
0.0
  0
LINE
  5
FA
330
6F
100
AcDbEntity
  8
DV1_Default
 62
     7
100
AcDbLine
 10
130.3479828794
 20
1192.0700599769
 30
0.0
 11
128.343988702
 21
1192.1633035995
 31
0.0
  0
LINE
  5
FB
330
6F
100
AcDbEntity
  8
DV1_Default
 62
     7
100
AcDbLine
 10
130.2962190704
 20
1192.036513725
 30
0.0
 11
128.267699812
 21
1192.1308984724
 31
0.0
  0
ELLIPSE
  5
FC
330
6F
100
AcDbEntity
  8
DV1_Default
 62
     7
100
AcDbEllipse
 10
136.3583646039
 20
1191.7724262106
 30
0.0
 11
-6.250000004833228
 21
3.871625242624077E-10
 31
0.0
210
0.0
220
0.0
230
1.0
 40
0.1736481776
 41
-0.5395994581341101
 42
-0.5075980926576475
  0
LINE
  5
FD
330
6F
100
AcDbEntity
  8
DV1_Default
 62
     7
100
AcDbLine
 10
130.9963986901
 20
1192.3300456758
 30
0.0
 11
130.9963986901
 21
1192.678964259
 31
0.0
  0
LINE
  5
FE
330
6F
100
AcDbEntity
  8
DV1_Default
 62
     7
100
AcDbLine
 10
130.9963986901
 20
1192.3300456758
 30
0.0
 11
129.423618859
 21
1192.4877260108
 31
0.0
  0
LINE
  5
FF
330
6F
100
AcDbEntity
  8
DV1_Default
 62
     7
100
AcDbLine
 10
130.8963986901
 20
1192.2999689292
 30
0.0
 11
129.3039355243
 21
1192.459622633
 31
0.0
  0
ELLIPSE
  5
100
330
6F
100
AcDbEntity
  8
DV1_Default
 62
     7
100
AcDbEllipse
 10
136.358364621
 20
1191.7724262072
 30
0.0
 11
-6.2500000232598
 21
2.774780405445654E-9
 31
0.0
210
0.0
220
0.0
230
1.0
 40
0.1736481777
 41
-0.8013988447850204
 42
-0.7693974793737386
  0
LINE
  5
101
330
6F
100
AcDbEntity
  8
DV1_Default
 62
     7
100
AcDbLine
 10
132.0102236164
 20
1192.5520305297
 30
0.0
 11
132.0102236164
 21
1192.8839894633
 31
0.0
  0
LINE
  5
102
330
6F
100
AcDbEntity
  8
DV1_Default
 62
     7
100
AcDbLine
 10
132.0102236164
 20
1192.5520305297
 30
0.0
 11
130.8775302706
 21
1192.748720665
 31
0.0
  0
LINE
  5
103
330
6F
100
AcDbEntity
  8
DV1_Default
 62
     7
100
AcDbLine
 10
131.8688022602
 20
1192.5274729689
 30
0.0
 11
130.7230148486
 21
1192.7264368649
 31
0.0
  0
ELLIPSE
  5
104
330
6F
100
AcDbEntity
  8
DV1_Default
 62
     7
100
AcDbEllipse
 10
136.3583646279
 20
1191.7724262023
 30
0.0
 11
-6.250000036048723
 21
4.471062409194815E-9
 31
0.0
210
0.0
220
0.0
230
1.0
 40
0.1736481781
 41
-1.063198231744288
 42
-1.031196866401319
  0
LINE
  5
105
330
6F
100
AcDbEntity
  8
DV1_Default
 62
     7
100
AcDbLine
 10
133.3203671651
 20
1192.7208866376
 30
0.0
 11
133.3203671651
 21
1192.9911028369
 31
0.0
  0
LINE
  5
106
330
6F
100
AcDbEntity
  8
DV1_Default
 62
     7
100
AcDbLine
 10
133.3203671651
 20
1192.7208866376
 30
0.0
 11
132.5989224886
 21
1192.937873725
 31
0.0
  0
LINE
  5
107
330
6F
100
AcDbEntity
  8
DV1_Default
 62
     7
100
AcDbLine
 10
133.1471620843
 20
1192.7035218198
 30
0.0
 11
132.4191843633
 21
1192.9224738345
 31
0.0
  0
ELLIPSE
  5
108
330
6F
100
AcDbEntity
  8
DV1_Default
 62
     7
100
AcDbEllipse
 10
136.3583646174
 20
1191.7724261992
 30
0.0
 11
-6.250000037555838
 21
3.165107065328243E-9
 31
0.0
210
0.0
220
0.0
230
1.0
 40
0.1736481785
 41
-1.324997620146734
 42
-1.292996254836233
  0
LINE
  5
109
330
6F
100
AcDbEntity
  8
DV1_Default
 62
     7
100
AcDbLine
 10
134.8375452183
 20
1192.8251067348
 30
0.0
 11
134.8375452183
 21
1193.0629425766
 31
0.0
  0
LINE
  5
10A
330
6F
100
AcDbEntity
  8
DV1_Default
 62
     7
100
AcDbLine
 10
134.8375452183
 20
1192.8251067348
 30
0.0
 11
134.4891007719
 21
1193.0509209744
 31
0.0
  0
LINE
  5
10B
330
6F
100
AcDbEntity
  8
DV1_Default
 62
     7
100
AcDbLine
 10
134.6443600531
 20
1192.8161180437
 30
0.0
 11
134.2941678113
 21
1193.0430649662
 31
0.0
  0
ARC
  5
10C
330
6F
100
AcDbEntity
  8
DV1_Default
 62
     7
100
AcDbCircle
 10
136.3583645991
 20
1156.8698801861
 30
0.0
 40
35.98784714392372
100
AcDbArc
 50
89.8407911065
 51
90.1592088935
  0
LINE
  5
10D
330
6F
100
AcDbEntity
  8
DV1_Default
 62
     7
100
AcDbLine
 10
136.4583645991
 20
1192.857588394
 30
0.0
 11
136.4583645991
 21
1193.086104005
 31
0.0
  0
LINE
  5
10E
330
6F
100
AcDbEntity
  8
DV1_Default
 62
     7
100
AcDbLine
 10
136.2583645991
 20
1192.857588394
 30
0.0
 11
136.2583645991
 21
1193.086104005
 31
0.0
  0
ELLIPSE
  5
10F
330
6F
100
AcDbEntity
  8
DV1_Default
 62
     7
100
AcDbEllipse
 10
136.3583645822
 20
1191.7724262
 30
0.0
 11
6.250000034782332
 21
2.920386155125243E-9
 31
0.0
210
0.0
220
0.0
230
1.0
 40
0.1736481785
 41
1.292996254953447
 42
1.324997620277169
  0
LINE
  5
110
330
6F
100
AcDbEntity
  8
DV1_Default
 62
     7
100
AcDbLine
 10
138.0723691451
 20
1192.8161180437
 30
0.0
 11
138.4225613869
 21
1193.0430649662
 31
0.0
  0
LINE
  5
111
330
6F
100
AcDbEntity
  8
DV1_Default
 62
     7
100
AcDbLine
 10
137.8791839799
 20
1192.8251067348
 30
0.0
 11
138.2276284263
 21
1193.0509209744
 31
0.0
  0
LINE
  5
112
330
6F
100
AcDbEntity
  8
DV1_Default
 62
     7
100
AcDbLine
 10
137.8791839799
 20
1192.8251067348
 30
0.0
 11
137.8791839799
 21
1193.0629425766
 31
0.0
  0
ELLIPSE
  5
113
330
6F
100
AcDbEntity
  8
DV1_Default
 62
     7
100
AcDbEllipse
 10
136.3583645698
 20
1191.7724262022
 30
0.0
 11
6.25000003657331
 21
4.536176989589080E-9
 31
0.0
210
0.0
220
0.0
230
1.0
 40
0.1736481781
 41
1.031196866375245
 42
1.063198231715996
  0
LINE
  5
114
330
6F
100
AcDbEntity
  8
DV1_Default
 62
     7
100
AcDbLine
 10
139.5695671139
 20
1192.7035218198
 30
0.0
 11
140.2975448349
 21
1192.9224738345
 31
0.0
  0
LINE
  5
115
330
6F
100
AcDbEntity
  8
DV1_Default
 62
     7
100
AcDbLine
 10
139.3963620331
 20
1192.7208866376
 30
0.0
 11
140.1178067096
 21
1192.937873725
 31
0.0
  0
LINE
  5
116
330
6F
100
AcDbEntity
  8
DV1_Default
 62
     7
100
AcDbLine
 10
139.3963620331
 20
1192.7208866376
 30
0.0
 11
139.3963620331
 21
1192.9911028369
 31
0.0
  0
ELLIPSE
  5
117
330
6F
100
AcDbEntity
  8
DV1_Default
 62
     7
100
AcDbEllipse
 10
136.3583645951
 20
1191.7724262103
 30
0.0
 11
6.250000004199784
 21
4.987399382372359E-10
 31
0.0
210
0.0
220
0.0
230
1.0
 40
0.1736481777
 41
0.7693974804220636
 42
0.8013988458983462
  0
LINE
  5
118
330
6F
100
AcDbEntity
  8
DV1_Default
 62
     7
100
AcDbLine
 10
140.847926938
 20
1192.5274729689
 30
0.0
 11
141.9937143496
 21
1192.7264368649
 31
0.0
  0
LINE
  5
119
330
6F
100
AcDbEntity
  8
DV1_Default
 62
     7
100
AcDbLine
 10
140.7065055818
 20
1192.5520305297
 30
0.0
 11
141.8391989276
 21
1192.748720665
 31
0.0
  0
LINE
  5
11A
330
6F
100
AcDbEntity
  8
DV1_Default
 62
     7
100
AcDbLine
 10
140.7065055818
 20
1192.5520305297
 30
0.0
 11
140.7065055818
 21
1192.8839894633
 31
0.0
  0
ELLIPSE
  5
11B
330
6F
100
AcDbEntity
  8
DV1_Default
 62
     7
100
AcDbEllipse
 10
136.3583645708
 20
1191.7724262082
 30
0.0
 11
6.250000028610873
 21
2.494116024820414E-9
 31
0.0
210
0.0
220
0.0
230
1.0
 40
0.1736481774
 41
0.5075980916929179
 42
0.5395994570997932
  0
LINE
  5
11C
330
6F
100
AcDbEntity
  8
DV1_Default
 62
     7
100
AcDbLine
 10
141.8203305081
 20
1192.2999689292
 30
0.0
 11
143.4127936738
 21
1192.459622633
 31
0.0
  0
LINE
  5
11D
330
6F
100
AcDbEntity
  8
DV1_Default
 62
     7
100
AcDbLine
 10
141.7203305081
 20
1192.3300456758
 30
0.0
 11
143.2931103392
 21
1192.4877260108
 31
0.0
  0
LINE
  5
11E
330
6F
100
AcDbEntity
  8
DV1_Default
 62
     7
100
AcDbLine
 10
141.7203305081
 20
1192.3300456758
 30
0.0
 11
141.7203305081
 21
1192.678964259
 31
0.0
  0
ELLIPSE
  5
11F
330
6F
100
AcDbEntity
  8
DV1_Default
 62
     7
100
AcDbEllipse
 10
136.3583645684
 20
1191.7724262095
 30
0.0
 11
6.250000030690036
 21
1.442457264744235E-9
 31
0.0
210
0.0
220
0.0
230
1.0
 40
0.1736481773
 41
0.2457987044192489
 42
0.2778000698286082
  0
LINE
  5
120
330
6F
100
AcDbEntity
  8
DV1_Default
 62
     7
100
AcDbLine
 10
142.4205101278
 20
1192.036513725
 30
0.0
 11
144.4490293861
 21
1192.1308984724
 31
0.0
  0
LINE
  5
121
330
6F
100
AcDbEntity
  8
DV1_Default
 62
     7
100
AcDbLine
 10
142.3687463188
 20
1192.0700599769
 30
0.0
 11
144.3727404962
 21
1192.1633035995
 31
0.0
  0
LINE
  5
122
330
6F
100
AcDbEntity
  8
DV1_Default
 62
     7
100
AcDbLine
 10
142.3687463188
 20
1192.0700599769
 30
0.0
 11
142.3687463188
 21
1192.3549508071
 31
0.0
  0
ARC
  5
123
330
6F
100
AcDbEntity
  8
DV1_Default
 62
     7
100
AcDbCircle
 10
144.6014877199
 20
1191.772426211
 30
0.0
 40
0.2568762259794977
100
AcDbArc
 50
356.1238526717
 51
3.8761473283
  0
ELLIPSE
  5
124
330
6F
100
AcDbEntity
  8
DV1_Default
 62
     7
100
AcDbEllipse
 10
136.3583645991
 20
1191.772426211
 30
0.0
 11
8.500000000035403
 21
1.415534356397075E-12
 31
0.0
210
0.0
220
0.0
230
1.0
 40
0.1736481777
 41
0.0117649772882062
 42
0.1119139229432794
  0
ARC
  5
125
330
6F
100
AcDbEntity
  8
DV1_Default
 62
     7
100
AcDbCircle
 10
142.4191281123
 20
1191.772426211
 30
0.0
 40
0.1892348465220819
100
AcDbArc
 50
0.0
 51
5.2650577285
  0
LINE
  5
126
330
6F
100
AcDbEntity
  8
DV1_Default
 62
     7
100
AcDbLine
 10
142.6083645991
 20
1191.7550613932
 30
0.0
 11
144.8577763434
 21
1191.7550613932
 31
0.0
  0
LINE
  5
127
330
6F
100
AcDbEntity
  8
DV1_Default
 62
     7
100
AcDbLine
 10
142.6075645479
 20
1191.7897910288
 30
0.0
 11
144.8577763434
 21
1191.7897910288
 31
0.0
  0
LINE
  5
128
330
6F
100
AcDbEntity
  8
DV1_Default
 62
     7
100
AcDbLine
 10
142.6075645479
 20
1191.7897910288
 30
0.0
 11
142.6075645479
 21
1192.0452171594
 31
0.0
  0
ELLIPSE
  5
129
330
6F
100
AcDbEntity
  8
DV1_Default
 62
     7
100
AcDbEllipse
 10
136.3583649896
 20
1191.7724261929
 30
0.0
 11
8.499999609235827
 21
1.798430848687360E-8
 31
0.0
210
0.0
220
0.0
230
1.0
 40
0.1736481812
 41
-0.273564371681271
 42
-0.2500344165455592
  0
ELLIPSE
  5
12A
330
6F
100
AcDbEntity
  8
DV1_Default
 62
     7
100
AcDbEllipse
 10
136.3583645991
 20
1191.772426211
 30
0.0
 11
8.500000000025572
 21
-1.193489751472043E-12
 31
0.0
210
0.0
220
0.0
230
1.0
 40
0.1736481777
 41
6.03315089666894
 42
6.271420329891597
  0
LINE
  5
12B
330
6F
100
AcDbEntity
  8
DV1_Default
 62
     7
100
AcDbLine
 10
144.5940478157
 20
1191.4072064032
 30
0.0
 11
144.5940478157
 21
1191.7550613932
 31
0.0
  0
LINE
  5
12C
330
6F
100
AcDbEntity
  8
DV1_Default
 62
     7
100
AcDbLine
 10
142.5759943065
 20
1191.4651494264
 30
0.0
 11
144.5422840067
 21
1191.3736601513
 31
0.0
  0
LINE
  5
12D
330
6F
100
AcDbEntity
  8
DV1_Default
 62
     7
100
AcDbLine
 10
142.5933559839
 20
1191.5002963713
 30
0.0
 11
144.5940478157
 21
1191.4072064032
 31
0.0
  0
ELLIPSE
  5
12E
330
6F
100
AcDbEntity
  8
DV1_Default
 62
     7
100
AcDbEllipse
 10
136.3583650077
 20
1191.77242617
 30
0.0
 11
8.499999587160357
 21
3.664360481714368E-8
 31
0.0
210
0.0
220
0.0
230
1.0
 40
0.1736481801
 41
-0.535363765980124
 42
-0.5118338107508595
  0
ELLIPSE
  5
12F
330
6F
100
AcDbEntity
  8
DV1_Default
 62
     7
100
AcDbEllipse
 10
136.3583645991
 20
1191.772426211
 30
0.0
 11
8.500000000024709
 21
-1.998401444325282E-12
 31
0.0
210
0.0
220
0.0
230
1.0
 40
0.1736481777
 41
-0.5118337983094206
 42
-0.2735643650868242
  0
LINE
  5
130
330
6F
100
AcDbEntity
  8
DV1_Default
 62
     7
100
AcDbLine
 10
143.7690710869
 20
1191.049510904
 30
0.0
 11
143.7690710869
 21
1191.4096368894
 31
0.0
  0
LINE
  5
131
330
6F
100
AcDbEntity
  8
DV1_Default
 62
     7
100
AcDbLine
 10
142.1579671886
 20
1191.170931121
 30
0.0
 11
143.6690710869
 21
1191.0194341573
 31
0.0
  0
LINE
  5
132
330
6F
100
AcDbEntity
  8
DV1_Default
 62
     7
100
AcDbLine
 10
142.2303987517
 20
1191.2037717639
 30
0.0
 11
143.7690710869
 21
1191.049510904
 31
0.0
  0
ELLIPSE
  5
133
330
6F
100
AcDbEntity
  8
DV1_Default
 62
     7
100
AcDbEllipse
 10
136.3583649329
 20
1191.7724261531
 30
0.0
 11
8.499999645910652
 21
4.219979921060713E-8
 31
0.0
210
0.0
220
0.0
230
1.0
 40
0.1736481777
 41
-0.7971631557616892
 42
-0.7736332005320161
  0
ELLIPSE
  5
134
330
6F
100
AcDbEntity
  8
DV1_Default
 62
     7
100
AcDbEllipse
 10
136.3583645991
 20
1191.772426211
 30
0.0
 11
8.50000000001498
 21
-1.165734175856415E-12
 31
0.0
210
0.0
220
0.0
230
1.0
 40
0.1736481777
 41
-0.77363318610867
 42
-0.5353637528859494
  0
LINE
  5
135
330
6F
100
AcDbEntity
  8
DV1_Default
 62
     7
100
AcDbLine
 10
142.4390669577
 20
1190.7410808883
 30
0.0
 11
142.4390669577
 21
1191.1427492325
 31
0.0
  0
LINE
  5
136
330
6F
100
AcDbEntity
  8
DV1_Default
 62
     7
100
AcDbLine
 10
141.2462305726
 20
1190.8990996312
 30
0.0
 11
142.2976456015
 21
1190.7165233275
 31
0.0
  0
LINE
  5
137
330
6F
100
AcDbEntity
  8
DV1_Default
 62
     7
100
AcDbLine
 10
141.3693501053
 20
1190.9268352703
 30
0.0
 11
142.4390669577
 21
1190.7410808883
 31
0.0
  0
ELLIPSE
  5
138
330
6F
100
AcDbEntity
  8
DV1_Default
 62
     7
100
AcDbEllipse
 10
136.358364818
 20
1191.7724261451
 30
0.0
 11
8.499999726415128
 21
3.396075087813699E-8
 31
0.0
210
0.0
220
0.0
230
1.0
 40
0.1736481754
 41
-1.058962540638207
 42
-1.035432585456222
  0
ELLIPSE
  5
139
330
6F
100
AcDbEntity
  8
DV1_Default
 62
     7
100
AcDbEllipse
 10
136.3583645991
 20
1191.772426211
 30
0.0
 11
8.500000000017188
 21
-1.443289932012704E-12
 31
0.0
210
0.0
220
0.0
230
1.0
 40
0.1736481777
 41
-1.035432573907626
 42
-0.7971631406850035
  0
LINE
  5
13A
330
6F
100
AcDbEntity
  8
DV1_Default
 62
     7
100
AcDbLine
 10
140.6946730116
 20
1190.5029353519
 30
0.0
 11
140.6946730116
 21
1190.7938755948
 31
0.0
  0
LINE
  5
13B
330
6F
100
AcDbEntity
  8
DV1_Default
 62
     7
100
AcDbLine
 10
139.8791688983
 20
1190.6787531868
 30
0.0
 11
140.5214679309
 21
1190.4855705342
 31
0.0
  0
LINE
  5
13C
330
6F
100
AcDbEntity
  8
DV1_Default
 62
     7
100
AcDbLine
 10
140.0432611528
 20
1190.6988588463
 30
0.0
 11
140.6946730116
 21
1190.5029353519
 31
0.0
  0
ELLIPSE
  5
13D
330
6F
100
AcDbEntity
  8
DV1_Default
 62
     7
100
AcDbEllipse
 10
136.3583647117
 20
1191.7724261382
 30
0.0
 11
8.499999768015117
 21
1.945787975188296E-8
 31
0.0
210
0.0
220
0.0
230
1.0
 40
0.1736481738
 41
-1.320761923387494
 42
-1.297231968209474
  0
ELLIPSE
  5
13E
330
6F
100
AcDbEntity
  8
DV1_Default
 62
     7
100
AcDbEllipse
 10
136.3583645991
 20
1191.772426211
 30
0.0
 11
8.499999999997979
 21
1.387778780781446E-13
 31
0.0
210
0.0
220
0.0
230
1.0
 40
0.1736481777
 41
-1.297231961707775
 42
-1.058962528484778
  0
LINE
  5
13F
330
6F
100
AcDbEntity
  8
DV1_Default
 62
     7
100
AcDbLine
 10
138.6547668133
 20
1190.3513035197
 30
0.0
 11
138.6547668133
 21
1190.5660766627
 31
0.0
  0
LINE
  5
140
330
6F
100
AcDbEntity
  8
DV1_Default
 62
     7
100
AcDbLine
 10
138.1621791537
 20
1190.5363467533
 30
0.0
 11
138.4615816481
 21
1190.3423148286
 31
0.0
  0
LINE
  5
141
330
6F
100
AcDbEntity
  8
DV1_Default
 62
     7
100
AcDbLine
 10
138.3529299347
 20
1190.5469130808
 30
0.0
 11
138.6547668133
 21
1190.3513035197
 31
0.0
  0
ARC
  5
142
330
6F
100
AcDbEntity
  8
DV1_Default
 62
     7
100
AcDbCircle
 10
136.3583645991
 20
1239.2426803257
 30
0.0
 40
48.94626362829068
100
AcDbArc
 50
269.8829413828
 51
270.1170586172
  0
ELLIPSE
  5
143
330
6F
100
AcDbEntity
  8
DV1_Default
 62
     7
100
AcDbEllipse
 10
136.3583645991
 20
1191.772426211
 30
0.0
 11
8.499999999991202
 21
3.608224830031759E-13
 31
0.0
210
0.0
220
0.0
230
1.0
 40
0.1736481777
 41
4.72415395767255
 42
4.962423390895769
  0
LINE
  5
144
330
6F
100
AcDbEntity
  8
DV1_Default
 62
     7
100
AcDbLine
 10
136.2583645991
 20
1190.4903024774
 30
0.0
 11
136.2583645991
 21
1190.2965188503
 31
0.0
  0
LINE
  5
145
330
6F
100
AcDbEntity
  8
DV1_Default
 62
     7
100
AcDbLine
 10
136.4583645991
 20
1190.4903024774
 30
0.0
 11
136.4583645991
 21
1190.2965188503
 31
0.0
  0
ELLIPSE
  5
146
330
6F
100
AcDbEntity
  8
DV1_Default
 62
     7
100
AcDbEllipse
 10
136.3583644855
 20
1191.7724261372
 30
0.0
 11
-8.499999765681528
 21
1.967387364132378E-8
 31
0.0
210
0.0
220
0.0
230
1.0
 40
0.1736481738
 41
1.297231968256984
 42
1.320761923441152
  0
ELLIPSE
  5
147
330
6F
100
AcDbEntity
  8
DV1_Default
 62
     7
100
AcDbEllipse
 10
136.3583645991
 20
1191.772426211
 30
0.0
 11
-8.49999999998877
 21
4.718447854656915E-13
 31
0.0
210
0.0
220
0.0
230
1.0
 40
0.1736481777
 41
1.320761916283853
 42
1.559031349507136
  0
LINE
  5
148
330
6F
100
AcDbEntity
  8
DV1_Default
 62
     7
100
AcDbLine
 10
134.0619623849
 20
1190.3513035197
 30
0.0
 11
134.0619623849
 21
1190.5660766627
 31
0.0
  0
LINE
  5
149
330
6F
100
AcDbEntity
  8
DV1_Default
 62
     7
100
AcDbLine
 10
134.3637992634
 20
1190.5469130808
 30
0.0
 11
134.0619623849
 21
1190.3513035197
 31
0.0
  0
LINE
  5
14A
330
6F
100
AcDbEntity
  8
DV1_Default
 62
     7
100
AcDbLine
 10
134.5545500445
 20
1190.5363467533
 30
0.0
 11
134.2551475501
 21
1190.3423148286
 31
0.0
  0
ELLIPSE
  5
14B
330
6F
100
AcDbEntity
  8
DV1_Default
 62
     7
100
AcDbEllipse
 10
136.3583643638
 20
1191.7724261402
 30
0.0
 11
-8.499999705944909
 21
3.649261448579466E-8
 31
0.0
210
0.0
220
0.0
230
1.0
 40
0.1736481753
 41
1.035432586313517
 42
1.058962541540907
  0
ELLIPSE
  5
14C
330
6F
100
AcDbEntity
  8
DV1_Default
 62
     7
100
AcDbEllipse
 10
136.3583645991
 20
1191.772426211
 30
0.0
 11
-8.500000000000101
 21
-1.387778780781446E-13
 31
0.0
210
0.0
220
0.0
230
1.0
 40
0.1736481777
 41
1.058962528484663
 42
1.297231961707623
  0
LINE
  5
14D
330
6F
100
AcDbEntity
  8
DV1_Default
 62
     7
100
AcDbLine
 10
132.0220561865
 20
1190.5029353519
 30
0.0
 11
132.0220561865
 21
1190.7938755948
 31
0.0
  0
LINE
  5
14E
330
6F
100
AcDbEntity
  8
DV1_Default
 62
     7
100
AcDbLine
 10
132.6734680454
 20
1190.6988588463
 30
0.0
 11
132.0220561865
 21
1190.5029353519
 31
0.0
  0
LINE
  5
14F
330
6F
100
AcDbEntity
  8
DV1_Default
 62
     7
100
AcDbLine
 10
132.8375602998
 20
1190.6787531868
 30
0.0
 11
132.1952612673
 21
1190.4855705342
 31
0.0
  0
ELLIPSE
  5
150
330
6F
100
AcDbEntity
  8
DV1_Default
 62
     7
100
AcDbEllipse
 10
136.3583643136
 20
1191.7724261614
 30
0.0
 11
-8.499999697139847
 21
3.615110988341996E-8
 31
0.0
210
0.0
220
0.0
230
1.0
 40
0.1736481777
 41
0.7736331984383105
 42
0.7971631535735948
  0
ELLIPSE
  5
151
330
6F
100
AcDbEntity
  8
DV1_Default
 62
     7
100
AcDbEllipse
 10
136.3583645991
 20
1191.772426211
 30
0.0
 11
-8.500000000009731
 21
-1.693090112553364E-12
 31
0.0
210
0.0
220
0.0
230
1.0
 40
0.1736481777
 41
0.7971631406852255
 42
1.035432573907975
  0
LINE
  5
152
330
6F
100
AcDbEntity
  8
DV1_Default
 62
     7
100
AcDbLine
 10
130.2776622404
 20
1190.7410808883
 30
0.0
 11
130.2776622404
 21
1191.1427492325
 31
0.0
  0
LINE
  5
153
330
6F
100
AcDbEntity
  8
DV1_Default
 62
     7
100
AcDbLine
 10
131.3473790929
 20
1190.9268352703
 30
0.0
 11
130.2776622404
 21
1190.7410808883
 31
0.0
  0
LINE
  5
154
330
6F
100
AcDbEntity
  8
DV1_Default
 62
     7
100
AcDbLine
 10
131.4704986256
 20
1190.8990996312
 30
0.0
 11
130.4190835967
 21
1190.7165233275
 31
0.0
  0
ELLIPSE
  5
155
330
6F
100
AcDbEntity
  8
DV1_Default
 62
     7
100
AcDbEllipse
 10
136.3583642499
 20
1191.7724261759
 30
0.0
 11
-8.499999647146904
 21
3.132694104124312E-8
 31
0.0
210
0.0
220
0.0
230
1.0
 40
0.1736481797
 41
0.5118338089401888
 42
0.5353637640746388
  0
ELLIPSE
  5
156
330
6F
100
AcDbEntity
  8
DV1_Default
 62
     7
100
AcDbEllipse
 10
136.3583645991
 20
1191.772426211
 30
0.0
 11
-8.500000000041537
 21
-4.912736883966318E-12
 31
0.0
210
0.0
220
0.0
230
1.0
 40
0.1736481777
 41
0.5353637528851696
 42
0.7736331861074426
  0
LINE
  5
157
330
6F
100
AcDbEntity
  8
DV1_Default
 62
     7
100
AcDbLine
 10
128.9476581113
 20
1191.049510904
 30
0.0
 11
128.9476581113
 21
1191.4096368894
 31
0.0
  0
LINE
  5
158
330
6F
100
AcDbEntity
  8
DV1_Default
 62
     7
100
AcDbLine
 10
130.4863304465
 20
1191.2037717639
 30
0.0
 11
128.9476581113
 21
1191.049510904
 31
0.0
  0
LINE
  5
159
330
6F
100
AcDbEntity
  8
DV1_Default
 62
     7
100
AcDbLine
 10
130.5587620096
 20
1191.170931121
 30
0.0
 11
129.0476581113
 21
1191.0194341573
 31
0.0
  0
ELLIPSE
  5
15A
330
6F
100
AcDbEntity
  8
DV1_Default
 62
     7
100
AcDbEllipse
 10
136.3583640773
 20
1191.7724261868
 30
0.0
 11
-8.499999477851247
 21
2.406963517387339E-8
 31
0.0
210
0.0
220
0.0
230
1.0
 40
0.1736481825
 41
0.2500344185753063
 42
0.2735643738991562
  0
ELLIPSE
  5
15B
330
6F
100
AcDbEntity
  8
DV1_Default
 62
     7
100
AcDbEllipse
 10
136.3583645991
 20
1191.772426211
 30
0.0
 11
-8.500000000024754
 21
-1.998401444325282E-12
 31
0.0
210
0.0
220
0.0
230
1.0
 40
0.1736481777
 41
0.2735643650868189
 42
0.5118337983094436
  0
LINE
  5
15C
330
6F
100
AcDbEntity
  8
DV1_Default
 62
     7
100
AcDbLine
 10
128.1226813824
 20
1191.4072064032
 30
0.0
 11
128.1226813824
 21
1191.7550613932
 31
0.0
  0
LINE
  5
15D
330
6F
100
AcDbEntity
  8
DV1_Default
 62
     7
100
AcDbLine
 10
130.1233732143
 20
1191.5002963713
 30
0.0
 11
128.1226813824
 21
1191.4072064032
 31
0.0
  0
LINE
  5
15E
330
6F
100
AcDbEntity
  8
DV1_Default
 62
     7
100
AcDbLine
 10
130.1407348917
 20
1191.4651494264
 30
0.0
 11
128.1744451915
 21
1191.3736601513
 31
0.0
  0
LINE
  5
15F
330
6F
100
AcDbEntity
  8
DV1_Default
 62
     7
100
AcDbLine
 10
133.6139384296
 20
1192.0124813751
 30
0.0
 11
133.6139384296
 21
1191.8028146421
 31
0.0
  0
ELLIPSE
  5
160
330
6F
100
AcDbEntity
  8
DV1_Default
 62
     7
100
AcDbEllipse
 10
136.3583645991
 20
1191.772426211
 30
0.0
 11
2.750000000002432
 21
0.0
 31
0.0
210
0.0
220
0.0
230
1.0
 40
0.1736481777
 41
3.077913261332817
 42
3.141592653589793
  0
LINE
  5
161
330
6F
100
AcDbEntity
  8
DV1_Default
 62
     7
100
AcDbLine
 10
133.6139384296
 20
1191.8028146421
 30
0.0
 11
131.2742375576
 21
1191.8028146421
 31
0.0
  0
LINE
  5
162
330
6F
100
AcDbEntity
  8
DV1_Default
 62
     7
100
AcDbLine
 10
133.6083645991
 20
1191.7420377799
 30
0.0
 11
131.1967439981
 21
1191.7420377799
 31
0.0
  0
LINE
  5
163
330
6F
100
AcDbEntity
  8
DV1_Default
 62
     7
100
AcDbLine
 10
134.0691218175
 20
1192.3958832509
 30
0.0
 11
134.0691218175
 21
1192.0370256658
 31
0.0
  0
ELLIPSE
  5
164
330
6F
100
AcDbEntity
  8
DV1_Default
 62
     7
100
AcDbEllipse
 10
136.3583645992
 20
1191.772426211
 30
0.0
 11
-2.750000000080073
 21
3.358424649491099E-12
 31
0.0
210
0.0
220
0.0
230
1.0
 40
0.1736481777
 41
-0.5872781678468737
 42
-0.4599193833349098
  0
LINE
  5
165
330
6F
100
AcDbEntity
  8
DV1_Default
 62
     7
100
AcDbLine
 10
134.0691218175
 20
1192.0370256658
 30
0.0
 11
132.5022204142
 21
1192.1941166542
 31
0.0
  0
LINE
  5
166
330
6F
100
AcDbEntity
  8
DV1_Default
 62
     7
100
AcDbLine
 10
133.8941218175
 20
1191.9843913592
 30
0.0
 11
132.2694535761
 21
1192.1472738094
 31
0.0
  0
LINE
  5
167
330
6F
100
AcDbEntity
  8
DV1_Default
 62
     7
100
AcDbLine
 10
135.13770596
 20
1192.462133621
 30
0.0
 11
135.13770596
 21
1192.2003374793
 31
0.0
  0
ELLIPSE
  5
168
330
6F
100
AcDbEntity
  8
DV1_Default
 62
     7
100
AcDbEllipse
 10
136.3583645991
 20
1191.772426211
 30
0.0
 11
-2.750000000058291
 21
7.355227538141662E-12
 31
0.0
210
0.0
220
0.0
230
1.0
 40
0.1736481777
 41
-1.110876943444667
 42
-0.9835181589327799
  0
LINE
  5
169
330
6F
100
AcDbEntity
  8
DV1_Default
 62
     7
100
AcDbLine
 10
135.13770596
 20
1192.2003374793
 30
0.0
 11
134.4024251894
 21
1192.4214860138
 31
0.0
  0
LINE
  5
16A
330
6F
100
AcDbEntity
  8
DV1_Default
 62
     7
100
AcDbLine
 10
134.8345970687
 20
1192.1699490483
 30
0.0
 11
134.0802899265
 21
1192.3968200963
 31
0.0
  0
ARC
  5
16B
330
6F
100
AcDbEntity
  8
DV1_Default
 62
     7
100
AcDbCircle
 10
136.3583645991
 20
1176.4444703958
 30
0.0
 40
15.80548925698495
100
AcDbArc
 50
89.3656022836
 51
90.6343977164
  0
LINE
  5
16C
330
6F
100
AcDbEntity
  8
DV1_Default
 62
     7
100
AcDbLine
 10
136.5333645991
 20
1192.2489908141
 30
0.0
 11
136.5333645991
 21
1192.4866109785
 31
0.0
  0
LINE
  5
16D
330
6F
100
AcDbEntity
  8
DV1_Default
 62
     7
100
AcDbLine
 10
136.1833645991
 20
1192.2489908141
 30
0.0
 11
136.1833645991
 21
1192.4866109785
 31
0.0
  0
ELLIPSE
  5
16E
330
6F
100
AcDbEntity
  8
DV1_Default
 62
     7
100
AcDbEllipse
 10
136.3583645991
 20
1191.772426211
 30
0.0
 11
2.749999999998534
 21
-1.387778780781446E-13
 31
0.0
210
0.0
220
0.0
230
1.0
 40
0.1736481777
 41
0.9835181589398205
 42
1.110876943453915
  0
LINE
  5
16F
330
6F
100
AcDbEntity
  8
DV1_Default
 62
     7
100
AcDbLine
 10
137.5790232382
 20
1192.462133621
 30
0.0
 11
137.5790232382
 21
1192.2003374793
 31
0.0
  0
LINE
  5
170
330
6F
100
AcDbEntity
  8
DV1_Default
 62
     7
100
AcDbLine
 10
137.8821321295
 20
1192.1699490483
 30
0.0
 11
138.6364392717
 21
1192.3968200963
 31
0.0
  0
LINE
  5
171
330
6F
100
AcDbEntity
  8
DV1_Default
 62
     7
100
AcDbLine
 10
137.5790232382
 20
1192.2003374793
 30
0.0
 11
138.3143040088
 21
1192.4214860138
 31
0.0
  0
ELLIPSE
  5
172
330
6F
100
AcDbEntity
  8
DV1_Default
 62
     7
100
AcDbEllipse
 10
136.3583645991
 20
1191.772426211
 30
0.0
 11
2.749999999995302
 21
1.942890293094024E-12
 31
0.0
210
0.0
220
0.0
230
1.0
 40
0.1736481777
 41
0.459919383341572
 42
0.5872781678556948
  0
LINE
  5
173
330
6F
100
AcDbEntity
  8
DV1_Default
 62
     7
100
AcDbLine
 10
138.6476073807
 20
1192.3958832509
 30
0.0
 11
138.6476073807
 21
1192.0370256658
 31
0.0
  0
LINE
  5
174
330
6F
100
AcDbEntity
  8
DV1_Default
 62
     7
100
AcDbLine
 10
138.8226073807
 20
1191.9843913592
 30
0.0
 11
140.447275622
 21
1192.1472738094
 31
0.0
  0
LINE
  5
175
330
6F
100
AcDbEntity
  8
DV1_Default
 62
     7
100
AcDbLine
 10
138.6476073807
 20
1192.0370256658
 30
0.0
 11
140.214508784
 21
1192.1941166542
 31
0.0
  0
ELLIPSE
  5
176
330
6F
100
AcDbEntity
  8
DV1_Default
 62
     7
100
AcDbEllipse
 10
136.3583645991
 20
1191.772426211
 30
0.0
 11
-2.750000000010395
 21
0.0
 31
0.0
210
0.0
220
0.0
230
1.0
 40
0.1736481777
 41
3.141592653589793
 42
3.205272045846867
  0
LINE
  5
177
330
6F
100
AcDbEntity
  8
DV1_Default
 62
     7
100
AcDbLine
 10
139.1027907686
 20
1192.0124813751
 30
0.0
 11
139.1027907686
 21
1191.8028146421
 31
0.0
  0
LINE
  5
178
330
6F
100
AcDbEntity
  8
DV1_Default
 62
     7
100
AcDbLine
 10
139.1083645991
 20
1191.7420377799
 30
0.0
 11
141.5199852001
 21
1191.7420377799
 31
0.0
  0
LINE
  5
179
330
6F
100
AcDbEntity
  8
DV1_Default
 62
     7
100
AcDbLine
 10
139.1027907686
 20
1191.8028146421
 30
0.0
 11
141.4424916405
 21
1191.8028146421
 31
0.0
  0
ELLIPSE
  5
17A
330
6F
100
AcDbEntity
  8
DV1_Default
 62
     7
100
AcDbEllipse
 10
136.3583645996
 20
1191.7724262109
 30
0.0
 11
5.249999999465013
 21
5.229150445984487E-11
 31
0.0
210
0.0
220
0.0
230
1.0
 40
0.1736481777
 41
-0.5569382848885231
 42
-0.4902592663620116
  0
LINE
  5
17B
330
6F
100
AcDbEntity
  8
DV1_Default
 62
     7
100
AcDbLine
 10
139.038650169
 20
1191.4686224399
 30
0.0
 11
140.8149713595
 21
1191.2905358986
 31
0.0
  0
LINE
  5
17C
330
6F
100
AcDbEntity
  8
DV1_Default
 62
     7
100
AcDbLine
 10
139.0974232031
 20
1191.5329091766
 30
0.0
 11
140.9899713595
 21
1191.3431702052
 31
0.0
  0
LINE
  5
17D
330
6F
100
AcDbEntity
  8
DV1_Default
 62
     7
100
AcDbLine
 10
140.9899713595
 20
1191.7420377799
 30
0.0
 11
140.9899713595
 21
1191.3431702052
 31
0.0
  0
ELLIPSE
  5
17E
330
6F
100
AcDbEntity
  8
DV1_Default
 62
     7
100
AcDbEllipse
 10
136.3583645988
 20
1191.7724262111
 30
0.0
 11
5.250000000420864
 21
-5.095923683029469E-11
 31
0.0
210
0.0
220
0.0
230
1.0
 40
0.1736481777
 41
-1.08053706042616
 42
-1.013858041907824
  0
LINE
  5
17F
330
6F
100
AcDbEntity
  8
DV1_Default
 62
     7
100
AcDbLine
 10
138.0589071877
 20
1191.200181463
 30
0.0
 11
138.8303514148
 21
1190.9681561374
 31
0.0
  0
LINE
  5
180
330
6F
100
AcDbEntity
  8
DV1_Default
 62
     7
100
AcDbLine
 10
138.325051518
 20
1191.2416876314
 30
0.0
 11
139.1334603061
 21
1190.9985445685
 31
0.0
  0
LINE
  5
181
330
6F
100
AcDbEntity
  8
DV1_Default
 62
     7
100
AcDbLine
 10
139.1334603061
 20
1191.4591171717
 30
0.0
 11
139.1334603061
 21
1190.9985445685
 31
0.0
  0
ARC
  5
182
330
6F
100
AcDbEntity
  8
DV1_Default
 62
     7
100
AcDbCircle
 10
136.3583645991
 20
1221.0780238476
 30
0.0
 40
30.21725070590837
100
AcDbArc
 50
269.6681757198
 51
270.3318242802
  0
LINE
  5
183
330
6F
100
AcDbEntity
  8
DV1_Default
 62
     7
100
AcDbLine
 10
136.1833645991
 20
1191.0989000573
 30
0.0
 11
136.1833645991
 21
1190.8612798929
 31
0.0
  0
LINE
  5
184
330
6F
100
AcDbEntity
  8
DV1_Default
 62
     7
100
AcDbLine
 10
136.5333645991
 20
1191.0989000573
 30
0.0
 11
136.5333645991
 21
1190.8612798929
 31
0.0
  0
ELLIPSE
  5
185
330
6F
100
AcDbEntity
  8
DV1_Default
 62
     7
100
AcDbEllipse
 10
136.3583645973
 20
1191.7724262105
 30
0.0
 11
-5.24999999779866
 21
2.748634653215731E-10
 31
0.0
210
0.0
220
0.0
230
1.0
 40
0.1736481776
 41
1.013858042079018
 42
1.080537060623992
  0
LINE
  5
186
330
6F
100
AcDbEntity
  8
DV1_Default
 62
     7
100
AcDbLine
 10
134.3916776802
 20
1191.2416876314
 30
0.0
 11
133.5832688921
 21
1190.9985445685
 31
0.0
  0
LINE
  5
187
330
6F
100
AcDbEntity
  8
DV1_Default
 62
     7
100
AcDbLine
 10
134.6578220105
 20
1191.200181463
 30
0.0
 11
133.8863777834
 21
1190.9681561374
 31
0.0
  0
LINE
  5
188
330
6F
100
AcDbEntity
  8
DV1_Default
 62
     7
100
AcDbLine
 10
133.5832688921
 20
1191.4591171717
 30
0.0
 11
133.5832688921
 21
1190.9985445685
 31
0.0
  0
ELLIPSE
  5
189
330
6F
100
AcDbEntity
  8
DV1_Default
 62
     7
100
AcDbEllipse
 10
136.3583645982
 20
1191.7724262109
 30
0.0
 11
-5.249999999079108
 21
8.659739592076222E-11
 31
0.0
210
0.0
220
0.0
230
1.0
 40
0.1736481777
 41
0.4902592663800309
 42
0.5569382849092919
  0
LINE
  5
18A
330
6F
100
AcDbEntity
  8
DV1_Default
 62
     7
100
AcDbLine
 10
133.6193059951
 20
1191.5329091766
 30
0.0
 11
131.7267578387
 21
1191.3431702052
 31
0.0
  0
LINE
  5
18B
330
6F
100
AcDbEntity
  8
DV1_Default
 62
     7
100
AcDbLine
 10
133.6780790292
 20
1191.4686224399
 30
0.0
 11
131.9017578387
 21
1191.2905358986
 31
0.0
  0
LINE
  5
18C
330
6F
100
AcDbEntity
  8
DV1_Default
 62
     7
100
AcDbLine
 10
131.7267578387
 20
1191.7420377799
 30
0.0
 11
131.7267578387
 21
1191.3431702052
 31
0.0
  0
LINE
  5
18D
330
6F
100
AcDbEntity
  8
DV1_Default
 62
     7
100
AcDbLine
 10
127.3583645991
 20
1192.1949890135
 30
0.0
 11
127.3583645991
 21
1191.5754646604
 31
0.0
  0
LINE
  5
18E
330
6F
100
AcDbEntity
  8
DV1_Default
 62
     7
100
AcDbLine
 10
145.3583645991
 20
1191.5754646604
 30
0.0
 11
145.3583645991
 21
1192.1949890135
 31
0.0
  0
LINE
  5
18F
330
6F
100
AcDbEntity
  8
DV1_Default
 62
     7
100
AcDbLine
 10
130.1083645991
 20
1191.772426211
 30
0.0
 11
130.1083645991
 21
1191.5754646604
 31
0.0
  0
LINE
  5
190
330
6F
100
AcDbEntity
  8
DV1_Default
 62
     7
100
AcDbLine
 10
142.6083645991
 20
1191.5754646604
 30
0.0
 11
142.6083645991
 21
1191.772426211
 31
0.0
  0
LINE
  5
191
330
6F
100
AcDbEntity
  8
DV1_Default
 62
     7
100
AcDbLine
 10
133.6083645991
 20
1191.772426211
 30
0.0
 11
133.6083645991
 21
1191.5754646604
 31
0.0
  0
LINE
  5
192
330
6F
100
AcDbEntity
  8
DV1_Default
 62
     7
100
AcDbLine
 10
139.1083645991
 20
1191.5754646604
 30
0.0
 11
139.1083645991
 21
1191.772426211
 31
0.0
  0
LINE
  5
193
330
6F
100
AcDbEntity
  8
DV1_Default
 62
     7
100
AcDbLine
 10
135.8387346552
 20
1191.9377400712
 30
0.0
 11
135.8387346552
 21
1191.772426211
 31
0.0
  0
LINE
  5
194
330
6F
100
AcDbEntity
  8
DV1_Default
 62
     7
100
AcDbLine
 10
136.877994543
 20
1191.772426211
 30
0.0
 11
136.877994543
 21
1191.9377400712
 31
0.0
  0
ARC
  5
195
330
6F
100
AcDbEntity
  8
DV1_Default
 62
     7
100
AcDbCircle
 10
244.0097080543
 20
1110.6230560794
 30
0.0
 40
29.55651746774965
100
AcDbArc
 50
185.6787838945
 51
186.6835395242
  0
ARC
  5
196
330
6F
100
AcDbEntity
  8
DV1_Default
 62
     7
100
AcDbCircle
 10
216.4294262604
 20
1120.4023782201
 30
0.0
 40
0.3424999010130463
100
AcDbArc
 50
96.7208972298
 51
163.6069632637
  0
ARC
  5
197
330
6F
100
AcDbEntity
  8
DV1_Default
 62
     7
100
AcDbCircle
 10
217.0761696787
 20
1120.1235302906
 30
0.0
 40
0.6189601875735334
100
AcDbArc
 50
19.8967807022
 51
90.0
  0
ARC
  5
198
330
6F
100
AcDbEntity
  8
DV1_Default
 62
     7
100
AcDbCircle
 10
217.082611126
 20
1031.5664108029
 30
0.0
 40
0.6035310419699915
100
AcDbArc
 50
270.0329664543
 51
2.5736599889
  0
ARC
  5
199
330
6F
100
AcDbEntity
  8
DV1_Default
 62
     7
100
AcDbCircle
 10
224.1741592115
 20
1073.7404860182
 30
0.0
 40
12.64887708158618
100
AcDbArc
 50
158.0362056328
 51
170.5668275052
  0
LINE
  5
19A
330
6F
100
AcDbEntity
  8
DV1_Default
 62
     7
100
AcDbLine
 10
156.3583641521
 20
982.9927688113
 30
0.0
 11
116.3583650461
 21
982.9927688113
 31
0.0
  0
LINE
  5
19B
330
6F
100
AcDbEntity
  8
DV1_Default
 62
     7
100
AcDbLine
 10
136.3583645991
 20
1002.9927683643
 30
0.0
 11
136.3583645991
 21
962.9927692584
 31
0.0
  0
ENDBLK
  5
19D
330
6F
100
AcDbEntity
  8
0
100
AcDbBlockEnd
  0
BLOCK
  5
1D4
330
19E
100
AcDbEntity
  8
0
100
AcDbBlockBegin
  2
SE1
 70
     0
 10
0.0
 20
0.0
 30
0.0
  3
SE1
  1

  0
LINE
  5
1A1
330
19E
100
AcDbEntity
  8
DV2_Default
 62
     7
100
AcDbLine
 10
311.8883722809
 20
982.9927688113
 30
0.0
 11
359.8883722809
 21
982.9927688113
 31
0.0
  0
LINE
  5
1A2
330
19E
100
AcDbEntity
  8
DV2_Default
 62
     7
100
AcDbLine
 10
315.5883722809
 20
1089.9927688113
 30
0.0
 11
356.1883722809
 21
1089.9927688113
 31
0.0
  0
LINE
  5
1A3
330
19E
100
AcDbEntity
  8
DV2_Default
 62
     7
100
AcDbLine
 10
312.582263706
 20
986.9988243101
 30
0.0
 11
359.1944808557
 21
986.9988243101
 31
0.0
  0
ARC
  5
1A4
330
19E
100
AcDbEntity
  8
DV2_Default
 62
     7
100
AcDbCircle
 10
315.5883722809
 20
1089.2927688113
 30
0.0
 40
0.7000000000000062
100
AcDbArc
 50
90.0
 51
180.0
  0
ARC
  5
1A5
330
19E
100
AcDbEntity
  8
DV2_Default
 62
     7
100
AcDbCircle
 10
356.1883722809
 20
1089.2927688113
 30
0.0
 40
0.6999999999999993
100
AcDbArc
 50
0.0
 51
90.0
  0
LINE
  5
1A6
330
19E
100
AcDbEntity
  8
DV2_Default
 62
     7
100
AcDbLine
 10
359.8883722809
 20
982.9927688113
 30
0.0
 11
359.8883722809
 21
986.2988509639
 31
0.0
  0
LINE
  5
1A7
330
19E
100
AcDbEntity
  8
DV2_Default
 62
     7
100
AcDbLine
 10
311.8883722809
 20
986.2988509639
 30
0.0
 11
311.8883722809
 21
982.9927688113
 31
0.0
  0
LINE
  5
1A8
330
19E
100
AcDbEntity
  8
DV2_Default
 62
     7
100
AcDbLine
 10
356.8883722809
 20
988.5059162306
 30
0.0
 11
356.8883722809
 21
1089.2927688113
 31
0.0
  0
LINE
  5
1A9
330
19E
100
AcDbEntity
  8
DV2_Default
 62
     7
100
AcDbLine
 10
314.8883722809
 20
1089.2927688113
 30
0.0
 11
314.8883722809
 21
988.5059162306
 31
0.0
  0
LINE
  5
1AA
330
19E
100
AcDbEntity
  8
DV2_Default
 62
     7
100
AcDbLine
 10
359.1944808557
 20
986.9988243101
 30
0.0
 11
358.3752824776
 21
987.005973346
 31
0.0
  0
LINE
  5
1AB
330
19E
100
AcDbEntity
  8
DV2_Default
 62
     7
100
AcDbLine
 10
313.4014620841
 20
987.005973346
 30
0.0
 11
312.582263706
 21
986.9988243101
 31
0.0
  0
ARC
  5
1AC
330
19E
100
AcDbEntity
  8
DV2_Default
 62
     7
100
AcDbCircle
 10
358.3883722809
 20
988.5059162306
 30
0.0
 40
1.499999999999999
100
AcDbArc
 50
180.0
 51
269.5
  0
ARC
  5
1AD
330
19E
100
AcDbEntity
  8
DV2_Default
 62
     7
100
AcDbCircle
 10
313.3883722809
 20
988.5059162306
 30
0.0
 40
1.500000000000001
100
AcDbArc
 50
270.5
 51
0.0
  0
ARC
  5
1AE
330
19E
100
AcDbEntity
  8
DV2_Default
 62
     7
100
AcDbCircle
 10
312.5883722809
 20
986.2988509639
 30
0.0
 40
0.699999999999998
100
AcDbArc
 50
90.5
 51
180.0
  0
ARC
  5
1AF
330
19E
100
AcDbEntity
  8
DV2_Default
 62
     7
100
AcDbCircle
 10
359.1883722809
 20
986.2988509639
 30
0.0
 40
0.6999999999999993
100
AcDbArc
 50
0.0
 51
89.5
  0
LINE
  5
1B0
330
19E
100
AcDbEntity
  8
DV2_Default
 62
     7
100
AcDbLine
 10
562.4897248148
 20
1193.4739379283
 30
0.0
 11
539.8391464955
 21
1189.4800298419
 31
0.0
  0
LINE
  5
1B1
330
19E
100
AcDbEntity
  8
DV2_Default
 62
     7
100
AcDbLine
 10
531.9605060891
 20
1228.4032494588
 30
0.0
 11
538.6806905648
 21
1190.2911894173
 31
0.0
  0
LINE
  5
1B2
330
19E
100
AcDbEntity
  8
DV2_Default
 62
     7
100
AcDbLine
 10
563.3008843901
 20
1194.6323938589
 30
0.0
 11
556.5806999144
 21
1232.7444539005
 31
0.0
  0
ARC
  5
1B3
330
19E
100
AcDbEntity
  8
DV2_Default
 62
     7
100
AcDbCircle
 10
532.255948415
 20
1228.4553439121
 30
0.0
 40
0.3000000000000074
100
AcDbArc
 50
100.0
 51
190.0
  0
ARC
  5
1B4
330
19E
100
AcDbEntity
  8
DV2_Default
 62
     7
100
AcDbCircle
 10
556.2852575885
 20
1232.6923594472
 30
0.0
 40
0.2999999999999799
100
AcDbArc
 50
10.0
 51
100.0
  0
ARC
  5
1B5
330
19E
100
AcDbEntity
  8
DV2_Default
 62
     7
100
AcDbCircle
 10
562.3160766371
 20
1194.4587456813
 30
0.0
 40
0.9999999999999729
100
AcDbArc
 50
280.0
 51
10.0
  0
ARC
  5
1B6
330
19E
100
AcDbEntity
  8
DV2_Default
 62
     7
100
AcDbCircle
 10
539.6654983178
 20
1190.4648375949
 30
0.0
 40
0.9999999999999777
100
AcDbArc
 50
190.0
 51
280.0
  0
ARC
  5
1B7
330
19E
100
AcDbEntity
  8
DV2_Default
 62
     7
100
AcDbCircle
 10
282.0084787394
 20
1083.4707121612
 30
0.0
 40
82.89116060326484
100
AcDbArc
 50
334.6505073489
 51
335.6912773543
  0
LINE
  5
1B8
330
19E
100
AcDbEntity
  8
DV2_Default
 62
     7
100
AcDbLine
 10
348.2883722809
 20
1104.5580780362
 30
0.0
 11
355.750699234
 21
1115.3389893606
 31
0.0
  0
SPLINE
  5
1B9
330
19E
100
AcDbEntity
  8
DV2_Default
 62
     7
100
AcDbSpline
210
0.0
220
0.0
230
1.0
 70
     8
 71
     3
 72
    38
 73
    34
 74
     0
 42
0.000000001
 43
0.0000000001
 40
0.0
 40
0.0
 40
0.0
 40
0.0
 40
0.0625000000000004
 40
0.0625000000000004
 40
0.1250000000000008
 40
0.1250000000000008
 40
0.156250000000001
 40
0.156250000000001
 40
0.1875000000000012
 40
0.1875000000000012
 40
0.2500000000000009
 40
0.2500000000000009
 40
0.3125000000000007
 40
0.3125000000000007
 40
0.3750000000000005
 40
0.3750000000000005
 40
0.5
 40
0.5
 40
0.6249999999999996
 40
0.6249999999999996
 40
0.6874999999999993
 40
0.6874999999999993
 40
0.7499999999999992
 40
0.7499999999999992
 40
0.812499999999999
 40
0.812499999999999
 40
0.8437499999999989
 40
0.8437499999999989
 40
0.8749999999999988
 40
0.8749999999999988
 40
0.9374999999999993
 40
0.9374999999999993
 40
1.0
 40
1.0
 40
1.0
 40
1.0
 10
355.7506992340371
 20
1115.338989360632
 30
0.0
 10
356.2484833650108
 20
1116.058143936465
 30
0.0
 10
356.7447754627179
 20
1116.779374361485
 30
0.0
 10
357.7838697323605
 20
1118.184398156031
 30
0.0
 10
358.319768361009
 20
1118.87248976879
 30
0.0
 10
359.2756650674092
 20
1119.770561223319
 30
0.0
 10
359.627079060068
 20
1120.048318165353
 30
0.0
 10
360.3922408382329
 20
1120.476513339541
 30
0.0
 10
360.8184108029187
 20
1120.627349903002
 30
0.0
 10
362.1109880745743
 20
1120.829681216109
 30
0.0
 10
363.0018872387869
 20
1120.6617083851
 30
0.0
 10
364.6812769092214
 20
1120.170412850661
 30
0.0
 10
365.4994666493447
 20
1119.840183410793
 30
0.0
 10
367.1108129887335
 20
1119.143451535587
 30
0.0
 10
367.9073280199053
 20
1118.772650617997
 30
0.0
 10
370.2785789531936
 20
1117.625148565088
 30
0.0
 10
371.8320765568191
 20
1116.802480195953
 30
0.0
 10
374.8742600701547
 20
1115.047198969393
 30
0.0
 10
376.3635986739013
 20
1114.114228765308
 30
0.0
 10
378.5435658924642
 20
1112.635819171341
 30
0.0
 10
379.2631962956996
 20
1112.131718757331
 30
0.0
 10
380.6736269033029
 20
1111.085721842993
 30
0.0
 10
381.3684842600447
 20
1110.544152866719
 30
0.0
 10
382.6402192337305
 20
1109.337122245027
 30
0.0
 10
383.2335556718368
 20
1108.655237344322
 30
0.0
 10
383.7176742218896
 20
1107.439205055344
 30
0.0
 10
383.8057737004023
 20
1106.994345033088
 30
0.0
 10
383.8253535252891
 20
1106.113813738483
 30
0.0
 10
383.7650141755026
 20
1105.67986894148
 30
0.0
 10
383.4689876745809
 20
1104.388397488138
 30
0.0
 10
383.1384026362744
 20
1103.572664586004
 30
0.0
 10
382.4367272522793
 20
1101.957923686544
 30
0.0
 10
382.0581620270904
 20
1101.163294395527
 30
0.0
 10
381.6818796290011
 20
1100.367615379196
 30
0.0
  0
LINE
  5
1BA
330
19E
100
AcDbEntity
  8
DV2_Default
 62
     7
100
AcDbLine
 10
364.5171139606
 20
1064.0713550918
 30
0.0
 11
364.4921903375
 21
1064.0186521112
 31
0.0
  0
LINE
  5
1BB
330
19E
100
AcDbEntity
  8
DV2_Default
 62
     7
100
AcDbLine
 10
381.681879629
 20
1100.3676153792
 30
0.0
 11
364.5171139606
 21
1064.0713550918
 31
0.0
  0
ARC
  5
1BC
330
19E
100
AcDbEntity
  8
DV2_Default
 62
     7
100
AcDbCircle
 10
-1573.2446105142
 20
1971.9285064716
 30
0.0
 40
2139.88883193018
100
AcDbArc
 50
334.460411279
 51
334.8949661685
  0
LINE
  5
1BD
330
19E
100
AcDbEntity
  8
DV2_Default
 62
     7
100
AcDbLine
 10
375.5419844166
 20
1102.8365494483
 30
0.0
 11
360.9901569612
 21
1073.4468315693
 31
0.0
  0
LINE
  5
1BE
330
19E
100
AcDbEntity
  8
DV2_Default
 62
     7
100
AcDbLine
 10
360.9901569612
 20
1073.4468315693
 30
0.0
 11
360.9839754733
 21
1073.4343556164
 31
0.0
  0
SPLINE
  5
1BF
330
19E
100
AcDbEntity
  8
DV2_Default
 62
     7
100
AcDbSpline
210
0.0
220
0.0
230
1.0
 70
     8
 71
     3
 72
    20
 73
    16
 74
     0
 42
0.000000001
 43
0.0000000001
 40
0.0
 40
0.0
 40
0.0
 40
0.0
 40
0.2499999999999912
 40
0.2499999999999912
 40
0.3749999999999884
 40
0.3749999999999884
 40
0.4999999999999857
 40
0.4999999999999857
 40
0.5624999999999841
 40
0.5624999999999841
 40
0.6249999999999826
 40
0.6249999999999826
 40
0.7499999999999885
 40
0.7499999999999885
 40
1.0
 40
1.0
 40
1.0
 40
1.0
 10
374.6541357956432
 20
1106.571141497528
 30
0.0
 10
374.9453057513405
 20
1106.354555516478
 30
0.0
 10
375.2257897237535
 20
1106.127184911145
 30
0.0
 10
375.5979566760495
 20
1105.737113791517
 30
0.0
 10
375.7134857526017
 20
1105.598483437638
 30
0.0
 10
375.9102230153147
 20
1105.286579720588
 30
0.0
 10
375.9862793589758
 20
1105.118246684576
 30
0.0
 10
376.0514375230569
 20
1104.851142476232
 30
0.0
 10
376.0652842579647
 20
1104.758352166701
 30
0.0
 10
376.0769416265809
 20
1104.574594103645
 30
0.0
 10
376.0751080677609
 20
1104.483030972582
 30
0.0
 10
376.051308675598
 20
1104.209096150523
 30
0.0
 10
376.0108543459661
 20
1104.026821343879
 30
0.0
 10
375.8540061078051
 20
1103.500204383073
 30
0.0
 10
375.7049920309129
 20
1103.165760238699
 30
0.0
 10
375.541984416631
 20
1102.836549448318
 30
0.0
  0
ARC
  5
1C0
330
19E
100
AcDbEntity
  8
DV2_Default
 62
     7
100
AcDbCircle
 10
344.7791225997
 20
1066.3994479884
 30
0.0
 40
50.06277432233576
100
AcDbArc
 50
53.36243852
 51
59.996259176
  0
ARC
  5
1C1
330
19E
100
AcDbEntity
  8
DV2_Default
 62
     7
100
AcDbCircle
 10
344.7848850398
 20
1066.3963623193
 30
0.0
 40
50.06256536991017
100
AcDbArc
 50
60.0037363617
 51
66.6375854288
  0
SPLINE
  5
1C2
330
19E
100
AcDbEntity
  8
DV2_Default
 62
     7
100
AcDbSpline
210
0.0
220
0.0
230
1.0
 70
     8
 71
     3
 72
    20
 73
    16
 74
     0
 42
0.000000001
 43
0.0000000001
 40
0.0
 40
0.0
 40
0.0
 40
0.0
 40
0.2500000000000012
 40
0.2500000000000012
 40
0.3750000000000018
 40
0.3750000000000018
 40
0.5000000000000023
 40
0.5000000000000023
 40
0.5625000000000064
 40
0.5625000000000064
 40
0.6250000000000104
 40
0.6250000000000104
 40
0.7500000000000102
 40
0.7500000000000102
 40
1.0
 40
1.0
 40
1.0
 40
1.0
 10
364.6369834646039
 20
1112.354545916385
 30
0.0
 10
364.303817797619
 20
1112.498417532875
 30
0.0
 10
363.9666536228772
 20
1112.627642458984
 30
0.0
 10
363.4427270005153
 20
1112.754909161026
 30
0.0
 10
363.2648925390596
 20
1112.785642290307
 30
0.0
 10
362.8963730320408
 20
1112.800052914014
 30
0.0
 10
362.712604153071
 20
1112.781746145819
 30
0.0
 10
362.4486972991353
 20
1112.704606659435
 30
0.0
 10
362.3614149433022
 20
1112.670197518938
 30
0.0
 10
362.1964636243155
 20
1112.588414429192
 30
0.0
 10
362.1180889905603
 20
1112.541045178572
 30
0.0
 10
361.8927610898
 20
1112.383464595725
 30
0.0
 10
361.7551379724118
 20
1112.257293492346
 30
0.0
 10
361.3775212801002
 20
1111.858170664419
 30
0.0
 10
361.1623991255292
 20
1111.561912550979
 30
0.0
 10
360.9588059050488
 20
1111.25615041132
 30
0.0
  0
LINE
  5
1C3
330
19E
100
AcDbEntity
  8
DV2_Default
 62
     7
100
AcDbLine
 10
360.958805905
 20
1111.2561504113
 30
0.0
 11
348.2883722809
 21
1092.2277621799
 31
0.0
  0
SPLINE
  5
1C4
330
19E
100
AcDbEntity
  8
DV2_Default
 62
     7
100
AcDbSpline
210
0.0
220
0.0
230
1.0
 70
     8
 71
     3
 72
    28
 73
    24
 74
     0
 42
0.000000001
 43
0.0000000001
 40
0.0
 40
0.0
 40
0.0
 40
0.0
 40
0.0100867733836814
 40
0.0100867733836814
 40
0.1515029486145845
 40
0.1515029486145845
 40
0.2222110362300357
 40
0.2222110362300357
 40
0.2929191238454868
 40
0.2929191238454868
 40
0.3636272114609379
 40
0.3636272114609379
 40
0.4343352990763891
 40
0.4343352990763891
 40
0.50504338669184
 40
0.50504338669184
 40
0.5757514743072912
 40
0.5757514743072912
 40
0.7171676495381936
 40
0.7171676495381936
 40
0.8585838247690958
 40
0.8585838247690958
 40
1.0
 40
1.0
 40
1.0
 40
1.0
 10
356.8861495550829
 20
1071.378087330945
 30
0.0
 10
356.9027631814182
 20
1071.372515426911
 30
0.0
 10
356.919389041259
 20
1071.366988036552
 30
0.0
 10
357.1692969166047
 20
1071.28465116818
 30
0.0
 10
357.4049775805038
 20
1071.216568204107
 30
0.0
 10
357.7654978891165
 20
1071.139908224851
 30
0.0
 10
357.8868627993361
 20
1071.118689651868
 30
0.0
 10
358.1330393302704
 20
1071.088792159025
 30
0.0
 10
358.2583236671716
 20
1071.080210596148
 30
0.0
 10
358.5062524856149
 20
1071.081123232626
 30
0.0
 10
358.629620564235
 20
1071.090489484837
 30
0.0
 10
358.8748184592595
 20
1071.132209028995
 30
0.0
 10
358.9966648909294
 20
1071.165044648467
 30
0.0
 10
359.2270040312421
 20
1071.253249410499
 30
0.0
 10
359.3369685012095
 20
1071.308759023546
 30
0.0
 10
359.5472602080542
 20
1071.440900029446
 30
0.0
 10
359.6471479316951
 20
1071.517468613697
 30
0.0
 10
359.9245398448351
 20
1071.763828523203
 30
0.0
 10
360.0855649850057
 20
1071.953329819922
 30
0.0
 10
360.3793418635755
 20
1072.354376010246
 30
0.0
 10
360.5108018130061
 20
1072.564093652679
 30
0.0
 10
360.7580878326584
 20
1072.992846603883
 30
0.0
 10
360.8737248505522
 20
1073.211994365406
 30
0.0
 10
360.983975473329
 20
1073.434355616383
 30
0.0
  0
LINE
  5
1C5
330
19E
100
AcDbEntity
  8
DV2_Default
 62
     7
100
AcDbLine
 10
556.2564765081
 20
1234.0073391617
 30
0.0
 11
531.8332442334
 21
1229.7008643555
 31
0.0
  0
LINE
  5
1C6
330
19E
100
AcDbEntity
  8
DV2_Default
 62
     7
100
AcDbLine
 10
556.4301246858
 20
1233.0225314086
 30
0.0
 11
532.0068924111
 21
1228.7160566025
 31
0.0
  0
LINE
  5
1C7
330
19E
100
AcDbEntity
  8
DV2_Default
 62
     7
100
AcDbLine
 10
556.4301246858
 20
1233.0225314086
 30
0.0
 11
556.2564765081
 21
1234.0073391617
 31
0.0
  0
LINE
  5
1C8
330
19E
100
AcDbEntity
  8
DV2_Default
 62
     7
100
AcDbLine
 10
531.8332442334
 20
1229.7008643555
 30
0.0
 11
532.0068924111
 21
1228.7160566025
 31
0.0
  0
LINE
  5
1C9
330
19E
100
AcDbEntity
  8
DV2_Default
 62
     7
100
AcDbLine
 10
348.1281639457
 20
1090.0427688113
 30
0.0
 11
348.1281639457
 21
1089.9927688113
 31
0.0
  0
LINE
  5
1CA
330
19E
100
AcDbEntity
  8
DV2_Default
 62
     7
100
AcDbLine
 10
323.6383722809
 20
1090.0427688113
 30
0.0
 11
323.6383722809
 21
1089.9927688113
 31
0.0
  0
LINE
  5
1CB
330
19E
100
AcDbEntity
  8
DV2_Default
 62
     7
100
AcDbLine
 10
323.4883722809
 20
1090.0427688113
 30
0.0
 11
348.2883722809
 21
1090.0427688113
 31
0.0
  0
LINE
  5
1CC
330
19E
100
AcDbEntity
  8
DV2_Default
 62
     7
100
AcDbLine
 10
323.4883722809
 20
1223.6427688113
 30
0.0
 11
323.4883722809
 21
1090.0427688113
 31
0.0
  0
LINE
  5
1CD
330
19E
100
AcDbEntity
  8
DV2_Default
 62
     7
100
AcDbLine
 10
348.2883722809
 20
1090.0427688113
 30
0.0
 11
348.2883722809
 21
1223.6427688113
 31
0.0
  0
ARC
  5
1CE
330
19E
100
AcDbEntity
  8
DV2_Default
 62
     7
100
AcDbCircle
 10
439.8883722809
 20
1223.6427688113
 30
0.0
 40
91.59999999999998
100
AcDbArc
 50
10.0
 51
180.0
  0
ARC
  5
1CF
330
19E
100
AcDbEntity
  8
DV2_Default
 62
     7
100
AcDbCircle
 10
439.8883722809
 20
1223.6427688113
 30
0.0
 40
116.4
100
AcDbArc
 50
10.0
 51
180.0
  0
LINE
  5
1D0
330
19E
100
AcDbEntity
  8
DV2_Default
 62
     7
100
AcDbLine
 10
556.2564765081
 20
1234.0073391617
 30
0.0
 11
554.5199947315
 21
1243.8554166918
 31
0.0
  0
LINE
  5
1D1
330
19E
100
AcDbEntity
  8
DV2_Default
 62
     7
100
AcDbLine
 10
530.0967624568
 20
1239.5489418856
 30
0.0
 11
531.8332442334
 21
1229.7008643555
 31
0.0
  0
LINE
  5
1D2
330
19E
100
AcDbEntity
  8
DV2_Default
 62
     7
100
AcDbLine
 10
355.8883718338
 20
982.9927688113
 30
0.0
 11
315.8883727279
 21
982.9927688113
 31
0.0
  0
LINE
  5
1D3
330
19E
100
AcDbEntity
  8
DV2_Default
 62
     7
100
AcDbLine
 10
335.8883722809
 20
1002.9927683643
 30
0.0
 11
335.8883722809
 21
962.9927692584
 31
0.0
  0
ENDBLK
  5
1D5
330
19E
100
AcDbEntity
  8
0
100
AcDbBlockEnd
  0
BLOCK
  5
22E
330
1D6
100
AcDbEntity
  8
0
100
AcDbBlockBegin
  2
SE2
 70
     0
 10
0.0
 20
0.0
 30
0.0
  3
SE2
  1

  0
ARC
  5
1D9
330
1D6
100
AcDbEntity
  8
DV3_Default
 62
     7
100
AcDbCircle
 10
136.3583645991
 20
333.7625121093
 30
0.0
 40
21.0
100
AcDbArc
 50
306.1908074062
 51
0.0
  0
ARC
  5
1DA
330
1D6
100
AcDbEntity
  8
DV3_Default
 62
     7
100
AcDbCircle
 10
136.3583645991
 20
333.7625121093
 30
0.0
 40
21.0
100
AcDbArc
 50
0.0
 51
233.8091925938
  0
LINE
  5
1DB
330
1D6
100
AcDbEntity
  8
DV3_Default
 62
     7
100
AcDbLine
 10
187.368480137
 20
314.4625121093
 30
0.0
 11
187.368480137
 21
353.0625121093
 31
0.0
  0
ARC
  5
1DC
330
1D6
100
AcDbEntity
  8
DV3_Default
 62
     7
100
AcDbCircle
 10
136.3583645991
 20
333.7625121093
 30
0.0
 40
24.0
100
AcDbArc
 50
301.1089225105
 51
303.5573097619
  0
ARC
  5
1DD
330
1D6
100
AcDbEntity
  8
DV3_Default
 62
     7
100
AcDbCircle
 10
136.3583645991
 20
333.7625121093
 30
0.0
 40
24.0
100
AcDbArc
 50
56.4426902381
 51
238.8910774895
  0
LINE
  5
1DE
330
1D6
100
AcDbEntity
  8
DV3_Default
 62
     7
100
AcDbLine
 10
186.668480137
 20
353.7625121093
 30
0.0
 11
147.1646351299
 21
353.7625121093
 31
0.0
  0
LINE
  5
1DF
330
1D6
100
AcDbEntity
  8
DV3_Default
 62
     7
100
AcDbLine
 10
148.7583645991
 20
313.7625121093
 30
0.0
 11
186.668480137
 21
313.7625121093
 31
0.0
  0
ARC
  5
1E0
330
1D6
100
AcDbEntity
  8
DV3_Default
 62
     7
100
AcDbCircle
 10
146.5079562772
 20
384.1383558615
 30
0.0
 40
30.38326686364015
100
AcDbArc
 50
260.8290028167
 51
271.2631303537
  0
ARC
  5
1E1
330
1D6
100
AcDbEntity
  8
DV3_Default
 62
     7
100
AcDbCircle
 10
136.2463833803
 20
333.7512103335
 30
0.0
 40
21.1085494132208
100
AcDbArc
 50
74.5461600067
 51
74.7864513256
  0
ARC
  5
1E2
330
1D6
100
AcDbEntity
  8
DV3_Default
 62
     7
100
AcDbCircle
 10
135.4634994789
 20
331.8974927327
 30
0.0
 40
23.06787625532219
100
AcDbArc
 50
74.7100726302
 51
74.8282061892
  0
ARC
  5
1E3
330
1D6
100
AcDbEntity
  8
DV3_Default
 62
     7
100
AcDbCircle
 10
186.668480137
 20
353.0625121093
 30
0.0
 40
0.6999999999999993
100
AcDbArc
 50
0.0
 51
90.0
  0
ARC
  5
1E4
330
1D6
100
AcDbEntity
  8
DV3_Default
 62
     7
100
AcDbCircle
 10
186.668480137
 20
314.4625121093
 30
0.0
 40
0.6999999999999993
100
AcDbArc
 50
270.0
 51
0.0
  0
ELLIPSE
  5
1E5
330
1D6
100
AcDbEntity
  8
DV3_Default
 62
     7
100
AcDbEllipse
 10
136.3583645991
 20
125.3802813884
 30
0.0
 11
12.49999999999997
 21
-1.471045507628332E-12
 31
0.0
210
0.0
220
0.0
230
1.0
 40
0.984807753
 41
3.015017067627185
 42
6.283185307179586
  0
ELLIPSE
  5
1E6
330
1D6
100
AcDbEntity
  8
DV3_Default
 62
     7
100
AcDbEllipse
 10
136.3583645991
 20
125.3802813884
 30
0.0
 11
12.49999999999997
 21
-1.471045507628332E-12
 31
0.0
210
0.0
220
0.0
230
1.0
 40
0.984807753
 41
0.0
 42
0.126575585962819
  0
ELLIPSE
  5
1E7
330
1D6
100
AcDbEntity
  8
DV3_Default
 62
     7
100
AcDbEllipse
 10
136.3583645991
 20
118.6600969127
 30
0.0
 11
12.49999999999993
 21
3.136380044566067E-12
 31
0.0
210
0.0
220
0.0
230
1.0
 40
0.984807753
 41
3.141592653589793
 42
6.283185307179586
  0
LINE
  5
1E8
330
1D6
100
AcDbEntity
  8
DV3_Default
 62
     7
100
AcDbLine
 10
123.8583645991
 20
125.3802813884
 30
0.0
 11
123.8583645991
 21
118.6600969127
 31
0.0
  0
LINE
  5
1E9
330
1D6
100
AcDbEntity
  8
DV3_Default
 62
     7
100
AcDbLine
 10
148.8583645991
 20
118.6600969127
 30
0.0
 11
148.8583645991
 21
125.3802813884
 31
0.0
  0
LINE
  5
1EA
330
1D6
100
AcDbEntity
  8
DV3_Default
 62
     7
100
AcDbLine
 10
216.1587957018
 20
351.7708480258
 30
0.0
 11
217.1003588837
 21
351.7708480258
 31
0.0
  0
SPLINE
  5
1EB
330
1D6
100
AcDbEntity
  8
DV3_Default
 62
     7
100
AcDbSpline
210
0.0
220
0.0
230
1.0
 70
     8
 71
     3
 72
    17
 73
    13
 74
     0
 42
0.000000001
 43
0.0000000001
 40
0.0
 40
0.0
 40
0.0
 40
0.0
 40
0.0417531502396454
 40
0.1615026253678702
 40
0.2812579335060204
 40
0.4010254452939535
 40
0.5207967384569484
 40
0.640585028521744
 40
0.6974302240014948
 40
0.7604303382630897
 40
0.8669067175737423
 40
1.0
 40
1.0
 40
1.0
 40
1.0
 10
201.4798922111366
 20
313.7809960572444
 30
0.0
 10
201.3542320836927
 20
313.7804434572667
 30
0.0
 10
200.8896716971807
 20
313.7993603316586
 30
0.0
 10
200.2279321540223
 20
313.9843770715889
 30
0.0
 10
199.6252223068809
 20
314.5285003392321
 30
0.0
 10
199.2284009011085
 20
315.3864715373437
 30
0.0
 10
198.9893258610683
 20
316.546995786605
 30
0.0
 10
198.883057438282
 20
317.7383731741672
 30
0.0
 10
198.8315518492327
 20
318.8269800535472
 30
0.0
 10
198.7994257756997
 20
319.9336037438424
 30
0.0
 10
198.778777772079
 20
321.5405917075676
 30
0.0
 10
198.776620685727
 20
322.9804051856275
 30
0.0
 10
198.7754223131911
 20
323.7802957080217
 30
0.0
  0
SPLINE
  5
1EC
330
1D6
100
AcDbEntity
  8
DV3_Default
 62
     7
100
AcDbSpline
210
0.0
220
0.0
230
1.0
 70
     8
 71
     3
 72
    27
 73
    23
 74
     0
 42
0.000000001
 43
0.0000000001
 40
0.0
 40
0.0
 40
0.0
 40
0.0
 40
0.0364925221716136
 40
0.0695071403942246
 40
0.0990438308701355
 40
0.1251027707545707
 40
0.1579834447189406
 40
0.1876538723495271
 40
0.2501713422356637
 40
0.3126855115390997
 40
0.3751930601912633
 40
0.4376974752664538
 40
0.500196800575573
 40
0.6248265721204429
 40
0.6873347471466297
 40
0.7498522201830728
 40
0.8123744057290361
 40
0.8748995754202598
 40
0.8940166526475626
 40
0.9470008655548772
 40
0.9735064627751548
 40
1.0
 40
1.0
 40
1.0
 40
1.0
 10
198.7754223131911
 20
323.7802957080217
 30
0.0
 10
198.775765042179
 20
324.2155295109693
 30
0.0
 10
198.7764178365175
 20
325.0445173486288
 30
0.0
 10
198.7823400201605
 20
326.280654801527
 30
0.0
 10
198.7919587508255
 20
327.4121346101359
 30
0.0
 10
198.8073721130094
 20
328.5640820204775
 30
0.0
 10
198.8315721236994
 20
329.7368990819629
 30
0.0
 10
198.8830446601458
 20
331.4131704471007
 30
0.0
 10
198.989329380161
 20
333.5149959175939
 30
0.0
 10
199.2283945552255
 20
336.0590500124052
 30
0.0
 10
199.6252224639134
 20
338.5476963381674
 30
0.0
 10
200.2279254699562
 20
340.9227609523464
 30
0.0
 10
201.3532524264572
 20
343.8512137618522
 30
0.0
 10
203.0346920109556
 20
346.3306776811336
 30
0.0
 10
205.2187111370527
 20
348.2225572913529
 30
0.0
 10
207.0847428942577
 20
349.3748465635126
 30
0.0
 10
209.1422414970173
 20
350.276835070369
 30
0.0
 10
210.8465495691706
 20
350.8022994990387
 30
0.0
 10
212.4964233345738
 20
351.2048847910721
 30
0.0
 10
213.7423731850714
 20
351.4451864978763
 30
0.0
 10
215.1129030014327
 20
351.649924466924
 30
0.0
 10
215.8102176931901
 20
351.7305462880307
 30
0.0
 10
216.1587957018108
 20
351.7708480258041
 30
0.0
  0
ARC
  5
1ED
330
1D6
100
AcDbEntity
  8
DV3_Default
 62
     7
100
AcDbCircle
 10
-8155.9093843286
 20
395.0520576523
 30
0.0
 40
8373.832309968833
100
AcDbArc
 50
359.252857719
 51
359.5983002566
  0
ARC
  5
1EE
330
1D6
100
AcDbEntity
  8
DV3_Default
 62
     7
100
AcDbCircle
 10
-6322.533874267
 20
335.8125100986
 30
0.0
 40
6540.251019132182
100
AcDbArc
 50
0.0046538462
 51
0.1354103756
  0
ELLIPSE
  5
1EF
330
1D6
100
AcDbEntity
  8
DV3_Default
 62
     7
100
AcDbEllipse
 10
217.1003588845
 20
351.2311312545
 30
0.0
 11
0.5999953678088726
 21
0.002357670008595186
 31
0.0
210
0.0
220
0.0
230
1.0
 40
0.8995262801
 41
0.0666764037942729
 42
1.567261670631878
  0
ELLIPSE
  5
1F0
330
1D6
100
AcDbEntity
  8
DV3_Default
 62
     7
100
AcDbEllipse
 10
190.4939180304
 20
333.780295708
 30
0.0
 11
-5.582486045273012
 21
-19.88466282781093
 31
0.0
210
0.0
220
0.0
230
1.0
 40
0.384202305
 41
3.249039476953675
 42
3.276677322501277
  0
ELLIPSE
  5
1F1
330
1D6
100
AcDbEntity
  8
DV3_Default
 62
     7
100
AcDbEllipse
 10
190.4939180304
 20
333.780295708
 30
0.0
 11
-5.582079811850496
 21
-19.88321583545474
 31
0.0
210
0.0
220
0.0
230
1.0
 40
0.385753072
 41
3.27614081148494
 42
3.3953675016177
  0
LINE
  5
1F2
330
1D6
100
AcDbEntity
  8
DV3_Default
 62
     7
100
AcDbLine
 10
189.1587957018
 20
314.380295708
 30
0.0
 11
189.1587957018
 21
346.7683526074
 31
0.0
  0
ARC
  5
1F3
330
1D6
100
AcDbEntity
  8
DV3_Default
 62
     7
100
AcDbCircle
 10
195.3894657744
 20
347.2120241911
 30
0.0
 40
6.246446512015612
100
AcDbArc
 50
161.5410842201
 51
184.0730248906
  0
ARC
  5
1F4
330
1D6
100
AcDbEntity
  8
DV3_Default
 62
     7
100
AcDbCircle
 10
-195.147176464
 20
309.209943576
 30
0.0
 40
413.3998606666648
100
AcDbArc
 50
357.8170202245
 51
359.8487157378
  0
ARC
  5
1F5
330
1D6
100
AcDbEntity
  8
DV3_Default
 62
     7
100
AcDbCircle
 10
316.5515359204
 20
306.7071706617
 30
0.0
 40
98.31042228357337
100
AcDbArc
 50
175.9591175843
 51
179.1775004103
  0
ARC
  5
1F6
330
1D6
100
AcDbEntity
  8
DV3_Default
 62
     7
100
AcDbCircle
 10
78.6240406653
 20
320.5976462594
 30
0.0
 40
140.0346752559401
100
AcDbArc
 50
357.1500017677
 51
0.022349332
  0
ARC
  5
1F7
330
1D6
100
AcDbEntity
  8
DV3_Default
 62
     7
100
AcDbCircle
 10
-1507.5893121987
 20
279.1397786883
 30
0.0
 40
1725.619218120248
100
AcDbArc
 50
0.4895862929
 51
0.6753106014
  0
ARC
  5
1F8
330
1D6
100
AcDbEntity
  8
DV3_Default
 62
     7
100
AcDbCircle
 10
110.8918694655
 20
320.6198666751
 30
0.0
 40
107.7667113709722
100
AcDbArc
 50
0.016454201
 51
3.2476102629
  0
ARC
  5
1F9
330
1D6
100
AcDbEntity
  8
DV3_Default
 62
     7
100
AcDbCircle
 10
-1872.3549664039
 20
300.0107590785
 30
0.0
 40
2090.265080863244
100
AcDbArc
 50
359.9854003589
 51
0.1301259974
  0
SPLINE
  5
1FA
330
1D6
100
AcDbEntity
  8
DV3_Default
 62
     7
100
AcDbSpline
210
0.0
220
0.0
230
1.0
 70
     8
 71
     3
 72
    10
 73
     6
 74
     0
 42
0.000000001
 43
0.0000000001
 40
0.0
 40
0.0
 40
0.0
 40
0.0
 40
0.6901644842373409
 40
0.6901644842373409
 40
1.0
 40
1.0
 40
1.0
 40
1.0
 10
218.2512431377936
 20
327.611345659821
 30
0.0
 10
218.2516720690486
 20
327.7703532045369
 30
0.0
 10
218.2526088949887
 20
327.9223801843086
 30
0.0
 10
218.255119477792
 20
328.1272353091081
 30
0.0
 10
218.2560566155677
 20
328.188585058241
 30
0.0
 10
218.2572199530954
 20
328.2469284606372
 30
0.0
  0
SPLINE
  5
1FB
330
1D6
100
AcDbEntity
  8
DV3_Default
 62
     7
100
AcDbSpline
210
0.0
220
0.0
230
1.0
 70
     8
 71
     3
 72
    22
 73
    18
 74
     0
 42
0.000000001
 43
0.0000000001
 40
0.0
 40
0.0
 40
0.0
 40
0.0
 40
0.0841190881332348
 40
0.0841190881332348
 40
0.2367659067776953
 40
0.2367659067776953
 40
0.3130893160999254
 40
0.3130893160999254
 40
0.3894127254221557
 40
0.3894127254221557
 40
0.5420595440666167
 40
0.5420595440666167
 40
0.6947063627110778
 40
0.6947063627110778
 40
0.8473531813555388
 40
0.8473531813555388
 40
1.0
 40
1.0
 40
1.0
 40
1.0
 10
218.2572199530954
 20
328.2469284606372
 30
0.0
 10
218.2586479719614
 20
328.3185460929672
 30
0.0
 10
218.2604168292432
 20
328.3856337536636
 30
0.0
 10
218.2667033271833
 20
328.5571060233958
 30
0.0
 10
218.272332364417
 20
328.6463083338352
 30
0.0
 10
218.2842589946731
 20
328.7209636910306
 30
0.0
 10
218.288873149997
 20
328.7361421619343
 30
0.0
 10
218.2992450528371
 20
328.7424326156789
 30
0.0
 10
218.304963752733
 20
328.7337318629875
 30
0.0
 10
218.323641808876
 20
328.6711570430915
 30
0.0
 10
218.3383959126332
 20
328.5774947759194
 30
0.0
 10
218.3688306196816
 20
328.3166741783743
 30
0.0
 10
218.3847499197745
 20
328.1487600428313
 30
0.0
 10
218.4153684915868
 20
327.7822000548173
 30
0.0
 10
218.4302451684107
 20
327.5823805105097
 30
0.0
 10
218.4588038575112
 20
327.165358355322
 30
0.0
 10
218.4724886791337
 20
326.9480743992208
 30
0.0
 10
218.4855111918553
 20
326.7249743549857
 30
0.0
  0
ARC
  5
1FC
330
1D6
100
AcDbEntity
  8
DV3_Default
 62
     7
100
AcDbCircle
 10
-438.7921688054
 20
329.042909058
 30
0.0
 40
657.0449714835072
100
AcDbArc
 50
358.2681380135
 51
359.8751643962
  0
ARC
  5
1FD
330
1D6
100
AcDbEntity
  8
DV3_Default
 62
     7
100
AcDbCircle
 10
326.6667286972
 20
305.7943102957
 30
0.0
 40
108.7669419213409
100
AcDbArc
 50
178.2132425416
 51
180.5459046464
  0
ARC
  5
1FE
330
1D6
100
AcDbEntity
  8
DV3_Default
 62
     7
100
AcDbCircle
 10
1131.3520984311
 20
373.7342503242
 30
0.0
 40
919.4760015744661
100
AcDbArc
 50
184.0595035326
 51
184.3813370972
  0
SPLINE
  5
1FF
330
1D6
100
AcDbEntity
  8
DV3_Default
 62
     7
100
AcDbSpline
210
0.0
220
0.0
230
1.0
 70
     8
 71
     3
 72
    20
 73
    16
 74
     0
 42
0.000000001
 43
0.0000000001
 40
0.0
 40
0.0
 40
0.0
 40
0.0
 40
0.1250000000000003
 40
0.1250000000000003
 40
0.2500000000000006
 40
0.2500000000000006
 40
0.3750000000000009
 40
0.3750000000000009
 40
0.5000000000000012
 40
0.5000000000000012
 40
0.6250000000000016
 40
0.6250000000000016
 40
0.7500000000000018
 40
0.7500000000000018
 40
1.0
 40
1.0
 40
1.0
 40
1.0
 10
213.1078533416073
 20
328.5690406597978
 30
0.0
 10
213.1512396802521
 20
328.6396828985427
 30
0.0
 10
213.1938189698008
 20
328.696274964789
 30
0.0
 10
213.2732024427187
 20
328.7741211478148
 30
0.0
 10
213.3102025182779
 20
328.7958885482259
 30
0.0
 10
213.378140656448
 20
328.8051359745701
 30
0.0
 10
213.4092611406657
 20
328.792110075187
 30
0.0
 10
213.4631612097417
 20
328.7362219555401
 30
0.0
 10
213.486307055866
 20
328.6937196600173
 30
0.0
 10
213.5265522800292
 20
328.5863756051592
 30
0.0
 10
213.5436678912184
 20
328.5212976418638
 30
0.0
 10
213.5728957022516
 20
328.3776325920635
 30
0.0
 10
213.5851345641683
 20
328.2987958383622
 30
0.0
 10
213.6170101694962
 20
328.0480831402366
 30
0.0
 10
213.6320554783819
 20
327.8627430801594
 30
0.0
 10
213.6436616057414
 20
327.6671176897941
 30
0.0
  0
ARC
  5
200
330
1D6
100
AcDbEntity
  8
DV3_Default
 62
     7
100
AcDbCircle
 10
1701.243124077
 20
410.4041584701
 30
0.0
 40
1489.89851287323
100
AcDbArc
 50
183.1833866837
 51
183.3547720511
  0
ARC
  5
201
330
1D6
100
AcDbEntity
  8
DV3_Default
 62
     7
100
AcDbCircle
 10
1701.243124077
 20
410.4041584701
 30
0.0
 40
1489.89851287323
100
AcDbArc
 50
183.3547720511
 51
183.8935454047
  0
ARC
  5
202
330
1D6
100
AcDbEntity
  8
DV3_Default
 62
     7
100
AcDbCircle
 10
190.8003048763
 20
307.6937174155
 30
0.0
 40
24.03261094318754
100
AcDbArc
 50
353.005176793
 51
3.6788228328
  0
ARC
  5
203
330
1D6
100
AcDbEntity
  8
DV3_Default
 62
     7
100
AcDbCircle
 10
286.4365421591
 20
299.3967050384
 30
0.0
 40
71.983104584563
100
AcDbArc
 50
175.7214495128
 51
179.9931723098
  0
ARC
  5
204
330
1D6
100
AcDbEntity
  8
DV3_Default
 62
     7
100
AcDbCircle
 10
272.0320957875
 20
299.2358363188
 30
0.0
 40
57.57890703116953
100
AcDbArc
 50
179.8313863263
 51
182.3093037773
  0
SPLINE
  5
205
330
1D6
100
AcDbEntity
  8
DV3_Default
 62
     7
100
AcDbSpline
210
0.0
220
0.0
230
1.0
 70
     8
 71
     3
 72
    14
 73
    10
 74
     0
 42
0.000000001
 43
0.0000000001
 40
0.0
 40
0.0
 40
0.0
 40
0.0
 40
0.2824698597420888
 40
0.2824698597420888
 40
0.5649397194841776
 40
0.5649397194841776
 40
0.8474095792262665
 40
0.8474095792262665
 40
0.9999999999999999
 40
0.9999999999999999
 40
0.9999999999999999
 40
0.9999999999999999
 10
214.6540529305656
 20
294.430554556355
 30
0.0
 10
214.6695460894235
 20
294.256373451668
 30
0.0
 10
214.6854642270771
 20
294.0867657186986
 30
0.0
 10
214.7176343965545
 20
293.7610875306764
 30
0.0
 10
214.7338779506602
 20
293.6050246575993
 30
0.0
 10
214.7652615053481
 20
293.317177350134
 30
0.0
 10
214.7805616916267
 20
293.1841204557879
 30
0.0
 10
214.8006381582952
 20
293.0189724547612
 30
0.0
 10
214.8070683210302
 20
292.9681595091112
 30
0.0
 10
214.8126777055013
 20
292.925764938696
 30
0.0
  0
ARC
  5
206
330
1D6
100
AcDbEntity
  8
DV3_Default
 62
     7
100
AcDbCircle
 10
1118.1991094413
 20
371.328096312
 30
0.0
 40
906.7735773802476
100
AcDbArc
 50
184.0084203292
 51
184.7185908274
  0
ARC
  5
207
330
1D6
100
AcDbEntity
  8
DV3_Default
 62
     7
100
AcDbCircle
 10
197.9708631872
 20
306.548722869
 30
0.0
 40
15.73462218658695
100
AcDbArc
 50
5.0794969846
 51
15.8418416832
  0
ARC
  5
208
330
1D6
100
AcDbEntity
  8
DV3_Default
 62
     7
100
AcDbCircle
 10
249.5917211334
 20
322.4080849944
 30
0.0
 40
37.71826102072247
100
AcDbArc
 50
193.878921601
 51
197.5333911157
  0
ARC
  5
209
330
1D6
100
AcDbEntity
  8
DV3_Default
 62
     7
100
AcDbCircle
 10
205.2433062708
 20
307.8350967968
 30
0.0
 40
8.976062507593724
100
AcDbArc
 50
5.1595016079
 51
20.9534651357
  0
ARC
  5
20A
330
1D6
100
AcDbEntity
  8
DV3_Default
 62
     7
100
AcDbCircle
 10
220.2713075245
 20
324.8651483004
 30
0.0
 40
8.06435951824051
100
AcDbArc
 50
152.658596626
 51
166.0931426326
  0
ARC
  5
20B
330
1D6
100
AcDbEntity
  8
DV3_Default
 62
     7
100
AcDbCircle
 10
233.7976473839
 20
320.4939485082
 30
0.0
 40
22.26691625601496
100
AcDbArc
 50
163.539509759
 51
180.212086601
  0
ARC
  5
20C
330
1D6
100
AcDbEntity
  8
DV3_Default
 62
     7
100
AcDbCircle
 10
240.2408317482
 20
320.6294498946
 30
0.0
 40
28.71077514401803
100
AcDbArc
 50
180.4348987862
 51
194.4901434087
  0
ARC
  5
20D
330
1D6
100
AcDbEntity
  8
DV3_Default
 62
     7
100
AcDbCircle
 10
391.7484502472
 20
357.8604214
 30
0.0
 40
184.7241223187442
100
AcDbArc
 50
194.6031684208
 51
194.7452835729
  0
ARC
  5
20E
330
1D6
100
AcDbEntity
  8
DV3_Default
 62
     7
100
AcDbCircle
 10
239.8062107437
 20
320.3919651426
 30
0.0
 40
27.73757403811457
100
AcDbArc
 50
180.4690810825
 51
194.6845478638
  0
ARC
  5
20F
330
1D6
100
AcDbEntity
  8
DV3_Default
 62
     7
100
AcDbCircle
 10
233.0147829248
 20
320.2637001357
 30
0.0
 40
20.94544975679552
100
AcDbArc
 50
163.092787943
 51
180.2703214024
  0
ARC
  5
210
330
1D6
100
AcDbEntity
  8
DV3_Default
 62
     7
100
AcDbCircle
 10
218.0226514005
 20
325.1542227277
 30
0.0
 40
5.188869151514157
100
AcDbArc
 50
147.9264194114
 51
166.618403566
  0
LINE
  5
211
330
1D6
100
AcDbEntity
  8
DV3_Default
 62
     7
100
AcDbLine
 10
216.3983673695
 20
285.8342979479
 30
0.0
 11
217.0829250509
 21
285.8342979479
 31
0.0
  0
ARC
  5
212
330
1D6
100
AcDbEntity
  8
DV3_Default
 62
     7
100
AcDbCircle
 10
333.0778309284
 20
311.6800805671
 30
0.0
 40
119.7427884075095
100
AcDbArc
 50
189.0105923683
 51
192.3505206948
  0
SPLINE
  5
213
330
1D6
100
AcDbEntity
  8
DV3_Default
 62
     7
100
AcDbSpline
210
0.0
220
0.0
230
1.0
 70
     8
 71
     3
 72
    20
 73
    16
 74
     0
 42
0.000000001
 43
0.0000000001
 40
0.0
 40
0.0
 40
0.0
 40
0.0
 40
0.0934105467239906
 40
0.175674516774098
 40
0.2774039124324903
 40
0.3563025667154943
 40
0.4292255081293745
 40
0.4963681316462271
 40
0.5774204888940956
 40
0.6560302246883984
 40
0.7329699032495965
 40
0.8244387213007932
 40
0.8992433478527547
 40
0.9839806945405869
 40
1.0
 40
1.0
 40
1.0
 40
1.0
 10
201.4734813368078
 20
313.7802971599108
 30
0.0
 10
202.0502465438292
 20
313.7754335198559
 30
0.0
 10
202.9670805561449
 20
313.7654054076959
 30
0.0
 10
204.5192416709375
 20
313.6859720579236
 30
0.0
 10
205.8900338839441
 20
313.5641100657949
 30
0.0
 10
207.1039132819239
 20
313.4047674117592
 30
0.0
 10
208.1145539008947
 20
313.2311868427843
 30
0.0
 10
209.0925472099095
 20
313.0179237014485
 30
0.0
 10
210.0586284671164
 20
312.7466283425149
 30
0.0
 10
210.9358614608199
 20
312.4301851024877
 30
0.0
 10
211.7756978341819
 20
312.040725481373
 30
0.0
 10
212.3076177519277
 20
311.7298761308697
 30
0.0
 10
212.6874075673333
 20
311.4888920599574
 30
0.0
 10
212.8885470402332
 20
311.3545623120587
 30
0.0
 10
212.9871035145943
 20
311.286022064774
 30
0.0
 10
213.0023241529627
 20
311.2753695739683
 30
0.0
  0
SPLINE
  5
214
330
1D6
100
AcDbEntity
  8
DV3_Default
 62
     7
100
AcDbSpline
210
0.0
220
0.0
230
1.0
 70
     8
 71
     3
 72
    13
 73
     9
 74
     0
 42
0.000000001
 43
0.0000000001
 40
0.0
 40
0.0
 40
0.0
 40
0.0
 40
0.0415353658607482
 40
0.2014794810745549
 40
0.420645703117269
 40
0.6911740708949806
 40
0.9531046101182801
 40
1.0
 40
1.0
 40
1.0
 40
1.0
 10
216.1060298561007
 20
286.0696748805915
 30
0.0
 10
216.1072053934215
 20
286.0644684162031
 30
0.0
 10
216.1137680602531
 20
286.0382967001871
 30
0.0
 10
216.1354119759397
 20
285.9848213521042
 30
0.0
 10
216.1898097536923
 20
285.9119727464502
 30
0.0
 10
216.2762374455347
 20
285.8562181068813
 30
0.0
 10
216.3584882335621
 20
285.8304437711245
 30
0.0
 10
216.3979715163478
 20
285.8375277538991
 30
0.0
 10
216.4049194582059
 20
285.8388054719956
 30
0.0
  0
ARC
  5
215
330
1D6
100
AcDbEntity
  8
DV3_Default
 62
     7
100
AcDbCircle
 10
195.6364084339
 20
347.4144371984
 30
0.0
 40
6.375100818117948
100
AcDbArc
 50
104.9741282486
 51
132.0633743552
  0
ARC
  5
216
330
1D6
100
AcDbEntity
  8
DV3_Default
 62
     7
100
AcDbCircle
 10
194.4948338149
 20
348.0449789741
 30
0.0
 40
5.160012325412914
100
AcDbArc
 50
127.3136213873
 51
167.2406323316
  0
ARC
  5
217
330
1D6
100
AcDbEntity
  8
DV3_Default
 62
     7
100
AcDbCircle
 10
189.7587957018
 20
314.380295708
 30
0.0
 40
0.5999999999999963
100
AcDbArc
 50
180.0
 51
270.0
  0
LINE
  5
218
330
1D6
100
AcDbEntity
  8
DV3_Default
 62
     7
100
AcDbLine
 10
189.7587957018
 20
313.780295708
 30
0.0
 11
201.506515219
 21
313.780295708
 31
0.0
  0
LINE
  5
219
330
1D6
100
AcDbEntity
  8
DV3_Default
 62
     7
100
AcDbLine
 10
217.0897314978
 20
353.780295708
 30
0.0
 11
195.2249241395
 21
353.780295708
 31
0.0
  0
ARC
  5
21A
330
1D6
100
AcDbEntity
  8
DV3_Default
 62
     7
100
AcDbCircle
 10
-472.1098453535
 20
316.3918393522
 30
0.0
 40
690.7804119421726
100
AcDbArc
 50
0.3530890943
 51
3.0544534367
  0
ARC
  5
21B
330
1D6
100
AcDbEntity
  8
DV3_Default
 62
     7
100
AcDbCircle
 10
178.840566712
 20
333.7625121093
 30
0.0
 40
20.2
100
AcDbArc
 50
295.8419327632
 51
300.7173596633
  0
ARC
  5
21C
330
1D6
100
AcDbEntity
  8
DV3_Default
 62
     7
100
AcDbCircle
 10
178.840566712
 20
333.7625121093
 30
0.0
 40
20.19999999999999
100
AcDbArc
 50
56.4355283222
 51
64.1580672368
  0
ARC
  5
21D
330
1D6
100
AcDbEntity
  8
DV3_Default
 62
     7
100
AcDbCircle
 10
187.5583645991
 20
315.7625121093
 30
0.0
 40
0.1999999999999988
100
AcDbArc
 50
198.3005778897
 51
295.8419327653
  0
ARC
  5
21E
330
1D6
100
AcDbEntity
  8
DV3_Default
 62
     7
100
AcDbCircle
 10
187.5583645991
 20
351.7625121093
 30
0.0
 40
0.2000000000000019
100
AcDbArc
 50
64.1580672347
 51
161.6994221103
  0
ELLIPSE
  5
21F
330
1D6
100
AcDbEntity
  8
DV3_Default
 62
     7
100
AcDbEllipse
 10
136.3583645991
 20
125.4323758417
 30
0.0
 11
12.39999999999996
 21
-1.360023205165817E-12
 31
0.0
210
0.0
220
0.0
230
1.0
 40
0.984807753
 41
3.141592653589793
 42
6.283185307179586
  0
LINE
  5
220
330
1D6
100
AcDbEntity
  8
DV3_Default
 62
     7
100
AcDbLine
 10
148.7583645991
 20
125.4323758417
 30
0.0
 11
148.7583645991
 21
125.6060240193
 31
0.0
  0
LINE
  5
221
330
1D6
100
AcDbEntity
  8
DV3_Default
 62
     7
100
AcDbLine
 10
123.9583645991
 20
125.6060240193
 30
0.0
 11
123.9583645991
 21
125.4323758417
 31
0.0
  0
ARC
  5
222
330
1D6
100
AcDbEntity
  8
DV3_Default
 62
     7
100
AcDbCircle
 10
136.3583645991
 20
333.7625121093
 30
0.0
 40
12.4
100
AcDbArc
 50
0.0
 51
180.0
  0
LINE
  5
223
330
1D6
100
AcDbEntity
  8
DV3_Default
 62
     7
100
AcDbLine
 10
123.9583645991
 20
333.7625121093
 30
0.0
 11
123.9583645991
 21
127.342505796
 31
0.0
  0
LINE
  5
224
330
1D6
100
AcDbEntity
  8
DV3_Default
 62
     7
100
AcDbLine
 10
148.7583645991
 20
127.342505796
 30
0.0
 11
148.7583645991
 21
333.7625121093
 31
0.0
  0
LINE
  5
225
330
1D6
100
AcDbEntity
  8
DV3_Default
 62
     7
100
AcDbLine
 10
148.7583645991
 20
125.6060240193
 30
0.0
 11
148.7583645991
 21
127.342505796
 31
0.0
  0
LINE
  5
226
330
1D6
100
AcDbEntity
  8
DV3_Default
 62
     7
100
AcDbLine
 10
123.9583645991
 20
127.342505796
 30
0.0
 11
123.9583645991
 21
125.6060240193
 31
0.0
  0
ARC
  5
227
330
1D6
100
AcDbEntity
  8
DV3_Default
 62
     7
100
AcDbCircle
 10
217.0753669581
 20
353.165635523
 30
0.0
 40
0.6148244761505111
100
AcDbArc
 50
3.2011320657
 51
88.6875491487
  0
ARC
  5
228
330
1D6
100
AcDbEntity
  8
DV3_Default
 62
     7
100
AcDbCircle
 10
217.0821335403
 20
286.4349772432
 30
0.0
 40
0.600679318235824
100
AcDbArc
 50
270.0158250051
 51
357.6519619342
  0
LINE
  5
229
330
1D6
100
AcDbEntity
  8
DV3_Default
 62
     7
100
AcDbLine
 10
217.6828128585
 20
286.4349772432
 30
0.0
 11
217.9569545451
 21
293.5748697928
 31
0.0
  0
ARC
  5
22A
330
1D6
100
AcDbEntity
  8
DV3_Default
 62
     7
100
AcDbCircle
 10
391.7484502472
 20
357.8604214
 30
0.0
 40
184.7241223187442
100
AcDbArc
 50
193.912423293
 51
194.6031684208
  0
ARC
  5
22B
330
1D6
100
AcDbEntity
  8
DV3_Default
 62
     7
100
AcDbCircle
 10
272.0320957875
 20
299.2358363188
 30
0.0
 40
57.57890703116953
100
AcDbArc
 50
182.3093037773
 51
184.7872212284
  0
LINE
  5
22C
330
1D6
100
AcDbEntity
  8
DV3_Default
 62
     7
100
AcDbLine
 10
156.3583641521
 20
333.7625121093
 30
0.0
 11
116.3583650461
 21
333.7625121093
 31
0.0
  0
LINE
  5
22D
330
1D6
100
AcDbEntity
  8
DV3_Default
 62
     7
100
AcDbLine
 10
136.3583645991
 20
353.7625116622
 30
0.0
 11
136.3583645991
 21
313.7625125563
 31
0.0
  0
ENDBLK
  5
22F
330
1D6
100
AcDbEntity
  8
0
100
AcDbBlockEnd
  0
ENDSEC
  0
SECTION
  2
ENTITIES
  0
INSERT
  5
70
330
1F
100
AcDbEntity
  8
Default
100
AcDbBlockReference
  2
SE
 10
0.0
 20
0.0
 30
0.0
  0
INSERT
  5
19F
330
1F
100
AcDbEntity
  8
Default
100
AcDbBlockReference
  2
SE1
 10
0.0
 20
0.0
 30
0.0
  0
INSERT
  5
1D7
330
1F
100
AcDbEntity
  8
Default
100
AcDbBlockReference
  2
SE2
 10
0.0
 20
0.0
 30
0.0
  0
MTEXT
  5
230
330
1F
100
AcDbEntity
  8
Default
100
AcDbMText
 10
5.9362635081
 20
63.4225120485
 30
0.0
 40
10.0
 41
113.8626497168
 46
65.4545454545
 71
     1
 72
     1
  1
{\fArial Narrow|b0||i0||c0|p34;\C7;\H10.;\W1.;Grohe AG\P}{\fArial Narrow|b0||i0||c0|p34;\C7;\H10.;\W1.;\P}{\fArial Narrow|b0||i0||c0|p34;\C7;\H10.;\W1.;ecn:\P}{\fArial Narrow|b0||i0||c0|p34;\C7;\H10.;\W1.;unit: mm}
 73
     1
 44
1.0
1001
ACAD
1000
ACAD_MTEXT_DEFINED_HEIGHT_BEGIN
1070
    46
1040
65.4545454545
1000
ACAD_MTEXT_DEFINED_HEIGHT_END
  0
LINE
  5
231
330
1F
100
AcDbEntity
  8
Default
 62
     7
100
AcDbLine
 10
0.0
 20
0.0
 30
0.0
 11
100.0
 21
0.0
 31
0.0
  0
LINE
  5
232
330
1F
100
AcDbEntity
  8
Default
 62
     7
100
AcDbLine
 10
0.0
 20
0.0
 30
0.0
 11
0.0
 21
100.0
 31
0.0
  0
MTEXT
  5
233
330
1F
100
AcDbEntity
  8
Default
100
AcDbMText
 10
24.3923665681
 20
-8.2375342018
 30
0.0
 40
10.0
 41
35.00001
 46
16.3636363636
 71
     1
 72
     1
  1
{\fArial Narrow|b0||i0||c0|p34;\C7;\H10.;\W0.82;100 mm}
 73
     1
 44
1.0
1001
ACAD
1000
ACAD_MTEXT_DEFINED_HEIGHT_BEGIN
1070
    46
1040
16.3636363636
1000
ACAD_MTEXT_DEFINED_HEIGHT_END
  0
MTEXT
  5
234
330
1F
100
AcDbEntity
  8
Default
100
AcDbMText
 10
-17.6150308803
 20
24.6231930421
 30
0.0
 40
10.0
 41
35.00001
 46
16.3636363636
 71
     1
 72
     1
  1
{\fArial Narrow|b0||i0||c0|p34;\C7;\H10.;\W0.82;100 mm}
 11
6.123233995736766E-17
 21
1.0
 31
0.0
 73
     1
 44
1.0
1001
ACAD
1000
ACAD_MTEXT_DEFINED_HEIGHT_BEGIN
1070
    46
1040
16.3636363636
1000
ACAD_MTEXT_DEFINED_HEIGHT_END
  0
MTEXT
  5
235
330
1F
100
AcDbEntity
  8
Default
100
AcDbMText
 10
28.4878128572
 20
24.8634936442
 30
0.0
 40
10.0
 41
86.691737001
 46
16.3636363636
 71
     4
 72
     1
  1
{\fArial Narrow|b0||i0||c0|p34;\C7;\H10.;\W1.;251698}
 73
     1
 44
1.0
1001
ACAD
1000
ACAD_MTEXT_DEFINED_HEIGHT_BEGIN
1070
    46
1040
16.3636363636
1000
ACAD_MTEXT_DEFINED_HEIGHT_END
  0
MTEXT
  5
236
330
1F
100
AcDbEntity
  8
Default
100
AcDbMText
 10
5.9012241913
 20
41.4970052916
 30
0.0
 40
10.0
 41
109.9146987306
 46
16.3636363636
 71
     4
 72
     1
  1
{\fArial Narrow|b0||i0||c0|p34;\C7;\H10.;\W1.;30556000}
 73
     1
 44
1.0
1001
ACAD
1000
ACAD_MTEXT_DEFINED_HEIGHT_BEGIN
1070
    46
1040
16.3636363636
1000
ACAD_MTEXT_DEFINED_HEIGHT_END
  0
ENDSEC
  0
SECTION
  2
OBJECTS
  0
DICTIONARY
  5
C
330
0
100
AcDbDictionary
281
     1
  3
ACAD_DETAILVIEWSTYLE
350
272
  3
ACAD_GROUP
350
D
  3
ACAD_LAYOUT
350
1A
  3
ACAD_MATERIAL
350
43
  3
ACAD_MLEADERSTYLE
350
6B
  3
ACAD_MLINESTYLE
350
17
  3
ACAD_PLOTSETTINGS
350
19
  3
ACAD_PLOTSTYLENAME
350
E
  3
ACAD_SCALELIST
350
47
  3
ACAD_SECTIONVIEWSTYLE
350
273
  3
ACAD_TABLESTYLE
350
69
  3
ACAD_VISUALSTYLE
350
2A
  3
ACDB_RECOMPOSE_DATA
350
26F
  3
AcDbVariableDictionary
350
237
  0
SUN
  5
6D
330
29
100
AcDbSun
 90
        1
290
     0
 63
     7
421
 16777215
 40
1.0
291
     1
 91
  2455826
 92
 54000000
292
     0
 70
     2
 71
   256
280
     1
  0
DICTIONARY
  5
272
102
{ACAD_REACTORS
330
C
102
}
330
C
100
AcDbDictionary
281
     1
  0
DICTIONARY
  5
D
102
{ACAD_REACTORS
330
C
102
}
330
C
100
AcDbDictionary
281
     1
  0
DICTIONARY
  5
1A
102
{ACAD_REACTORS
330
C
102
}
330
C
100
AcDbDictionary
281
     1
  3
Layout1
350
1E
  3
Model
350
22
  0
DICTIONARY
  5
43
102
{ACAD_REACTORS
330
C
102
}
330
C
100
AcDbDictionary
281
     1
  3
ByBlock
350
45
  3
ByLayer
350
44
  3
Global
350
46
  0
DICTIONARY
  5
6B
102
{ACAD_REACTORS
330
C
102
}
330
C
100
AcDbDictionary
281
     1
  3
Standard
350
6C
  0
DICTIONARY
  5
17
102
{ACAD_REACTORS
330
C
102
}
330
C
100
AcDbDictionary
281
     1
  3
Standard
350
18
  0
DICTIONARY
  5
19
102
{ACAD_REACTORS
330
C
102
}
330
C
100
AcDbDictionary
281
     1
  0
ACDBDICTIONARYWDFLT
  5
E
102
{ACAD_REACTORS
330
C
102
}
330
C
100
AcDbDictionary
281
     1
  3
Normal
350
F
100
AcDbDictionaryWithDefault
340
F
  0
DICTIONARY
  5
47
102
{ACAD_REACTORS
330
C
102
}
330
C
100
AcDbDictionary
281
     1
  3
A0
350
48
  3
A1
350
49
  3
A2
350
4A
  3
A3
350
4B
  3
A4
350
4C
  3
A5
350
4D
  3
A6
350
4E
  3
A7
350
4F
  3
A8
350
50
  3
A9
350
51
  3
B0
350
52
  3
B1
350
53
  3
B2
350
54
  3
B3
350
55
  3
B4
350
56
  3
B5
350
57
  3
B6
350
58
  3
B7
350
59
  3
B8
350
5A
  3
B9
350
5B
  3
C0
350
5C
  3
C1
350
5D
  3
C2
350
5E
  3
C3
350
5F
  3
C4
350
60
  3
C5
350
61
  3
C6
350
62
  3
C7
350
63
  3
C8
350
64
  3
C9
350
65
  3
D0
350
66
  3
D1
350
67
  3
D2
350
68
  0
DICTIONARY
  5
273
102
{ACAD_REACTORS
330
C
102
}
330
C
100
AcDbDictionary
281
     1
  0
DICTIONARY
  5
69
102
{ACAD_REACTORS
330
C
102
}
330
C
100
AcDbDictionary
281
     1
  3
Standard
350
6A
  0
DICTIONARY
  5
2A
102
{ACAD_REACTORS
330
C
102
}
330
C
100
AcDbDictionary
281
     1
  3
2dWireframe
350
2F
  3
Basic
350
32
  3
Brighten
350
36
  3
ColorChange
350
3A
  3
Conceptual
350
34
  3
Dim
350
35
  3
EdgeColorOff
350
3D
  3
Facepattern
350
39
  3
Flat
350
2B
  3
FlatWithEdges
350
2C
  3
Gouraud
350
2D
  3
GouraudWithEdges
350
2E
  3
Hidden
350
31
  3
JitterOff
350
3B
  3
Linepattern
350
38
  3
OverhangOff
350
3C
  3
Realistic
350
33
  3
Shaded
350
42
  3
Shaded with edges
350
41
  3
Shades of Gray
350
3E
  3
Sketchy
350
3F
  3
Thicken
350
37
  3
Wireframe
350
30
  3
X-Ray
350
40
  0
XRECORD
  5
26F
102
{ACAD_REACTORS
330
C
102
}
330
C
100
AcDbXrecord
280
     1
 90
        1
330
6A
  0
DICTIONARY
  5
237
102
{ACAD_REACTORS
330
C
102
}
330
C
100
AcDbDictionary
281
     1
  3
CANNOSCALE
350
238
  3
CENTEREXE
350
274
  3
CENTERLTYPEFILE
350
275
  3
CMLEADERSTYLE
350
271
  3
CTABLESTYLE
350
270
  3
XCLIPFRAME
350
239
  0
LAYOUT
  5
1E
102
{ACAD_REACTORS
330
1A
102
}
330
1A
100
AcDbPlotSettings
  1

  2
none_device
  4

  6

 40
0.0
 41
0.0
 42
0.0
 43
0.0
 44
0.0
 45
0.0
 46
0.0
 47
0.0
 48
0.0
 49
0.0
140
0.0
141
0.0
142
1.0
143
1.0
 70
   688
 72
     1
 73
     0
 74
     5
  7

 75
    16
 76
     0
 77
     2
 78
   300
147
1.0
148
0.0
149
0.0
100
AcDbLayout
  1
Layout1
 70
     1
 71
     1
 10
0.0
 20
0.0
 11
3000.0
 21
4500.0
 12
0.0
 22
0.0
 32
0.0
 14
0.0
 24
0.0
 34
0.0
 15
3000.0
 25
4500.0
 35
0.0
146
0.0
 13
0.0
 23
0.0
 33
0.0
 16
1.0
 26
0.0
 36
0.0
 17
0.0
 27
1.0
 37
0.0
 76
     0
330
1B
  0
LAYOUT
  5
22
102
{ACAD_REACTORS
330
1A
102
}
330
1A
100
AcDbPlotSettings
  1

  2
none_device
  4
Letter_(8.50_x_11.00_Inches)
  6

 40
6.35
 41
6.35
 42
6.35000508
 43
6.35000508
 44
215.9
 45
279.4
 46
0.0
 47
0.0
 48
0.0
 49
0.0
140
0.0
141
0.0
142
1.0
143
1.0
 70
  1712
 72
     1
 73
     0
 74
     0
  7

 75
     0
 76
     0
 77
     2
 78
   300
147
1.0
148
0.0
149
0.0
100
AcDbLayout
  1
Model
 70
     1
 71
     0
 10
0.0
 20
0.0
 11
3000.0
 21
4500.0
 12
0.0
 22
0.0
 32
0.0
 14
0.0
 24
0.0
 34
0.0
 15
3000.0
 25
4500.0
 35
0.0
146
0.0
 13
0.0
 23
0.0
 33
0.0
 16
1.0
 26
0.0
 36
0.0
 17
0.0
 27
1.0
 37
0.0
 76
     0
330
1F
331
29
  0
MATERIAL
  5
45
102
{ACAD_REACTORS
330
43
102
}
330
43
100
AcDbMaterial
  1
ByBlock
 72
     1
 94
      127
  0
MATERIAL
  5
44
102
{ACAD_REACTORS
330
43
102
}
330
43
100
AcDbMaterial
  1
ByLayer
 72
     1
 94
      127
  0
MATERIAL
  5
46
102
{ACAD_REACTORS
330
43
102
}
330
43
100
AcDbMaterial
  1
Global
 72
     1
 94
      127
  0
MLEADERSTYLE
  5
6C
102
{ACAD_REACTORS
330
6B
102
}
102
{ACAD_XDICTIONARY
360
26D
102
}
330
6B
100
AcDbMLeaderStyle
170
     2
171
     1
172
     0
 90
        2
 40
0.0
 41
0.0
173
     1
 91
-1056964608
340
14
 92
       -2
290
     1
 42
2.0
291
     1
 43
8.0
  3
Standard
341
0
 44
4.0
300

342
11
174
     1
178
     6
175
     1
176
     0
 93
-1056964608
 45
4.0
292
     0
297
     0
 46
4.0
343
0
 94
-1056964608
 47
1.0
 49
1.0
140
1.0
293
     1
141
0.0
294
     1
177
     0
142
1.0
295
     0
296
     0
143
3.75
1001
ACAD_MLEADERVER
1070
     2
  0
MLINESTYLE
  5
18
102
{ACAD_REACTORS
330
17
102
}
330
17
100
AcDbMlineStyle
  2
Standard
 70
     0
  3

 62
   256
 51
90.0
 52
90.0
 71
     2
 49
0.5
 62
   256
  6
BYLAYER
 49
-0.5
 62
   256
  6
BYLAYER
  0
ACDBPLACEHOLDER
  5
F
102
{ACAD_REACTORS
330
E
102
}
330
E
  0
SCALE
  5
48
102
{ACAD_REACTORS
330
47
102
}
330
47
100
AcDbScale
 70
     0
300
1:1
140
1.0
141
1.0
290
     1
  0
SCALE
  5
49
102
{ACAD_REACTORS
330
47
102
}
330
47
100
AcDbScale
 70
     0
300
1:2
140
1.0
141
2.0
290
     0
  0
SCALE
  5
4A
102
{ACAD_REACTORS
330
47
102
}
330
47
100
AcDbScale
 70
     0
300
1:4
140
1.0
141
4.0
290
     0
  0
SCALE
  5
4B
102
{ACAD_REACTORS
330
47
102
}
330
47
100
AcDbScale
 70
     0
300
1:5
140
1.0
141
5.0
290
     0
  0
SCALE
  5
4C
102
{ACAD_REACTORS
330
47
102
}
330
47
100
AcDbScale
 70
     0
300
1:8
140
1.0
141
8.0
290
     0
  0
SCALE
  5
4D
102
{ACAD_REACTORS
330
47
102
}
330
47
100
AcDbScale
 70
     0
300
1:10
140
1.0
141
10.0
290
     0
  0
SCALE
  5
4E
102
{ACAD_REACTORS
330
47
102
}
330
47
100
AcDbScale
 70
     0
300
1:16
140
1.0
141
16.0
290
     0
  0
SCALE
  5
4F
102
{ACAD_REACTORS
330
47
102
}
330
47
100
AcDbScale
 70
     0
300
1:20
140
1.0
141
20.0
290
     0
  0
SCALE
  5
50
102
{ACAD_REACTORS
330
47
102
}
330
47
100
AcDbScale
 70
     0
300
1:30
140
1.0
141
30.0
290
     0
  0
SCALE
  5
51
102
{ACAD_REACTORS
330
47
102
}
330
47
100
AcDbScale
 70
     0
300
1:40
140
1.0
141
40.0
290
     0
  0
SCALE
  5
52
102
{ACAD_REACTORS
330
47
102
}
330
47
100
AcDbScale
 70
     0
300
1:50
140
1.0
141
50.0
290
     0
  0
SCALE
  5
53
102
{ACAD_REACTORS
330
47
102
}
330
47
100
AcDbScale
 70
     0
300
1:100
140
1.0
141
100.0
290
     0
  0
SCALE
  5
54
102
{ACAD_REACTORS
330
47
102
}
330
47
100
AcDbScale
 70
     0
300
2:1
140
2.0
141
1.0
290
     0
  0
SCALE
  5
55
102
{ACAD_REACTORS
330
47
102
}
330
47
100
AcDbScale
 70
     0
300
4:1
140
4.0
141
1.0
290
     0
  0
SCALE
  5
56
102
{ACAD_REACTORS
330
47
102
}
330
47
100
AcDbScale
 70
     0
300
8:1
140
8.0
141
1.0
290
     0
  0
SCALE
  5
57
102
{ACAD_REACTORS
330
47
102
}
330
47
100
AcDbScale
 70
     0
300
10:1
140
10.0
141
1.0
290
     0
  0
SCALE
  5
58
102
{ACAD_REACTORS
330
47
102
}
330
47
100
AcDbScale
 70
     0
300
100:1
140
100.0
141
1.0
290
     0
  0
SCALE
  5
59
102
{ACAD_REACTORS
330
47
102
}
330
47
100
AcDbScale
 70
     0
300
1/128" = 1'-0"
140
0.0078125
141
12.0
290
     0
  0
SCALE
  5
5A
102
{ACAD_REACTORS
330
47
102
}
330
47
100
AcDbScale
 70
     0
300
1/64" = 1'-0"
140
0.015625
141
12.0
290
     0
  0
SCALE
  5
5B
102
{ACAD_REACTORS
330
47
102
}
330
47
100
AcDbScale
 70
     0
300
1/32" = 1'-0"
140
0.03125
141
12.0
290
     0
  0
SCALE
  5
5C
102
{ACAD_REACTORS
330
47
102
}
330
47
100
AcDbScale
 70
     0
300
1/16" = 1'-0"
140
0.0625
141
12.0
290
     0
  0
SCALE
  5
5D
102
{ACAD_REACTORS
330
47
102
}
330
47
100
AcDbScale
 70
     0
300
3/32" = 1'-0"
140
0.09375
141
12.0
290
     0
  0
SCALE
  5
5E
102
{ACAD_REACTORS
330
47
102
}
330
47
100
AcDbScale
 70
     0
300
1/8" = 1'-0"
140
0.125
141
12.0
290
     0
  0
SCALE
  5
5F
102
{ACAD_REACTORS
330
47
102
}
330
47
100
AcDbScale
 70
     0
300
3/16" = 1'-0"
140
0.1875
141
12.0
290
     0
  0
SCALE
  5
60
102
{ACAD_REACTORS
330
47
102
}
330
47
100
AcDbScale
 70
     0
300
1/4" = 1'-0"
140
0.25
141
12.0
290
     0
  0
SCALE
  5
61
102
{ACAD_REACTORS
330
47
102
}
330
47
100
AcDbScale
 70
     0
300
3/8" = 1'-0"
140
0.375
141
12.0
290
     0
  0
SCALE
  5
62
102
{ACAD_REACTORS
330
47
102
}
330
47
100
AcDbScale
 70
     0
300
1/2" = 1'-0"
140
0.5
141
12.0
290
     0
  0
SCALE
  5
63
102
{ACAD_REACTORS
330
47
102
}
330
47
100
AcDbScale
 70
     0
300
3/4" = 1'-0"
140
0.75
141
12.0
290
     0
  0
SCALE
  5
64
102
{ACAD_REACTORS
330
47
102
}
330
47
100
AcDbScale
 70
     0
300
1" = 1'-0"
140
1.0
141
12.0
290
     0
  0
SCALE
  5
65
102
{ACAD_REACTORS
330
47
102
}
330
47
100
AcDbScale
 70
     0
300
1-1/2" = 1'-0"
140
1.5
141
12.0
290
     0
  0
SCALE
  5
66
102
{ACAD_REACTORS
330
47
102
}
330
47
100
AcDbScale
 70
     0
300
3" = 1'-0"
140
3.0
141
12.0
290
     0
  0
SCALE
  5
67
102
{ACAD_REACTORS
330
47
102
}
330
47
100
AcDbScale
 70
     0
300
6" = 1'-0"
140
6.0
141
12.0
290
     0
  0
SCALE
  5
68
102
{ACAD_REACTORS
330
47
102
}
330
47
100
AcDbScale
 70
     0
300
1'-0" = 1'-0"
140
12.0
141
12.0
290
     0
  0
TABLESTYLE
  5
6A
102
{ACAD_REACTORS
330
69
102
}
102
{ACAD_XDICTIONARY
360
26A
102
}
330
69
100
AcDbTableStyle
  3
Standard
 70
     0
 71
     0
 40
0.06
 41
0.06
280
     0
281
     0
  7
Standard
140
4.5
170
     2
 62
     0
 63
   257
283
     0
 90
        4
 91
        0
  1

274
    -2
284
     1
 64
     0
275
    -2
285
     1
 65
     0
276
    -2
286
     1
 66
     0
277
    -2
287
     1
 67
     0
278
    -2
288
     1
 68
     0
279
    -2
289
     1
 69
     0
  7
Standard
140
6.0
170
     5
 62
     0
 63
   257
283
     0
 90
        4
 91
        0
  1

274
    -2
284
     1
 64
     0
275
    -2
285
     1
 65
     0
276
    -2
286
     1
 66
     0
277
    -2
287
     1
 67
     0
278
    -2
288
     1
 68
     0
279
    -2
289
     1
 69
     0
  7
Standard
140
4.5
170
     5
 62
     0
 63
   257
283
     0
 90
        4
 91
        0
  1

274
    -2
284
     1
 64
     0
275
    -2
285
     1
 65
     0
276
    -2
286
     1
 66
     0
277
    -2
287
     1
 67
     0
278
    -2
288
     1
 68
     0
279
    -2
289
     1
 69
     0
  0
VISUALSTYLE
  5
2F
102
{ACAD_REACTORS
330
2A
102
}
102
{ACAD_XDICTIONARY
360
242
102
}
330
2A
100
AcDbVisualStyle
  2
2dWireframe
 70
     4
 71
     0
 72
     2
 73
     0
 90
        0
 40
0.6
 41
30.0
 62
     5
 63
     7
421
 16777215
 74
     1
 91
        4
 64
     7
 65
   257
 75
     1
175
     1
 42
1.0
 92
        0
 66
   257
 43
1.0
 76
     1
 77
     6
 78
     2
 67
     7
 79
     5
170
     0
171
     0
290
     0
174
     0
 93
        1
 44
0.0
173
     0
291
     0
 45
0.0
  0
VISUALSTYLE
  5
32
102
{ACAD_REACTORS
330
2A
102
}
102
{ACAD_XDICTIONARY
360
248
102
}
330
2A
100
AcDbVisualStyle
  2
Basic
 70
     7
 71
     1
 72
     0
 73
     1
 90
        0
 40
0.6
 41
30.0
 62
     5
 63
     7
421
 16777215
 74
     0
 91
        4
 64
     7
 65
   257
 75
     1
175
     1
 42
1.0
 92
        8
 66
     7
 43
1.0
 76
     1
 77
     6
 78
     2
 67
     7
 79
     5
170
     0
171
     0
290
     0
174
     0
 93
        1
 44
0.0
173
     0
291
     1
 45
0.0
  0
VISUALSTYLE
  5
36
102
{ACAD_REACTORS
330
2A
102
}
102
{ACAD_XDICTIONARY
360
250
102
}
330
2A
100
AcDbVisualStyle
  2
Brighten
 70
    12
 71
     2
 72
     2
 73
     0
 90
        0
 40
0.6
 41
30.0
 62
     5
 63
     7
421
 16777215
 74
     1
 91
        4
 64
     7
 65
   257
 75
     1
175
     1
 42
1.0
 92
        8
 66
     7
 43
1.0
 76
     1
 77
     6
 78
     2
 67
     7
 79
     5
170
     0
171
     0
290
     0
174
     0
 93
        1
 44
50.0
173
     0
291
     1
 45
0.0
  0
VISUALSTYLE
  5
3A
102
{ACAD_REACTORS
330
2A
102
}
102
{ACAD_XDICTIONARY
360
258
102
}
330
2A
100
AcDbVisualStyle
  2
ColorChange
 70
    16
 71
     2
 72
     2
 73
     3
 90
        0
 40
0.6
 41
30.0
 62
     5
 63
     8
421
  8421504
 74
     1
 91
        4
 64
     7
 65
   257
 75
     1
175
     1
 42
1.0
 92
        8
 66
     8
424
  8421504
 43
1.0
 76
     1
 77
     6
 78
     2
 67
     7
 79
     5
170
     0
171
     0
290
     0
174
     0
 93
        1
 44
0.0
173
     0
291
     1
 45
0.0
  0
VISUALSTYLE
  5
34
102
{ACAD_REACTORS
330
2A
102
}
102
{ACAD_XDICTIONARY
360
24C
102
}
330
2A
100
AcDbVisualStyle
  2
Conceptual
 70
     9
 71
     3
 72
     2
 73
     0
 90
        0
 40
0.6
 41
30.0
 62
     5
 63
     7
421
 16777215
 74
     2
 91
        2
 64
     7
 65
   257
 75
     1
175
     1
 42
179.0
 92
        8
 66
     7
 43
1.0
 76
     1
 77
     6
 78
     2
 67
     7
 79
     3
170
     0
171
     0
290
     0
174
     0
 93
        1
 44
0.0
173
     0
291
     0
 45
0.0
  0
VISUALSTYLE
  5
35
102
{ACAD_REACTORS
330
2A
102
}
102
{ACAD_XDICTIONARY
360
24E
102
}
330
2A
100
AcDbVisualStyle
  2
Dim
 70
    11
 71
     2
 72
     2
 73
     0
 90
        0
 40
0.6
 41
30.0
 62
     5
 63
     7
421
 16777215
 74
     1
 91
        4
 64
     7
 65
   257
 75
     1
175
     1
 42
1.0
 92
        8
 66
     7
 43
1.0
 76
     1
 77
     6
 78
     2
 67
     7
 79
     5
170
     0
171
     0
290
     0
174
     0
 93
        1
 44
-50.0
173
     0
291
     1
 45
0.0
  0
VISUALSTYLE
  5
3D
102
{ACAD_REACTORS
330
2A
102
}
102
{ACAD_XDICTIONARY
360
25E
102
}
330
2A
100
AcDbVisualStyle
  2
EdgeColorOff
 70
    22
 71
     2
 72
     2
 73
     0
 90
        0
 40
0.6
 41
30.0
 62
     5
 63
     7
421
 16777215
 74
     1
 91
        4
 64
     7
 65
   257
 75
     1
175
     1
 42
1.0
 92
        8
 66
     7
 43
1.0
 76
     1
 77
     6
 78
     2
 67
     7
 79
     5
170
     0
171
     0
290
     0
174
     0
 93
        1
 44
0.0
173
     0
291
     1
 45
0.0
  0
VISUALSTYLE
  5
39
102
{ACAD_REACTORS
330
2A
102
}
102
{ACAD_XDICTIONARY
360
256
102
}
330
2A
100
AcDbVisualStyle
  2
Facepattern
 70
    15
 71
     2
 72
     2
 73
     0
 90
        0
 40
0.6
 41
30.0
 62
     5
 63
     7
421
 16777215
 74
     1
 91
        4
 64
     7
 65
   257
 75
     1
175
     1
 42
1.0
 92
        8
 66
     7
 43
1.0
 76
     1
 77
     6
 78
     2
 67
     7
 79
     5
170
     0
171
     0
290
     0
174
     0
 93
        1
 44
0.0
173
     0
291
     1
 45
0.0
  0
VISUALSTYLE
  5
2B
102
{ACAD_REACTORS
330
2A
102
}
102
{ACAD_XDICTIONARY
360
23A
102
}
330
2A
100
AcDbVisualStyle
  2
Flat
 70
     0
 71
     2
 72
     1
 73
     1
 90
        2
 40
0.6
 41
30.0
 62
     5
 63
     7
421
 16777215
 74
     0
 91
        0
 64
     7
 65
   257
 75
     1
175
     1
 42
1.0
 92
        8
 66
     7
 43
1.0
 76
     1
 77
     6
 78
     2
 67
     7
 79
     5
170
     0
171
     0
290
     0
174
     0
 93
       13
 44
0.0
173
     0
291
     1
 45
0.0
  0
VISUALSTYLE
  5
2C
102
{ACAD_REACTORS
330
2A
102
}
102
{ACAD_XDICTIONARY
360
23C
102
}
330
2A
100
AcDbVisualStyle
  2
FlatWithEdges
 70
     1
 71
     2
 72
     1
 73
     1
 90
        2
 40
0.6
 41
30.0
 62
     5
 63
     7
421
 16777215
 74
     1
 91
        0
 64
     7
 65
   257
 75
     1
175
     1
 42
1.0
 92
        0
 66
   257
 43
1.0
 76
     1
 77
     6
 78
     2
 67
     7
 79
     5
170
     0
171
     0
290
     0
174
     0
 93
       13
 44
0.0
173
     0
291
     1
 45
0.0
  0
VISUALSTYLE
  5
2D
102
{ACAD_REACTORS
330
2A
102
}
102
{ACAD_XDICTIONARY
360
23E
102
}
330
2A
100
AcDbVisualStyle
  2
Gouraud
 70
     2
 71
     2
 72
     2
 73
     1
 90
        2
 40
0.6
 41
30.0
 62
     5
 63
     7
421
 16777215
 74
     0
 91
        0
 64
     7
 65
   257
 75
     1
175
     1
 42
1.0
 92
        0
 66
     7
 43
1.0
 76
     1
 77
     6
 78
     2
 67
     7
 79
     5
170
     0
171
     0
290
     0
174
     0
 93
       13
 44
0.0
173
     0
291
     1
 45
0.0
  0
VISUALSTYLE
  5
2E
102
{ACAD_REACTORS
330
2A
102
}
102
{ACAD_XDICTIONARY
360
240
102
}
330
2A
100
AcDbVisualStyle
  2
GouraudWithEdges
 70
     3
 71
     2
 72
     2
 73
     1
 90
        2
 40
0.6
 41
30.0
 62
     5
 63
     7
421
 16777215
 74
     1
 91
        0
 64
     7
 65
   257
 75
     1
175
     1
 42
1.0
 92
        0
 66
   257
 43
1.0
 76
     1
 77
     6
 78
     2
 67
     7
 79
     5
170
     0
171
     0
290
     0
174
     0
 93
       13
 44
0.0
173
     0
291
     1
 45
0.0
  0
VISUALSTYLE
  5
31
102
{ACAD_REACTORS
330
2A
102
}
102
{ACAD_XDICTIONARY
360
246
102
}
330
2A
100
AcDbVisualStyle
  2
Hidden
 70
     6
 71
     1
 72
     2
 73
     2
 90
        0
 40
0.6
 41
30.0
 62
     5
 63
     7
421
 16777215
 74
     2
 91
        2
 64
     7
 65
   257
 75
     2
175
     1
 42
40.0
 92
        0
 66
   257
 43
1.0
 76
     1
 77
     6
 78
     2
 67
     7
 79
     3
170
     0
171
     0
290
     0
174
     0
 93
        1
 44
0.0
173
     0
291
     0
 45
0.0
  0
VISUALSTYLE
  5
3B
102
{ACAD_REACTORS
330
2A
102
}
102
{ACAD_XDICTIONARY
360
25A
102
}
330
2A
100
AcDbVisualStyle
  2
JitterOff
 70
    20
 71
     2
 72
     2
 73
     0
 90
        0
 40
0.6
 41
30.0
 62
     5
 63
     7
421
 16777215
 74
     1
 91
        4
 64
     7
 65
   257
 75
     1
175
     1
 42
1.0
 92
       10
 66
     7
 43
1.0
 76
     1
 77
     6
 78
     2
 67
     7
 79
     5
170
     0
171
     0
290
     0
174
     0
 93
        1
 44
0.0
173
     0
291
     1
 45
0.0
  0
VISUALSTYLE
  5
38
102
{ACAD_REACTORS
330
2A
102
}
102
{ACAD_XDICTIONARY
360
254
102
}
330
2A
100
AcDbVisualStyle
  2
Linepattern
 70
    14
 71
     2
 72
     2
 73
     0
 90
        0
 40
0.6
 41
30.0
 62
     5
 63
     7
421
 16777215
 74
     1
 91
        4
 64
     7
 65
   257
 75
     7
175
     7
 42
1.0
 92
        8
 66
     7
 43
1.0
 76
     1
 77
     6
 78
     2
 67
     7
 79
     5
170
     0
171
     0
290
     0
174
     0
 93
        1
 44
0.0
173
     0
291
     1
 45
0.0
  0
VISUALSTYLE
  5
3C
102
{ACAD_REACTORS
330
2A
102
}
102
{ACAD_XDICTIONARY
360
25C
102
}
330
2A
100
AcDbVisualStyle
  2
OverhangOff
 70
    21
 71
     2
 72
     2
 73
     0
 90
        0
 40
0.6
 41
30.0
 62
     5
 63
     7
421
 16777215
 74
     1
 91
        4
 64
     7
 65
   257
 75
     1
175
     1
 42
1.0
 92
        9
 66
     7
 43
1.0
 76
     1
 77
     6
 78
     2
 67
     7
 79
     5
170
     0
171
     0
290
     0
174
     0
 93
        1
 44
0.0
173
     0
291
     1
 45
0.0
  0
VISUALSTYLE
  5
33
102
{ACAD_REACTORS
330
2A
102
}
102
{ACAD_XDICTIONARY
360
24A
102
}
330
2A
100
AcDbVisualStyle
  2
Realistic
 70
     8
 71
     2
 72
     3
 73
     0
 90
        2
 40
0.6
 41
30.0
 62
     5
 63
     7
421
 16777215
 74
     0
 91
        0
 64
     7
 65
   257
 75
     1
175
     1
 42
1.0
 92
        8
 66
   257
 43
1.0
 76
     1
 77
     6
 78
     2
 67
     7
 79
     3
170
     0
171
     0
290
     0
174
     0
 93
       13
 44
0.0
173
     0
291
     0
 45
0.0
  0
VISUALSTYLE
  5
42
102
{ACAD_REACTORS
330
2A
102
}
102
{ACAD_XDICTIONARY
360
268
102
}
330
2A
100
AcDbVisualStyle
  2
Shaded
 70
    27
 71
     2
 72
     2
 73
     1
 90
        2
 40
0.6
 41
30.0
 62
     5
 63
     7
421
 16777215
 74
     0
 91
        4
 64
     7
 65
   257
 75
     1
175
     1
 42
1.0
 92
        8
 66
   257
 43
1.0
 76
     1
 77
     6
 78
     2
 67
     8
425
  7895160
 79
     3
170
     0
171
     0
290
     0
174
     0
 93
        5
 44
0.0
173
     0
291
     0
 45
0.0
  0
VISUALSTYLE
  5
41
102
{ACAD_REACTORS
330
2A
102
}
102
{ACAD_XDICTIONARY
360
266
102
}
330
2A
100
AcDbVisualStyle
  2
Shaded with edges
 70
    26
 71
     2
 72
     2
 73
     1
 90
        2
 40
0.6
 41
30.0
 62
     5
 63
     7
421
 16777215
 74
     1
 91
       10
 64
     7
 65
   257
 75
     2
175
     1
 42
1.0
 92
        8
 66
   257
 43
1.0
 76
     1
 77
     6
 78
     2
 67
     7
 79
     3
170
     0
171
     0
290
     0
174
     0
 93
        5
 44
0.0
173
     0
291
     0
 45
0.0
  0
VISUALSTYLE
  5
3E
102
{ACAD_REACTORS
330
2A
102
}
102
{ACAD_XDICTIONARY
360
260
102
}
330
2A
100
AcDbVisualStyle
  2
Shades of Gray
 70
    23
 71
     2
 72
     2
 73
     3
 90
        0
 40
0.6
 41
30.0
 62
     5
 63
     7
421
 16777215
 74
     2
 91
        2
 64
     7
 65
     7
 75
     1
175
     1
 42
40.0
 92
        8
 66
     7
 43
1.0
 76
     1
 77
     6
 78
     2
 67
     7
 79
     3
170
     0
171
     0
290
     0
174
     0
 93
        1
 44
0.0
173
     0
291
     0
 45
0.0
  0
VISUALSTYLE
  5
3F
102
{ACAD_REACTORS
330
2A
102
}
102
{ACAD_XDICTIONARY
360
262
102
}
330
2A
100
AcDbVisualStyle
  2
Sketchy
 70
    24
 71
     1
 72
     2
 73
     2
 90
        0
 40
0.6
 41
30.0
 62
     5
 63
     7
421
 16777215
 74
     2
 91
        2
 64
     7
 65
     7
 75
     1
175
     1
 42
40.0
 92
       11
 66
     7
 43
1.0
 76
     1
 77
     6
 78
     2
 67
     7
 79
     6
170
     0
171
     0
290
     0
174
     0
 93
        1
 44
0.0
173
     0
291
     0
 45
0.0
  0
VISUALSTYLE
  5
37
102
{ACAD_REACTORS
330
2A
102
}
102
{ACAD_XDICTIONARY
360
252
102
}
330
2A
100
AcDbVisualStyle
  2
Thicken
 70
    13
 71
     2
 72
     2
 73
     0
 90
        0
 40
0.6
 41
30.0
 62
     5
 63
     7
421
 16777215
 74
     1
 91
        4
 64
     7
 65
   257
 75
     1
175
     1
 42
1.0
 92
       12
 66
     7
 43
1.0
 76
     1
 77
     6
 78
     2
 67
     7
 79
     5
170
     0
171
     0
290
     0
174
     0
 93
        1
 44
0.0
173
     0
291
     1
 45
0.0
  0
VISUALSTYLE
  5
30
102
{ACAD_REACTORS
330
2A
102
}
102
{ACAD_XDICTIONARY
360
244
102
}
330
2A
100
AcDbVisualStyle
  2
Wireframe
 70
     5
 71
     0
 72
     2
 73
     0
 90
        0
 40
0.6
 41
30.0
 62
     5
 63
     7
421
 16777215
 74
     1
 91
        4
 64
     7
 65
   257
 75
     1
175
     1
 42
1.0
 92
        0
 66
   257
 43
1.0
 76
     1
 77
     6
 78
     2
 67
     7
 79
     3
170
     0
171
     0
290
     0
174
     0
 93
        1
 44
0.0
173
     0
291
     0
 45
0.0
  0
VISUALSTYLE
  5
40
102
{ACAD_REACTORS
330
2A
102
}
102
{ACAD_XDICTIONARY
360
264
102
}
330
2A
100
AcDbVisualStyle
  2
X-Ray
 70
    25
 71
     2
 72
     2
 73
     1
 90
        1
 40
0.5
 41
30.0
 62
     5
 63
     7
421
 16777215
 74
     1
 91
        0
 64
     7
 65
   257
 75
     1
175
     1
 42
1.0
 92
        8
 66
     7
 43
1.0
 76
     1
 77
     6
 78
     2
 67
     7
 79
     3
170
     0
171
     0
290
     0
174
     0
 93
       13
 44
0.0
173
     0
291
     0
 45
0.0
  0
DICTIONARYVAR
  5
238
102
{ACAD_REACTORS
330
237
102
}
330
237
100
DictionaryVariables
280
     0
  1
1:1
  0
DICTIONARYVAR
  5
274
102
{ACAD_REACTORS
330
237
102
}
330
237
100
DictionaryVariables
280
     0
  1
3.500000
  0
DICTIONARYVAR
  5
275
102
{ACAD_REACTORS
330
237
102
}
330
237
100
DictionaryVariables
280
     0
  1
acadiso.lin
  0
DICTIONARYVAR
  5
271
102
{ACAD_REACTORS
330
237
102
}
330
237
100
DictionaryVariables
280
     0
  1
Standard
  0
DICTIONARYVAR
  5
270
102
{ACAD_REACTORS
330
237
102
}
330
237
100
DictionaryVariables
280
     0
  1
Standard
  0
DICTIONARYVAR
  5
239
102
{ACAD_REACTORS
330
237
102
}
330
237
100
DictionaryVariables
280
     0
  1
2
  0
DICTIONARY
  5
26D
330
6C
100
AcDbDictionary
280
     1
281
     1
  3
ACAD_XREC_ROUNDTRIP
360
26E
  0
DICTIONARY
  5
26A
330
6A
100
AcDbDictionary
280
     1
281
     1
  3
ACAD_ROUNDTRIP_2008_TABLESTYLE_CELLSTYLEMAP
360
26B
  0
DICTIONARY
  5
242
330
2F
100
AcDbDictionary
280
     1
281
     1
  3
ACAD_XREC_ROUNDTRIP
360
243
  0
DICTIONARY
  5
248
330
32
100
AcDbDictionary
280
     1
281
     1
  3
ACAD_XREC_ROUNDTRIP
360
249
  0
DICTIONARY
  5
250
330
36
100
AcDbDictionary
280
     1
281
     1
  3
ACAD_XREC_ROUNDTRIP
360
251
  0
DICTIONARY
  5
258
330
3A
100
AcDbDictionary
280
     1
281
     1
  3
ACAD_XREC_ROUNDTRIP
360
259
  0
DICTIONARY
  5
24C
330
34
100
AcDbDictionary
280
     1
281
     1
  3
ACAD_XREC_ROUNDTRIP
360
24D
  0
DICTIONARY
  5
24E
330
35
100
AcDbDictionary
280
     1
281
     1
  3
ACAD_XREC_ROUNDTRIP
360
24F
  0
DICTIONARY
  5
25E
330
3D
100
AcDbDictionary
280
     1
281
     1
  3
ACAD_XREC_ROUNDTRIP
360
25F
  0
DICTIONARY
  5
256
330
39
100
AcDbDictionary
280
     1
281
     1
  3
ACAD_XREC_ROUNDTRIP
360
257
  0
DICTIONARY
  5
23A
330
2B
100
AcDbDictionary
280
     1
281
     1
  3
ACAD_XREC_ROUNDTRIP
360
23B
  0
DICTIONARY
  5
23C
330
2C
100
AcDbDictionary
280
     1
281
     1
  3
ACAD_XREC_ROUNDTRIP
360
23D
  0
DICTIONARY
  5
23E
330
2D
100
AcDbDictionary
280
     1
281
     1
  3
ACAD_XREC_ROUNDTRIP
360
23F
  0
DICTIONARY
  5
240
330
2E
100
AcDbDictionary
280
     1
281
     1
  3
ACAD_XREC_ROUNDTRIP
360
241
  0
DICTIONARY
  5
246
330
31
100
AcDbDictionary
280
     1
281
     1
  3
ACAD_XREC_ROUNDTRIP
360
247
  0
DICTIONARY
  5
25A
330
3B
100
AcDbDictionary
280
     1
281
     1
  3
ACAD_XREC_ROUNDTRIP
360
25B
  0
DICTIONARY
  5
254
330
38
100
AcDbDictionary
280
     1
281
     1
  3
ACAD_XREC_ROUNDTRIP
360
255
  0
DICTIONARY
  5
25C
330
3C
100
AcDbDictionary
280
     1
281
     1
  3
ACAD_XREC_ROUNDTRIP
360
25D
  0
DICTIONARY
  5
24A
330
33
100
AcDbDictionary
280
     1
281
     1
  3
ACAD_XREC_ROUNDTRIP
360
24B
  0
DICTIONARY
  5
268
330
42
100
AcDbDictionary
280
     1
281
     1
  3
ACAD_XREC_ROUNDTRIP
360
269
  0
DICTIONARY
  5
266
330
41
100
AcDbDictionary
280
     1
281
     1
  3
ACAD_XREC_ROUNDTRIP
360
267
  0
DICTIONARY
  5
260
330
3E
100
AcDbDictionary
280
     1
281
     1
  3
ACAD_XREC_ROUNDTRIP
360
261
  0
DICTIONARY
  5
262
330
3F
100
AcDbDictionary
280
     1
281
     1
  3
ACAD_XREC_ROUNDTRIP
360
263
  0
DICTIONARY
  5
252
330
37
100
AcDbDictionary
280
     1
281
     1
  3
ACAD_XREC_ROUNDTRIP
360
253
  0
DICTIONARY
  5
244
330
30
100
AcDbDictionary
280
     1
281
     1
  3
ACAD_XREC_ROUNDTRIP
360
245
  0
DICTIONARY
  5
264
330
40
100
AcDbDictionary
280
     1
281
     1
  3
ACAD_XREC_ROUNDTRIP
360
265
  0
XRECORD
  5
26E
102
{ACAD_REACTORS
330
26D
102
}
330
26D
100
AcDbXrecord
280
     1
102
ACAD_ROUNDTRIP_2010_MLEADER_STYLE
  0
CELLSTYLEMAP
  5
26B
102
{ACAD_REACTORS
330
26A
102
}
330
26A
100
AcDbCellStyleMap
 90
        3
300
CELLSTYLE
  1
TABLEFORMAT_BEGIN
 90
        5
170
     1
 91
        0
 92
    32768
 62
   257
 93
        1
300
CONTENTFORMAT
  1
CONTENTFORMAT_BEGIN
 90
        0
 91
        0
 92
        4
 93
        0
300

 40
0.0
140
1.0
 94
        5
 62
     0
340
11
144
6.0
309
CONTENTFORMAT_END
171
     1
301
MARGIN
  1
CELLMARGIN_BEGIN
 40
1.5
 40
1.5
 40
1.5
 40
1.5
 40
1.5
 40
1.5
309
CELLMARGIN_END
 94
        6
 95
        1
302
GRIDFORMAT
  1
GRIDFORMAT_BEGIN
 90
        0
 91
        1
 62
     0
 92
       -2
340
14
 93
        0
 40
0.045
309
GRIDFORMAT_END
 95
        2
302
GRIDFORMAT
  1
GRIDFORMAT_BEGIN
 90
        0
 91
        1
 62
     0
 92
       -2
340
14
 93
        0
 40
0.045
309
GRIDFORMAT_END
 95
        4
302
GRIDFORMAT
  1
GRIDFORMAT_BEGIN
 90
        0
 91
        1
 62
     0
 92
       -2
340
14
 93
        0
 40
0.045
309
GRIDFORMAT_END
 95
        8
302
GRIDFORMAT
  1
GRIDFORMAT_BEGIN
 90
        0
 91
        1
 62
     0
 92
       -2
340
14
 93
        0
 40
0.045
309
GRIDFORMAT_END
 95
       16
302
GRIDFORMAT
  1
GRIDFORMAT_BEGIN
 90
        0
 91
        1
 62
     0
 92
       -2
340
14
 93
        0
 40
0.045
309
GRIDFORMAT_END
 95
       32
302
GRIDFORMAT
  1
GRIDFORMAT_BEGIN
 90
        0
 91
        1
 62
     0
 92
       -2
340
14
 93
        0
 40
0.045
309
GRIDFORMAT_END
309
TABLEFORMAT_END
  1
CELLSTYLE_BEGIN
 90
        1
 91
        1
300
_TITLE
309
CELLSTYLE_END
300
CELLSTYLE
  1
TABLEFORMAT_BEGIN
 90
        5
170
     1
 91
        0
 92
        0
 62
   257
 93
        1
300
CONTENTFORMAT
  1
CONTENTFORMAT_BEGIN
 90
        0
 91
        0
 92
        4
 93
        0
300

 40
0.0
140
1.0
 94
        5
 62
     0
340
11
144
4.5
309
CONTENTFORMAT_END
171
     1
301
MARGIN
  1
CELLMARGIN_BEGIN
 40
1.5
 40
1.5
 40
1.5
 40
1.5
 40
1.5
 40
1.5
309
CELLMARGIN_END
 94
        6
 95
        1
302
GRIDFORMAT
  1
GRIDFORMAT_BEGIN
 90
        0
 91
        1
 62
     0
 92
       -2
340
14
 93
        0
 40
0.045
309
GRIDFORMAT_END
 95
        2
302
GRIDFORMAT
  1
GRIDFORMAT_BEGIN
 90
        0
 91
        1
 62
     0
 92
       -2
340
14
 93
        0
 40
0.045
309
GRIDFORMAT_END
 95
        4
302
GRIDFORMAT
  1
GRIDFORMAT_BEGIN
 90
        0
 91
        1
 62
     0
 92
       -2
340
14
 93
        0
 40
0.045
309
GRIDFORMAT_END
 95
        8
302
GRIDFORMAT
  1
GRIDFORMAT_BEGIN
 90
        0
 91
        1
 62
     0
 92
       -2
340
14
 93
        0
 40
0.045
309
GRIDFORMAT_END
 95
       16
302
GRIDFORMAT
  1
GRIDFORMAT_BEGIN
 90
        0
 91
        1
 62
     0
 92
       -2
340
14
 93
        0
 40
0.045
309
GRIDFORMAT_END
 95
       32
302
GRIDFORMAT
  1
GRIDFORMAT_BEGIN
 90
        0
 91
        1
 62
     0
 92
       -2
340
14
 93
        0
 40
0.045
309
GRIDFORMAT_END
309
TABLEFORMAT_END
  1
CELLSTYLE_BEGIN
 90
        2
 91
        1
300
_HEADER
309
CELLSTYLE_END
300
CELLSTYLE
  1
TABLEFORMAT_BEGIN
 90
        5
170
     1
 91
        0
 92
        0
 62
   257
 93
        1
300
CONTENTFORMAT
  1
CONTENTFORMAT_BEGIN
 90
        0
 91
        0
 92
        4
 93
        0
300

 40
0.0
140
1.0
 94
        2
 62
     0
340
11
144
4.5
309
CONTENTFORMAT_END
171
     1
301
MARGIN
  1
CELLMARGIN_BEGIN
 40
1.5
 40
1.5
 40
1.5
 40
1.5
 40
1.5
 40
1.5
309
CELLMARGIN_END
 94
        6
 95
        1
302
GRIDFORMAT
  1
GRIDFORMAT_BEGIN
 90
        0
 91
        1
 62
     0
 92
       -2
340
14
 93
        0
 40
0.045
309
GRIDFORMAT_END
 95
        2
302
GRIDFORMAT
  1
GRIDFORMAT_BEGIN
 90
        0
 91
        1
 62
     0
 92
       -2
340
14
 93
        0
 40
0.045
309
GRIDFORMAT_END
 95
        4
302
GRIDFORMAT
  1
GRIDFORMAT_BEGIN
 90
        0
 91
        1
 62
     0
 92
       -2
340
14
 93
        0
 40
0.045
309
GRIDFORMAT_END
 95
        8
302
GRIDFORMAT
  1
GRIDFORMAT_BEGIN
 90
        0
 91
        1
 62
     0
 92
       -2
340
14
 93
        0
 40
0.045
309
GRIDFORMAT_END
 95
       16
302
GRIDFORMAT
  1
GRIDFORMAT_BEGIN
 90
        0
 91
        1
 62
     0
 92
       -2
340
14
 93
        0
 40
0.045
309
GRIDFORMAT_END
 95
       32
302
GRIDFORMAT
  1
GRIDFORMAT_BEGIN
 90
        0
 91
        1
 62
     0
 92
       -2
340
14
 93
        0
 40
0.045
309
GRIDFORMAT_END
309
TABLEFORMAT_END
  1
CELLSTYLE_BEGIN
 90
        3
 91
        2
300
_DATA
309
CELLSTYLE_END
  0
XRECORD
  5
243
102
{ACAD_REACTORS
330
242
102
}
330
242
100
AcDbXrecord
280
     1
102
RTVSPropertyOp0
 70
     1
102
RTVSPropertyOp1
 70
     1
102
RTVSPropertyOp2
 70
     1
102
RTVSPropertyOp3
 70
     1
102
RTVSPropertyOp4
 70
     1
102
RTVSPropertyOp5
 70
     1
102
RTVSPropertyOp6
 70
     1
102
RTVSPropertyOp7
 70
     1
102
RTVSPropertyOp8
 70
     1
102
RTVSPropertyOp9
 70
     1
102
RTVSPropertyOp10
 70
     1
102
RTVSPropertyOp11
 70
     1
102
RTVSPropertyOp12
 70
     1
102
RTVSPropertyOp13
 70
     1
102
RTVSPropertyOp14
 70
     1
102
RTVSPropertyOp15
 70
     1
102
RTVSPropertyOp16
 70
     1
102
RTVSPropertyOp17
 70
     1
102
RTVSPropertyOp18
 70
     1
102
RTVSPropertyOp19
 70
     1
102
RTVSPropertyOp20
 70
     1
102
RTVSPropertyOp21
 70
     1
102
RTVSPropertyOp22
 70
     1
102
RTVSPropertyOp23
 70
     1
102
RTVSPropertyOp24
 70
     1
102
RTVSPropertyOp25
 70
     1
102
RTVSPropertyOp26
 70
     1
102
RTVSPropertyOp27
 70
     1
102
RTVSPropertyOp28
 70
     1
102
RTVSPropertyOp29
 70
     1
102
RTVSPropertyOp30
 70
     1
102
RTVSPropertyOp31
 70
     1
102
RTVSPropertyOp32
 70
     1
102
RTVSPropertyOp33
 70
     1
102
RTVSPropertyOp34
 70
     1
102
RTVSPropertyOp35
 70
     1
102
RTVSPropertyOp36
 70
     1
102
RTVSPropertyOp37
 70
     1
102
RTVSPropertyOp38
 70
     1
102
RTVSPropertyOp39
 70
     1
102
RTVSPropertyOp40
 70
     1
102
RTVSPropertyOp41
 70
     1
102
RTVSPropertyOp42
 70
     1
102
RTVSPropertyOp43
 70
     1
102
RTVSPropertyOp44
 70
     1
102
RTVSPropertyOp45
 70
     1
102
RTVSPropertyOp46
 70
     1
102
RTVSPropertyOp47
 70
     1
102
RTVSPropertyOp48
 70
     1
102
RTVSPropertyOp49
 70
     1
102
RTVSPropertyOp50
 70
     1
102
RTVSPropertyOp51
 70
     0
102
RTVSPropertyOp52
 70
     0
102
RTVSPropertyOp53
 70
     1
102
RTVSPropertyOp54
 70
     1
102
RTVSPropertyOp55
 70
     1
102
RTVSPropertyOp56
 70
     1
102
RTVSPropertyOp57
 70
     1
102
RTVSPost2010Prop28
280
     1
102
RTVSPost2010PropOp28
 70
     1
102
RTVSPost2010Prop29
280
     1
102
RTVSPost2010PropOp29
 70
     1
102
RTVSPost2010Prop30
280
     0
102
RTVSPost2010PropOp30
 70
     1
102
RTVSPost2010Prop31
280
     0
102
RTVSPost2010PropOp31
 70
     1
102
RTVSPost2010Prop32
280
     0
102
RTVSPost2010PropOp32
 70
     1
102
RTVSPost2010Prop33
280
     0
102
RTVSPost2010PropOp33
 70
     1
102
RTVSPost2010Prop34
280
     0
102
RTVSPost2010PropOp34
 70
     1
102
RTVSPost2010Prop35
280
     0
102
RTVSPost2010PropOp35
 70
     1
102
RTVSPost2010Prop36
280
     0
102
RTVSPost2010PropOp36
 70
     1
102
RTVSPost2010Prop37
 90
       50
102
RTVSPost2010PropOp37
 70
     1
102
RTVSPost2010Prop38
140
0.0
102
RTVSPost2010PropOp38
 70
     1
102
RTVSPost2010Prop39
140
1.0
102
RTVSPost2010PropOp39
 70
     1
102
RTVSPost2010Prop40
 90
        0
102
RTVSPost2010PropOp40
 70
     1
102
RTVSPost2010Prop41ColorIndex
 90
       18
102
RTVSPost2010Prop41ColorRGB
 90
        0
102
RTVSPost2010PropOp41
 70
     1
102
RTVSPost2010Prop42
 90
       50
102
RTVSPost2010PropOp42
 70
     1
102
RTVSPost2010Prop43
 90
        3
102
RTVSPost2010PropOp43
 70
     1
102
RTVSPost2010Prop44ColorIndex
 90
        5
102
RTVSPost2010Prop44ColorRGB
 90
      255
102
RTVSPost2010PropOp44
 70
     1
102
RTVSPost2010Prop45
280
     0
102
RTVSPost2010PropOp45
 70
     1
102
RTVSPost2010Prop46
 90
       50
102
RTVSPost2010PropOp46
 70
     1
102
RTVSPost2010Prop47
 90
       50
102
RTVSPost2010PropOp47
 70
     1
102
RTVSPost2010Prop48
 90
       50
102
RTVSPost2010PropOp48
 70
     1
102
RTVSPost2010Prop49
280
     0
102
RTVSPost2010PropOp49
 70
     1
102
RTVSPost2010Prop50
 90
       50
102
RTVSPost2010PropOp50
 70
     1
102
RTVSPost2010Prop51ColorIndex
 90
      256
102
RTVSPost2010Prop51ColorRGB
 90
-16777216
102
RTVSPost2010PropOp51
 70
     0
102
RTVSPost2010Prop52
140
1.0
102
RTVSPost2010PropOp52
 70
     0
102
RTVSPost2010Prop53
 90
        2
102
RTVSPost2010PropOp53
 70
     1
102
RTVSPost2010Prop54
  1
strokes_ogs.tif
102
RTVSPost2010PropOp54
 70
     1
102
RTVSPost2010Prop55
280
     0
102
RTVSPost2010PropOp55
 70
     1
102
RTVSPost2010Prop56
140
1.0
102
RTVSPost2010PropOp56
 70
     1
102
RTVSPost2010Prop57
140
1.0
102
RTVSPost2010PropOp57
 70
     1
  0
XRECORD
  5
249
102
{ACAD_REACTORS
330
248
102
}
330
248
100
AcDbXrecord
280
     1
102
RTVSPropertyOp0
 70
     1
102
RTVSPropertyOp1
 70
     1
102
RTVSPropertyOp2
 70
     1
102
RTVSPropertyOp3
 70
     1
102
RTVSPropertyOp4
 70
     1
102
RTVSPropertyOp5
 70
     1
102
RTVSPropertyOp6
 70
     1
102
RTVSPropertyOp7
 70
     1
102
RTVSPropertyOp8
 70
     1
102
RTVSPropertyOp9
 70
     1
102
RTVSPropertyOp10
 70
     1
102
RTVSPropertyOp11
 70
     1
102
RTVSPropertyOp12
 70
     1
102
RTVSPropertyOp13
 70
     1
102
RTVSPropertyOp14
 70
     1
102
RTVSPropertyOp15
 70
     1
102
RTVSPropertyOp16
 70
     1
102
RTVSPropertyOp17
 70
     1
102
RTVSPropertyOp18
 70
     1
102
RTVSPropertyOp19
 70
     1
102
RTVSPropertyOp20
 70
     1
102
RTVSPropertyOp21
 70
     1
102
RTVSPropertyOp22
 70
     1
102
RTVSPropertyOp23
 70
     1
102
RTVSPropertyOp24
 70
     1
102
RTVSPropertyOp25
 70
     1
102
RTVSPropertyOp26
 70
     1
102
RTVSPropertyOp27
 70
     1
102
RTVSPropertyOp28
 70
     1
102
RTVSPropertyOp29
 70
     1
102
RTVSPropertyOp30
 70
     1
102
RTVSPropertyOp31
 70
     1
102
RTVSPropertyOp32
 70
     1
102
RTVSPropertyOp33
 70
     1
102
RTVSPropertyOp34
 70
     1
102
RTVSPropertyOp35
 70
     1
102
RTVSPropertyOp36
 70
     1
102
RTVSPropertyOp37
 70
     1
102
RTVSPropertyOp38
 70
     1
102
RTVSPropertyOp39
 70
     1
102
RTVSPropertyOp40
 70
     1
102
RTVSPropertyOp41
 70
     1
102
RTVSPropertyOp42
 70
     1
102
RTVSPropertyOp43
 70
     1
102
RTVSPropertyOp44
 70
     1
102
RTVSPropertyOp45
 70
     1
102
RTVSPropertyOp46
 70
     1
102
RTVSPropertyOp47
 70
     1
102
RTVSPropertyOp48
 70
     1
102
RTVSPropertyOp49
 70
     1
102
RTVSPropertyOp50
 70
     1
102
RTVSPropertyOp51
 70
     0
102
RTVSPropertyOp52
 70
     0
102
RTVSPropertyOp53
 70
     1
102
RTVSPropertyOp54
 70
     1
102
RTVSPropertyOp55
 70
     1
102
RTVSPropertyOp56
 70
     1
102
RTVSPropertyOp57
 70
     1
102
RTVSPost2010Prop28
280
     0
102
RTVSPost2010PropOp28
 70
     1
102
RTVSPost2010Prop29
280
     1
102
RTVSPost2010PropOp29
 70
     1
102
RTVSPost2010Prop30
280
     1
102
RTVSPost2010PropOp30
 70
     1
102
RTVSPost2010Prop31
280
     0
102
RTVSPost2010PropOp31
 70
     1
102
RTVSPost2010Prop32
280
     0
102
RTVSPost2010PropOp32
 70
     1
102
RTVSPost2010Prop33
280
     0
102
RTVSPost2010PropOp33
 70
     1
102
RTVSPost2010Prop34
280
     0
102
RTVSPost2010PropOp34
 70
     1
102
RTVSPost2010Prop35
280
     0
102
RTVSPost2010PropOp35
 70
     1
102
RTVSPost2010Prop36
280
     0
102
RTVSPost2010PropOp36
 70
     1
102
RTVSPost2010Prop37
 90
       50
102
RTVSPost2010PropOp37
 70
     1
102
RTVSPost2010Prop38
140
0.0
102
RTVSPost2010PropOp38
 70
     1
102
RTVSPost2010Prop39
140
1.0
102
RTVSPost2010PropOp39
 70
     1
102
RTVSPost2010Prop40
 90
        0
102
RTVSPost2010PropOp40
 70
     1
102
RTVSPost2010Prop41ColorIndex
 90
       18
102
RTVSPost2010Prop41ColorRGB
 90
        0
102
RTVSPost2010PropOp41
 70
     1
102
RTVSPost2010Prop42
 90
       50
102
RTVSPost2010PropOp42
 70
     1
102
RTVSPost2010Prop43
 90
        3
102
RTVSPost2010PropOp43
 70
     1
102
RTVSPost2010Prop44ColorIndex
 90
        5
102
RTVSPost2010Prop44ColorRGB
 90
      255
102
RTVSPost2010PropOp44
 70
     1
102
RTVSPost2010Prop45
280
     0
102
RTVSPost2010PropOp45
 70
     1
102
RTVSPost2010Prop46
 90
       50
102
RTVSPost2010PropOp46
 70
     1
102
RTVSPost2010Prop47
 90
       50
102
RTVSPost2010PropOp47
 70
     1
102
RTVSPost2010Prop48
 90
       50
102
RTVSPost2010PropOp48
 70
     1
102
RTVSPost2010Prop49
280
     0
102
RTVSPost2010PropOp49
 70
     1
102
RTVSPost2010Prop50
 90
       50
102
RTVSPost2010PropOp50
 70
     1
102
RTVSPost2010Prop51ColorIndex
 90
      256
102
RTVSPost2010Prop51ColorRGB
 90
-16777216
102
RTVSPost2010PropOp51
 70
     0
102
RTVSPost2010Prop52
140
1.0
102
RTVSPost2010PropOp52
 70
     0
102
RTVSPost2010Prop53
 90
        2
102
RTVSPost2010PropOp53
 70
     1
102
RTVSPost2010Prop54
  1
strokes_ogs.tif
102
RTVSPost2010PropOp54
 70
     1
102
RTVSPost2010Prop55
280
     0
102
RTVSPost2010PropOp55
 70
     1
102
RTVSPost2010Prop56
140
1.0
102
RTVSPost2010PropOp56
 70
     1
102
RTVSPost2010Prop57
140
1.0
102
RTVSPost2010PropOp57
 70
     1
  0
XRECORD
  5
251
102
{ACAD_REACTORS
330
250
102
}
330
250
100
AcDbXrecord
280
     1
102
RTVSPropertyOp0
 70
     1
102
RTVSPropertyOp1
 70
     1
102
RTVSPropertyOp2
 70
     1
102
RTVSPropertyOp3
 70
     1
102
RTVSPropertyOp4
 70
     1
102
RTVSPropertyOp5
 70
     1
102
RTVSPropertyOp6
 70
     1
102
RTVSPropertyOp7
 70
     1
102
RTVSPropertyOp8
 70
     1
102
RTVSPropertyOp9
 70
     1
102
RTVSPropertyOp10
 70
     1
102
RTVSPropertyOp11
 70
     1
102
RTVSPropertyOp12
 70
     1
102
RTVSPropertyOp13
 70
     1
102
RTVSPropertyOp14
 70
     1
102
RTVSPropertyOp15
 70
     1
102
RTVSPropertyOp16
 70
     1
102
RTVSPropertyOp17
 70
     1
102
RTVSPropertyOp18
 70
     1
102
RTVSPropertyOp19
 70
     1
102
RTVSPropertyOp20
 70
     1
102
RTVSPropertyOp21
 70
     1
102
RTVSPropertyOp22
 70
     1
102
RTVSPropertyOp23
 70
     1
102
RTVSPropertyOp24
 70
     1
102
RTVSPropertyOp25
 70
     1
102
RTVSPropertyOp26
 70
     1
102
RTVSPropertyOp27
 70
     1
102
RTVSPropertyOp28
 70
     1
102
RTVSPropertyOp29
 70
     1
102
RTVSPropertyOp30
 70
     1
102
RTVSPropertyOp31
 70
     1
102
RTVSPropertyOp32
 70
     1
102
RTVSPropertyOp33
 70
     1
102
RTVSPropertyOp34
 70
     1
102
RTVSPropertyOp35
 70
     1
102
RTVSPropertyOp36
 70
     1
102
RTVSPropertyOp37
 70
     1
102
RTVSPropertyOp38
 70
     1
102
RTVSPropertyOp39
 70
     1
102
RTVSPropertyOp40
 70
     1
102
RTVSPropertyOp41
 70
     1
102
RTVSPropertyOp42
 70
     1
102
RTVSPropertyOp43
 70
     1
102
RTVSPropertyOp44
 70
     1
102
RTVSPropertyOp45
 70
     1
102
RTVSPropertyOp46
 70
     1
102
RTVSPropertyOp47
 70
     1
102
RTVSPropertyOp48
 70
     1
102
RTVSPropertyOp49
 70
     1
102
RTVSPropertyOp50
 70
     1
102
RTVSPropertyOp51
 70
     0
102
RTVSPropertyOp52
 70
     0
102
RTVSPropertyOp53
 70
     1
102
RTVSPropertyOp54
 70
     1
102
RTVSPropertyOp55
 70
     1
102
RTVSPropertyOp56
 70
     1
102
RTVSPropertyOp57
 70
     1
102
RTVSPost2010Prop28
280
     0
102
RTVSPost2010PropOp28
 70
     1
102
RTVSPost2010Prop29
280
     1
102
RTVSPost2010PropOp29
 70
     1
102
RTVSPost2010Prop30
280
     1
102
RTVSPost2010PropOp30
 70
     1
102
RTVSPost2010Prop31
280
     0
102
RTVSPost2010PropOp31
 70
     1
102
RTVSPost2010Prop32
280
     0
102
RTVSPost2010PropOp32
 70
     1
102
RTVSPost2010Prop33
280
     0
102
RTVSPost2010PropOp33
 70
     1
102
RTVSPost2010Prop34
280
     0
102
RTVSPost2010PropOp34
 70
     1
102
RTVSPost2010Prop35
280
     0
102
RTVSPost2010PropOp35
 70
     1
102
RTVSPost2010Prop36
280
     0
102
RTVSPost2010PropOp36
 70
     1
102
RTVSPost2010Prop37
 90
       50
102
RTVSPost2010PropOp37
 70
     1
102
RTVSPost2010Prop38
140
0.0
102
RTVSPost2010PropOp38
 70
     1
102
RTVSPost2010Prop39
140
1.0
102
RTVSPost2010PropOp39
 70
     1
102
RTVSPost2010Prop40
 90
        0
102
RTVSPost2010PropOp40
 70
     1
102
RTVSPost2010Prop41ColorIndex
 90
       18
102
RTVSPost2010Prop41ColorRGB
 90
        0
102
RTVSPost2010PropOp41
 70
     1
102
RTVSPost2010Prop42
 90
       50
102
RTVSPost2010PropOp42
 70
     1
102
RTVSPost2010Prop43
 90
        3
102
RTVSPost2010PropOp43
 70
     1
102
RTVSPost2010Prop44ColorIndex
 90
        5
102
RTVSPost2010Prop44ColorRGB
 90
      255
102
RTVSPost2010PropOp44
 70
     1
102
RTVSPost2010Prop45
280
     0
102
RTVSPost2010PropOp45
 70
     1
102
RTVSPost2010Prop46
 90
       50
102
RTVSPost2010PropOp46
 70
     1
102
RTVSPost2010Prop47
 90
       50
102
RTVSPost2010PropOp47
 70
     1
102
RTVSPost2010Prop48
 90
       50
102
RTVSPost2010PropOp48
 70
     1
102
RTVSPost2010Prop49
280
     0
102
RTVSPost2010PropOp49
 70
     1
102
RTVSPost2010Prop50
 90
       50
102
RTVSPost2010PropOp50
 70
     1
102
RTVSPost2010Prop51ColorIndex
 90
      256
102
RTVSPost2010Prop51ColorRGB
 90
-16777216
102
RTVSPost2010PropOp51
 70
     0
102
RTVSPost2010Prop52
140
1.0
102
RTVSPost2010PropOp52
 70
     0
102
RTVSPost2010Prop53
 90
        2
102
RTVSPost2010PropOp53
 70
     1
102
RTVSPost2010Prop54
  1
strokes_ogs.tif
102
RTVSPost2010PropOp54
 70
     1
102
RTVSPost2010Prop55
280
     0
102
RTVSPost2010PropOp55
 70
     1
102
RTVSPost2010Prop56
140
1.0
102
RTVSPost2010PropOp56
 70
     1
102
RTVSPost2010Prop57
140
1.0
102
RTVSPost2010PropOp57
 70
     1
  0
XRECORD
  5
259
102
{ACAD_REACTORS
330
258
102
}
330
258
100
AcDbXrecord
280
     1
102
RTVSPropertyOp0
 70
     1
102
RTVSPropertyOp1
 70
     1
102
RTVSPropertyOp2
 70
     1
102
RTVSPropertyOp3
 70
     1
102
RTVSPropertyOp4
 70
     1
102
RTVSPropertyOp5
 70
     1
102
RTVSPropertyOp6
 70
     1
102
RTVSPropertyOp7
 70
     1
102
RTVSPropertyOp8
 70
     1
102
RTVSPropertyOp9
 70
     1
102
RTVSPropertyOp10
 70
     1
102
RTVSPropertyOp11
 70
     1
102
RTVSPropertyOp12
 70
     1
102
RTVSPropertyOp13
 70
     1
102
RTVSPropertyOp14
 70
     1
102
RTVSPropertyOp15
 70
     1
102
RTVSPropertyOp16
 70
     1
102
RTVSPropertyOp17
 70
     1
102
RTVSPropertyOp18
 70
     1
102
RTVSPropertyOp19
 70
     1
102
RTVSPropertyOp20
 70
     1
102
RTVSPropertyOp21
 70
     1
102
RTVSPropertyOp22
 70
     1
102
RTVSPropertyOp23
 70
     1
102
RTVSPropertyOp24
 70
     1
102
RTVSPropertyOp25
 70
     1
102
RTVSPropertyOp26
 70
     1
102
RTVSPropertyOp27
 70
     1
102
RTVSPropertyOp28
 70
     1
102
RTVSPropertyOp29
 70
     1
102
RTVSPropertyOp30
 70
     1
102
RTVSPropertyOp31
 70
     1
102
RTVSPropertyOp32
 70
     1
102
RTVSPropertyOp33
 70
     1
102
RTVSPropertyOp34
 70
     1
102
RTVSPropertyOp35
 70
     1
102
RTVSPropertyOp36
 70
     1
102
RTVSPropertyOp37
 70
     1
102
RTVSPropertyOp38
 70
     1
102
RTVSPropertyOp39
 70
     1
102
RTVSPropertyOp40
 70
     1
102
RTVSPropertyOp41
 70
     1
102
RTVSPropertyOp42
 70
     1
102
RTVSPropertyOp43
 70
     1
102
RTVSPropertyOp44
 70
     1
102
RTVSPropertyOp45
 70
     1
102
RTVSPropertyOp46
 70
     1
102
RTVSPropertyOp47
 70
     1
102
RTVSPropertyOp48
 70
     1
102
RTVSPropertyOp49
 70
     1
102
RTVSPropertyOp50
 70
     1
102
RTVSPropertyOp51
 70
     0
102
RTVSPropertyOp52
 70
     0
102
RTVSPropertyOp53
 70
     1
102
RTVSPropertyOp54
 70
     1
102
RTVSPropertyOp55
 70
     1
102
RTVSPropertyOp56
 70
     1
102
RTVSPropertyOp57
 70
     1
102
RTVSPost2010Prop28
280
     0
102
RTVSPost2010PropOp28
 70
     1
102
RTVSPost2010Prop29
280
     1
102
RTVSPost2010PropOp29
 70
     1
102
RTVSPost2010Prop30
280
     1
102
RTVSPost2010PropOp30
 70
     1
102
RTVSPost2010Prop31
280
     0
102
RTVSPost2010PropOp31
 70
     1
102
RTVSPost2010Prop32
280
     0
102
RTVSPost2010PropOp32
 70
     1
102
RTVSPost2010Prop33
280
     0
102
RTVSPost2010PropOp33
 70
     1
102
RTVSPost2010Prop34
280
     0
102
RTVSPost2010PropOp34
 70
     1
102
RTVSPost2010Prop35
280
     0
102
RTVSPost2010PropOp35
 70
     1
102
RTVSPost2010Prop36
280
     0
102
RTVSPost2010PropOp36
 70
     1
102
RTVSPost2010Prop37
 90
       50
102
RTVSPost2010PropOp37
 70
     1
102
RTVSPost2010Prop38
140
0.0
102
RTVSPost2010PropOp38
 70
     1
102
RTVSPost2010Prop39
140
1.0
102
RTVSPost2010PropOp39
 70
     1
102
RTVSPost2010Prop40
 90
        0
102
RTVSPost2010PropOp40
 70
     1
102
RTVSPost2010Prop41ColorIndex
 90
       18
102
RTVSPost2010Prop41ColorRGB
 90
        0
102
RTVSPost2010PropOp41
 70
     1
102
RTVSPost2010Prop42
 90
       50
102
RTVSPost2010PropOp42
 70
     1
102
RTVSPost2010Prop43
 90
        3
102
RTVSPost2010PropOp43
 70
     1
102
RTVSPost2010Prop44ColorIndex
 90
        5
102
RTVSPost2010Prop44ColorRGB
 90
      255
102
RTVSPost2010PropOp44
 70
     1
102
RTVSPost2010Prop45
280
     0
102
RTVSPost2010PropOp45
 70
     1
102
RTVSPost2010Prop46
 90
       50
102
RTVSPost2010PropOp46
 70
     1
102
RTVSPost2010Prop47
 90
       50
102
RTVSPost2010PropOp47
 70
     1
102
RTVSPost2010Prop48
 90
       50
102
RTVSPost2010PropOp48
 70
     1
102
RTVSPost2010Prop49
280
     0
102
RTVSPost2010PropOp49
 70
     1
102
RTVSPost2010Prop50
 90
       50
102
RTVSPost2010PropOp50
 70
     1
102
RTVSPost2010Prop51ColorIndex
 90
      256
102
RTVSPost2010Prop51ColorRGB
 90
-16777216
102
RTVSPost2010PropOp51
 70
     0
102
RTVSPost2010Prop52
140
1.0
102
RTVSPost2010PropOp52
 70
     0
102
RTVSPost2010Prop53
 90
        2
102
RTVSPost2010PropOp53
 70
     1
102
RTVSPost2010Prop54
  1
strokes_ogs.tif
102
RTVSPost2010PropOp54
 70
     1
102
RTVSPost2010Prop55
280
     0
102
RTVSPost2010PropOp55
 70
     1
102
RTVSPost2010Prop56
140
1.0
102
RTVSPost2010PropOp56
 70
     1
102
RTVSPost2010Prop57
140
1.0
102
RTVSPost2010PropOp57
 70
     1
  0
XRECORD
  5
24D
102
{ACAD_REACTORS
330
24C
102
}
330
24C
100
AcDbXrecord
280
     1
102
RTVSPropertyOp0
 70
     1
102
RTVSPropertyOp1
 70
     1
102
RTVSPropertyOp2
 70
     1
102
RTVSPropertyOp3
 70
     1
102
RTVSPropertyOp4
 70
     1
102
RTVSPropertyOp5
 70
     1
102
RTVSPropertyOp6
 70
     1
102
RTVSPropertyOp7
 70
     1
102
RTVSPropertyOp8
 70
     1
102
RTVSPropertyOp9
 70
     1
102
RTVSPropertyOp10
 70
     1
102
RTVSPropertyOp11
 70
     1
102
RTVSPropertyOp12
 70
     1
102
RTVSPropertyOp13
 70
     1
102
RTVSPropertyOp14
 70
     1
102
RTVSPropertyOp15
 70
     1
102
RTVSPropertyOp16
 70
     1
102
RTVSPropertyOp17
 70
     1
102
RTVSPropertyOp18
 70
     1
102
RTVSPropertyOp19
 70
     1
102
RTVSPropertyOp20
 70
     1
102
RTVSPropertyOp21
 70
     1
102
RTVSPropertyOp22
 70
     1
102
RTVSPropertyOp23
 70
     1
102
RTVSPropertyOp24
 70
     1
102
RTVSPropertyOp25
 70
     1
102
RTVSPropertyOp26
 70
     1
102
RTVSPropertyOp27
 70
     1
102
RTVSPropertyOp28
 70
     1
102
RTVSPropertyOp29
 70
     1
102
RTVSPropertyOp30
 70
     1
102
RTVSPropertyOp31
 70
     1
102
RTVSPropertyOp32
 70
     1
102
RTVSPropertyOp33
 70
     1
102
RTVSPropertyOp34
 70
     1
102
RTVSPropertyOp35
 70
     1
102
RTVSPropertyOp36
 70
     1
102
RTVSPropertyOp37
 70
     1
102
RTVSPropertyOp38
 70
     1
102
RTVSPropertyOp39
 70
     1
102
RTVSPropertyOp40
 70
     1
102
RTVSPropertyOp41
 70
     1
102
RTVSPropertyOp42
 70
     1
102
RTVSPropertyOp43
 70
     1
102
RTVSPropertyOp44
 70
     1
102
RTVSPropertyOp45
 70
     1
102
RTVSPropertyOp46
 70
     1
102
RTVSPropertyOp47
 70
     1
102
RTVSPropertyOp48
 70
     1
102
RTVSPropertyOp49
 70
     1
102
RTVSPropertyOp50
 70
     1
102
RTVSPropertyOp51
 70
     0
102
RTVSPropertyOp52
 70
     0
102
RTVSPropertyOp53
 70
     1
102
RTVSPropertyOp54
 70
     1
102
RTVSPropertyOp55
 70
     1
102
RTVSPropertyOp56
 70
     1
102
RTVSPropertyOp57
 70
     1
102
RTVSPost2010Prop28
280
     0
102
RTVSPost2010PropOp28
 70
     1
102
RTVSPost2010Prop29
280
     1
102
RTVSPost2010PropOp29
 70
     1
102
RTVSPost2010Prop30
280
     1
102
RTVSPost2010PropOp30
 70
     1
102
RTVSPost2010Prop31
280
     0
102
RTVSPost2010PropOp31
 70
     1
102
RTVSPost2010Prop32
280
     0
102
RTVSPost2010PropOp32
 70
     1
102
RTVSPost2010Prop33
280
     0
102
RTVSPost2010PropOp33
 70
     1
102
RTVSPost2010Prop34
280
     0
102
RTVSPost2010PropOp34
 70
     1
102
RTVSPost2010Prop35
280
     0
102
RTVSPost2010PropOp35
 70
     1
102
RTVSPost2010Prop36
280
     0
102
RTVSPost2010PropOp36
 70
     1
102
RTVSPost2010Prop37
 90
       50
102
RTVSPost2010PropOp37
 70
     1
102
RTVSPost2010Prop38
140
0.0
102
RTVSPost2010PropOp38
 70
     1
102
RTVSPost2010Prop39
140
1.0
102
RTVSPost2010PropOp39
 70
     1
102
RTVSPost2010Prop40
 90
        0
102
RTVSPost2010PropOp40
 70
     1
102
RTVSPost2010Prop41ColorIndex
 90
       18
102
RTVSPost2010Prop41ColorRGB
 90
        0
102
RTVSPost2010PropOp41
 70
     1
102
RTVSPost2010Prop42
 90
       50
102
RTVSPost2010PropOp42
 70
     1
102
RTVSPost2010Prop43
 90
        3
102
RTVSPost2010PropOp43
 70
     1
102
RTVSPost2010Prop44ColorIndex
 90
        5
102
RTVSPost2010Prop44ColorRGB
 90
      255
102
RTVSPost2010PropOp44
 70
     1
102
RTVSPost2010Prop45
280
     0
102
RTVSPost2010PropOp45
 70
     1
102
RTVSPost2010Prop46
 90
       50
102
RTVSPost2010PropOp46
 70
     1
102
RTVSPost2010Prop47
 90
       50
102
RTVSPost2010PropOp47
 70
     1
102
RTVSPost2010Prop48
 90
       50
102
RTVSPost2010PropOp48
 70
     1
102
RTVSPost2010Prop49
280
     0
102
RTVSPost2010PropOp49
 70
     1
102
RTVSPost2010Prop50
 90
       50
102
RTVSPost2010PropOp50
 70
     1
102
RTVSPost2010Prop51ColorIndex
 90
      256
102
RTVSPost2010Prop51ColorRGB
 90
-16777216
102
RTVSPost2010PropOp51
 70
     0
102
RTVSPost2010Prop52
140
1.0
102
RTVSPost2010PropOp52
 70
     0
102
RTVSPost2010Prop53
 90
        2
102
RTVSPost2010PropOp53
 70
     1
102
RTVSPost2010Prop54
  1
strokes_ogs.tif
102
RTVSPost2010PropOp54
 70
     1
102
RTVSPost2010Prop55
280
     0
102
RTVSPost2010PropOp55
 70
     1
102
RTVSPost2010Prop56
140
1.0
102
RTVSPost2010PropOp56
 70
     1
102
RTVSPost2010Prop57
140
1.0
102
RTVSPost2010PropOp57
 70
     1
  0
XRECORD
  5
24F
102
{ACAD_REACTORS
330
24E
102
}
330
24E
100
AcDbXrecord
280
     1
102
RTVSPropertyOp0
 70
     1
102
RTVSPropertyOp1
 70
     1
102
RTVSPropertyOp2
 70
     1
102
RTVSPropertyOp3
 70
     1
102
RTVSPropertyOp4
 70
     1
102
RTVSPropertyOp5
 70
     1
102
RTVSPropertyOp6
 70
     1
102
RTVSPropertyOp7
 70
     1
102
RTVSPropertyOp8
 70
     1
102
RTVSPropertyOp9
 70
     1
102
RTVSPropertyOp10
 70
     1
102
RTVSPropertyOp11
 70
     1
102
RTVSPropertyOp12
 70
     1
102
RTVSPropertyOp13
 70
     1
102
RTVSPropertyOp14
 70
     1
102
RTVSPropertyOp15
 70
     1
102
RTVSPropertyOp16
 70
     1
102
RTVSPropertyOp17
 70
     1
102
RTVSPropertyOp18
 70
     1
102
RTVSPropertyOp19
 70
     1
102
RTVSPropertyOp20
 70
     1
102
RTVSPropertyOp21
 70
     1
102
RTVSPropertyOp22
 70
     1
102
RTVSPropertyOp23
 70
     1
102
RTVSPropertyOp24
 70
     1
102
RTVSPropertyOp25
 70
     1
102
RTVSPropertyOp26
 70
     1
102
RTVSPropertyOp27
 70
     1
102
RTVSPropertyOp28
 70
     1
102
RTVSPropertyOp29
 70
     1
102
RTVSPropertyOp30
 70
     1
102
RTVSPropertyOp31
 70
     1
102
RTVSPropertyOp32
 70
     1
102
RTVSPropertyOp33
 70
     1
102
RTVSPropertyOp34
 70
     1
102
RTVSPropertyOp35
 70
     1
102
RTVSPropertyOp36
 70
     1
102
RTVSPropertyOp37
 70
     1
102
RTVSPropertyOp38
 70
     1
102
RTVSPropertyOp39
 70
     1
102
RTVSPropertyOp40
 70
     1
102
RTVSPropertyOp41
 70
     1
102
RTVSPropertyOp42
 70
     1
102
RTVSPropertyOp43
 70
     1
102
RTVSPropertyOp44
 70
     1
102
RTVSPropertyOp45
 70
     1
102
RTVSPropertyOp46
 70
     1
102
RTVSPropertyOp47
 70
     1
102
RTVSPropertyOp48
 70
     1
102
RTVSPropertyOp49
 70
     1
102
RTVSPropertyOp50
 70
     1
102
RTVSPropertyOp51
 70
     0
102
RTVSPropertyOp52
 70
     0
102
RTVSPropertyOp53
 70
     1
102
RTVSPropertyOp54
 70
     1
102
RTVSPropertyOp55
 70
     1
102
RTVSPropertyOp56
 70
     1
102
RTVSPropertyOp57
 70
     1
102
RTVSPost2010Prop28
280
     0
102
RTVSPost2010PropOp28
 70
     1
102
RTVSPost2010Prop29
280
     1
102
RTVSPost2010PropOp29
 70
     1
102
RTVSPost2010Prop30
280
     1
102
RTVSPost2010PropOp30
 70
     1
102
RTVSPost2010Prop31
280
     0
102
RTVSPost2010PropOp31
 70
     1
102
RTVSPost2010Prop32
280
     0
102
RTVSPost2010PropOp32
 70
     1
102
RTVSPost2010Prop33
280
     0
102
RTVSPost2010PropOp33
 70
     1
102
RTVSPost2010Prop34
280
     0
102
RTVSPost2010PropOp34
 70
     1
102
RTVSPost2010Prop35
280
     0
102
RTVSPost2010PropOp35
 70
     1
102
RTVSPost2010Prop36
280
     0
102
RTVSPost2010PropOp36
 70
     1
102
RTVSPost2010Prop37
 90
       50
102
RTVSPost2010PropOp37
 70
     1
102
RTVSPost2010Prop38
140
0.0
102
RTVSPost2010PropOp38
 70
     1
102
RTVSPost2010Prop39
140
1.0
102
RTVSPost2010PropOp39
 70
     1
102
RTVSPost2010Prop40
 90
        0
102
RTVSPost2010PropOp40
 70
     1
102
RTVSPost2010Prop41ColorIndex
 90
       18
102
RTVSPost2010Prop41ColorRGB
 90
        0
102
RTVSPost2010PropOp41
 70
     1
102
RTVSPost2010Prop42
 90
       50
102
RTVSPost2010PropOp42
 70
     1
102
RTVSPost2010Prop43
 90
        3
102
RTVSPost2010PropOp43
 70
     1
102
RTVSPost2010Prop44ColorIndex
 90
        5
102
RTVSPost2010Prop44ColorRGB
 90
      255
102
RTVSPost2010PropOp44
 70
     1
102
RTVSPost2010Prop45
280
     0
102
RTVSPost2010PropOp45
 70
     1
102
RTVSPost2010Prop46
 90
       50
102
RTVSPost2010PropOp46
 70
     1
102
RTVSPost2010Prop47
 90
       50
102
RTVSPost2010PropOp47
 70
     1
102
RTVSPost2010Prop48
 90
       50
102
RTVSPost2010PropOp48
 70
     1
102
RTVSPost2010Prop49
280
     0
102
RTVSPost2010PropOp49
 70
     1
102
RTVSPost2010Prop50
 90
       50
102
RTVSPost2010PropOp50
 70
     1
102
RTVSPost2010Prop51ColorIndex
 90
      256
102
RTVSPost2010Prop51ColorRGB
 90
-16777216
102
RTVSPost2010PropOp51
 70
     0
102
RTVSPost2010Prop52
140
1.0
102
RTVSPost2010PropOp52
 70
     0
102
RTVSPost2010Prop53
 90
        2
102
RTVSPost2010PropOp53
 70
     1
102
RTVSPost2010Prop54
  1
strokes_ogs.tif
102
RTVSPost2010PropOp54
 70
     1
102
RTVSPost2010Prop55
280
     0
102
RTVSPost2010PropOp55
 70
     1
102
RTVSPost2010Prop56
140
1.0
102
RTVSPost2010PropOp56
 70
     1
102
RTVSPost2010Prop57
140
1.0
102
RTVSPost2010PropOp57
 70
     1
  0
XRECORD
  5
25F
102
{ACAD_REACTORS
330
25E
102
}
330
25E
100
AcDbXrecord
280
     1
102
RTVSPropertyOp0
 70
     0
102
RTVSPropertyOp1
 70
     0
102
RTVSPropertyOp2
 70
     0
102
RTVSPropertyOp3
 70
     0
102
RTVSPropertyOp4
 70
     0
102
RTVSPropertyOp5
 70
     0
102
RTVSPropertyOp6
 70
     0
102
RTVSPropertyOp7
 70
     0
102
RTVSPropertyOp8
 70
     0
102
RTVSPropertyOp9
 70
     0
102
RTVSPropertyOp10
 70
     0
102
RTVSPropertyOp11
 70
     0
102
RTVSPropertyOp12
 70
     0
102
RTVSPropertyOp13
 70
     0
102
RTVSPropertyOp14
 70
     2
102
RTVSPropertyOp15
 70
     0
102
RTVSPropertyOp16
 70
     0
102
RTVSPropertyOp17
 70
     0
102
RTVSPropertyOp18
 70
     0
102
RTVSPropertyOp19
 70
     0
102
RTVSPropertyOp20
 70
     0
102
RTVSPropertyOp21
 70
     0
102
RTVSPropertyOp22
 70
     0
102
RTVSPropertyOp23
 70
     0
102
RTVSPropertyOp24
 70
     0
102
RTVSPropertyOp25
 70
     0
102
RTVSPropertyOp26
 70
     0
102
RTVSPropertyOp27
 70
     0
102
RTVSPropertyOp28
 70
     0
102
RTVSPropertyOp29
 70
     0
102
RTVSPropertyOp30
 70
     0
102
RTVSPropertyOp31
 70
     0
102
RTVSPropertyOp32
 70
     0
102
RTVSPropertyOp33
 70
     0
102
RTVSPropertyOp34
 70
     0
102
RTVSPropertyOp35
 70
     0
102
RTVSPropertyOp36
 70
     0
102
RTVSPropertyOp37
 70
     0
102
RTVSPropertyOp38
 70
     0
102
RTVSPropertyOp39
 70
     0
102
RTVSPropertyOp40
 70
     0
102
RTVSPropertyOp41
 70
     0
102
RTVSPropertyOp42
 70
     0
102
RTVSPropertyOp43
 70
     0
102
RTVSPropertyOp44
 70
     0
102
RTVSPropertyOp45
 70
     0
102
RTVSPropertyOp46
 70
     0
102
RTVSPropertyOp47
 70
     0
102
RTVSPropertyOp48
 70
     0
102
RTVSPropertyOp49
 70
     0
102
RTVSPropertyOp50
 70
     0
102
RTVSPropertyOp51
 70
     0
102
RTVSPropertyOp52
 70
     0
102
RTVSPropertyOp53
 70
     0
102
RTVSPropertyOp54
 70
     0
102
RTVSPropertyOp55
 70
     0
102
RTVSPropertyOp56
 70
     0
102
RTVSPropertyOp57
 70
     0
102
RTVSPost2010Prop28
280
     0
102
RTVSPost2010PropOp28
 70
     0
102
RTVSPost2010Prop29
280
     1
102
RTVSPost2010PropOp29
 70
     0
102
RTVSPost2010Prop30
280
     1
102
RTVSPost2010PropOp30
 70
     0
102
RTVSPost2010Prop31
280
     0
102
RTVSPost2010PropOp31
 70
     0
102
RTVSPost2010Prop32
280
     0
102
RTVSPost2010PropOp32
 70
     0
102
RTVSPost2010Prop33
280
     0
102
RTVSPost2010PropOp33
 70
     0
102
RTVSPost2010Prop34
280
     0
102
RTVSPost2010PropOp34
 70
     0
102
RTVSPost2010Prop35
280
     0
102
RTVSPost2010PropOp35
 70
     0
102
RTVSPost2010Prop36
280
     0
102
RTVSPost2010PropOp36
 70
     0
102
RTVSPost2010Prop37
 90
       50
102
RTVSPost2010PropOp37
 70
     0
102
RTVSPost2010Prop38
140
0.0
102
RTVSPost2010PropOp38
 70
     0
102
RTVSPost2010Prop39
140
1.0
102
RTVSPost2010PropOp39
 70
     0
102
RTVSPost2010Prop40
 90
        0
102
RTVSPost2010PropOp40
 70
     0
102
RTVSPost2010Prop41ColorIndex
 90
       18
102
RTVSPost2010Prop41ColorRGB
 90
        0
102
RTVSPost2010PropOp41
 70
     0
102
RTVSPost2010Prop42
 90
       50
102
RTVSPost2010PropOp42
 70
     0
102
RTVSPost2010Prop43
 90
        3
102
RTVSPost2010PropOp43
 70
     0
102
RTVSPost2010Prop44ColorIndex
 90
        5
102
RTVSPost2010Prop44ColorRGB
 90
      255
102
RTVSPost2010PropOp44
 70
     0
102
RTVSPost2010Prop45
280
     0
102
RTVSPost2010PropOp45
 70
     0
102
RTVSPost2010Prop46
 90
       50
102
RTVSPost2010PropOp46
 70
     0
102
RTVSPost2010Prop47
 90
       50
102
RTVSPost2010PropOp47
 70
     0
102
RTVSPost2010Prop48
 90
       50
102
RTVSPost2010PropOp48
 70
     0
102
RTVSPost2010Prop49
280
     0
102
RTVSPost2010PropOp49
 70
     0
102
RTVSPost2010Prop50
 90
       50
102
RTVSPost2010PropOp50
 70
     0
102
RTVSPost2010Prop51ColorIndex
 90
      256
102
RTVSPost2010Prop51ColorRGB
 90
-16777216
102
RTVSPost2010PropOp51
 70
     0
102
RTVSPost2010Prop52
140
1.0
102
RTVSPost2010PropOp52
 70
     0
102
RTVSPost2010Prop53
 90
        2
102
RTVSPost2010PropOp53
 70
     0
102
RTVSPost2010Prop54
  1
strokes_ogs.tif
102
RTVSPost2010PropOp54
 70
     0
102
RTVSPost2010Prop55
280
     0
102
RTVSPost2010PropOp55
 70
     0
102
RTVSPost2010Prop56
140
1.0
102
RTVSPost2010PropOp56
 70
     0
102
RTVSPost2010Prop57
140
1.0
102
RTVSPost2010PropOp57
 70
     0
  0
XRECORD
  5
257
102
{ACAD_REACTORS
330
256
102
}
330
256
100
AcDbXrecord
280
     1
102
RTVSPropertyOp0
 70
     1
102
RTVSPropertyOp1
 70
     1
102
RTVSPropertyOp2
 70
     1
102
RTVSPropertyOp3
 70
     1
102
RTVSPropertyOp4
 70
     1
102
RTVSPropertyOp5
 70
     1
102
RTVSPropertyOp6
 70
     1
102
RTVSPropertyOp7
 70
     1
102
RTVSPropertyOp8
 70
     1
102
RTVSPropertyOp9
 70
     1
102
RTVSPropertyOp10
 70
     1
102
RTVSPropertyOp11
 70
     1
102
RTVSPropertyOp12
 70
     1
102
RTVSPropertyOp13
 70
     1
102
RTVSPropertyOp14
 70
     1
102
RTVSPropertyOp15
 70
     1
102
RTVSPropertyOp16
 70
     1
102
RTVSPropertyOp17
 70
     1
102
RTVSPropertyOp18
 70
     1
102
RTVSPropertyOp19
 70
     1
102
RTVSPropertyOp20
 70
     1
102
RTVSPropertyOp21
 70
     1
102
RTVSPropertyOp22
 70
     1
102
RTVSPropertyOp23
 70
     1
102
RTVSPropertyOp24
 70
     1
102
RTVSPropertyOp25
 70
     1
102
RTVSPropertyOp26
 70
     1
102
RTVSPropertyOp27
 70
     1
102
RTVSPropertyOp28
 70
     1
102
RTVSPropertyOp29
 70
     1
102
RTVSPropertyOp30
 70
     1
102
RTVSPropertyOp31
 70
     1
102
RTVSPropertyOp32
 70
     1
102
RTVSPropertyOp33
 70
     1
102
RTVSPropertyOp34
 70
     1
102
RTVSPropertyOp35
 70
     1
102
RTVSPropertyOp36
 70
     1
102
RTVSPropertyOp37
 70
     1
102
RTVSPropertyOp38
 70
     1
102
RTVSPropertyOp39
 70
     1
102
RTVSPropertyOp40
 70
     1
102
RTVSPropertyOp41
 70
     1
102
RTVSPropertyOp42
 70
     1
102
RTVSPropertyOp43
 70
     1
102
RTVSPropertyOp44
 70
     1
102
RTVSPropertyOp45
 70
     1
102
RTVSPropertyOp46
 70
     1
102
RTVSPropertyOp47
 70
     1
102
RTVSPropertyOp48
 70
     1
102
RTVSPropertyOp49
 70
     1
102
RTVSPropertyOp50
 70
     1
102
RTVSPropertyOp51
 70
     0
102
RTVSPropertyOp52
 70
     0
102
RTVSPropertyOp53
 70
     1
102
RTVSPropertyOp54
 70
     1
102
RTVSPropertyOp55
 70
     1
102
RTVSPropertyOp56
 70
     1
102
RTVSPropertyOp57
 70
     1
102
RTVSPost2010Prop28
280
     0
102
RTVSPost2010PropOp28
 70
     1
102
RTVSPost2010Prop29
280
     1
102
RTVSPost2010PropOp29
 70
     1
102
RTVSPost2010Prop30
280
     1
102
RTVSPost2010PropOp30
 70
     1
102
RTVSPost2010Prop31
280
     0
102
RTVSPost2010PropOp31
 70
     1
102
RTVSPost2010Prop32
280
     0
102
RTVSPost2010PropOp32
 70
     1
102
RTVSPost2010Prop33
280
     0
102
RTVSPost2010PropOp33
 70
     1
102
RTVSPost2010Prop34
280
     0
102
RTVSPost2010PropOp34
 70
     1
102
RTVSPost2010Prop35
280
     0
102
RTVSPost2010PropOp35
 70
     1
102
RTVSPost2010Prop36
280
     0
102
RTVSPost2010PropOp36
 70
     1
102
RTVSPost2010Prop37
 90
       50
102
RTVSPost2010PropOp37
 70
     1
102
RTVSPost2010Prop38
140
0.0
102
RTVSPost2010PropOp38
 70
     1
102
RTVSPost2010Prop39
140
1.0
102
RTVSPost2010PropOp39
 70
     1
102
RTVSPost2010Prop40
 90
        0
102
RTVSPost2010PropOp40
 70
     1
102
RTVSPost2010Prop41ColorIndex
 90
       18
102
RTVSPost2010Prop41ColorRGB
 90
        0
102
RTVSPost2010PropOp41
 70
     1
102
RTVSPost2010Prop42
 90
       50
102
RTVSPost2010PropOp42
 70
     1
102
RTVSPost2010Prop43
 90
        3
102
RTVSPost2010PropOp43
 70
     1
102
RTVSPost2010Prop44ColorIndex
 90
        5
102
RTVSPost2010Prop44ColorRGB
 90
      255
102
RTVSPost2010PropOp44
 70
     1
102
RTVSPost2010Prop45
280
     0
102
RTVSPost2010PropOp45
 70
     1
102
RTVSPost2010Prop46
 90
       50
102
RTVSPost2010PropOp46
 70
     1
102
RTVSPost2010Prop47
 90
       50
102
RTVSPost2010PropOp47
 70
     1
102
RTVSPost2010Prop48
 90
       50
102
RTVSPost2010PropOp48
 70
     1
102
RTVSPost2010Prop49
280
     0
102
RTVSPost2010PropOp49
 70
     1
102
RTVSPost2010Prop50
 90
       50
102
RTVSPost2010PropOp50
 70
     1
102
RTVSPost2010Prop51ColorIndex
 90
      256
102
RTVSPost2010Prop51ColorRGB
 90
-16777216
102
RTVSPost2010PropOp51
 70
     0
102
RTVSPost2010Prop52
140
1.0
102
RTVSPost2010PropOp52
 70
     0
102
RTVSPost2010Prop53
 90
        2
102
RTVSPost2010PropOp53
 70
     1
102
RTVSPost2010Prop54
  1
strokes_ogs.tif
102
RTVSPost2010PropOp54
 70
     1
102
RTVSPost2010Prop55
280
     0
102
RTVSPost2010PropOp55
 70
     1
102
RTVSPost2010Prop56
140
1.0
102
RTVSPost2010PropOp56
 70
     1
102
RTVSPost2010Prop57
140
1.0
102
RTVSPost2010PropOp57
 70
     1
  0
XRECORD
  5
23B
102
{ACAD_REACTORS
330
23A
102
}
330
23A
100
AcDbXrecord
280
     1
102
RTVSPropertyOp0
 70
     1
102
RTVSPropertyOp1
 70
     1
102
RTVSPropertyOp2
 70
     1
102
RTVSPropertyOp3
 70
     1
102
RTVSPropertyOp4
 70
     1
102
RTVSPropertyOp5
 70
     1
102
RTVSPropertyOp6
 70
     1
102
RTVSPropertyOp7
 70
     1
102
RTVSPropertyOp8
 70
     1
102
RTVSPropertyOp9
 70
     1
102
RTVSPropertyOp10
 70
     1
102
RTVSPropertyOp11
 70
     1
102
RTVSPropertyOp12
 70
     1
102
RTVSPropertyOp13
 70
     1
102
RTVSPropertyOp14
 70
     1
102
RTVSPropertyOp15
 70
     1
102
RTVSPropertyOp16
 70
     1
102
RTVSPropertyOp17
 70
     1
102
RTVSPropertyOp18
 70
     1
102
RTVSPropertyOp19
 70
     1
102
RTVSPropertyOp20
 70
     1
102
RTVSPropertyOp21
 70
     1
102
RTVSPropertyOp22
 70
     1
102
RTVSPropertyOp23
 70
     1
102
RTVSPropertyOp24
 70
     1
102
RTVSPropertyOp25
 70
     1
102
RTVSPropertyOp26
 70
     1
102
RTVSPropertyOp27
 70
     1
102
RTVSPropertyOp28
 70
     1
102
RTVSPropertyOp29
 70
     1
102
RTVSPropertyOp30
 70
     1
102
RTVSPropertyOp31
 70
     1
102
RTVSPropertyOp32
 70
     1
102
RTVSPropertyOp33
 70
     1
102
RTVSPropertyOp34
 70
     1
102
RTVSPropertyOp35
 70
     1
102
RTVSPropertyOp36
 70
     1
102
RTVSPropertyOp37
 70
     1
102
RTVSPropertyOp38
 70
     1
102
RTVSPropertyOp39
 70
     1
102
RTVSPropertyOp40
 70
     1
102
RTVSPropertyOp41
 70
     1
102
RTVSPropertyOp42
 70
     1
102
RTVSPropertyOp43
 70
     1
102
RTVSPropertyOp44
 70
     1
102
RTVSPropertyOp45
 70
     1
102
RTVSPropertyOp46
 70
     1
102
RTVSPropertyOp47
 70
     1
102
RTVSPropertyOp48
 70
     1
102
RTVSPropertyOp49
 70
     1
102
RTVSPropertyOp50
 70
     1
102
RTVSPropertyOp51
 70
     0
102
RTVSPropertyOp52
 70
     0
102
RTVSPropertyOp53
 70
     1
102
RTVSPropertyOp54
 70
     1
102
RTVSPropertyOp55
 70
     1
102
RTVSPropertyOp56
 70
     1
102
RTVSPropertyOp57
 70
     1
102
RTVSPost2010Prop28
280
     0
102
RTVSPost2010PropOp28
 70
     1
102
RTVSPost2010Prop29
280
     1
102
RTVSPost2010PropOp29
 70
     1
102
RTVSPost2010Prop30
280
     1
102
RTVSPost2010PropOp30
 70
     1
102
RTVSPost2010Prop31
280
     0
102
RTVSPost2010PropOp31
 70
     1
102
RTVSPost2010Prop32
280
     0
102
RTVSPost2010PropOp32
 70
     1
102
RTVSPost2010Prop33
280
     0
102
RTVSPost2010PropOp33
 70
     1
102
RTVSPost2010Prop34
280
     0
102
RTVSPost2010PropOp34
 70
     1
102
RTVSPost2010Prop35
280
     0
102
RTVSPost2010PropOp35
 70
     1
102
RTVSPost2010Prop36
280
     0
102
RTVSPost2010PropOp36
 70
     1
102
RTVSPost2010Prop37
 90
       50
102
RTVSPost2010PropOp37
 70
     1
102
RTVSPost2010Prop38
140
0.0
102
RTVSPost2010PropOp38
 70
     1
102
RTVSPost2010Prop39
140
1.0
102
RTVSPost2010PropOp39
 70
     1
102
RTVSPost2010Prop40
 90
        0
102
RTVSPost2010PropOp40
 70
     1
102
RTVSPost2010Prop41ColorIndex
 90
       18
102
RTVSPost2010Prop41ColorRGB
 90
        0
102
RTVSPost2010PropOp41
 70
     1
102
RTVSPost2010Prop42
 90
       50
102
RTVSPost2010PropOp42
 70
     1
102
RTVSPost2010Prop43
 90
        3
102
RTVSPost2010PropOp43
 70
     1
102
RTVSPost2010Prop44ColorIndex
 90
        5
102
RTVSPost2010Prop44ColorRGB
 90
      255
102
RTVSPost2010PropOp44
 70
     1
102
RTVSPost2010Prop45
280
     0
102
RTVSPost2010PropOp45
 70
     1
102
RTVSPost2010Prop46
 90
       50
102
RTVSPost2010PropOp46
 70
     1
102
RTVSPost2010Prop47
 90
       50
102
RTVSPost2010PropOp47
 70
     1
102
RTVSPost2010Prop48
 90
       50
102
RTVSPost2010PropOp48
 70
     1
102
RTVSPost2010Prop49
280
     0
102
RTVSPost2010PropOp49
 70
     1
102
RTVSPost2010Prop50
 90
       50
102
RTVSPost2010PropOp50
 70
     1
102
RTVSPost2010Prop51ColorIndex
 90
      256
102
RTVSPost2010Prop51ColorRGB
 90
-16777216
102
RTVSPost2010PropOp51
 70
     0
102
RTVSPost2010Prop52
140
1.0
102
RTVSPost2010PropOp52
 70
     0
102
RTVSPost2010Prop53
 90
        2
102
RTVSPost2010PropOp53
 70
     1
102
RTVSPost2010Prop54
  1
strokes_ogs.tif
102
RTVSPost2010PropOp54
 70
     1
102
RTVSPost2010Prop55
280
     0
102
RTVSPost2010PropOp55
 70
     1
102
RTVSPost2010Prop56
140
1.0
102
RTVSPost2010PropOp56
 70
     1
102
RTVSPost2010Prop57
140
1.0
102
RTVSPost2010PropOp57
 70
     1
  0
XRECORD
  5
23D
102
{ACAD_REACTORS
330
23C
102
}
330
23C
100
AcDbXrecord
280
     1
102
RTVSPropertyOp0
 70
     1
102
RTVSPropertyOp1
 70
     1
102
RTVSPropertyOp2
 70
     1
102
RTVSPropertyOp3
 70
     1
102
RTVSPropertyOp4
 70
     1
102
RTVSPropertyOp5
 70
     1
102
RTVSPropertyOp6
 70
     1
102
RTVSPropertyOp7
 70
     1
102
RTVSPropertyOp8
 70
     1
102
RTVSPropertyOp9
 70
     1
102
RTVSPropertyOp10
 70
     1
102
RTVSPropertyOp11
 70
     1
102
RTVSPropertyOp12
 70
     1
102
RTVSPropertyOp13
 70
     1
102
RTVSPropertyOp14
 70
     1
102
RTVSPropertyOp15
 70
     1
102
RTVSPropertyOp16
 70
     1
102
RTVSPropertyOp17
 70
     1
102
RTVSPropertyOp18
 70
     1
102
RTVSPropertyOp19
 70
     1
102
RTVSPropertyOp20
 70
     1
102
RTVSPropertyOp21
 70
     1
102
RTVSPropertyOp22
 70
     1
102
RTVSPropertyOp23
 70
     1
102
RTVSPropertyOp24
 70
     1
102
RTVSPropertyOp25
 70
     1
102
RTVSPropertyOp26
 70
     1
102
RTVSPropertyOp27
 70
     1
102
RTVSPropertyOp28
 70
     1
102
RTVSPropertyOp29
 70
     1
102
RTVSPropertyOp30
 70
     1
102
RTVSPropertyOp31
 70
     1
102
RTVSPropertyOp32
 70
     1
102
RTVSPropertyOp33
 70
     1
102
RTVSPropertyOp34
 70
     1
102
RTVSPropertyOp35
 70
     1
102
RTVSPropertyOp36
 70
     1
102
RTVSPropertyOp37
 70
     1
102
RTVSPropertyOp38
 70
     1
102
RTVSPropertyOp39
 70
     1
102
RTVSPropertyOp40
 70
     1
102
RTVSPropertyOp41
 70
     1
102
RTVSPropertyOp42
 70
     1
102
RTVSPropertyOp43
 70
     1
102
RTVSPropertyOp44
 70
     1
102
RTVSPropertyOp45
 70
     1
102
RTVSPropertyOp46
 70
     1
102
RTVSPropertyOp47
 70
     1
102
RTVSPropertyOp48
 70
     1
102
RTVSPropertyOp49
 70
     1
102
RTVSPropertyOp50
 70
     1
102
RTVSPropertyOp51
 70
     0
102
RTVSPropertyOp52
 70
     0
102
RTVSPropertyOp53
 70
     1
102
RTVSPropertyOp54
 70
     1
102
RTVSPropertyOp55
 70
     1
102
RTVSPropertyOp56
 70
     1
102
RTVSPropertyOp57
 70
     1
102
RTVSPost2010Prop28
280
     0
102
RTVSPost2010PropOp28
 70
     1
102
RTVSPost2010Prop29
280
     1
102
RTVSPost2010PropOp29
 70
     1
102
RTVSPost2010Prop30
280
     1
102
RTVSPost2010PropOp30
 70
     1
102
RTVSPost2010Prop31
280
     0
102
RTVSPost2010PropOp31
 70
     1
102
RTVSPost2010Prop32
280
     0
102
RTVSPost2010PropOp32
 70
     1
102
RTVSPost2010Prop33
280
     0
102
RTVSPost2010PropOp33
 70
     1
102
RTVSPost2010Prop34
280
     0
102
RTVSPost2010PropOp34
 70
     1
102
RTVSPost2010Prop35
280
     0
102
RTVSPost2010PropOp35
 70
     1
102
RTVSPost2010Prop36
280
     0
102
RTVSPost2010PropOp36
 70
     1
102
RTVSPost2010Prop37
 90
       50
102
RTVSPost2010PropOp37
 70
     1
102
RTVSPost2010Prop38
140
0.0
102
RTVSPost2010PropOp38
 70
     1
102
RTVSPost2010Prop39
140
1.0
102
RTVSPost2010PropOp39
 70
     1
102
RTVSPost2010Prop40
 90
        0
102
RTVSPost2010PropOp40
 70
     1
102
RTVSPost2010Prop41ColorIndex
 90
       18
102
RTVSPost2010Prop41ColorRGB
 90
        0
102
RTVSPost2010PropOp41
 70
     1
102
RTVSPost2010Prop42
 90
       50
102
RTVSPost2010PropOp42
 70
     1
102
RTVSPost2010Prop43
 90
        3
102
RTVSPost2010PropOp43
 70
     1
102
RTVSPost2010Prop44ColorIndex
 90
        5
102
RTVSPost2010Prop44ColorRGB
 90
      255
102
RTVSPost2010PropOp44
 70
     1
102
RTVSPost2010Prop45
280
     0
102
RTVSPost2010PropOp45
 70
     1
102
RTVSPost2010Prop46
 90
       50
102
RTVSPost2010PropOp46
 70
     1
102
RTVSPost2010Prop47
 90
       50
102
RTVSPost2010PropOp47
 70
     1
102
RTVSPost2010Prop48
 90
       50
102
RTVSPost2010PropOp48
 70
     1
102
RTVSPost2010Prop49
280
     0
102
RTVSPost2010PropOp49
 70
     1
102
RTVSPost2010Prop50
 90
       50
102
RTVSPost2010PropOp50
 70
     1
102
RTVSPost2010Prop51ColorIndex
 90
      256
102
RTVSPost2010Prop51ColorRGB
 90
-16777216
102
RTVSPost2010PropOp51
 70
     0
102
RTVSPost2010Prop52
140
1.0
102
RTVSPost2010PropOp52
 70
     0
102
RTVSPost2010Prop53
 90
        2
102
RTVSPost2010PropOp53
 70
     1
102
RTVSPost2010Prop54
  1
strokes_ogs.tif
102
RTVSPost2010PropOp54
 70
     1
102
RTVSPost2010Prop55
280
     0
102
RTVSPost2010PropOp55
 70
     1
102
RTVSPost2010Prop56
140
1.0
102
RTVSPost2010PropOp56
 70
     1
102
RTVSPost2010Prop57
140
1.0
102
RTVSPost2010PropOp57
 70
     1
  0
XRECORD
  5
23F
102
{ACAD_REACTORS
330
23E
102
}
330
23E
100
AcDbXrecord
280
     1
102
RTVSPropertyOp0
 70
     1
102
RTVSPropertyOp1
 70
     1
102
RTVSPropertyOp2
 70
     1
102
RTVSPropertyOp3
 70
     1
102
RTVSPropertyOp4
 70
     1
102
RTVSPropertyOp5
 70
     1
102
RTVSPropertyOp6
 70
     1
102
RTVSPropertyOp7
 70
     1
102
RTVSPropertyOp8
 70
     1
102
RTVSPropertyOp9
 70
     1
102
RTVSPropertyOp10
 70
     1
102
RTVSPropertyOp11
 70
     1
102
RTVSPropertyOp12
 70
     1
102
RTVSPropertyOp13
 70
     1
102
RTVSPropertyOp14
 70
     1
102
RTVSPropertyOp15
 70
     1
102
RTVSPropertyOp16
 70
     1
102
RTVSPropertyOp17
 70
     1
102
RTVSPropertyOp18
 70
     1
102
RTVSPropertyOp19
 70
     1
102
RTVSPropertyOp20
 70
     1
102
RTVSPropertyOp21
 70
     1
102
RTVSPropertyOp22
 70
     1
102
RTVSPropertyOp23
 70
     1
102
RTVSPropertyOp24
 70
     1
102
RTVSPropertyOp25
 70
     1
102
RTVSPropertyOp26
 70
     1
102
RTVSPropertyOp27
 70
     1
102
RTVSPropertyOp28
 70
     1
102
RTVSPropertyOp29
 70
     1
102
RTVSPropertyOp30
 70
     1
102
RTVSPropertyOp31
 70
     1
102
RTVSPropertyOp32
 70
     1
102
RTVSPropertyOp33
 70
     1
102
RTVSPropertyOp34
 70
     1
102
RTVSPropertyOp35
 70
     1
102
RTVSPropertyOp36
 70
     1
102
RTVSPropertyOp37
 70
     1
102
RTVSPropertyOp38
 70
     1
102
RTVSPropertyOp39
 70
     1
102
RTVSPropertyOp40
 70
     1
102
RTVSPropertyOp41
 70
     1
102
RTVSPropertyOp42
 70
     1
102
RTVSPropertyOp43
 70
     1
102
RTVSPropertyOp44
 70
     1
102
RTVSPropertyOp45
 70
     1
102
RTVSPropertyOp46
 70
     1
102
RTVSPropertyOp47
 70
     1
102
RTVSPropertyOp48
 70
     1
102
RTVSPropertyOp49
 70
     1
102
RTVSPropertyOp50
 70
     1
102
RTVSPropertyOp51
 70
     0
102
RTVSPropertyOp52
 70
     0
102
RTVSPropertyOp53
 70
     1
102
RTVSPropertyOp54
 70
     1
102
RTVSPropertyOp55
 70
     1
102
RTVSPropertyOp56
 70
     1
102
RTVSPropertyOp57
 70
     1
102
RTVSPost2010Prop28
280
     0
102
RTVSPost2010PropOp28
 70
     1
102
RTVSPost2010Prop29
280
     1
102
RTVSPost2010PropOp29
 70
     1
102
RTVSPost2010Prop30
280
     1
102
RTVSPost2010PropOp30
 70
     1
102
RTVSPost2010Prop31
280
     0
102
RTVSPost2010PropOp31
 70
     1
102
RTVSPost2010Prop32
280
     0
102
RTVSPost2010PropOp32
 70
     1
102
RTVSPost2010Prop33
280
     0
102
RTVSPost2010PropOp33
 70
     1
102
RTVSPost2010Prop34
280
     0
102
RTVSPost2010PropOp34
 70
     1
102
RTVSPost2010Prop35
280
     0
102
RTVSPost2010PropOp35
 70
     1
102
RTVSPost2010Prop36
280
     0
102
RTVSPost2010PropOp36
 70
     1
102
RTVSPost2010Prop37
 90
       50
102
RTVSPost2010PropOp37
 70
     1
102
RTVSPost2010Prop38
140
0.0
102
RTVSPost2010PropOp38
 70
     1
102
RTVSPost2010Prop39
140
1.0
102
RTVSPost2010PropOp39
 70
     1
102
RTVSPost2010Prop40
 90
        0
102
RTVSPost2010PropOp40
 70
     1
102
RTVSPost2010Prop41ColorIndex
 90
       18
102
RTVSPost2010Prop41ColorRGB
 90
        0
102
RTVSPost2010PropOp41
 70
     1
102
RTVSPost2010Prop42
 90
       50
102
RTVSPost2010PropOp42
 70
     1
102
RTVSPost2010Prop43
 90
        3
102
RTVSPost2010PropOp43
 70
     1
102
RTVSPost2010Prop44ColorIndex
 90
        5
102
RTVSPost2010Prop44ColorRGB
 90
      255
102
RTVSPost2010PropOp44
 70
     1
102
RTVSPost2010Prop45
280
     0
102
RTVSPost2010PropOp45
 70
     1
102
RTVSPost2010Prop46
 90
       50
102
RTVSPost2010PropOp46
 70
     1
102
RTVSPost2010Prop47
 90
       50
102
RTVSPost2010PropOp47
 70
     1
102
RTVSPost2010Prop48
 90
       50
102
RTVSPost2010PropOp48
 70
     1
102
RTVSPost2010Prop49
280
     0
102
RTVSPost2010PropOp49
 70
     1
102
RTVSPost2010Prop50
 90
       50
102
RTVSPost2010PropOp50
 70
     1
102
RTVSPost2010Prop51ColorIndex
 90
      256
102
RTVSPost2010Prop51ColorRGB
 90
-16777216
102
RTVSPost2010PropOp51
 70
     0
102
RTVSPost2010Prop52
140
1.0
102
RTVSPost2010PropOp52
 70
     0
102
RTVSPost2010Prop53
 90
        2
102
RTVSPost2010PropOp53
 70
     1
102
RTVSPost2010Prop54
  1
strokes_ogs.tif
102
RTVSPost2010PropOp54
 70
     1
102
RTVSPost2010Prop55
280
     0
102
RTVSPost2010PropOp55
 70
     1
102
RTVSPost2010Prop56
140
1.0
102
RTVSPost2010PropOp56
 70
     1
102
RTVSPost2010Prop57
140
1.0
102
RTVSPost2010PropOp57
 70
     1
  0
XRECORD
  5
241
102
{ACAD_REACTORS
330
240
102
}
330
240
100
AcDbXrecord
280
     1
102
RTVSPropertyOp0
 70
     1
102
RTVSPropertyOp1
 70
     1
102
RTVSPropertyOp2
 70
     1
102
RTVSPropertyOp3
 70
     1
102
RTVSPropertyOp4
 70
     1
102
RTVSPropertyOp5
 70
     1
102
RTVSPropertyOp6
 70
     1
102
RTVSPropertyOp7
 70
     1
102
RTVSPropertyOp8
 70
     1
102
RTVSPropertyOp9
 70
     1
102
RTVSPropertyOp10
 70
     1
102
RTVSPropertyOp11
 70
     1
102
RTVSPropertyOp12
 70
     1
102
RTVSPropertyOp13
 70
     1
102
RTVSPropertyOp14
 70
     1
102
RTVSPropertyOp15
 70
     1
102
RTVSPropertyOp16
 70
     1
102
RTVSPropertyOp17
 70
     1
102
RTVSPropertyOp18
 70
     1
102
RTVSPropertyOp19
 70
     1
102
RTVSPropertyOp20
 70
     1
102
RTVSPropertyOp21
 70
     1
102
RTVSPropertyOp22
 70
     1
102
RTVSPropertyOp23
 70
     1
102
RTVSPropertyOp24
 70
     1
102
RTVSPropertyOp25
 70
     1
102
RTVSPropertyOp26
 70
     1
102
RTVSPropertyOp27
 70
     1
102
RTVSPropertyOp28
 70
     1
102
RTVSPropertyOp29
 70
     1
102
RTVSPropertyOp30
 70
     1
102
RTVSPropertyOp31
 70
     1
102
RTVSPropertyOp32
 70
     1
102
RTVSPropertyOp33
 70
     1
102
RTVSPropertyOp34
 70
     1
102
RTVSPropertyOp35
 70
     1
102
RTVSPropertyOp36
 70
     1
102
RTVSPropertyOp37
 70
     1
102
RTVSPropertyOp38
 70
     1
102
RTVSPropertyOp39
 70
     1
102
RTVSPropertyOp40
 70
     1
102
RTVSPropertyOp41
 70
     1
102
RTVSPropertyOp42
 70
     1
102
RTVSPropertyOp43
 70
     1
102
RTVSPropertyOp44
 70
     1
102
RTVSPropertyOp45
 70
     1
102
RTVSPropertyOp46
 70
     1
102
RTVSPropertyOp47
 70
     1
102
RTVSPropertyOp48
 70
     1
102
RTVSPropertyOp49
 70
     1
102
RTVSPropertyOp50
 70
     1
102
RTVSPropertyOp51
 70
     0
102
RTVSPropertyOp52
 70
     0
102
RTVSPropertyOp53
 70
     1
102
RTVSPropertyOp54
 70
     1
102
RTVSPropertyOp55
 70
     1
102
RTVSPropertyOp56
 70
     1
102
RTVSPropertyOp57
 70
     1
102
RTVSPost2010Prop28
280
     0
102
RTVSPost2010PropOp28
 70
     1
102
RTVSPost2010Prop29
280
     1
102
RTVSPost2010PropOp29
 70
     1
102
RTVSPost2010Prop30
280
     1
102
RTVSPost2010PropOp30
 70
     1
102
RTVSPost2010Prop31
280
     0
102
RTVSPost2010PropOp31
 70
     1
102
RTVSPost2010Prop32
280
     0
102
RTVSPost2010PropOp32
 70
     1
102
RTVSPost2010Prop33
280
     0
102
RTVSPost2010PropOp33
 70
     1
102
RTVSPost2010Prop34
280
     0
102
RTVSPost2010PropOp34
 70
     1
102
RTVSPost2010Prop35
280
     0
102
RTVSPost2010PropOp35
 70
     1
102
RTVSPost2010Prop36
280
     0
102
RTVSPost2010PropOp36
 70
     1
102
RTVSPost2010Prop37
 90
       50
102
RTVSPost2010PropOp37
 70
     1
102
RTVSPost2010Prop38
140
0.0
102
RTVSPost2010PropOp38
 70
     1
102
RTVSPost2010Prop39
140
1.0
102
RTVSPost2010PropOp39
 70
     1
102
RTVSPost2010Prop40
 90
        0
102
RTVSPost2010PropOp40
 70
     1
102
RTVSPost2010Prop41ColorIndex
 90
       18
102
RTVSPost2010Prop41ColorRGB
 90
        0
102
RTVSPost2010PropOp41
 70
     1
102
RTVSPost2010Prop42
 90
       50
102
RTVSPost2010PropOp42
 70
     1
102
RTVSPost2010Prop43
 90
        3
102
RTVSPost2010PropOp43
 70
     1
102
RTVSPost2010Prop44ColorIndex
 90
        5
102
RTVSPost2010Prop44ColorRGB
 90
      255
102
RTVSPost2010PropOp44
 70
     1
102
RTVSPost2010Prop45
280
     0
102
RTVSPost2010PropOp45
 70
     1
102
RTVSPost2010Prop46
 90
       50
102
RTVSPost2010PropOp46
 70
     1
102
RTVSPost2010Prop47
 90
       50
102
RTVSPost2010PropOp47
 70
     1
102
RTVSPost2010Prop48
 90
       50
102
RTVSPost2010PropOp48
 70
     1
102
RTVSPost2010Prop49
280
     0
102
RTVSPost2010PropOp49
 70
     1
102
RTVSPost2010Prop50
 90
       50
102
RTVSPost2010PropOp50
 70
     1
102
RTVSPost2010Prop51ColorIndex
 90
      256
102
RTVSPost2010Prop51ColorRGB
 90
-16777216
102
RTVSPost2010PropOp51
 70
     0
102
RTVSPost2010Prop52
140
1.0
102
RTVSPost2010PropOp52
 70
     0
102
RTVSPost2010Prop53
 90
        2
102
RTVSPost2010PropOp53
 70
     1
102
RTVSPost2010Prop54
  1
strokes_ogs.tif
102
RTVSPost2010PropOp54
 70
     1
102
RTVSPost2010Prop55
280
     0
102
RTVSPost2010PropOp55
 70
     1
102
RTVSPost2010Prop56
140
1.0
102
RTVSPost2010PropOp56
 70
     1
102
RTVSPost2010Prop57
140
1.0
102
RTVSPost2010PropOp57
 70
     1
  0
XRECORD
  5
247
102
{ACAD_REACTORS
330
246
102
}
330
246
100
AcDbXrecord
280
     1
102
RTVSPropertyOp0
 70
     1
102
RTVSPropertyOp1
 70
     1
102
RTVSPropertyOp2
 70
     1
102
RTVSPropertyOp3
 70
     1
102
RTVSPropertyOp4
 70
     1
102
RTVSPropertyOp5
 70
     1
102
RTVSPropertyOp6
 70
     1
102
RTVSPropertyOp7
 70
     1
102
RTVSPropertyOp8
 70
     1
102
RTVSPropertyOp9
 70
     1
102
RTVSPropertyOp10
 70
     1
102
RTVSPropertyOp11
 70
     1
102
RTVSPropertyOp12
 70
     1
102
RTVSPropertyOp13
 70
     1
102
RTVSPropertyOp14
 70
     1
102
RTVSPropertyOp15
 70
     1
102
RTVSPropertyOp16
 70
     1
102
RTVSPropertyOp17
 70
     1
102
RTVSPropertyOp18
 70
     1
102
RTVSPropertyOp19
 70
     1
102
RTVSPropertyOp20
 70
     1
102
RTVSPropertyOp21
 70
     1
102
RTVSPropertyOp22
 70
     1
102
RTVSPropertyOp23
 70
     1
102
RTVSPropertyOp24
 70
     1
102
RTVSPropertyOp25
 70
     1
102
RTVSPropertyOp26
 70
     1
102
RTVSPropertyOp27
 70
     1
102
RTVSPropertyOp28
 70
     1
102
RTVSPropertyOp29
 70
     1
102
RTVSPropertyOp30
 70
     1
102
RTVSPropertyOp31
 70
     1
102
RTVSPropertyOp32
 70
     1
102
RTVSPropertyOp33
 70
     1
102
RTVSPropertyOp34
 70
     1
102
RTVSPropertyOp35
 70
     1
102
RTVSPropertyOp36
 70
     1
102
RTVSPropertyOp37
 70
     1
102
RTVSPropertyOp38
 70
     1
102
RTVSPropertyOp39
 70
     1
102
RTVSPropertyOp40
 70
     1
102
RTVSPropertyOp41
 70
     1
102
RTVSPropertyOp42
 70
     1
102
RTVSPropertyOp43
 70
     1
102
RTVSPropertyOp44
 70
     1
102
RTVSPropertyOp45
 70
     1
102
RTVSPropertyOp46
 70
     1
102
RTVSPropertyOp47
 70
     1
102
RTVSPropertyOp48
 70
     1
102
RTVSPropertyOp49
 70
     1
102
RTVSPropertyOp50
 70
     1
102
RTVSPropertyOp51
 70
     0
102
RTVSPropertyOp52
 70
     0
102
RTVSPropertyOp53
 70
     1
102
RTVSPropertyOp54
 70
     1
102
RTVSPropertyOp55
 70
     1
102
RTVSPropertyOp56
 70
     1
102
RTVSPropertyOp57
 70
     1
102
RTVSPost2010Prop28
280
     0
102
RTVSPost2010PropOp28
 70
     1
102
RTVSPost2010Prop29
280
     1
102
RTVSPost2010PropOp29
 70
     1
102
RTVSPost2010Prop30
280
     1
102
RTVSPost2010PropOp30
 70
     1
102
RTVSPost2010Prop31
280
     0
102
RTVSPost2010PropOp31
 70
     1
102
RTVSPost2010Prop32
280
     0
102
RTVSPost2010PropOp32
 70
     1
102
RTVSPost2010Prop33
280
     0
102
RTVSPost2010PropOp33
 70
     1
102
RTVSPost2010Prop34
280
     0
102
RTVSPost2010PropOp34
 70
     1
102
RTVSPost2010Prop35
280
     0
102
RTVSPost2010PropOp35
 70
     1
102
RTVSPost2010Prop36
280
     0
102
RTVSPost2010PropOp36
 70
     1
102
RTVSPost2010Prop37
 90
       50
102
RTVSPost2010PropOp37
 70
     1
102
RTVSPost2010Prop38
140
0.0
102
RTVSPost2010PropOp38
 70
     1
102
RTVSPost2010Prop39
140
1.0
102
RTVSPost2010PropOp39
 70
     1
102
RTVSPost2010Prop40
 90
        0
102
RTVSPost2010PropOp40
 70
     1
102
RTVSPost2010Prop41ColorIndex
 90
       18
102
RTVSPost2010Prop41ColorRGB
 90
        0
102
RTVSPost2010PropOp41
 70
     1
102
RTVSPost2010Prop42
 90
       50
102
RTVSPost2010PropOp42
 70
     1
102
RTVSPost2010Prop43
 90
        3
102
RTVSPost2010PropOp43
 70
     1
102
RTVSPost2010Prop44ColorIndex
 90
        5
102
RTVSPost2010Prop44ColorRGB
 90
      255
102
RTVSPost2010PropOp44
 70
     1
102
RTVSPost2010Prop45
280
     0
102
RTVSPost2010PropOp45
 70
     1
102
RTVSPost2010Prop46
 90
       50
102
RTVSPost2010PropOp46
 70
     1
102
RTVSPost2010Prop47
 90
       50
102
RTVSPost2010PropOp47
 70
     1
102
RTVSPost2010Prop48
 90
       50
102
RTVSPost2010PropOp48
 70
     1
102
RTVSPost2010Prop49
280
     0
102
RTVSPost2010PropOp49
 70
     1
102
RTVSPost2010Prop50
 90
       50
102
RTVSPost2010PropOp50
 70
     1
102
RTVSPost2010Prop51ColorIndex
 90
      256
102
RTVSPost2010Prop51ColorRGB
 90
-16777216
102
RTVSPost2010PropOp51
 70
     0
102
RTVSPost2010Prop52
140
1.0
102
RTVSPost2010PropOp52
 70
     0
102
RTVSPost2010Prop53
 90
        2
102
RTVSPost2010PropOp53
 70
     1
102
RTVSPost2010Prop54
  1
strokes_ogs.tif
102
RTVSPost2010PropOp54
 70
     1
102
RTVSPost2010Prop55
280
     0
102
RTVSPost2010PropOp55
 70
     1
102
RTVSPost2010Prop56
140
1.0
102
RTVSPost2010PropOp56
 70
     1
102
RTVSPost2010Prop57
140
1.0
102
RTVSPost2010PropOp57
 70
     1
  0
XRECORD
  5
25B
102
{ACAD_REACTORS
330
25A
102
}
330
25A
100
AcDbXrecord
280
     1
102
RTVSPropertyOp0
 70
     0
102
RTVSPropertyOp1
 70
     0
102
RTVSPropertyOp2
 70
     0
102
RTVSPropertyOp3
 70
     0
102
RTVSPropertyOp4
 70
     0
102
RTVSPropertyOp5
 70
     0
102
RTVSPropertyOp6
 70
     0
102
RTVSPropertyOp7
 70
     0
102
RTVSPropertyOp8
 70
     0
102
RTVSPropertyOp9
 70
     0
102
RTVSPropertyOp10
 70
     0
102
RTVSPropertyOp11
 70
     0
102
RTVSPropertyOp12
 70
     0
102
RTVSPropertyOp13
 70
     0
102
RTVSPropertyOp14
 70
     2
102
RTVSPropertyOp15
 70
     0
102
RTVSPropertyOp16
 70
     0
102
RTVSPropertyOp17
 70
     0
102
RTVSPropertyOp18
 70
     0
102
RTVSPropertyOp19
 70
     0
102
RTVSPropertyOp20
 70
     0
102
RTVSPropertyOp21
 70
     0
102
RTVSPropertyOp22
 70
     0
102
RTVSPropertyOp23
 70
     0
102
RTVSPropertyOp24
 70
     0
102
RTVSPropertyOp25
 70
     0
102
RTVSPropertyOp26
 70
     0
102
RTVSPropertyOp27
 70
     0
102
RTVSPropertyOp28
 70
     0
102
RTVSPropertyOp29
 70
     0
102
RTVSPropertyOp30
 70
     0
102
RTVSPropertyOp31
 70
     0
102
RTVSPropertyOp32
 70
     0
102
RTVSPropertyOp33
 70
     0
102
RTVSPropertyOp34
 70
     0
102
RTVSPropertyOp35
 70
     0
102
RTVSPropertyOp36
 70
     0
102
RTVSPropertyOp37
 70
     0
102
RTVSPropertyOp38
 70
     0
102
RTVSPropertyOp39
 70
     0
102
RTVSPropertyOp40
 70
     0
102
RTVSPropertyOp41
 70
     0
102
RTVSPropertyOp42
 70
     0
102
RTVSPropertyOp43
 70
     0
102
RTVSPropertyOp44
 70
     0
102
RTVSPropertyOp45
 70
     0
102
RTVSPropertyOp46
 70
     0
102
RTVSPropertyOp47
 70
     0
102
RTVSPropertyOp48
 70
     0
102
RTVSPropertyOp49
 70
     0
102
RTVSPropertyOp50
 70
     0
102
RTVSPropertyOp51
 70
     0
102
RTVSPropertyOp52
 70
     0
102
RTVSPropertyOp53
 70
     0
102
RTVSPropertyOp54
 70
     0
102
RTVSPropertyOp55
 70
     0
102
RTVSPropertyOp56
 70
     0
102
RTVSPropertyOp57
 70
     0
102
RTVSPost2010Prop28
280
     0
102
RTVSPost2010PropOp28
 70
     0
102
RTVSPost2010Prop29
280
     1
102
RTVSPost2010PropOp29
 70
     0
102
RTVSPost2010Prop30
280
     1
102
RTVSPost2010PropOp30
 70
     0
102
RTVSPost2010Prop31
280
     0
102
RTVSPost2010PropOp31
 70
     0
102
RTVSPost2010Prop32
280
     0
102
RTVSPost2010PropOp32
 70
     0
102
RTVSPost2010Prop33
280
     0
102
RTVSPost2010PropOp33
 70
     0
102
RTVSPost2010Prop34
280
     0
102
RTVSPost2010PropOp34
 70
     0
102
RTVSPost2010Prop35
280
     0
102
RTVSPost2010PropOp35
 70
     0
102
RTVSPost2010Prop36
280
     0
102
RTVSPost2010PropOp36
 70
     0
102
RTVSPost2010Prop37
 90
       50
102
RTVSPost2010PropOp37
 70
     0
102
RTVSPost2010Prop38
140
0.0
102
RTVSPost2010PropOp38
 70
     0
102
RTVSPost2010Prop39
140
1.0
102
RTVSPost2010PropOp39
 70
     0
102
RTVSPost2010Prop40
 90
        0
102
RTVSPost2010PropOp40
 70
     0
102
RTVSPost2010Prop41ColorIndex
 90
       18
102
RTVSPost2010Prop41ColorRGB
 90
        0
102
RTVSPost2010PropOp41
 70
     0
102
RTVSPost2010Prop42
 90
       50
102
RTVSPost2010PropOp42
 70
     0
102
RTVSPost2010Prop43
 90
        3
102
RTVSPost2010PropOp43
 70
     0
102
RTVSPost2010Prop44ColorIndex
 90
        5
102
RTVSPost2010Prop44ColorRGB
 90
      255
102
RTVSPost2010PropOp44
 70
     0
102
RTVSPost2010Prop45
280
     0
102
RTVSPost2010PropOp45
 70
     0
102
RTVSPost2010Prop46
 90
       50
102
RTVSPost2010PropOp46
 70
     0
102
RTVSPost2010Prop47
 90
       50
102
RTVSPost2010PropOp47
 70
     0
102
RTVSPost2010Prop48
 90
       50
102
RTVSPost2010PropOp48
 70
     0
102
RTVSPost2010Prop49
280
     0
102
RTVSPost2010PropOp49
 70
     0
102
RTVSPost2010Prop50
 90
       50
102
RTVSPost2010PropOp50
 70
     0
102
RTVSPost2010Prop51ColorIndex
 90
      256
102
RTVSPost2010Prop51ColorRGB
 90
-16777216
102
RTVSPost2010PropOp51
 70
     0
102
RTVSPost2010Prop52
140
1.0
102
RTVSPost2010PropOp52
 70
     0
102
RTVSPost2010Prop53
 90
        2
102
RTVSPost2010PropOp53
 70
     0
102
RTVSPost2010Prop54
  1
strokes_ogs.tif
102
RTVSPost2010PropOp54
 70
     0
102
RTVSPost2010Prop55
280
     0
102
RTVSPost2010PropOp55
 70
     0
102
RTVSPost2010Prop56
140
1.0
102
RTVSPost2010PropOp56
 70
     0
102
RTVSPost2010Prop57
140
1.0
102
RTVSPost2010PropOp57
 70
     0
  0
XRECORD
  5
255
102
{ACAD_REACTORS
330
254
102
}
330
254
100
AcDbXrecord
280
     1
102
RTVSPropertyOp0
 70
     1
102
RTVSPropertyOp1
 70
     1
102
RTVSPropertyOp2
 70
     1
102
RTVSPropertyOp3
 70
     1
102
RTVSPropertyOp4
 70
     1
102
RTVSPropertyOp5
 70
     1
102
RTVSPropertyOp6
 70
     1
102
RTVSPropertyOp7
 70
     1
102
RTVSPropertyOp8
 70
     1
102
RTVSPropertyOp9
 70
     1
102
RTVSPropertyOp10
 70
     1
102
RTVSPropertyOp11
 70
     1
102
RTVSPropertyOp12
 70
     1
102
RTVSPropertyOp13
 70
     1
102
RTVSPropertyOp14
 70
     1
102
RTVSPropertyOp15
 70
     1
102
RTVSPropertyOp16
 70
     1
102
RTVSPropertyOp17
 70
     1
102
RTVSPropertyOp18
 70
     1
102
RTVSPropertyOp19
 70
     1
102
RTVSPropertyOp20
 70
     1
102
RTVSPropertyOp21
 70
     1
102
RTVSPropertyOp22
 70
     1
102
RTVSPropertyOp23
 70
     1
102
RTVSPropertyOp24
 70
     1
102
RTVSPropertyOp25
 70
     1
102
RTVSPropertyOp26
 70
     1
102
RTVSPropertyOp27
 70
     1
102
RTVSPropertyOp28
 70
     1
102
RTVSPropertyOp29
 70
     1
102
RTVSPropertyOp30
 70
     1
102
RTVSPropertyOp31
 70
     1
102
RTVSPropertyOp32
 70
     1
102
RTVSPropertyOp33
 70
     1
102
RTVSPropertyOp34
 70
     1
102
RTVSPropertyOp35
 70
     1
102
RTVSPropertyOp36
 70
     1
102
RTVSPropertyOp37
 70
     1
102
RTVSPropertyOp38
 70
     1
102
RTVSPropertyOp39
 70
     1
102
RTVSPropertyOp40
 70
     1
102
RTVSPropertyOp41
 70
     1
102
RTVSPropertyOp42
 70
     1
102
RTVSPropertyOp43
 70
     1
102
RTVSPropertyOp44
 70
     1
102
RTVSPropertyOp45
 70
     1
102
RTVSPropertyOp46
 70
     1
102
RTVSPropertyOp47
 70
     1
102
RTVSPropertyOp48
 70
     1
102
RTVSPropertyOp49
 70
     1
102
RTVSPropertyOp50
 70
     1
102
RTVSPropertyOp51
 70
     0
102
RTVSPropertyOp52
 70
     0
102
RTVSPropertyOp53
 70
     1
102
RTVSPropertyOp54
 70
     1
102
RTVSPropertyOp55
 70
     1
102
RTVSPropertyOp56
 70
     1
102
RTVSPropertyOp57
 70
     1
102
RTVSPost2010Prop28
280
     0
102
RTVSPost2010PropOp28
 70
     1
102
RTVSPost2010Prop29
280
     1
102
RTVSPost2010PropOp29
 70
     1
102
RTVSPost2010Prop30
280
     1
102
RTVSPost2010PropOp30
 70
     1
102
RTVSPost2010Prop31
280
     0
102
RTVSPost2010PropOp31
 70
     1
102
RTVSPost2010Prop32
280
     0
102
RTVSPost2010PropOp32
 70
     1
102
RTVSPost2010Prop33
280
     0
102
RTVSPost2010PropOp33
 70
     1
102
RTVSPost2010Prop34
280
     0
102
RTVSPost2010PropOp34
 70
     1
102
RTVSPost2010Prop35
280
     0
102
RTVSPost2010PropOp35
 70
     1
102
RTVSPost2010Prop36
280
     0
102
RTVSPost2010PropOp36
 70
     1
102
RTVSPost2010Prop37
 90
       50
102
RTVSPost2010PropOp37
 70
     1
102
RTVSPost2010Prop38
140
0.0
102
RTVSPost2010PropOp38
 70
     1
102
RTVSPost2010Prop39
140
1.0
102
RTVSPost2010PropOp39
 70
     1
102
RTVSPost2010Prop40
 90
        0
102
RTVSPost2010PropOp40
 70
     1
102
RTVSPost2010Prop41ColorIndex
 90
       18
102
RTVSPost2010Prop41ColorRGB
 90
        0
102
RTVSPost2010PropOp41
 70
     1
102
RTVSPost2010Prop42
 90
       50
102
RTVSPost2010PropOp42
 70
     1
102
RTVSPost2010Prop43
 90
        3
102
RTVSPost2010PropOp43
 70
     1
102
RTVSPost2010Prop44ColorIndex
 90
        5
102
RTVSPost2010Prop44ColorRGB
 90
      255
102
RTVSPost2010PropOp44
 70
     1
102
RTVSPost2010Prop45
280
     0
102
RTVSPost2010PropOp45
 70
     1
102
RTVSPost2010Prop46
 90
       50
102
RTVSPost2010PropOp46
 70
     1
102
RTVSPost2010Prop47
 90
       50
102
RTVSPost2010PropOp47
 70
     1
102
RTVSPost2010Prop48
 90
       50
102
RTVSPost2010PropOp48
 70
     1
102
RTVSPost2010Prop49
280
     0
102
RTVSPost2010PropOp49
 70
     1
102
RTVSPost2010Prop50
 90
       50
102
RTVSPost2010PropOp50
 70
     1
102
RTVSPost2010Prop51ColorIndex
 90
      256
102
RTVSPost2010Prop51ColorRGB
 90
-16777216
102
RTVSPost2010PropOp51
 70
     0
102
RTVSPost2010Prop52
140
1.0
102
RTVSPost2010PropOp52
 70
     0
102
RTVSPost2010Prop53
 90
        2
102
RTVSPost2010PropOp53
 70
     1
102
RTVSPost2010Prop54
  1
strokes_ogs.tif
102
RTVSPost2010PropOp54
 70
     1
102
RTVSPost2010Prop55
280
     0
102
RTVSPost2010PropOp55
 70
     1
102
RTVSPost2010Prop56
140
1.0
102
RTVSPost2010PropOp56
 70
     1
102
RTVSPost2010Prop57
140
1.0
102
RTVSPost2010PropOp57
 70
     1
  0
XRECORD
  5
25D
102
{ACAD_REACTORS
330
25C
102
}
330
25C
100
AcDbXrecord
280
     1
102
RTVSPropertyOp0
 70
     0
102
RTVSPropertyOp1
 70
     0
102
RTVSPropertyOp2
 70
     0
102
RTVSPropertyOp3
 70
     0
102
RTVSPropertyOp4
 70
     0
102
RTVSPropertyOp5
 70
     0
102
RTVSPropertyOp6
 70
     0
102
RTVSPropertyOp7
 70
     0
102
RTVSPropertyOp8
 70
     0
102
RTVSPropertyOp9
 70
     0
102
RTVSPropertyOp10
 70
     0
102
RTVSPropertyOp11
 70
     0
102
RTVSPropertyOp12
 70
     0
102
RTVSPropertyOp13
 70
     0
102
RTVSPropertyOp14
 70
     2
102
RTVSPropertyOp15
 70
     0
102
RTVSPropertyOp16
 70
     0
102
RTVSPropertyOp17
 70
     0
102
RTVSPropertyOp18
 70
     0
102
RTVSPropertyOp19
 70
     0
102
RTVSPropertyOp20
 70
     0
102
RTVSPropertyOp21
 70
     0
102
RTVSPropertyOp22
 70
     0
102
RTVSPropertyOp23
 70
     0
102
RTVSPropertyOp24
 70
     0
102
RTVSPropertyOp25
 70
     0
102
RTVSPropertyOp26
 70
     0
102
RTVSPropertyOp27
 70
     0
102
RTVSPropertyOp28
 70
     0
102
RTVSPropertyOp29
 70
     0
102
RTVSPropertyOp30
 70
     0
102
RTVSPropertyOp31
 70
     0
102
RTVSPropertyOp32
 70
     0
102
RTVSPropertyOp33
 70
     0
102
RTVSPropertyOp34
 70
     0
102
RTVSPropertyOp35
 70
     0
102
RTVSPropertyOp36
 70
     0
102
RTVSPropertyOp37
 70
     0
102
RTVSPropertyOp38
 70
     0
102
RTVSPropertyOp39
 70
     0
102
RTVSPropertyOp40
 70
     0
102
RTVSPropertyOp41
 70
     0
102
RTVSPropertyOp42
 70
     0
102
RTVSPropertyOp43
 70
     0
102
RTVSPropertyOp44
 70
     0
102
RTVSPropertyOp45
 70
     0
102
RTVSPropertyOp46
 70
     0
102
RTVSPropertyOp47
 70
     0
102
RTVSPropertyOp48
 70
     0
102
RTVSPropertyOp49
 70
     0
102
RTVSPropertyOp50
 70
     0
102
RTVSPropertyOp51
 70
     0
102
RTVSPropertyOp52
 70
     0
102
RTVSPropertyOp53
 70
     0
102
RTVSPropertyOp54
 70
     0
102
RTVSPropertyOp55
 70
     0
102
RTVSPropertyOp56
 70
     0
102
RTVSPropertyOp57
 70
     0
102
RTVSPost2010Prop28
280
     0
102
RTVSPost2010PropOp28
 70
     0
102
RTVSPost2010Prop29
280
     1
102
RTVSPost2010PropOp29
 70
     0
102
RTVSPost2010Prop30
280
     1
102
RTVSPost2010PropOp30
 70
     0
102
RTVSPost2010Prop31
280
     0
102
RTVSPost2010PropOp31
 70
     0
102
RTVSPost2010Prop32
280
     0
102
RTVSPost2010PropOp32
 70
     0
102
RTVSPost2010Prop33
280
     0
102
RTVSPost2010PropOp33
 70
     0
102
RTVSPost2010Prop34
280
     0
102
RTVSPost2010PropOp34
 70
     0
102
RTVSPost2010Prop35
280
     0
102
RTVSPost2010PropOp35
 70
     0
102
RTVSPost2010Prop36
280
     0
102
RTVSPost2010PropOp36
 70
     0
102
RTVSPost2010Prop37
 90
       50
102
RTVSPost2010PropOp37
 70
     0
102
RTVSPost2010Prop38
140
0.0
102
RTVSPost2010PropOp38
 70
     0
102
RTVSPost2010Prop39
140
1.0
102
RTVSPost2010PropOp39
 70
     0
102
RTVSPost2010Prop40
 90
        0
102
RTVSPost2010PropOp40
 70
     0
102
RTVSPost2010Prop41ColorIndex
 90
       18
102
RTVSPost2010Prop41ColorRGB
 90
        0
102
RTVSPost2010PropOp41
 70
     0
102
RTVSPost2010Prop42
 90
       50
102
RTVSPost2010PropOp42
 70
     0
102
RTVSPost2010Prop43
 90
        3
102
RTVSPost2010PropOp43
 70
     0
102
RTVSPost2010Prop44ColorIndex
 90
        5
102
RTVSPost2010Prop44ColorRGB
 90
      255
102
RTVSPost2010PropOp44
 70
     0
102
RTVSPost2010Prop45
280
     0
102
RTVSPost2010PropOp45
 70
     0
102
RTVSPost2010Prop46
 90
       50
102
RTVSPost2010PropOp46
 70
     0
102
RTVSPost2010Prop47
 90
       50
102
RTVSPost2010PropOp47
 70
     0
102
RTVSPost2010Prop48
 90
       50
102
RTVSPost2010PropOp48
 70
     0
102
RTVSPost2010Prop49
280
     0
102
RTVSPost2010PropOp49
 70
     0
102
RTVSPost2010Prop50
 90
       50
102
RTVSPost2010PropOp50
 70
     0
102
RTVSPost2010Prop51ColorIndex
 90
      256
102
RTVSPost2010Prop51ColorRGB
 90
-16777216
102
RTVSPost2010PropOp51
 70
     0
102
RTVSPost2010Prop52
140
1.0
102
RTVSPost2010PropOp52
 70
     0
102
RTVSPost2010Prop53
 90
        2
102
RTVSPost2010PropOp53
 70
     0
102
RTVSPost2010Prop54
  1
strokes_ogs.tif
102
RTVSPost2010PropOp54
 70
     0
102
RTVSPost2010Prop55
280
     0
102
RTVSPost2010PropOp55
 70
     0
102
RTVSPost2010Prop56
140
1.0
102
RTVSPost2010PropOp56
 70
     0
102
RTVSPost2010Prop57
140
1.0
102
RTVSPost2010PropOp57
 70
     0
  0
XRECORD
  5
24B
102
{ACAD_REACTORS
330
24A
102
}
330
24A
100
AcDbXrecord
280
     1
102
RTVSPropertyOp0
 70
     1
102
RTVSPropertyOp1
 70
     1
102
RTVSPropertyOp2
 70
     1
102
RTVSPropertyOp3
 70
     1
102
RTVSPropertyOp4
 70
     1
102
RTVSPropertyOp5
 70
     1
102
RTVSPropertyOp6
 70
     1
102
RTVSPropertyOp7
 70
     1
102
RTVSPropertyOp8
 70
     1
102
RTVSPropertyOp9
 70
     1
102
RTVSPropertyOp10
 70
     1
102
RTVSPropertyOp11
 70
     1
102
RTVSPropertyOp12
 70
     1
102
RTVSPropertyOp13
 70
     1
102
RTVSPropertyOp14
 70
     1
102
RTVSPropertyOp15
 70
     1
102
RTVSPropertyOp16
 70
     1
102
RTVSPropertyOp17
 70
     1
102
RTVSPropertyOp18
 70
     1
102
RTVSPropertyOp19
 70
     1
102
RTVSPropertyOp20
 70
     1
102
RTVSPropertyOp21
 70
     1
102
RTVSPropertyOp22
 70
     1
102
RTVSPropertyOp23
 70
     1
102
RTVSPropertyOp24
 70
     1
102
RTVSPropertyOp25
 70
     1
102
RTVSPropertyOp26
 70
     1
102
RTVSPropertyOp27
 70
     1
102
RTVSPropertyOp28
 70
     1
102
RTVSPropertyOp29
 70
     1
102
RTVSPropertyOp30
 70
     1
102
RTVSPropertyOp31
 70
     1
102
RTVSPropertyOp32
 70
     1
102
RTVSPropertyOp33
 70
     1
102
RTVSPropertyOp34
 70
     1
102
RTVSPropertyOp35
 70
     1
102
RTVSPropertyOp36
 70
     1
102
RTVSPropertyOp37
 70
     1
102
RTVSPropertyOp38
 70
     1
102
RTVSPropertyOp39
 70
     1
102
RTVSPropertyOp40
 70
     1
102
RTVSPropertyOp41
 70
     1
102
RTVSPropertyOp42
 70
     1
102
RTVSPropertyOp43
 70
     1
102
RTVSPropertyOp44
 70
     1
102
RTVSPropertyOp45
 70
     1
102
RTVSPropertyOp46
 70
     1
102
RTVSPropertyOp47
 70
     1
102
RTVSPropertyOp48
 70
     1
102
RTVSPropertyOp49
 70
     1
102
RTVSPropertyOp50
 70
     1
102
RTVSPropertyOp51
 70
     0
102
RTVSPropertyOp52
 70
     0
102
RTVSPropertyOp53
 70
     1
102
RTVSPropertyOp54
 70
     1
102
RTVSPropertyOp55
 70
     1
102
RTVSPropertyOp56
 70
     1
102
RTVSPropertyOp57
 70
     1
102
RTVSPost2010Prop28
280
     0
102
RTVSPost2010PropOp28
 70
     1
102
RTVSPost2010Prop29
280
     1
102
RTVSPost2010PropOp29
 70
     1
102
RTVSPost2010Prop30
280
     1
102
RTVSPost2010PropOp30
 70
     1
102
RTVSPost2010Prop31
280
     0
102
RTVSPost2010PropOp31
 70
     1
102
RTVSPost2010Prop32
280
     0
102
RTVSPost2010PropOp32
 70
     1
102
RTVSPost2010Prop33
280
     0
102
RTVSPost2010PropOp33
 70
     1
102
RTVSPost2010Prop34
280
     0
102
RTVSPost2010PropOp34
 70
     1
102
RTVSPost2010Prop35
280
     0
102
RTVSPost2010PropOp35
 70
     1
102
RTVSPost2010Prop36
280
     0
102
RTVSPost2010PropOp36
 70
     1
102
RTVSPost2010Prop37
 90
       50
102
RTVSPost2010PropOp37
 70
     1
102
RTVSPost2010Prop38
140
0.0
102
RTVSPost2010PropOp38
 70
     1
102
RTVSPost2010Prop39
140
1.0
102
RTVSPost2010PropOp39
 70
     1
102
RTVSPost2010Prop40
 90
        0
102
RTVSPost2010PropOp40
 70
     1
102
RTVSPost2010Prop41ColorIndex
 90
       18
102
RTVSPost2010Prop41ColorRGB
 90
        0
102
RTVSPost2010PropOp41
 70
     1
102
RTVSPost2010Prop42
 90
       50
102
RTVSPost2010PropOp42
 70
     1
102
RTVSPost2010Prop43
 90
        3
102
RTVSPost2010PropOp43
 70
     1
102
RTVSPost2010Prop44ColorIndex
 90
        5
102
RTVSPost2010Prop44ColorRGB
 90
      255
102
RTVSPost2010PropOp44
 70
     1
102
RTVSPost2010Prop45
280
     0
102
RTVSPost2010PropOp45
 70
     1
102
RTVSPost2010Prop46
 90
       50
102
RTVSPost2010PropOp46
 70
     1
102
RTVSPost2010Prop47
 90
       50
102
RTVSPost2010PropOp47
 70
     1
102
RTVSPost2010Prop48
 90
       50
102
RTVSPost2010PropOp48
 70
     1
102
RTVSPost2010Prop49
280
     0
102
RTVSPost2010PropOp49
 70
     1
102
RTVSPost2010Prop50
 90
       50
102
RTVSPost2010PropOp50
 70
     1
102
RTVSPost2010Prop51ColorIndex
 90
      256
102
RTVSPost2010Prop51ColorRGB
 90
-16777216
102
RTVSPost2010PropOp51
 70
     0
102
RTVSPost2010Prop52
140
1.0
102
RTVSPost2010PropOp52
 70
     0
102
RTVSPost2010Prop53
 90
        2
102
RTVSPost2010PropOp53
 70
     1
102
RTVSPost2010Prop54
  1
strokes_ogs.tif
102
RTVSPost2010PropOp54
 70
     1
102
RTVSPost2010Prop55
280
     0
102
RTVSPost2010PropOp55
 70
     1
102
RTVSPost2010Prop56
140
1.0
102
RTVSPost2010PropOp56
 70
     1
102
RTVSPost2010Prop57
140
1.0
102
RTVSPost2010PropOp57
 70
     1
  0
XRECORD
  5
269
102
{ACAD_REACTORS
330
268
102
}
330
268
100
AcDbXrecord
280
     1
102
RTVSPropertyOp0
 70
     1
102
RTVSPropertyOp1
 70
     1
102
RTVSPropertyOp2
 70
     1
102
RTVSPropertyOp3
 70
     1
102
RTVSPropertyOp4
 70
     1
102
RTVSPropertyOp5
 70
     1
102
RTVSPropertyOp6
 70
     1
102
RTVSPropertyOp7
 70
     1
102
RTVSPropertyOp8
 70
     1
102
RTVSPropertyOp9
 70
     1
102
RTVSPropertyOp10
 70
     1
102
RTVSPropertyOp11
 70
     1
102
RTVSPropertyOp12
 70
     1
102
RTVSPropertyOp13
 70
     1
102
RTVSPropertyOp14
 70
     1
102
RTVSPropertyOp15
 70
     1
102
RTVSPropertyOp16
 70
     1
102
RTVSPropertyOp17
 70
     1
102
RTVSPropertyOp18
 70
     1
102
RTVSPropertyOp19
 70
     1
102
RTVSPropertyOp20
 70
     1
102
RTVSPropertyOp21
 70
     1
102
RTVSPropertyOp22
 70
     1
102
RTVSPropertyOp23
 70
     1
102
RTVSPropertyOp24
 70
     1
102
RTVSPropertyOp25
 70
     1
102
RTVSPropertyOp26
 70
     1
102
RTVSPropertyOp27
 70
     1
102
RTVSPropertyOp28
 70
     1
102
RTVSPropertyOp29
 70
     1
102
RTVSPropertyOp30
 70
     1
102
RTVSPropertyOp31
 70
     1
102
RTVSPropertyOp32
 70
     1
102
RTVSPropertyOp33
 70
     1
102
RTVSPropertyOp34
 70
     1
102
RTVSPropertyOp35
 70
     1
102
RTVSPropertyOp36
 70
     1
102
RTVSPropertyOp37
 70
     1
102
RTVSPropertyOp38
 70
     1
102
RTVSPropertyOp39
 70
     1
102
RTVSPropertyOp40
 70
     1
102
RTVSPropertyOp41
 70
     1
102
RTVSPropertyOp42
 70
     1
102
RTVSPropertyOp43
 70
     1
102
RTVSPropertyOp44
 70
     1
102
RTVSPropertyOp45
 70
     1
102
RTVSPropertyOp46
 70
     1
102
RTVSPropertyOp47
 70
     1
102
RTVSPropertyOp48
 70
     1
102
RTVSPropertyOp49
 70
     1
102
RTVSPropertyOp50
 70
     1
102
RTVSPropertyOp51
 70
     0
102
RTVSPropertyOp52
 70
     0
102
RTVSPropertyOp53
 70
     1
102
RTVSPropertyOp54
 70
     1
102
RTVSPropertyOp55
 70
     1
102
RTVSPropertyOp56
 70
     1
102
RTVSPropertyOp57
 70
     1
102
RTVSPost2010Prop28
280
     0
102
RTVSPost2010PropOp28
 70
     1
102
RTVSPost2010Prop29
280
     1
102
RTVSPost2010PropOp29
 70
     1
102
RTVSPost2010Prop30
280
     1
102
RTVSPost2010PropOp30
 70
     1
102
RTVSPost2010Prop31
280
     0
102
RTVSPost2010PropOp31
 70
     1
102
RTVSPost2010Prop32
280
     0
102
RTVSPost2010PropOp32
 70
     1
102
RTVSPost2010Prop33
280
     0
102
RTVSPost2010PropOp33
 70
     1
102
RTVSPost2010Prop34
280
     0
102
RTVSPost2010PropOp34
 70
     1
102
RTVSPost2010Prop35
280
     0
102
RTVSPost2010PropOp35
 70
     1
102
RTVSPost2010Prop36
280
     0
102
RTVSPost2010PropOp36
 70
     1
102
RTVSPost2010Prop37
 90
       50
102
RTVSPost2010PropOp37
 70
     1
102
RTVSPost2010Prop38
140
0.0
102
RTVSPost2010PropOp38
 70
     1
102
RTVSPost2010Prop39
140
1.0
102
RTVSPost2010PropOp39
 70
     1
102
RTVSPost2010Prop40
 90
        0
102
RTVSPost2010PropOp40
 70
     1
102
RTVSPost2010Prop41ColorIndex
 90
       18
102
RTVSPost2010Prop41ColorRGB
 90
        0
102
RTVSPost2010PropOp41
 70
     1
102
RTVSPost2010Prop42
 90
       50
102
RTVSPost2010PropOp42
 70
     1
102
RTVSPost2010Prop43
 90
        3
102
RTVSPost2010PropOp43
 70
     1
102
RTVSPost2010Prop44ColorIndex
 90
        5
102
RTVSPost2010Prop44ColorRGB
 90
      255
102
RTVSPost2010PropOp44
 70
     1
102
RTVSPost2010Prop45
280
     0
102
RTVSPost2010PropOp45
 70
     1
102
RTVSPost2010Prop46
 90
       50
102
RTVSPost2010PropOp46
 70
     1
102
RTVSPost2010Prop47
 90
       50
102
RTVSPost2010PropOp47
 70
     1
102
RTVSPost2010Prop48
 90
       50
102
RTVSPost2010PropOp48
 70
     1
102
RTVSPost2010Prop49
280
     0
102
RTVSPost2010PropOp49
 70
     1
102
RTVSPost2010Prop50
 90
       50
102
RTVSPost2010PropOp50
 70
     1
102
RTVSPost2010Prop51ColorIndex
 90
      256
102
RTVSPost2010Prop51ColorRGB
 90
-16777216
102
RTVSPost2010PropOp51
 70
     0
102
RTVSPost2010Prop52
140
1.0
102
RTVSPost2010PropOp52
 70
     0
102
RTVSPost2010Prop53
 90
        2
102
RTVSPost2010PropOp53
 70
     1
102
RTVSPost2010Prop54
  1
strokes_ogs.tif
102
RTVSPost2010PropOp54
 70
     1
102
RTVSPost2010Prop55
280
     0
102
RTVSPost2010PropOp55
 70
     1
102
RTVSPost2010Prop56
140
1.0
102
RTVSPost2010PropOp56
 70
     1
102
RTVSPost2010Prop57
140
1.0
102
RTVSPost2010PropOp57
 70
     1
  0
XRECORD
  5
267
102
{ACAD_REACTORS
330
266
102
}
330
266
100
AcDbXrecord
280
     1
102
RTVSPropertyOp0
 70
     1
102
RTVSPropertyOp1
 70
     1
102
RTVSPropertyOp2
 70
     1
102
RTVSPropertyOp3
 70
     1
102
RTVSPropertyOp4
 70
     1
102
RTVSPropertyOp5
 70
     1
102
RTVSPropertyOp6
 70
     1
102
RTVSPropertyOp7
 70
     1
102
RTVSPropertyOp8
 70
     1
102
RTVSPropertyOp9
 70
     1
102
RTVSPropertyOp10
 70
     1
102
RTVSPropertyOp11
 70
     1
102
RTVSPropertyOp12
 70
     1
102
RTVSPropertyOp13
 70
     1
102
RTVSPropertyOp14
 70
     1
102
RTVSPropertyOp15
 70
     1
102
RTVSPropertyOp16
 70
     1
102
RTVSPropertyOp17
 70
     1
102
RTVSPropertyOp18
 70
     1
102
RTVSPropertyOp19
 70
     1
102
RTVSPropertyOp20
 70
     1
102
RTVSPropertyOp21
 70
     1
102
RTVSPropertyOp22
 70
     1
102
RTVSPropertyOp23
 70
     1
102
RTVSPropertyOp24
 70
     1
102
RTVSPropertyOp25
 70
     1
102
RTVSPropertyOp26
 70
     1
102
RTVSPropertyOp27
 70
     1
102
RTVSPropertyOp28
 70
     1
102
RTVSPropertyOp29
 70
     1
102
RTVSPropertyOp30
 70
     1
102
RTVSPropertyOp31
 70
     1
102
RTVSPropertyOp32
 70
     1
102
RTVSPropertyOp33
 70
     1
102
RTVSPropertyOp34
 70
     1
102
RTVSPropertyOp35
 70
     1
102
RTVSPropertyOp36
 70
     1
102
RTVSPropertyOp37
 70
     1
102
RTVSPropertyOp38
 70
     1
102
RTVSPropertyOp39
 70
     1
102
RTVSPropertyOp40
 70
     1
102
RTVSPropertyOp41
 70
     1
102
RTVSPropertyOp42
 70
     1
102
RTVSPropertyOp43
 70
     1
102
RTVSPropertyOp44
 70
     1
102
RTVSPropertyOp45
 70
     1
102
RTVSPropertyOp46
 70
     1
102
RTVSPropertyOp47
 70
     1
102
RTVSPropertyOp48
 70
     1
102
RTVSPropertyOp49
 70
     1
102
RTVSPropertyOp50
 70
     1
102
RTVSPropertyOp51
 70
     0
102
RTVSPropertyOp52
 70
     0
102
RTVSPropertyOp53
 70
     1
102
RTVSPropertyOp54
 70
     1
102
RTVSPropertyOp55
 70
     1
102
RTVSPropertyOp56
 70
     1
102
RTVSPropertyOp57
 70
     1
102
RTVSPost2010Prop28
280
     0
102
RTVSPost2010PropOp28
 70
     1
102
RTVSPost2010Prop29
280
     1
102
RTVSPost2010PropOp29
 70
     1
102
RTVSPost2010Prop30
280
     1
102
RTVSPost2010PropOp30
 70
     1
102
RTVSPost2010Prop31
280
     0
102
RTVSPost2010PropOp31
 70
     1
102
RTVSPost2010Prop32
280
     0
102
RTVSPost2010PropOp32
 70
     1
102
RTVSPost2010Prop33
280
     0
102
RTVSPost2010PropOp33
 70
     1
102
RTVSPost2010Prop34
280
     0
102
RTVSPost2010PropOp34
 70
     1
102
RTVSPost2010Prop35
280
     0
102
RTVSPost2010PropOp35
 70
     1
102
RTVSPost2010Prop36
280
     0
102
RTVSPost2010PropOp36
 70
     1
102
RTVSPost2010Prop37
 90
       50
102
RTVSPost2010PropOp37
 70
     1
102
RTVSPost2010Prop38
140
0.0
102
RTVSPost2010PropOp38
 70
     1
102
RTVSPost2010Prop39
140
1.0
102
RTVSPost2010PropOp39
 70
     1
102
RTVSPost2010Prop40
 90
        0
102
RTVSPost2010PropOp40
 70
     1
102
RTVSPost2010Prop41ColorIndex
 90
       18
102
RTVSPost2010Prop41ColorRGB
 90
        0
102
RTVSPost2010PropOp41
 70
     1
102
RTVSPost2010Prop42
 90
       50
102
RTVSPost2010PropOp42
 70
     1
102
RTVSPost2010Prop43
 90
        3
102
RTVSPost2010PropOp43
 70
     1
102
RTVSPost2010Prop44ColorIndex
 90
        5
102
RTVSPost2010Prop44ColorRGB
 90
      255
102
RTVSPost2010PropOp44
 70
     1
102
RTVSPost2010Prop45
280
     0
102
RTVSPost2010PropOp45
 70
     1
102
RTVSPost2010Prop46
 90
       50
102
RTVSPost2010PropOp46
 70
     1
102
RTVSPost2010Prop47
 90
       50
102
RTVSPost2010PropOp47
 70
     1
102
RTVSPost2010Prop48
 90
       50
102
RTVSPost2010PropOp48
 70
     1
102
RTVSPost2010Prop49
280
     0
102
RTVSPost2010PropOp49
 70
     1
102
RTVSPost2010Prop50
 90
       50
102
RTVSPost2010PropOp50
 70
     1
102
RTVSPost2010Prop51ColorIndex
 90
      256
102
RTVSPost2010Prop51ColorRGB
 90
-16777216
102
RTVSPost2010PropOp51
 70
     0
102
RTVSPost2010Prop52
140
1.0
102
RTVSPost2010PropOp52
 70
     0
102
RTVSPost2010Prop53
 90
        2
102
RTVSPost2010PropOp53
 70
     1
102
RTVSPost2010Prop54
  1
strokes_ogs.tif
102
RTVSPost2010PropOp54
 70
     1
102
RTVSPost2010Prop55
280
     0
102
RTVSPost2010PropOp55
 70
     1
102
RTVSPost2010Prop56
140
1.0
102
RTVSPost2010PropOp56
 70
     1
102
RTVSPost2010Prop57
140
1.0
102
RTVSPost2010PropOp57
 70
     1
  0
XRECORD
  5
261
102
{ACAD_REACTORS
330
260
102
}
330
260
100
AcDbXrecord
280
     1
102
RTVSPropertyOp0
 70
     1
102
RTVSPropertyOp1
 70
     1
102
RTVSPropertyOp2
 70
     1
102
RTVSPropertyOp3
 70
     1
102
RTVSPropertyOp4
 70
     1
102
RTVSPropertyOp5
 70
     1
102
RTVSPropertyOp6
 70
     1
102
RTVSPropertyOp7
 70
     1
102
RTVSPropertyOp8
 70
     1
102
RTVSPropertyOp9
 70
     1
102
RTVSPropertyOp10
 70
     1
102
RTVSPropertyOp11
 70
     1
102
RTVSPropertyOp12
 70
     1
102
RTVSPropertyOp13
 70
     1
102
RTVSPropertyOp14
 70
     1
102
RTVSPropertyOp15
 70
     1
102
RTVSPropertyOp16
 70
     1
102
RTVSPropertyOp17
 70
     1
102
RTVSPropertyOp18
 70
     1
102
RTVSPropertyOp19
 70
     1
102
RTVSPropertyOp20
 70
     1
102
RTVSPropertyOp21
 70
     1
102
RTVSPropertyOp22
 70
     1
102
RTVSPropertyOp23
 70
     1
102
RTVSPropertyOp24
 70
     1
102
RTVSPropertyOp25
 70
     1
102
RTVSPropertyOp26
 70
     1
102
RTVSPropertyOp27
 70
     1
102
RTVSPropertyOp28
 70
     1
102
RTVSPropertyOp29
 70
     1
102
RTVSPropertyOp30
 70
     1
102
RTVSPropertyOp31
 70
     1
102
RTVSPropertyOp32
 70
     1
102
RTVSPropertyOp33
 70
     1
102
RTVSPropertyOp34
 70
     1
102
RTVSPropertyOp35
 70
     1
102
RTVSPropertyOp36
 70
     1
102
RTVSPropertyOp37
 70
     1
102
RTVSPropertyOp38
 70
     1
102
RTVSPropertyOp39
 70
     1
102
RTVSPropertyOp40
 70
     1
102
RTVSPropertyOp41
 70
     1
102
RTVSPropertyOp42
 70
     1
102
RTVSPropertyOp43
 70
     1
102
RTVSPropertyOp44
 70
     1
102
RTVSPropertyOp45
 70
     1
102
RTVSPropertyOp46
 70
     1
102
RTVSPropertyOp47
 70
     1
102
RTVSPropertyOp48
 70
     1
102
RTVSPropertyOp49
 70
     1
102
RTVSPropertyOp50
 70
     1
102
RTVSPropertyOp51
 70
     0
102
RTVSPropertyOp52
 70
     0
102
RTVSPropertyOp53
 70
     1
102
RTVSPropertyOp54
 70
     1
102
RTVSPropertyOp55
 70
     1
102
RTVSPropertyOp56
 70
     1
102
RTVSPropertyOp57
 70
     1
102
RTVSPost2010Prop28
280
     0
102
RTVSPost2010PropOp28
 70
     1
102
RTVSPost2010Prop29
280
     1
102
RTVSPost2010PropOp29
 70
     1
102
RTVSPost2010Prop30
280
     1
102
RTVSPost2010PropOp30
 70
     1
102
RTVSPost2010Prop31
280
     0
102
RTVSPost2010PropOp31
 70
     1
102
RTVSPost2010Prop32
280
     0
102
RTVSPost2010PropOp32
 70
     1
102
RTVSPost2010Prop33
280
     0
102
RTVSPost2010PropOp33
 70
     1
102
RTVSPost2010Prop34
280
     0
102
RTVSPost2010PropOp34
 70
     1
102
RTVSPost2010Prop35
280
     0
102
RTVSPost2010PropOp35
 70
     1
102
RTVSPost2010Prop36
280
     0
102
RTVSPost2010PropOp36
 70
     1
102
RTVSPost2010Prop37
 90
       50
102
RTVSPost2010PropOp37
 70
     1
102
RTVSPost2010Prop38
140
0.0
102
RTVSPost2010PropOp38
 70
     1
102
RTVSPost2010Prop39
140
1.0
102
RTVSPost2010PropOp39
 70
     1
102
RTVSPost2010Prop40
 90
        0
102
RTVSPost2010PropOp40
 70
     1
102
RTVSPost2010Prop41ColorIndex
 90
       18
102
RTVSPost2010Prop41ColorRGB
 90
        0
102
RTVSPost2010PropOp41
 70
     1
102
RTVSPost2010Prop42
 90
       50
102
RTVSPost2010PropOp42
 70
     1
102
RTVSPost2010Prop43
 90
        3
102
RTVSPost2010PropOp43
 70
     1
102
RTVSPost2010Prop44ColorIndex
 90
        5
102
RTVSPost2010Prop44ColorRGB
 90
      255
102
RTVSPost2010PropOp44
 70
     1
102
RTVSPost2010Prop45
280
     0
102
RTVSPost2010PropOp45
 70
     1
102
RTVSPost2010Prop46
 90
       50
102
RTVSPost2010PropOp46
 70
     1
102
RTVSPost2010Prop47
 90
       50
102
RTVSPost2010PropOp47
 70
     1
102
RTVSPost2010Prop48
 90
       50
102
RTVSPost2010PropOp48
 70
     1
102
RTVSPost2010Prop49
280
     0
102
RTVSPost2010PropOp49
 70
     1
102
RTVSPost2010Prop50
 90
       50
102
RTVSPost2010PropOp50
 70
     1
102
RTVSPost2010Prop51ColorIndex
 90
      256
102
RTVSPost2010Prop51ColorRGB
 90
-16777216
102
RTVSPost2010PropOp51
 70
     0
102
RTVSPost2010Prop52
140
1.0
102
RTVSPost2010PropOp52
 70
     0
102
RTVSPost2010Prop53
 90
        2
102
RTVSPost2010PropOp53
 70
     1
102
RTVSPost2010Prop54
  1
strokes_ogs.tif
102
RTVSPost2010PropOp54
 70
     1
102
RTVSPost2010Prop55
280
     0
102
RTVSPost2010PropOp55
 70
     1
102
RTVSPost2010Prop56
140
1.0
102
RTVSPost2010PropOp56
 70
     1
102
RTVSPost2010Prop57
140
1.0
102
RTVSPost2010PropOp57
 70
     1
  0
XRECORD
  5
263
102
{ACAD_REACTORS
330
262
102
}
330
262
100
AcDbXrecord
280
     1
102
RTVSPropertyOp0
 70
     1
102
RTVSPropertyOp1
 70
     1
102
RTVSPropertyOp2
 70
     1
102
RTVSPropertyOp3
 70
     1
102
RTVSPropertyOp4
 70
     1
102
RTVSPropertyOp5
 70
     1
102
RTVSPropertyOp6
 70
     1
102
RTVSPropertyOp7
 70
     1
102
RTVSPropertyOp8
 70
     1
102
RTVSPropertyOp9
 70
     1
102
RTVSPropertyOp10
 70
     1
102
RTVSPropertyOp11
 70
     1
102
RTVSPropertyOp12
 70
     1
102
RTVSPropertyOp13
 70
     1
102
RTVSPropertyOp14
 70
     1
102
RTVSPropertyOp15
 70
     1
102
RTVSPropertyOp16
 70
     1
102
RTVSPropertyOp17
 70
     1
102
RTVSPropertyOp18
 70
     1
102
RTVSPropertyOp19
 70
     1
102
RTVSPropertyOp20
 70
     1
102
RTVSPropertyOp21
 70
     1
102
RTVSPropertyOp22
 70
     1
102
RTVSPropertyOp23
 70
     1
102
RTVSPropertyOp24
 70
     1
102
RTVSPropertyOp25
 70
     1
102
RTVSPropertyOp26
 70
     1
102
RTVSPropertyOp27
 70
     1
102
RTVSPropertyOp28
 70
     1
102
RTVSPropertyOp29
 70
     1
102
RTVSPropertyOp30
 70
     1
102
RTVSPropertyOp31
 70
     1
102
RTVSPropertyOp32
 70
     1
102
RTVSPropertyOp33
 70
     1
102
RTVSPropertyOp34
 70
     1
102
RTVSPropertyOp35
 70
     1
102
RTVSPropertyOp36
 70
     1
102
RTVSPropertyOp37
 70
     1
102
RTVSPropertyOp38
 70
     1
102
RTVSPropertyOp39
 70
     1
102
RTVSPropertyOp40
 70
     1
102
RTVSPropertyOp41
 70
     1
102
RTVSPropertyOp42
 70
     1
102
RTVSPropertyOp43
 70
     1
102
RTVSPropertyOp44
 70
     1
102
RTVSPropertyOp45
 70
     1
102
RTVSPropertyOp46
 70
     1
102
RTVSPropertyOp47
 70
     1
102
RTVSPropertyOp48
 70
     1
102
RTVSPropertyOp49
 70
     1
102
RTVSPropertyOp50
 70
     1
102
RTVSPropertyOp51
 70
     0
102
RTVSPropertyOp52
 70
     0
102
RTVSPropertyOp53
 70
     1
102
RTVSPropertyOp54
 70
     1
102
RTVSPropertyOp55
 70
     1
102
RTVSPropertyOp56
 70
     1
102
RTVSPropertyOp57
 70
     1
102
RTVSPost2010Prop28
280
     0
102
RTVSPost2010PropOp28
 70
     1
102
RTVSPost2010Prop29
280
     1
102
RTVSPost2010PropOp29
 70
     1
102
RTVSPost2010Prop30
280
     1
102
RTVSPost2010PropOp30
 70
     1
102
RTVSPost2010Prop31
280
     0
102
RTVSPost2010PropOp31
 70
     1
102
RTVSPost2010Prop32
280
     0
102
RTVSPost2010PropOp32
 70
     1
102
RTVSPost2010Prop33
280
     0
102
RTVSPost2010PropOp33
 70
     1
102
RTVSPost2010Prop34
280
     0
102
RTVSPost2010PropOp34
 70
     1
102
RTVSPost2010Prop35
280
     0
102
RTVSPost2010PropOp35
 70
     1
102
RTVSPost2010Prop36
280
     0
102
RTVSPost2010PropOp36
 70
     1
102
RTVSPost2010Prop37
 90
       50
102
RTVSPost2010PropOp37
 70
     1
102
RTVSPost2010Prop38
140
0.0
102
RTVSPost2010PropOp38
 70
     1
102
RTVSPost2010Prop39
140
1.0
102
RTVSPost2010PropOp39
 70
     1
102
RTVSPost2010Prop40
 90
        0
102
RTVSPost2010PropOp40
 70
     1
102
RTVSPost2010Prop41ColorIndex
 90
       18
102
RTVSPost2010Prop41ColorRGB
 90
        0
102
RTVSPost2010PropOp41
 70
     1
102
RTVSPost2010Prop42
 90
       50
102
RTVSPost2010PropOp42
 70
     1
102
RTVSPost2010Prop43
 90
        3
102
RTVSPost2010PropOp43
 70
     1
102
RTVSPost2010Prop44ColorIndex
 90
        5
102
RTVSPost2010Prop44ColorRGB
 90
      255
102
RTVSPost2010PropOp44
 70
     1
102
RTVSPost2010Prop45
280
     0
102
RTVSPost2010PropOp45
 70
     1
102
RTVSPost2010Prop46
 90
       50
102
RTVSPost2010PropOp46
 70
     1
102
RTVSPost2010Prop47
 90
       50
102
RTVSPost2010PropOp47
 70
     1
102
RTVSPost2010Prop48
 90
       50
102
RTVSPost2010PropOp48
 70
     1
102
RTVSPost2010Prop49
280
     0
102
RTVSPost2010PropOp49
 70
     1
102
RTVSPost2010Prop50
 90
       50
102
RTVSPost2010PropOp50
 70
     1
102
RTVSPost2010Prop51ColorIndex
 90
      256
102
RTVSPost2010Prop51ColorRGB
 90
-16777216
102
RTVSPost2010PropOp51
 70
     0
102
RTVSPost2010Prop52
140
1.0
102
RTVSPost2010PropOp52
 70
     0
102
RTVSPost2010Prop53
 90
        2
102
RTVSPost2010PropOp53
 70
     1
102
RTVSPost2010Prop54
  1
strokes_ogs.tif
102
RTVSPost2010PropOp54
 70
     1
102
RTVSPost2010Prop55
280
     0
102
RTVSPost2010PropOp55
 70
     1
102
RTVSPost2010Prop56
140
1.0
102
RTVSPost2010PropOp56
 70
     1
102
RTVSPost2010Prop57
140
1.0
102
RTVSPost2010PropOp57
 70
     1
  0
XRECORD
  5
253
102
{ACAD_REACTORS
330
252
102
}
330
252
100
AcDbXrecord
280
     1
102
RTVSPropertyOp0
 70
     1
102
RTVSPropertyOp1
 70
     1
102
RTVSPropertyOp2
 70
     1
102
RTVSPropertyOp3
 70
     1
102
RTVSPropertyOp4
 70
     1
102
RTVSPropertyOp5
 70
     1
102
RTVSPropertyOp6
 70
     1
102
RTVSPropertyOp7
 70
     1
102
RTVSPropertyOp8
 70
     1
102
RTVSPropertyOp9
 70
     1
102
RTVSPropertyOp10
 70
     1
102
RTVSPropertyOp11
 70
     1
102
RTVSPropertyOp12
 70
     1
102
RTVSPropertyOp13
 70
     1
102
RTVSPropertyOp14
 70
     1
102
RTVSPropertyOp15
 70
     1
102
RTVSPropertyOp16
 70
     1
102
RTVSPropertyOp17
 70
     1
102
RTVSPropertyOp18
 70
     1
102
RTVSPropertyOp19
 70
     1
102
RTVSPropertyOp20
 70
     1
102
RTVSPropertyOp21
 70
     1
102
RTVSPropertyOp22
 70
     1
102
RTVSPropertyOp23
 70
     1
102
RTVSPropertyOp24
 70
     1
102
RTVSPropertyOp25
 70
     1
102
RTVSPropertyOp26
 70
     1
102
RTVSPropertyOp27
 70
     1
102
RTVSPropertyOp28
 70
     1
102
RTVSPropertyOp29
 70
     1
102
RTVSPropertyOp30
 70
     1
102
RTVSPropertyOp31
 70
     1
102
RTVSPropertyOp32
 70
     1
102
RTVSPropertyOp33
 70
     1
102
RTVSPropertyOp34
 70
     1
102
RTVSPropertyOp35
 70
     1
102
RTVSPropertyOp36
 70
     1
102
RTVSPropertyOp37
 70
     1
102
RTVSPropertyOp38
 70
     1
102
RTVSPropertyOp39
 70
     1
102
RTVSPropertyOp40
 70
     1
102
RTVSPropertyOp41
 70
     1
102
RTVSPropertyOp42
 70
     1
102
RTVSPropertyOp43
 70
     1
102
RTVSPropertyOp44
 70
     1
102
RTVSPropertyOp45
 70
     1
102
RTVSPropertyOp46
 70
     1
102
RTVSPropertyOp47
 70
     1
102
RTVSPropertyOp48
 70
     1
102
RTVSPropertyOp49
 70
     1
102
RTVSPropertyOp50
 70
     1
102
RTVSPropertyOp51
 70
     0
102
RTVSPropertyOp52
 70
     0
102
RTVSPropertyOp53
 70
     1
102
RTVSPropertyOp54
 70
     1
102
RTVSPropertyOp55
 70
     1
102
RTVSPropertyOp56
 70
     1
102
RTVSPropertyOp57
 70
     1
102
RTVSPost2010Prop28
280
     0
102
RTVSPost2010PropOp28
 70
     1
102
RTVSPost2010Prop29
280
     1
102
RTVSPost2010PropOp29
 70
     1
102
RTVSPost2010Prop30
280
     1
102
RTVSPost2010PropOp30
 70
     1
102
RTVSPost2010Prop31
280
     0
102
RTVSPost2010PropOp31
 70
     1
102
RTVSPost2010Prop32
280
     0
102
RTVSPost2010PropOp32
 70
     1
102
RTVSPost2010Prop33
280
     0
102
RTVSPost2010PropOp33
 70
     1
102
RTVSPost2010Prop34
280
     0
102
RTVSPost2010PropOp34
 70
     1
102
RTVSPost2010Prop35
280
     0
102
RTVSPost2010PropOp35
 70
     1
102
RTVSPost2010Prop36
280
     0
102
RTVSPost2010PropOp36
 70
     1
102
RTVSPost2010Prop37
 90
       50
102
RTVSPost2010PropOp37
 70
     1
102
RTVSPost2010Prop38
140
0.0
102
RTVSPost2010PropOp38
 70
     1
102
RTVSPost2010Prop39
140
1.0
102
RTVSPost2010PropOp39
 70
     1
102
RTVSPost2010Prop40
 90
        0
102
RTVSPost2010PropOp40
 70
     1
102
RTVSPost2010Prop41ColorIndex
 90
       18
102
RTVSPost2010Prop41ColorRGB
 90
        0
102
RTVSPost2010PropOp41
 70
     1
102
RTVSPost2010Prop42
 90
       50
102
RTVSPost2010PropOp42
 70
     1
102
RTVSPost2010Prop43
 90
        3
102
RTVSPost2010PropOp43
 70
     1
102
RTVSPost2010Prop44ColorIndex
 90
        5
102
RTVSPost2010Prop44ColorRGB
 90
      255
102
RTVSPost2010PropOp44
 70
     1
102
RTVSPost2010Prop45
280
     0
102
RTVSPost2010PropOp45
 70
     1
102
RTVSPost2010Prop46
 90
       50
102
RTVSPost2010PropOp46
 70
     1
102
RTVSPost2010Prop47
 90
       50
102
RTVSPost2010PropOp47
 70
     1
102
RTVSPost2010Prop48
 90
       50
102
RTVSPost2010PropOp48
 70
     1
102
RTVSPost2010Prop49
280
     0
102
RTVSPost2010PropOp49
 70
     1
102
RTVSPost2010Prop50
 90
       50
102
RTVSPost2010PropOp50
 70
     1
102
RTVSPost2010Prop51ColorIndex
 90
      256
102
RTVSPost2010Prop51ColorRGB
 90
-16777216
102
RTVSPost2010PropOp51
 70
     0
102
RTVSPost2010Prop52
140
1.0
102
RTVSPost2010PropOp52
 70
     0
102
RTVSPost2010Prop53
 90
        2
102
RTVSPost2010PropOp53
 70
     1
102
RTVSPost2010Prop54
  1
strokes_ogs.tif
102
RTVSPost2010PropOp54
 70
     1
102
RTVSPost2010Prop55
280
     0
102
RTVSPost2010PropOp55
 70
     1
102
RTVSPost2010Prop56
140
1.0
102
RTVSPost2010PropOp56
 70
     1
102
RTVSPost2010Prop57
140
1.0
102
RTVSPost2010PropOp57
 70
     1
  0
XRECORD
  5
245
102
{ACAD_REACTORS
330
244
102
}
330
244
100
AcDbXrecord
280
     1
102
RTVSPropertyOp0
 70
     1
102
RTVSPropertyOp1
 70
     1
102
RTVSPropertyOp2
 70
     1
102
RTVSPropertyOp3
 70
     1
102
RTVSPropertyOp4
 70
     1
102
RTVSPropertyOp5
 70
     1
102
RTVSPropertyOp6
 70
     1
102
RTVSPropertyOp7
 70
     1
102
RTVSPropertyOp8
 70
     1
102
RTVSPropertyOp9
 70
     1
102
RTVSPropertyOp10
 70
     1
102
RTVSPropertyOp11
 70
     1
102
RTVSPropertyOp12
 70
     1
102
RTVSPropertyOp13
 70
     1
102
RTVSPropertyOp14
 70
     1
102
RTVSPropertyOp15
 70
     1
102
RTVSPropertyOp16
 70
     1
102
RTVSPropertyOp17
 70
     1
102
RTVSPropertyOp18
 70
     1
102
RTVSPropertyOp19
 70
     1
102
RTVSPropertyOp20
 70
     1
102
RTVSPropertyOp21
 70
     1
102
RTVSPropertyOp22
 70
     1
102
RTVSPropertyOp23
 70
     1
102
RTVSPropertyOp24
 70
     1
102
RTVSPropertyOp25
 70
     1
102
RTVSPropertyOp26
 70
     1
102
RTVSPropertyOp27
 70
     1
102
RTVSPropertyOp28
 70
     1
102
RTVSPropertyOp29
 70
     1
102
RTVSPropertyOp30
 70
     1
102
RTVSPropertyOp31
 70
     1
102
RTVSPropertyOp32
 70
     1
102
RTVSPropertyOp33
 70
     1
102
RTVSPropertyOp34
 70
     1
102
RTVSPropertyOp35
 70
     1
102
RTVSPropertyOp36
 70
     1
102
RTVSPropertyOp37
 70
     1
102
RTVSPropertyOp38
 70
     1
102
RTVSPropertyOp39
 70
     1
102
RTVSPropertyOp40
 70
     1
102
RTVSPropertyOp41
 70
     1
102
RTVSPropertyOp42
 70
     1
102
RTVSPropertyOp43
 70
     1
102
RTVSPropertyOp44
 70
     1
102
RTVSPropertyOp45
 70
     1
102
RTVSPropertyOp46
 70
     1
102
RTVSPropertyOp47
 70
     1
102
RTVSPropertyOp48
 70
     1
102
RTVSPropertyOp49
 70
     1
102
RTVSPropertyOp50
 70
     1
102
RTVSPropertyOp51
 70
     0
102
RTVSPropertyOp52
 70
     0
102
RTVSPropertyOp53
 70
     1
102
RTVSPropertyOp54
 70
     1
102
RTVSPropertyOp55
 70
     1
102
RTVSPropertyOp56
 70
     1
102
RTVSPropertyOp57
 70
     1
102
RTVSPost2010Prop28
280
     0
102
RTVSPost2010PropOp28
 70
     1
102
RTVSPost2010Prop29
280
     1
102
RTVSPost2010PropOp29
 70
     1
102
RTVSPost2010Prop30
280
     1
102
RTVSPost2010PropOp30
 70
     1
102
RTVSPost2010Prop31
280
     0
102
RTVSPost2010PropOp31
 70
     1
102
RTVSPost2010Prop32
280
     0
102
RTVSPost2010PropOp32
 70
     1
102
RTVSPost2010Prop33
280
     0
102
RTVSPost2010PropOp33
 70
     1
102
RTVSPost2010Prop34
280
     0
102
RTVSPost2010PropOp34
 70
     1
102
RTVSPost2010Prop35
280
     0
102
RTVSPost2010PropOp35
 70
     1
102
RTVSPost2010Prop36
280
     0
102
RTVSPost2010PropOp36
 70
     1
102
RTVSPost2010Prop37
 90
       50
102
RTVSPost2010PropOp37
 70
     1
102
RTVSPost2010Prop38
140
0.0
102
RTVSPost2010PropOp38
 70
     1
102
RTVSPost2010Prop39
140
1.0
102
RTVSPost2010PropOp39
 70
     1
102
RTVSPost2010Prop40
 90
        0
102
RTVSPost2010PropOp40
 70
     1
102
RTVSPost2010Prop41ColorIndex
 90
       18
102
RTVSPost2010Prop41ColorRGB
 90
        0
102
RTVSPost2010PropOp41
 70
     1
102
RTVSPost2010Prop42
 90
       50
102
RTVSPost2010PropOp42
 70
     1
102
RTVSPost2010Prop43
 90
        3
102
RTVSPost2010PropOp43
 70
     1
102
RTVSPost2010Prop44ColorIndex
 90
        5
102
RTVSPost2010Prop44ColorRGB
 90
      255
102
RTVSPost2010PropOp44
 70
     1
102
RTVSPost2010Prop45
280
     0
102
RTVSPost2010PropOp45
 70
     1
102
RTVSPost2010Prop46
 90
       50
102
RTVSPost2010PropOp46
 70
     1
102
RTVSPost2010Prop47
 90
       50
102
RTVSPost2010PropOp47
 70
     1
102
RTVSPost2010Prop48
 90
       50
102
RTVSPost2010PropOp48
 70
     1
102
RTVSPost2010Prop49
280
     0
102
RTVSPost2010PropOp49
 70
     1
102
RTVSPost2010Prop50
 90
       50
102
RTVSPost2010PropOp50
 70
     1
102
RTVSPost2010Prop51ColorIndex
 90
      256
102
RTVSPost2010Prop51ColorRGB
 90
-16777216
102
RTVSPost2010PropOp51
 70
     0
102
RTVSPost2010Prop52
140
1.0
102
RTVSPost2010PropOp52
 70
     0
102
RTVSPost2010Prop53
 90
        2
102
RTVSPost2010PropOp53
 70
     1
102
RTVSPost2010Prop54
  1
strokes_ogs.tif
102
RTVSPost2010PropOp54
 70
     1
102
RTVSPost2010Prop55
280
     0
102
RTVSPost2010PropOp55
 70
     1
102
RTVSPost2010Prop56
140
1.0
102
RTVSPost2010PropOp56
 70
     1
102
RTVSPost2010Prop57
140
1.0
102
RTVSPost2010PropOp57
 70
     1
  0
XRECORD
  5
265
102
{ACAD_REACTORS
330
264
102
}
330
264
100
AcDbXrecord
280
     1
102
RTVSPropertyOp0
 70
     1
102
RTVSPropertyOp1
 70
     1
102
RTVSPropertyOp2
 70
     1
102
RTVSPropertyOp3
 70
     1
102
RTVSPropertyOp4
 70
     1
102
RTVSPropertyOp5
 70
     1
102
RTVSPropertyOp6
 70
     1
102
RTVSPropertyOp7
 70
     1
102
RTVSPropertyOp8
 70
     1
102
RTVSPropertyOp9
 70
     1
102
RTVSPropertyOp10
 70
     1
102
RTVSPropertyOp11
 70
     1
102
RTVSPropertyOp12
 70
     1
102
RTVSPropertyOp13
 70
     1
102
RTVSPropertyOp14
 70
     1
102
RTVSPropertyOp15
 70
     1
102
RTVSPropertyOp16
 70
     1
102
RTVSPropertyOp17
 70
     1
102
RTVSPropertyOp18
 70
     1
102
RTVSPropertyOp19
 70
     1
102
RTVSPropertyOp20
 70
     1
102
RTVSPropertyOp21
 70
     1
102
RTVSPropertyOp22
 70
     1
102
RTVSPropertyOp23
 70
     1
102
RTVSPropertyOp24
 70
     1
102
RTVSPropertyOp25
 70
     1
102
RTVSPropertyOp26
 70
     1
102
RTVSPropertyOp27
 70
     1
102
RTVSPropertyOp28
 70
     1
102
RTVSPropertyOp29
 70
     1
102
RTVSPropertyOp30
 70
     1
102
RTVSPropertyOp31
 70
     1
102
RTVSPropertyOp32
 70
     1
102
RTVSPropertyOp33
 70
     1
102
RTVSPropertyOp34
 70
     1
102
RTVSPropertyOp35
 70
     1
102
RTVSPropertyOp36
 70
     1
102
RTVSPropertyOp37
 70
     1
102
RTVSPropertyOp38
 70
     1
102
RTVSPropertyOp39
 70
     1
102
RTVSPropertyOp40
 70
     1
102
RTVSPropertyOp41
 70
     1
102
RTVSPropertyOp42
 70
     1
102
RTVSPropertyOp43
 70
     1
102
RTVSPropertyOp44
 70
     1
102
RTVSPropertyOp45
 70
     1
102
RTVSPropertyOp46
 70
     1
102
RTVSPropertyOp47
 70
     1
102
RTVSPropertyOp48
 70
     1
102
RTVSPropertyOp49
 70
     1
102
RTVSPropertyOp50
 70
     1
102
RTVSPropertyOp51
 70
     0
102
RTVSPropertyOp52
 70
     0
102
RTVSPropertyOp53
 70
     1
102
RTVSPropertyOp54
 70
     1
102
RTVSPropertyOp55
 70
     1
102
RTVSPropertyOp56
 70
     1
102
RTVSPropertyOp57
 70
     1
102
RTVSPost2010Prop28
280
     0
102
RTVSPost2010PropOp28
 70
     1
102
RTVSPost2010Prop29
280
     1
102
RTVSPost2010PropOp29
 70
     1
102
RTVSPost2010Prop30
280
     1
102
RTVSPost2010PropOp30
 70
     1
102
RTVSPost2010Prop31
280
     0
102
RTVSPost2010PropOp31
 70
     1
102
RTVSPost2010Prop32
280
     0
102
RTVSPost2010PropOp32
 70
     1
102
RTVSPost2010Prop33
280
     0
102
RTVSPost2010PropOp33
 70
     1
102
RTVSPost2010Prop34
280
     0
102
RTVSPost2010PropOp34
 70
     1
102
RTVSPost2010Prop35
280
     0
102
RTVSPost2010PropOp35
 70
     1
102
RTVSPost2010Prop36
280
     0
102
RTVSPost2010PropOp36
 70
     1
102
RTVSPost2010Prop37
 90
       50
102
RTVSPost2010PropOp37
 70
     1
102
RTVSPost2010Prop38
140
0.0
102
RTVSPost2010PropOp38
 70
     1
102
RTVSPost2010Prop39
140
1.0
102
RTVSPost2010PropOp39
 70
     1
102
RTVSPost2010Prop40
 90
        0
102
RTVSPost2010PropOp40
 70
     1
102
RTVSPost2010Prop41ColorIndex
 90
       18
102
RTVSPost2010Prop41ColorRGB
 90
        0
102
RTVSPost2010PropOp41
 70
     1
102
RTVSPost2010Prop42
 90
       50
102
RTVSPost2010PropOp42
 70
     1
102
RTVSPost2010Prop43
 90
        3
102
RTVSPost2010PropOp43
 70
     1
102
RTVSPost2010Prop44ColorIndex
 90
        5
102
RTVSPost2010Prop44ColorRGB
 90
      255
102
RTVSPost2010PropOp44
 70
     1
102
RTVSPost2010Prop45
280
     0
102
RTVSPost2010PropOp45
 70
     1
102
RTVSPost2010Prop46
 90
       50
102
RTVSPost2010PropOp46
 70
     1
102
RTVSPost2010Prop47
 90
       50
102
RTVSPost2010PropOp47
 70
     1
102
RTVSPost2010Prop48
 90
       50
102
RTVSPost2010PropOp48
 70
     1
102
RTVSPost2010Prop49
280
     0
102
RTVSPost2010PropOp49
 70
     1
102
RTVSPost2010Prop50
 90
       50
102
RTVSPost2010PropOp50
 70
     1
102
RTVSPost2010Prop51ColorIndex
 90
      256
102
RTVSPost2010Prop51ColorRGB
 90
-16777216
102
RTVSPost2010PropOp51
 70
     0
102
RTVSPost2010Prop52
140
1.0
102
RTVSPost2010PropOp52
 70
     0
102
RTVSPost2010Prop53
 90
        2
102
RTVSPost2010PropOp53
 70
     1
102
RTVSPost2010Prop54
  1
strokes_ogs.tif
102
RTVSPost2010PropOp54
 70
     1
102
RTVSPost2010Prop55
280
     0
102
RTVSPost2010PropOp55
 70
     1
102
RTVSPost2010Prop56
140
1.0
102
RTVSPost2010PropOp56
 70
     1
102
RTVSPost2010Prop57
140
1.0
102
RTVSPost2010PropOp57
 70
     1
  0
ENDSEC
  0
EOF
