  0
SECTION
  2
HEADER
  9
$ACADVER
  1
AC1021
  9
$ACADMAINTVER
 70
    25
  9
$DWGCODEPAGE
  3
ANSI_1252
  9
$INSBASE
 10
0.0
 20
0.0
 30
0.0
  9
$EXTMIN
 10
0.0
 20
0.0
 30
0.0
  9
$EXTMAX
 10
3000.0
 20
4500.0
 30
0.0
  9
$LIMMIN
 10
0.0
 20
0.0
  9
$LIMMAX
 10
3000.0
 20
4500.0
  9
$ORTHOMODE
 70
     0
  9
$REGENMODE
 70
     1
  9
$FILLMODE
 70
     1
  9
$QTEXTMODE
 70
     0
  9
$MIRRTEXT
 70
     1
  9
$LTSCALE
 40
1.0
  9
$ATTMODE
 70
     1
  9
$TEXTSIZE
 40
10.0
  9
$TRACEWID
 40
1.0
  9
$TEXTSTYLE
  7
Standard
  9
$CLAYER
  8
0
  9
$CELTYPE
  6
ByLayer
  9
$CECOLOR
 62
   256
  9
$CELTSCALE
 40
1.0
  9
$DISPSILH
 70
     0
  9
$DIMSCALE
 40
1.0
  9
$DIMASZ
 40
2.5
  9
$DIMEXO
 40
0.625
  9
$DIMDLI
 40
3.75
  9
$DIMRND
 40
0.0
  9
$DIMDLE
 40
0.0
  9
$DIMEXE
 40
1.25
  9
$DIMTP
 40
0.0
  9
$DIMTM
 40
0.0
  9
$DIMTXT
 40
2.5
  9
$DIMCEN
 40
2.5
  9
$DIMTSZ
 40
0.0
  9
$DIMTOL
 70
     0
  9
$DIMLIM
 70
     0
  9
$DIMTIH
 70
     0
  9
$DIMTOH
 70
     0
  9
$DIMSE1
 70
     0
  9
$DIMSE2
 70
     0
  9
$DIMTAD
 70
     1
  9
$DIMZIN
 70
     8
  9
$DIMBLK
  1

  9
$DIMASO
 70
     1
  9
$DIMSHO
 70
     1
  9
$DIMPOST
  1

  9
$DIMAPOST
  1

  9
$DIMALT
 70
     0
  9
$DIMALTD
 70
     3
  9
$DIMALTF
 40
0.0393700787
  9
$DIMLFAC
 40
1.0
  9
$DIMTOFL
 70
     1
  9
$DIMTVP
 40
0.0
  9
$DIMTIX
 70
     0
  9
$DIMSOXD
 70
     0
  9
$DIMSAH
 70
     0
  9
$DIMBLK1
  1

  9
$DIMBLK2
  1

  9
$DIMSTYLE
  2
ISO-25
  9
$DIMCLRD
 70
     0
  9
$DIMCLRE
 70
     0
  9
$DIMCLRT
 70
     0
  9
$DIMTFAC
 40
1.0
  9
$DIMGAP
 40
0.625
  9
$DIMJUST
 70
     0
  9
$DIMSD1
 70
     0
  9
$DIMSD2
 70
     0
  9
$DIMTOLJ
 70
     0
  9
$DIMTZIN
 70
     8
  9
$DIMALTZ
 70
     0
  9
$DIMALTTZ
 70
     0
  9
$DIMUPT
 70
     0
  9
$DIMDEC
 70
     2
  9
$DIMTDEC
 70
     2
  9
$DIMALTU
 70
     2
  9
$DIMALTTD
 70
     3
  9
$DIMTXSTY
  7
Standard
  9
$DIMAUNIT
 70
     0
  9
$DIMADEC
 70
     0
  9
$DIMALTRND
 40
0.0
  9
$DIMAZIN
 70
     0
  9
$DIMDSEP
 70
    44
  9
$DIMATFIT
 70
     3
  9
$DIMFRAC
 70
     0
  9
$DIMLDRBLK
  1

  9
$DIMLUNIT
 70
     2
  9
$DIMLWD
 70
    -2
  9
$DIMLWE
 70
    -2
  9
$DIMTMOVE
 70
     0
  9
$DIMFXL
 40
1.0
  9
$DIMFXLON
 70
     0
  9
$DIMJOGANG
 40
0.7853981634
  9
$DIMTFILL
 70
     0
  9
$DIMTFILLCLR
 70
     0
  9
$DIMARCSYM
 70
     0
  9
$DIMLTYPE
  6

  9
$DIMLTEX1
  6

  9
$DIMLTEX2
  6

  9
$LUNITS
 70
     2
  9
$LUPREC
 70
     4
  9
$SKETCHINC
 40
1.0
  9
$FILLETRAD
 40
10.0
  9
$AUNITS
 70
     0
  9
$AUPREC
 70
     0
  9
$MENU
  1
.
  9
$ELEVATION
 40
0.0
  9
$PELEVATION
 40
0.0
  9
$THICKNESS
 40
0.0
  9
$LIMCHECK
 70
     0
  9
$CHAMFERA
 40
0.0
  9
$CHAMFERB
 40
0.0
  9
$CHAMFERC
 40
0.0
  9
$CHAMFERD
 40
0.0
  9
$SKPOLY
 70
     0
  9
$TDCREATE
 40
2460336.322753588
  9
$TDUCREATE
 40
2460336.281086921
  9
$TDUPDATE
 40
2460336.322756123
  9
$TDUUPDATE
 40
2460336.281089456
  9
$TDINDWG
 40
0.0000000116
  9
$TDUSRTIMER
 40
0.0000000116
  9
$USRTIMER
 70
     1
  9
$ANGBASE
 50
0.0
  9
$ANGDIR
 70
     0
  9
$PDMODE
 70
     0
  9
$PDSIZE
 40
0.0
  9
$PLINEWID
 40
0.0
  9
$SPLFRAME
 70
     0
  9
$SPLINETYPE
 70
     6
  9
$SPLINESEGS
 70
     8
  9
$HANDSEED
  5
2D5
  9
$SURFTAB1
 70
     6
  9
$SURFTAB2
 70
     6
  9
$SURFTYPE
 70
     6
  9
$SURFU
 70
     6
  9
$SURFV
 70
     6
  9
$UCSBASE
  2

  9
$UCSNAME
  2

  9
$UCSORG
 10
0.0
 20
0.0
 30
0.0
  9
$UCSXDIR
 10
1.0
 20
0.0
 30
0.0
  9
$UCSYDIR
 10
0.0
 20
1.0
 30
0.0
  9
$UCSORTHOREF
  2

  9
$UCSORTHOVIEW
 70
     0
  9
$UCSORGTOP
 10
0.0
 20
0.0
 30
0.0
  9
$UCSORGBOTTOM
 10
0.0
 20
0.0
 30
0.0
  9
$UCSORGLEFT
 10
0.0
 20
0.0
 30
0.0
  9
$UCSORGRIGHT
 10
0.0
 20
0.0
 30
0.0
  9
$UCSORGFRONT
 10
0.0
 20
0.0
 30
0.0
  9
$UCSORGBACK
 10
0.0
 20
0.0
 30
0.0
  9
$PUCSBASE
  2

  9
$PUCSNAME
  2

  9
$PUCSORG
 10
0.0
 20
0.0
 30
0.0
  9
$PUCSXDIR
 10
1.0
 20
0.0
 30
0.0
  9
$PUCSYDIR
 10
0.0
 20
1.0
 30
0.0
  9
$PUCSORTHOREF
  2

  9
$PUCSORTHOVIEW
 70
     0
  9
$PUCSORGTOP
 10
0.0
 20
0.0
 30
0.0
  9
$PUCSORGBOTTOM
 10
0.0
 20
0.0
 30
0.0
  9
$PUCSORGLEFT
 10
0.0
 20
0.0
 30
0.0
  9
$PUCSORGRIGHT
 10
0.0
 20
0.0
 30
0.0
  9
$PUCSORGFRONT
 10
0.0
 20
0.0
 30
0.0
  9
$PUCSORGBACK
 10
0.0
 20
0.0
 30
0.0
  9
$USERI1
 70
     0
  9
$USERI2
 70
     0
  9
$USERI3
 70
     0
  9
$USERI4
 70
     0
  9
$USERI5
 70
     0
  9
$USERR1
 40
0.0
  9
$USERR2
 40
0.0
  9
$USERR3
 40
0.0
  9
$USERR4
 40
0.0
  9
$USERR5
 40
0.0
  9
$WORLDVIEW
 70
     1
  9
$SHADEDGE
 70
     3
  9
$SHADEDIF
 70
    70
  9
$TILEMODE
 70
     1
  9
$MAXACTVP
 70
    64
  9
$PINSBASE
 10
0.0
 20
0.0
 30
0.0
  9
$PLIMCHECK
 70
     0
  9
$PEXTMIN
 10
0.0
 20
0.0
 30
0.0
  9
$PEXTMAX
 10
3000.0
 20
4500.0
 30
0.0
  9
$PLIMMIN
 10
0.0
 20
0.0
  9
$PLIMMAX
 10
3000.0
 20
4500.0
  9
$UNITMODE
 70
     0
  9
$VISRETAIN
 70
     1
  9
$PLINEGEN
 70
     0
  9
$PSLTSCALE
 70
     1
  9
$TREEDEPTH
 70
  3020
  9
$CMLSTYLE
  2
Standard
  9
$CMLJUST
 70
     0
  9
$CMLSCALE
 40
20.0
  9
$PROXYGRAPHICS
 70
     1
  9
$MEASUREMENT
 70
     1
  9
$CELWEIGHT
370
    -1
  9
$ENDCAPS
280
     0
  9
$JOINSTYLE
280
     0
  9
$LWDISPLAY
290
     0
  9
$INSUNITS
 70
     4
  9
$HYPERLINKBASE
  1

  9
$STYLESHEET
  1

  9
$XEDIT
290
     1
  9
$CEPSNTYPE
380
     0
  9
$PSTYLEMODE
290
     1
  9
$FINGERPRINTGUID
  2
{02E4EE24-0368-4E7B-8249-05B734A6715C}
  9
$VERSIONGUID
  2
{FAEB1C32-E019-11D5-929B-00C0DF256EC4}
  9
$EXTNAMES
290
     1
  9
$PSVPSCALE
 40
0.0
  9
$OLESTARTUP
290
     0
  9
$SORTENTS
280
   127
  9
$INDEXCTL
280
     0
  9
$HIDETEXT
280
     1
  9
$XCLIPFRAME
290
     0
  9
$HALOGAP
280
     0
  9
$OBSCOLOR
 70
   257
  9
$OBSLTYPE
280
     0
  9
$INTERSECTIONDISPLAY
280
     0
  9
$INTERSECTIONCOLOR
 70
   257
  9
$DIMASSOC
280
     2
  9
$PROJECTNAME
  1

  9
$CAMERADISPLAY
290
     0
  9
$LENSLENGTH
 40
50.0
  9
$CAMERAHEIGHT
 40
0.0
  9
$STEPSPERSEC
 40
2.0
  9
$STEPSIZE
 40
6.0
  9
$3DDWFPREC
 40
2.0
  9
$PSOLWIDTH
 40
5.0
  9
$PSOLHEIGHT
 40
80.0
  9
$LOFTANG1
 40
1.5707963268
  9
$LOFTANG2
 40
1.5707963268
  9
$LOFTMAG1
 40
0.0
  9
$LOFTMAG2
 40
0.0
  9
$LOFTPARAM
 70
     7
  9
$LOFTNORMALS
280
     1
  9
$LATITUDE
 40
37.795
  9
$LONGITUDE
 40
-122.394
  9
$NORTHDIRECTION
 40
0.0
  9
$TIMEZONE
 70
 -8000
  9
$LIGHTGLYPHDISPLAY
280
     1
  9
$TILEMODELIGHTSYNCH
280
     1
  9
$CMATERIAL
347
44
  9
$SOLIDHIST
280
     0
  9
$SHOWHIST
280
     1
  9
$DWFFRAME
280
     2
  9
$DGNFRAME
280
     2
  9
$REALWORLDSCALE
290
     1
  9
$INTERFERECOLOR
 62
   256
  9
$CSHADOW
280
     0
  9
$SHADOWPLANELOCATION
 40
0.0
  0
ENDSEC
  0
SECTION
  2
CLASSES
  0
CLASS
  1
ACDBDICTIONARYWDFLT
  2
AcDbDictionaryWithDefault
  3
ObjectDBX Classes
 90
        0
 91
        4
280
     0
281
     0
  0
CLASS
  1
VISUALSTYLE
  2
AcDbVisualStyle
  3
ObjectDBX Classes
 90
     4095
 91
        4
280
     0
281
     0
  0
CLASS
  1
MATERIAL
  2
AcDbMaterial
  3
ObjectDBX Classes
 90
     1153
 91
        4
280
     0
281
     0
  0
CLASS
  1
SCALE
  2
AcDbScale
  3
ObjectDBX Classes
 90
     1153
 91
        4
280
     0
281
     0
  0
CLASS
  1
TABLESTYLE
  2
AcDbTableStyle
  3
ObjectDBX Classes
 90
     4095
 91
        4
280
     0
281
     0
  0
CLASS
  1
MLEADERSTYLE
  2
AcDbMLeaderStyle
  3
ACDB_MLEADERSTYLE_CLASS
 90
     4095
 91
        4
280
     0
281
     0
  0
CLASS
  1
SUN
  2
AcDbSun
  3
SCENEOE
 90
     1153
 91
        4
280
     0
281
     0
  0
CLASS
  1
DICTIONARYVAR
  2
AcDbDictionaryVar
  3
ObjectDBX Classes
 90
        0
 91
        4
280
     0
281
     0
  0
CLASS
  1
CELLSTYLEMAP
  2
AcDbCellStyleMap
  3
ObjectDBX Classes
 90
     1152
 91
        4
280
     0
281
     0
  0
ENDSEC
  0
SECTION
  2
TABLES
  0
TABLE
  2
VPORT
  5
8
330
0
100
AcDbSymbolTable
 70
     1
  0
VPORT
  5
29
330
8
100
AcDbSymbolTableRecord
100
AcDbViewportTableRecord
  2
*Active
 70
     0
 10
0.0
 20
0.0
 11
1.0
 21
1.0
 12
344.1869158879
 22
148.5
 13
0.0
 23
0.0
 14
10.0
 24
10.0
 15
10.0
 25
10.0
 16
0.0
 26
0.0
 36
1.0
 17
0.0
 27
0.0
 37
0.0
 40
297.0
 41
1.9729729729
 42
50.0
 43
0.0
 44
0.0
 50
0.0
 51
0.0
 71
     0
 72
   100
 73
     1
 74
     3
 75
     0
 76
     0
 77
     0
 78
     0
281
     0
 65
     1
110
0.0
120
0.0
130
0.0
111
1.0
121
0.0
131
0.0
112
0.0
122
1.0
132
0.0
 79
     0
146
0.0
348
2F
 60
     3
 61
     5
292
     1
282
     1
141
0.0
142
0.0
 63
   250
361
6D
  0
ENDTAB
  0
TABLE
  2
LTYPE
  5
5
330
0
100
AcDbSymbolTable
 70
     1
  0
LTYPE
  5
14
330
5
100
AcDbSymbolTableRecord
100
AcDbLinetypeTableRecord
  2
ByBlock
 70
     0
  3

 72
    65
 73
     0
 40
0.0
  0
LTYPE
  5
15
330
5
100
AcDbSymbolTableRecord
100
AcDbLinetypeTableRecord
  2
ByLayer
 70
     0
  3

 72
    65
 73
     0
 40
0.0
  0
LTYPE
  5
16
330
5
100
AcDbSymbolTableRecord
100
AcDbLinetypeTableRecord
  2
Continuous
 70
     0
  3
Solid line
 72
    65
 73
     0
 40
0.0
  0
ENDTAB
  0
TABLE
  2
LAYER
  5
2
330
0
100
AcDbSymbolTable
 70
     6
  0
LAYER
  5
10
330
2
100
AcDbSymbolTableRecord
100
AcDbLayerTableRecord
  2
0
 70
     0
 62
     7
  6
Continuous
370
    -3
390
F
347
46
  0
LAYER
  5
6E
330
2
100
AcDbSymbolTableRecord
100
AcDbLayerTableRecord
  2
Standard
 70
     0
 62
     7
  6
Continuous
370
    -3
390
F
347
46
  0
LAYER
  5
99
330
2
100
AcDbSymbolTableRecord
100
AcDbLayerTableRecord
  2
DV1_Standard
 70
     0
 62
     7
  6
Continuous
370
    -3
390
F
347
46
  0
LAYER
  5
E1
330
2
100
AcDbSymbolTableRecord
100
AcDbLayerTableRecord
  2
DV2_Standard
 70
     0
 62
     7
  6
Continuous
370
    -3
390
F
347
46
  0
LAYER
  5
18A
330
2
100
AcDbSymbolTableRecord
100
AcDbLayerTableRecord
  2
DV3_Standard
 70
     0
 62
     7
  6
Continuous
370
    -3
390
F
347
46
  0
LAYER
  5
28E
330
2
100
AcDbSymbolTableRecord
100
AcDbLayerTableRecord
  2
Default
 70
     0
 62
     7
  6
Continuous
370
    -3
390
F
347
46
  0
ENDTAB
  0
TABLE
  2
STYLE
  5
3
330
0
100
AcDbSymbolTable
 70
     1
  0
STYLE
  5
11
330
3
100
AcDbSymbolTableRecord
100
AcDbTextStyleTableRecord
  2
Standard
 70
     0
 40
0.0
 41
1.0
 50
0.0
 71
     0
 42
10.0
  3
txt
  4

  0
ENDTAB
  0
TABLE
  2
VIEW
  5
6
330
0
100
AcDbSymbolTable
 70
     0
  0
ENDTAB
  0
TABLE
  2
UCS
  5
7
330
0
100
AcDbSymbolTable
 70
     0
  0
ENDTAB
  0
TABLE
  2
APPID
  5
9
330
0
100
AcDbSymbolTable
 70
     2
  0
APPID
  5
12
330
9
100
AcDbSymbolTableRecord
100
AcDbRegAppTableRecord
  2
ACAD
 70
     0
  0
APPID
  5
2CB
330
9
100
AcDbSymbolTableRecord
100
AcDbRegAppTableRecord
  2
ACAD_MLEADERVER
 70
     0
  0
ENDTAB
  0
TABLE
  2
DIMSTYLE
  5
A
330
0
100
AcDbSymbolTable
 70
     1
100
AcDbDimStyleTable
  0
DIMSTYLE
105
27
330
A
100
AcDbSymbolTableRecord
100
AcDbDimStyleTableRecord
  2
ISO-25
 70
     0
 41
2.5
 42
0.625
 43
3.75
 44
1.25
 73
     0
 74
     0
 77
     1
 78
     8
140
2.5
141
2.5
143
0.0393700787
147
0.625
171
     3
172
     1
178
     0
271
     2
272
     2
274
     3
278
    44
283
     0
284
     8
340
11
  0
ENDTAB
  0
TABLE
  2
BLOCK_RECORD
  5
1
330
0
100
AcDbSymbolTable
 70
    10
  0
BLOCK_RECORD
  5
1F
330
1
100
AcDbSymbolTableRecord
100
AcDbBlockTableRecord
  2
*Model_Space
340
22
 70
     0
280
     1
281
     0
  0
BLOCK_RECORD
  5
1B
330
1
100
AcDbSymbolTableRecord
100
AcDbBlockTableRecord
  2
*Paper_Space
340
1E
 70
     0
280
     1
281
     0
  0
BLOCK_RECORD
  5
6F
330
1
100
AcDbSymbolTableRecord
100
AcDbBlockTableRecord
  2
SEANNOT_GROUP
340
0
102
{BLKREFS
331
70
102
}
 70
     0
280
     1
281
     0
  0
BLOCK_RECORD
  5
75
330
1
100
AcDbSymbolTableRecord
100
AcDbBlockTableRecord
  2
SEANNOT_GROUP1
340
0
102
{BLKREFS
331
76
102
}
 70
     0
280
     1
281
     0
  0
BLOCK_RECORD
  5
7B
330
1
100
AcDbSymbolTableRecord
100
AcDbBlockTableRecord
  2
SEANNOT_GROUP2
340
0
102
{BLKREFS
331
7C
102
}
 70
     0
280
     1
281
     0
  0
BLOCK_RECORD
  5
81
330
1
100
AcDbSymbolTableRecord
100
AcDbBlockTableRecord
  2
SEANNOT_GROUP3
340
0
102
{BLKREFS
331
82
102
}
 70
     0
280
     1
281
     0
  0
BLOCK_RECORD
  5
8B
330
1
100
AcDbSymbolTableRecord
100
AcDbBlockTableRecord
  2
SEANNOT_GROUP4
340
0
102
{BLKREFS
331
8C
102
}
 70
     0
280
     1
281
     0
  0
BLOCK_RECORD
  5
91
330
1
100
AcDbSymbolTableRecord
100
AcDbBlockTableRecord
  2
SEANNOT_GROUP5
340
0
102
{BLKREFS
331
92
102
}
 70
     0
280
     1
281
     0
  0
BLOCK_RECORD
  5
97
330
1
100
AcDbSymbolTableRecord
100
AcDbBlockTableRecord
  2
SE
340
0
102
{BLKREFS
331
98
102
}
 70
     0
280
     1
281
     0
  0
BLOCK_RECORD
  5
DF
330
1
100
AcDbSymbolTableRecord
100
AcDbBlockTableRecord
  2
SE1
340
0
102
{BLKREFS
331
E0
102
}
 70
     0
280
     1
281
     0
  0
BLOCK_RECORD
  5
188
330
1
100
AcDbSymbolTableRecord
100
AcDbBlockTableRecord
  2
SE2
340
0
102
{BLKREFS
331
189
102
}
 70
     0
280
     1
281
     0
  0
ENDTAB
  0
ENDSEC
  0
SECTION
  2
BLOCKS
  0
BLOCK
  5
20
330
1F
100
AcDbEntity
  8
0
100
AcDbBlockBegin
  2
*Model_Space
 70
     0
 10
0.0
 20
0.0
 30
0.0
  3
*Model_Space
  1

  0
ENDBLK
  5
21
330
1F
100
AcDbEntity
  8
0
100
AcDbBlockEnd
  0
BLOCK
  5
1C
330
1B
100
AcDbEntity
 67
     1
  8
0
100
AcDbBlockBegin
  2
*Paper_Space
 70
     0
 10
0.0
 20
0.0
 30
0.0
  3
*Paper_Space
  1

  0
ENDBLK
  5
1D
330
1B
100
AcDbEntity
 67
     1
  8
0
100
AcDbBlockEnd
  0
BLOCK
  5
73
330
6F
100
AcDbEntity
  8
0
100
AcDbBlockBegin
  2
SEANNOT_GROUP
 70
     0
 10
0.0
 20
0.0
 30
0.0
  3
SEANNOT_GROUP
  1

  0
LINE
  5
71
330
6F
100
AcDbEntity
  8
Standard
 62
   136
100
AcDbLine
 10
362.4639650795
 20
451.282234475
 30
0.0
 11
355.4639648634
 21
451.282234475
 31
0.0
  0
LINE
  5
72
330
6F
100
AcDbEntity
  8
Standard
 62
   136
100
AcDbLine
 10
358.9639649714
 20
454.782234583
 30
0.0
 11
358.9639649714
 21
447.7822343669
 31
0.0
  0
ENDBLK
  5
74
330
6F
100
AcDbEntity
  8
0
100
AcDbBlockEnd
  0
BLOCK
  5
79
330
75
100
AcDbEntity
  8
0
100
AcDbBlockBegin
  2
SEANNOT_GROUP1
 70
     0
 10
0.0
 20
0.0
 30
0.0
  3
SEANNOT_GROUP1
  1

  0
LINE
  5
77
330
75
100
AcDbEntity
  8
Standard
 62
   136
100
AcDbLine
 10
244.850000108
 20
255.5438370215
 30
0.0
 11
237.849999892
 21
255.5438370215
 31
0.0
  0
LINE
  5
78
330
75
100
AcDbEntity
  8
Standard
 62
   136
100
AcDbLine
 10
241.35
 20
259.0438371295
 30
0.0
 11
241.35
 21
252.0438369134
 31
0.0
  0
ENDBLK
  5
7A
330
75
100
AcDbEntity
  8
0
100
AcDbBlockEnd
  0
BLOCK
  5
7F
330
7B
100
AcDbEntity
  8
0
100
AcDbBlockBegin
  2
SEANNOT_GROUP2
 70
     0
 10
0.0
 20
0.0
 30
0.0
  3
SEANNOT_GROUP2
  1

  0
LINE
  5
7D
330
7B
100
AcDbEntity
  8
Standard
 62
   136
100
AcDbLine
 10
94.850000108
 20
255.5438370215
 30
0.0
 11
87.849999892
 21
255.5438370215
 31
0.0
  0
LINE
  5
7E
330
7B
100
AcDbEntity
  8
Standard
 62
   136
100
AcDbLine
 10
91.35
 20
259.0438371296
 30
0.0
 11
91.35
 21
252.0438369135
 31
0.0
  0
ENDBLK
  5
80
330
7B
100
AcDbEntity
  8
0
100
AcDbBlockEnd
  0
BLOCK
  5
85
330
81
100
AcDbEntity
  8
0
100
AcDbBlockBegin
  2
SEANNOT_GROUP3
 70
     0
 10
0.0
 20
0.0
 30
0.0
  3
SEANNOT_GROUP3
  1

  0
LINE
  5
83
330
81
100
AcDbEntity
  8
Standard
 62
   136
100
AcDbLine
 10
417.4239650795
 20
396.0522344469
 30
0.0
 11
410.4239648634
 21
396.0522344469
 31
0.0
  0
LINE
  5
84
330
81
100
AcDbEntity
  8
Standard
 62
   136
100
AcDbLine
 10
413.9239649714
 20
399.5522345549
 30
0.0
 11
413.9239649714
 21
392.5522343388
 31
0.0
  0
ENDBLK
  5
86
330
81
100
AcDbEntity
  8
0
100
AcDbBlockEnd
  0
BLOCK
  5
8F
330
8B
100
AcDbEntity
  8
0
100
AcDbBlockBegin
  2
SEANNOT_GROUP4
 70
     0
 10
0.0
 20
0.0
 30
0.0
  3
SEANNOT_GROUP4
  1

  0
LINE
  5
8D
330
8B
100
AcDbEntity
  8
Standard
 62
   136
100
AcDbLine
 10
244.8033805231
 20
451.6991101815
 30
0.0
 11
237.8033803071
 21
451.6991101815
 31
0.0
  0
LINE
  5
8E
330
8B
100
AcDbEntity
  8
Standard
 62
   136
100
AcDbLine
 10
241.3033804151
 20
455.1991102895
 30
0.0
 11
241.3033804151
 21
448.1991100735
 31
0.0
  0
ENDBLK
  5
90
330
8B
100
AcDbEntity
  8
0
100
AcDbBlockEnd
  0
BLOCK
  5
95
330
91
100
AcDbEntity
  8
0
100
AcDbBlockBegin
  2
SEANNOT_GROUP5
 70
     0
 10
0.0
 20
0.0
 30
0.0
  3
SEANNOT_GROUP5
  1

  0
LINE
  5
93
330
91
100
AcDbEntity
  8
Standard
 62
   136
100
AcDbLine
 10
94.8033805231
 20
451.6991101815
 30
0.0
 11
87.8033803071
 21
451.6991101815
 31
0.0
  0
LINE
  5
94
330
91
100
AcDbEntity
  8
Standard
 62
   136
100
AcDbLine
 10
91.3033804151
 20
455.1991102895
 30
0.0
 11
91.3033804151
 21
448.1991100735
 31
0.0
  0
ENDBLK
  5
96
330
91
100
AcDbEntity
  8
0
100
AcDbBlockEnd
  0
BLOCK
  5
DD
330
97
100
AcDbEntity
  8
0
100
AcDbBlockBegin
  2
SE
 70
     0
 10
0.0
 20
0.0
 30
0.0
  3
SE
  1

  0
SPLINE
  5
9A
330
97
100
AcDbEntity
  8
DV1_Standard
 62
     7
100
AcDbSpline
210
0.0
220
0.0
230
1.0
 70
     8
 71
     5
 72
    47
 73
    41
 74
     0
 42
0.000000001
 43
0.0000000001
 40
0.0
 40
0.0
 40
0.0
 40
0.0
 40
0.0
 40
0.0
 40
0.000684268788831
 40
0.000684268788831
 40
0.000684268788831
 40
0.000684268788831
 40
0.000684268788831
 40
0.2367978202170957
 40
0.2367978202170957
 40
0.2367978202170957
 40
0.2367978202170957
 40
0.2367978202170957
 40
0.2374820890059271
 40
0.2374820890059271
 40
0.2374820890059271
 40
0.2374820890059271
 40
0.2374820890059271
 40
0.5000000000000022
 40
0.5000000000000022
 40
0.5000000000000022
 40
0.5000000000000022
 40
0.5000000000000022
 40
0.5006842687888329
 40
0.5006842687888329
 40
0.5006842687888329
 40
0.5006842687888329
 40
0.5006842687888329
 40
0.7367978202170994
 40
0.7367978202170994
 40
0.7367978202170994
 40
0.7367978202170994
 40
0.7367978202170994
 40
0.73748208900593
 40
0.73748208900593
 40
0.73748208900593
 40
0.73748208900593
 40
0.73748208900593
 40
1.0
 40
1.0
 40
1.0
 40
1.0
 40
1.0
 40
1.0
 10
226.350000000002
 20
416.2822344749662
 30
0.0
 10
226.3673380512105
 20
416.2822344749662
 30
0.0
 10
226.384676102419
 20
416.2822344749662
 30
0.0
 10
226.4020141536275
 20
416.2822344749662
 30
0.0
 10
226.4193522048361
 20
416.2822344749662
 30
0.0
 10
226.4366902560446
 20
416.2822344749662
 30
0.0
 10
232.4193522048363
 20
416.2822344749662
 30
0.0
 10
238.4020141536281
 20
416.2822344749662
 30
0.0
 10
244.3846761024198
 20
416.2822344749662
 30
0.0
 10
250.3673380512116
 20
416.2822344749662
 30
0.0
 10
256.3500000000034
 20
416.2822344749662
 30
0.0
 10
256.3686478874582
 20
416.2822344749662
 30
0.0
 10
256.387295774913
 20
416.2822344749662
 30
0.0
 10
256.4059436356839
 20
416.282234574321
 30
0.0
 10
256.4245914429674
 20
416.2822348719383
 30
0.0
 10
256.4432391698419
 20
416.2822354662798
 30
0.0
 10
263.5973902633481
 20
416.2824634838296
 30
0.0
 10
270.7397063331746
 20
416.3263649491323
 30
0.0
 10
276.3500000000032
 20
421.9738090754769
 30
0.0
 10
276.3500000000032
 20
429.1280217752216
 30
0.0
 10
276.3500000000032
 20
436.2822344749662
 30
0.0
 10
276.3500000000032
 20
436.2995725261746
 30
0.0
 10
276.3500000000032
 20
436.3169105773832
 30
0.0
 10
276.3500000000032
 20
436.3342486285916
 30
0.0
 10
276.3500000000032
 20
436.3515866798002
 30
0.0
 10
276.3500000000032
 20
436.3689247310086
 30
0.0
 10
276.3500000000032
 20
442.3515866798004
 30
0.0
 10
276.3500000000031
 20
448.3342486285923
 30
0.0
 10
276.3500000000031
 20
454.316910577384
 30
0.0
 10
276.3500000000031
 20
460.2995725261758
 30
0.0
 10
276.3500000000031
 20
466.2822344749676
 30
0.0
 10
276.3500000000031
 20
466.3008823624223
 30
0.0
 10
276.3500000000031
 20
466.3195302498773
 30
0.0
 10
276.3499999006484
 20
466.3381781106481
 30
0.0
 10
276.3499996030312
 20
466.3568259179315
 30
0.0
 10
276.3499990086896
 20
466.3754736448061
 30
0.0
 10
276.3497709911398
 20
473.5296247383123
 30
0.0
 10
276.305869525837
 20
480.6719408081388
 30
0.0
 10
270.6584253994926
 20
486.2822344749674
 30
0.0
 10
263.5042126997479
 20
486.2822344749674
 30
0.0
 10
256.3500000000034
 20
486.2822344749674
 30
0.0
  0
SPLINE
  5
9B
330
97
100
AcDbEntity
  8
DV1_Standard
 62
     7
100
AcDbSpline
210
0.0
220
0.0
230
1.0
 70
     8
 71
     5
 72
    27
 73
    21
 74
     0
 42
0.000000001
 43
0.0000000001
 40
0.0
 40
0.0
 40
0.0
 40
0.0
 40
0.0
 40
0.0
 40
0.0014609431639208
 40
0.0014609431639208
 40
0.0014609431639208
 40
0.0014609431639208
 40
0.0014609431639208
 40
0.5055734856287749
 40
0.5055734856287749
 40
0.5055734856287749
 40
0.5055734856287749
 40
0.5055734856287749
 40
0.5070344287926798
 40
0.5070344287926798
 40
0.5070344287926798
 40
0.5070344287926798
 40
0.5070344287926798
 40
1.0
 40
1.0
 40
1.0
 40
1.0
 40
1.0
 40
1.0
 10
256.3500000000034
 20
486.2822344749674
 30
0.0
 10
256.3326619487949
 20
486.2822344749674
 30
0.0
 10
256.3153238975864
 20
486.2822344749674
 30
0.0
 10
256.2979858463779
 20
486.2822344749674
 30
0.0
 10
256.2806477951693
 20
486.2822344749674
 30
0.0
 10
256.2633097439608
 20
486.2822344749674
 30
0.0
 10
250.2806477951691
 20
486.2822344749674
 30
0.0
 10
244.2979858463773
 20
486.2822344749674
 30
0.0
 10
238.3153238975855
 20
486.2822344749674
 30
0.0
 10
232.3326619487938
 20
486.2822344749674
 30
0.0
 10
226.350000000002
 20
486.2822344749674
 30
0.0
 10
226.3313521125472
 20
486.2822344749674
 30
0.0
 10
226.3127042250924
 20
486.2822344749674
 30
0.0
 10
226.2940563643214
 20
486.2822343756126
 30
0.0
 10
226.2754085570381
 20
486.2822340779954
 30
0.0
 10
226.2567608301637
 20
486.2822334836538
 30
0.0
 10
219.9644644852862
 20
486.2820329351923
 30
0.0
 10
213.681323412405
 20
486.2480477231758
 30
0.0
 10
208.441646609707
 20
482.3974397354842
 30
0.0
 10
206.8105450793275
 20
476.7260746022682
 30
0.0
 10
206.4381950759841
 20
470.5627849445835
 30
0.0
  0
SPLINE
  5
9C
330
97
100
AcDbEntity
  8
DV1_Standard
 62
     7
100
AcDbSpline
210
0.0
220
0.0
230
1.0
 70
     8
 71
     5
 72
    12
 73
     6
 74
     0
 42
0.000000001
 43
0.0000000001
 40
0.0
 40
0.0
 40
0.0
 40
0.0
 40
0.0
 40
0.0
 40
0.9999999999999999
 40
0.9999999999999999
 40
0.9999999999999999
 40
0.9999999999999999
 40
0.9999999999999999
 40
0.9999999999999999
 10
206.3967680594157
 20
432.8335487862944
 30
0.0
 10
206.6517087565037
 20
426.4376747279096
 30
0.0
 10
208.0292092445748
 20
420.4515192536956
 30
0.0
 10
213.3896370075405
 20
416.2822344749662
 30
0.0
 10
219.8698185037713
 20
416.2822344749662
 30
0.0
 10
226.350000000002
 20
416.2822344749662
 30
0.0
  0
SPLINE
  5
9D
330
97
100
AcDbEntity
  8
DV1_Standard
 62
     7
100
AcDbSpline
210
0.0
220
0.0
230
1.0
 70
     8
 71
     5
 72
    27
 73
    21
 74
     0
 42
0.000000001
 43
0.0000000001
 40
0.0
 40
0.0
 40
0.0
 40
0.0
 40
0.0
 40
0.0
 40
0.0014418354970603
 40
0.0014418354970603
 40
0.0014418354970603
 40
0.0014418354970603
 40
0.0014418354970603
 40
0.4989610930506104
 40
0.4989610930506104
 40
0.4989610930506104
 40
0.4989610930506104
 40
0.4989610930506104
 40
0.5004029285476715
 40
0.5004029285476715
 40
0.5004029285476715
 40
0.5004029285476715
 40
0.5004029285476715
 40
1.0
 40
1.0
 40
1.0
 40
1.0
 40
1.0
 40
1.0
 10
76.35000000000213
 20
416.2822344749662
 30
0.0
 10
76.36733805121062
 20
416.2822344749662
 30
0.0
 10
76.38467610241912
 20
416.2822344749662
 30
0.0
 10
76.40201415362763
 20
416.2822344749662
 30
0.0
 10
76.41935220483623
 20
416.2822344749662
 30
0.0
 10
76.43669025604473
 20
416.2822344749662
 30
0.0
 10
82.41935220483646
 20
416.2822344749662
 30
0.0
 10
88.40201415362822
 20
416.2822344749662
 30
0.0
 10
94.38467610241997
 20
416.2822344749662
 30
0.0
 10
100.3673380512117
 20
416.2822344749662
 30
0.0
 10
106.3500000000035
 20
416.2822344749662
 30
0.0
 10
106.3686478874583
 20
416.2822344749662
 30
0.0
 10
106.3872957749131
 20
416.2822344749662
 30
0.0
 10
106.405943635684
 20
416.282234574321
 30
0.0
 10
106.4245914429675
 20
416.2822348719383
 30
0.0
 10
106.443239169842
 20
416.2822354662798
 30
0.0
 10
112.9046903927519
 20
416.2824414060561
 30
0.0
 10
119.3564874875989
 20
416.3182728814432
 30
0.0
 10
124.678643383844
 20
420.4859233732502
 30
0.0
 10
126.0490021935474
 20
426.4559811633621
 30
0.0
 10
126.3032266795131
 20
432.8334168028858
 30
0.0
  0
SPLINE
  5
9E
330
97
100
AcDbEntity
  8
DV1_Standard
 62
     7
100
AcDbSpline
210
0.0
220
0.0
230
1.0
 70
     8
 71
     5
 72
    12
 73
     6
 74
     0
 42
0.000000001
 43
0.0000000001
 40
0.0
 40
0.0
 40
0.0
 40
0.0
 40
0.0
 40
0.0
 40
1.0
 40
1.0
 40
1.0
 40
1.0
 40
1.0
 40
1.0
 10
126.2618402786119
 20
470.5621996640022
 30
0.0
 10
125.8884756212699
 20
476.7439092625368
 30
0.0
 10
124.2489742945726
 20
482.4308317238364
 30
0.0
 10
118.9722358477163
 20
486.2822344749674
 30
0.0
 10
112.6611179238599
 20
486.2822344749675
 30
0.0
 10
106.3500000000035
 20
486.2822344749675
 30
0.0
  0
SPLINE
  5
9F
330
97
100
AcDbEntity
  8
DV1_Standard
 62
     7
100
AcDbSpline
210
0.0
220
0.0
230
1.0
 70
     8
 71
     5
 72
    47
 73
    41
 74
     0
 42
0.000000001
 43
0.0000000001
 40
0.0
 40
0.0
 40
0.0
 40
0.0
 40
0.0
 40
0.0
 40
0.0006842687888335
 40
0.0006842687888335
 40
0.0006842687888335
 40
0.0006842687888335
 40
0.0006842687888335
 40
0.2367978202171008
 40
0.2367978202171008
 40
0.2367978202171008
 40
0.2367978202171008
 40
0.2367978202171008
 40
0.2374820890059268
 40
0.2374820890059268
 40
0.2374820890059268
 40
0.2374820890059268
 40
0.2374820890059268
 40
0.5
 40
0.5
 40
0.5
 40
0.5
 40
0.5
 40
0.5006842687888337
 40
0.5006842687888337
 40
0.5006842687888337
 40
0.5006842687888337
 40
0.5006842687888337
 40
0.7367978202170934
 40
0.7367978202170934
 40
0.7367978202170934
 40
0.7367978202170934
 40
0.7367978202170934
 40
0.7374820890059268
 40
0.7374820890059268
 40
0.7374820890059268
 40
0.7374820890059268
 40
0.7374820890059268
 40
1.0
 40
1.0
 40
1.0
 40
1.0
 40
1.0
 40
1.0
 10
106.3500000000035
 20
486.2822344749675
 30
0.0
 10
106.332661948795
 20
486.2822344749675
 30
0.0
 10
106.3153238975865
 20
486.2822344749675
 30
0.0
 10
106.297985846378
 20
486.2822344749675
 30
0.0
 10
106.2806477951695
 20
486.2822344749675
 30
0.0
 10
106.263309743961
 20
486.2822344749675
 30
0.0
 10
100.2806477951692
 20
486.2822344749675
 30
0.0
 10
94.29798584637744
 20
486.2822344749675
 30
0.0
 10
88.31532389758567
 20
486.2822344749675
 30
0.0
 10
82.33266194879391
 20
486.2822344749675
 30
0.0
 10
76.35000000000213
 20
486.2822344749675
 30
0.0
 10
76.33135211254731
 20
486.2822344749675
 30
0.0
 10
76.31270422509252
 20
486.2822344749675
 30
0.0
 10
76.29405636432162
 20
486.2822343756127
 30
0.0
 10
76.27540855703822
 20
486.2822340779954
 30
0.0
 10
76.25676083016381
 20
486.2822334836539
 30
0.0
 10
69.10260973665753
 20
486.2820054661041
 30
0.0
 10
61.96029366683102
 20
486.2381040008013
 30
0.0
 10
56.35000000000233
 20
480.5906598744569
 30
0.0
 10
56.35000000000222
 20
473.4364471747124
 30
0.0
 10
56.35000000000222
 20
466.2822344749676
 30
0.0
 10
56.35000000000222
 20
466.2648964237591
 30
0.0
 10
56.35000000000222
 20
466.2475583725506
 30
0.0
 10
56.3500000000021
 20
466.2302203213421
 30
0.0
 10
56.3500000000021
 20
466.2128822701335
 30
0.0
 10
56.3500000000021
 20
466.195544218925
 30
0.0
 10
56.35000000000212
 20
460.2128822701333
 30
0.0
 10
56.35000000000212
 20
454.2302203213415
 30
0.0
 10
56.35000000000222
 20
448.2475583725497
 30
0.0
 10
56.35000000000222
 20
442.264896423758
 30
0.0
 10
56.35000000000222
 20
436.2822344749662
 30
0.0
 10
56.35000000000222
 20
436.2635865875114
 30
0.0
 10
56.35000000000222
 20
436.2449387000565
 30
0.0
 10
56.35000009935702
 20
436.2262908392857
 30
0.0
 10
56.35000039697423
 20
436.2076430320022
 30
0.0
 10
56.35000099131572
 20
436.1889953051278
 30
0.0
 10
56.35022900886562
 20
429.0348442116215
 30
0.0
 10
56.39413047416833
 20
421.892528141795
 30
0.0
 10
62.04157460051282
 20
416.2822344749662
 30
0.0
 10
69.19578730025754
 20
416.2822344749662
 30
0.0
 10
76.35000000000213
 20
416.2822344749662
 30
0.0
  0
ARC
  5
A0
330
97
100
AcDbEntity
  8
DV1_Standard
 62
     7
100
AcDbCircle
 10
2616.8337124631
 20
533.0098753555
 30
0.0
 40
2473.945127728686
100
AcDbArc
 50
182.8425974338
 51
183.3204738875
  0
SPLINE
  5
A1
330
97
100
AcDbEntity
  8
DV1_Standard
 62
     7
100
AcDbSpline
210
0.0
220
0.0
230
1.0
 70
     8
 71
     3
 72
    12
 73
     8
 74
     0
 42
0.000000001
 43
0.0000000001
 40
0.0
 40
0.0
 40
0.0
 40
0.0
 40
0.3679744443759823
 40
0.3679744443759823
 40
0.7359488887519648
 40
0.7359488887519648
 40
1.0
 40
1.0
 40
1.0
 40
1.0
 10
162.4513178128902
 20
345.68240641495
 30
0.0
 10
160.7023631420206
 20
345.6839006961386
 30
0.0
 10
158.9340186855204
 20
345.7140506456097
 30
0.0
 10
155.5033769766787
 20
346.4701563199207
 30
0.0
 10
153.8252145430474
 20
347.2345336587106
 30
0.0
 10
151.6040277756337
 20
349.2522721172188
 30
0.0
 10
150.8793148027519
 20
350.2969299791222
 30
0.0
 10
150.3538539766393
 20
351.4247196047438
 30
0.0
  0
ARC
  5
A2
330
97
100
AcDbEntity
  8
DV1_Standard
 62
     7
100
AcDbCircle
 10
513.6541167601
 20
438.6704059715
 30
0.0
 40
368.8126136300411
100
AcDbArc
 50
182.0158283421
 51
184.4084603898
  0
ELLIPSE
  5
A3
330
97
100
AcDbEntity
  8
DV1_Standard
 62
     7
100
AcDbEllipse
 10
148.7312995531
 20
370.1100225653
 30
0.0
 11
0.5000031406575296
 21
0.02078963747087493
 31
0.0
210
0.0
220
0.0
230
1.0
 40
0.2417252555
 41
3.115801069901448
 42
3.144612967454031
  0
ELLIPSE
  5
A4
330
97
100
AcDbEntity
  8
DV1_Standard
 62
     7
100
AcDbEllipse
 10
148.6608197921
 20
371.3706266055
 30
0.0
 11
0.4992029906175747
 21
0.0350959235814463
 31
0.0
210
0.0
220
0.0
230
1.0
 40
0.1215737176
 41
3.118346736195246
 42
3.144323418979317
  0
ARC
  5
A5
330
97
100
AcDbEntity
  8
DV1_Standard
 62
     7
100
AcDbCircle
 10
-2285.9235463948
 20
533.4392293838
 30
0.0
 40
2475.756125857875
100
AcDbArc
 50
356.6679041251
 51
357.0624214306
  0
SPLINE
  5
A6
330
97
100
AcDbEntity
  8
DV1_Standard
 62
     7
100
AcDbSpline
210
0.0
220
0.0
230
1.0
 70
     8
 71
     3
 72
    12
 73
     8
 74
     0
 42
0.000000001
 43
0.0000000001
 40
0.0
 40
0.0
 40
0.0
 40
0.0
 40
0.3691628867821775
 40
0.3691628867821775
 40
0.7383257735643552
 40
0.7383257735643552
 40
1.0
 40
1.0
 40
1.0
 40
1.0
 10
170.2486812570806
 20
345.6824064155539
 30
0.0
 10
171.9976373335288
 20
345.6839009548303
 30
0.0
 10
173.7659852794174
 20
345.7140508280203
 30
0.0
 10
177.1966315110459
 20
346.470159747456
 30
0.0
 10
178.8747952793389
 20
347.2345401138898
 30
0.0
 10
181.0846678497029
 20
349.2420079568804
 30
0.0
 10
181.8029919578625
 20
350.2715033861661
 30
0.0
 10
182.326844785677
 20
351.3835257907107
 30
0.0
  0
ARC
  5
A7
330
97
100
AcDbEntity
  8
DV1_Standard
 62
     7
100
AcDbCircle
 10
-208.7278444809
 20
440.0201537856
 30
0.0
 40
396.6073080966791
100
AcDbArc
 50
355.7054717859
 51
357.9276646498
  0
ELLIPSE
  5
A8
330
97
100
AcDbEntity
  8
DV1_Standard
 62
     7
100
AcDbEllipse
 10
183.9686984836
 20
370.1100225653
 30
0.0
 11
-0.5000031406575227
 21
0.02078963747083329
 31
0.0
210
0.0
220
0.0
230
1.0
 40
0.2417252555
 41
3.138711644894498
 42
3.168588511878429
  0
ELLIPSE
  5
A9
330
97
100
AcDbEntity
  8
DV1_Standard
 62
     7
100
AcDbEllipse
 10
184.0391782446
 20
371.3706266055
 30
0.0
 11
-0.4992029906175747
 21
0.03509592358143242
 31
0.0
210
0.0
220
0.0
230
1.0
 40
0.1215737176
 41
3.139187614673317
 42
3.161896873024983
  0
LINE
  5
AA
330
97
100
AcDbEntity
  8
DV1_Standard
 62
     7
100
AcDbLine
 10
186.7674602799
 20
410.3207024945
 30
0.0
 11
186.5793368829
 21
406.5617810087
 31
0.0
  0
ELLIPSE
  5
AB
330
97
100
AcDbEntity
  8
DV1_Standard
 62
     7
100
AcDbEllipse
 10
668.7414789601
 20
442.8430575517
 30
0.0
 11
-374.0115737552018
 21
-381.4550595580072
 31
0.0
210
0.0
220
0.0
230
1.0
 40
0.9683629601
 41
-0.8257589807150687
 42
-0.8152315492569624
  0
ARC
  5
AC
330
97
100
AcDbEntity
  8
DV1_Standard
 62
     7
100
AcDbCircle
 10
312.5981111284
 20
439.1222721976
 30
0.0
 40
169.2860704075854
100
AcDbArc
 50
178.0428368709
 51
180.6463421432
  0
SPLINE
  5
AD
330
97
100
AcDbEntity
  8
DV1_Standard
 62
     7
100
AcDbSpline
210
0.0
220
0.0
230
1.0
 70
     8
 71
     3
 72
    12
 73
     8
 74
     0
 42
0.000000001
 43
0.0000000001
 40
0.0
 40
0.0
 40
0.0
 40
0.0
 40
0.6578223762892388
 40
0.6578223762892388
 40
0.986733564433858
 40
0.986733564433858
 40
0.9999999999999999
 40
0.9999999999999999
 40
0.9999999999999999
 40
0.9999999999999999
 10
143.3508711462996
 20
435.0172867166609
 30
0.0
 10
143.3778361124791
 20
432.922067975775
 30
0.0
 10
143.4363815660908
 20
430.8113024193477
 30
0.0
 10
144.1740826296595
 20
427.7311702026523
 30
0.0
 10
144.5221073961858
 20
426.74365026227
 30
0.0
 10
145.029725739918
 20
425.7721572306118
 30
0.0
 10
145.0496256435747
 20
425.7346177965666
 30
0.0
 10
145.0697436697994
 20
425.6972072035442
 30
0.0
  0
SPLINE
  5
AE
330
97
100
AcDbEntity
  8
DV1_Standard
 62
     7
100
AcDbSpline
210
0.0
220
0.0
230
1.0
 70
     8
 71
     3
 72
    18
 73
    14
 74
     0
 42
0.000000001
 43
0.0000000001
 40
0.0
 40
0.0
 40
0.0
 40
0.0
 40
0.1249999999999999
 40
0.1249999999999999
 40
0.2499999999999998
 40
0.2499999999999998
 40
0.3749999999999998
 40
0.3749999999999998
 40
0.4999999999999997
 40
0.4999999999999997
 40
0.7499999999999998
 40
0.7499999999999998
 40
1.0
 40
1.0
 40
1.0
 40
1.0
 10
158.6315566713931
 20
465.0607194126225
 30
0.0
 10
157.5360479424509
 20
465.0451253123106
 30
0.0
 10
156.4340555828337
 20
465.0243694916076
 30
0.0
 10
154.2533003656097
 20
464.840851969017
 30
0.0
 10
153.1583190291223
 20
464.6761892645057
 30
0.0
 10
151.0622355378998
 20
464.1077542658269
 30
0.0
 10
150.0581924445833
 20
463.7020564736969
 30
0.0
 10
148.2443803256205
 20
462.6237489900146
 30
0.0
 10
147.4580377541413
 20
461.9694889264097
 30
0.0
 10
145.4470324309454
 20
459.6882380451223
 30
0.0
 10
144.6871885963718
 20
457.8784310183628
 30
0.0
 10
143.8264231450891
 20
454.1839392456701
 30
0.0
 10
143.7244079186907
 20
452.2979358923565
 30
0.0
 10
143.6390320252877
 20
450.4410113188349
 30
0.0
  0
SPLINE
  5
AF
330
97
100
AcDbEntity
  8
DV1_Standard
 62
     7
100
AcDbSpline
210
0.0
220
0.0
230
1.0
 70
     8
 71
     3
 72
    12
 73
     8
 74
     0
 42
0.000000001
 43
0.0000000001
 40
0.0
 40
0.0
 40
0.0
 40
0.0
 40
0.0151585505304444
 40
0.0151585505304444
 40
0.3434390336869635
 40
0.3434390336869635
 40
1.0
 40
1.0
 40
1.0
 40
1.0
 10
187.6200705377035
 20
425.6783616966862
 30
0.0
 10
187.6431255631984
 20
425.7209984228119
 30
0.0
 10
187.6658708539012
 20
425.7637688471661
 30
0.0
 10
188.1740949059292
 20
426.7356516523669
 30
0.0
 10
188.5294104669501
 20
427.7444980471724
 30
0.0
 10
189.2596396045097
 20
430.7972358479944
 30
0.0
 10
189.3220384195356
 20
432.9123284722571
 30
0.0
 10
189.3491268904269
 20
435.0172867166607
 30
0.0
  0
ELLIPSE
  5
B0
330
97
100
AcDbEntity
  8
DV1_Standard
 62
     7
100
AcDbEllipse
 10
163.802817576
 20
-40.6726957901
 30
0.0
 11
519.6464459049579
 21
42.21733079603657
 31
0.0
210
0.0
220
0.0
230
1.0
 40
0.9699367964
 41
1.48727218806369
 42
1.50207972646068
  0
ELLIPSE
  5
B1
330
97
100
AcDbEntity
  8
DV1_Standard
 62
     7
100
AcDbEllipse
 10
-336.0412304407
 20
442.8430595229
 30
0.0
 11
374.0100273577203
 21
-381.4563144077875
 31
0.0
210
0.0
220
0.0
230
1.0
 40
0.9683629446
 41
0.8152352615755216
 42
0.8257626955357591
  0
ARC
  5
B2
330
97
100
AcDbEntity
  8
DV1_Standard
 62
     7
100
AcDbCircle
 10
22.75154932
 20
439.1525831963
 30
0.0
 40
166.6369293860243
100
AcDbArc
 50
359.3329593595
 51
1.9778616264
  0
ELLIPSE
  5
B3
330
97
100
AcDbEntity
  8
DV1_Standard
 62
     7
100
AcDbEllipse
 10
168.8971800636
 20
-40.6728760601
 30
0.0
 11
-519.6465203818842
 21
42.21756755252709
 31
0.0
210
0.0
220
0.0
230
1.0
 40
0.9699369673
 41
4.781106023488499
 42
4.795913559247089
  0
SPLINE
  5
B4
330
97
100
AcDbEntity
  8
DV1_Standard
 62
     7
100
AcDbSpline
210
0.0
220
0.0
230
1.0
 70
     8
 71
     3
 72
    16
 73
    12
 74
     0
 42
0.000000001
 43
0.0000000001
 40
0.0
 40
0.0
 40
0.0
 40
0.0
 40
0.2500000000000002
 40
0.2500000000000002
 40
0.5000000000000004
 40
0.5000000000000004
 40
0.6250000000000003
 40
0.6250000000000003
 40
0.7500000000000002
 40
0.7500000000000002
 40
1.0
 40
1.0
 40
1.0
 40
1.0
 10
189.0609660114688
 20
450.441011318835
 30
0.0
 10
188.976117464866
 20
452.2865129500033
 30
0.0
 10
188.8745895248252
 20
454.1568928626479
 30
0.0
 10
188.0320487158666
 20
457.81800907805
 30
0.0
 10
187.2804391750555
 20
459.6402077935705
 30
0.0
 10
185.2807694157831
 20
461.9335697194616
 30
0.0
 10
184.4972085082136
 20
462.5935253346588
 30
0.0
 10
182.6778810693167
 20
463.6858782824318
 30
0.0
 10
181.6817768322875
 20
464.0925458655889
 30
0.0
 10
178.5213564109355
 20
464.9592577066022
 30
0.0
 10
176.2459809138032
 20
465.0297398339029
 30
0.0
 10
174.0684413653341
 20
465.0607194126115
 30
0.0
  0
LINE
  5
B5
330
97
100
AcDbEntity
  8
DV1_Standard
 62
     7
100
AcDbLine
 10
189.377186061
 20
437.2126306526
 30
0.0
 11
189.3778389824
 21
437.2126237719
 31
0.0
  0
LINE
  5
B6
330
97
100
AcDbEntity
  8
DV1_Standard
 62
     7
100
AcDbLine
 10
143.3221590543
 20
437.2126237719
 30
0.0
 11
143.3228119757
 21
437.2126306526
 31
0.0
  0
ARC
  5
B7
330
97
100
AcDbEntity
  8
DV1_Standard
 62
     7
100
AcDbCircle
 10
2679.588782323
 20
535.7967904618
 30
0.0
 40
2536.811106428052
100
AcDbArc
 50
183.8207035714
 51
184.0211342513
  0
ARC
  5
B8
330
97
100
AcDbEntity
  8
DV1_Standard
 62
     7
100
AcDbCircle
 10
269.2166928198
 20
374.9450314478
 30
0.0
 40
121.0670467004938
100
AcDbArc
 50
182.2983669781
 51
183.8772280313
  0
ARC
  5
B9
330
97
100
AcDbEntity
  8
DV1_Standard
 62
     7
100
AcDbCircle
 10
165.9526450341
 20
357.9930613683
 30
0.0
 40
16.9278724953157
100
AcDbArc
 50
180.3000481817
 51
202.5261119031
  0
ARC
  5
BA
330
97
100
AcDbEntity
  8
DV1_Standard
 62
     7
100
AcDbCircle
 10
120.4377165174
 20
369.1639847715
 30
0.0
 40
27.80625280083538
100
AcDbArc
 50
1.912764827
 51
4.4815719931
  0
LINE
  5
BB
330
97
100
AcDbEntity
  8
DV1_Standard
 62
     7
100
AcDbLine
 10
162.4513304238
 20
345.6814490758
 30
0.0
 11
166.350030664
 21
345.6814787864
 31
0.0
  0
ARC
  5
BC
330
97
100
AcDbEntity
  8
DV1_Standard
 62
     7
100
AcDbCircle
 10
-1011.1133304707
 20
293.1105619929
 30
0.0
 40
1161.924364180452
100
AcDbArc
 50
3.8603228111
 51
4.0551664078
  0
ARC
  5
BD
330
97
100
AcDbEntity
  8
DV1_Standard
 62
     7
100
AcDbCircle
 10
2272.0425009564
 20
511.5198316488
 30
0.0
 40
2128.497017550581
100
AcDbArc
 50
183.280173045
 51
183.669900154
  0
ARC
  5
BE
330
97
100
AcDbEntity
  8
DV1_Standard
 62
     7
100
AcDbCircle
 10
-4044.888677847
 20
650.3166872012
 30
0.0
 40
4238.666327139571
100
AcDbArc
 50
356.0442006815
 51
356.1642188631
  0
ARC
  5
BF
330
97
100
AcDbEntity
  8
DV1_Standard
 62
     7
100
AcDbCircle
 10
44.536936045
 20
376.0226331154
 30
0.0
 40
140.0425537824105
100
AcDbArc
 50
356.2089596062
 51
357.5719644462
  0
ARC
  5
C0
330
97
100
AcDbEntity
  8
DV1_Standard
 62
     7
100
AcDbCircle
 10
166.7316069938
 20
357.9790790728
 30
0.0
 40
16.94414759184178
100
AcDbArc
 50
337.5357300926
 51
359.7476248221
  0
ARC
  5
C1
330
97
100
AcDbEntity
  8
DV1_Standard
 62
     7
100
AcDbCircle
 10
212.6482098287
 20
369.151566964
 30
0.0
 40
28.19229534560945
100
AcDbArc
 50
175.5548993705
 51
178.0878849274
  0
LINE
  5
C2
330
97
100
AcDbEntity
  8
DV1_Standard
 62
     7
100
AcDbLine
 10
166.3500305875
 20
345.6814783396
 30
0.0
 11
170.2486807458
 21
345.6814486406
 31
0.0
  0
ARC
  5
C3
330
97
100
AcDbEntity
  8
DV1_Standard
 62
     7
100
AcDbCircle
 10
-93.6323678638
 20
392.5814215556
 30
0.0
 40
278.9681500495209
100
AcDbArc
 50
355.6323727273
 51
356.2938950863
  0
ARC
  5
C4
330
97
100
AcDbEntity
  8
DV1_Standard
 62
     7
100
AcDbCircle
 10
-2245.8035229633
 20
528.7761752996
 30
0.0
 40
2435.439968194696
100
AcDbArc
 50
356.3692616019
 51
356.7228866239
  0
SPLINE
  5
C5
330
97
100
AcDbEntity
  8
DV1_Standard
 62
     7
100
AcDbSpline
210
0.0
220
0.0
230
1.0
 70
     8
 71
     3
 72
     8
 73
     4
 74
     0
 42
0.000000001
 43
0.0000000001
 40
0.0
 40
0.0
 40
0.0
 40
0.0
 40
1.0
 40
1.0
 40
1.0
 40
1.0
 10
189.3498951431912
 20
435.0030879971188
 30
0.0
 10
189.3558071472327
 20
435.371327436172
 30
0.0
 10
189.3651217603142
 20
436.1078393610978
 30
0.0
 10
189.3778389824357
 20
437.212623771896
 30
0.0
  0
SPLINE
  5
C6
330
97
100
AcDbEntity
  8
DV1_Standard
 62
     7
100
AcDbSpline
210
0.0
220
0.0
230
1.0
 70
     8
 71
     3
 72
     8
 73
     4
 74
     0
 42
0.000000001
 43
0.0000000001
 40
0.0
 40
0.0
 40
0.0
 40
0.0
 40
1.0
 40
1.0
 40
1.0
 40
1.0
 10
143.3221590542642
 20
437.2126237718915
 30
0.0
 10
143.325542856119
 20
436.8467166694497
 30
0.0
 10
143.3347877667083
 20
436.1149328566141
 30
0.0
 10
143.3498937860321
 20
435.0172723333846
 30
0.0
  0
LINE
  5
C7
330
97
100
AcDbEntity
  8
DV1_Standard
 62
     7
100
AcDbLine
 10
158.639912424
 20
466.4629465843
 30
0.0
 11
174.0600875901
 21
466.4629465843
 31
0.0
  0
SPLINE
  5
C8
330
97
100
AcDbEntity
  8
DV1_Standard
 62
     7
100
AcDbSpline
210
0.0
220
0.0
230
1.0
 70
     8
 71
     3
 72
    38
 73
    34
 74
     0
 42
0.000000001
 43
0.0000000001
 40
0.0
 40
0.0
 40
0.0
 40
0.0
 40
0.125
 40
0.125
 40
0.25
 40
0.25
 40
0.28125
 40
0.28125
 40
0.3125
 40
0.3125
 40
0.375
 40
0.375
 40
0.40625
 40
0.40625
 40
0.4375
 40
0.4375
 40
0.5
 40
0.5
 40
0.53125
 40
0.53125
 40
0.5625
 40
0.5625
 40
0.625
 40
0.625
 40
0.6562499999999999
 40
0.6562499999999999
 40
0.6875
 40
0.6875
 40
0.75
 40
0.75
 40
0.875
 40
0.875
 40
1.0
 40
1.0
 40
1.0
 40
1.0
 10
142.6693036727312
 20
450.4923150903437
 30
0.0
 10
142.6693036650352
 20
451.5997191299224
 30
0.0
 10
142.6712917077097
 20
452.7069385285436
 30
0.0
 10
142.80220618423
 20
454.9112154263811
 30
0.0
 10
142.9292388303815
 20
456.0084123564468
 30
0.0
 10
143.2331563300652
 20
457.3682618842635
 30
0.0
 10
143.3011987328267
 20
457.6390928544657
 30
0.0
 10
143.4518607977525
 20
458.1736328526273
 30
0.0
 10
143.5346288591762
 20
458.437972356497
 30
0.0
 10
143.8072659819645
 20
459.2214026897877
 30
0.0
 10
144.0212469885362
 20
459.7309924213409
 30
0.0
 10
144.398520308619
 20
460.4731917903933
 30
0.0
 10
144.534009649182
 20
460.7174537168741
 30
0.0
 10
144.823949095944
 20
461.1954681825301
 30
0.0
 10
144.9771019693918
 20
461.4272173987223
 30
0.0
 10
145.4612949795998
 20
462.1005269658011
 30
0.0
 10
145.8168728177948
 20
462.5203236873109
 30
0.0
 10
146.4006038419737
 20
463.1053483573487
 30
0.0
 10
146.6035603570457
 20
463.2929244059439
 30
0.0
 10
147.0265724301957
 20
463.6529105661171
 30
0.0
 10
147.2477253947207
 20
463.8260570587551
 30
0.0
 10
147.9267600900277
 20
464.3150591562566
 30
0.0
 10
148.4007535374312
 20
464.6015689882337
 30
0.0
 10
149.1401452562891
 20
464.9786844681452
 30
0.0
 10
149.3913758398699
 20
465.0955534170475
 30
0.0
 10
149.9028468333941
 20
465.3125893812975
 30
0.0
 10
150.1638287401765
 20
465.4129772813121
 30
0.0
 10
150.9544338542409
 20
465.688508013904
 30
0.0
 10
151.4878024211883
 20
465.8370448783351
 30
0.0
 10
153.1029020255988
 20
466.1989782738823
 30
0.0
 10
154.1998525129938
 20
466.3274388899569
 30
0.0
 10
156.4161450017018
 20
466.4593987251262
 30
0.0
 10
157.529880889521
 20
466.4629465915546
 30
0.0
 10
158.6399124239567
 20
466.4629465843308
 30
0.0
  0
LINE
  5
C9
330
97
100
AcDbEntity
  8
DV1_Standard
 62
     7
100
AcDbLine
 10
142.6693036727
 20
435.0685644737
 30
0.0
 11
142.6693036727
 21
450.4923150903
 31
0.0
  0
SPLINE
  5
CA
330
97
100
AcDbEntity
  8
DV1_Standard
 62
     7
100
AcDbSpline
210
0.0
220
0.0
230
1.0
 70
     8
 71
     3
 72
    18
 73
    14
 74
     0
 42
0.000000001
 43
0.0000000001
 40
0.0
 40
0.0
 40
0.0
 40
0.0
 40
0.1421447332333039
 40
0.1421447332333039
 40
0.2136326721305286
 40
0.2136326721305286
 40
0.2851206110277532
 40
0.2851206110277532
 40
0.4280964888222027
 40
0.4280964888222027
 40
0.7140482444111017
 40
0.7140482444111017
 40
1.0
 40
1.0
 40
1.0
 40
1.0
 10
145.1368589668988
 20
423.9132155985139
 30
0.0
 10
144.8132966235385
 20
424.3634233430938
 30
0.0
 10
144.5287471669988
 20
424.8346758414907
 30
0.0
 10
144.1531658472945
 20
425.5710230721984
 30
0.0
 10
144.0363412606232
 20
425.8222044143276
 30
0.0
 10
143.8193722347937
 20
426.3335648843577
 30
0.0
 10
143.7190136654824
 20
426.5944892041543
 30
0.0
 10
143.4435521830465
 20
427.3849087913653
 30
0.0
 10
143.2950293622496
 20
427.9181474607251
 30
0.0
 10
142.9331785498217
 20
429.5328635316067
 30
0.0
 10
142.8042889719923
 20
430.6294701383771
 30
0.0
 10
142.6724105794239
 20
432.8452415502433
 30
0.0
 10
142.6692681053158
 20
433.9587883634311
 30
0.0
 10
142.6693036727289
 20
435.0685644737367
 30
0.0
  0
SPLINE
  5
CB
330
97
100
AcDbEntity
  8
DV1_Standard
 62
     7
100
AcDbSpline
210
0.0
220
0.0
230
1.0
 70
     8
 71
     3
 72
    22
 73
    18
 74
     0
 42
0.000000001
 43
0.0000000001
 40
0.0
 40
0.0
 40
0.0
 40
0.0
 40
0.2852752577911769
 40
0.2852752577911769
 40
0.5705505155823537
 40
0.5705505155823537
 40
0.6418693300301479
 40
0.6418693300301479
 40
0.713188144477942
 40
0.713188144477942
 40
0.8558257733735306
 40
0.8558257733735306
 40
0.9271445878213248
 40
0.9271445878213248
 40
0.9984634022691191
 40
0.9984634022691191
 40
1.0
 40
1.0
 40
1.0
 40
1.0
 10
190.0307279476278
 20
435.068564459704
 30
0.0
 10
190.0307279553367
 20
433.9614067913372
 30
0.0
 10
190.028740024049
 20
432.8544337461241
 30
0.0
 10
189.897845453871
 20
430.6506487605977
 30
0.0
 10
189.7708315523409
 20
429.553697451917
 30
0.0
 10
189.4669751178882
 20
428.1941528043188
 30
0.0
 10
189.3989472530461
 20
427.9233817736892
 30
0.0
 10
189.248315316627
 20
427.3889613758449
 30
0.0
 10
189.1655633002545
 20
427.1246813862981
 30
0.0
 10
188.8929839105283
 20
426.3414261431965
 30
0.0
 10
188.6790500499137
 20
425.8319501631012
 30
0.0
 10
188.3018623637438
 20
425.089916305914
 30
0.0
 10
188.1664047701275
 20
424.8457095818427
 30
0.0
 10
187.8765315091146
 20
424.3677991399143
 30
0.0
 10
187.7234138262592
 20
424.1361002069407
 30
0.0
 10
187.5585767875816
 20
423.9068777576778
 30
0.0
 10
187.5550963965197
 20
423.9020465872484
 30
0.0
 10
187.551612200962
 20
423.8972187912647
 30
0.0
  0
LINE
  5
CC
330
97
100
AcDbEntity
  8
DV1_Standard
 62
     7
100
AcDbLine
 10
190.0307279476
 20
450.4923150948
 30
0.0
 11
190.0307279476
 21
435.0685644597
 31
0.0
  0
SPLINE
  5
CD
330
97
100
AcDbEntity
  8
DV1_Standard
 62
     7
100
AcDbSpline
210
0.0
220
0.0
230
1.0
 70
     8
 71
     3
 72
    38
 73
    34
 74
     0
 42
0.000000001
 43
0.0000000001
 40
0.0
 40
0.0
 40
0.0
 40
0.0
 40
0.125
 40
0.125
 40
0.25
 40
0.25
 40
0.28125
 40
0.28125
 40
0.3125
 40
0.3125
 40
0.375
 40
0.375
 40
0.40625
 40
0.40625
 40
0.4375
 40
0.4375
 40
0.5
 40
0.5
 40
0.53125
 40
0.53125
 40
0.5625
 40
0.5625
 40
0.625
 40
0.625
 40
0.6562499999999999
 40
0.6562499999999999
 40
0.6874999999999999
 40
0.6874999999999999
 40
0.75
 40
0.75
 40
0.875
 40
0.875
 40
1.0
 40
1.0
 40
1.0
 40
1.0
 10
174.0600875901411
 20
466.4629465843308
 30
0.0
 10
175.1675233357654
 20
466.4629465921506
 30
0.0
 10
176.2747614892434
 20
466.4609863578579
 30
0.0
 10
178.4790685091666
 20
466.3300080438043
 30
0.0
 10
179.5762733161101
 20
466.2029311967273
 30
0.0
 10
180.9361289712307
 20
465.899093943044
 30
0.0
 10
181.2069994201964
 20
465.8311089639637
 30
0.0
 10
181.7415493518932
 20
465.6804201568779
 30
0.0
 10
182.0058782896546
 20
465.5976054367302
 30
0.0
 10
182.7892897495986
 20
465.3248808150028
 30
0.0
 10
183.2988987624617
 20
465.1109487005017
 30
0.0
 10
184.0410784062872
 20
464.7336715384592
 30
0.0
 10
184.2853192072786
 20
464.5981922956968
 30
0.0
 10
184.7633490566023
 20
464.3082390535535
 30
0.0
 10
184.9950988806676
 20
464.1550732530745
 30
0.0
 10
185.6684353884539
 20
463.6708756847833
 30
0.0
 10
186.0882034844723
 20
463.315250130998
 30
0.0
 10
186.673253309159
 20
462.7315363236892
 30
0.0
 10
186.8608191619679
 20
462.5285666061385
 30
0.0
 10
187.2208002295499
 20
462.1055494593855
 30
0.0
 10
187.3939409129244
 20
461.8843935085704
 30
0.0
 10
187.8829254288717
 20
461.2053514479063
 30
0.0
 10
188.1694089931899
 20
460.7313428939046
 30
0.0
 10
188.5465454101713
 20
459.9919579374993
 30
0.0
 10
188.6634333851506
 20
459.7407355821078
 30
0.0
 10
188.8805317683913
 20
459.2292931978799
 30
0.0
 10
188.9809471581664
 20
458.9683193500752
 30
0.0
 10
189.2564770121311
 20
458.17772208479
 30
0.0
 10
189.4048773838917
 20
457.6443349062667
 30
0.0
 10
189.7667375103853
 20
456.029240913056
 30
0.0
 10
189.8956644799936
 20
454.9323881029638
 30
0.0
 10
190.0275842904855
 20
452.7161184831096
 30
0.0
 10
190.0307279549524
 20
451.6023376279055
 30
0.0
 10
190.0307279476259
 20
450.4923150948249
 30
0.0
  0
SPLINE
  5
CE
330
97
100
AcDbEntity
  8
DV1_Standard
 62
     7
100
AcDbSpline
210
0.0
220
0.0
230
1.0
 70
     8
 71
     3
 72
    20
 73
    16
 74
     0
 42
0.000000001
 43
0.0000000001
 40
0.0
 40
0.0
 40
0.0
 40
0.0
 40
0.118826640376666
 40
0.118826640376666
 40
0.2681722914040897
 40
0.2681722914040897
 40
0.417517942431513
 40
0.417517942431513
 40
0.5668635934589367
 40
0.5668635934589367
 40
0.7162092444863603
 40
0.7162092444863603
 40
0.8655548955137837
 40
0.8655548955137837
 40
1.0
 40
1.0
 40
1.0
 40
1.0
 10
139.0506283112011
 20
428.8179470058853
 30
0.0
 10
139.1330505198093
 20
428.3118749774363
 30
0.0
 10
139.2327310733897
 20
427.8081773627988
 30
0.0
 10
139.5022696224922
 20
426.6809937255819
 30
0.0
 10
139.6841632228578
 20
426.0591465769476
 30
0.0
 10
140.117081146381
 20
424.840931230257
 30
0.0
 10
140.3668595226816
 20
424.2474241576707
 30
0.0
 10
140.936659324122
 20
423.0980120865913
 30
0.0
 10
141.2569534615713
 20
422.5411093045051
 30
0.0
 10
141.9755816875694
 20
421.4648883529619
 30
0.0
 10
142.3731662672846
 20
420.9477972286404
 30
0.0
 10
143.2262122938004
 20
419.9823214141633
 30
0.0
 10
143.6827794906054
 20
419.5317295674085
 30
0.0
 10
144.606388177794
 20
418.7360844011171
 30
0.0
 10
145.0688436991431
 20
418.3844048762655
 30
0.0
 10
145.5533629767744
 20
418.060129761877
 30
0.0
  0
SPLINE
  5
CF
330
97
100
AcDbEntity
  8
DV1_Standard
 62
     7
100
AcDbSpline
210
0.0
220
0.0
230
1.0
 70
     8
 71
     3
 72
    12
 73
     8
 74
     0
 42
0.000000001
 43
0.0000000001
 40
0.0
 40
0.0
 40
0.0
 40
0.0
 40
0.2289402661444824
 40
0.2289402661444824
 40
0.4859601774296547
 40
0.4859601774296547
 40
1.0
 40
1.0
 40
1.0
 40
1.0
 10
187.1457305525672
 20
418.0593679080663
 30
0.0
 10
187.9693887723397
 20
418.6108374926488
 30
0.0
 10
188.7264288627756
 20
419.2391123664824
 30
0.0
 10
190.181315492029
 20
420.7257872776362
 30
0.0
 10
190.8690242926645
 20
421.6187221585533
 30
0.0
 10
192.5867260970407
 20
424.4622061017016
 30
0.0
 10
193.2908946676379
 20
426.6121940902205
 30
0.0
 10
193.6493737500754
 20
428.816480173499
 30
0.0
  0
ARC
  5
D0
330
97
100
AcDbEntity
  8
DV1_Standard
 62
     7
100
AcDbCircle
 10
134.759264538
 20
428.5564704769
 30
0.0
 40
4.299322389579735
100
AcDbArc
 50
3.4867710062
 51
95.76365877
  0
ARC
  5
D1
330
97
100
AcDbEntity
  8
DV1_Standard
 62
     7
100
AcDbCircle
 10
197.9636050224
 20
428.5297075529
 30
0.0
 40
4.323751843820984
100
AcDbArc
 50
84.5701831851
 51
176.1970686806
  0
LINE
  5
D2
330
97
100
AcDbEntity
  8
DV1_Standard
 62
     7
100
AcDbLine
 10
88.2401181849
 20
432.8340580982
 30
0.0
 11
134.327504013
 21
432.8340580982
 31
0.0
  0
LINE
  5
D3
330
97
100
AcDbEntity
  8
DV1_Standard
 62
     7
100
AcDbLine
 10
198.3727460618
 20
432.8340580982
 30
0.0
 11
244.4599134361
 21
432.8340580982
 31
0.0
  0
SPLINE
  5
D4
330
97
100
AcDbEntity
  8
DV1_Standard
 62
     7
100
AcDbSpline
210
0.0
220
0.0
230
1.0
 70
     8
 71
     3
 72
    18
 73
    14
 74
     0
 42
0.000000001
 43
0.0000000001
 40
0.0
 40
0.0
 40
0.0
 40
0.0
 40
0.2500000000000002
 40
0.2500000000000002
 40
0.3750000000000004
 40
0.3750000000000004
 40
0.5000000000000007
 40
0.5000000000000007
 40
0.6250000000000009
 40
0.6250000000000009
 40
0.7500000000000011
 40
0.7500000000000011
 40
1.0
 40
1.0
 40
1.0
 40
1.0
 10
73.02547531429045
 20
448.0509858888851
 30
0.0
 10
73.02547530809704
 20
445.9093318792613
 30
0.0
 10
73.03280518531123
 20
443.7581604283234
 30
0.0
 10
73.5969011583641
 20
440.591718244971
 30
0.0
 10
73.87231343359545
 20
439.5621166999571
 30
0.0
 10
74.72955477283253
 20
437.5936642426602
 30
0.0
 10
75.30917358632692
 20
436.681445942473
 30
0.0
 10
76.83383690774748
 20
435.1471034631932
 30
0.0
 10
77.74169809049957
 20
434.5620965246505
 30
0.0
 10
79.71167215785776
 20
433.6939185049391
 30
0.0
 10
80.74815707691349
 20
433.4133512723387
 30
0.0
 10
83.9266047407765
 20
432.8417478875646
 30
0.0
 10
86.08817246647182
 20
432.834058092334
 30
0.0
 10
88.24011818487178
 20
432.8340580982482
 30
0.0
  0
SPLINE
  5
D5
330
97
100
AcDbEntity
  8
DV1_Standard
 62
     7
100
AcDbSpline
210
0.0
220
0.0
230
1.0
 70
     8
 71
     3
 72
    18
 73
    14
 74
     0
 42
0.000000001
 43
0.0000000001
 40
0.0
 40
0.0
 40
0.0
 40
0.0
 40
0.2500000000000012
 40
0.2500000000000012
 40
0.3750000000000009
 40
0.3750000000000009
 40
0.5000000000000008
 40
0.5000000000000008
 40
0.6250000000000006
 40
0.6250000000000006
 40
0.7500000000000003
 40
0.7500000000000003
 40
1.0
 40
1.0
 40
1.0
 40
1.0
 10
244.4599134360793
 20
432.8340580982484
 30
0.0
 10
246.6031168082628
 20
432.834058092124
 30
0.0
 10
248.7459196643105
 20
432.840194638184
 30
0.0
 10
251.9237551093883
 20
433.4066286382576
 30
0.0
 10
252.9624990693044
 20
433.6856212416409
 30
0.0
 10
254.9350074616535
 20
434.5487795017336
 30
0.0
 10
255.8446002877894
 20
435.130912991068
 30
0.0
 10
257.376530383209
 20
436.6616120713025
 30
0.0
 10
257.9584842803738
 20
437.5720660249987
 30
0.0
 10
258.8207345560348
 20
439.5402532578319
 30
0.0
 10
259.0978946410857
 20
440.5698462533281
 30
0.0
 10
259.6659965220045
 20
443.7364581783586
 30
0.0
 10
259.6745563121062
 20
445.9018795938497
 30
0.0
 10
259.6745563060726
 20
448.0509858895023
 30
0.0
  0
LINE
  5
D6
330
97
100
AcDbEntity
  8
DV1_Standard
 62
     7
100
AcDbLine
 10
73.0254753143
 20
455.3472344741
 30
0.0
 11
73.0254753143
 21
448.0509858889
 31
0.0
  0
LINE
  5
D7
330
97
100
AcDbEntity
  8
DV1_Standard
 62
     7
100
AcDbLine
 10
259.6745563061
 20
448.0509858895
 30
0.0
 11
259.6745563061
 21
455.3472344748
 31
0.0
  0
SPLINE
  5
D8
330
97
100
AcDbEntity
  8
DV1_Standard
 62
     7
100
AcDbSpline
210
0.0
220
0.0
230
1.0
 70
     8
 71
     3
 72
    18
 73
    14
 74
     0
 42
0.000000001
 43
0.0000000001
 40
0.0
 40
0.0
 40
0.0
 40
0.0
 40
0.2499999999999988
 40
0.2499999999999988
 40
0.3749999999999989
 40
0.3749999999999989
 40
0.4999999999999991
 40
0.4999999999999991
 40
0.6249999999999992
 40
0.6249999999999992
 40
0.7499999999999994
 40
0.7499999999999994
 40
1.0
 40
1.0
 40
1.0
 40
1.0
 10
88.24013961916054
 20
470.5619731547606
 30
0.0
 10
86.09748211198185
 20
470.5621664286569
 30
0.0
 10
83.95525524828155
 20
470.5556053521502
 30
0.0
 10
80.77875363091202
 20
469.9900320732784
 30
0.0
 10
79.73921714250577
 20
469.7109951448181
 30
0.0
 10
77.76734500966663
 20
468.8486259767706
 30
0.0
 10
76.85777625063886
 20
468.2677710500148
 30
0.0
 10
75.32469307180857
 20
466.7359928705477
 30
0.0
 10
74.74262827112341
 20
465.8262930400846
 30
0.0
 10
73.87940393365979
 20
463.8576809912317
 30
0.0
 10
73.60238703490015
 20
462.8280649388409
 30
0.0
 10
73.0340242071454
 20
459.6622261035518
 30
0.0
 10
73.02547530759455
 20
457.4963105735178
 30
0.0
 10
73.02547531429012
 20
455.347234474143
 30
0.0
  0
SPLINE
  5
D9
330
97
100
AcDbEntity
  8
DV1_Standard
 62
     7
100
AcDbSpline
210
0.0
220
0.0
230
1.0
 70
     8
 71
     3
 72
    18
 73
    14
 74
     0
 42
0.000000001
 43
0.0000000001
 40
0.0
 40
0.0
 40
0.0
 40
0.0
 40
0.2499999999999996
 40
0.2499999999999996
 40
0.3749999999999994
 40
0.3749999999999994
 40
0.4999999999999992
 40
0.4999999999999992
 40
0.624999999999999
 40
0.624999999999999
 40
0.7499999999999989
 40
0.7499999999999989
 40
1.0
 40
1.0
 40
1.0
 40
1.0
 10
259.6745563060729
 20
455.3472344748152
 30
0.0
 10
259.6745563141482
 20
457.4904769850184
 30
0.0
 10
259.6685235740684
 20
459.6333354308972
 30
0.0
 10
259.1018221467331
 20
462.8121211346919
 30
0.0
 10
258.8233934858573
 20
463.8494227415108
 30
0.0
 10
257.959930293807
 20
465.8224400502151
 30
0.0
 10
257.3778013953786
 20
466.7324948687003
 30
0.0
 10
255.8484314274566
 20
468.2626687720197
 30
0.0
 10
254.9376951720762
 20
468.8453237793337
 30
0.0
 10
252.9706344989229
 20
469.7077559500663
 30
0.0
 10
251.9410848883659
 20
469.9850512104459
 30
0.0
 10
248.7736102489972
 20
470.5532880397081
 30
0.0
 10
246.6088721043847
 20
470.5621849258731
 30
0.0
 10
244.4598920866895
 20
470.5619737192608
 30
0.0
  0
LINE
  5
DA
330
97
100
AcDbEntity
  8
DV1_Standard
 62
     7
100
AcDbLine
 10
244.4599134352
 20
470.5620386072
 30
0.0
 11
88.2401181843
 21
470.5620386072
 31
0.0
  0
LINE
  5
DB
330
97
100
AcDbEntity
  8
DV1_Standard
 62
     7
100
AcDbLine
 10
76.2567608302
 20
486.2822334837
 30
0.0
 11
106.35
 21
486.282234475
 31
0.0
  0
LINE
  5
DC
330
97
100
AcDbEntity
  8
DV1_Standard
 62
     7
100
AcDbLine
 10
226.2567608302
 20
486.2822334837
 30
0.0
 11
256.35
 21
486.282234475
 31
0.0
  0
ENDBLK
  5
DE
330
97
100
AcDbEntity
  8
0
100
AcDbBlockEnd
  0
BLOCK
  5
186
330
DF
100
AcDbEntity
  8
0
100
AcDbBlockBegin
  2
SE1
 70
     0
 10
0.0
 20
0.0
 30
0.0
  3
SE1
  1

  0
LINE
  5
E2
330
DF
100
AcDbEntity
  8
DV2_Standard
 62
     7
100
AcDbLine
 10
412.4339649714
 20
396.3522344469
 30
0.0
 11
415.4139649714
 21
396.3522344469
 31
0.0
  0
LINE
  5
E3
330
DF
100
AcDbEntity
  8
DV2_Standard
 62
     7
100
AcDbLine
 10
415.1139649714
 20
396.0522344469
 30
0.0
 11
412.7339649714
 21
396.0522344469
 31
0.0
  0
LINE
  5
E4
330
DF
100
AcDbEntity
  8
DV2_Standard
 62
     7
100
AcDbLine
 10
415.4139649714
 20
396.3522344469
 30
0.0
 11
415.4139649714
 21
399.2822344469
 31
0.0
  0
LINE
  5
E5
330
DF
100
AcDbEntity
  8
DV2_Standard
 62
     7
100
AcDbLine
 10
412.4339649714
 20
399.2822344469
 30
0.0
 11
412.4339649714
 21
396.3522344469
 31
0.0
  0
LINE
  5
E6
330
DF
100
AcDbEntity
  8
DV2_Standard
 62
     7
100
AcDbLine
 10
412.4339649714
 20
396.3522344469
 30
0.0
 11
412.7339649714
 21
396.0522344469
 31
0.0
  0
LINE
  5
E7
330
DF
100
AcDbEntity
  8
DV2_Standard
 62
     7
100
AcDbLine
 10
415.1139649714
 20
396.0522344469
 30
0.0
 11
415.4139649714
 21
396.3522344469
 31
0.0
  0
LINE
  5
E8
330
DF
100
AcDbEntity
  8
DV2_Standard
 62
     7
100
AcDbLine
 10
358.9639649714
 20
416.282234475
 30
0.0
 11
383.241509906
 21
416.4941023652
 31
0.0
  0
LINE
  5
E9
330
DF
100
AcDbEntity
  8
DV2_Standard
 62
     7
100
AcDbLine
 10
358.9639649715
 20
486.282234475
 30
0.0
 11
358.9639649714
 21
416.282234475
 31
0.0
  0
ARC
  5
EA
330
DF
100
AcDbEntity
  8
DV2_Standard
 62
     7
100
AcDbCircle
 10
383.2808025464
 20
485.5888303794
 30
0.0
 40
0.4831377181575555
100
AcDbArc
 50
357.1207162972
 51
7.0399657719
  0
SPLINE
  5
EB
330
DF
100
AcDbEntity
  8
DV2_Standard
 62
     7
100
AcDbSpline
210
0.0
220
0.0
230
1.0
 70
     8
 71
     3
 72
    16
 73
    12
 74
     0
 42
0.000000001
 43
0.0000000001
 40
0.0
 40
0.0
 40
0.0
 40
0.0
 40
0.2499999999999999
 40
0.2499999999999999
 40
0.3749999999999998
 40
0.3749999999999998
 40
0.4999999999999998
 40
0.4999999999999998
 40
0.7499999999999999
 40
0.7499999999999999
 40
1.0
 40
1.0
 40
1.0
 40
1.0
 10
384.4207070504316
 20
437.7643677419676
 30
0.0
 10
384.4207090700382
 20
437.7643678422093
 30
0.0
 10
384.4226243389779
 20
438.1160411700961
 30
0.0
 10
384.4257064696742
 20
439.1333845791773
 30
0.0
 10
384.4266992904117
 20
439.5483524673406
 30
0.0
 10
384.4280702191938
 20
440.5284721752664
 30
0.0
 10
384.4284320118264
 20
441.0988630700502
 30
0.0
 10
384.4282788515669
 20
442.9676999824406
 30
0.0
 10
384.4263879908835
 20
444.4738984389386
 30
0.0
 10
384.4224606214263
 20
447.723657047962
 30
0.0
 10
384.4207040137597
 20
449.4972724593631
 30
0.0
 10
384.4207022887314
 20
451.282234474967
 30
0.0
  0
SPLINE
  5
EC
330
DF
100
AcDbEntity
  8
DV2_Standard
 62
     7
100
AcDbSpline
210
0.0
220
0.0
230
1.0
 70
     8
 71
     3
 72
    16
 73
    12
 74
     0
 42
0.000000001
 43
0.0000000001
 40
0.0
 40
0.0
 40
0.0
 40
0.0
 40
0.315241111355447
 40
0.315241111355447
 40
0.4728616670331705
 40
0.4728616670331705
 40
0.6304822227108939
 40
0.6304822227108939
 40
0.9457233340663412
 40
0.9457233340663412
 40
1.0
 40
1.0
 40
1.0
 40
1.0
 10
384.4207022887314
 20
451.282234474967
 30
0.0
 10
384.4207040137594
 20
453.0672006634276
 30
0.0
 10
384.4224347877234
 20
454.8185781188751
 30
0.0
 10
384.4253988649032
 20
457.2725282306892
 30
0.0
 10
384.4263904216126
 20
458.0484479754223
 30
0.0
 10
384.4278616287351
 20
459.5169976130433
 30
0.0
 10
384.4283264958856
 20
460.2124108144375
 30
0.0
 10
384.4284881514801
 20
462.0825888266157
 30
0.0
 10
384.4267343907679
 20
463.0902375627637
 30
0.0
 10
384.4243416364642
 20
463.8818468536222
 30
0.0
 10
384.4239930982434
 20
463.9887508249882
 30
0.0
 10
384.4236568841654
 20
464.0860633641672
 30
0.0
  0
SPLINE
  5
ED
330
DF
100
AcDbEntity
  8
DV2_Standard
 62
     7
100
AcDbSpline
210
0.0
220
0.0
230
1.0
 70
     8
 71
     3
 72
     8
 73
     4
 74
     0
 42
0.000000001
 43
0.0000000001
 40
0.0
 40
0.0
 40
0.0
 40
0.0
 40
1.0
 40
1.0
 40
1.0
 40
1.0
 10
384.4207070504316
 20
464.8001012079663
 30
0.0
 10
384.4207080730736
 20
464.8001011572082
 30
0.0
 10
384.4211996477735
 20
464.7099330230138
 30
0.0
 10
384.4219514892135
 20
464.5328577897441
 30
0.0
  0
ARC
  5
EE
330
DF
100
AcDbEntity
  8
DV2_Standard
 62
     7
100
AcDbCircle
 10
-335.482136754
 20
449.7234472549
 30
0.0
 40
719.9899700230086
100
AcDbArc
 50
357.3951307655
 51
359.105955525
  0
ARC
  5
EF
330
DF
100
AcDbEntity
  8
DV2_Standard
 62
     7
100
AcDbCircle
 10
-344.8927044873
 20
452.5210532565
 30
0.0
 40
729.4054403905603
100
AcDbArc
 50
0.9050160237
 51
2.5967454837
  0
ARC
  5
F0
330
DF
100
AcDbEntity
  8
DV2_Standard
 62
     7
100
AcDbCircle
 10
383.186292977
 20
485.5815603906
 30
0.0
 40
0.5729833979406657
100
AcDbArc
 50
3.6807352334
 51
20.7040676571
  0
ARC
  5
F1
330
DF
100
AcDbEntity
  8
DV2_Standard
 62
     7
100
AcDbCircle
 10
383.258867163
 20
485.6015372543
 30
0.0
 40
0.4973537994363027
100
AcDbArc
 50
33.8788437911
 51
36.3944004731
  0
ARC
  5
F2
330
DF
100
AcDbEntity
  8
DV2_Standard
 62
     7
100
AcDbCircle
 10
383.2783763798
 20
485.5782131415
 30
0.0
 40
0.4934907559421853
100
AcDbArc
 50
35.5157775576
 51
94.2905506333
  0
LINE
  5
F3
330
DF
100
AcDbEntity
  8
DV2_Standard
 62
     7
100
AcDbLine
 10
383.241509906
 20
486.07036755
 30
0.0
 11
358.9639649714
 21
486.282234475
 31
0.0
  0
SPLINE
  5
F4
330
DF
100
AcDbEntity
  8
DV2_Standard
 62
     7
100
AcDbSpline
210
0.0
220
0.0
230
1.0
 70
     8
 71
     3
 72
    32
 73
    28
 74
     0
 42
0.000000001
 43
0.0000000001
 40
0.0
 40
0.0
 40
0.0
 40
0.0
 40
0.1356259959576051
 40
0.2687488876846644
 40
0.3991778471657835
 40
0.5185824848844642
 40
0.6244056938788795
 40
0.6487570087951734
 40
0.6703734113680395
 40
0.6830590807744632
 40
0.6859205763601132
 40
0.6862972596111883
 40
0.6864423641077553
 40
0.6865642643656499
 40
0.6866710191534415
 40
0.6867742952431015
 40
0.6868868459736187
 40
0.6870187611981347
 40
0.687363001198886
 40
0.6891855824533394
 40
0.6936186655537029
 40
0.7095116393849363
 40
0.7348353647691725
 40
0.7696059688044966
 40
0.830668569091144
 40
0.9085377199428972
 40
0.9999999999999999
 40
0.9999999999999999
 40
0.9999999999999999
 40
0.9999999999999999
 10
383.2414550624937
 20
416.4941755553173
 30
0.0
 10
383.3493898217444
 20
416.5122296304781
 30
0.0
 10
383.5226227363731
 20
416.5368118030195
 30
0.0
 10
383.5760607000032
 20
416.5909724017059
 30
0.0
 10
383.4826830010439
 20
416.5327626206229
 30
0.0
 10
383.4394991131209
 20
416.5229166537145
 30
0.0
 10
383.4838333802793
 20
416.5344849429598
 30
0.0
 10
383.5384342925292
 20
416.561752953768
 30
0.0
 10
383.5615790706058
 20
416.5750162928812
 30
0.0
 10
383.5850973802184
 20
416.5910934519451
 30
0.0
 10
383.6032412430591
 20
416.6052463595004
 30
0.0
 10
383.612880447727
 20
416.6136708321215
 30
0.0
 10
383.6153761904837
 20
416.615903160822
 30
0.0
 10
383.6171099402095
 20
416.6174735952662
 30
0.0
 10
383.618896979615
 20
416.6191135259272
 30
0.0
 10
383.6207006653838
 20
416.620791180165
 30
0.0
 10
383.6224506739107
 20
416.6224408276399
 30
0.0
 10
383.6249353953424
 20
416.6248137431976
 30
0.0
 10
383.6319668115825
 20
416.6316874583712
 30
0.0
 10
383.6412720597905
 20
416.6415307263517
 30
0.0
 10
383.6609299293584
 20
416.6640130530429
 30
0.0
 10
383.6796447309872
 20
416.690929567456
 30
0.0
 10
383.7016723261454
 20
416.7283965332377
 30
0.0
 10
383.7235917437732
 20
416.7778776041885
 30
0.0
 10
383.7435054867835
 20
416.8408812365064
 30
0.0
 10
383.7584843569752
 20
416.918944573867
 30
0.0
 10
383.7623378616424
 20
416.9675940665883
 30
0.0
 10
383.764251470051
 20
416.9981550059688
 30
0.0
  0
LINE
  5
F5
330
DF
100
AcDbEntity
  8
DV2_Standard
 62
     7
100
AcDbLine
 10
385.9239649714
 20
464.502234475
 30
0.0
 11
384.4147794617
 21
464.502234475
 31
0.0
  0
LINE
  5
F6
330
DF
100
AcDbEntity
  8
DV2_Standard
 62
     7
100
AcDbLine
 10
384.4219960119
 20
438.062234475
 30
0.0
 11
385.9239649714
 21
438.062234475
 31
0.0
  0
LINE
  5
F7
330
DF
100
AcDbEntity
  8
DV2_Standard
 62
     7
100
AcDbLine
 10
384.4147794617
 20
463.332234475
 30
0.0
 11
385.9239649714
 21
463.332234475
 31
0.0
  0
LINE
  5
F8
330
DF
100
AcDbEntity
  8
DV2_Standard
 62
     7
100
AcDbLine
 10
384.4219960119
 20
439.232234475
 30
0.0
 11
385.9239649714
 21
439.232234475
 31
0.0
  0
LINE
  5
F9
330
DF
100
AcDbEntity
  8
DV2_Standard
 62
     7
100
AcDbLine
 10
401.9239649714
 20
436.782234475
 30
0.0
 11
401.9239649714
 21
465.782234475
 31
0.0
  0
LINE
  5
FA
330
DF
100
AcDbEntity
  8
DV2_Standard
 62
     7
100
AcDbLine
 10
385.9239649714
 20
436.782234475
 30
0.0
 11
385.9239649714
 21
465.782234475
 31
0.0
  0
LINE
  5
FB
330
DF
100
AcDbEntity
  8
DV2_Standard
 62
     7
100
AcDbLine
 10
389.4239649714
 20
466.282234475
 30
0.0
 11
389.4239649714
 21
464.1948932486
 31
0.0
  0
LINE
  5
FC
330
DF
100
AcDbEntity
  8
DV2_Standard
 62
     7
100
AcDbLine
 10
389.4239649714
 20
453.3695757013
 30
0.0
 11
389.4239649714
 21
449.1948932486
 31
0.0
  0
LINE
  5
FD
330
DF
100
AcDbEntity
  8
DV2_Standard
 62
     7
100
AcDbLine
 10
389.4239649714
 20
438.3695757013
 30
0.0
 11
389.4239649714
 21
436.282234475
 31
0.0
  0
LINE
  5
FE
330
DF
100
AcDbEntity
  8
DV2_Standard
 62
     7
100
AcDbLine
 10
389.4239649714
 20
436.282234475
 30
0.0
 11
386.6282362423
 21
436.282234475
 31
0.0
  0
LINE
  5
FF
330
DF
100
AcDbEntity
  8
DV2_Standard
 62
     7
100
AcDbLine
 10
386.6282362423
 20
466.282234475
 30
0.0
 11
389.4239649714
 21
466.282234475
 31
0.0
  0
ARC
  5
100
330
DF
100
AcDbEntity
  8
DV2_Standard
 62
     7
100
AcDbCircle
 10
393.2025244906
 20
458.782234475
 30
0.0
 40
6.601089837288603
100
AcDbArc
 50
124.9187681795
 51
235.0812318204
  0
ARC
  5
101
330
DF
100
AcDbEntity
  8
DV2_Standard
 62
     7
100
AcDbCircle
 10
393.2025244906
 20
443.782234475
 30
0.0
 40
6.601089837288587
100
AcDbArc
 50
124.9187681796
 51
235.0812318205
  0
LINE
  5
102
330
DF
100
AcDbEntity
  8
DV2_Standard
 62
     7
100
AcDbLine
 10
398.4239649714
 20
466.282234475
 30
0.0
 11
398.4239649714
 21
464.1948932486
 31
0.0
  0
LINE
  5
103
330
DF
100
AcDbEntity
  8
DV2_Standard
 62
     7
100
AcDbLine
 10
398.4239649714
 20
453.3695757013
 30
0.0
 11
398.4239649714
 21
449.1948932486
 31
0.0
  0
LINE
  5
104
330
DF
100
AcDbEntity
  8
DV2_Standard
 62
     7
100
AcDbLine
 10
398.4239649714
 20
438.3695757013
 30
0.0
 11
398.4239649714
 21
436.282234475
 31
0.0
  0
LINE
  5
105
330
DF
100
AcDbEntity
  8
DV2_Standard
 62
     7
100
AcDbLine
 10
389.4239649714
 20
438.3695757013
 30
0.0
 11
398.4239649714
 21
438.3695757013
 31
0.0
  0
ARC
  5
106
330
DF
100
AcDbEntity
  8
DV2_Standard
 62
     7
100
AcDbCircle
 10
394.6454054523
 20
443.782234475
 30
0.0
 40
6.601089837288569
100
AcDbArc
 50
304.9187681796
 51
55.0812318205
  0
LINE
  5
107
330
DF
100
AcDbEntity
  8
DV2_Standard
 62
     7
100
AcDbLine
 10
398.4239649714
 20
449.1948932486
 30
0.0
 11
389.4239649714
 21
449.1948932486
 31
0.0
  0
LINE
  5
108
330
DF
100
AcDbEntity
  8
DV2_Standard
 62
     7
100
AcDbLine
 10
389.4239649714
 20
453.3695757013
 30
0.0
 11
398.4239649714
 21
453.3695757013
 31
0.0
  0
ARC
  5
109
330
DF
100
AcDbEntity
  8
DV2_Standard
 62
     7
100
AcDbCircle
 10
394.6454054523
 20
458.782234475
 30
0.0
 40
6.60108983728859
100
AcDbArc
 50
304.9187681795
 51
55.0812318204
  0
LINE
  5
10A
330
DF
100
AcDbEntity
  8
DV2_Standard
 62
     7
100
AcDbLine
 10
398.4239649714
 20
464.1948932486
 30
0.0
 11
389.4239649714
 21
464.1948932486
 31
0.0
  0
LINE
  5
10B
330
DF
100
AcDbEntity
  8
DV2_Standard
 62
     7
100
AcDbLine
 10
389.4239649714
 20
466.282234475
 30
0.0
 11
398.4239649714
 21
466.282234475
 31
0.0
  0
LINE
  5
10C
330
DF
100
AcDbEntity
  8
DV2_Standard
 62
     7
100
AcDbLine
 10
398.4239649714
 20
466.282234475
 30
0.0
 11
401.2196937006
 21
466.282234475
 31
0.0
  0
LINE
  5
10D
330
DF
100
AcDbEntity
  8
DV2_Standard
 62
     7
100
AcDbLine
 10
401.2196937006
 20
436.282234475
 30
0.0
 11
398.4239649714
 21
436.282234475
 31
0.0
  0
LINE
  5
10E
330
DF
100
AcDbEntity
  8
DV2_Standard
 62
     7
100
AcDbLine
 10
398.4239649714
 20
436.282234475
 30
0.0
 11
389.4239649714
 21
436.282234475
 31
0.0
  0
ARC
  5
10F
330
DF
100
AcDbEntity
  8
DV2_Standard
 62
     7
100
AcDbCircle
 10
395.7882637732
 20
457.8858320785
 30
0.0
 40
10.0
100
AcDbArc
 50
52.1519040322
 51
57.1061964748
  0
ARC
  5
110
330
DF
100
AcDbEntity
  8
DV2_Standard
 62
     7
100
AcDbCircle
 10
395.7882637732
 20
444.6786368714
 30
0.0
 40
9.999999999999998
100
AcDbArc
 50
302.8975163168
 51
307.8480959678
  0
ARC
  5
111
330
DF
100
AcDbEntity
  8
DV2_Standard
 62
     7
100
AcDbCircle
 10
392.0596661697
 20
457.8858320785
 30
0.0
 40
9.999999999999996
100
AcDbArc
 50
122.8975163168
 51
127.8480959678
  0
ARC
  5
112
330
DF
100
AcDbEntity
  8
DV2_Standard
 62
     7
100
AcDbCircle
 10
392.0596661697
 20
444.6786368714
 30
0.0
 40
10.0
100
AcDbArc
 50
232.1519040322
 51
237.1061964748
  0
LINE
  5
113
330
DF
100
AcDbEntity
  8
DV2_Standard
 62
     7
100
AcDbLine
 10
457.1283282399
 20
466.0002297582
 30
0.0
 11
428.0239649714
 21
466.2542196885
 31
0.0
  0
LINE
  5
114
330
DF
100
AcDbEntity
  8
DV2_Standard
 62
     7
100
AcDbLine
 10
428.0239649714
 20
419.3102491492
 30
0.0
 11
457.1283282395
 21
419.5642390796
 31
0.0
  0
LINE
  5
115
330
DF
100
AcDbEntity
  8
DV2_Standard
 62
     7
100
AcDbLine
 10
457.6239649722
 20
465.5002487966
 30
0.0
 11
457.623964972
 21
450.4923150647
 31
0.0
  0
LINE
  5
116
330
DF
100
AcDbEntity
  8
DV2_Standard
 62
     7
100
AcDbLine
 10
457.623964972
 20
450.4923150647
 30
0.0
 11
457.6239649719
 21
435.0685644455
 31
0.0
  0
LINE
  5
117
330
DF
100
AcDbEntity
  8
DV2_Standard
 62
     7
100
AcDbLine
 10
457.6239649719
 20
435.0685644455
 30
0.0
 11
457.6239649718
 21
420.0642200411
 31
0.0
  0
ARC
  5
118
330
DF
100
AcDbEntity
  8
DV2_Standard
 62
     7
100
AcDbCircle
 10
457.1239649718
 20
420.0642200411
 30
0.0
 40
0.5000000000000073
100
AcDbArc
 50
270.5
 51
359.9999999994
  0
ARC
  5
119
330
DF
100
AcDbEntity
  8
DV2_Standard
 62
     7
100
AcDbCircle
 10
457.1239649722
 20
465.5002487966
 30
0.0
 40
0.4999999999999599
100
AcDbArc
 50
0.0
 51
89.5
  0
LINE
  5
11A
330
DF
100
AcDbEntity
  8
DV2_Standard
 62
     7
100
AcDbLine
 10
468.9826138049
 20
456.2219936026
 30
0.0
 11
468.9826138049
 21
456.4096952999
 31
0.0
  0
ARC
  5
11B
330
DF
100
AcDbEntity
  8
DV2_Standard
 62
     7
100
AcDbCircle
 10
452.2239649722
 20
442.7822344469
 30
0.0
 40
21.60000000000001
100
AcDbArc
 50
39.1166254538
 51
74.5160560935
  0
ARC
  5
11C
330
DF
100
AcDbEntity
  8
DV2_Standard
 62
     7
100
AcDbCircle
 10
452.2239649722
 20
442.7822344469
 30
0.0
 40
21.60000000000001
100
AcDbArc
 50
285.4839439054
 51
290.6426549892
  0
ARC
  5
11D
330
DF
100
AcDbEntity
  8
DV2_Standard
 62
     7
100
AcDbCircle
 10
458.1239649722
 20
464.080121666
 30
0.0
 40
0.4999999999999992
100
AcDbArc
 50
179.9999999995
 51
254.5160560935
  0
ARC
  5
11E
330
DF
100
AcDbEntity
  8
DV2_Standard
 62
     7
100
AcDbCircle
 10
458.1239649718
 20
421.4843472276
 30
0.0
 40
0.5000000000000004
100
AcDbArc
 50
105.4839439054
 51
179.9999999995
  0
LINE
  5
11F
330
DF
100
AcDbEntity
  8
DV2_Standard
 62
     7
100
AcDbLine
 10
402.9239649714
 20
461.782234475
 30
0.0
 11
401.9239649714
 21
461.782234475
 31
0.0
  0
LINE
  5
120
330
DF
100
AcDbEntity
  8
DV2_Standard
 62
     7
100
AcDbLine
 10
401.9239649714
 20
440.782234475
 30
0.0
 11
402.9239649714
 21
440.782234475
 31
0.0
  0
LINE
  5
121
330
DF
100
AcDbEntity
  8
DV2_Standard
 62
     7
100
AcDbLine
 10
402.9239649715
 20
429.010214987
 30
0.0
 11
402.9239649715
 21
429.155857231
 31
0.0
  0
LINE
  5
122
330
DF
100
AcDbEntity
  8
DV2_Standard
 62
     7
100
AcDbLine
 10
488.7816600786
 20
409.9025333642
 30
0.0
 11
492.5894344331
 21
380.9162442865
 31
0.0
  0
LINE
  5
123
330
DF
100
AcDbEntity
  8
DV2_Standard
 62
     7
100
AcDbLine
 10
492.5894344331
 20
380.9162442865
 30
0.0
 11
492.5934412166
 21
380.9173636116
 31
0.0
  0
LINE
  5
124
330
DF
100
AcDbEntity
  8
DV2_Standard
 62
     7
100
AcDbLine
 10
492.5934412166
 20
380.9173636116
 30
0.0
 11
488.7863197346
 21
409.9029398582
 31
0.0
  0
ELLIPSE
  5
125
330
DF
100
AcDbEntity
  8
DV2_Standard
 62
     7
100
AcDbEllipse
 10
438.4892149755
 20
949.045795972
 30
0.0
 11
78277.68809938751
 21
3998.394567889125
 31
0.0
210
0.0
220
0.0
230
1.0
 40
0.0067582475
 41
4.712322959568557
 42
4.712565895281327
  0
ARC
  5
126
330
DF
100
AcDbEntity
  8
DV2_Standard
 62
     7
100
AcDbCircle
 10
669.9633899626
 20
402.583403694
 30
0.0
 40
178.6930641346234
100
AcDbArc
 50
186.9644776442
 51
189.3829522461
  0
LINE
  5
127
330
DF
100
AcDbEntity
  8
DV2_Standard
 62
     7
100
AcDbLine
 10
486.1244549957
 20
464.0681296538
 30
0.0
 11
487.7910782466
 21
450.4945725334
 31
0.0
  0
LINE
  5
128
330
DF
100
AcDbEntity
  8
DV2_Standard
 62
     7
100
AcDbLine
 10
487.7910773955
 20
450.4945794654
 30
0.0
 11
490.0644083385
 21
431.9797847199
 31
0.0
  0
LINE
  5
129
330
DF
100
AcDbEntity
  8
DV2_Standard
 62
     7
100
AcDbLine
 10
490.0644070182
 20
431.9797954729
 30
0.0
 11
492.7119621163
 21
410.4171895672
 31
0.0
  0
LINE
  5
12A
330
DF
100
AcDbEntity
  8
DV2_Standard
 62
     7
100
AcDbLine
 10
492.7119621163
 20
410.4171895672
 30
0.0
 11
497.0149236968
 21
375.3723797887
 31
0.0
  0
LINE
  5
12B
330
DF
100
AcDbEntity
  8
DV2_Standard
 62
     7
100
AcDbLine
 10
497.0149236968
 20
375.3723797887
 30
0.0
 11
497.4987888558
 21
371.4316143099
 31
0.0
  0
ELLIPSE
  5
12C
330
DF
100
AcDbEntity
  8
DV2_Standard
 62
     7
100
AcDbEllipse
 10
445.8933734948
 20
-55.3136575658
 30
0.0
 11
58688.66978516395
 21
-2996.106163907612
 31
0.0
210
0.0
220
0.0
230
1.0
 40
0.0088697293
 41
1.570571786617291
 42
1.570755453173833
  0
LINE
  5
12D
330
DF
100
AcDbEntity
  8
DV2_Standard
 62
     7
100
AcDbLine
 10
497.7212931094
 20
370.2310887879
 30
0.0
 11
498.548544043
 21
366.9131665163
 31
0.0
  0
LINE
  5
12E
330
DF
100
AcDbEntity
  8
DV2_Standard
 62
     7
100
AcDbLine
 10
498.5485543566
 20
366.9131251509
 30
0.0
 11
500.7558528891
 21
358.0601342819
 31
0.0
  0
LINE
  5
12F
330
DF
100
AcDbEntity
  8
DV2_Standard
 62
     7
100
AcDbLine
 10
500.7558528891
 20
358.0601342819
 30
0.0
 11
503.6872388379
 21
346.3029874097
 31
0.0
  0
SPLINE
  5
130
330
DF
100
AcDbEntity
  8
DV2_Standard
 62
     7
100
AcDbSpline
210
0.0
220
0.0
230
1.0
 70
     8
 71
     3
 72
    16
 73
    12
 74
     0
 42
0.000000001
 43
0.0000000001
 40
0.0
 40
0.0
 40
0.0
 40
0.0
 40
0.2536228015400022
 40
0.2536228015400022
 40
0.5072456030800043
 40
0.5072456030800043
 40
0.7608684046200065
 40
0.7608684046200065
 40
0.8876798053900076
 40
0.8876798053900076
 40
1.0
 40
1.0
 40
1.0
 40
1.0
 10
496.7719426785413
 20
359.2538193399963
 30
0.0
 10
497.1037402370919
 20
357.976425349852
 30
0.0
 10
497.4326374127486
 20
356.6982867045186
 30
0.0
 10
498.0905483914047
 20
354.1420187358738
 30
0.0
 10
498.4183620145626
 20
352.8632512642193
 30
0.0
 10
499.1817065827104
 20
350.338974940253
 30
0.0
 10
499.6023675545444
 20
349.0628801175501
 30
0.0
 10
500.6026784775972
 20
347.372900419605
 30
0.0
 10
501.0060365202939
 20
346.8504912570436
 30
0.0
 10
501.9442365178841
 20
346.0896672457533
 30
0.0
 10
502.4508255591182
 20
345.8383362320687
 30
0.0
 10
502.9766132238342
 20
345.6994090268137
 30
0.0
  0
SPLINE
  5
131
330
DF
100
AcDbEntity
  8
DV2_Standard
 62
     7
100
AcDbSpline
210
0.0
220
0.0
230
1.0
 70
     8
 71
     3
 72
     8
 73
     4
 74
     0
 42
0.000000001
 43
0.0000000001
 40
0.0
 40
0.0
 40
0.0
 40
0.0
 40
1.0
 40
1.0
 40
1.0
 40
1.0
 10
503.1685795886662
 20
345.6825715155433
 30
0.0
 10
503.1045266515935
 20
345.6863820101956
 30
0.0
 10
503.040674686704
 20
345.6919707493573
 30
0.0
 10
502.9771174755841
 20
345.6993301640162
 30
0.0
  0
LINE
  5
132
330
DF
100
AcDbEntity
  8
DV2_Standard
 62
     7
100
AcDbLine
 10
497.7212931094
 20
370.2310887879
 30
0.0
 11
497.4987888558
 21
371.4316143099
 31
0.0
  0
ARC
  5
133
330
DF
100
AcDbEntity
  8
DV2_Standard
 62
     7
100
AcDbCircle
 10
503.2016086457
 20
346.1819732107
 30
0.0
 40
0.5004808886879569
100
AcDbArc
 50
266.536579832
 51
13.9925568112
  0
ARC
  5
134
330
DF
100
AcDbEntity
  8
DV2_Standard
 62
     7
100
AcDbCircle
 10
485.6204723307
 20
464.0664138719
 30
0.0
 40
0.500435146951043
100
AcDbArc
 50
6.9999970658
 51
87.0774255218
  0
LINE
  5
135
330
DF
100
AcDbEntity
  8
DV2_Standard
 62
     7
100
AcDbLine
 10
503.1730391413
 20
345.68229805
 30
0.0
 11
503.1713739543
 21
345.6824064156
 31
0.0
  0
LINE
  5
136
330
DF
100
AcDbEntity
  8
DV2_Standard
 62
     7
100
AcDbLine
 10
459.8184835977
 20
420.3095624404
 30
0.0
 11
459.8184835977
 21
435.0246399649
 31
0.0
  0
LINE
  5
137
330
DF
100
AcDbEntity
  8
DV2_Standard
 62
     7
100
AcDbLine
 10
459.8184835977
 20
435.0246358368
 30
0.0
 11
459.8184835977
 21
437.2178926238
 31
0.0
  0
ARC
  5
138
330
DF
100
AcDbEntity
  8
DV2_Standard
 62
     7
100
AcDbCircle
 10
474.8184835977
 20
437.2178926238
 30
0.0
 40
14.99999999999995
100
AcDbArc
 50
148.0
 51
180.0
  0
LINE
  5
139
330
DF
100
AcDbEntity
  8
DV2_Standard
 62
     7
100
AcDbLine
 10
465.5545231323
 20
450.6986555374
 30
0.0
 11
474.3825090523
 21
464.8263862271
 31
0.0
  0
LINE
  5
13A
330
DF
100
AcDbEntity
  8
DV2_Standard
 62
     7
100
AcDbLine
 10
462.0977621554
 20
445.1666815873
 30
0.0
 11
465.5545157727
 21
450.6986437595
 31
0.0
  0
ARC
  5
13B
330
DF
100
AcDbEntity
  8
DV2_Standard
 62
     7
100
AcDbCircle
 10
474.8413501981
 20
464.6171455954
 30
0.0
 40
0.5000000004568133
100
AcDbArc
 50
87.0775185215
 51
148.0000002131
  0
LINE
  5
13C
330
DF
100
AcDbEntity
  8
DV2_Standard
 62
     7
100
AcDbLine
 10
488.7724841298
 20
409.9723843156
 30
0.0
 11
492.5894343865
 21
380.9162446302
 31
0.0
  0
ARC
  5
13D
330
DF
100
AcDbEntity
  8
DV2_Standard
 62
     7
100
AcDbCircle
 10
637.6107228648
 20
397.5222340696
 30
0.0
 40
145.950288472775
100
AcDbArc
 50
189.312654862
 51
195.2157517048
  0
LINE
  5
13E
330
DF
100
AcDbEntity
  8
DV2_Standard
 62
     7
100
AcDbLine
 10
502.9753184976
 20
345.6993618972
 30
0.0
 11
502.9758223203
 21
345.6993036794
 31
0.0
  0
SPLINE
  5
13F
330
DF
100
AcDbEntity
  8
DV2_Standard
 62
     7
100
AcDbSpline
210
0.0
220
0.0
230
1.0
 70
     8
 71
     3
 72
    20
 73
    16
 74
     0
 42
0.000000001
 43
0.0000000001
 40
0.0
 40
0.0
 40
0.0
 40
0.0
 40
0.0318311227346447
 40
0.1292279174565613
 40
0.2148399939209069
 40
0.2896654762430544
 40
0.3546410639628776
 40
0.4103855979324911
 40
0.4572139404597391
 40
0.5092107314863673
 40
0.5727030036270009
 40
0.6532318854551233
 40
0.7520297064308143
 40
0.8702879266757647
 40
1.0
 40
1.0
 40
1.0
 40
1.0
 10
479.3670240322102
 20
420.592621200987
 30
0.0
 10
479.5521530027311
 20
420.5883745779353
 30
0.0
 10
480.1939354160063
 20
420.5709599894431
 30
0.0
 10
481.3539885923199
 20
420.3866607542542
 30
0.0
 10
482.6591956119017
 20
420.0154188975793
 30
0.0
 10
483.7527670333675
 20
419.5248620238903
 30
0.0
 10
484.6329406153529
 20
418.977586736402
 30
0.0
 10
485.3255717438517
 20
418.4217204685218
 30
0.0
 10
485.9076246655898
 20
417.846168167485
 30
0.0
 10
486.4585293476744
 20
417.185913298649
 30
0.0
 10
487.0343958482873
 20
416.3215072698763
 30
0.0
 10
487.6119851104735
 20
415.1688776344
 30
0.0
 10
488.1249678450441
 20
413.6840121983253
 30
0.0
 10
488.5198886368483
 20
411.8537933651556
 30
0.0
 10
488.6823798334863
 20
410.6504406480526
 30
0.0
 10
488.7755846235825
 20
409.9016171760339
 30
0.0
  0
ARC
  5
140
330
DF
100
AcDbEntity
  8
DV2_Standard
 62
     7
100
AcDbCircle
 10
460.3184835974
 20
420.2538216864
 30
0.0
 40
0.4999999999999993
100
AcDbArc
 50
180.0
 51
272.8993641233
  0
LINE
  5
141
330
DF
100
AcDbEntity
  8
DV2_Standard
 62
     7
100
AcDbLine
 10
422.6739649714
 20
399.2822344469
 30
0.0
 11
405.1739649714
 21
399.2822344469
 31
0.0
  0
LINE
  5
142
330
DF
100
AcDbEntity
  8
DV2_Standard
 62
     7
100
AcDbLine
 10
404.6739649714
 20
400.7865788416
 30
0.0
 11
404.6739649714
 21
399.7822344469
 31
0.0
  0
LINE
  5
143
330
DF
100
AcDbEntity
  8
DV2_Standard
 62
     7
100
AcDbLine
 10
423.1739649714
 20
399.7822344469
 30
0.0
 11
423.1739649714
 21
400.7865788416
 31
0.0
  0
ARC
  5
144
330
DF
100
AcDbEntity
  8
DV2_Standard
 62
     7
100
AcDbCircle
 10
422.6739649714
 20
399.7822344469
 30
0.0
 40
0.5000000000000004
100
AcDbArc
 50
270.0
 51
0.0
  0
ARC
  5
145
330
DF
100
AcDbEntity
  8
DV2_Standard
 62
     7
100
AcDbCircle
 10
405.1739649714
 20
399.7822344469
 30
0.0
 40
0.5000000000000004
100
AcDbArc
 50
180.0
 51
270.0
  0
ARC
  5
146
330
DF
100
AcDbEntity
  8
DV2_Standard
 62
     7
100
AcDbCircle
 10
422.6739649714
 20
400.7865788416
 30
0.0
 40
0.5000000000000004
100
AcDbArc
 50
0.0
 51
82.4415834298
  0
ARC
  5
147
330
DF
100
AcDbEntity
  8
DV2_Standard
 62
     7
100
AcDbCircle
 10
405.1739649714
 20
400.7865788416
 30
0.0
 40
0.5000000000000014
100
AcDbArc
 50
97.5584165702
 51
180.0
  0
LINE
  5
148
330
DF
100
AcDbEntity
  8
DV2_Standard
 62
     7
100
AcDbLine
 10
389.4239649715
 20
467.532234475
 30
0.0
 11
389.4239649715
 21
467.3976155317
 31
0.0
  0
LINE
  5
149
330
DF
100
AcDbEntity
  8
DV2_Standard
 62
     7
100
AcDbLine
 10
389.4239649715
 20
435.1668534182
 30
0.0
 11
389.4239649715
 21
435.032234475
 31
0.0
  0
SPLINE
  5
14A
330
DF
100
AcDbEntity
  8
DV2_Standard
 62
     7
100
AcDbSpline
210
0.0
220
0.0
230
1.0
 70
     8
 71
     3
 72
     8
 73
     4
 74
     0
 42
0.000000001
 43
0.0000000001
 40
0.0
 40
0.0
 40
0.0
 40
0.0
 40
1.0
 40
1.0
 40
1.0
 40
1.0
 10
389.4239649714947
 20
435.1668534182003
 30
0.0
 10
388.6166032733864
 20
435.4536290823224
 30
0.0
 10
388.0007802347246
 20
435.8430839867304
 30
0.0
 10
387.555425500431
 20
436.2769094811358
 30
0.0
  0
SPLINE
  5
14B
330
DF
100
AcDbEntity
  8
DV2_Standard
 62
     7
100
AcDbSpline
210
0.0
220
0.0
230
1.0
 70
     8
 71
     3
 72
     8
 73
     4
 74
     0
 42
0.000000001
 43
0.0000000001
 40
0.0
 40
0.0
 40
0.0
 40
0.0
 40
1.0
 40
1.0
 40
1.0
 40
1.0
 10
387.5543009986933
 20
466.2864116770396
 30
0.0
 10
388.0015870464516
 20
466.7223342412772
 30
0.0
 10
388.6194056368006
 20
467.1118352698356
 30
0.0
 10
389.4239649714946
 20
467.3976155317335
 30
0.0
  0
LINE
  5
14C
330
DF
100
AcDbEntity
  8
DV2_Standard
 62
     7
100
AcDbLine
 10
398.4239649715
 20
467.532234475
 30
0.0
 11
398.4239649715
 21
467.3976155317
 31
0.0
  0
LINE
  5
14D
330
DF
100
AcDbEntity
  8
DV2_Standard
 62
     7
100
AcDbLine
 10
398.4239649715
 20
435.1668534182
 30
0.0
 11
398.4239649715
 21
435.032234475
 31
0.0
  0
SPLINE
  5
14E
330
DF
100
AcDbEntity
  8
DV2_Standard
 62
     7
100
AcDbSpline
210
0.0
220
0.0
230
1.0
 70
     8
 71
     3
 72
     8
 73
     4
 74
     0
 42
0.000000001
 43
0.0000000001
 40
0.0
 40
0.0
 40
0.0
 40
0.0
 40
1.0
 40
1.0
 40
1.0
 40
1.0
 10
400.2936289442952
 20
466.2864116770397
 30
0.0
 10
399.8463428965371
 20
466.7223342412772
 30
0.0
 10
399.2285243061883
 20
467.1118352698357
 30
0.0
 10
398.4239649714946
 20
467.3976155317335
 30
0.0
  0
LINE
  5
14F
330
DF
100
AcDbEntity
  8
DV2_Standard
 62
     7
100
AcDbLine
 10
398.4239649715
 20
467.3976155317
 30
0.0
 11
389.4239649715
 21
467.3976155317
 31
0.0
  0
LINE
  5
150
330
DF
100
AcDbEntity
  8
DV2_Standard
 62
     7
100
AcDbLine
 10
389.4239649715
 20
435.1668534182
 30
0.0
 11
398.4239649715
 21
435.1668534182
 31
0.0
  0
SPLINE
  5
151
330
DF
100
AcDbEntity
  8
DV2_Standard
 62
     7
100
AcDbSpline
210
0.0
220
0.0
230
1.0
 70
     8
 71
     3
 72
     8
 73
     4
 74
     0
 42
0.000000001
 43
0.0000000001
 40
0.0
 40
0.0
 40
0.0
 40
0.0
 40
1.0
 40
1.0
 40
1.0
 40
1.0
 10
398.4239649714947
 20
435.1668534182004
 30
0.0
 10
399.2313266696028
 20
435.4536290823224
 30
0.0
 10
399.8471497082644
 20
435.8430839867305
 30
0.0
 10
400.2925044425578
 20
436.2769094811358
 30
0.0
  0
ARC
  5
152
330
DF
100
AcDbEntity
  8
DV2_Standard
 62
     7
100
AcDbCircle
 10
395.7882637733
 20
457.8858320785
 30
0.0
 40
10.0
100
AcDbArc
 50
57.106196475
 51
74.7179936136
  0
ARC
  5
153
330
DF
100
AcDbEntity
  8
DV2_Standard
 62
     7
100
AcDbCircle
 10
395.7882637733
 20
444.6786368714
 30
0.0
 40
10.0
100
AcDbArc
 50
285.2820063864
 51
302.8975163166
  0
ARC
  5
154
330
DF
100
AcDbEntity
  8
DV2_Standard
 62
     7
100
AcDbCircle
 10
392.0596661697
 20
457.8858320785
 30
0.0
 40
10.0
100
AcDbArc
 50
105.2820063864
 51
122.8867469962
  0
ARC
  5
155
330
DF
100
AcDbEntity
  8
DV2_Standard
 62
     7
100
AcDbCircle
 10
392.0596661697
 20
444.6786368714
 30
0.0
 40
9.999999999999998
100
AcDbArc
 50
237.1061964746
 51
254.7179936136
  0
LINE
  5
156
330
DF
100
AcDbEntity
  8
DV2_Standard
 62
     7
100
AcDbLine
 10
389.4239649715
 20
435.032234475
 30
0.0
 11
398.4239649715
 21
435.032234475
 31
0.0
  0
LINE
  5
157
330
DF
100
AcDbEntity
  8
DV2_Standard
 62
     7
100
AcDbLine
 10
398.4239649715
 20
467.532234475
 30
0.0
 11
389.4239649715
 21
467.532234475
 31
0.0
  0
LINE
  5
158
330
DF
100
AcDbEntity
  8
DV2_Standard
 62
     7
100
AcDbLine
 10
424.4127149714
 20
410.1822344749
 30
0.0
 11
403.4352149714
 21
410.1822344749
 31
0.0
  0
LINE
  5
159
330
DF
100
AcDbEntity
  8
DV2_Standard
 62
     7
100
AcDbLine
 10
423.2014649714
 20
401.2822344749
 30
0.0
 11
404.6464649714
 21
401.2822344749
 31
0.0
  0
LINE
  5
15A
330
DF
100
AcDbEntity
  8
DV2_Standard
 62
     7
100
AcDbLine
 10
424.4014649714
 20
402.4822344749
 30
0.0
 11
403.4464649714
 21
402.4822344749
 31
0.0
  0
ARC
  5
15B
330
DF
100
AcDbEntity
  8
DV2_Standard
 62
     7
100
AcDbCircle
 10
404.7178848139
 20
414.6882896095
 30
0.0
 40
1.574785619035427
100
AcDbArc
 50
214.7498725861
 51
269.2992684394
  0
LINE
  5
15C
330
DF
100
AcDbEntity
  8
DV2_Standard
 62
     7
100
AcDbLine
 10
405.6592739135
 20
413.1236020621
 30
0.0
 11
404.6986255511
 21
413.113621763
 31
0.0
  0
LINE
  5
15D
330
DF
100
AcDbEntity
  8
DV2_Standard
 62
     7
100
AcDbLine
 10
424.4239649714
 20
413.3185508455
 30
0.0
 11
422.1886560287
 21
413.295327934
 31
0.0
  0
ARC
  5
15E
330
DF
100
AcDbEntity
  8
DV2_Standard
 62
     7
100
AcDbCircle
 10
416.0598011125
 20
207.6256975225
 30
0.0
 40
205.7609285947876
100
AcDbArc
 50
88.2931187717
 51
92.8973448105
  0
LINE
  5
15F
330
DF
100
AcDbEntity
  8
DV2_Standard
 62
     7
100
AcDbLine
 10
423.7454298202
 20
415.2952517801
 30
0.0
 11
427.5283282392
 21
415.3282646345
 31
0.0
  0
ARC
  5
160
330
DF
100
AcDbEntity
  8
DV2_Standard
 62
     7
100
AcDbCircle
 10
416.5092278426
 20
116.9676823178
 30
0.0
 40
298.415316832698
100
AcDbArc
 50
91.4404537237
 51
92.3894879107
  0
ARC
  5
161
330
DF
100
AcDbEntity
  8
DV2_Standard
 62
     7
100
AcDbCircle
 10
416.5092278426
 20
116.9676823178
 30
0.0
 40
298.415316832698
100
AcDbArc
 50
89.4819774112
 51
91.4404537237
  0
ARC
  5
162
330
DF
100
AcDbEntity
  8
DV2_Standard
 62
     7
100
AcDbCircle
 10
416.5092278426
 20
116.9676823178
 30
0.0
 40
298.415316832698
100
AcDbArc
 50
88.6105120893
 51
89.4819774112
  0
LINE
  5
163
330
DF
100
AcDbEntity
  8
DV2_Standard
 62
     7
100
AcDbLine
 10
428.0239649714
 20
428.9321273093
 30
0.0
 11
428.0239649714
 21
415.828245596
 31
0.0
  0
LINE
  5
164
330
DF
100
AcDbEntity
  8
DV2_Standard
 62
     7
100
AcDbLine
 10
428.0239649714
 20
433.5443565735
 30
0.0
 11
428.0239649714
 21
428.9321273093
 31
0.0
  0
LINE
  5
165
330
DF
100
AcDbEntity
  8
DV2_Standard
 62
     7
100
AcDbLine
 10
428.0239649714
 20
448.0509858889
 30
0.0
 11
428.0239649714
 21
433.5443565735
 31
0.0
  0
LINE
  5
166
330
DF
100
AcDbEntity
  8
DV2_Standard
 62
     7
100
AcDbLine
 10
428.0239649714
 20
455.3472344764
 30
0.0
 11
428.0239649714
 21
448.0509858889
 31
0.0
  0
LINE
  5
167
330
DF
100
AcDbEntity
  8
DV2_Standard
 62
     7
100
AcDbLine
 10
428.0239649714
 20
469.8516755083
 30
0.0
 11
428.0239649714
 21
455.3472344764
 31
0.0
  0
ARC
  5
168
330
DF
100
AcDbEntity
  8
DV2_Standard
 62
     7
100
AcDbCircle
 10
427.5239649714
 20
415.828245596
 30
0.0
 40
0.5
100
AcDbArc
 50
270.5
 51
0.0
  0
ARC
  5
169
330
DF
100
AcDbEntity
  8
DV2_Standard
 62
     7
100
AcDbCircle
 10
427.5239649714
 20
433.5443565735
 30
0.0
 40
0.5000000000002011
100
AcDbArc
 50
270.5
 51
0.0
  0
ARC
  5
16A
330
DF
100
AcDbEntity
  8
DV2_Standard
 62
     7
100
AcDbCircle
 10
427.5240788276
 20
469.851786987
 30
0.0
 40
0.4998861565958014
100
AcDbArc
 50
359.9870627011
 51
89.5128678216
  0
ARC
  5
16B
330
DF
100
AcDbEntity
  8
DV2_Standard
 62
     7
100
AcDbCircle
 10
403.1048417034
 20
415.3215337935
 30
0.0
 40
0.3406052356465903
100
AcDbArc
 50
256.2639112066
 51
256.597035321
  0
LINE
  5
16C
330
DF
100
AcDbEntity
  8
DV2_Standard
 62
     7
100
AcDbLine
 10
402.9239649714
 20
455.3472344741
 30
0.0
 11
402.9239649714
 21
470.0619953476
 31
0.0
  0
LINE
  5
16D
330
DF
100
AcDbEntity
  8
DV2_Standard
 62
     7
100
AcDbLine
 10
402.9239649714
 20
448.0509858874
 30
0.0
 11
402.9239649714
 21
455.3472344741
 31
0.0
  0
LINE
  5
16E
330
DF
100
AcDbEntity
  8
DV2_Standard
 62
     7
100
AcDbLine
 10
402.9239649714
 20
433.3340390598
 30
0.0
 11
402.9239649714
 21
448.0509858874
 31
0.0
  0
LINE
  5
16F
330
DF
100
AcDbEntity
  8
DV2_Standard
 62
     7
100
AcDbLine
 10
402.9239649714
 20
428.898318457
 30
0.0
 11
402.9239649714
 21
433.3340390598
 31
0.0
  0
LINE
  5
170
330
DF
100
AcDbEntity
  8
DV2_Standard
 62
     7
100
AcDbLine
 10
402.9239649714
 20
415.6179280822
 30
0.0
 11
402.9239649714
 21
428.898318457
 31
0.0
  0
LINE
  5
171
330
DF
100
AcDbEntity
  8
DV2_Standard
 62
     7
100
AcDbLine
 10
402.9239649714
 20
415.2906699564
 30
0.0
 11
402.9239649714
 21
415.430883318
 31
0.0
  0
LINE
  5
172
330
DF
100
AcDbEntity
  8
DV2_Standard
 62
     7
100
AcDbLine
 10
403.4283282392
 20
415.1179471207
 30
0.0
 11
404.0675939799
 21
415.1235259083
 31
0.0
  0
ARC
  5
173
330
DF
100
AcDbEntity
  8
DV2_Standard
 62
     7
100
AcDbCircle
 10
403.4240755499
 20
470.0618806407
 30
0.0
 40
0.5001105909121085
100
AcDbArc
 50
89.5128450102
 51
179.9872196722
  0
ARC
  5
174
330
DF
100
AcDbEntity
  8
DV2_Standard
 62
     7
100
AcDbCircle
 10
403.4239649714
 20
433.3340390598
 30
0.0
 40
0.4999999999999998
100
AcDbArc
 50
180.0
 51
270.5
  0
ARC
  5
175
330
DF
100
AcDbEntity
  8
DV2_Standard
 62
     7
100
AcDbCircle
 10
403.4239649714
 20
415.6179280822
 30
0.0
 40
0.5000000000000014
100
AcDbArc
 50
180.0
 51
270.5
  0
LINE
  5
176
330
DF
100
AcDbEntity
  8
DV2_Standard
 62
     7
100
AcDbLine
 10
403.4464649714
 20
410.1822344749
 30
0.0
 11
403.4464649714
 21
402.4822344749
 31
0.0
  0
LINE
  5
177
330
DF
100
AcDbEntity
  8
DV2_Standard
 62
     7
100
AcDbLine
 10
424.4014649714
 20
402.4822344749
 30
0.0
 11
424.4014649714
 21
410.1822344749
 31
0.0
  0
LINE
  5
178
330
DF
100
AcDbEntity
  8
DV2_Standard
 62
     7
100
AcDbLine
 10
403.4239649714
 20
413.773090161
 30
0.0
 11
403.4239649714
 21
410.1822344749
 31
0.0
  0
LINE
  5
179
330
DF
100
AcDbEntity
  8
DV2_Standard
 62
     7
100
AcDbLine
 10
424.4239649714
 20
410.1822344749
 30
0.0
 11
424.4239649714
 21
413.3185508455
 31
0.0
  0
SPLINE
  5
17A
330
DF
100
AcDbEntity
  8
DV2_Standard
 62
     7
100
AcDbSpline
210
0.0
220
0.0
230
1.0
 70
     8
 71
     3
 72
    24
 73
    20
 74
     0
 42
0.000000001
 43
0.0000000001
 40
0.0
 40
0.0
 40
0.0
 40
0.0
 40
0.0350560291701486
 40
0.0816804710441644
 40
0.1357696991581432
 40
0.2010789438209618
 40
0.2627171029001827
 40
0.3354336994242506
 40
0.4207733111958773
 40
0.5150221531291885
 40
0.6014054703002233
 40
0.6818453856003467
 40
0.7509417034707165
 40
0.8085885038687414
 40
0.8564296514972337
 40
0.9049482835882742
 40
0.9439283805693204
 40
0.9765710848749656
 40
1.0
 40
1.0
 40
1.0
 40
1.0
 10
403.4717756641869
 20
432.8344382836373
 30
0.0
 10
403.7798977490143
 20
432.8371280126008
 30
0.0
 10
404.3872151198178
 20
432.8424299632959
 30
0.0
 10
405.4969207059248
 20
432.8521364666896
 30
0.0
 10
406.8188691280855
 20
432.8637153407536
 30
0.0
 10
408.2736962380027
 20
432.8764644020839
 30
0.0
 10
409.8753668379259
 20
432.8904942857448
 30
0.0
 10
411.6393336750475
 20
432.9059330871896
 30
0.0
 10
413.665080239366
 20
432.9236432928022
 30
0.0
 10
415.8007776501864
 20
432.9422954991762
 30
0.0
 10
417.8971046454431
 20
432.9605863226611
 30
0.0
 10
419.7914551784201
 20
432.9770986422604
 30
0.0
 10
421.4548001305694
 20
432.9915794866933
 30
0.0
 10
422.8563462836377
 20
433.0037660275717
 30
0.0
 10
424.0912711472016
 20
433.0144935801611
 30
0.0
 10
425.1781361591416
 20
433.0239297933423
 30
0.0
 10
426.1330808261105
 20
433.0322245731817
 30
0.0
 10
426.9078871647508
 20
433.0389650566379
 30
0.0
 10
427.3232939573353
 20
433.042588260177
 30
0.0
 10
427.5283291698575
 20
433.0443767401754
 30
0.0
  0
SPLINE
  5
17B
330
DF
100
AcDbEntity
  8
DV2_Standard
 62
     7
100
AcDbSpline
210
0.0
220
0.0
230
1.0
 70
     8
 71
     3
 72
    11
 73
     7
 74
     0
 42
0.000000001
 43
0.0000000001
 40
0.0
 40
0.0
 40
0.0
 40
0.0
 40
0.2471632366316075
 40
0.5000261190469572
 40
0.7529211622945079
 40
1.0
 40
1.0
 40
1.0
 40
1.0
 10
427.5283464746562
 20
470.3515922716406
 30
0.0
 10
425.3467291476374
 20
470.370587930481
 30
0.0
 10
421.6187497263222
 20
470.403072563605
 30
0.0
 10
415.4776828355414
 20
470.4564268339653
 30
0.0
 10
409.3396042022868
 20
470.5102799633418
 30
0.0
 10
405.6104441473557
 20
470.542843682494
 30
0.0
 10
403.4283430516717
 20
470.5619125720713
 30
0.0
  0
SPLINE
  5
17C
330
DF
100
AcDbEntity
  8
DV2_Standard
 62
     7
100
AcDbSpline
210
0.0
220
0.0
230
1.0
 70
     8
 71
     3
 72
    11
 73
     7
 74
     0
 42
0.000000001
 43
0.0000000001
 40
0.0
 40
0.0
 40
0.0
 40
0.0
 40
0.2470936948420833
 40
0.5000159842238598
 40
0.7529560329665563
 40
1.0
 40
1.0
 40
1.0
 40
1.0
 10
427.5283423681591
 20
470.3515955978444
 30
0.0
 10
425.3462761761933
 20
470.3706153594703
 30
0.0
 10
421.6170230112448
 20
470.4031334032114
 30
0.0
 10
415.4779678801584
 20
470.4565887032348
 30
0.0
 10
409.3406105771047
 20
470.5102937485595
 30
0.0
 10
405.6106828752313
 20
470.542856362357
 30
0.0
 10
403.4283445509945
 20
470.5619156211892
 30
0.0
  0
LINE
  5
17D
330
DF
100
AcDbEntity
  8
DV2_Standard
 62
     7
100
AcDbLine
 10
403.4464649714
 20
402.4822344749
 30
0.0
 11
404.6464649714
 21
401.2822344749
 31
0.0
  0
LINE
  5
17E
330
DF
100
AcDbEntity
  8
DV2_Standard
 62
     7
100
AcDbLine
 10
423.2014649714
 20
401.2822344749
 30
0.0
 11
424.4014649714
 21
402.4822344749
 31
0.0
  0
ARC
  5
17F
330
DF
100
AcDbEntity
  8
DV2_Standard
 62
     7
100
AcDbCircle
 10
401.4953858617
 20
413.8263549327
 30
0.0
 40
1.920911328226789
100
AcDbArc
 50
358.4479936785
 51
37.1430278767
  0
ARC
  5
180
330
DF
100
AcDbEntity
  8
DV2_Standard
 62
     7
100
AcDbCircle
 10
426.4239649714
 20
413.3185508454
 30
0.0
 40
1.999999999999999
100
AcDbArc
 50
90.5
 51
180.1853108443
  0
ARC
  5
181
330
DF
100
AcDbEntity
  8
DV2_Standard
 62
     7
100
AcDbCircle
 10
403.4239649538
 20
415.2906713247
 30
0.0
 40
0.4999999818901976
100
AcDbArc
 50
179.9996857693
 51
218.3154363327
  0
LINE
  5
182
330
DF
100
AcDbEntity
  8
DV2_Standard
 62
     7
100
AcDbLine
 10
403.4464649714
 20
410.1822344749
 30
0.0
 11
404.6084649714
 21
410.1822344749
 31
0.0
  0
LINE
  5
183
330
DF
100
AcDbEntity
  8
DV2_Standard
 62
     7
100
AcDbLine
 10
404.6084649714
 20
401.3202344749
 30
0.0
 11
404.6084649714
 21
410.1822344749
 31
0.0
  0
LINE
  5
184
330
DF
100
AcDbEntity
  8
DV2_Standard
 62
     7
100
AcDbLine
 10
423.2394649714
 20
401.3202344749
 30
0.0
 11
423.2394649714
 21
410.1822344749
 31
0.0
  0
LINE
  5
185
330
DF
100
AcDbEntity
  8
DV2_Standard
 62
     7
100
AcDbLine
 10
424.4014649714
 20
410.1822344749
 30
0.0
 11
423.2394649714
 21
410.1822344749
 31
0.0
  0
ENDBLK
  5
187
330
DF
100
AcDbEntity
  8
0
100
AcDbBlockEnd
  0
BLOCK
  5
28C
330
188
100
AcDbEntity
  8
0
100
AcDbBlockBegin
  2
SE2
 70
     0
 10
0.0
 20
0.0
 30
0.0
  3
SE2
  1

  0
LINE
  5
18B
330
188
100
AcDbEntity
  8
DV3_Standard
 62
     7
100
AcDbLine
 10
206.35
 20
255.5438370215
 30
0.0
 11
276.35
 21
255.5438370215
 31
0.0
  0
ARC
  5
18C
330
188
100
AcDbEntity
  8
DV3_Standard
 62
     7
100
AcDbCircle
 10
241.3504383863
 20
986.5798834706
 30
0.0
 40
756.6135582322005
100
AcDbArc
 50
267.4032304143
 51
268.9762500104
  0
ARC
  5
18D
330
188
100
AcDbEntity
  8
DV3_Standard
 62
     7
100
AcDbCircle
 10
241.3495615982
 20
986.5798834479
 30
0.0
 40
756.6135582095619
100
AcDbArc
 50
271.0237499908
 51
272.5968374241
  0
SPLINE
  5
18E
330
188
100
AcDbEntity
  8
DV3_Standard
 62
     7
100
AcDbSpline
210
0.0
220
0.0
230
1.0
 70
     8
 71
     3
 72
    16
 73
    12
 74
     0
 42
0.000000001
 43
0.0000000001
 40
0.0
 40
0.0
 40
0.0
 40
0.0
 40
0.25
 40
0.25
 40
0.375
 40
0.375
 40
0.5
 40
0.5
 40
0.75
 40
0.75
 40
1.0
 40
1.0
 40
1.0
 40
1.0
 10
227.8321319032447
 20
230.087099704193
 30
0.0
 10
227.8321318665188
 20
230.0870979791651
 30
0.0
 10
228.1837442686907
 20
230.0853672052011
 30
0.0
 10
229.2010363349724
 20
230.0824031280212
 30
0.0
 10
229.6159971189433
 20
230.0814115713119
 30
0.0
 10
230.5961362841379
 20
230.0799403641894
 30
0.0
 10
231.1665593810551
 20
230.0794754970389
 30
0.0
 10
233.0354981887482
 20
230.0793138414445
 30
0.0
 10
234.541702920659
 20
230.0810676021566
 30
0.0
 10
237.791435630649
 20
230.0851501907207
 30
0.0
 10
239.5650376235696
 20
230.0870929228929
 30
0.0
 10
241.3499999999988
 20
230.087094942493
 30
0.0
  0
SPLINE
  5
18F
330
188
100
AcDbEntity
  8
DV3_Standard
 62
     7
100
AcDbSpline
210
0.0
220
0.0
230
1.0
 70
     8
 71
     3
 72
    16
 73
    12
 74
     0
 42
0.000000001
 43
0.0000000001
 40
0.0
 40
0.0
 40
0.0
 40
0.0
 40
0.2500000000000004
 40
0.2500000000000004
 40
0.3750000000000006
 40
0.3750000000000006
 40
0.5000000000000008
 40
0.5000000000000008
 40
0.7500000000000006
 40
0.7500000000000006
 40
1.0
 40
1.0
 40
1.0
 40
1.0
 10
241.3499999999988
 20
230.087094942493
 30
0.0
 10
243.1349680515924
 20
230.0870929228859
 30
0.0
 10
244.8863295622843
 20
230.0851776539457
 30
0.0
 10
247.3402590267995
 20
230.0820955232486
 30
0.0
 10
248.1161774951031
 20
230.0811027025109
 30
0.0
 10
249.5847433783385
 20
230.0797317737283
 30
0.0
 10
250.2801782106892
 20
230.0793699810955
 30
0.0
 10
252.1504552505964
 20
230.0795231413543
 30
0.0
 10
253.1581352022142
 20
230.0814140020375
 30
0.0
 10
254.5087336735096
 20
230.0853413714942
 30
0.0
 10
254.8678681334789
 20
230.0870979791608
 30
0.0
 10
254.8678680967479
 20
230.0870997044725
 30
0.0
  0
LINE
  5
190
330
188
100
AcDbEntity
  8
DV3_Standard
 62
     7
100
AcDbLine
 10
276.1381330751
 20
231.2662920891
 30
0.0
 11
276.35
 21
255.5438370215
 31
0.0
  0
ARC
  5
191
330
188
100
AcDbEntity
  8
DV3_Standard
 62
     7
100
AcDbCircle
 10
207.044434556
 20
231.2264498038
 30
0.0
 40
0.4841778675505557
100
AcDbArc
 50
175.2756993617
 51
238.5483387976
  0
ARC
  5
192
330
188
100
AcDbEntity
  8
DV3_Standard
 62
     7
100
AcDbCircle
 10
207.0614031605
 20
231.3376149824
 30
0.0
 40
0.590717965514452
100
AcDbArc
 50
249.2977967471
 51
267.2514042013
  0
ARC
  5
193
330
188
100
AcDbEntity
  8
DV3_Standard
 62
     7
100
AcDbCircle
 10
206.9973241436
 20
231.1831038397
 30
0.0
 40
0.4237225733227291
100
AcDbArc
 50
235.2794850822
 51
236.5484089508
  0
LINE
  5
194
330
188
100
AcDbEntity
  8
DV3_Standard
 62
     7
100
AcDbLine
 10
206.35
 20
255.5438370215
 30
0.0
 11
206.5618669249
 21
231.2662920869
 31
0.0
  0
SPLINE
  5
195
330
188
100
AcDbEntity
  8
DV3_Standard
 62
     7
100
AcDbSpline
210
0.0
220
0.0
230
1.0
 70
     8
 71
     3
 72
    33
 73
    29
 74
     0
 42
0.000000001
 43
0.0000000001
 40
0.0
 40
0.0
 40
0.0
 40
0.0
 40
0.0558882361697033
 40
0.1593636178212278
 40
0.2477834990091586
 40
0.3212700555379583
 40
0.3797841625688596
 40
0.4232271991632704
 40
0.4458691377203021
 40
0.4599683954418157
 40
0.4638266394595886
 40
0.4649740800988095
 40
0.4653623894653527
 40
0.4656403286901334
 40
0.4657475170970117
 40
0.4658429971316697
 40
0.465937966293359
 40
0.466043790419677
 40
0.466317580658791
 40
0.4667011236160964
 40
0.4694935715733652
 40
0.4814636443158137
 40
0.5017658846826408
 40
0.5529193912018969
 40
0.65623191865964
 40
0.786027440818176
 40
0.9419103815726289
 40
1.0
 40
1.0
 40
1.0
 40
1.0
 10
275.6667502393938
 20
230.7463949757864
 30
0.0
 10
275.6786021330309
 20
230.7472142465049
 30
0.0
 10
275.7073773820569
 20
230.7493360457433
 30
0.0
 10
275.7591208856704
 20
230.7580748015484
 30
0.0
 10
275.8155416387958
 20
230.7717674892949
 30
0.0
 10
275.8659625067873
 20
230.7886091402607
 30
0.0
 10
275.9096792280241
 20
230.807819595985
 30
0.0
 10
275.9442481294171
 20
230.8270506942239
 30
0.0
 10
275.9718011474844
 20
230.8463443324203
 30
0.0
 10
275.9894439687473
 20
230.8605952434648
 30
0.0
 10
276.0030988932947
 20
230.8733587060323
 30
0.0
 10
276.0094914126025
 20
230.8797814296197
 30
0.0
 10
276.0127376977047
 20
230.8831612993073
 30
0.0
 10
276.0146425913285
 20
230.8851821171266
 30
0.0
 10
276.0162188660176
 20
230.8868829244597
 30
0.0
 10
276.0173270216017
 20
230.8880907310028
 30
0.0
 10
276.0184268739716
 20
230.8893016726673
 30
0.0
 10
276.0199612281739
 20
230.891008064756
 30
0.0
 10
276.0217621002678
 20
230.8930447032359
 30
0.0
 10
276.0273772386153
 20
230.8995170365647
 30
0.0
 10
276.037075908757
 20
230.9116559653574
 30
0.0
 10
276.0478476420167
 20
230.9266866239743
 30
0.0
 10
276.0618759151766
 20
230.9489434146438
 30
0.0
 10
276.0840318065394
 20
230.9908918871997
 30
0.0
 10
276.1043852950737
 20
231.0449576999426
 30
0.0
 10
276.1207219613007
 20
231.1042557646319
 30
0.0
 10
276.1294102907735
 20
231.1497404546116
 30
0.0
 10
276.1314592197073
 20
231.1700790739285
 30
0.0
 10
276.1320655713197
 20
231.17649238041
 30
0.0
  0
LINE
  5
196
330
188
100
AcDbEntity
  8
DV3_Standard
 62
     7
100
AcDbLine
 10
254.57
 20
229.7093557656
 30
0.0
 11
253.6219854215
 21
230.0827886391
 31
0.0
  0
LINE
  5
197
330
188
100
AcDbEntity
  8
DV3_Standard
 62
     7
100
AcDbLine
 10
228.13
 20
229.7093557656
 30
0.0
 11
229.0780396732
 21
230.0827985242
 31
0.0
  0
LINE
  5
198
330
188
100
AcDbEntity
  8
DV3_Standard
 62
     7
100
AcDbLine
 10
254.57
 20
228.5838370215
 30
0.0
 11
254.57
 21
229.7093557656
 31
0.0
  0
LINE
  5
199
330
188
100
AcDbEntity
  8
DV3_Standard
 62
     7
100
AcDbLine
 10
228.13
 20
229.7093557656
 30
0.0
 11
228.13
 21
228.5838370215
 31
0.0
  0
LINE
  5
19A
330
188
100
AcDbEntity
  8
DV3_Standard
 62
     7
100
AcDbLine
 10
253.4
 20
230.1702310221
 30
0.0
 11
253.4
 21
228.5838370215
 31
0.0
  0
LINE
  5
19B
330
188
100
AcDbEntity
  8
DV3_Standard
 62
     7
100
AcDbLine
 10
229.3
 20
230.1702310221
 30
0.0
 11
229.3
 21
228.5838370215
 31
0.0
  0
LINE
  5
19C
330
188
100
AcDbEntity
  8
DV3_Standard
 62
     7
100
AcDbLine
 10
56.35
 20
255.5438370215
 30
0.0
 11
126.35
 21
255.5438370215
 31
0.0
  0
ARC
  5
19D
330
188
100
AcDbEntity
  8
DV3_Standard
 62
     7
100
AcDbCircle
 10
91.3504383863
 20
986.5798834706
 30
0.0
 40
756.6135582322005
100
AcDbArc
 50
267.4032304143
 51
268.9762500104
  0
ARC
  5
19E
330
188
100
AcDbEntity
  8
DV3_Standard
 62
     7
100
AcDbCircle
 10
91.3495615982
 20
986.579883448
 30
0.0
 40
756.6135582095619
100
AcDbArc
 50
271.0237499908
 51
272.5968374241
  0
SPLINE
  5
19F
330
188
100
AcDbEntity
  8
DV3_Standard
 62
     7
100
AcDbSpline
210
0.0
220
0.0
230
1.0
 70
     8
 71
     3
 72
    16
 73
    12
 74
     0
 42
0.000000001
 43
0.0000000001
 40
0.0
 40
0.0
 40
0.0
 40
0.0
 40
0.25
 40
0.25
 40
0.375
 40
0.375
 40
0.5
 40
0.5
 40
0.75
 40
0.75
 40
1.0
 40
1.0
 40
1.0
 40
1.0
 10
77.83213190324479
 20
230.0870997042391
 30
0.0
 10
77.83213186651886
 20
230.0870979792111
 30
0.0
 10
78.1837442686908
 20
230.0853672052471
 30
0.0
 10
79.20103633497247
 20
230.0824031280673
 30
0.0
 10
79.61599711894341
 20
230.0814115713579
 30
0.0
 10
80.59613628413796
 20
230.0799403642355
 30
0.0
 10
81.1665593810552
 20
230.0794754970848
 30
0.0
 10
83.03549818874832
 20
230.0793138414904
 30
0.0
 10
84.54170292065902
 20
230.0810676022026
 30
0.0
 10
87.7914356306491
 20
230.0851501907667
 30
0.0
 10
89.56503762356971
 20
230.0870929229388
 30
0.0
 10
91.34999999999893
 20
230.0870949425389
 30
0.0
  0
SPLINE
  5
1A0
330
188
100
AcDbEntity
  8
DV3_Standard
 62
     7
100
AcDbSpline
210
0.0
220
0.0
230
1.0
 70
     8
 71
     3
 72
    16
 73
    12
 74
     0
 42
0.000000001
 43
0.0000000001
 40
0.0
 40
0.0
 40
0.0
 40
0.0
 40
0.2500000000000004
 40
0.2500000000000004
 40
0.3750000000000006
 40
0.3750000000000006
 40
0.5000000000000008
 40
0.5000000000000008
 40
0.7500000000000006
 40
0.7500000000000006
 40
1.0
 40
1.0
 40
1.0
 40
1.0
 10
91.34999999999893
 20
230.0870949425389
 30
0.0
 10
93.13496805159251
 20
230.0870929229319
 30
0.0
 10
94.88632956228442
 20
230.0851776539917
 30
0.0
 10
97.34025902679952
 20
230.0820955232945
 30
0.0
 10
98.11617749510319
 20
230.0811027025569
 30
0.0
 10
99.58474337833854
 20
230.0797317737742
 30
0.0
 10
100.2801782106893
 20
230.0793699811415
 30
0.0
 10
102.1504552505965
 20
230.0795231414003
 30
0.0
 10
103.1581352022143
 20
230.0814140020835
 30
0.0
 10
104.5087336735097
 20
230.0853413715402
 30
0.0
 10
104.867868133479
 20
230.0870979792067
 30
0.0
 10
104.867868096748
 20
230.0870997045185
 30
0.0
  0
LINE
  5
1A1
330
188
100
AcDbEntity
  8
DV3_Standard
 62
     7
100
AcDbLine
 10
126.1381330751
 20
231.2662920892
 30
0.0
 11
126.35
 21
255.5438370215
 31
0.0
  0
ARC
  5
1A2
330
188
100
AcDbEntity
  8
DV3_Standard
 62
     7
100
AcDbCircle
 10
57.044434556
 20
231.2264498039
 30
0.0
 40
0.4841778675504407
100
AcDbArc
 50
175.2756993617
 51
238.5483387976
  0
ARC
  5
1A3
330
188
100
AcDbEntity
  8
DV3_Standard
 62
     7
100
AcDbCircle
 10
57.0614031605
 20
231.3376149825
 30
0.0
 40
0.5907179655137633
100
AcDbArc
 50
249.297796747
 51
267.2514042013
  0
ARC
  5
1A4
330
188
100
AcDbEntity
  8
DV3_Standard
 62
     7
100
AcDbCircle
 10
56.9973241436
 20
231.1831038398
 30
0.0
 40
0.4237225733231904
100
AcDbArc
 50
219.10113309
 51
250.1498767521
  0
LINE
  5
1A5
330
188
100
AcDbEntity
  8
DV3_Standard
 62
     7
100
AcDbLine
 10
56.35
 20
255.5438370215
 30
0.0
 11
56.5618669249
 21
231.266292087
 31
0.0
  0
SPLINE
  5
1A6
330
188
100
AcDbEntity
  8
DV3_Standard
 62
     7
100
AcDbSpline
210
0.0
220
0.0
230
1.0
 70
     8
 71
     3
 72
    33
 73
    29
 74
     0
 42
0.000000001
 43
0.0000000001
 40
0.0
 40
0.0
 40
0.0
 40
0.0
 40
0.0558882361697033
 40
0.1593636178212278
 40
0.2477834990091589
 40
0.3212700555379586
 40
0.3797841625688598
 40
0.4232271991632706
 40
0.4458691377203023
 40
0.4599683954418158
 40
0.4638266394595888
 40
0.4649740800988097
 40
0.4653623894653529
 40
0.4656403286901338
 40
0.4657475170970123
 40
0.46584299713167
 40
0.4659379662933594
 40
0.4660437904196774
 40
0.4663175806587914
 40
0.4667011236160968
 40
0.4694935715733655
 40
0.4814636443158141
 40
0.5017658846826412
 40
0.5529193912018973
 40
0.6562319186596405
 40
0.7860274408181761
 40
0.9419103815726289
 40
1.0
 40
1.0
 40
1.0
 40
1.0
 10
125.6667502393939
 20
230.7463949758323
 30
0.0
 10
125.6786021330311
 20
230.7472142465508
 30
0.0
 10
125.707377382057
 20
230.7493360457892
 30
0.0
 10
125.7591208856706
 20
230.7580748015943
 30
0.0
 10
125.8155416387958
 20
230.7717674893408
 30
0.0
 10
125.8659625067873
 20
230.7886091403066
 30
0.0
 10
125.9096792280241
 20
230.8078195960308
 30
0.0
 10
125.9442481294171
 20
230.8270506942697
 30
0.0
 10
125.9718011474844
 20
230.8463443324663
 30
0.0
 10
125.9894439687475
 20
230.8605952435105
 30
0.0
 10
126.0030988932948
 20
230.8733587060782
 30
0.0
 10
126.0094914126026
 20
230.8797814296655
 30
0.0
 10
126.0127376977048
 20
230.8831612993533
 30
0.0
 10
126.0146425913286
 20
230.8851821171724
 30
0.0
 10
126.0162188660177
 20
230.8868829245055
 30
0.0
 10
126.0173270216017
 20
230.8880907310487
 30
0.0
 10
126.0184268739715
 20
230.8893016727131
 30
0.0
 10
126.0199612281742
 20
230.8910080648018
 30
0.0
 10
126.0217621002678
 20
230.8930447032818
 30
0.0
 10
126.0273772386159
 20
230.8995170366105
 30
0.0
 10
126.037075908756
 20
230.9116559654034
 30
0.0
 10
126.0478476420175
 20
230.9266866240201
 30
0.0
 10
126.0618759151762
 20
230.9489434146898
 30
0.0
 10
126.0840318065399
 20
230.9908918872456
 30
0.0
 10
126.1043852950737
 20
231.0449576999885
 30
0.0
 10
126.1207219613007
 20
231.1042557646778
 30
0.0
 10
126.1294102907736
 20
231.1497404546574
 30
0.0
 10
126.1314592197074
 20
231.1700790739744
 30
0.0
 10
126.1320655713198
 20
231.1764923804559
 30
0.0
  0
LINE
  5
1A7
330
188
100
AcDbEntity
  8
DV3_Standard
 62
     7
100
AcDbLine
 10
104.57
 20
229.7093557657
 30
0.0
 11
103.6219854215
 21
230.0827886392
 31
0.0
  0
LINE
  5
1A8
330
188
100
AcDbEntity
  8
DV3_Standard
 62
     7
100
AcDbLine
 10
78.13
 20
229.7093557657
 30
0.0
 11
79.0780396732
 21
230.0827985242
 31
0.0
  0
LINE
  5
1A9
330
188
100
AcDbEntity
  8
DV3_Standard
 62
     7
100
AcDbLine
 10
104.57
 20
228.5838370215
 30
0.0
 11
104.57
 21
229.7093557657
 31
0.0
  0
LINE
  5
1AA
330
188
100
AcDbEntity
  8
DV3_Standard
 62
     7
100
AcDbLine
 10
78.13
 20
229.7093557657
 30
0.0
 11
78.13
 21
228.5838370215
 31
0.0
  0
LINE
  5
1AB
330
188
100
AcDbEntity
  8
DV3_Standard
 62
     7
100
AcDbLine
 10
103.4
 20
230.1702310221
 30
0.0
 11
103.4
 21
228.5838370215
 31
0.0
  0
LINE
  5
1AC
330
188
100
AcDbEntity
  8
DV3_Standard
 62
     7
100
AcDbLine
 10
79.3
 20
230.1702310221
 30
0.0
 11
79.3
 21
228.5838370215
 31
0.0
  0
LINE
  5
1AD
330
188
100
AcDbEntity
  8
DV3_Standard
 62
     7
100
AcDbLine
 10
170.4149990184
 20
145.3667297639
 30
0.0
 11
170.4149990184
 21
145.525188188
 31
0.0
  0
LINE
  5
1AE
330
188
100
AcDbEntity
  8
DV3_Standard
 62
     7
100
AcDbLine
 10
162.2849990184
 20
145.525188188
 30
0.0
 11
162.2849990184
 21
145.3667297639
 31
0.0
  0
LINE
  5
1AF
330
188
100
AcDbEntity
  8
DV3_Standard
 62
     7
100
AcDbLine
 10
162.2849990184
 20
145.1462198792
 30
0.0
 11
162.2849990184
 21
145.0180485088
 31
0.0
  0
LINE
  5
1B0
330
188
100
AcDbEntity
  8
DV3_Standard
 62
     7
100
AcDbLine
 10
162.2849990184
 20
145.0180485088
 30
0.0
 11
162.7499990184
 21
145.0180485088
 31
0.0
  0
LINE
  5
1B1
330
188
100
AcDbEntity
  8
DV3_Standard
 62
     7
100
AcDbLine
 10
163.5499990184
 20
145.0180485088
 30
0.0
 11
166.1999990184
 21
145.0180485088
 31
0.0
  0
LINE
  5
1B2
330
188
100
AcDbEntity
  8
DV3_Standard
 62
     7
100
AcDbLine
 10
166.4999990184
 20
145.0180485088
 30
0.0
 11
169.1499990184
 21
145.0180485088
 31
0.0
  0
LINE
  5
1B3
330
188
100
AcDbEntity
  8
DV3_Standard
 62
     7
100
AcDbLine
 10
169.9499990184
 20
145.0180485088
 30
0.0
 11
170.4149990184
 21
145.0180485088
 31
0.0
  0
LINE
  5
1B4
330
188
100
AcDbEntity
  8
DV3_Standard
 62
     7
100
AcDbLine
 10
170.4149990184
 20
145.0180485088
 30
0.0
 11
170.4149990184
 21
145.1462198792
 31
0.0
  0
LINE
  5
1B5
330
188
100
AcDbEntity
  8
DV3_Standard
 62
     7
100
AcDbLine
 10
169.1499990184
 20
145.0180485088
 30
0.0
 11
169.9499990184
 21
145.0180485088
 31
0.0
  0
LINE
  5
1B6
330
188
100
AcDbEntity
  8
DV3_Standard
 62
     7
100
AcDbLine
 10
166.1999990184
 20
145.0180485088
 30
0.0
 11
166.4999990184
 21
145.0180485088
 31
0.0
  0
LINE
  5
1B7
330
188
100
AcDbEntity
  8
DV3_Standard
 62
     7
100
AcDbLine
 10
162.7499990184
 20
145.0180485088
 30
0.0
 11
163.5499990184
 21
145.0180485088
 31
0.0
  0
LINE
  5
1B8
330
188
100
AcDbEntity
  8
DV3_Standard
 62
     7
100
AcDbLine
 10
170.4149990184
 20
145.3667297639
 30
0.0
 11
170.4149990184
 21
145.1462198792
 31
0.0
  0
ARC
  5
1B9
330
188
100
AcDbEntity
  8
DV3_Standard
 62
     7
100
AcDbCircle
 10
160.0531681747
 20
144.4164781183
 30
0.0
 40
2.348103905827275
100
AcDbArc
 50
14.8233785945
 51
18.1061925932
  0
ARC
  5
1BA
330
188
100
AcDbEntity
  8
DV3_Standard
 62
     7
100
AcDbCircle
 10
160.0618906504
 20
144.6653415246
 30
0.0
 40
2.331127683786882
100
AcDbArc
 50
10.6163666119
 51
17.5104280396
  0
LINE
  5
1BB
330
188
100
AcDbEntity
  8
DV3_Standard
 62
     7
100
AcDbLine
 10
162.2849990184
 20
145.3667297639
 30
0.0
 11
162.2849990184
 21
145.1462198792
 31
0.0
  0
LINE
  5
1BC
330
188
100
AcDbEntity
  8
DV3_Standard
 62
     7
100
AcDbLine
 10
161.4399990184
 20
145.525188188
 30
0.0
 11
161.4399990184
 21
145.2564748216
 31
0.0
  0
LINE
  5
1BD
330
188
100
AcDbEntity
  8
DV3_Standard
 62
     7
100
AcDbLine
 10
166.4999990184
 20
144.7851349431
 30
0.0
 11
169.5499990184
 21
144.7851349431
 31
0.0
  0
LINE
  5
1BE
330
188
100
AcDbEntity
  8
DV3_Standard
 62
     7
100
AcDbLine
 10
166.1999990184
 20
144.7851349431
 30
0.0
 11
166.1999990184
 21
144.767445989
 31
0.0
  0
LINE
  5
1BF
330
188
100
AcDbEntity
  8
DV3_Standard
 62
     7
100
AcDbLine
 10
162.3999990184
 20
144.7851349431
 30
0.0
 11
162.8499990184
 21
144.7851349431
 31
0.0
  0
LINE
  5
1C0
330
188
100
AcDbEntity
  8
DV3_Standard
 62
     7
100
AcDbLine
 10
162.3999990184
 20
144.7851349431
 30
0.0
 11
162.3999990184
 21
144.767445989
 31
0.0
  0
LINE
  5
1C1
330
188
100
AcDbEntity
  8
DV3_Standard
 62
     7
100
AcDbLine
 10
163.1499990184
 20
144.7851349431
 30
0.0
 11
166.1999990184
 21
144.7851349431
 31
0.0
  0
LINE
  5
1C2
330
188
100
AcDbEntity
  8
DV3_Standard
 62
     7
100
AcDbLine
 10
162.8499990184
 20
144.7851349431
 30
0.0
 11
162.8499990184
 21
144.767445989
 31
0.0
  0
LINE
  5
1C3
330
188
100
AcDbEntity
  8
DV3_Standard
 62
     7
100
AcDbLine
 10
170.5999990184
 20
144.7854502148
 30
0.0
 11
170.5999990184
 21
144.767445989
 31
0.0
  0
LINE
  5
1C4
330
188
100
AcDbEntity
  8
DV3_Standard
 62
     7
100
AcDbLine
 10
169.8499990184
 20
144.7851349431
 30
0.0
 11
170.2999990184
 21
144.7851349431
 31
0.0
  0
LINE
  5
1C5
330
188
100
AcDbEntity
  8
DV3_Standard
 62
     7
100
AcDbLine
 10
169.5499990184
 20
144.7851349431
 30
0.0
 11
169.5499990184
 21
144.767445989
 31
0.0
  0
LINE
  5
1C6
330
188
100
AcDbEntity
  8
DV3_Standard
 62
     7
100
AcDbLine
 10
171.2599990184
 20
145.0497468047
 30
0.0
 11
171.2599990184
 21
145.1737836148
 31
0.0
  0
LINE
  5
1C7
330
188
100
AcDbEntity
  8
DV3_Standard
 62
     7
100
AcDbLine
 10
171.2599990184
 20
145.0497468047
 30
0.0
 11
171.3241737529
 21
145.0497468047
 31
0.0
  0
LINE
  5
1C8
330
188
100
AcDbEntity
  8
DV3_Standard
 62
     7
100
AcDbLine
 10
171.2599990184
 20
145.2564748216
 30
0.0
 11
171.2599990184
 21
145.525188188
 31
0.0
  0
LINE
  5
1C9
330
188
100
AcDbEntity
  8
DV3_Standard
 62
     7
100
AcDbLine
 10
171.2599990184
 20
145.1737836148
 30
0.0
 11
171.3241737529
 21
145.1737836148
 31
0.0
  0
LINE
  5
1CA
330
188
100
AcDbEntity
  8
DV3_Standard
 62
     7
100
AcDbLine
 10
161.44114281
 20
144.967055598
 30
0.0
 11
161.3758242838
 21
144.967055598
 31
0.0
  0
LINE
  5
1CB
330
188
100
AcDbEntity
  8
DV3_Standard
 62
     7
100
AcDbLine
 10
161.4399990184
 20
145.1737836148
 30
0.0
 11
161.4399990184
 21
145.0497468047
 31
0.0
  0
LINE
  5
1CC
330
188
100
AcDbEntity
  8
DV3_Standard
 62
     7
100
AcDbLine
 10
161.4399990184
 20
145.2564748216
 30
0.0
 11
161.3758242838
 21
145.2564748216
 31
0.0
  0
ELLIPSE
  5
1CD
330
188
100
AcDbEntity
  8
DV3_Standard
 62
     7
100
AcDbEllipse
 10
170.5599990184
 20
144.9780810922
 30
0.0
 11
0.700000000000001
 21
-9.714451465470121E-14
 31
0.0
210
0.0
220
0.0
230
1.0
 40
0.2756373558
 41
4.76956298146538
 42
6.226011306098945
  0
LINE
  5
1CE
330
188
100
AcDbEntity
  8
DV3_Standard
 62
     7
100
AcDbLine
 10
171.2588552267
 20
144.967055598
 30
0.0
 11
171.2588552267
 21
143.9438889189
 31
0.0
  0
ELLIPSE
  5
1CF
330
188
100
AcDbEntity
  8
DV3_Standard
 62
     7
100
AcDbEllipse
 10
162.1399990184
 20
144.9780810922
 30
0.0
 11
-0.7000000000000001
 21
1.040834085586084E-13
 31
0.0
210
0.0
220
0.0
230
1.0
 40
0.2756373558
 41
0.0571740010814104
 42
1.513622325714286
  0
LINE
  5
1D0
330
188
100
AcDbEntity
  8
DV3_Standard
 62
     7
100
AcDbLine
 10
161.275820476
 20
144.9946193335
 30
0.0
 11
161.275820476
 21
145.0221830691
 31
0.0
  0
LINE
  5
1D1
330
188
100
AcDbEntity
  8
DV3_Standard
 62
     7
100
AcDbLine
 10
161.2855787476
 20
143.9197488368
 30
0.0
 11
161.275820476
 21
144.9946193335
 31
0.0
  0
ELLIPSE
  5
1D2
330
188
100
AcDbEntity
  8
DV3_Standard
 62
     7
100
AcDbEllipse
 10
161.3758242838
 20
144.9946193335
 30
0.0
 11
-0.1000038078385742
 21
1.387778780781446E-14
 31
0.0
210
0.0
220
0.0
230
1.0
 40
0.2756268604
 41
0.0
 42
1.570796326794935
  0
LINE
  5
1D3
330
188
100
AcDbEntity
  8
DV3_Standard
 62
     7
100
AcDbLine
 10
161.44114281
 20
143.9106301115
 30
0.0
 11
161.44114281
 21
144.967055598
 31
0.0
  0
LINE
  5
1D4
330
188
100
AcDbEntity
  8
DV3_Standard
 62
     7
100
AcDbLine
 10
162.1999990184
 20
144.7398812038
 30
0.0
 11
162.2999990184
 21
144.7398812038
 31
0.0
  0
LINE
  5
1D5
330
188
100
AcDbEntity
  8
DV3_Standard
 62
     7
100
AcDbLine
 10
162.0999990184
 20
144.767445989
 30
0.0
 11
162.0999990184
 21
144.7854502148
 31
0.0
  0
LINE
  5
1D6
330
188
100
AcDbEntity
  8
DV3_Standard
 62
     7
100
AcDbLine
 10
162.0999990184
 20
143.8720098244
 30
0.0
 11
162.0999990184
 21
144.767445989
 31
0.0
  0
ELLIPSE
  5
1D7
330
188
100
AcDbEntity
  8
DV3_Standard
 62
     7
100
AcDbEllipse
 10
162.1999990184
 20
144.767445989
 30
0.0
 11
-0.1000000000000003
 21
1.387778780781446E-14
 31
0.0
210
0.0
220
0.0
230
1.0
 40
0.2756478516
 41
0.0
 42
1.570796326794935
  0
ELLIPSE
  5
1D8
330
188
100
AcDbEntity
  8
DV3_Standard
 62
     7
100
AcDbEllipse
 10
162.2999990184
 20
144.767445989
 30
0.0
 11
-0.1000000000000003
 21
1.387778780781446E-14
 31
0.0
210
0.0
220
0.0
230
1.0
 40
0.2756478516
 41
1.570796326794935
 42
3.141592653589793
  0
LINE
  5
1D9
330
188
100
AcDbEntity
  8
DV3_Standard
 62
     7
100
AcDbLine
 10
162.3999990184
 20
144.767445989
 30
0.0
 11
162.3999990184
 21
143.8544246731
 31
0.0
  0
LINE
  5
1DA
330
188
100
AcDbEntity
  8
DV3_Standard
 62
     7
100
AcDbLine
 10
162.8499990184
 20
143.8395113402
 30
0.0
 11
162.8499990184
 21
144.767445989
 31
0.0
  0
LINE
  5
1DB
330
188
100
AcDbEntity
  8
DV3_Standard
 62
     7
100
AcDbLine
 10
162.9499990184
 20
144.7398812038
 30
0.0
 11
163.0499990184
 21
144.7398812038
 31
0.0
  0
ELLIPSE
  5
1DC
330
188
100
AcDbEntity
  8
DV3_Standard
 62
     7
100
AcDbEllipse
 10
162.9499990184
 20
144.767445989
 30
0.0
 11
-0.09999999999999939
 21
1.387778780781446E-14
 31
0.0
210
0.0
220
0.0
230
1.0
 40
0.2756478516
 41
0.0
 42
1.570796326794935
  0
LINE
  5
1DD
330
188
100
AcDbEntity
  8
DV3_Standard
 62
     7
100
AcDbLine
 10
163.1499990184
 20
144.767445989
 30
0.0
 11
163.1499990184
 21
144.7851349431
 31
0.0
  0
LINE
  5
1DE
330
188
100
AcDbEntity
  8
DV3_Standard
 62
     7
100
AcDbLine
 10
163.1499990184
 20
144.767445989
 30
0.0
 11
163.1499990184
 21
143.8354634295
 31
0.0
  0
ELLIPSE
  5
1DF
330
188
100
AcDbEntity
  8
DV3_Standard
 62
     7
100
AcDbEllipse
 10
163.0499990184
 20
144.767445989
 30
0.0
 11
-0.1000000000000003
 21
1.387778780781446E-14
 31
0.0
210
0.0
220
0.0
230
1.0
 40
0.2756478516
 41
1.570796326794651
 42
3.141592653589793
  0
LINE
  5
1E0
330
188
100
AcDbEntity
  8
DV3_Standard
 62
     7
100
AcDbLine
 10
166.1999990184
 20
143.7943096706
 30
0.0
 11
166.1999990184
 21
144.767445989
 31
0.0
  0
ELLIPSE
  5
1E1
330
188
100
AcDbEntity
  8
DV3_Standard
 62
     7
100
AcDbEllipse
 10
166.2999990184
 20
144.767445989
 30
0.0
 11
-0.09999999999999992
 21
1.387778780781446E-14
 31
0.0
210
0.0
220
0.0
230
1.0
 40
0.2756478516
 41
0.0
 42
1.570796326794651
  0
LINE
  5
1E2
330
188
100
AcDbEntity
  8
DV3_Standard
 62
     7
100
AcDbLine
 10
166.4999990184
 20
144.767445989
 30
0.0
 11
166.4999990184
 21
144.7851349431
 31
0.0
  0
LINE
  5
1E3
330
188
100
AcDbEntity
  8
DV3_Standard
 62
     7
100
AcDbLine
 10
166.4999990184
 20
144.767445989
 30
0.0
 11
166.4999990184
 21
143.7902617599
 31
0.0
  0
LINE
  5
1E4
330
188
100
AcDbEntity
  8
DV3_Standard
 62
     7
100
AcDbLine
 10
166.3999990184
 20
144.7398812038
 30
0.0
 11
166.2999990184
 21
144.7398812038
 31
0.0
  0
ELLIPSE
  5
1E5
330
188
100
AcDbEntity
  8
DV3_Standard
 62
     7
100
AcDbEllipse
 10
166.3999990184
 20
144.767445989
 30
0.0
 11
-0.1000000000000002
 21
1.387778780781446E-14
 31
0.0
210
0.0
220
0.0
230
1.0
 40
0.2756478516
 41
1.570796326794935
 42
3.141592653589793
  0
LINE
  5
1E6
330
188
100
AcDbEntity
  8
DV3_Standard
 62
     7
100
AcDbLine
 10
169.5499990184
 20
143.8505209777
 30
0.0
 11
169.5499990184
 21
144.767445989
 31
0.0
  0
ELLIPSE
  5
1E7
330
188
100
AcDbEntity
  8
DV3_Standard
 62
     7
100
AcDbEllipse
 10
169.6499990184
 20
144.767445989
 30
0.0
 11
-0.1000000000000003
 21
1.387778780781446E-14
 31
0.0
210
0.0
220
0.0
230
1.0
 40
0.2756478516
 41
0.0
 42
1.570796326794935
  0
LINE
  5
1E8
330
188
100
AcDbEntity
  8
DV3_Standard
 62
     7
100
AcDbLine
 10
169.8499990184
 20
144.767445989
 30
0.0
 11
169.8499990184
 21
144.7851349431
 31
0.0
  0
LINE
  5
1E9
330
188
100
AcDbEntity
  8
DV3_Standard
 62
     7
100
AcDbLine
 10
169.8499990184
 20
144.767445989
 30
0.0
 11
169.8499990184
 21
143.9086319167
 31
0.0
  0
LINE
  5
1EA
330
188
100
AcDbEntity
  8
DV3_Standard
 62
     7
100
AcDbLine
 10
169.7499990184
 20
144.7398812038
 30
0.0
 11
169.6499990184
 21
144.7398812038
 31
0.0
  0
ELLIPSE
  5
1EB
330
188
100
AcDbEntity
  8
DV3_Standard
 62
     7
100
AcDbEllipse
 10
169.7499990184
 20
144.767445989
 30
0.0
 11
-0.1000000000000003
 21
1.387778780781446E-14
 31
0.0
210
0.0
220
0.0
230
1.0
 40
0.2756478516
 41
1.570796326794935
 42
3.141592653589793
  0
LINE
  5
1EC
330
188
100
AcDbEntity
  8
DV3_Standard
 62
     7
100
AcDbLine
 10
170.2999990184
 20
144.767445989
 30
0.0
 11
170.2999990184
 21
144.7851349431
 31
0.0
  0
LINE
  5
1ED
330
188
100
AcDbEntity
  8
DV3_Standard
 62
     7
100
AcDbLine
 10
170.2999990184
 20
143.9051212378
 30
0.0
 11
170.2999990184
 21
144.767445989
 31
0.0
  0
ELLIPSE
  5
1EE
330
188
100
AcDbEntity
  8
DV3_Standard
 62
     7
100
AcDbEllipse
 10
170.3999990184
 20
144.767445989
 30
0.0
 11
-0.1000000000000003
 21
1.387778780781446E-14
 31
0.0
210
0.0
220
0.0
230
1.0
 40
0.2756478516
 41
0.0
 42
1.570796326794935
  0
LINE
  5
1EF
330
188
100
AcDbEntity
  8
DV3_Standard
 62
     7
100
AcDbLine
 10
170.4999990184
 20
144.7398812038
 30
0.0
 11
170.3999990184
 21
144.7398812038
 31
0.0
  0
ELLIPSE
  5
1F0
330
188
100
AcDbEntity
  8
DV3_Standard
 62
     7
100
AcDbEllipse
 10
170.4999990184
 20
144.767445989
 30
0.0
 11
-0.09999999999999939
 21
1.387778780781446E-14
 31
0.0
210
0.0
220
0.0
230
1.0
 40
0.2756478516
 41
1.570796326794935
 42
3.141592653589793
  0
LINE
  5
1F1
330
188
100
AcDbEntity
  8
DV3_Standard
 62
     7
100
AcDbLine
 10
170.5999990184
 20
144.767445989
 30
0.0
 11
170.5999990184
 21
143.9172505897
 31
0.0
  0
LINE
  5
1F2
330
188
100
AcDbEntity
  8
DV3_Standard
 62
     7
100
AcDbLine
 10
171.4241775607
 20
144.9946193335
 30
0.0
 11
171.4241775607
 21
145.0221830691
 31
0.0
  0
LINE
  5
1F3
330
188
100
AcDbEntity
  8
DV3_Standard
 62
     7
100
AcDbLine
 10
171.4241775607
 20
144.9946193335
 30
0.0
 11
171.4146956485
 21
143.95018973
 31
0.0
  0
LINE
  5
1F4
330
188
100
AcDbEntity
  8
DV3_Standard
 62
     7
100
AcDbLine
 10
171.3241737529
 20
144.967055598
 30
0.0
 11
171.2588552267
 21
144.967055598
 31
0.0
  0
ELLIPSE
  5
1F5
330
188
100
AcDbEntity
  8
DV3_Standard
 62
     7
100
AcDbEllipse
 10
171.3241737529
 20
144.9946193335
 30
0.0
 11
-0.1000038078385734
 21
1.387778780781446E-14
 31
0.0
210
0.0
220
0.0
230
1.0
 40
0.2756268604
 41
1.570796326794651
 42
3.141592653589793
  0
ELLIPSE
  5
1F6
330
188
100
AcDbEntity
  8
DV3_Standard
 62
     7
100
AcDbEllipse
 10
171.3241737529
 20
145.0221830691
 30
0.0
 11
0.1000038078385734
 21
-1.387778780781446E-14
 31
0.0
210
0.0
220
0.0
230
1.0
 40
0.2756268604
 41
0.0
 42
1.570796326794935
  0
LINE
  5
1F7
330
188
100
AcDbEntity
  8
DV3_Standard
 62
     7
100
AcDbLine
 10
171.4241775607
 20
145.2013473504
 30
0.0
 11
171.4241775607
 21
145.228911086
 31
0.0
  0
ELLIPSE
  5
1F8
330
188
100
AcDbEntity
  8
DV3_Standard
 62
     7
100
AcDbEllipse
 10
171.3241737529
 20
145.2013473504
 30
0.0
 11
-0.1000038078385734
 21
1.387778780781446E-14
 31
0.0
210
0.0
220
0.0
230
1.0
 40
0.2756268604
 41
1.570796326794651
 42
3.141592653589793
  0
LINE
  5
1F9
330
188
100
AcDbEntity
  8
DV3_Standard
 62
     7
100
AcDbLine
 10
171.4241775607
 20
145.2013473504
 30
0.0
 11
171.4225953452
 21
145.0270668143
 31
0.0
  0
LINE
  5
1FA
330
188
100
AcDbEntity
  8
DV3_Standard
 62
     7
100
AcDbLine
 10
171.3241737529
 20
145.2564748216
 30
0.0
 11
171.2599990184
 21
145.2564748216
 31
0.0
  0
ELLIPSE
  5
1FB
330
188
100
AcDbEntity
  8
DV3_Standard
 62
     7
100
AcDbEllipse
 10
171.3241737529
 20
145.228911086
 30
0.0
 11
0.1000038078385734
 21
-1.387778780781446E-14
 31
0.0
210
0.0
220
0.0
230
1.0
 40
0.2756268604
 41
0.0
 42
1.570796326794935
  0
LINE
  5
1FC
330
188
100
AcDbEntity
  8
DV3_Standard
 62
     7
100
AcDbLine
 10
171.4187345644
 20
145.525188188
 30
0.0
 11
171.41614307
 21
145.2397359122
 31
0.0
  0
LINE
  5
1FD
330
188
100
AcDbEntity
  8
DV3_Standard
 62
     7
100
AcDbLine
 10
161.2838549667
 20
145.2397359122
 30
0.0
 11
161.2812634723
 21
145.525188188
 31
0.0
  0
ELLIPSE
  5
1FE
330
188
100
AcDbEntity
  8
DV3_Standard
 62
     7
100
AcDbEllipse
 10
161.3758242838
 20
145.228911086
 30
0.0
 11
0.1000038078385734
 21
-1.387778780781446E-14
 31
0.0
210
0.0
220
0.0
230
1.0
 40
0.2756268604
 41
1.570796326794651
 42
3.141592653589793
  0
LINE
  5
1FF
330
188
100
AcDbEntity
  8
DV3_Standard
 62
     7
100
AcDbLine
 10
161.3758242838
 20
145.1737836148
 30
0.0
 11
161.4399990184
 21
145.1737836148
 31
0.0
  0
LINE
  5
200
330
188
100
AcDbEntity
  8
DV3_Standard
 62
     7
100
AcDbLine
 10
161.275820476
 20
145.2013473504
 30
0.0
 11
161.275820476
 21
145.228911086
 31
0.0
  0
LINE
  5
201
330
188
100
AcDbEntity
  8
DV3_Standard
 62
     7
100
AcDbLine
 10
161.2774026915
 20
145.0270668143
 30
0.0
 11
161.275820476
 21
145.2013473504
 31
0.0
  0
ELLIPSE
  5
202
330
188
100
AcDbEntity
  8
DV3_Standard
 62
     7
100
AcDbEllipse
 10
161.3758242838
 20
145.2013473504
 30
0.0
 11
-0.1000038078385734
 21
1.387778780781446E-14
 31
0.0
210
0.0
220
0.0
230
1.0
 40
0.2756268604
 41
0.0
 42
1.570796326794935
  0
LINE
  5
203
330
188
100
AcDbEntity
  8
DV3_Standard
 62
     7
100
AcDbLine
 10
161.3758242838
 20
145.0497468047
 30
0.0
 11
161.4399990184
 21
145.0497468047
 31
0.0
  0
ELLIPSE
  5
204
330
188
100
AcDbEntity
  8
DV3_Standard
 62
     7
100
AcDbEllipse
 10
161.3758242838
 20
145.0221830691
 30
0.0
 11
0.1000038078385734
 21
-1.387778780781446E-14
 31
0.0
210
0.0
220
0.0
230
1.0
 40
0.2756268604
 41
1.570796326794935
 42
3.141592653589793
  0
LINE
  5
205
330
188
100
AcDbEntity
  8
DV3_Standard
 62
     7
100
AcDbLine
 10
162.3499990184
 20
145.0180485088
 30
0.0
 11
162.3499990184
 21
145.525188188
 31
0.0
  0
LINE
  5
206
330
188
100
AcDbEntity
  8
DV3_Standard
 62
     7
100
AcDbLine
 10
170.3499990184
 20
145.0180485088
 30
0.0
 11
170.3499990184
 21
145.525188188
 31
0.0
  0
LINE
  5
207
330
188
100
AcDbEntity
  8
DV3_Standard
 62
     7
100
AcDbLine
 10
101.2153810568
 20
216.0838370215
 30
0.0
 11
97.6
 21
216.0838370215
 31
0.0
  0
LINE
  5
208
330
188
100
AcDbEntity
  8
DV3_Standard
 62
     7
100
AcDbLine
 10
76.85
 20
212.5838370215
 30
0.0
 11
105.85
 21
212.5838370215
 31
0.0
  0
LINE
  5
209
330
188
100
AcDbEntity
  8
DV3_Standard
 62
     7
100
AcDbLine
 10
76.85
 20
228.5838370215
 30
0.0
 11
105.85
 21
228.5838370215
 31
0.0
  0
LINE
  5
20A
330
188
100
AcDbEntity
  8
DV3_Standard
 62
     7
100
AcDbLine
 10
101.2153810568
 20
225.0838370215
 30
0.0
 11
97.6
 21
225.0838370215
 31
0.0
  0
LINE
  5
20B
330
188
100
AcDbEntity
  8
DV3_Standard
 62
     7
100
AcDbLine
 10
85.1
 20
225.0838370215
 30
0.0
 11
81.4846189432
 21
225.0838370215
 31
0.0
  0
LINE
  5
20C
330
188
100
AcDbEntity
  8
DV3_Standard
 62
     7
100
AcDbLine
 10
75.2346189432
 20
225.0838370215
 30
0.0
 11
75.1
 21
225.0838370215
 31
0.0
  0
LINE
  5
20D
330
188
100
AcDbEntity
  8
DV3_Standard
 62
     7
100
AcDbLine
 10
107.4653810568
 20
225.0838370215
 30
0.0
 11
107.6
 21
225.0838370215
 31
0.0
  0
SPLINE
  5
20E
330
188
100
AcDbEntity
  8
DV3_Standard
 62
     7
100
AcDbSpline
210
0.0
220
0.0
230
1.0
 70
     8
 71
     3
 72
    14
 73
    10
 74
     0
 42
0.000000001
 43
0.0000000001
 40
0.0
 40
0.0
 40
0.0
 40
0.0
 40
0.25
 40
0.25
 40
0.5
 40
0.5
 40
0.75
 40
0.75
 40
1.0
 40
1.0
 40
1.0
 40
1.0
 10
101.2153810567648
 20
225.0838370215202
 30
0.0
 10
101.5626989053922
 20
226.0616435899732
 30
0.0
 10
102.0606262179757
 20
226.758502084154
 30
0.0
 10
103.1505342825441
 20
227.6651840360235
 30
0.0
 10
103.7444084639491
 20
227.8791311363426
 30
0.0
 10
104.932813567338
 20
227.8799982893842
 30
0.0
 10
105.518367349735
 20
227.6726797311151
 30
0.0
 10
106.6186490928414
 20
226.7620812351915
 30
0.0
 10
107.1184458190151
 20
226.0605664226756
 30
0.0
 10
107.4653810567648
 20
225.0838370215192
 30
0.0
  0
SPLINE
  5
20F
330
188
100
AcDbEntity
  8
DV3_Standard
 62
     7
100
AcDbSpline
210
0.0
220
0.0
230
1.0
 70
     8
 71
     3
 72
    14
 73
    10
 74
     0
 42
0.000000001
 43
0.0000000001
 40
0.0
 40
0.0
 40
0.0
 40
0.0
 40
0.25
 40
0.25
 40
0.5
 40
0.5
 40
0.75
 40
0.75
 40
1.0
 40
1.0
 40
1.0
 40
1.0
 10
85.09999999999822
 20
225.0838370215226
 30
0.0
 10
85.7930883525105
 20
226.0594654642922
 30
0.0
 10
86.80064852034145
 20
226.7654441529394
 30
0.0
 10
88.99129397271537
 20
227.6711579173353
 30
0.0
 10
90.17550827620475
 20
227.8814603140251
 30
0.0
 10
92.55559628502924
 20
227.8776454758877
 30
0.0
 10
93.7386198945728
 20
227.6623462333378
 30
0.0
 10
95.91062293441514
 20
226.7571599186992
 30
0.0
 10
96.91212564764834
 20
226.0521259572272
 30
0.0
 10
97.59999999999818
 20
225.0838370215207
 30
0.0
  0
SPLINE
  5
210
330
188
100
AcDbEntity
  8
DV3_Standard
 62
     7
100
AcDbSpline
210
0.0
220
0.0
230
1.0
 70
     8
 71
     3
 72
    14
 73
    10
 74
     0
 42
0.000000001
 43
0.0000000001
 40
0.0
 40
0.0
 40
0.0
 40
0.0
 40
0.2500000000000001
 40
0.2500000000000001
 40
0.5
 40
0.5
 40
0.75
 40
0.75
 40
1.0
 40
1.0
 40
1.0
 40
1.0
 10
75.23461894323162
 20
225.083837021524
 30
0.0
 10
75.58193679185904
 20
226.0616435899771
 30
0.0
 10
76.07986410444254
 20
226.7585020841578
 30
0.0
 10
77.16977216901093
 20
227.6651840360274
 30
0.0
 10
77.76364635041597
 20
227.8791311363464
 30
0.0
 10
78.95205145380487
 20
227.8799982893881
 30
0.0
 10
79.53760523620188
 20
227.6726797311189
 30
0.0
 10
80.63788697930822
 20
226.7620812351954
 30
0.0
 10
81.13768370548195
 20
226.0605664226795
 30
0.0
 10
81.48461894323161
 20
225.0838370215231
 30
0.0
  0
LINE
  5
211
330
188
100
AcDbEntity
  8
DV3_Standard
 62
     7
100
AcDbLine
 10
85.1
 20
216.0838370215
 30
0.0
 11
81.4846189432
 21
216.0838370215
 31
0.0
  0
LINE
  5
212
330
188
100
AcDbEntity
  8
DV3_Standard
 62
     7
100
AcDbLine
 10
75.2346189432
 20
216.0838370215
 30
0.0
 11
75.1
 21
216.0838370215
 31
0.0
  0
LINE
  5
213
330
188
100
AcDbEntity
  8
DV3_Standard
 62
     7
100
AcDbLine
 10
107.4653810568
 20
216.0838370215
 30
0.0
 11
107.6
 21
216.0838370215
 31
0.0
  0
LINE
  5
214
330
188
100
AcDbEntity
  8
DV3_Standard
 62
     7
100
AcDbLine
 10
75.2346189432
 20
225.0838370215
 30
0.0
 11
75.2346189432
 21
216.0838370215
 31
0.0
  0
SPLINE
  5
215
330
188
100
AcDbEntity
  8
DV3_Standard
 62
     7
100
AcDbSpline
210
0.0
220
0.0
230
1.0
 70
     8
 71
     3
 72
    14
 73
    10
 74
     0
 42
0.000000001
 43
0.0000000001
 40
0.0
 40
0.0
 40
0.0
 40
0.0
 40
0.25
 40
0.25
 40
0.5
 40
0.5
 40
0.75
 40
0.75
 40
1.0
 40
1.0
 40
1.0
 40
1.0
 10
75.23461894323027
 20
216.083837021524
 30
0.0
 10
75.58193679185742
 20
215.1060304530708
 30
0.0
 10
76.0798641044407
 20
214.4091719588899
 30
0.0
 10
77.16977216900882
 20
213.50249000702
 30
0.0
 10
77.7636463504138
 20
213.2885429067009
 30
0.0
 10
78.95205145380268
 20
213.2876757536588
 30
0.0
 10
79.53760523619977
 20
213.4949943119278
 30
0.0
 10
80.63788697930636
 20
214.405592807851
 30
0.0
 10
81.13768370548031
 20
215.1071076203667
 30
0.0
 10
81.48461894323026
 20
216.0838370215231
 30
0.0
  0
LINE
  5
216
330
188
100
AcDbEntity
  8
DV3_Standard
 62
     7
100
AcDbLine
 10
81.4846189432
 20
216.0838370215
 30
0.0
 11
81.4846189432
 21
225.0838370215
 31
0.0
  0
LINE
  5
217
330
188
100
AcDbEntity
  8
DV3_Standard
 62
     7
100
AcDbLine
 10
85.1
 20
225.0838370215
 30
0.0
 11
85.1
 21
216.0838370215
 31
0.0
  0
SPLINE
  5
218
330
188
100
AcDbEntity
  8
DV3_Standard
 62
     7
100
AcDbSpline
210
0.0
220
0.0
230
1.0
 70
     8
 71
     3
 72
    14
 73
    10
 74
     0
 42
0.000000001
 43
0.0000000001
 40
0.0
 40
0.0
 40
0.0
 40
0.0
 40
0.25
 40
0.25
 40
0.5
 40
0.5
 40
0.75
 40
0.75
 40
1.0
 40
1.0
 40
1.0
 40
1.0
 10
85.09999999999687
 20
216.0838370215226
 30
0.0
 10
85.79308835250886
 20
215.1082085787527
 30
0.0
 10
86.8006485203396
 20
214.4022298901052
 30
0.0
 10
88.99129397271324
 20
213.4965161257087
 30
0.0
 10
90.17550827620258
 20
213.2862137290185
 30
0.0
 10
92.55559628502706
 20
213.2900285671552
 30
0.0
 10
93.73861989457069
 20
213.5053278097047
 30
0.0
 10
95.91062293441331
 20
214.4105141243427
 30
0.0
 10
96.9121256476467
 20
215.1155480858145
 30
0.0
 10
97.59999999999683
 20
216.0838370215207
 30
0.0
  0
LINE
  5
219
330
188
100
AcDbEntity
  8
DV3_Standard
 62
     7
100
AcDbLine
 10
97.6
 20
216.0838370215
 30
0.0
 11
97.6
 21
225.0838370215
 31
0.0
  0
LINE
  5
21A
330
188
100
AcDbEntity
  8
DV3_Standard
 62
     7
100
AcDbLine
 10
101.2153810568
 20
225.0838370215
 30
0.0
 11
101.2153810568
 21
216.0838370215
 31
0.0
  0
SPLINE
  5
21B
330
188
100
AcDbEntity
  8
DV3_Standard
 62
     7
100
AcDbSpline
210
0.0
220
0.0
230
1.0
 70
     8
 71
     3
 72
    14
 73
    10
 74
     0
 42
0.000000001
 43
0.0000000001
 40
0.0
 40
0.0
 40
0.0
 40
0.0
 40
0.25
 40
0.25
 40
0.5
 40
0.5
 40
0.75
 40
0.75
 40
1.0
 40
1.0
 40
1.0
 40
1.0
 10
101.2153810567634
 20
216.0838370215201
 30
0.0
 10
101.5626989053905
 20
215.106030453067
 30
0.0
 10
102.0606262179738
 20
214.409171958886
 30
0.0
 10
103.150534282542
 20
213.5024900070161
 30
0.0
 10
103.7444084639469
 20
213.288542906697
 30
0.0
 10
104.9328135673359
 20
213.2876757536549
 30
0.0
 10
105.5183673497329
 20
213.4949943119239
 30
0.0
 10
106.6186490928395
 20
214.4055928078471
 30
0.0
 10
107.1184458190135
 20
215.1071076203628
 30
0.0
 10
107.4653810567634
 20
216.0838370215192
 30
0.0
  0
LINE
  5
21C
330
188
100
AcDbEntity
  8
DV3_Standard
 62
     7
100
AcDbLine
 10
107.4653810568
 20
216.0838370215
 30
0.0
 11
107.4653810568
 21
225.0838370215
 31
0.0
  0
ARC
  5
21D
330
188
100
AcDbEntity
  8
DV3_Standard
 62
     7
100
AcDbCircle
 10
97.9535976036
 20
218.7195382197
 30
0.0
 40
9.999999999999996
100
AcDbArc
 50
322.1519040322
 51
344.7179936136
  0
ARC
  5
21E
330
188
100
AcDbEntity
  8
DV3_Standard
 62
     7
100
AcDbCircle
 10
84.7464023964
 20
218.7195382197
 30
0.0
 40
10.0
100
AcDbArc
 50
195.2820063864
 51
217.8480959677
  0
ARC
  5
21F
330
188
100
AcDbEntity
  8
DV3_Standard
 62
     7
100
AcDbCircle
 10
97.9535976036
 20
222.4481358233
 30
0.0
 40
9.999999999999993
100
AcDbArc
 50
15.2820063864
 51
37.8480959677
  0
ARC
  5
220
330
188
100
AcDbEntity
  8
DV3_Standard
 62
     7
100
AcDbCircle
 10
84.7464023964
 20
222.4481358233
 30
0.0
 40
9.999999999999996
100
AcDbArc
 50
142.1519040322
 51
164.7179936136
  0
LINE
  5
221
330
188
100
AcDbEntity
  8
DV3_Standard
 62
     7
100
AcDbLine
 10
107.6
 20
216.0838370215
 30
0.0
 11
107.6
 21
225.0838370215
 31
0.0
  0
LINE
  5
222
330
188
100
AcDbEntity
  8
DV3_Standard
 62
     7
100
AcDbLine
 10
75.1
 20
225.0838370215
 30
0.0
 11
75.1
 21
216.0838370215
 31
0.0
  0
LINE
  5
223
330
188
100
AcDbEntity
  8
DV3_Standard
 62
     7
100
AcDbLine
 10
189.821984288
 20
186.4838370215
 30
0.0
 11
189.5679943576
 21
157.3794737532
 31
0.0
  0
LINE
  5
224
330
188
100
AcDbEntity
  8
DV3_Standard
 62
     7
100
AcDbLine
 10
142.8780137487
 20
186.4838370215
 30
0.0
 11
143.1320036791
 21
157.3794737532
 31
0.0
  0
LINE
  5
225
330
188
100
AcDbEntity
  8
DV3_Standard
 62
     7
100
AcDbLine
 10
189.0680133961
 20
156.8838370209
 30
0.0
 11
174.0600708004
 21
156.8838370208
 31
0.0
  0
LINE
  5
226
330
188
100
AcDbEntity
  8
DV3_Standard
 62
     7
100
AcDbLine
 10
174.0600708004
 20
156.8838370208
 30
0.0
 11
158.6398956318
 21
156.8838370208
 31
0.0
  0
LINE
  5
227
330
188
100
AcDbEntity
  8
DV3_Standard
 62
     7
100
AcDbLine
 10
158.6398956318
 20
156.8838370208
 30
0.0
 11
143.6319846406
 21
156.8838370209
 31
0.0
  0
ARC
  5
228
330
188
100
AcDbEntity
  8
DV3_Standard
 62
     7
100
AcDbCircle
 10
189.0680133961
 20
157.3838370209
 30
0.0
 40
0.5000000000000536
100
AcDbArc
 50
270.0
 51
359.5
  0
ARC
  5
229
330
188
100
AcDbEntity
  8
DV3_Standard
 62
     7
100
AcDbCircle
 10
143.6319846406
 20
157.3838370209
 30
0.0
 40
0.4999999999999494
100
AcDbArc
 50
180.5
 51
270.0
  0
LINE
  5
22A
330
188
100
AcDbEntity
  8
DV3_Standard
 62
     7
100
AcDbLine
 10
179.9774598713
 20
145.525188188
 30
0.0
 11
152.7225381654
 21
145.525188188
 31
0.0
  0
ARC
  5
22B
330
188
100
AcDbEntity
  8
DV3_Standard
 62
     7
100
AcDbCircle
 10
166.3499990184
 20
162.2838370208
 30
0.0
 40
21.60000000000001
100
AcDbArc
 50
195.483943906
 51
230.8833745462
  0
ARC
  5
22C
330
188
100
AcDbEntity
  8
DV3_Standard
 62
     7
100
AcDbCircle
 10
166.3499990184
 20
162.2838370208
 30
0.0
 40
21.60000000000001
100
AcDbArc
 50
309.1166254538
 51
344.516056094
  0
ARC
  5
22D
330
188
100
AcDbEntity
  8
DV3_Standard
 62
     7
100
AcDbCircle
 10
187.6478862376
 20
156.383837021
 30
0.0
 40
0.5000000000000017
100
AcDbArc
 50
90.0
 51
164.516056094
  0
ARC
  5
22E
330
188
100
AcDbEntity
  8
DV3_Standard
 62
     7
100
AcDbCircle
 10
145.0521117992
 20
156.383837021
 30
0.0
 40
0.5000000000000004
100
AcDbArc
 50
15.483943906
 51
90.0
  0
LINE
  5
22F
330
188
100
AcDbEntity
  8
DV3_Standard
 62
     7
100
AcDbLine
 10
101.85
 20
211.5838370215
 30
0.0
 11
101.85
 21
212.5838370215
 31
0.0
  0
LINE
  5
230
330
188
100
AcDbEntity
  8
DV3_Standard
 62
     7
100
AcDbLine
 10
80.85
 20
212.5838370215
 30
0.0
 11
80.85
 21
211.5838370215
 31
0.0
  0
SPLINE
  5
231
330
188
100
AcDbEntity
  8
DV3_Standard
 62
     7
100
AcDbSpline
210
0.0
220
0.0
230
1.0
 70
     8
 71
     3
 72
    10
 73
     6
 74
     0
 42
0.000000001
 43
0.0000000001
 40
0.0
 40
0.0
 40
0.0
 40
0.0
 40
0.4811189418056552
 40
0.4811189418056552
 40
1.0
 40
1.0
 40
1.0
 40
1.0
 10
154.4417921461611
 20
111.1871529654531
 30
0.0
 10
155.3594662536373
 20
111.0601720749028
 30
0.0
 10
156.3702536175758
 20
110.9704200281854
 30
0.0
 10
158.4938387095703
 20
110.8569826009036
 30
0.0
 10
159.6127640600873
 20
110.834424326258
 30
0.0
 10
160.7382370298131
 20
110.8258147156359
 30
0.0
  0
SPLINE
  5
232
330
188
100
AcDbEntity
  8
DV3_Standard
 62
     7
100
AcDbSpline
210
0.0
220
0.0
230
1.0
 70
     8
 71
     3
 72
    10
 73
     6
 74
     0
 42
0.000000001
 43
0.0000000001
 40
0.0
 40
0.0
 40
0.0
 40
0.0
 40
0.5724711835425437
 40
0.5724711835425437
 40
1.0
 40
1.0
 40
1.0
 40
1.0
 10
179.3641241126966
 20
111.3679667683137
 30
0.0
 10
178.1917219134241
 20
111.1421859523958
 30
0.0
 10
176.7608492955703
 20
110.993445201056
 30
0.0
 10
174.2228672591957
 20
110.8578777461418
 30
0.0
 10
173.1212853779669
 20
110.8351197887433
 30
0.0
 10
172.0131989624274
 20
110.8262179850403
 30
0.0
  0
ELLIPSE
  5
233
330
188
100
AcDbEntity
  8
DV3_Standard
 62
     7
100
AcDbEllipse
 10
183.9686984836
 20
117.2720789809
 30
0.0
 11
-0.493618382758878
 21
0.08231793180143999
 31
0.0
210
0.0
220
0.0
230
1.0
 40
0.969507046
 41
3.120772694385062
 42
3.141314730002154
  0
LINE
  5
234
330
188
100
AcDbEntity
  8
DV3_Standard
 62
     7
100
AcDbLine
 10
158.0172600249
 20
144.1113284346
 30
0.0
 11
158.0161471383
 21
145.525188188
 31
0.0
  0
LINE
  5
235
330
188
100
AcDbEntity
  8
DV3_Standard
 62
     7
100
AcDbLine
 10
143.8221312927
 20
154.6893183953
 30
0.0
 11
145.0093053272
 21
154.6893183953
 31
0.0
  0
ELLIPSE
  5
236
330
188
100
AcDbEntity
  8
DV3_Standard
 62
     7
100
AcDbEllipse
 10
188.877866744
 20
154.1893183953
 30
0.0
 11
-2.400857290751901E-12
 21
0.4999999999998062
 31
0.0
210
0.0
220
0.0
230
1.0
 40
0.9999444769
 41
5.362472928735516
 42
6.283185307179586
  0
ELLIPSE
  5
237
330
188
100
AcDbEntity
  8
DV3_Standard
 62
     7
100
AcDbEllipse
 10
143.8221312927
 20
154.1893183953
 30
0.0
 11
-3.561734240875580E-11
 21
-0.5000000000001183
 31
0.0
210
0.0
220
0.0
230
1.0
 40
0.9999444769
 41
3.141592653589793
 42
4.069778988931966
  0
ARC
  5
238
330
188
100
AcDbEntity
  8
DV3_Standard
 62
     7
100
AcDbCircle
 10
166.3497952623
 20
248.2523902553
 30
0.0
 40
104.476984851724
100
AcDbArc
 50
264.0731603132
 51
271.9493043257
  0
SPLINE
  5
239
330
188
100
AcDbEntity
  8
DV3_Standard
 62
     7
100
AcDbSpline
210
0.0
220
0.0
230
1.0
 70
     8
 71
     3
 72
     8
 73
     4
 74
     0
 42
0.000000001
 43
0.0000000001
 40
0.0
 40
0.0
 40
0.0
 40
0.0
 40
1.0
 40
1.0
 40
1.0
 40
1.0
 10
145.3611010373418
 20
149.8592897164013
 30
0.0
 10
145.3618404076421
 20
149.8279766504586
 30
0.0
 10
145.3630542052816
 20
149.7966865639559
 30
0.0
 10
145.3647407229612
 20
149.7654224396999
 30
0.0
  0
LINE
  5
23A
330
188
100
AcDbEntity
  8
DV3_Standard
 62
     7
100
AcDbLine
 10
187.6935198973
 20
154.6893183953
 30
0.0
 11
188.877866744
 21
154.6893183953
 31
0.0
  0
LINE
  5
23B
330
188
100
AcDbEntity
  8
DV3_Standard
 62
     7
100
AcDbLine
 10
145.0093053272
 20
154.6893183953
 30
0.0
 11
146.1678019628
 21
154.6893183953
 31
0.0
  0
LINE
  5
23C
330
188
100
AcDbEntity
  8
DV3_Standard
 62
     7
100
AcDbLine
 10
186.5116294621
 20
154.6893183953
 30
0.0
 11
187.6935198973
 21
154.6893183953
 31
0.0
  0
ELLIPSE
  5
23D
330
188
100
AcDbEntity
  8
DV3_Standard
 62
     7
100
AcDbEllipse
 10
153.1245930879
 20
144.3614263318
 30
0.0
 11
-0.03827008693126598
 21
-0.2975489883133079
 31
0.0
210
0.0
220
0.0
230
1.0
 40
0.2000241356
 41
-3.176413052710664
 42
-3.156189036706235
  0
LINE
  5
23E
330
188
100
AcDbEntity
  8
DV3_Standard
 62
     7
100
AcDbLine
 10
173.6204053878
 20
144.0836188939
 30
0.0
 11
173.6071886435
 21
145.525188188
 31
0.0
  0
LINE
  5
23F
330
188
100
AcDbEntity
  8
DV3_Standard
 62
     7
100
AcDbLine
 10
159.0928094099
 20
145.5251900007
 30
0.0
 11
159.0792760012
 21
144.0490816677
 31
0.0
  0
LINE
  5
240
330
188
100
AcDbEntity
  8
DV3_Standard
 62
     7
100
AcDbLine
 10
161.0149990184
 20
144.0180988568
 30
0.0
 11
161.0149990184
 21
145.525188188
 31
0.0
  0
LINE
  5
241
330
188
100
AcDbEntity
  8
DV3_Standard
 62
     7
100
AcDbLine
 10
171.6849990184
 20
145.525188188
 30
0.0
 11
171.6849990184
 21
144.0180988568
 31
0.0
  0
LINE
  5
242
330
188
100
AcDbEntity
  8
DV3_Standard
 62
     7
100
AcDbLine
 10
161.1778047233
 20
143.863399292
 30
0.0
 11
161.0149990184
 21
144.0180988568
 31
0.0
  0
LINE
  5
243
330
188
100
AcDbEntity
  8
DV3_Standard
 62
     7
100
AcDbLine
 10
171.5977230947
 20
143.935168425
 30
0.0
 11
171.6849990184
 21
144.0180988568
 31
0.0
  0
LINE
  5
244
330
188
100
AcDbEntity
  8
DV3_Standard
 62
     7
100
AcDbLine
 10
143.3462234911
 20
154.2806897437
 30
0.0
 11
144.9942873247
 21
124.5868724967
 31
0.0
  0
ARC
  5
245
330
188
100
AcDbEntity
  8
DV3_Standard
 62
     7
100
AcDbCircle
 10
317.4812196928
 20
161.5968679675
 30
0.0
 40
175.0090017969213
100
AcDbArc
 50
194.9952797344
 51
195.7462048322
  0
ARC
  5
246
330
188
100
AcDbEntity
  8
DV3_Standard
 62
     7
100
AcDbCircle
 10
154.3738089776
 20
118.1205933892
 30
0.0
 40
6.202832227963126
100
AcDbArc
 50
188.6244756754
 51
196.8379622651
  0
ARC
  5
247
330
188
100
AcDbEntity
  8
DV3_Standard
 62
     7
100
AcDbCircle
 10
162.8925135222
 20
278.1867039829
 30
0.0
 40
167.3898984315601
100
AcDbArc
 50
269.2618624808
 51
269.8490500194
  0
SPLINE
  5
248
330
188
100
AcDbEntity
  8
DV3_Standard
 62
     7
100
AcDbSpline
210
0.0
220
0.0
230
1.0
 70
     8
 71
     3
 72
    18
 73
    14
 74
     0
 42
0.000000001
 43
0.0000000001
 40
0.0
 40
0.0
 40
0.0
 40
0.0
 40
0.0451573057891543
 40
0.1657404707598528
 40
0.2726205762247617
 40
0.3719304181103795
 40
0.4630600596676183
 40
0.5589453462087257
 40
0.6555935166214638
 40
0.7485660317251364
 40
0.8376334317734795
 40
0.9232011281185544
 40
1.0
 40
1.0
 40
1.0
 40
1.0
 10
149.0413607594044
 20
114.0982661513049
 30
0.0
 10
149.0543447541363
 20
114.0485181775663
 30
0.0
 10
149.0966355908417
 20
113.8926339564485
 30
0.0
 10
149.2098948748626
 20
113.5592194268593
 30
0.0
 10
149.4267754668496
 20
113.1614783350706
 30
0.0
 10
149.7258139315691
 20
112.8026836923602
 30
0.0
 10
150.1091205978242
 20
112.4814916799752
 30
0.0
 10
150.597812994321
 20
112.1899317315104
 30
0.0
 10
151.192575013982
 20
111.9256684668675
 30
0.0
 10
151.8798752916142
 20
111.6899156930354
 30
0.0
 10
152.6313609147146
 20
111.488457790559
 30
0.0
 10
153.4405520870639
 20
111.3172945010239
 30
0.0
 10
153.969819316983
 20
111.2359826878591
 30
0.0
 10
154.267271366135
 20
111.1911122875781
 30
0.0
  0
SPLINE
  5
249
330
188
100
AcDbEntity
  8
DV3_Standard
 62
     7
100
AcDbSpline
210
0.0
220
0.0
230
1.0
 70
     8
 71
     3
 72
     9
 73
     5
 74
     0
 42
0.000000001
 43
0.0000000001
 40
0.0
 40
0.0
 40
0.0
 40
0.0
 40
0.3949296056291286
 40
1.0
 40
1.0
 40
1.0
 40
1.0
 10
148.2154484231837
 20
117.2756728864543
 30
0.0
 10
148.2154088246478
 20
117.2759094901015
 30
0.0
 10
148.2264531230975
 20
117.2578791757823
 30
0.0
 10
148.2313897845733
 20
117.2164783227171
 30
0.0
 10
148.2379270059975
 20
117.1830806838292
 30
0.0
  0
LINE
  5
24A
330
188
100
AcDbEntity
  8
DV3_Standard
 62
     7
100
AcDbLine
 10
162.4516351521
 20
110.8056888798
 30
0.0
 11
166.3500277956
 21
110.8056962868
 31
0.0
  0
ARC
  5
24B
330
188
100
AcDbEntity
  8
DV3_Standard
 62
     7
100
AcDbCircle
 10
133.1194091779
 20
109.2121168293
 30
0.0
 40
17.12268958420763
100
AcDbArc
 50
28.0131013694
 51
29.8803535632
  0
ARC
  5
24C
330
188
100
AcDbEntity
  8
DV3_Standard
 62
     7
100
AcDbCircle
 10
185.8747495453
 20
137.9021733488
 30
0.0
 40
42.9226901892788
100
AcDbArc
 50
201.5986492211
 51
207.9788435651
  0
SPLINE
  5
24D
330
188
100
AcDbEntity
  8
DV3_Standard
 62
     7
100
AcDbSpline
210
0.0
220
0.0
230
1.0
 70
     8
 71
     3
 72
    12
 73
     8
 74
     0
 42
0.000000001
 43
0.0000000001
 40
0.0
 40
0.0
 40
0.0
 40
0.0
 40
0.0829030939583894
 40
0.3146144677433728
 40
0.5745926681153627
 40
0.8850492028583008
 40
1.0
 40
1.0
 40
1.0
 40
1.0
 10
144.994287324732
 20
124.5868724967491
 30
0.0
 10
145.0158994246106
 20
124.5086163406338
 30
0.0
 10
145.0955131236594
 20
124.2337972997287
 30
0.0
 10
145.3186219764239
 20
123.7569776246244
 30
0.0
 10
145.5475319614388
 20
123.1023892656076
 30
0.0
 10
145.8195658769939
 20
122.5389857227334
 30
0.0
 10
145.9357773802607
 20
122.2155790501539
 30
0.0
 10
145.9731501105441
 20
122.1131899619292
 30
0.0
  0
LINE
  5
24E
330
188
100
AcDbEntity
  8
DV3_Standard
 62
     7
100
AcDbLine
 10
187.7060175709
 20
124.5965279634
 30
0.0
 11
189.3557798268
 21
154.2720394976
 31
0.0
  0
ARC
  5
24F
330
188
100
AcDbEntity
  8
DV3_Standard
 62
     7
100
AcDbCircle
 10
-98.2093312196
 20
192.2798489638
 30
0.0
 40
292.5117494523781
100
AcDbArc
 50
344.4986407153
 51
344.9480504949
  0
ARC
  5
250
330
188
100
AcDbEntity
  8
DV3_Standard
 62
     7
100
AcDbCircle
 10
178.3829658668
 20
118.1104821061
 30
0.0
 40
6.14518455910626
100
AcDbArc
 50
343.1145363762
 51
351.3893499865
  0
SPLINE
  5
251
330
188
100
AcDbEntity
  8
DV3_Standard
 62
     7
100
AcDbSpline
210
0.0
220
0.0
230
1.0
 70
     8
 71
     3
 72
    18
 73
    14
 74
     0
 42
0.000000001
 43
0.0000000001
 40
0.0
 40
0.0
 40
0.0
 40
0.0
 40
0.0173298195698188
 40
0.1067413531210967
 40
0.1988897166309242
 40
0.2946844706662693
 40
0.3943467851234563
 40
0.4979305196291322
 40
0.6044124182778616
 40
0.7098314610692781
 40
0.8267370446648243
 40
0.9542294066342564
 40
1.0
 40
1.0
 40
1.0
 40
1.0
 10
179.3761746149258
 20
111.3502185379343
 30
0.0
 10
179.4346309579166
 20
111.3603795776028
 30
0.0
 10
179.7430989777782
 20
111.4141822492103
 30
0.0
 10
180.2987444829705
 20
111.5480175454104
 30
0.0
 10
180.9836930825313
 20
111.7415887721511
 30
0.0
 10
181.6078831064721
 20
111.9672637525854
 30
0.0
 10
182.1605305053804
 20
112.2212374965759
 30
0.0
 10
182.6362553421034
 20
112.5134743966129
 30
0.0
 10
183.0080380469466
 20
112.8369236670584
 30
0.0
 10
183.2972794665755
 20
113.1991600264719
 30
0.0
 10
183.4998891247115
 20
113.5848605795389
 30
0.0
 10
183.6068774822758
 20
113.9051253643942
 30
0.0
 10
183.6470218764079
 20
114.0531829900718
 30
0.0
 10
183.6590200127048
 20
114.0989715463221
 30
0.0
  0
ARC
  5
252
330
188
100
AcDbEntity
  8
DV3_Standard
 62
     7
100
AcDbCircle
 10
169.0341431215
 20
365.1591691892
 30
0.0
 40
254.3657119271314
100
AcDbArc
 50
270.2736098276
 51
270.6715296072
  0
SPLINE
  5
253
330
188
100
AcDbEntity
  8
DV3_Standard
 62
     7
100
AcDbSpline
210
0.0
220
0.0
230
1.0
 70
     8
 71
     3
 72
     9
 73
     5
 74
     0
 42
0.000000001
 43
0.0000000001
 40
0.0
 40
0.0
 40
0.0
 40
0.0
 40
0.2533302256590364
 40
1.0
 40
1.0
 40
1.0
 40
1.0
 10
184.4624045113779
 20
117.1789800994122
 30
0.0
 10
184.464852442981
 20
117.1970757398585
 30
0.0
 10
184.4718592955456
 20
117.2561915699112
 30
0.0
 10
184.4852078126662
 20
117.2781366649321
 30
0.0
 10
184.4813857892299
 20
117.2722553734947
 30
0.0
  0
LINE
  5
254
330
188
100
AcDbEntity
  8
DV3_Standard
 62
     7
100
AcDbLine
 10
166.3500277923
 20
110.8056961755
 30
0.0
 11
170.2486836061
 21
110.8056887707
 31
0.0
  0
ARC
  5
255
330
188
100
AcDbEntity
  8
DV3_Standard
 62
     7
100
AcDbCircle
 10
180.1791419942
 20
119.9328883791
 30
0.0
 40
5.0489149460628
100
AcDbArc
 50
327.913445493
 51
333.1736191107
  0
ARC
  5
256
330
188
100
AcDbEntity
  8
DV3_Standard
 62
     7
100
AcDbCircle
 10
145.945599143
 20
138.0866763767
 30
0.0
 40
43.7975359220467
100
AcDbArc
 50
332.2176061733
 51
337.9420037768
  0
ARC
  5
257
330
188
100
AcDbEntity
  8
DV3_Standard
 62
     7
100
AcDbCircle
 10
163.6959360623
 20
132.3446815453
 30
0.0
 40
25.22930633170093
100
AcDbArc
 50
335.0119315948
 51
342.1148928992
  0
ARC
  5
258
330
188
100
AcDbEntity
  8
DV3_Standard
 62
     7
100
AcDbCircle
 10
188.9053064771
 20
154.1653705133
 30
0.0
 40
0.4629303521567744
100
AcDbArc
 50
13.3218729777
 51
41.954010723
  0
ARC
  5
259
330
188
100
AcDbEntity
  8
DV3_Standard
 62
     7
100
AcDbCircle
 10
143.81150732
 20
154.1584339282
 30
0.0
 40
0.4810774634770012
100
AcDbArc
 50
139.1703230619
 51
165.2780096033
  0
SPLINE
  5
25A
330
188
100
AcDbEntity
  8
DV3_Standard
 62
     7
100
AcDbSpline
210
0.0
220
0.0
230
1.0
 70
     8
 71
     3
 72
    20
 73
    16
 74
     0
 42
0.000000001
 43
0.0000000001
 40
0.0
 40
0.0
 40
0.0
 40
0.0
 40
0.0723613674105241
 40
0.1517940573897646
 40
0.2321895658931594
 40
0.3122536185615059
 40
0.3926321240105431
 40
0.4740466718486739
 40
0.555166203846713
 40
0.6365514125540221
 40
0.7190469632850434
 40
0.8015545752373432
 40
0.8845553949993332
 40
0.9692747481942319
 40
1.0
 40
1.0
 40
1.0
 40
1.0
 10
153.1640112959029
 20
144.661307701737
 30
0.0
 10
152.8142109226889
 20
144.710256505945
 30
0.0
 10
152.1952940694136
 20
144.7993353568214
 30
0.0
 10
151.2001619429158
 20
145.0195246584913
 30
0.0
 10
150.2475633970455
 20
145.2931647561532
 30
0.0
 10
149.3492599297321
 20
145.6234983032347
 30
0.0
 10
148.5222735624614
 20
146.0021609018939
 30
0.0
 10
147.7728602175204
 20
146.4247115876689
 30
0.0
 10
147.1143832190532
 20
146.8863520687279
 30
0.0
 10
146.5518516566559
 20
147.3810660579348
 30
0.0
 10
146.0902901114604
 20
147.90165043359
 30
0.0
 10
145.736162944176
 20
148.4426784830997
 30
0.0
 10
145.4999476916556
 20
148.9939059298733
 30
0.0
 10
145.3791612789917
 20
149.449928768595
 30
0.0
 10
145.3783281513642
 20
149.69183926149
 30
0.0
 10
145.3785093846528
 20
149.7672597312409
 30
0.0
  0
SPLINE
  5
25B
330
188
100
AcDbEntity
  8
DV3_Standard
 62
     7
100
AcDbSpline
210
0.0
220
0.0
230
1.0
 70
     8
 71
     3
 72
    20
 73
    16
 74
     0
 42
0.000000001
 43
0.0000000001
 40
0.0
 40
0.0
 40
0.0
 40
0.0
 40
0.0665000365788442
 40
0.1533143400534731
 40
0.239407474505579
 40
0.3239028272533671
 40
0.4075369164898376
 40
0.4911648314632001
 40
0.5737520237081289
 40
0.6558998372921846
 40
0.7383147071453632
 40
0.8200210984850989
 40
0.9011802492849955
 40
0.9823258907200251
 40
1.0
 40
1.0
 40
1.0
 40
1.0
 10
187.3666848053623
 20
149.7203437665359
 30
0.0
 10
187.3527943129206
 20
149.5584245444911
 30
0.0
 10
187.321776391421
 20
149.2422898784459
 30
0.0
 10
187.1318939498124
 20
148.7011433404298
 30
0.0
 10
186.8246813292241
 20
148.1430400649338
 30
0.0
 10
186.3986981079259
 20
147.6018052035973
 30
0.0
 10
185.8676834822649
 20
147.0874079807309
 30
0.0
 10
185.2379275995143
 20
146.6049672047636
 30
0.0
 10
184.5132706345563
 20
146.1617375369138
 30
0.0
 10
183.7036408296865
 20
145.7617133252334
 30
0.0
 10
182.8204657351061
 20
145.4095657732074
 30
0.0
 10
181.8690764225719
 20
145.1095212988523
 30
0.0
 10
180.8744106353033
 20
144.8734120031219
 30
0.0
 10
180.0835546601134
 20
144.72425188187
 30
0.0
 10
179.6719661433108
 20
144.6800647690115
 30
0.0
 10
179.586028129651
 20
144.6709232731854
 30
0.0
  0
ARC
  5
25C
330
188
100
AcDbEntity
  8
DV3_Standard
 62
     7
100
AcDbCircle
 10
160.5573787844
 20
197.8403167979
 30
0.0
 40
53.68592978720918
100
AcDbArc
 50
262.0864407921
 51
264.6970343406
  0
ARC
  5
25D
330
188
100
AcDbEntity
  8
DV3_Standard
 62
     7
100
AcDbCircle
 10
166.6590583023
 20
244.8677267212
 30
0.0
 40
101.0308298723162
100
AcDbArc
 50
271.8345007293
 51
277.351939257
  0
LINE
  5
25E
330
188
100
AcDbEntity
  8
DV3_Standard
 62
     7
100
AcDbLine
 10
226.85
 20
212.5838370215
 30
0.0
 11
255.85
 21
212.5838370215
 31
0.0
  0
LINE
  5
25F
330
188
100
AcDbEntity
  8
DV3_Standard
 62
     7
100
AcDbLine
 10
226.85
 20
228.5838370215
 30
0.0
 11
255.85
 21
228.5838370215
 31
0.0
  0
LINE
  5
260
330
188
100
AcDbEntity
  8
DV3_Standard
 62
     7
100
AcDbLine
 10
256.35
 20
225.0838370215
 30
0.0
 11
254.2626587737
 21
225.0838370215
 31
0.0
  0
LINE
  5
261
330
188
100
AcDbEntity
  8
DV3_Standard
 62
     7
100
AcDbLine
 10
243.4373412263
 20
225.0838370215
 30
0.0
 11
239.2626587737
 21
225.0838370215
 31
0.0
  0
LINE
  5
262
330
188
100
AcDbEntity
  8
DV3_Standard
 62
     7
100
AcDbLine
 10
228.4373412263
 20
225.0838370215
 30
0.0
 11
226.35
 21
225.0838370215
 31
0.0
  0
LINE
  5
263
330
188
100
AcDbEntity
  8
DV3_Standard
 62
     7
100
AcDbLine
 10
226.35
 20
225.0838370215
 30
0.0
 11
226.35
 21
227.8795657506
 31
0.0
  0
LINE
  5
264
330
188
100
AcDbEntity
  8
DV3_Standard
 62
     7
100
AcDbLine
 10
256.35
 20
227.8795657506
 30
0.0
 11
256.35
 21
225.0838370215
 31
0.0
  0
ARC
  5
265
330
188
100
AcDbEntity
  8
DV3_Standard
 62
     7
100
AcDbCircle
 10
248.85
 20
221.3052775023
 30
0.0
 40
6.601089837288594
100
AcDbArc
 50
34.9187681795
 51
145.0812318204
  0
ARC
  5
266
330
188
100
AcDbEntity
  8
DV3_Standard
 62
     7
100
AcDbCircle
 10
233.85
 20
221.3052775023
 30
0.0
 40
6.601089837288583
100
AcDbArc
 50
34.9187681795
 51
145.0812318204
  0
LINE
  5
267
330
188
100
AcDbEntity
  8
DV3_Standard
 62
     7
100
AcDbLine
 10
256.35
 20
216.0838370215
 30
0.0
 11
254.2626587736
 21
216.0838370215
 31
0.0
  0
LINE
  5
268
330
188
100
AcDbEntity
  8
DV3_Standard
 62
     7
100
AcDbLine
 10
243.4373412263
 20
216.0838370215
 30
0.0
 11
239.2626587736
 21
216.0838370215
 31
0.0
  0
LINE
  5
269
330
188
100
AcDbEntity
  8
DV3_Standard
 62
     7
100
AcDbLine
 10
228.4373412263
 20
216.0838370215
 30
0.0
 11
226.35
 21
216.0838370215
 31
0.0
  0
LINE
  5
26A
330
188
100
AcDbEntity
  8
DV3_Standard
 62
     7
100
AcDbLine
 10
228.4373412263
 20
225.0838370215
 30
0.0
 11
228.4373412263
 21
216.0838370215
 31
0.0
  0
ARC
  5
26B
330
188
100
AcDbEntity
  8
DV3_Standard
 62
     7
100
AcDbCircle
 10
233.85
 20
219.8623965407
 30
0.0
 40
6.601089837288568
100
AcDbArc
 50
214.9187681795
 51
325.0812318204
  0
LINE
  5
26C
330
188
100
AcDbEntity
  8
DV3_Standard
 62
     7
100
AcDbLine
 10
239.2626587736
 20
216.0838370215
 30
0.0
 11
239.2626587737
 21
225.0838370215
 31
0.0
  0
LINE
  5
26D
330
188
100
AcDbEntity
  8
DV3_Standard
 62
     7
100
AcDbLine
 10
243.4373412263
 20
225.0838370215
 30
0.0
 11
243.4373412263
 21
216.0838370215
 31
0.0
  0
ARC
  5
26E
330
188
100
AcDbEntity
  8
DV3_Standard
 62
     7
100
AcDbCircle
 10
248.85
 20
219.8623965407
 30
0.0
 40
6.601089837288585
100
AcDbArc
 50
214.9187681795
 51
325.0812318204
  0
LINE
  5
26F
330
188
100
AcDbEntity
  8
DV3_Standard
 62
     7
100
AcDbLine
 10
254.2626587736
 20
216.0838370215
 30
0.0
 11
254.2626587737
 21
225.0838370215
 31
0.0
  0
LINE
  5
270
330
188
100
AcDbEntity
  8
DV3_Standard
 62
     7
100
AcDbLine
 10
256.35
 20
225.0838370215
 30
0.0
 11
256.35
 21
216.0838370215
 31
0.0
  0
LINE
  5
271
330
188
100
AcDbEntity
  8
DV3_Standard
 62
     7
100
AcDbLine
 10
256.35
 20
216.0838370215
 30
0.0
 11
256.35
 21
213.2881082924
 31
0.0
  0
LINE
  5
272
330
188
100
AcDbEntity
  8
DV3_Standard
 62
     7
100
AcDbLine
 10
226.35
 20
213.2881082924
 30
0.0
 11
226.35
 21
216.0838370215
 31
0.0
  0
LINE
  5
273
330
188
100
AcDbEntity
  8
DV3_Standard
 62
     7
100
AcDbLine
 10
226.35
 20
216.0838370215
 30
0.0
 11
226.35
 21
225.0838370215
 31
0.0
  0
ARC
  5
274
330
188
100
AcDbEntity
  8
DV3_Standard
 62
     7
100
AcDbCircle
 10
247.9535976036
 20
218.7195382197
 30
0.0
 40
10.0
100
AcDbArc
 50
322.1519040322
 51
327.0983321217
  0
ARC
  5
275
330
188
100
AcDbEntity
  8
DV3_Standard
 62
     7
100
AcDbCircle
 10
234.7464023964
 20
218.7195382197
 30
0.0
 40
9.999999999999995
100
AcDbArc
 50
212.8917958031
 51
217.8480959677
  0
ARC
  5
276
330
188
100
AcDbEntity
  8
DV3_Standard
 62
     7
100
AcDbCircle
 10
247.9535976036
 20
222.4481358233
 30
0.0
 40
9.99999999999999
100
AcDbArc
 50
32.8917958031
 51
37.8480959677
  0
ARC
  5
277
330
188
100
AcDbEntity
  8
DV3_Standard
 62
     7
100
AcDbCircle
 10
234.7464023964
 20
222.4481358233
 30
0.0
 40
10.0
100
AcDbArc
 50
142.1519040322
 51
147.0983321217
  0
LINE
  5
278
330
188
100
AcDbEntity
  8
DV3_Standard
 62
     7
100
AcDbLine
 10
251.85
 20
211.5838370215
 30
0.0
 11
251.85
 21
212.5838370215
 31
0.0
  0
LINE
  5
279
330
188
100
AcDbEntity
  8
DV3_Standard
 62
     7
100
AcDbLine
 10
230.85
 20
212.5838370215
 30
0.0
 11
230.85
 21
211.5838370215
 31
0.0
  0
LINE
  5
27A
330
188
100
AcDbEntity
  8
DV3_Standard
 62
     7
100
AcDbLine
 10
88.2401181768
 20
186.4838370216
 30
0.0
 11
73.7357737896
 21
186.4838370216
 31
0.0
  0
LINE
  5
27B
330
188
100
AcDbEntity
  8
DV3_Standard
 62
     7
100
AcDbLine
 10
244.4599728495
 20
186.4838370215
 30
0.0
 11
88.2401181843
 21
186.4838370216
 31
0.0
  0
LINE
  5
27C
330
188
100
AcDbEntity
  8
DV3_Standard
 62
     7
100
AcDbLine
 10
258.9642578308
 20
186.4838370215
 30
0.0
 11
244.4599728495
 21
186.4838370215
 31
0.0
  0
ARC
  5
27D
330
188
100
AcDbEntity
  8
DV3_Standard
 62
     7
100
AcDbCircle
 10
73.7357737896
 20
186.9838370216
 30
0.0
 40
0.5000000000000286
100
AcDbArc
 50
180.5
 51
270.0
  0
ARC
  5
27E
330
188
100
AcDbEntity
  8
DV3_Standard
 62
     7
100
AcDbCircle
 10
258.9642578308
 20
186.9838370215
 30
0.0
 40
0.5
100
AcDbArc
 50
270.0
 51
359.5
  0
LINE
  5
27F
330
188
100
AcDbEntity
  8
DV3_Standard
 62
     7
100
AcDbLine
 10
88.2401006779
 20
211.5838370216
 30
0.0
 11
244.4599349776
 21
211.5838370215
 31
0.0
  0
LINE
  5
280
330
188
100
AcDbEntity
  8
DV3_Standard
 62
     7
100
AcDbLine
 10
244.4599349776
 20
211.5838370215
 30
0.0
 11
259.1745753445
 21
211.5838370215
 31
0.0
  0
LINE
  5
281
330
188
100
AcDbEntity
  8
DV3_Standard
 62
     7
100
AcDbLine
 10
73.5254562758
 20
211.5838370216
 30
0.0
 11
88.2401006779
 21
211.5838370216
 31
0.0
  0
ARC
  5
282
330
188
100
AcDbEntity
  8
DV3_Standard
 62
     7
100
AcDbCircle
 10
73.5254562758
 20
211.0838370216
 30
0.0
 40
0.499999999999987
100
AcDbArc
 50
90.0
 51
180.5
  0
ARC
  5
283
330
188
100
AcDbEntity
  8
DV3_Standard
 62
     7
100
AcDbCircle
 10
259.1745753445
 20
211.0838370215
 30
0.0
 40
0.5000000000000004
100
AcDbArc
 50
359.5
 51
90.0
  0
LINE
  5
284
330
188
100
AcDbEntity
  8
DV3_Standard
 62
     7
100
AcDbLine
 10
73.2295648059
 20
187.6937847803
 30
0.0
 11
73.2357937899
 21
186.9794730231
 31
0.0
  0
SPLINE
  5
285
330
188
100
AcDbEntity
  8
DV3_Standard
 62
     7
100
AcDbSpline
210
0.0
220
0.0
230
1.0
 70
     8
 71
     3
 72
    11
 73
     7
 74
     0
 42
0.000000001
 43
0.0000000001
 40
0.0
 40
0.0
 40
0.0
 40
0.0
 40
0.2346683859965289
 40
0.5022813959532195
 40
0.7699235063066068
 40
1.0
 40
1.0
 40
1.0
 40
1.0
 10
73.03081541561156
 20
210.4683566620833
 30
0.0
 10
73.04791894582554
 20
208.5104821613507
 30
0.0
 10
73.0788707548308
 20
204.9660367087917
 30
0.0
 10
73.13080454350678
 20
199.0291338140626
 30
0.0
 10
73.18215462692544
 20
193.1283169088541
 30
0.0
 10
73.21281567321506
 20
189.6141650126612
 30
0.0
 10
73.22956480591498
 20
187.693784780329
 30
0.0
  0
LINE
  5
286
330
188
100
AcDbEntity
  8
DV3_Standard
 62
     7
100
AcDbLine
 10
73.0254766547
 20
211.0794728313
 30
0.0
 11
73.0308154156
 21
210.4683566621
 31
0.0
  0
LINE
  5
287
330
188
100
AcDbEntity
  8
DV3_Standard
 62
     7
100
AcDbLine
 10
259.6695874056
 20
210.5109934168
 30
0.0
 11
259.6745547066
 21
211.0794728298
 31
0.0
  0
SPLINE
  5
288
330
188
100
AcDbEntity
  8
DV3_Standard
 62
     7
100
AcDbSpline
210
0.0
220
0.0
230
1.0
 70
     8
 71
     3
 72
    11
 73
     7
 74
     0
 42
0.000000001
 43
0.0000000001
 40
0.0
 40
0.0
 40
0.0
 40
0.0
 40
0.2374727676859706
 40
0.5018601898622217
 40
0.7662902045300803
 40
1.0
 40
1.0
 40
1.0
 40
1.0
 10
259.4684512443021
 20
187.4633061728615
 30
0.0
 10
259.4859109200124
 20
189.4674758083555
 30
0.0
 10
259.5171339413635
 20
193.0491669792865
 30
0.0
 10
259.5691167674557
 20
199.0301161410347
 30
0.0
 10
259.6212927181803
 20
204.9798864083278
 30
0.0
 10
259.6523473191977
 20
208.5373394376165
 30
0.0
 10
259.6695874056385
 20
210.5109934168424
 30
0.0
  0
LINE
  5
289
330
188
100
AcDbEntity
  8
DV3_Standard
 62
     7
100
AcDbLine
 10
259.4642365044
 20
186.9794723352
 30
0.0
 11
259.4684512443
 21
187.4633061729
 31
0.0
  0
LINE
  5
28A
330
188
100
AcDbEntity
  8
DV3_Standard
 62
     7
100
AcDbLine
 10
145.3785093847
 20
149.7672597312
 30
0.0
 11
145.3624591763
 21
154.6893183953
 31
0.0
  0
LINE
  5
28B
330
188
100
AcDbEntity
  8
DV3_Standard
 62
     7
100
AcDbLine
 10
187.3666848054
 20
149.7203437665
 30
0.0
 11
187.3666848054
 21
154.6893183953
 31
0.0
  0
ENDBLK
  5
28D
330
188
100
AcDbEntity
  8
0
100
AcDbBlockEnd
  0
ENDSEC
  0
SECTION
  2
ENTITIES
  0
INSERT
  5
70
330
1F
100
AcDbEntity
  8
Standard
100
AcDbBlockReference
  2
SEANNOT_GROUP
 10
0.0
 20
0.0
 30
0.0
  0
INSERT
  5
76
330
1F
100
AcDbEntity
  8
Standard
100
AcDbBlockReference
  2
SEANNOT_GROUP1
 10
0.0
 20
0.0
 30
0.0
  0
INSERT
  5
7C
330
1F
100
AcDbEntity
  8
Standard
100
AcDbBlockReference
  2
SEANNOT_GROUP2
 10
0.0
 20
0.0
 30
0.0
  0
INSERT
  5
82
330
1F
100
AcDbEntity
  8
Standard
100
AcDbBlockReference
  2
SEANNOT_GROUP3
 10
0.0
 20
0.0
 30
0.0
  0
LINE
  5
87
330
1F
100
AcDbEntity
  8
Standard
 62
     7
100
AcDbLine
 10
91.3033804151
 20
453.840001228
 30
0.0
 11
91.3033804151
 21
449.558219135
 31
0.0
  0
LINE
  5
88
330
1F
100
AcDbEntity
  8
Standard
 62
     7
100
AcDbLine
 10
89.1624893686
 20
451.6991101815
 30
0.0
 11
93.4442714616
 21
451.6991101815
 31
0.0
  0
LINE
  5
89
330
1F
100
AcDbEntity
  8
Standard
 62
     7
100
AcDbLine
 10
239.3633107943
 20
451.6991101815
 30
0.0
 11
243.2434500359
 21
451.6991101815
 31
0.0
  0
LINE
  5
8A
330
1F
100
AcDbEntity
  8
Standard
 62
     7
100
AcDbLine
 10
241.3033804151
 20
453.6391798023
 30
0.0
 11
241.3033804151
 21
449.7590405607
 31
0.0
  0
INSERT
  5
8C
330
1F
100
AcDbEntity
  8
Standard
100
AcDbBlockReference
  2
SEANNOT_GROUP4
 10
0.0
 20
0.0
 30
0.0
  0
INSERT
  5
92
330
1F
100
AcDbEntity
  8
Standard
100
AcDbBlockReference
  2
SEANNOT_GROUP5
 10
0.0
 20
0.0
 30
0.0
  0
INSERT
  5
98
330
1F
100
AcDbEntity
  8
Standard
100
AcDbBlockReference
  2
SE
 10
0.0
 20
0.0
 30
0.0
  0
INSERT
  5
E0
330
1F
100
AcDbEntity
  8
Standard
100
AcDbBlockReference
  2
SE1
 10
0.0
 20
0.0
 30
0.0
  0
INSERT
  5
189
330
1F
100
AcDbEntity
  8
Standard
100
AcDbBlockReference
  2
SE2
 10
0.0
 20
0.0
 30
0.0
  0
MTEXT
  5
28F
330
1F
100
AcDbEntity
  8
Default
100
AcDbMText
 10
5.9362635081
 20
63.4225120485
 30
0.0
 40
10.0
 41
113.8626497168
 46
65.4545454545
 71
     1
 72
     1
  1
{\fArial Narrow|b0||i0||c0|p34;\C7;\H10.;\W1.;Grohe AG\P}{\fArial Narrow|b0||i0||c0|p34;\C7;\H10.;\W1.;\P}{\fArial Narrow|b0||i0||c0|p34;\C7;\H10.;\W1.;ecn:\P}{\fArial Narrow|b0||i0||c0|p34;\C7;\H10.;\W1.;unit: mm}
 73
     1
 44
1.0
1001
ACAD
1000
ACAD_MTEXT_DEFINED_HEIGHT_BEGIN
1070
    46
1040
65.4545454545
1000
ACAD_MTEXT_DEFINED_HEIGHT_END
  0
LINE
  5
290
330
1F
100
AcDbEntity
  8
Default
 62
     7
100
AcDbLine
 10
0.0
 20
0.0
 30
0.0
 11
100.0
 21
0.0
 31
0.0
  0
LINE
  5
291
330
1F
100
AcDbEntity
  8
Default
 62
     7
100
AcDbLine
 10
0.0
 20
0.0
 30
0.0
 11
0.0
 21
100.0
 31
0.0
  0
MTEXT
  5
292
330
1F
100
AcDbEntity
  8
Default
100
AcDbMText
 10
24.3923665681
 20
-8.2375342018
 30
0.0
 40
10.0
 41
35.00001
 46
16.3636363636
 71
     1
 72
     1
  1
{\fArial Narrow|b0||i0||c0|p34;\C7;\H10.;\W0.82;100 mm}
 73
     1
 44
1.0
1001
ACAD
1000
ACAD_MTEXT_DEFINED_HEIGHT_BEGIN
1070
    46
1040
16.3636363636
1000
ACAD_MTEXT_DEFINED_HEIGHT_END
  0
MTEXT
  5
293
330
1F
100
AcDbEntity
  8
Default
100
AcDbMText
 10
-17.6150308803
 20
24.6231930421
 30
0.0
 40
10.0
 41
35.00001
 46
16.3636363636
 71
     1
 72
     1
  1
{\fArial Narrow|b0||i0||c0|p34;\C7;\H10.;\W0.82;100 mm}
 11
6.123233995736766E-17
 21
1.0
 31
0.0
 73
     1
 44
1.0
1001
ACAD
1000
ACAD_MTEXT_DEFINED_HEIGHT_BEGIN
1070
    46
1040
16.3636363636
1000
ACAD_MTEXT_DEFINED_HEIGHT_END
  0
MTEXT
  5
294
330
1F
100
AcDbEntity
  8
Default
100
AcDbMText
 10
28.4878128572
 20
24.8634936442
 30
0.0
 40
10.0
 41
86.691737001
 46
16.3636363636
 71
     4
 72
     1
  1
{\fArial Narrow|b0||i0||c0|p34;\C7;\H10.;\W1.;257392}
 73
     1
 44
1.0
1001
ACAD
1000
ACAD_MTEXT_DEFINED_HEIGHT_BEGIN
1070
    46
1040
16.3636363636
1000
ACAD_MTEXT_DEFINED_HEIGHT_END
  0
MTEXT
  5
295
330
1F
100
AcDbEntity
  8
Default
100
AcDbMText
 10
5.9012241913
 20
42.7402200078
 30
0.0
 40
10.0
 41
136.4542564297
 46
17.9861568805
 71
     4
 72
     1
  1
{\fArial Narrow|b0||i0||c0|p34;\C7;\H10.;\W1.;1018740000}
 73
     1
 44
1.0
1001
ACAD
1000
ACAD_MTEXT_DEFINED_HEIGHT_BEGIN
1070
    46
1040
17.9861568805
1000
ACAD_MTEXT_DEFINED_HEIGHT_END
  0
ENDSEC
  0
SECTION
  2
OBJECTS
  0
DICTIONARY
  5
C
330
0
100
AcDbDictionary
281
     1
  3
ACAD_DETAILVIEWSTYLE
350
2D1
  3
ACAD_GROUP
350
D
  3
ACAD_LAYOUT
350
1A
  3
ACAD_MATERIAL
350
43
  3
ACAD_MLEADERSTYLE
350
6B
  3
ACAD_MLINESTYLE
350
17
  3
ACAD_PLOTSETTINGS
350
19
  3
ACAD_PLOTSTYLENAME
350
E
  3
ACAD_SCALELIST
350
47
  3
ACAD_SECTIONVIEWSTYLE
350
2D2
  3
ACAD_TABLESTYLE
350
69
  3
ACAD_VISUALSTYLE
350
2A
  3
ACDB_RECOMPOSE_DATA
350
2CE
  3
AcDbVariableDictionary
350
296
  0
SUN
  5
6D
330
29
100
AcDbSun
 90
        1
290
     0
 63
     7
421
 16777215
 40
1.0
291
     1
 91
  2455826
 92
 54000000
292
     0
 70
     2
 71
   256
280
     1
  0
DICTIONARY
  5
2D1
102
{ACAD_REACTORS
330
C
102
}
330
C
100
AcDbDictionary
281
     1
  0
DICTIONARY
  5
D
102
{ACAD_REACTORS
330
C
102
}
330
C
100
AcDbDictionary
281
     1
  0
DICTIONARY
  5
1A
102
{ACAD_REACTORS
330
C
102
}
330
C
100
AcDbDictionary
281
     1
  3
Layout1
350
1E
  3
Model
350
22
  0
DICTIONARY
  5
43
102
{ACAD_REACTORS
330
C
102
}
330
C
100
AcDbDictionary
281
     1
  3
ByBlock
350
45
  3
ByLayer
350
44
  3
Global
350
46
  0
DICTIONARY
  5
6B
102
{ACAD_REACTORS
330
C
102
}
330
C
100
AcDbDictionary
281
     1
  3
Standard
350
6C
  0
DICTIONARY
  5
17
102
{ACAD_REACTORS
330
C
102
}
330
C
100
AcDbDictionary
281
     1
  3
Standard
350
18
  0
DICTIONARY
  5
19
102
{ACAD_REACTORS
330
C
102
}
330
C
100
AcDbDictionary
281
     1
  0
ACDBDICTIONARYWDFLT
  5
E
102
{ACAD_REACTORS
330
C
102
}
330
C
100
AcDbDictionary
281
     1
  3
Normal
350
F
100
AcDbDictionaryWithDefault
340
F
  0
DICTIONARY
  5
47
102
{ACAD_REACTORS
330
C
102
}
330
C
100
AcDbDictionary
281
     1
  3
A0
350
48
  3
A1
350
49
  3
A2
350
4A
  3
A3
350
4B
  3
A4
350
4C
  3
A5
350
4D
  3
A6
350
4E
  3
A7
350
4F
  3
A8
350
50
  3
A9
350
51
  3
B0
350
52
  3
B1
350
53
  3
B2
350
54
  3
B3
350
55
  3
B4
350
56
  3
B5
350
57
  3
B6
350
58
  3
B7
350
59
  3
B8
350
5A
  3
B9
350
5B
  3
C0
350
5C
  3
C1
350
5D
  3
C2
350
5E
  3
C3
350
5F
  3
C4
350
60
  3
C5
350
61
  3
C6
350
62
  3
C7
350
63
  3
C8
350
64
  3
C9
350
65
  3
D0
350
66
  3
D1
350
67
  3
D2
350
68
  0
DICTIONARY
  5
2D2
102
{ACAD_REACTORS
330
C
102
}
330
C
100
AcDbDictionary
281
     1
  0
DICTIONARY
  5
69
102
{ACAD_REACTORS
330
C
102
}
330
C
100
AcDbDictionary
281
     1
  3
Standard
350
6A
  0
DICTIONARY
  5
2A
102
{ACAD_REACTORS
330
C
102
}
330
C
100
AcDbDictionary
281
     1
  3
2dWireframe
350
2F
  3
Basic
350
32
  3
Brighten
350
36
  3
ColorChange
350
3A
  3
Conceptual
350
34
  3
Dim
350
35
  3
EdgeColorOff
350
3D
  3
Facepattern
350
39
  3
Flat
350
2B
  3
FlatWithEdges
350
2C
  3
Gouraud
350
2D
  3
GouraudWithEdges
350
2E
  3
Hidden
350
31
  3
JitterOff
350
3B
  3
Linepattern
350
38
  3
OverhangOff
350
3C
  3
Realistic
350
33
  3
Shaded
350
42
  3
Shaded with edges
350
41
  3
Shades of Gray
350
3E
  3
Sketchy
350
3F
  3
Thicken
350
37
  3
Wireframe
350
30
  3
X-Ray
350
40
  0
XRECORD
  5
2CE
102
{ACAD_REACTORS
330
C
102
}
330
C
100
AcDbXrecord
280
     1
 90
        1
330
6A
  0
DICTIONARY
  5
296
102
{ACAD_REACTORS
330
C
102
}
330
C
100
AcDbDictionary
281
     1
  3
CANNOSCALE
350
297
  3
CENTEREXE
350
2D3
  3
CENTERLTYPEFILE
350
2D4
  3
CMLEADERSTYLE
350
2D0
  3
CTABLESTYLE
350
2CF
  3
XCLIPFRAME
350
298
  0
LAYOUT
  5
1E
102
{ACAD_REACTORS
330
1A
102
}
330
1A
100
AcDbPlotSettings
  1

  2
none_device
  4

  6

 40
0.0
 41
0.0
 42
0.0
 43
0.0
 44
0.0
 45
0.0
 46
0.0
 47
0.0
 48
0.0
 49
0.0
140
0.0
141
0.0
142
1.0
143
1.0
 70
   688
 72
     1
 73
     0
 74
     5
  7

 75
    16
 76
     0
 77
     2
 78
   300
147
1.0
148
0.0
149
0.0
100
AcDbLayout
  1
Layout1
 70
     1
 71
     1
 10
0.0
 20
0.0
 11
3000.0
 21
4500.0
 12
0.0
 22
0.0
 32
0.0
 14
0.0
 24
0.0
 34
0.0
 15
3000.0
 25
4500.0
 35
0.0
146
0.0
 13
0.0
 23
0.0
 33
0.0
 16
1.0
 26
0.0
 36
0.0
 17
0.0
 27
1.0
 37
0.0
 76
     0
330
1B
  0
LAYOUT
  5
22
102
{ACAD_REACTORS
330
1A
102
}
330
1A
100
AcDbPlotSettings
  1

  2
none_device
  4
Letter_(8.50_x_11.00_Inches)
  6

 40
6.35
 41
6.35
 42
6.35000508
 43
6.35000508
 44
215.9
 45
279.4
 46
0.0
 47
0.0
 48
0.0
 49
0.0
140
0.0
141
0.0
142
1.0
143
1.0
 70
  1712
 72
     1
 73
     0
 74
     0
  7

 75
     0
 76
     0
 77
     2
 78
   300
147
1.0
148
0.0
149
0.0
100
AcDbLayout
  1
Model
 70
     1
 71
     0
 10
0.0
 20
0.0
 11
3000.0
 21
4500.0
 12
0.0
 22
0.0
 32
0.0
 14
0.0
 24
0.0
 34
0.0
 15
3000.0
 25
4500.0
 35
0.0
146
0.0
 13
0.0
 23
0.0
 33
0.0
 16
1.0
 26
0.0
 36
0.0
 17
0.0
 27
1.0
 37
0.0
 76
     0
330
1F
331
29
  0
MATERIAL
  5
45
102
{ACAD_REACTORS
330
43
102
}
330
43
100
AcDbMaterial
  1
ByBlock
 72
     1
 94
      127
  0
MATERIAL
  5
44
102
{ACAD_REACTORS
330
43
102
}
330
43
100
AcDbMaterial
  1
ByLayer
 72
     1
 94
      127
  0
MATERIAL
  5
46
102
{ACAD_REACTORS
330
43
102
}
330
43
100
AcDbMaterial
  1
Global
 72
     1
 94
      127
  0
MLEADERSTYLE
  5
6C
102
{ACAD_REACTORS
330
6B
102
}
102
{ACAD_XDICTIONARY
360
2CC
102
}
330
6B
100
AcDbMLeaderStyle
170
     2
171
     1
172
     0
 90
        2
 40
0.0
 41
0.0
173
     1
 91
-1056964608
340
14
 92
       -2
290
     1
 42
2.0
291
     1
 43
8.0
  3
Standard
341
0
 44
4.0
300

342
11
174
     1
178
     6
175
     1
176
     0
 93
-1056964608
 45
4.0
292
     0
297
     0
 46
4.0
343
0
 94
-1056964608
 47
1.0
 49
1.0
140
1.0
293
     1
141
0.0
294
     1
177
     0
142
1.0
295
     0
296
     0
143
3.75
1001
ACAD_MLEADERVER
1070
     2
  0
MLINESTYLE
  5
18
102
{ACAD_REACTORS
330
17
102
}
330
17
100
AcDbMlineStyle
  2
Standard
 70
     0
  3

 62
   256
 51
90.0
 52
90.0
 71
     2
 49
0.5
 62
   256
  6
BYLAYER
 49
-0.5
 62
   256
  6
BYLAYER
  0
ACDBPLACEHOLDER
  5
F
102
{ACAD_REACTORS
330
E
102
}
330
E
  0
SCALE
  5
48
102
{ACAD_REACTORS
330
47
102
}
330
47
100
AcDbScale
 70
     0
300
1:1
140
1.0
141
1.0
290
     1
  0
SCALE
  5
49
102
{ACAD_REACTORS
330
47
102
}
330
47
100
AcDbScale
 70
     0
300
1:2
140
1.0
141
2.0
290
     0
  0
SCALE
  5
4A
102
{ACAD_REACTORS
330
47
102
}
330
47
100
AcDbScale
 70
     0
300
1:4
140
1.0
141
4.0
290
     0
  0
SCALE
  5
4B
102
{ACAD_REACTORS
330
47
102
}
330
47
100
AcDbScale
 70
     0
300
1:5
140
1.0
141
5.0
290
     0
  0
SCALE
  5
4C
102
{ACAD_REACTORS
330
47
102
}
330
47
100
AcDbScale
 70
     0
300
1:8
140
1.0
141
8.0
290
     0
  0
SCALE
  5
4D
102
{ACAD_REACTORS
330
47
102
}
330
47
100
AcDbScale
 70
     0
300
1:10
140
1.0
141
10.0
290
     0
  0
SCALE
  5
4E
102
{ACAD_REACTORS
330
47
102
}
330
47
100
AcDbScale
 70
     0
300
1:16
140
1.0
141
16.0
290
     0
  0
SCALE
  5
4F
102
{ACAD_REACTORS
330
47
102
}
330
47
100
AcDbScale
 70
     0
300
1:20
140
1.0
141
20.0
290
     0
  0
SCALE
  5
50
102
{ACAD_REACTORS
330
47
102
}
330
47
100
AcDbScale
 70
     0
300
1:30
140
1.0
141
30.0
290
     0
  0
SCALE
  5
51
102
{ACAD_REACTORS
330
47
102
}
330
47
100
AcDbScale
 70
     0
300
1:40
140
1.0
141
40.0
290
     0
  0
SCALE
  5
52
102
{ACAD_REACTORS
330
47
102
}
330
47
100
AcDbScale
 70
     0
300
1:50
140
1.0
141
50.0
290
     0
  0
SCALE
  5
53
102
{ACAD_REACTORS
330
47
102
}
330
47
100
AcDbScale
 70
     0
300
1:100
140
1.0
141
100.0
290
     0
  0
SCALE
  5
54
102
{ACAD_REACTORS
330
47
102
}
330
47
100
AcDbScale
 70
     0
300
2:1
140
2.0
141
1.0
290
     0
  0
SCALE
  5
55
102
{ACAD_REACTORS
330
47
102
}
330
47
100
AcDbScale
 70
     0
300
4:1
140
4.0
141
1.0
290
     0
  0
SCALE
  5
56
102
{ACAD_REACTORS
330
47
102
}
330
47
100
AcDbScale
 70
     0
300
8:1
140
8.0
141
1.0
290
     0
  0
SCALE
  5
57
102
{ACAD_REACTORS
330
47
102
}
330
47
100
AcDbScale
 70
     0
300
10:1
140
10.0
141
1.0
290
     0
  0
SCALE
  5
58
102
{ACAD_REACTORS
330
47
102
}
330
47
100
AcDbScale
 70
     0
300
100:1
140
100.0
141
1.0
290
     0
  0
SCALE
  5
59
102
{ACAD_REACTORS
330
47
102
}
330
47
100
AcDbScale
 70
     0
300
1/128" = 1'-0"
140
0.0078125
141
12.0
290
     0
  0
SCALE
  5
5A
102
{ACAD_REACTORS
330
47
102
}
330
47
100
AcDbScale
 70
     0
300
1/64" = 1'-0"
140
0.015625
141
12.0
290
     0
  0
SCALE
  5
5B
102
{ACAD_REACTORS
330
47
102
}
330
47
100
AcDbScale
 70
     0
300
1/32" = 1'-0"
140
0.03125
141
12.0
290
     0
  0
SCALE
  5
5C
102
{ACAD_REACTORS
330
47
102
}
330
47
100
AcDbScale
 70
     0
300
1/16" = 1'-0"
140
0.0625
141
12.0
290
     0
  0
SCALE
  5
5D
102
{ACAD_REACTORS
330
47
102
}
330
47
100
AcDbScale
 70
     0
300
3/32" = 1'-0"
140
0.09375
141
12.0
290
     0
  0
SCALE
  5
5E
102
{ACAD_REACTORS
330
47
102
}
330
47
100
AcDbScale
 70
     0
300
1/8" = 1'-0"
140
0.125
141
12.0
290
     0
  0
SCALE
  5
5F
102
{ACAD_REACTORS
330
47
102
}
330
47
100
AcDbScale
 70
     0
300
3/16" = 1'-0"
140
0.1875
141
12.0
290
     0
  0
SCALE
  5
60
102
{ACAD_REACTORS
330
47
102
}
330
47
100
AcDbScale
 70
     0
300
1/4" = 1'-0"
140
0.25
141
12.0
290
     0
  0
SCALE
  5
61
102
{ACAD_REACTORS
330
47
102
}
330
47
100
AcDbScale
 70
     0
300
3/8" = 1'-0"
140
0.375
141
12.0
290
     0
  0
SCALE
  5
62
102
{ACAD_REACTORS
330
47
102
}
330
47
100
AcDbScale
 70
     0
300
1/2" = 1'-0"
140
0.5
141
12.0
290
     0
  0
SCALE
  5
63
102
{ACAD_REACTORS
330
47
102
}
330
47
100
AcDbScale
 70
     0
300
3/4" = 1'-0"
140
0.75
141
12.0
290
     0
  0
SCALE
  5
64
102
{ACAD_REACTORS
330
47
102
}
330
47
100
AcDbScale
 70
     0
300
1" = 1'-0"
140
1.0
141
12.0
290
     0
  0
SCALE
  5
65
102
{ACAD_REACTORS
330
47
102
}
330
47
100
AcDbScale
 70
     0
300
1-1/2" = 1'-0"
140
1.5
141
12.0
290
     0
  0
SCALE
  5
66
102
{ACAD_REACTORS
330
47
102
}
330
47
100
AcDbScale
 70
     0
300
3" = 1'-0"
140
3.0
141
12.0
290
     0
  0
SCALE
  5
67
102
{ACAD_REACTORS
330
47
102
}
330
47
100
AcDbScale
 70
     0
300
6" = 1'-0"
140
6.0
141
12.0
290
     0
  0
SCALE
  5
68
102
{ACAD_REACTORS
330
47
102
}
330
47
100
AcDbScale
 70
     0
300
1'-0" = 1'-0"
140
12.0
141
12.0
290
     0
  0
TABLESTYLE
  5
6A
102
{ACAD_REACTORS
330
69
102
}
102
{ACAD_XDICTIONARY
360
2C9
102
}
330
69
100
AcDbTableStyle
  3
Standard
 70
     0
 71
     0
 40
0.06
 41
0.06
280
     0
281
     0
  7
Standard
140
4.5
170
     2
 62
     0
 63
   257
283
     0
 90
        4
 91
        0
  1

274
    -2
284
     1
 64
     0
275
    -2
285
     1
 65
     0
276
    -2
286
     1
 66
     0
277
    -2
287
     1
 67
     0
278
    -2
288
     1
 68
     0
279
    -2
289
     1
 69
     0
  7
Standard
140
6.0
170
     5
 62
     0
 63
   257
283
     0
 90
        4
 91
        0
  1

274
    -2
284
     1
 64
     0
275
    -2
285
     1
 65
     0
276
    -2
286
     1
 66
     0
277
    -2
287
     1
 67
     0
278
    -2
288
     1
 68
     0
279
    -2
289
     1
 69
     0
  7
Standard
140
4.5
170
     5
 62
     0
 63
   257
283
     0
 90
        4
 91
        0
  1

274
    -2
284
     1
 64
     0
275
    -2
285
     1
 65
     0
276
    -2
286
     1
 66
     0
277
    -2
287
     1
 67
     0
278
    -2
288
     1
 68
     0
279
    -2
289
     1
 69
     0
  0
VISUALSTYLE
  5
2F
102
{ACAD_REACTORS
330
2A
102
}
102
{ACAD_XDICTIONARY
360
2A1
102
}
330
2A
100
AcDbVisualStyle
  2
2dWireframe
 70
     4
 71
     0
 72
     2
 73
     0
 90
        0
 40
0.6
 41
30.0
 62
     5
 63
     7
421
 16777215
 74
     1
 91
        4
 64
     7
 65
   257
 75
     1
175
     1
 42
1.0
 92
        0
 66
   257
 43
1.0
 76
     1
 77
     6
 78
     2
 67
     7
 79
     5
170
     0
171
     0
290
     0
174
     0
 93
        1
 44
0.0
173
     0
291
     0
 45
0.0
  0
VISUALSTYLE
  5
32
102
{ACAD_REACTORS
330
2A
102
}
102
{ACAD_XDICTIONARY
360
2A7
102
}
330
2A
100
AcDbVisualStyle
  2
Basic
 70
     7
 71
     1
 72
     0
 73
     1
 90
        0
 40
0.6
 41
30.0
 62
     5
 63
     7
421
 16777215
 74
     0
 91
        4
 64
     7
 65
   257
 75
     1
175
     1
 42
1.0
 92
        8
 66
     7
 43
1.0
 76
     1
 77
     6
 78
     2
 67
     7
 79
     5
170
     0
171
     0
290
     0
174
     0
 93
        1
 44
0.0
173
     0
291
     1
 45
0.0
  0
VISUALSTYLE
  5
36
102
{ACAD_REACTORS
330
2A
102
}
102
{ACAD_XDICTIONARY
360
2AF
102
}
330
2A
100
AcDbVisualStyle
  2
Brighten
 70
    12
 71
     2
 72
     2
 73
     0
 90
        0
 40
0.6
 41
30.0
 62
     5
 63
     7
421
 16777215
 74
     1
 91
        4
 64
     7
 65
   257
 75
     1
175
     1
 42
1.0
 92
        8
 66
     7
 43
1.0
 76
     1
 77
     6
 78
     2
 67
     7
 79
     5
170
     0
171
     0
290
     0
174
     0
 93
        1
 44
50.0
173
     0
291
     1
 45
0.0
  0
VISUALSTYLE
  5
3A
102
{ACAD_REACTORS
330
2A
102
}
102
{ACAD_XDICTIONARY
360
2B7
102
}
330
2A
100
AcDbVisualStyle
  2
ColorChange
 70
    16
 71
     2
 72
     2
 73
     3
 90
        0
 40
0.6
 41
30.0
 62
     5
 63
     8
421
  8421504
 74
     1
 91
        4
 64
     7
 65
   257
 75
     1
175
     1
 42
1.0
 92
        8
 66
     8
424
  8421504
 43
1.0
 76
     1
 77
     6
 78
     2
 67
     7
 79
     5
170
     0
171
     0
290
     0
174
     0
 93
        1
 44
0.0
173
     0
291
     1
 45
0.0
  0
VISUALSTYLE
  5
34
102
{ACAD_REACTORS
330
2A
102
}
102
{ACAD_XDICTIONARY
360
2AB
102
}
330
2A
100
AcDbVisualStyle
  2
Conceptual
 70
     9
 71
     3
 72
     2
 73
     0
 90
        0
 40
0.6
 41
30.0
 62
     5
 63
     7
421
 16777215
 74
     2
 91
        2
 64
     7
 65
   257
 75
     1
175
     1
 42
179.0
 92
        8
 66
     7
 43
1.0
 76
     1
 77
     6
 78
     2
 67
     7
 79
     3
170
     0
171
     0
290
     0
174
     0
 93
        1
 44
0.0
173
     0
291
     0
 45
0.0
  0
VISUALSTYLE
  5
35
102
{ACAD_REACTORS
330
2A
102
}
102
{ACAD_XDICTIONARY
360
2AD
102
}
330
2A
100
AcDbVisualStyle
  2
Dim
 70
    11
 71
     2
 72
     2
 73
     0
 90
        0
 40
0.6
 41
30.0
 62
     5
 63
     7
421
 16777215
 74
     1
 91
        4
 64
     7
 65
   257
 75
     1
175
     1
 42
1.0
 92
        8
 66
     7
 43
1.0
 76
     1
 77
     6
 78
     2
 67
     7
 79
     5
170
     0
171
     0
290
     0
174
     0
 93
        1
 44
-50.0
173
     0
291
     1
 45
0.0
  0
VISUALSTYLE
  5
3D
102
{ACAD_REACTORS
330
2A
102
}
102
{ACAD_XDICTIONARY
360
2BD
102
}
330
2A
100
AcDbVisualStyle
  2
EdgeColorOff
 70
    22
 71
     2
 72
     2
 73
     0
 90
        0
 40
0.6
 41
30.0
 62
     5
 63
     7
421
 16777215
 74
     1
 91
        4
 64
     7
 65
   257
 75
     1
175
     1
 42
1.0
 92
        8
 66
     7
 43
1.0
 76
     1
 77
     6
 78
     2
 67
     7
 79
     5
170
     0
171
     0
290
     0
174
     0
 93
        1
 44
0.0
173
     0
291
     1
 45
0.0
  0
VISUALSTYLE
  5
39
102
{ACAD_REACTORS
330
2A
102
}
102
{ACAD_XDICTIONARY
360
2B5
102
}
330
2A
100
AcDbVisualStyle
  2
Facepattern
 70
    15
 71
     2
 72
     2
 73
     0
 90
        0
 40
0.6
 41
30.0
 62
     5
 63
     7
421
 16777215
 74
     1
 91
        4
 64
     7
 65
   257
 75
     1
175
     1
 42
1.0
 92
        8
 66
     7
 43
1.0
 76
     1
 77
     6
 78
     2
 67
     7
 79
     5
170
     0
171
     0
290
     0
174
     0
 93
        1
 44
0.0
173
     0
291
     1
 45
0.0
  0
VISUALSTYLE
  5
2B
102
{ACAD_REACTORS
330
2A
102
}
102
{ACAD_XDICTIONARY
360
299
102
}
330
2A
100
AcDbVisualStyle
  2
Flat
 70
     0
 71
     2
 72
     1
 73
     1
 90
        2
 40
0.6
 41
30.0
 62
     5
 63
     7
421
 16777215
 74
     0
 91
        0
 64
     7
 65
   257
 75
     1
175
     1
 42
1.0
 92
        8
 66
     7
 43
1.0
 76
     1
 77
     6
 78
     2
 67
     7
 79
     5
170
     0
171
     0
290
     0
174
     0
 93
       13
 44
0.0
173
     0
291
     1
 45
0.0
  0
VISUALSTYLE
  5
2C
102
{ACAD_REACTORS
330
2A
102
}
102
{ACAD_XDICTIONARY
360
29B
102
}
330
2A
100
AcDbVisualStyle
  2
FlatWithEdges
 70
     1
 71
     2
 72
     1
 73
     1
 90
        2
 40
0.6
 41
30.0
 62
     5
 63
     7
421
 16777215
 74
     1
 91
        0
 64
     7
 65
   257
 75
     1
175
     1
 42
1.0
 92
        0
 66
   257
 43
1.0
 76
     1
 77
     6
 78
     2
 67
     7
 79
     5
170
     0
171
     0
290
     0
174
     0
 93
       13
 44
0.0
173
     0
291
     1
 45
0.0
  0
VISUALSTYLE
  5
2D
102
{ACAD_REACTORS
330
2A
102
}
102
{ACAD_XDICTIONARY
360
29D
102
}
330
2A
100
AcDbVisualStyle
  2
Gouraud
 70
     2
 71
     2
 72
     2
 73
     1
 90
        2
 40
0.6
 41
30.0
 62
     5
 63
     7
421
 16777215
 74
     0
 91
        0
 64
     7
 65
   257
 75
     1
175
     1
 42
1.0
 92
        0
 66
     7
 43
1.0
 76
     1
 77
     6
 78
     2
 67
     7
 79
     5
170
     0
171
     0
290
     0
174
     0
 93
       13
 44
0.0
173
     0
291
     1
 45
0.0
  0
VISUALSTYLE
  5
2E
102
{ACAD_REACTORS
330
2A
102
}
102
{ACAD_XDICTIONARY
360
29F
102
}
330
2A
100
AcDbVisualStyle
  2
GouraudWithEdges
 70
     3
 71
     2
 72
     2
 73
     1
 90
        2
 40
0.6
 41
30.0
 62
     5
 63
     7
421
 16777215
 74
     1
 91
        0
 64
     7
 65
   257
 75
     1
175
     1
 42
1.0
 92
        0
 66
   257
 43
1.0
 76
     1
 77
     6
 78
     2
 67
     7
 79
     5
170
     0
171
     0
290
     0
174
     0
 93
       13
 44
0.0
173
     0
291
     1
 45
0.0
  0
VISUALSTYLE
  5
31
102
{ACAD_REACTORS
330
2A
102
}
102
{ACAD_XDICTIONARY
360
2A5
102
}
330
2A
100
AcDbVisualStyle
  2
Hidden
 70
     6
 71
     1
 72
     2
 73
     2
 90
        0
 40
0.6
 41
30.0
 62
     5
 63
     7
421
 16777215
 74
     2
 91
        2
 64
     7
 65
   257
 75
     2
175
     1
 42
40.0
 92
        0
 66
   257
 43
1.0
 76
     1
 77
     6
 78
     2
 67
     7
 79
     3
170
     0
171
     0
290
     0
174
     0
 93
        1
 44
0.0
173
     0
291
     0
 45
0.0
  0
VISUALSTYLE
  5
3B
102
{ACAD_REACTORS
330
2A
102
}
102
{ACAD_XDICTIONARY
360
2B9
102
}
330
2A
100
AcDbVisualStyle
  2
JitterOff
 70
    20
 71
     2
 72
     2
 73
     0
 90
        0
 40
0.6
 41
30.0
 62
     5
 63
     7
421
 16777215
 74
     1
 91
        4
 64
     7
 65
   257
 75
     1
175
     1
 42
1.0
 92
       10
 66
     7
 43
1.0
 76
     1
 77
     6
 78
     2
 67
     7
 79
     5
170
     0
171
     0
290
     0
174
     0
 93
        1
 44
0.0
173
     0
291
     1
 45
0.0
  0
VISUALSTYLE
  5
38
102
{ACAD_REACTORS
330
2A
102
}
102
{ACAD_XDICTIONARY
360
2B3
102
}
330
2A
100
AcDbVisualStyle
  2
Linepattern
 70
    14
 71
     2
 72
     2
 73
     0
 90
        0
 40
0.6
 41
30.0
 62
     5
 63
     7
421
 16777215
 74
     1
 91
        4
 64
     7
 65
   257
 75
     7
175
     7
 42
1.0
 92
        8
 66
     7
 43
1.0
 76
     1
 77
     6
 78
     2
 67
     7
 79
     5
170
     0
171
     0
290
     0
174
     0
 93
        1
 44
0.0
173
     0
291
     1
 45
0.0
  0
VISUALSTYLE
  5
3C
102
{ACAD_REACTORS
330
2A
102
}
102
{ACAD_XDICTIONARY
360
2BB
102
}
330
2A
100
AcDbVisualStyle
  2
OverhangOff
 70
    21
 71
     2
 72
     2
 73
     0
 90
        0
 40
0.6
 41
30.0
 62
     5
 63
     7
421
 16777215
 74
     1
 91
        4
 64
     7
 65
   257
 75
     1
175
     1
 42
1.0
 92
        9
 66
     7
 43
1.0
 76
     1
 77
     6
 78
     2
 67
     7
 79
     5
170
     0
171
     0
290
     0
174
     0
 93
        1
 44
0.0
173
     0
291
     1
 45
0.0
  0
VISUALSTYLE
  5
33
102
{ACAD_REACTORS
330
2A
102
}
102
{ACAD_XDICTIONARY
360
2A9
102
}
330
2A
100
AcDbVisualStyle
  2
Realistic
 70
     8
 71
     2
 72
     3
 73
     0
 90
        2
 40
0.6
 41
30.0
 62
     5
 63
     7
421
 16777215
 74
     0
 91
        0
 64
     7
 65
   257
 75
     1
175
     1
 42
1.0
 92
        8
 66
   257
 43
1.0
 76
     1
 77
     6
 78
     2
 67
     7
 79
     3
170
     0
171
     0
290
     0
174
     0
 93
       13
 44
0.0
173
     0
291
     0
 45
0.0
  0
VISUALSTYLE
  5
42
102
{ACAD_REACTORS
330
2A
102
}
102
{ACAD_XDICTIONARY
360
2C7
102
}
330
2A
100
AcDbVisualStyle
  2
Shaded
 70
    27
 71
     2
 72
     2
 73
     1
 90
        2
 40
0.6
 41
30.0
 62
     5
 63
     7
421
 16777215
 74
     0
 91
        4
 64
     7
 65
   257
 75
     1
175
     1
 42
1.0
 92
        8
 66
   257
 43
1.0
 76
     1
 77
     6
 78
     2
 67
     8
425
  7895160
 79
     3
170
     0
171
     0
290
     0
174
     0
 93
        5
 44
0.0
173
     0
291
     0
 45
0.0
  0
VISUALSTYLE
  5
41
102
{ACAD_REACTORS
330
2A
102
}
102
{ACAD_XDICTIONARY
360
2C5
102
}
330
2A
100
AcDbVisualStyle
  2
Shaded with edges
 70
    26
 71
     2
 72
     2
 73
     1
 90
        2
 40
0.6
 41
30.0
 62
     5
 63
     7
421
 16777215
 74
     1
 91
       10
 64
     7
 65
   257
 75
     2
175
     1
 42
1.0
 92
        8
 66
   257
 43
1.0
 76
     1
 77
     6
 78
     2
 67
     7
 79
     3
170
     0
171
     0
290
     0
174
     0
 93
        5
 44
0.0
173
     0
291
     0
 45
0.0
  0
VISUALSTYLE
  5
3E
102
{ACAD_REACTORS
330
2A
102
}
102
{ACAD_XDICTIONARY
360
2BF
102
}
330
2A
100
AcDbVisualStyle
  2
Shades of Gray
 70
    23
 71
     2
 72
     2
 73
     3
 90
        0
 40
0.6
 41
30.0
 62
     5
 63
     7
421
 16777215
 74
     2
 91
        2
 64
     7
 65
     7
 75
     1
175
     1
 42
40.0
 92
        8
 66
     7
 43
1.0
 76
     1
 77
     6
 78
     2
 67
     7
 79
     3
170
     0
171
     0
290
     0
174
     0
 93
        1
 44
0.0
173
     0
291
     0
 45
0.0
  0
VISUALSTYLE
  5
3F
102
{ACAD_REACTORS
330
2A
102
}
102
{ACAD_XDICTIONARY
360
2C1
102
}
330
2A
100
AcDbVisualStyle
  2
Sketchy
 70
    24
 71
     1
 72
     2
 73
     2
 90
        0
 40
0.6
 41
30.0
 62
     5
 63
     7
421
 16777215
 74
     2
 91
        2
 64
     7
 65
     7
 75
     1
175
     1
 42
40.0
 92
       11
 66
     7
 43
1.0
 76
     1
 77
     6
 78
     2
 67
     7
 79
     6
170
     0
171
     0
290
     0
174
     0
 93
        1
 44
0.0
173
     0
291
     0
 45
0.0
  0
VISUALSTYLE
  5
37
102
{ACAD_REACTORS
330
2A
102
}
102
{ACAD_XDICTIONARY
360
2B1
102
}
330
2A
100
AcDbVisualStyle
  2
Thicken
 70
    13
 71
     2
 72
     2
 73
     0
 90
        0
 40
0.6
 41
30.0
 62
     5
 63
     7
421
 16777215
 74
     1
 91
        4
 64
     7
 65
   257
 75
     1
175
     1
 42
1.0
 92
       12
 66
     7
 43
1.0
 76
     1
 77
     6
 78
     2
 67
     7
 79
     5
170
     0
171
     0
290
     0
174
     0
 93
        1
 44
0.0
173
     0
291
     1
 45
0.0
  0
VISUALSTYLE
  5
30
102
{ACAD_REACTORS
330
2A
102
}
102
{ACAD_XDICTIONARY
360
2A3
102
}
330
2A
100
AcDbVisualStyle
  2
Wireframe
 70
     5
 71
     0
 72
     2
 73
     0
 90
        0
 40
0.6
 41
30.0
 62
     5
 63
     7
421
 16777215
 74
     1
 91
        4
 64
     7
 65
   257
 75
     1
175
     1
 42
1.0
 92
        0
 66
   257
 43
1.0
 76
     1
 77
     6
 78
     2
 67
     7
 79
     3
170
     0
171
     0
290
     0
174
     0
 93
        1
 44
0.0
173
     0
291
     0
 45
0.0
  0
VISUALSTYLE
  5
40
102
{ACAD_REACTORS
330
2A
102
}
102
{ACAD_XDICTIONARY
360
2C3
102
}
330
2A
100
AcDbVisualStyle
  2
X-Ray
 70
    25
 71
     2
 72
     2
 73
     1
 90
        1
 40
0.5
 41
30.0
 62
     5
 63
     7
421
 16777215
 74
     1
 91
        0
 64
     7
 65
   257
 75
     1
175
     1
 42
1.0
 92
        8
 66
     7
 43
1.0
 76
     1
 77
     6
 78
     2
 67
     7
 79
     3
170
     0
171
     0
290
     0
174
     0
 93
       13
 44
0.0
173
     0
291
     0
 45
0.0
  0
DICTIONARYVAR
  5
297
102
{ACAD_REACTORS
330
296
102
}
330
296
100
DictionaryVariables
280
     0
  1
1:1
  0
DICTIONARYVAR
  5
2D3
102
{ACAD_REACTORS
330
296
102
}
330
296
100
DictionaryVariables
280
     0
  1
3.500000
  0
DICTIONARYVAR
  5
2D4
102
{ACAD_REACTORS
330
296
102
}
330
296
100
DictionaryVariables
280
     0
  1
acadiso.lin
  0
DICTIONARYVAR
  5
2D0
102
{ACAD_REACTORS
330
296
102
}
330
296
100
DictionaryVariables
280
     0
  1
Standard
  0
DICTIONARYVAR
  5
2CF
102
{ACAD_REACTORS
330
296
102
}
330
296
100
DictionaryVariables
280
     0
  1
Standard
  0
DICTIONARYVAR
  5
298
102
{ACAD_REACTORS
330
296
102
}
330
296
100
DictionaryVariables
280
     0
  1
2
  0
DICTIONARY
  5
2CC
330
6C
100
AcDbDictionary
280
     1
281
     1
  3
ACAD_XREC_ROUNDTRIP
360
2CD
  0
DICTIONARY
  5
2C9
330
6A
100
AcDbDictionary
280
     1
281
     1
  3
ACAD_ROUNDTRIP_2008_TABLESTYLE_CELLSTYLEMAP
360
2CA
  0
DICTIONARY
  5
2A1
330
2F
100
AcDbDictionary
280
     1
281
     1
  3
ACAD_XREC_ROUNDTRIP
360
2A2
  0
DICTIONARY
  5
2A7
330
32
100
AcDbDictionary
280
     1
281
     1
  3
ACAD_XREC_ROUNDTRIP
360
2A8
  0
DICTIONARY
  5
2AF
330
36
100
AcDbDictionary
280
     1
281
     1
  3
ACAD_XREC_ROUNDTRIP
360
2B0
  0
DICTIONARY
  5
2B7
330
3A
100
AcDbDictionary
280
     1
281
     1
  3
ACAD_XREC_ROUNDTRIP
360
2B8
  0
DICTIONARY
  5
2AB
330
34
100
AcDbDictionary
280
     1
281
     1
  3
ACAD_XREC_ROUNDTRIP
360
2AC
  0
DICTIONARY
  5
2AD
330
35
100
AcDbDictionary
280
     1
281
     1
  3
ACAD_XREC_ROUNDTRIP
360
2AE
  0
DICTIONARY
  5
2BD
330
3D
100
AcDbDictionary
280
     1
281
     1
  3
ACAD_XREC_ROUNDTRIP
360
2BE
  0
DICTIONARY
  5
2B5
330
39
100
AcDbDictionary
280
     1
281
     1
  3
ACAD_XREC_ROUNDTRIP
360
2B6
  0
DICTIONARY
  5
299
330
2B
100
AcDbDictionary
280
     1
281
     1
  3
ACAD_XREC_ROUNDTRIP
360
29A
  0
DICTIONARY
  5
29B
330
2C
100
AcDbDictionary
280
     1
281
     1
  3
ACAD_XREC_ROUNDTRIP
360
29C
  0
DICTIONARY
  5
29D
330
2D
100
AcDbDictionary
280
     1
281
     1
  3
ACAD_XREC_ROUNDTRIP
360
29E
  0
DICTIONARY
  5
29F
330
2E
100
AcDbDictionary
280
     1
281
     1
  3
ACAD_XREC_ROUNDTRIP
360
2A0
  0
DICTIONARY
  5
2A5
330
31
100
AcDbDictionary
280
     1
281
     1
  3
ACAD_XREC_ROUNDTRIP
360
2A6
  0
DICTIONARY
  5
2B9
330
3B
100
AcDbDictionary
280
     1
281
     1
  3
ACAD_XREC_ROUNDTRIP
360
2BA
  0
DICTIONARY
  5
2B3
330
38
100
AcDbDictionary
280
     1
281
     1
  3
ACAD_XREC_ROUNDTRIP
360
2B4
  0
DICTIONARY
  5
2BB
330
3C
100
AcDbDictionary
280
     1
281
     1
  3
ACAD_XREC_ROUNDTRIP
360
2BC
  0
DICTIONARY
  5
2A9
330
33
100
AcDbDictionary
280
     1
281
     1
  3
ACAD_XREC_ROUNDTRIP
360
2AA
  0
DICTIONARY
  5
2C7
330
42
100
AcDbDictionary
280
     1
281
     1
  3
ACAD_XREC_ROUNDTRIP
360
2C8
  0
DICTIONARY
  5
2C5
330
41
100
AcDbDictionary
280
     1
281
     1
  3
ACAD_XREC_ROUNDTRIP
360
2C6
  0
DICTIONARY
  5
2BF
330
3E
100
AcDbDictionary
280
     1
281
     1
  3
ACAD_XREC_ROUNDTRIP
360
2C0
  0
DICTIONARY
  5
2C1
330
3F
100
AcDbDictionary
280
     1
281
     1
  3
ACAD_XREC_ROUNDTRIP
360
2C2
  0
DICTIONARY
  5
2B1
330
37
100
AcDbDictionary
280
     1
281
     1
  3
ACAD_XREC_ROUNDTRIP
360
2B2
  0
DICTIONARY
  5
2A3
330
30
100
AcDbDictionary
280
     1
281
     1
  3
ACAD_XREC_ROUNDTRIP
360
2A4
  0
DICTIONARY
  5
2C3
330
40
100
AcDbDictionary
280
     1
281
     1
  3
ACAD_XREC_ROUNDTRIP
360
2C4
  0
XRECORD
  5
2CD
102
{ACAD_REACTORS
330
2CC
102
}
330
2CC
100
AcDbXrecord
280
     1
102
ACAD_ROUNDTRIP_2010_MLEADER_STYLE
  0
CELLSTYLEMAP
  5
2CA
102
{ACAD_REACTORS
330
2C9
102
}
330
2C9
100
AcDbCellStyleMap
 90
        3
300
CELLSTYLE
  1
TABLEFORMAT_BEGIN
 90
        5
170
     1
 91
        0
 92
    32768
 62
   257
 93
        1
300
CONTENTFORMAT
  1
CONTENTFORMAT_BEGIN
 90
        0
 91
        0
 92
        4
 93
        0
300

 40
0.0
140
1.0
 94
        5
 62
     0
340
11
144
6.0
309
CONTENTFORMAT_END
171
     1
301
MARGIN
  1
CELLMARGIN_BEGIN
 40
1.5
 40
1.5
 40
1.5
 40
1.5
 40
1.5
 40
1.5
309
CELLMARGIN_END
 94
        6
 95
        1
302
GRIDFORMAT
  1
GRIDFORMAT_BEGIN
 90
        0
 91
        1
 62
     0
 92
       -2
340
14
 93
        0
 40
0.045
309
GRIDFORMAT_END
 95
        2
302
GRIDFORMAT
  1
GRIDFORMAT_BEGIN
 90
        0
 91
        1
 62
     0
 92
       -2
340
14
 93
        0
 40
0.045
309
GRIDFORMAT_END
 95
        4
302
GRIDFORMAT
  1
GRIDFORMAT_BEGIN
 90
        0
 91
        1
 62
     0
 92
       -2
340
14
 93
        0
 40
0.045
309
GRIDFORMAT_END
 95
        8
302
GRIDFORMAT
  1
GRIDFORMAT_BEGIN
 90
        0
 91
        1
 62
     0
 92
       -2
340
14
 93
        0
 40
0.045
309
GRIDFORMAT_END
 95
       16
302
GRIDFORMAT
  1
GRIDFORMAT_BEGIN
 90
        0
 91
        1
 62
     0
 92
       -2
340
14
 93
        0
 40
0.045
309
GRIDFORMAT_END
 95
       32
302
GRIDFORMAT
  1
GRIDFORMAT_BEGIN
 90
        0
 91
        1
 62
     0
 92
       -2
340
14
 93
        0
 40
0.045
309
GRIDFORMAT_END
309
TABLEFORMAT_END
  1
CELLSTYLE_BEGIN
 90
        1
 91
        1
300
_TITLE
309
CELLSTYLE_END
300
CELLSTYLE
  1
TABLEFORMAT_BEGIN
 90
        5
170
     1
 91
        0
 92
        0
 62
   257
 93
        1
300
CONTENTFORMAT
  1
CONTENTFORMAT_BEGIN
 90
        0
 91
        0
 92
        4
 93
        0
300

 40
0.0
140
1.0
 94
        5
 62
     0
340
11
144
4.5
309
CONTENTFORMAT_END
171
     1
301
MARGIN
  1
CELLMARGIN_BEGIN
 40
1.5
 40
1.5
 40
1.5
 40
1.5
 40
1.5
 40
1.5
309
CELLMARGIN_END
 94
        6
 95
        1
302
GRIDFORMAT
  1
GRIDFORMAT_BEGIN
 90
        0
 91
        1
 62
     0
 92
       -2
340
14
 93
        0
 40
0.045
309
GRIDFORMAT_END
 95
        2
302
GRIDFORMAT
  1
GRIDFORMAT_BEGIN
 90
        0
 91
        1
 62
     0
 92
       -2
340
14
 93
        0
 40
0.045
309
GRIDFORMAT_END
 95
        4
302
GRIDFORMAT
  1
GRIDFORMAT_BEGIN
 90
        0
 91
        1
 62
     0
 92
       -2
340
14
 93
        0
 40
0.045
309
GRIDFORMAT_END
 95
        8
302
GRIDFORMAT
  1
GRIDFORMAT_BEGIN
 90
        0
 91
        1
 62
     0
 92
       -2
340
14
 93
        0
 40
0.045
309
GRIDFORMAT_END
 95
       16
302
GRIDFORMAT
  1
GRIDFORMAT_BEGIN
 90
        0
 91
        1
 62
     0
 92
       -2
340
14
 93
        0
 40
0.045
309
GRIDFORMAT_END
 95
       32
302
GRIDFORMAT
  1
GRIDFORMAT_BEGIN
 90
        0
 91
        1
 62
     0
 92
       -2
340
14
 93
        0
 40
0.045
309
GRIDFORMAT_END
309
TABLEFORMAT_END
  1
CELLSTYLE_BEGIN
 90
        2
 91
        1
300
_HEADER
309
CELLSTYLE_END
300
CELLSTYLE
  1
TABLEFORMAT_BEGIN
 90
        5
170
     1
 91
        0
 92
        0
 62
   257
 93
        1
300
CONTENTFORMAT
  1
CONTENTFORMAT_BEGIN
 90
        0
 91
        0
 92
        4
 93
        0
300

 40
0.0
140
1.0
 94
        2
 62
     0
340
11
144
4.5
309
CONTENTFORMAT_END
171
     1
301
MARGIN
  1
CELLMARGIN_BEGIN
 40
1.5
 40
1.5
 40
1.5
 40
1.5
 40
1.5
 40
1.5
309
CELLMARGIN_END
 94
        6
 95
        1
302
GRIDFORMAT
  1
GRIDFORMAT_BEGIN
 90
        0
 91
        1
 62
     0
 92
       -2
340
14
 93
        0
 40
0.045
309
GRIDFORMAT_END
 95
        2
302
GRIDFORMAT
  1
GRIDFORMAT_BEGIN
 90
        0
 91
        1
 62
     0
 92
       -2
340
14
 93
        0
 40
0.045
309
GRIDFORMAT_END
 95
        4
302
GRIDFORMAT
  1
GRIDFORMAT_BEGIN
 90
        0
 91
        1
 62
     0
 92
       -2
340
14
 93
        0
 40
0.045
309
GRIDFORMAT_END
 95
        8
302
GRIDFORMAT
  1
GRIDFORMAT_BEGIN
 90
        0
 91
        1
 62
     0
 92
       -2
340
14
 93
        0
 40
0.045
309
GRIDFORMAT_END
 95
       16
302
GRIDFORMAT
  1
GRIDFORMAT_BEGIN
 90
        0
 91
        1
 62
     0
 92
       -2
340
14
 93
        0
 40
0.045
309
GRIDFORMAT_END
 95
       32
302
GRIDFORMAT
  1
GRIDFORMAT_BEGIN
 90
        0
 91
        1
 62
     0
 92
       -2
340
14
 93
        0
 40
0.045
309
GRIDFORMAT_END
309
TABLEFORMAT_END
  1
CELLSTYLE_BEGIN
 90
        3
 91
        2
300
_DATA
309
CELLSTYLE_END
  0
XRECORD
  5
2A2
102
{ACAD_REACTORS
330
2A1
102
}
330
2A1
100
AcDbXrecord
280
     1
102
RTVSPropertyOp0
 70
     1
102
RTVSPropertyOp1
 70
     1
102
RTVSPropertyOp2
 70
     1
102
RTVSPropertyOp3
 70
     1
102
RTVSPropertyOp4
 70
     1
102
RTVSPropertyOp5
 70
     1
102
RTVSPropertyOp6
 70
     1
102
RTVSPropertyOp7
 70
     1
102
RTVSPropertyOp8
 70
     1
102
RTVSPropertyOp9
 70
     1
102
RTVSPropertyOp10
 70
     1
102
RTVSPropertyOp11
 70
     1
102
RTVSPropertyOp12
 70
     1
102
RTVSPropertyOp13
 70
     1
102
RTVSPropertyOp14
 70
     1
102
RTVSPropertyOp15
 70
     1
102
RTVSPropertyOp16
 70
     1
102
RTVSPropertyOp17
 70
     1
102
RTVSPropertyOp18
 70
     1
102
RTVSPropertyOp19
 70
     1
102
RTVSPropertyOp20
 70
     1
102
RTVSPropertyOp21
 70
     1
102
RTVSPropertyOp22
 70
     1
102
RTVSPropertyOp23
 70
     1
102
RTVSPropertyOp24
 70
     1
102
RTVSPropertyOp25
 70
     1
102
RTVSPropertyOp26
 70
     1
102
RTVSPropertyOp27
 70
     1
102
RTVSPropertyOp28
 70
     1
102
RTVSPropertyOp29
 70
     1
102
RTVSPropertyOp30
 70
     1
102
RTVSPropertyOp31
 70
     1
102
RTVSPropertyOp32
 70
     1
102
RTVSPropertyOp33
 70
     1
102
RTVSPropertyOp34
 70
     1
102
RTVSPropertyOp35
 70
     1
102
RTVSPropertyOp36
 70
     1
102
RTVSPropertyOp37
 70
     1
102
RTVSPropertyOp38
 70
     1
102
RTVSPropertyOp39
 70
     1
102
RTVSPropertyOp40
 70
     1
102
RTVSPropertyOp41
 70
     1
102
RTVSPropertyOp42
 70
     1
102
RTVSPropertyOp43
 70
     1
102
RTVSPropertyOp44
 70
     1
102
RTVSPropertyOp45
 70
     1
102
RTVSPropertyOp46
 70
     1
102
RTVSPropertyOp47
 70
     1
102
RTVSPropertyOp48
 70
     1
102
RTVSPropertyOp49
 70
     1
102
RTVSPropertyOp50
 70
     1
102
RTVSPropertyOp51
 70
     0
102
RTVSPropertyOp52
 70
     0
102
RTVSPropertyOp53
 70
     1
102
RTVSPropertyOp54
 70
     1
102
RTVSPropertyOp55
 70
     1
102
RTVSPropertyOp56
 70
     1
102
RTVSPropertyOp57
 70
     1
102
RTVSPost2010Prop28
280
     1
102
RTVSPost2010PropOp28
 70
     1
102
RTVSPost2010Prop29
280
     1
102
RTVSPost2010PropOp29
 70
     1
102
RTVSPost2010Prop30
280
     0
102
RTVSPost2010PropOp30
 70
     1
102
RTVSPost2010Prop31
280
     0
102
RTVSPost2010PropOp31
 70
     1
102
RTVSPost2010Prop32
280
     0
102
RTVSPost2010PropOp32
 70
     1
102
RTVSPost2010Prop33
280
     0
102
RTVSPost2010PropOp33
 70
     1
102
RTVSPost2010Prop34
280
     0
102
RTVSPost2010PropOp34
 70
     1
102
RTVSPost2010Prop35
280
     0
102
RTVSPost2010PropOp35
 70
     1
102
RTVSPost2010Prop36
280
     0
102
RTVSPost2010PropOp36
 70
     1
102
RTVSPost2010Prop37
 90
       50
102
RTVSPost2010PropOp37
 70
     1
102
RTVSPost2010Prop38
140
0.0
102
RTVSPost2010PropOp38
 70
     1
102
RTVSPost2010Prop39
140
1.0
102
RTVSPost2010PropOp39
 70
     1
102
RTVSPost2010Prop40
 90
        0
102
RTVSPost2010PropOp40
 70
     1
102
RTVSPost2010Prop41ColorIndex
 90
       18
102
RTVSPost2010Prop41ColorRGB
 90
        0
102
RTVSPost2010PropOp41
 70
     1
102
RTVSPost2010Prop42
 90
       50
102
RTVSPost2010PropOp42
 70
     1
102
RTVSPost2010Prop43
 90
        3
102
RTVSPost2010PropOp43
 70
     1
102
RTVSPost2010Prop44ColorIndex
 90
        5
102
RTVSPost2010Prop44ColorRGB
 90
      255
102
RTVSPost2010PropOp44
 70
     1
102
RTVSPost2010Prop45
280
     0
102
RTVSPost2010PropOp45
 70
     1
102
RTVSPost2010Prop46
 90
       50
102
RTVSPost2010PropOp46
 70
     1
102
RTVSPost2010Prop47
 90
       50
102
RTVSPost2010PropOp47
 70
     1
102
RTVSPost2010Prop48
 90
       50
102
RTVSPost2010PropOp48
 70
     1
102
RTVSPost2010Prop49
280
     0
102
RTVSPost2010PropOp49
 70
     1
102
RTVSPost2010Prop50
 90
       50
102
RTVSPost2010PropOp50
 70
     1
102
RTVSPost2010Prop51ColorIndex
 90
      256
102
RTVSPost2010Prop51ColorRGB
 90
-16777216
102
RTVSPost2010PropOp51
 70
     0
102
RTVSPost2010Prop52
140
1.0
102
RTVSPost2010PropOp52
 70
     0
102
RTVSPost2010Prop53
 90
        2
102
RTVSPost2010PropOp53
 70
     1
102
RTVSPost2010Prop54
  1
strokes_ogs.tif
102
RTVSPost2010PropOp54
 70
     1
102
RTVSPost2010Prop55
280
     0
102
RTVSPost2010PropOp55
 70
     1
102
RTVSPost2010Prop56
140
1.0
102
RTVSPost2010PropOp56
 70
     1
102
RTVSPost2010Prop57
140
1.0
102
RTVSPost2010PropOp57
 70
     1
  0
XRECORD
  5
2A8
102
{ACAD_REACTORS
330
2A7
102
}
330
2A7
100
AcDbXrecord
280
     1
102
RTVSPropertyOp0
 70
     1
102
RTVSPropertyOp1
 70
     1
102
RTVSPropertyOp2
 70
     1
102
RTVSPropertyOp3
 70
     1
102
RTVSPropertyOp4
 70
     1
102
RTVSPropertyOp5
 70
     1
102
RTVSPropertyOp6
 70
     1
102
RTVSPropertyOp7
 70
     1
102
RTVSPropertyOp8
 70
     1
102
RTVSPropertyOp9
 70
     1
102
RTVSPropertyOp10
 70
     1
102
RTVSPropertyOp11
 70
     1
102
RTVSPropertyOp12
 70
     1
102
RTVSPropertyOp13
 70
     1
102
RTVSPropertyOp14
 70
     1
102
RTVSPropertyOp15
 70
     1
102
RTVSPropertyOp16
 70
     1
102
RTVSPropertyOp17
 70
     1
102
RTVSPropertyOp18
 70
     1
102
RTVSPropertyOp19
 70
     1
102
RTVSPropertyOp20
 70
     1
102
RTVSPropertyOp21
 70
     1
102
RTVSPropertyOp22
 70
     1
102
RTVSPropertyOp23
 70
     1
102
RTVSPropertyOp24
 70
     1
102
RTVSPropertyOp25
 70
     1
102
RTVSPropertyOp26
 70
     1
102
RTVSPropertyOp27
 70
     1
102
RTVSPropertyOp28
 70
     1
102
RTVSPropertyOp29
 70
     1
102
RTVSPropertyOp30
 70
     1
102
RTVSPropertyOp31
 70
     1
102
RTVSPropertyOp32
 70
     1
102
RTVSPropertyOp33
 70
     1
102
RTVSPropertyOp34
 70
     1
102
RTVSPropertyOp35
 70
     1
102
RTVSPropertyOp36
 70
     1
102
RTVSPropertyOp37
 70
     1
102
RTVSPropertyOp38
 70
     1
102
RTVSPropertyOp39
 70
     1
102
RTVSPropertyOp40
 70
     1
102
RTVSPropertyOp41
 70
     1
102
RTVSPropertyOp42
 70
     1
102
RTVSPropertyOp43
 70
     1
102
RTVSPropertyOp44
 70
     1
102
RTVSPropertyOp45
 70
     1
102
RTVSPropertyOp46
 70
     1
102
RTVSPropertyOp47
 70
     1
102
RTVSPropertyOp48
 70
     1
102
RTVSPropertyOp49
 70
     1
102
RTVSPropertyOp50
 70
     1
102
RTVSPropertyOp51
 70
     0
102
RTVSPropertyOp52
 70
     0
102
RTVSPropertyOp53
 70
     1
102
RTVSPropertyOp54
 70
     1
102
RTVSPropertyOp55
 70
     1
102
RTVSPropertyOp56
 70
     1
102
RTVSPropertyOp57
 70
     1
102
RTVSPost2010Prop28
280
     0
102
RTVSPost2010PropOp28
 70
     1
102
RTVSPost2010Prop29
280
     1
102
RTVSPost2010PropOp29
 70
     1
102
RTVSPost2010Prop30
280
     1
102
RTVSPost2010PropOp30
 70
     1
102
RTVSPost2010Prop31
280
     0
102
RTVSPost2010PropOp31
 70
     1
102
RTVSPost2010Prop32
280
     0
102
RTVSPost2010PropOp32
 70
     1
102
RTVSPost2010Prop33
280
     0
102
RTVSPost2010PropOp33
 70
     1
102
RTVSPost2010Prop34
280
     0
102
RTVSPost2010PropOp34
 70
     1
102
RTVSPost2010Prop35
280
     0
102
RTVSPost2010PropOp35
 70
     1
102
RTVSPost2010Prop36
280
     0
102
RTVSPost2010PropOp36
 70
     1
102
RTVSPost2010Prop37
 90
       50
102
RTVSPost2010PropOp37
 70
     1
102
RTVSPost2010Prop38
140
0.0
102
RTVSPost2010PropOp38
 70
     1
102
RTVSPost2010Prop39
140
1.0
102
RTVSPost2010PropOp39
 70
     1
102
RTVSPost2010Prop40
 90
        0
102
RTVSPost2010PropOp40
 70
     1
102
RTVSPost2010Prop41ColorIndex
 90
       18
102
RTVSPost2010Prop41ColorRGB
 90
        0
102
RTVSPost2010PropOp41
 70
     1
102
RTVSPost2010Prop42
 90
       50
102
RTVSPost2010PropOp42
 70
     1
102
RTVSPost2010Prop43
 90
        3
102
RTVSPost2010PropOp43
 70
     1
102
RTVSPost2010Prop44ColorIndex
 90
        5
102
RTVSPost2010Prop44ColorRGB
 90
      255
102
RTVSPost2010PropOp44
 70
     1
102
RTVSPost2010Prop45
280
     0
102
RTVSPost2010PropOp45
 70
     1
102
RTVSPost2010Prop46
 90
       50
102
RTVSPost2010PropOp46
 70
     1
102
RTVSPost2010Prop47
 90
       50
102
RTVSPost2010PropOp47
 70
     1
102
RTVSPost2010Prop48
 90
       50
102
RTVSPost2010PropOp48
 70
     1
102
RTVSPost2010Prop49
280
     0
102
RTVSPost2010PropOp49
 70
     1
102
RTVSPost2010Prop50
 90
       50
102
RTVSPost2010PropOp50
 70
     1
102
RTVSPost2010Prop51ColorIndex
 90
      256
102
RTVSPost2010Prop51ColorRGB
 90
-16777216
102
RTVSPost2010PropOp51
 70
     0
102
RTVSPost2010Prop52
140
1.0
102
RTVSPost2010PropOp52
 70
     0
102
RTVSPost2010Prop53
 90
        2
102
RTVSPost2010PropOp53
 70
     1
102
RTVSPost2010Prop54
  1
strokes_ogs.tif
102
RTVSPost2010PropOp54
 70
     1
102
RTVSPost2010Prop55
280
     0
102
RTVSPost2010PropOp55
 70
     1
102
RTVSPost2010Prop56
140
1.0
102
RTVSPost2010PropOp56
 70
     1
102
RTVSPost2010Prop57
140
1.0
102
RTVSPost2010PropOp57
 70
     1
  0
XRECORD
  5
2B0
102
{ACAD_REACTORS
330
2AF
102
}
330
2AF
100
AcDbXrecord
280
     1
102
RTVSPropertyOp0
 70
     1
102
RTVSPropertyOp1
 70
     1
102
RTVSPropertyOp2
 70
     1
102
RTVSPropertyOp3
 70
     1
102
RTVSPropertyOp4
 70
     1
102
RTVSPropertyOp5
 70
     1
102
RTVSPropertyOp6
 70
     1
102
RTVSPropertyOp7
 70
     1
102
RTVSPropertyOp8
 70
     1
102
RTVSPropertyOp9
 70
     1
102
RTVSPropertyOp10
 70
     1
102
RTVSPropertyOp11
 70
     1
102
RTVSPropertyOp12
 70
     1
102
RTVSPropertyOp13
 70
     1
102
RTVSPropertyOp14
 70
     1
102
RTVSPropertyOp15
 70
     1
102
RTVSPropertyOp16
 70
     1
102
RTVSPropertyOp17
 70
     1
102
RTVSPropertyOp18
 70
     1
102
RTVSPropertyOp19
 70
     1
102
RTVSPropertyOp20
 70
     1
102
RTVSPropertyOp21
 70
     1
102
RTVSPropertyOp22
 70
     1
102
RTVSPropertyOp23
 70
     1
102
RTVSPropertyOp24
 70
     1
102
RTVSPropertyOp25
 70
     1
102
RTVSPropertyOp26
 70
     1
102
RTVSPropertyOp27
 70
     1
102
RTVSPropertyOp28
 70
     1
102
RTVSPropertyOp29
 70
     1
102
RTVSPropertyOp30
 70
     1
102
RTVSPropertyOp31
 70
     1
102
RTVSPropertyOp32
 70
     1
102
RTVSPropertyOp33
 70
     1
102
RTVSPropertyOp34
 70
     1
102
RTVSPropertyOp35
 70
     1
102
RTVSPropertyOp36
 70
     1
102
RTVSPropertyOp37
 70
     1
102
RTVSPropertyOp38
 70
     1
102
RTVSPropertyOp39
 70
     1
102
RTVSPropertyOp40
 70
     1
102
RTVSPropertyOp41
 70
     1
102
RTVSPropertyOp42
 70
     1
102
RTVSPropertyOp43
 70
     1
102
RTVSPropertyOp44
 70
     1
102
RTVSPropertyOp45
 70
     1
102
RTVSPropertyOp46
 70
     1
102
RTVSPropertyOp47
 70
     1
102
RTVSPropertyOp48
 70
     1
102
RTVSPropertyOp49
 70
     1
102
RTVSPropertyOp50
 70
     1
102
RTVSPropertyOp51
 70
     0
102
RTVSPropertyOp52
 70
     0
102
RTVSPropertyOp53
 70
     1
102
RTVSPropertyOp54
 70
     1
102
RTVSPropertyOp55
 70
     1
102
RTVSPropertyOp56
 70
     1
102
RTVSPropertyOp57
 70
     1
102
RTVSPost2010Prop28
280
     0
102
RTVSPost2010PropOp28
 70
     1
102
RTVSPost2010Prop29
280
     1
102
RTVSPost2010PropOp29
 70
     1
102
RTVSPost2010Prop30
280
     1
102
RTVSPost2010PropOp30
 70
     1
102
RTVSPost2010Prop31
280
     0
102
RTVSPost2010PropOp31
 70
     1
102
RTVSPost2010Prop32
280
     0
102
RTVSPost2010PropOp32
 70
     1
102
RTVSPost2010Prop33
280
     0
102
RTVSPost2010PropOp33
 70
     1
102
RTVSPost2010Prop34
280
     0
102
RTVSPost2010PropOp34
 70
     1
102
RTVSPost2010Prop35
280
     0
102
RTVSPost2010PropOp35
 70
     1
102
RTVSPost2010Prop36
280
     0
102
RTVSPost2010PropOp36
 70
     1
102
RTVSPost2010Prop37
 90
       50
102
RTVSPost2010PropOp37
 70
     1
102
RTVSPost2010Prop38
140
0.0
102
RTVSPost2010PropOp38
 70
     1
102
RTVSPost2010Prop39
140
1.0
102
RTVSPost2010PropOp39
 70
     1
102
RTVSPost2010Prop40
 90
        0
102
RTVSPost2010PropOp40
 70
     1
102
RTVSPost2010Prop41ColorIndex
 90
       18
102
RTVSPost2010Prop41ColorRGB
 90
        0
102
RTVSPost2010PropOp41
 70
     1
102
RTVSPost2010Prop42
 90
       50
102
RTVSPost2010PropOp42
 70
     1
102
RTVSPost2010Prop43
 90
        3
102
RTVSPost2010PropOp43
 70
     1
102
RTVSPost2010Prop44ColorIndex
 90
        5
102
RTVSPost2010Prop44ColorRGB
 90
      255
102
RTVSPost2010PropOp44
 70
     1
102
RTVSPost2010Prop45
280
     0
102
RTVSPost2010PropOp45
 70
     1
102
RTVSPost2010Prop46
 90
       50
102
RTVSPost2010PropOp46
 70
     1
102
RTVSPost2010Prop47
 90
       50
102
RTVSPost2010PropOp47
 70
     1
102
RTVSPost2010Prop48
 90
       50
102
RTVSPost2010PropOp48
 70
     1
102
RTVSPost2010Prop49
280
     0
102
RTVSPost2010PropOp49
 70
     1
102
RTVSPost2010Prop50
 90
       50
102
RTVSPost2010PropOp50
 70
     1
102
RTVSPost2010Prop51ColorIndex
 90
      256
102
RTVSPost2010Prop51ColorRGB
 90
-16777216
102
RTVSPost2010PropOp51
 70
     0
102
RTVSPost2010Prop52
140
1.0
102
RTVSPost2010PropOp52
 70
     0
102
RTVSPost2010Prop53
 90
        2
102
RTVSPost2010PropOp53
 70
     1
102
RTVSPost2010Prop54
  1
strokes_ogs.tif
102
RTVSPost2010PropOp54
 70
     1
102
RTVSPost2010Prop55
280
     0
102
RTVSPost2010PropOp55
 70
     1
102
RTVSPost2010Prop56
140
1.0
102
RTVSPost2010PropOp56
 70
     1
102
RTVSPost2010Prop57
140
1.0
102
RTVSPost2010PropOp57
 70
     1
  0
XRECORD
  5
2B8
102
{ACAD_REACTORS
330
2B7
102
}
330
2B7
100
AcDbXrecord
280
     1
102
RTVSPropertyOp0
 70
     1
102
RTVSPropertyOp1
 70
     1
102
RTVSPropertyOp2
 70
     1
102
RTVSPropertyOp3
 70
     1
102
RTVSPropertyOp4
 70
     1
102
RTVSPropertyOp5
 70
     1
102
RTVSPropertyOp6
 70
     1
102
RTVSPropertyOp7
 70
     1
102
RTVSPropertyOp8
 70
     1
102
RTVSPropertyOp9
 70
     1
102
RTVSPropertyOp10
 70
     1
102
RTVSPropertyOp11
 70
     1
102
RTVSPropertyOp12
 70
     1
102
RTVSPropertyOp13
 70
     1
102
RTVSPropertyOp14
 70
     1
102
RTVSPropertyOp15
 70
     1
102
RTVSPropertyOp16
 70
     1
102
RTVSPropertyOp17
 70
     1
102
RTVSPropertyOp18
 70
     1
102
RTVSPropertyOp19
 70
     1
102
RTVSPropertyOp20
 70
     1
102
RTVSPropertyOp21
 70
     1
102
RTVSPropertyOp22
 70
     1
102
RTVSPropertyOp23
 70
     1
102
RTVSPropertyOp24
 70
     1
102
RTVSPropertyOp25
 70
     1
102
RTVSPropertyOp26
 70
     1
102
RTVSPropertyOp27
 70
     1
102
RTVSPropertyOp28
 70
     1
102
RTVSPropertyOp29
 70
     1
102
RTVSPropertyOp30
 70
     1
102
RTVSPropertyOp31
 70
     1
102
RTVSPropertyOp32
 70
     1
102
RTVSPropertyOp33
 70
     1
102
RTVSPropertyOp34
 70
     1
102
RTVSPropertyOp35
 70
     1
102
RTVSPropertyOp36
 70
     1
102
RTVSPropertyOp37
 70
     1
102
RTVSPropertyOp38
 70
     1
102
RTVSPropertyOp39
 70
     1
102
RTVSPropertyOp40
 70
     1
102
RTVSPropertyOp41
 70
     1
102
RTVSPropertyOp42
 70
     1
102
RTVSPropertyOp43
 70
     1
102
RTVSPropertyOp44
 70
     1
102
RTVSPropertyOp45
 70
     1
102
RTVSPropertyOp46
 70
     1
102
RTVSPropertyOp47
 70
     1
102
RTVSPropertyOp48
 70
     1
102
RTVSPropertyOp49
 70
     1
102
RTVSPropertyOp50
 70
     1
102
RTVSPropertyOp51
 70
     0
102
RTVSPropertyOp52
 70
     0
102
RTVSPropertyOp53
 70
     1
102
RTVSPropertyOp54
 70
     1
102
RTVSPropertyOp55
 70
     1
102
RTVSPropertyOp56
 70
     1
102
RTVSPropertyOp57
 70
     1
102
RTVSPost2010Prop28
280
     0
102
RTVSPost2010PropOp28
 70
     1
102
RTVSPost2010Prop29
280
     1
102
RTVSPost2010PropOp29
 70
     1
102
RTVSPost2010Prop30
280
     1
102
RTVSPost2010PropOp30
 70
     1
102
RTVSPost2010Prop31
280
     0
102
RTVSPost2010PropOp31
 70
     1
102
RTVSPost2010Prop32
280
     0
102
RTVSPost2010PropOp32
 70
     1
102
RTVSPost2010Prop33
280
     0
102
RTVSPost2010PropOp33
 70
     1
102
RTVSPost2010Prop34
280
     0
102
RTVSPost2010PropOp34
 70
     1
102
RTVSPost2010Prop35
280
     0
102
RTVSPost2010PropOp35
 70
     1
102
RTVSPost2010Prop36
280
     0
102
RTVSPost2010PropOp36
 70
     1
102
RTVSPost2010Prop37
 90
       50
102
RTVSPost2010PropOp37
 70
     1
102
RTVSPost2010Prop38
140
0.0
102
RTVSPost2010PropOp38
 70
     1
102
RTVSPost2010Prop39
140
1.0
102
RTVSPost2010PropOp39
 70
     1
102
RTVSPost2010Prop40
 90
        0
102
RTVSPost2010PropOp40
 70
     1
102
RTVSPost2010Prop41ColorIndex
 90
       18
102
RTVSPost2010Prop41ColorRGB
 90
        0
102
RTVSPost2010PropOp41
 70
     1
102
RTVSPost2010Prop42
 90
       50
102
RTVSPost2010PropOp42
 70
     1
102
RTVSPost2010Prop43
 90
        3
102
RTVSPost2010PropOp43
 70
     1
102
RTVSPost2010Prop44ColorIndex
 90
        5
102
RTVSPost2010Prop44ColorRGB
 90
      255
102
RTVSPost2010PropOp44
 70
     1
102
RTVSPost2010Prop45
280
     0
102
RTVSPost2010PropOp45
 70
     1
102
RTVSPost2010Prop46
 90
       50
102
RTVSPost2010PropOp46
 70
     1
102
RTVSPost2010Prop47
 90
       50
102
RTVSPost2010PropOp47
 70
     1
102
RTVSPost2010Prop48
 90
       50
102
RTVSPost2010PropOp48
 70
     1
102
RTVSPost2010Prop49
280
     0
102
RTVSPost2010PropOp49
 70
     1
102
RTVSPost2010Prop50
 90
       50
102
RTVSPost2010PropOp50
 70
     1
102
RTVSPost2010Prop51ColorIndex
 90
      256
102
RTVSPost2010Prop51ColorRGB
 90
-16777216
102
RTVSPost2010PropOp51
 70
     0
102
RTVSPost2010Prop52
140
1.0
102
RTVSPost2010PropOp52
 70
     0
102
RTVSPost2010Prop53
 90
        2
102
RTVSPost2010PropOp53
 70
     1
102
RTVSPost2010Prop54
  1
strokes_ogs.tif
102
RTVSPost2010PropOp54
 70
     1
102
RTVSPost2010Prop55
280
     0
102
RTVSPost2010PropOp55
 70
     1
102
RTVSPost2010Prop56
140
1.0
102
RTVSPost2010PropOp56
 70
     1
102
RTVSPost2010Prop57
140
1.0
102
RTVSPost2010PropOp57
 70
     1
  0
XRECORD
  5
2AC
102
{ACAD_REACTORS
330
2AB
102
}
330
2AB
100
AcDbXrecord
280
     1
102
RTVSPropertyOp0
 70
     1
102
RTVSPropertyOp1
 70
     1
102
RTVSPropertyOp2
 70
     1
102
RTVSPropertyOp3
 70
     1
102
RTVSPropertyOp4
 70
     1
102
RTVSPropertyOp5
 70
     1
102
RTVSPropertyOp6
 70
     1
102
RTVSPropertyOp7
 70
     1
102
RTVSPropertyOp8
 70
     1
102
RTVSPropertyOp9
 70
     1
102
RTVSPropertyOp10
 70
     1
102
RTVSPropertyOp11
 70
     1
102
RTVSPropertyOp12
 70
     1
102
RTVSPropertyOp13
 70
     1
102
RTVSPropertyOp14
 70
     1
102
RTVSPropertyOp15
 70
     1
102
RTVSPropertyOp16
 70
     1
102
RTVSPropertyOp17
 70
     1
102
RTVSPropertyOp18
 70
     1
102
RTVSPropertyOp19
 70
     1
102
RTVSPropertyOp20
 70
     1
102
RTVSPropertyOp21
 70
     1
102
RTVSPropertyOp22
 70
     1
102
RTVSPropertyOp23
 70
     1
102
RTVSPropertyOp24
 70
     1
102
RTVSPropertyOp25
 70
     1
102
RTVSPropertyOp26
 70
     1
102
RTVSPropertyOp27
 70
     1
102
RTVSPropertyOp28
 70
     1
102
RTVSPropertyOp29
 70
     1
102
RTVSPropertyOp30
 70
     1
102
RTVSPropertyOp31
 70
     1
102
RTVSPropertyOp32
 70
     1
102
RTVSPropertyOp33
 70
     1
102
RTVSPropertyOp34
 70
     1
102
RTVSPropertyOp35
 70
     1
102
RTVSPropertyOp36
 70
     1
102
RTVSPropertyOp37
 70
     1
102
RTVSPropertyOp38
 70
     1
102
RTVSPropertyOp39
 70
     1
102
RTVSPropertyOp40
 70
     1
102
RTVSPropertyOp41
 70
     1
102
RTVSPropertyOp42
 70
     1
102
RTVSPropertyOp43
 70
     1
102
RTVSPropertyOp44
 70
     1
102
RTVSPropertyOp45
 70
     1
102
RTVSPropertyOp46
 70
     1
102
RTVSPropertyOp47
 70
     1
102
RTVSPropertyOp48
 70
     1
102
RTVSPropertyOp49
 70
     1
102
RTVSPropertyOp50
 70
     1
102
RTVSPropertyOp51
 70
     0
102
RTVSPropertyOp52
 70
     0
102
RTVSPropertyOp53
 70
     1
102
RTVSPropertyOp54
 70
     1
102
RTVSPropertyOp55
 70
     1
102
RTVSPropertyOp56
 70
     1
102
RTVSPropertyOp57
 70
     1
102
RTVSPost2010Prop28
280
     0
102
RTVSPost2010PropOp28
 70
     1
102
RTVSPost2010Prop29
280
     1
102
RTVSPost2010PropOp29
 70
     1
102
RTVSPost2010Prop30
280
     1
102
RTVSPost2010PropOp30
 70
     1
102
RTVSPost2010Prop31
280
     0
102
RTVSPost2010PropOp31
 70
     1
102
RTVSPost2010Prop32
280
     0
102
RTVSPost2010PropOp32
 70
     1
102
RTVSPost2010Prop33
280
     0
102
RTVSPost2010PropOp33
 70
     1
102
RTVSPost2010Prop34
280
     0
102
RTVSPost2010PropOp34
 70
     1
102
RTVSPost2010Prop35
280
     0
102
RTVSPost2010PropOp35
 70
     1
102
RTVSPost2010Prop36
280
     0
102
RTVSPost2010PropOp36
 70
     1
102
RTVSPost2010Prop37
 90
       50
102
RTVSPost2010PropOp37
 70
     1
102
RTVSPost2010Prop38
140
0.0
102
RTVSPost2010PropOp38
 70
     1
102
RTVSPost2010Prop39
140
1.0
102
RTVSPost2010PropOp39
 70
     1
102
RTVSPost2010Prop40
 90
        0
102
RTVSPost2010PropOp40
 70
     1
102
RTVSPost2010Prop41ColorIndex
 90
       18
102
RTVSPost2010Prop41ColorRGB
 90
        0
102
RTVSPost2010PropOp41
 70
     1
102
RTVSPost2010Prop42
 90
       50
102
RTVSPost2010PropOp42
 70
     1
102
RTVSPost2010Prop43
 90
        3
102
RTVSPost2010PropOp43
 70
     1
102
RTVSPost2010Prop44ColorIndex
 90
        5
102
RTVSPost2010Prop44ColorRGB
 90
      255
102
RTVSPost2010PropOp44
 70
     1
102
RTVSPost2010Prop45
280
     0
102
RTVSPost2010PropOp45
 70
     1
102
RTVSPost2010Prop46
 90
       50
102
RTVSPost2010PropOp46
 70
     1
102
RTVSPost2010Prop47
 90
       50
102
RTVSPost2010PropOp47
 70
     1
102
RTVSPost2010Prop48
 90
       50
102
RTVSPost2010PropOp48
 70
     1
102
RTVSPost2010Prop49
280
     0
102
RTVSPost2010PropOp49
 70
     1
102
RTVSPost2010Prop50
 90
       50
102
RTVSPost2010PropOp50
 70
     1
102
RTVSPost2010Prop51ColorIndex
 90
      256
102
RTVSPost2010Prop51ColorRGB
 90
-16777216
102
RTVSPost2010PropOp51
 70
     0
102
RTVSPost2010Prop52
140
1.0
102
RTVSPost2010PropOp52
 70
     0
102
RTVSPost2010Prop53
 90
        2
102
RTVSPost2010PropOp53
 70
     1
102
RTVSPost2010Prop54
  1
strokes_ogs.tif
102
RTVSPost2010PropOp54
 70
     1
102
RTVSPost2010Prop55
280
     0
102
RTVSPost2010PropOp55
 70
     1
102
RTVSPost2010Prop56
140
1.0
102
RTVSPost2010PropOp56
 70
     1
102
RTVSPost2010Prop57
140
1.0
102
RTVSPost2010PropOp57
 70
     1
  0
XRECORD
  5
2AE
102
{ACAD_REACTORS
330
2AD
102
}
330
2AD
100
AcDbXrecord
280
     1
102
RTVSPropertyOp0
 70
     1
102
RTVSPropertyOp1
 70
     1
102
RTVSPropertyOp2
 70
     1
102
RTVSPropertyOp3
 70
     1
102
RTVSPropertyOp4
 70
     1
102
RTVSPropertyOp5
 70
     1
102
RTVSPropertyOp6
 70
     1
102
RTVSPropertyOp7
 70
     1
102
RTVSPropertyOp8
 70
     1
102
RTVSPropertyOp9
 70
     1
102
RTVSPropertyOp10
 70
     1
102
RTVSPropertyOp11
 70
     1
102
RTVSPropertyOp12
 70
     1
102
RTVSPropertyOp13
 70
     1
102
RTVSPropertyOp14
 70
     1
102
RTVSPropertyOp15
 70
     1
102
RTVSPropertyOp16
 70
     1
102
RTVSPropertyOp17
 70
     1
102
RTVSPropertyOp18
 70
     1
102
RTVSPropertyOp19
 70
     1
102
RTVSPropertyOp20
 70
     1
102
RTVSPropertyOp21
 70
     1
102
RTVSPropertyOp22
 70
     1
102
RTVSPropertyOp23
 70
     1
102
RTVSPropertyOp24
 70
     1
102
RTVSPropertyOp25
 70
     1
102
RTVSPropertyOp26
 70
     1
102
RTVSPropertyOp27
 70
     1
102
RTVSPropertyOp28
 70
     1
102
RTVSPropertyOp29
 70
     1
102
RTVSPropertyOp30
 70
     1
102
RTVSPropertyOp31
 70
     1
102
RTVSPropertyOp32
 70
     1
102
RTVSPropertyOp33
 70
     1
102
RTVSPropertyOp34
 70
     1
102
RTVSPropertyOp35
 70
     1
102
RTVSPropertyOp36
 70
     1
102
RTVSPropertyOp37
 70
     1
102
RTVSPropertyOp38
 70
     1
102
RTVSPropertyOp39
 70
     1
102
RTVSPropertyOp40
 70
     1
102
RTVSPropertyOp41
 70
     1
102
RTVSPropertyOp42
 70
     1
102
RTVSPropertyOp43
 70
     1
102
RTVSPropertyOp44
 70
     1
102
RTVSPropertyOp45
 70
     1
102
RTVSPropertyOp46
 70
     1
102
RTVSPropertyOp47
 70
     1
102
RTVSPropertyOp48
 70
     1
102
RTVSPropertyOp49
 70
     1
102
RTVSPropertyOp50
 70
     1
102
RTVSPropertyOp51
 70
     0
102
RTVSPropertyOp52
 70
     0
102
RTVSPropertyOp53
 70
     1
102
RTVSPropertyOp54
 70
     1
102
RTVSPropertyOp55
 70
     1
102
RTVSPropertyOp56
 70
     1
102
RTVSPropertyOp57
 70
     1
102
RTVSPost2010Prop28
280
     0
102
RTVSPost2010PropOp28
 70
     1
102
RTVSPost2010Prop29
280
     1
102
RTVSPost2010PropOp29
 70
     1
102
RTVSPost2010Prop30
280
     1
102
RTVSPost2010PropOp30
 70
     1
102
RTVSPost2010Prop31
280
     0
102
RTVSPost2010PropOp31
 70
     1
102
RTVSPost2010Prop32
280
     0
102
RTVSPost2010PropOp32
 70
     1
102
RTVSPost2010Prop33
280
     0
102
RTVSPost2010PropOp33
 70
     1
102
RTVSPost2010Prop34
280
     0
102
RTVSPost2010PropOp34
 70
     1
102
RTVSPost2010Prop35
280
     0
102
RTVSPost2010PropOp35
 70
     1
102
RTVSPost2010Prop36
280
     0
102
RTVSPost2010PropOp36
 70
     1
102
RTVSPost2010Prop37
 90
       50
102
RTVSPost2010PropOp37
 70
     1
102
RTVSPost2010Prop38
140
0.0
102
RTVSPost2010PropOp38
 70
     1
102
RTVSPost2010Prop39
140
1.0
102
RTVSPost2010PropOp39
 70
     1
102
RTVSPost2010Prop40
 90
        0
102
RTVSPost2010PropOp40
 70
     1
102
RTVSPost2010Prop41ColorIndex
 90
       18
102
RTVSPost2010Prop41ColorRGB
 90
        0
102
RTVSPost2010PropOp41
 70
     1
102
RTVSPost2010Prop42
 90
       50
102
RTVSPost2010PropOp42
 70
     1
102
RTVSPost2010Prop43
 90
        3
102
RTVSPost2010PropOp43
 70
     1
102
RTVSPost2010Prop44ColorIndex
 90
        5
102
RTVSPost2010Prop44ColorRGB
 90
      255
102
RTVSPost2010PropOp44
 70
     1
102
RTVSPost2010Prop45
280
     0
102
RTVSPost2010PropOp45
 70
     1
102
RTVSPost2010Prop46
 90
       50
102
RTVSPost2010PropOp46
 70
     1
102
RTVSPost2010Prop47
 90
       50
102
RTVSPost2010PropOp47
 70
     1
102
RTVSPost2010Prop48
 90
       50
102
RTVSPost2010PropOp48
 70
     1
102
RTVSPost2010Prop49
280
     0
102
RTVSPost2010PropOp49
 70
     1
102
RTVSPost2010Prop50
 90
       50
102
RTVSPost2010PropOp50
 70
     1
102
RTVSPost2010Prop51ColorIndex
 90
      256
102
RTVSPost2010Prop51ColorRGB
 90
-16777216
102
RTVSPost2010PropOp51
 70
     0
102
RTVSPost2010Prop52
140
1.0
102
RTVSPost2010PropOp52
 70
     0
102
RTVSPost2010Prop53
 90
        2
102
RTVSPost2010PropOp53
 70
     1
102
RTVSPost2010Prop54
  1
strokes_ogs.tif
102
RTVSPost2010PropOp54
 70
     1
102
RTVSPost2010Prop55
280
     0
102
RTVSPost2010PropOp55
 70
     1
102
RTVSPost2010Prop56
140
1.0
102
RTVSPost2010PropOp56
 70
     1
102
RTVSPost2010Prop57
140
1.0
102
RTVSPost2010PropOp57
 70
     1
  0
XRECORD
  5
2BE
102
{ACAD_REACTORS
330
2BD
102
}
330
2BD
100
AcDbXrecord
280
     1
102
RTVSPropertyOp0
 70
     0
102
RTVSPropertyOp1
 70
     0
102
RTVSPropertyOp2
 70
     0
102
RTVSPropertyOp3
 70
     0
102
RTVSPropertyOp4
 70
     0
102
RTVSPropertyOp5
 70
     0
102
RTVSPropertyOp6
 70
     0
102
RTVSPropertyOp7
 70
     0
102
RTVSPropertyOp8
 70
     0
102
RTVSPropertyOp9
 70
     0
102
RTVSPropertyOp10
 70
     0
102
RTVSPropertyOp11
 70
     0
102
RTVSPropertyOp12
 70
     0
102
RTVSPropertyOp13
 70
     0
102
RTVSPropertyOp14
 70
     2
102
RTVSPropertyOp15
 70
     0
102
RTVSPropertyOp16
 70
     0
102
RTVSPropertyOp17
 70
     0
102
RTVSPropertyOp18
 70
     0
102
RTVSPropertyOp19
 70
     0
102
RTVSPropertyOp20
 70
     0
102
RTVSPropertyOp21
 70
     0
102
RTVSPropertyOp22
 70
     0
102
RTVSPropertyOp23
 70
     0
102
RTVSPropertyOp24
 70
     0
102
RTVSPropertyOp25
 70
     0
102
RTVSPropertyOp26
 70
     0
102
RTVSPropertyOp27
 70
     0
102
RTVSPropertyOp28
 70
     0
102
RTVSPropertyOp29
 70
     0
102
RTVSPropertyOp30
 70
     0
102
RTVSPropertyOp31
 70
     0
102
RTVSPropertyOp32
 70
     0
102
RTVSPropertyOp33
 70
     0
102
RTVSPropertyOp34
 70
     0
102
RTVSPropertyOp35
 70
     0
102
RTVSPropertyOp36
 70
     0
102
RTVSPropertyOp37
 70
     0
102
RTVSPropertyOp38
 70
     0
102
RTVSPropertyOp39
 70
     0
102
RTVSPropertyOp40
 70
     0
102
RTVSPropertyOp41
 70
     0
102
RTVSPropertyOp42
 70
     0
102
RTVSPropertyOp43
 70
     0
102
RTVSPropertyOp44
 70
     0
102
RTVSPropertyOp45
 70
     0
102
RTVSPropertyOp46
 70
     0
102
RTVSPropertyOp47
 70
     0
102
RTVSPropertyOp48
 70
     0
102
RTVSPropertyOp49
 70
     0
102
RTVSPropertyOp50
 70
     0
102
RTVSPropertyOp51
 70
     0
102
RTVSPropertyOp52
 70
     0
102
RTVSPropertyOp53
 70
     0
102
RTVSPropertyOp54
 70
     0
102
RTVSPropertyOp55
 70
     0
102
RTVSPropertyOp56
 70
     0
102
RTVSPropertyOp57
 70
     0
102
RTVSPost2010Prop28
280
     0
102
RTVSPost2010PropOp28
 70
     0
102
RTVSPost2010Prop29
280
     1
102
RTVSPost2010PropOp29
 70
     0
102
RTVSPost2010Prop30
280
     1
102
RTVSPost2010PropOp30
 70
     0
102
RTVSPost2010Prop31
280
     0
102
RTVSPost2010PropOp31
 70
     0
102
RTVSPost2010Prop32
280
     0
102
RTVSPost2010PropOp32
 70
     0
102
RTVSPost2010Prop33
280
     0
102
RTVSPost2010PropOp33
 70
     0
102
RTVSPost2010Prop34
280
     0
102
RTVSPost2010PropOp34
 70
     0
102
RTVSPost2010Prop35
280
     0
102
RTVSPost2010PropOp35
 70
     0
102
RTVSPost2010Prop36
280
     0
102
RTVSPost2010PropOp36
 70
     0
102
RTVSPost2010Prop37
 90
       50
102
RTVSPost2010PropOp37
 70
     0
102
RTVSPost2010Prop38
140
0.0
102
RTVSPost2010PropOp38
 70
     0
102
RTVSPost2010Prop39
140
1.0
102
RTVSPost2010PropOp39
 70
     0
102
RTVSPost2010Prop40
 90
        0
102
RTVSPost2010PropOp40
 70
     0
102
RTVSPost2010Prop41ColorIndex
 90
       18
102
RTVSPost2010Prop41ColorRGB
 90
        0
102
RTVSPost2010PropOp41
 70
     0
102
RTVSPost2010Prop42
 90
       50
102
RTVSPost2010PropOp42
 70
     0
102
RTVSPost2010Prop43
 90
        3
102
RTVSPost2010PropOp43
 70
     0
102
RTVSPost2010Prop44ColorIndex
 90
        5
102
RTVSPost2010Prop44ColorRGB
 90
      255
102
RTVSPost2010PropOp44
 70
     0
102
RTVSPost2010Prop45
280
     0
102
RTVSPost2010PropOp45
 70
     0
102
RTVSPost2010Prop46
 90
       50
102
RTVSPost2010PropOp46
 70
     0
102
RTVSPost2010Prop47
 90
       50
102
RTVSPost2010PropOp47
 70
     0
102
RTVSPost2010Prop48
 90
       50
102
RTVSPost2010PropOp48
 70
     0
102
RTVSPost2010Prop49
280
     0
102
RTVSPost2010PropOp49
 70
     0
102
RTVSPost2010Prop50
 90
       50
102
RTVSPost2010PropOp50
 70
     0
102
RTVSPost2010Prop51ColorIndex
 90
      256
102
RTVSPost2010Prop51ColorRGB
 90
-16777216
102
RTVSPost2010PropOp51
 70
     0
102
RTVSPost2010Prop52
140
1.0
102
RTVSPost2010PropOp52
 70
     0
102
RTVSPost2010Prop53
 90
        2
102
RTVSPost2010PropOp53
 70
     0
102
RTVSPost2010Prop54
  1
strokes_ogs.tif
102
RTVSPost2010PropOp54
 70
     0
102
RTVSPost2010Prop55
280
     0
102
RTVSPost2010PropOp55
 70
     0
102
RTVSPost2010Prop56
140
1.0
102
RTVSPost2010PropOp56
 70
     0
102
RTVSPost2010Prop57
140
1.0
102
RTVSPost2010PropOp57
 70
     0
  0
XRECORD
  5
2B6
102
{ACAD_REACTORS
330
2B5
102
}
330
2B5
100
AcDbXrecord
280
     1
102
RTVSPropertyOp0
 70
     1
102
RTVSPropertyOp1
 70
     1
102
RTVSPropertyOp2
 70
     1
102
RTVSPropertyOp3
 70
     1
102
RTVSPropertyOp4
 70
     1
102
RTVSPropertyOp5
 70
     1
102
RTVSPropertyOp6
 70
     1
102
RTVSPropertyOp7
 70
     1
102
RTVSPropertyOp8
 70
     1
102
RTVSPropertyOp9
 70
     1
102
RTVSPropertyOp10
 70
     1
102
RTVSPropertyOp11
 70
     1
102
RTVSPropertyOp12
 70
     1
102
RTVSPropertyOp13
 70
     1
102
RTVSPropertyOp14
 70
     1
102
RTVSPropertyOp15
 70
     1
102
RTVSPropertyOp16
 70
     1
102
RTVSPropertyOp17
 70
     1
102
RTVSPropertyOp18
 70
     1
102
RTVSPropertyOp19
 70
     1
102
RTVSPropertyOp20
 70
     1
102
RTVSPropertyOp21
 70
     1
102
RTVSPropertyOp22
 70
     1
102
RTVSPropertyOp23
 70
     1
102
RTVSPropertyOp24
 70
     1
102
RTVSPropertyOp25
 70
     1
102
RTVSPropertyOp26
 70
     1
102
RTVSPropertyOp27
 70
     1
102
RTVSPropertyOp28
 70
     1
102
RTVSPropertyOp29
 70
     1
102
RTVSPropertyOp30
 70
     1
102
RTVSPropertyOp31
 70
     1
102
RTVSPropertyOp32
 70
     1
102
RTVSPropertyOp33
 70
     1
102
RTVSPropertyOp34
 70
     1
102
RTVSPropertyOp35
 70
     1
102
RTVSPropertyOp36
 70
     1
102
RTVSPropertyOp37
 70
     1
102
RTVSPropertyOp38
 70
     1
102
RTVSPropertyOp39
 70
     1
102
RTVSPropertyOp40
 70
     1
102
RTVSPropertyOp41
 70
     1
102
RTVSPropertyOp42
 70
     1
102
RTVSPropertyOp43
 70
     1
102
RTVSPropertyOp44
 70
     1
102
RTVSPropertyOp45
 70
     1
102
RTVSPropertyOp46
 70
     1
102
RTVSPropertyOp47
 70
     1
102
RTVSPropertyOp48
 70
     1
102
RTVSPropertyOp49
 70
     1
102
RTVSPropertyOp50
 70
     1
102
RTVSPropertyOp51
 70
     0
102
RTVSPropertyOp52
 70
     0
102
RTVSPropertyOp53
 70
     1
102
RTVSPropertyOp54
 70
     1
102
RTVSPropertyOp55
 70
     1
102
RTVSPropertyOp56
 70
     1
102
RTVSPropertyOp57
 70
     1
102
RTVSPost2010Prop28
280
     0
102
RTVSPost2010PropOp28
 70
     1
102
RTVSPost2010Prop29
280
     1
102
RTVSPost2010PropOp29
 70
     1
102
RTVSPost2010Prop30
280
     1
102
RTVSPost2010PropOp30
 70
     1
102
RTVSPost2010Prop31
280
     0
102
RTVSPost2010PropOp31
 70
     1
102
RTVSPost2010Prop32
280
     0
102
RTVSPost2010PropOp32
 70
     1
102
RTVSPost2010Prop33
280
     0
102
RTVSPost2010PropOp33
 70
     1
102
RTVSPost2010Prop34
280
     0
102
RTVSPost2010PropOp34
 70
     1
102
RTVSPost2010Prop35
280
     0
102
RTVSPost2010PropOp35
 70
     1
102
RTVSPost2010Prop36
280
     0
102
RTVSPost2010PropOp36
 70
     1
102
RTVSPost2010Prop37
 90
       50
102
RTVSPost2010PropOp37
 70
     1
102
RTVSPost2010Prop38
140
0.0
102
RTVSPost2010PropOp38
 70
     1
102
RTVSPost2010Prop39
140
1.0
102
RTVSPost2010PropOp39
 70
     1
102
RTVSPost2010Prop40
 90
        0
102
RTVSPost2010PropOp40
 70
     1
102
RTVSPost2010Prop41ColorIndex
 90
       18
102
RTVSPost2010Prop41ColorRGB
 90
        0
102
RTVSPost2010PropOp41
 70
     1
102
RTVSPost2010Prop42
 90
       50
102
RTVSPost2010PropOp42
 70
     1
102
RTVSPost2010Prop43
 90
        3
102
RTVSPost2010PropOp43
 70
     1
102
RTVSPost2010Prop44ColorIndex
 90
        5
102
RTVSPost2010Prop44ColorRGB
 90
      255
102
RTVSPost2010PropOp44
 70
     1
102
RTVSPost2010Prop45
280
     0
102
RTVSPost2010PropOp45
 70
     1
102
RTVSPost2010Prop46
 90
       50
102
RTVSPost2010PropOp46
 70
     1
102
RTVSPost2010Prop47
 90
       50
102
RTVSPost2010PropOp47
 70
     1
102
RTVSPost2010Prop48
 90
       50
102
RTVSPost2010PropOp48
 70
     1
102
RTVSPost2010Prop49
280
     0
102
RTVSPost2010PropOp49
 70
     1
102
RTVSPost2010Prop50
 90
       50
102
RTVSPost2010PropOp50
 70
     1
102
RTVSPost2010Prop51ColorIndex
 90
      256
102
RTVSPost2010Prop51ColorRGB
 90
-16777216
102
RTVSPost2010PropOp51
 70
     0
102
RTVSPost2010Prop52
140
1.0
102
RTVSPost2010PropOp52
 70
     0
102
RTVSPost2010Prop53
 90
        2
102
RTVSPost2010PropOp53
 70
     1
102
RTVSPost2010Prop54
  1
strokes_ogs.tif
102
RTVSPost2010PropOp54
 70
     1
102
RTVSPost2010Prop55
280
     0
102
RTVSPost2010PropOp55
 70
     1
102
RTVSPost2010Prop56
140
1.0
102
RTVSPost2010PropOp56
 70
     1
102
RTVSPost2010Prop57
140
1.0
102
RTVSPost2010PropOp57
 70
     1
  0
XRECORD
  5
29A
102
{ACAD_REACTORS
330
299
102
}
330
299
100
AcDbXrecord
280
     1
102
RTVSPropertyOp0
 70
     1
102
RTVSPropertyOp1
 70
     1
102
RTVSPropertyOp2
 70
     1
102
RTVSPropertyOp3
 70
     1
102
RTVSPropertyOp4
 70
     1
102
RTVSPropertyOp5
 70
     1
102
RTVSPropertyOp6
 70
     1
102
RTVSPropertyOp7
 70
     1
102
RTVSPropertyOp8
 70
     1
102
RTVSPropertyOp9
 70
     1
102
RTVSPropertyOp10
 70
     1
102
RTVSPropertyOp11
 70
     1
102
RTVSPropertyOp12
 70
     1
102
RTVSPropertyOp13
 70
     1
102
RTVSPropertyOp14
 70
     1
102
RTVSPropertyOp15
 70
     1
102
RTVSPropertyOp16
 70
     1
102
RTVSPropertyOp17
 70
     1
102
RTVSPropertyOp18
 70
     1
102
RTVSPropertyOp19
 70
     1
102
RTVSPropertyOp20
 70
     1
102
RTVSPropertyOp21
 70
     1
102
RTVSPropertyOp22
 70
     1
102
RTVSPropertyOp23
 70
     1
102
RTVSPropertyOp24
 70
     1
102
RTVSPropertyOp25
 70
     1
102
RTVSPropertyOp26
 70
     1
102
RTVSPropertyOp27
 70
     1
102
RTVSPropertyOp28
 70
     1
102
RTVSPropertyOp29
 70
     1
102
RTVSPropertyOp30
 70
     1
102
RTVSPropertyOp31
 70
     1
102
RTVSPropertyOp32
 70
     1
102
RTVSPropertyOp33
 70
     1
102
RTVSPropertyOp34
 70
     1
102
RTVSPropertyOp35
 70
     1
102
RTVSPropertyOp36
 70
     1
102
RTVSPropertyOp37
 70
     1
102
RTVSPropertyOp38
 70
     1
102
RTVSPropertyOp39
 70
     1
102
RTVSPropertyOp40
 70
     1
102
RTVSPropertyOp41
 70
     1
102
RTVSPropertyOp42
 70
     1
102
RTVSPropertyOp43
 70
     1
102
RTVSPropertyOp44
 70
     1
102
RTVSPropertyOp45
 70
     1
102
RTVSPropertyOp46
 70
     1
102
RTVSPropertyOp47
 70
     1
102
RTVSPropertyOp48
 70
     1
102
RTVSPropertyOp49
 70
     1
102
RTVSPropertyOp50
 70
     1
102
RTVSPropertyOp51
 70
     0
102
RTVSPropertyOp52
 70
     0
102
RTVSPropertyOp53
 70
     1
102
RTVSPropertyOp54
 70
     1
102
RTVSPropertyOp55
 70
     1
102
RTVSPropertyOp56
 70
     1
102
RTVSPropertyOp57
 70
     1
102
RTVSPost2010Prop28
280
     0
102
RTVSPost2010PropOp28
 70
     1
102
RTVSPost2010Prop29
280
     1
102
RTVSPost2010PropOp29
 70
     1
102
RTVSPost2010Prop30
280
     1
102
RTVSPost2010PropOp30
 70
     1
102
RTVSPost2010Prop31
280
     0
102
RTVSPost2010PropOp31
 70
     1
102
RTVSPost2010Prop32
280
     0
102
RTVSPost2010PropOp32
 70
     1
102
RTVSPost2010Prop33
280
     0
102
RTVSPost2010PropOp33
 70
     1
102
RTVSPost2010Prop34
280
     0
102
RTVSPost2010PropOp34
 70
     1
102
RTVSPost2010Prop35
280
     0
102
RTVSPost2010PropOp35
 70
     1
102
RTVSPost2010Prop36
280
     0
102
RTVSPost2010PropOp36
 70
     1
102
RTVSPost2010Prop37
 90
       50
102
RTVSPost2010PropOp37
 70
     1
102
RTVSPost2010Prop38
140
0.0
102
RTVSPost2010PropOp38
 70
     1
102
RTVSPost2010Prop39
140
1.0
102
RTVSPost2010PropOp39
 70
     1
102
RTVSPost2010Prop40
 90
        0
102
RTVSPost2010PropOp40
 70
     1
102
RTVSPost2010Prop41ColorIndex
 90
       18
102
RTVSPost2010Prop41ColorRGB
 90
        0
102
RTVSPost2010PropOp41
 70
     1
102
RTVSPost2010Prop42
 90
       50
102
RTVSPost2010PropOp42
 70
     1
102
RTVSPost2010Prop43
 90
        3
102
RTVSPost2010PropOp43
 70
     1
102
RTVSPost2010Prop44ColorIndex
 90
        5
102
RTVSPost2010Prop44ColorRGB
 90
      255
102
RTVSPost2010PropOp44
 70
     1
102
RTVSPost2010Prop45
280
     0
102
RTVSPost2010PropOp45
 70
     1
102
RTVSPost2010Prop46
 90
       50
102
RTVSPost2010PropOp46
 70
     1
102
RTVSPost2010Prop47
 90
       50
102
RTVSPost2010PropOp47
 70
     1
102
RTVSPost2010Prop48
 90
       50
102
RTVSPost2010PropOp48
 70
     1
102
RTVSPost2010Prop49
280
     0
102
RTVSPost2010PropOp49
 70
     1
102
RTVSPost2010Prop50
 90
       50
102
RTVSPost2010PropOp50
 70
     1
102
RTVSPost2010Prop51ColorIndex
 90
      256
102
RTVSPost2010Prop51ColorRGB
 90
-16777216
102
RTVSPost2010PropOp51
 70
     0
102
RTVSPost2010Prop52
140
1.0
102
RTVSPost2010PropOp52
 70
     0
102
RTVSPost2010Prop53
 90
        2
102
RTVSPost2010PropOp53
 70
     1
102
RTVSPost2010Prop54
  1
strokes_ogs.tif
102
RTVSPost2010PropOp54
 70
     1
102
RTVSPost2010Prop55
280
     0
102
RTVSPost2010PropOp55
 70
     1
102
RTVSPost2010Prop56
140
1.0
102
RTVSPost2010PropOp56
 70
     1
102
RTVSPost2010Prop57
140
1.0
102
RTVSPost2010PropOp57
 70
     1
  0
XRECORD
  5
29C
102
{ACAD_REACTORS
330
29B
102
}
330
29B
100
AcDbXrecord
280
     1
102
RTVSPropertyOp0
 70
     1
102
RTVSPropertyOp1
 70
     1
102
RTVSPropertyOp2
 70
     1
102
RTVSPropertyOp3
 70
     1
102
RTVSPropertyOp4
 70
     1
102
RTVSPropertyOp5
 70
     1
102
RTVSPropertyOp6
 70
     1
102
RTVSPropertyOp7
 70
     1
102
RTVSPropertyOp8
 70
     1
102
RTVSPropertyOp9
 70
     1
102
RTVSPropertyOp10
 70
     1
102
RTVSPropertyOp11
 70
     1
102
RTVSPropertyOp12
 70
     1
102
RTVSPropertyOp13
 70
     1
102
RTVSPropertyOp14
 70
     1
102
RTVSPropertyOp15
 70
     1
102
RTVSPropertyOp16
 70
     1
102
RTVSPropertyOp17
 70
     1
102
RTVSPropertyOp18
 70
     1
102
RTVSPropertyOp19
 70
     1
102
RTVSPropertyOp20
 70
     1
102
RTVSPropertyOp21
 70
     1
102
RTVSPropertyOp22
 70
     1
102
RTVSPropertyOp23
 70
     1
102
RTVSPropertyOp24
 70
     1
102
RTVSPropertyOp25
 70
     1
102
RTVSPropertyOp26
 70
     1
102
RTVSPropertyOp27
 70
     1
102
RTVSPropertyOp28
 70
     1
102
RTVSPropertyOp29
 70
     1
102
RTVSPropertyOp30
 70
     1
102
RTVSPropertyOp31
 70
     1
102
RTVSPropertyOp32
 70
     1
102
RTVSPropertyOp33
 70
     1
102
RTVSPropertyOp34
 70
     1
102
RTVSPropertyOp35
 70
     1
102
RTVSPropertyOp36
 70
     1
102
RTVSPropertyOp37
 70
     1
102
RTVSPropertyOp38
 70
     1
102
RTVSPropertyOp39
 70
     1
102
RTVSPropertyOp40
 70
     1
102
RTVSPropertyOp41
 70
     1
102
RTVSPropertyOp42
 70
     1
102
RTVSPropertyOp43
 70
     1
102
RTVSPropertyOp44
 70
     1
102
RTVSPropertyOp45
 70
     1
102
RTVSPropertyOp46
 70
     1
102
RTVSPropertyOp47
 70
     1
102
RTVSPropertyOp48
 70
     1
102
RTVSPropertyOp49
 70
     1
102
RTVSPropertyOp50
 70
     1
102
RTVSPropertyOp51
 70
     0
102
RTVSPropertyOp52
 70
     0
102
RTVSPropertyOp53
 70
     1
102
RTVSPropertyOp54
 70
     1
102
RTVSPropertyOp55
 70
     1
102
RTVSPropertyOp56
 70
     1
102
RTVSPropertyOp57
 70
     1
102
RTVSPost2010Prop28
280
     0
102
RTVSPost2010PropOp28
 70
     1
102
RTVSPost2010Prop29
280
     1
102
RTVSPost2010PropOp29
 70
     1
102
RTVSPost2010Prop30
280
     1
102
RTVSPost2010PropOp30
 70
     1
102
RTVSPost2010Prop31
280
     0
102
RTVSPost2010PropOp31
 70
     1
102
RTVSPost2010Prop32
280
     0
102
RTVSPost2010PropOp32
 70
     1
102
RTVSPost2010Prop33
280
     0
102
RTVSPost2010PropOp33
 70
     1
102
RTVSPost2010Prop34
280
     0
102
RTVSPost2010PropOp34
 70
     1
102
RTVSPost2010Prop35
280
     0
102
RTVSPost2010PropOp35
 70
     1
102
RTVSPost2010Prop36
280
     0
102
RTVSPost2010PropOp36
 70
     1
102
RTVSPost2010Prop37
 90
       50
102
RTVSPost2010PropOp37
 70
     1
102
RTVSPost2010Prop38
140
0.0
102
RTVSPost2010PropOp38
 70
     1
102
RTVSPost2010Prop39
140
1.0
102
RTVSPost2010PropOp39
 70
     1
102
RTVSPost2010Prop40
 90
        0
102
RTVSPost2010PropOp40
 70
     1
102
RTVSPost2010Prop41ColorIndex
 90
       18
102
RTVSPost2010Prop41ColorRGB
 90
        0
102
RTVSPost2010PropOp41
 70
     1
102
RTVSPost2010Prop42
 90
       50
102
RTVSPost2010PropOp42
 70
     1
102
RTVSPost2010Prop43
 90
        3
102
RTVSPost2010PropOp43
 70
     1
102
RTVSPost2010Prop44ColorIndex
 90
        5
102
RTVSPost2010Prop44ColorRGB
 90
      255
102
RTVSPost2010PropOp44
 70
     1
102
RTVSPost2010Prop45
280
     0
102
RTVSPost2010PropOp45
 70
     1
102
RTVSPost2010Prop46
 90
       50
102
RTVSPost2010PropOp46
 70
     1
102
RTVSPost2010Prop47
 90
       50
102
RTVSPost2010PropOp47
 70
     1
102
RTVSPost2010Prop48
 90
       50
102
RTVSPost2010PropOp48
 70
     1
102
RTVSPost2010Prop49
280
     0
102
RTVSPost2010PropOp49
 70
     1
102
RTVSPost2010Prop50
 90
       50
102
RTVSPost2010PropOp50
 70
     1
102
RTVSPost2010Prop51ColorIndex
 90
      256
102
RTVSPost2010Prop51ColorRGB
 90
-16777216
102
RTVSPost2010PropOp51
 70
     0
102
RTVSPost2010Prop52
140
1.0
102
RTVSPost2010PropOp52
 70
     0
102
RTVSPost2010Prop53
 90
        2
102
RTVSPost2010PropOp53
 70
     1
102
RTVSPost2010Prop54
  1
strokes_ogs.tif
102
RTVSPost2010PropOp54
 70
     1
102
RTVSPost2010Prop55
280
     0
102
RTVSPost2010PropOp55
 70
     1
102
RTVSPost2010Prop56
140
1.0
102
RTVSPost2010PropOp56
 70
     1
102
RTVSPost2010Prop57
140
1.0
102
RTVSPost2010PropOp57
 70
     1
  0
XRECORD
  5
29E
102
{ACAD_REACTORS
330
29D
102
}
330
29D
100
AcDbXrecord
280
     1
102
RTVSPropertyOp0
 70
     1
102
RTVSPropertyOp1
 70
     1
102
RTVSPropertyOp2
 70
     1
102
RTVSPropertyOp3
 70
     1
102
RTVSPropertyOp4
 70
     1
102
RTVSPropertyOp5
 70
     1
102
RTVSPropertyOp6
 70
     1
102
RTVSPropertyOp7
 70
     1
102
RTVSPropertyOp8
 70
     1
102
RTVSPropertyOp9
 70
     1
102
RTVSPropertyOp10
 70
     1
102
RTVSPropertyOp11
 70
     1
102
RTVSPropertyOp12
 70
     1
102
RTVSPropertyOp13
 70
     1
102
RTVSPropertyOp14
 70
     1
102
RTVSPropertyOp15
 70
     1
102
RTVSPropertyOp16
 70
     1
102
RTVSPropertyOp17
 70
     1
102
RTVSPropertyOp18
 70
     1
102
RTVSPropertyOp19
 70
     1
102
RTVSPropertyOp20
 70
     1
102
RTVSPropertyOp21
 70
     1
102
RTVSPropertyOp22
 70
     1
102
RTVSPropertyOp23
 70
     1
102
RTVSPropertyOp24
 70
     1
102
RTVSPropertyOp25
 70
     1
102
RTVSPropertyOp26
 70
     1
102
RTVSPropertyOp27
 70
     1
102
RTVSPropertyOp28
 70
     1
102
RTVSPropertyOp29
 70
     1
102
RTVSPropertyOp30
 70
     1
102
RTVSPropertyOp31
 70
     1
102
RTVSPropertyOp32
 70
     1
102
RTVSPropertyOp33
 70
     1
102
RTVSPropertyOp34
 70
     1
102
RTVSPropertyOp35
 70
     1
102
RTVSPropertyOp36
 70
     1
102
RTVSPropertyOp37
 70
     1
102
RTVSPropertyOp38
 70
     1
102
RTVSPropertyOp39
 70
     1
102
RTVSPropertyOp40
 70
     1
102
RTVSPropertyOp41
 70
     1
102
RTVSPropertyOp42
 70
     1
102
RTVSPropertyOp43
 70
     1
102
RTVSPropertyOp44
 70
     1
102
RTVSPropertyOp45
 70
     1
102
RTVSPropertyOp46
 70
     1
102
RTVSPropertyOp47
 70
     1
102
RTVSPropertyOp48
 70
     1
102
RTVSPropertyOp49
 70
     1
102
RTVSPropertyOp50
 70
     1
102
RTVSPropertyOp51
 70
     0
102
RTVSPropertyOp52
 70
     0
102
RTVSPropertyOp53
 70
     1
102
RTVSPropertyOp54
 70
     1
102
RTVSPropertyOp55
 70
     1
102
RTVSPropertyOp56
 70
     1
102
RTVSPropertyOp57
 70
     1
102
RTVSPost2010Prop28
280
     0
102
RTVSPost2010PropOp28
 70
     1
102
RTVSPost2010Prop29
280
     1
102
RTVSPost2010PropOp29
 70
     1
102
RTVSPost2010Prop30
280
     1
102
RTVSPost2010PropOp30
 70
     1
102
RTVSPost2010Prop31
280
     0
102
RTVSPost2010PropOp31
 70
     1
102
RTVSPost2010Prop32
280
     0
102
RTVSPost2010PropOp32
 70
     1
102
RTVSPost2010Prop33
280
     0
102
RTVSPost2010PropOp33
 70
     1
102
RTVSPost2010Prop34
280
     0
102
RTVSPost2010PropOp34
 70
     1
102
RTVSPost2010Prop35
280
     0
102
RTVSPost2010PropOp35
 70
     1
102
RTVSPost2010Prop36
280
     0
102
RTVSPost2010PropOp36
 70
     1
102
RTVSPost2010Prop37
 90
       50
102
RTVSPost2010PropOp37
 70
     1
102
RTVSPost2010Prop38
140
0.0
102
RTVSPost2010PropOp38
 70
     1
102
RTVSPost2010Prop39
140
1.0
102
RTVSPost2010PropOp39
 70
     1
102
RTVSPost2010Prop40
 90
        0
102
RTVSPost2010PropOp40
 70
     1
102
RTVSPost2010Prop41ColorIndex
 90
       18
102
RTVSPost2010Prop41ColorRGB
 90
        0
102
RTVSPost2010PropOp41
 70
     1
102
RTVSPost2010Prop42
 90
       50
102
RTVSPost2010PropOp42
 70
     1
102
RTVSPost2010Prop43
 90
        3
102
RTVSPost2010PropOp43
 70
     1
102
RTVSPost2010Prop44ColorIndex
 90
        5
102
RTVSPost2010Prop44ColorRGB
 90
      255
102
RTVSPost2010PropOp44
 70
     1
102
RTVSPost2010Prop45
280
     0
102
RTVSPost2010PropOp45
 70
     1
102
RTVSPost2010Prop46
 90
       50
102
RTVSPost2010PropOp46
 70
     1
102
RTVSPost2010Prop47
 90
       50
102
RTVSPost2010PropOp47
 70
     1
102
RTVSPost2010Prop48
 90
       50
102
RTVSPost2010PropOp48
 70
     1
102
RTVSPost2010Prop49
280
     0
102
RTVSPost2010PropOp49
 70
     1
102
RTVSPost2010Prop50
 90
       50
102
RTVSPost2010PropOp50
 70
     1
102
RTVSPost2010Prop51ColorIndex
 90
      256
102
RTVSPost2010Prop51ColorRGB
 90
-16777216
102
RTVSPost2010PropOp51
 70
     0
102
RTVSPost2010Prop52
140
1.0
102
RTVSPost2010PropOp52
 70
     0
102
RTVSPost2010Prop53
 90
        2
102
RTVSPost2010PropOp53
 70
     1
102
RTVSPost2010Prop54
  1
strokes_ogs.tif
102
RTVSPost2010PropOp54
 70
     1
102
RTVSPost2010Prop55
280
     0
102
RTVSPost2010PropOp55
 70
     1
102
RTVSPost2010Prop56
140
1.0
102
RTVSPost2010PropOp56
 70
     1
102
RTVSPost2010Prop57
140
1.0
102
RTVSPost2010PropOp57
 70
     1
  0
XRECORD
  5
2A0
102
{ACAD_REACTORS
330
29F
102
}
330
29F
100
AcDbXrecord
280
     1
102
RTVSPropertyOp0
 70
     1
102
RTVSPropertyOp1
 70
     1
102
RTVSPropertyOp2
 70
     1
102
RTVSPropertyOp3
 70
     1
102
RTVSPropertyOp4
 70
     1
102
RTVSPropertyOp5
 70
     1
102
RTVSPropertyOp6
 70
     1
102
RTVSPropertyOp7
 70
     1
102
RTVSPropertyOp8
 70
     1
102
RTVSPropertyOp9
 70
     1
102
RTVSPropertyOp10
 70
     1
102
RTVSPropertyOp11
 70
     1
102
RTVSPropertyOp12
 70
     1
102
RTVSPropertyOp13
 70
     1
102
RTVSPropertyOp14
 70
     1
102
RTVSPropertyOp15
 70
     1
102
RTVSPropertyOp16
 70
     1
102
RTVSPropertyOp17
 70
     1
102
RTVSPropertyOp18
 70
     1
102
RTVSPropertyOp19
 70
     1
102
RTVSPropertyOp20
 70
     1
102
RTVSPropertyOp21
 70
     1
102
RTVSPropertyOp22
 70
     1
102
RTVSPropertyOp23
 70
     1
102
RTVSPropertyOp24
 70
     1
102
RTVSPropertyOp25
 70
     1
102
RTVSPropertyOp26
 70
     1
102
RTVSPropertyOp27
 70
     1
102
RTVSPropertyOp28
 70
     1
102
RTVSPropertyOp29
 70
     1
102
RTVSPropertyOp30
 70
     1
102
RTVSPropertyOp31
 70
     1
102
RTVSPropertyOp32
 70
     1
102
RTVSPropertyOp33
 70
     1
102
RTVSPropertyOp34
 70
     1
102
RTVSPropertyOp35
 70
     1
102
RTVSPropertyOp36
 70
     1
102
RTVSPropertyOp37
 70
     1
102
RTVSPropertyOp38
 70
     1
102
RTVSPropertyOp39
 70
     1
102
RTVSPropertyOp40
 70
     1
102
RTVSPropertyOp41
 70
     1
102
RTVSPropertyOp42
 70
     1
102
RTVSPropertyOp43
 70
     1
102
RTVSPropertyOp44
 70
     1
102
RTVSPropertyOp45
 70
     1
102
RTVSPropertyOp46
 70
     1
102
RTVSPropertyOp47
 70
     1
102
RTVSPropertyOp48
 70
     1
102
RTVSPropertyOp49
 70
     1
102
RTVSPropertyOp50
 70
     1
102
RTVSPropertyOp51
 70
     0
102
RTVSPropertyOp52
 70
     0
102
RTVSPropertyOp53
 70
     1
102
RTVSPropertyOp54
 70
     1
102
RTVSPropertyOp55
 70
     1
102
RTVSPropertyOp56
 70
     1
102
RTVSPropertyOp57
 70
     1
102
RTVSPost2010Prop28
280
     0
102
RTVSPost2010PropOp28
 70
     1
102
RTVSPost2010Prop29
280
     1
102
RTVSPost2010PropOp29
 70
     1
102
RTVSPost2010Prop30
280
     1
102
RTVSPost2010PropOp30
 70
     1
102
RTVSPost2010Prop31
280
     0
102
RTVSPost2010PropOp31
 70
     1
102
RTVSPost2010Prop32
280
     0
102
RTVSPost2010PropOp32
 70
     1
102
RTVSPost2010Prop33
280
     0
102
RTVSPost2010PropOp33
 70
     1
102
RTVSPost2010Prop34
280
     0
102
RTVSPost2010PropOp34
 70
     1
102
RTVSPost2010Prop35
280
     0
102
RTVSPost2010PropOp35
 70
     1
102
RTVSPost2010Prop36
280
     0
102
RTVSPost2010PropOp36
 70
     1
102
RTVSPost2010Prop37
 90
       50
102
RTVSPost2010PropOp37
 70
     1
102
RTVSPost2010Prop38
140
0.0
102
RTVSPost2010PropOp38
 70
     1
102
RTVSPost2010Prop39
140
1.0
102
RTVSPost2010PropOp39
 70
     1
102
RTVSPost2010Prop40
 90
        0
102
RTVSPost2010PropOp40
 70
     1
102
RTVSPost2010Prop41ColorIndex
 90
       18
102
RTVSPost2010Prop41ColorRGB
 90
        0
102
RTVSPost2010PropOp41
 70
     1
102
RTVSPost2010Prop42
 90
       50
102
RTVSPost2010PropOp42
 70
     1
102
RTVSPost2010Prop43
 90
        3
102
RTVSPost2010PropOp43
 70
     1
102
RTVSPost2010Prop44ColorIndex
 90
        5
102
RTVSPost2010Prop44ColorRGB
 90
      255
102
RTVSPost2010PropOp44
 70
     1
102
RTVSPost2010Prop45
280
     0
102
RTVSPost2010PropOp45
 70
     1
102
RTVSPost2010Prop46
 90
       50
102
RTVSPost2010PropOp46
 70
     1
102
RTVSPost2010Prop47
 90
       50
102
RTVSPost2010PropOp47
 70
     1
102
RTVSPost2010Prop48
 90
       50
102
RTVSPost2010PropOp48
 70
     1
102
RTVSPost2010Prop49
280
     0
102
RTVSPost2010PropOp49
 70
     1
102
RTVSPost2010Prop50
 90
       50
102
RTVSPost2010PropOp50
 70
     1
102
RTVSPost2010Prop51ColorIndex
 90
      256
102
RTVSPost2010Prop51ColorRGB
 90
-16777216
102
RTVSPost2010PropOp51
 70
     0
102
RTVSPost2010Prop52
140
1.0
102
RTVSPost2010PropOp52
 70
     0
102
RTVSPost2010Prop53
 90
        2
102
RTVSPost2010PropOp53
 70
     1
102
RTVSPost2010Prop54
  1
strokes_ogs.tif
102
RTVSPost2010PropOp54
 70
     1
102
RTVSPost2010Prop55
280
     0
102
RTVSPost2010PropOp55
 70
     1
102
RTVSPost2010Prop56
140
1.0
102
RTVSPost2010PropOp56
 70
     1
102
RTVSPost2010Prop57
140
1.0
102
RTVSPost2010PropOp57
 70
     1
  0
XRECORD
  5
2A6
102
{ACAD_REACTORS
330
2A5
102
}
330
2A5
100
AcDbXrecord
280
     1
102
RTVSPropertyOp0
 70
     1
102
RTVSPropertyOp1
 70
     1
102
RTVSPropertyOp2
 70
     1
102
RTVSPropertyOp3
 70
     1
102
RTVSPropertyOp4
 70
     1
102
RTVSPropertyOp5
 70
     1
102
RTVSPropertyOp6
 70
     1
102
RTVSPropertyOp7
 70
     1
102
RTVSPropertyOp8
 70
     1
102
RTVSPropertyOp9
 70
     1
102
RTVSPropertyOp10
 70
     1
102
RTVSPropertyOp11
 70
     1
102
RTVSPropertyOp12
 70
     1
102
RTVSPropertyOp13
 70
     1
102
RTVSPropertyOp14
 70
     1
102
RTVSPropertyOp15
 70
     1
102
RTVSPropertyOp16
 70
     1
102
RTVSPropertyOp17
 70
     1
102
RTVSPropertyOp18
 70
     1
102
RTVSPropertyOp19
 70
     1
102
RTVSPropertyOp20
 70
     1
102
RTVSPropertyOp21
 70
     1
102
RTVSPropertyOp22
 70
     1
102
RTVSPropertyOp23
 70
     1
102
RTVSPropertyOp24
 70
     1
102
RTVSPropertyOp25
 70
     1
102
RTVSPropertyOp26
 70
     1
102
RTVSPropertyOp27
 70
     1
102
RTVSPropertyOp28
 70
     1
102
RTVSPropertyOp29
 70
     1
102
RTVSPropertyOp30
 70
     1
102
RTVSPropertyOp31
 70
     1
102
RTVSPropertyOp32
 70
     1
102
RTVSPropertyOp33
 70
     1
102
RTVSPropertyOp34
 70
     1
102
RTVSPropertyOp35
 70
     1
102
RTVSPropertyOp36
 70
     1
102
RTVSPropertyOp37
 70
     1
102
RTVSPropertyOp38
 70
     1
102
RTVSPropertyOp39
 70
     1
102
RTVSPropertyOp40
 70
     1
102
RTVSPropertyOp41
 70
     1
102
RTVSPropertyOp42
 70
     1
102
RTVSPropertyOp43
 70
     1
102
RTVSPropertyOp44
 70
     1
102
RTVSPropertyOp45
 70
     1
102
RTVSPropertyOp46
 70
     1
102
RTVSPropertyOp47
 70
     1
102
RTVSPropertyOp48
 70
     1
102
RTVSPropertyOp49
 70
     1
102
RTVSPropertyOp50
 70
     1
102
RTVSPropertyOp51
 70
     0
102
RTVSPropertyOp52
 70
     0
102
RTVSPropertyOp53
 70
     1
102
RTVSPropertyOp54
 70
     1
102
RTVSPropertyOp55
 70
     1
102
RTVSPropertyOp56
 70
     1
102
RTVSPropertyOp57
 70
     1
102
RTVSPost2010Prop28
280
     0
102
RTVSPost2010PropOp28
 70
     1
102
RTVSPost2010Prop29
280
     1
102
RTVSPost2010PropOp29
 70
     1
102
RTVSPost2010Prop30
280
     1
102
RTVSPost2010PropOp30
 70
     1
102
RTVSPost2010Prop31
280
     0
102
RTVSPost2010PropOp31
 70
     1
102
RTVSPost2010Prop32
280
     0
102
RTVSPost2010PropOp32
 70
     1
102
RTVSPost2010Prop33
280
     0
102
RTVSPost2010PropOp33
 70
     1
102
RTVSPost2010Prop34
280
     0
102
RTVSPost2010PropOp34
 70
     1
102
RTVSPost2010Prop35
280
     0
102
RTVSPost2010PropOp35
 70
     1
102
RTVSPost2010Prop36
280
     0
102
RTVSPost2010PropOp36
 70
     1
102
RTVSPost2010Prop37
 90
       50
102
RTVSPost2010PropOp37
 70
     1
102
RTVSPost2010Prop38
140
0.0
102
RTVSPost2010PropOp38
 70
     1
102
RTVSPost2010Prop39
140
1.0
102
RTVSPost2010PropOp39
 70
     1
102
RTVSPost2010Prop40
 90
        0
102
RTVSPost2010PropOp40
 70
     1
102
RTVSPost2010Prop41ColorIndex
 90
       18
102
RTVSPost2010Prop41ColorRGB
 90
        0
102
RTVSPost2010PropOp41
 70
     1
102
RTVSPost2010Prop42
 90
       50
102
RTVSPost2010PropOp42
 70
     1
102
RTVSPost2010Prop43
 90
        3
102
RTVSPost2010PropOp43
 70
     1
102
RTVSPost2010Prop44ColorIndex
 90
        5
102
RTVSPost2010Prop44ColorRGB
 90
      255
102
RTVSPost2010PropOp44
 70
     1
102
RTVSPost2010Prop45
280
     0
102
RTVSPost2010PropOp45
 70
     1
102
RTVSPost2010Prop46
 90
       50
102
RTVSPost2010PropOp46
 70
     1
102
RTVSPost2010Prop47
 90
       50
102
RTVSPost2010PropOp47
 70
     1
102
RTVSPost2010Prop48
 90
       50
102
RTVSPost2010PropOp48
 70
     1
102
RTVSPost2010Prop49
280
     0
102
RTVSPost2010PropOp49
 70
     1
102
RTVSPost2010Prop50
 90
       50
102
RTVSPost2010PropOp50
 70
     1
102
RTVSPost2010Prop51ColorIndex
 90
      256
102
RTVSPost2010Prop51ColorRGB
 90
-16777216
102
RTVSPost2010PropOp51
 70
     0
102
RTVSPost2010Prop52
140
1.0
102
RTVSPost2010PropOp52
 70
     0
102
RTVSPost2010Prop53
 90
        2
102
RTVSPost2010PropOp53
 70
     1
102
RTVSPost2010Prop54
  1
strokes_ogs.tif
102
RTVSPost2010PropOp54
 70
     1
102
RTVSPost2010Prop55
280
     0
102
RTVSPost2010PropOp55
 70
     1
102
RTVSPost2010Prop56
140
1.0
102
RTVSPost2010PropOp56
 70
     1
102
RTVSPost2010Prop57
140
1.0
102
RTVSPost2010PropOp57
 70
     1
  0
XRECORD
  5
2BA
102
{ACAD_REACTORS
330
2B9
102
}
330
2B9
100
AcDbXrecord
280
     1
102
RTVSPropertyOp0
 70
     0
102
RTVSPropertyOp1
 70
     0
102
RTVSPropertyOp2
 70
     0
102
RTVSPropertyOp3
 70
     0
102
RTVSPropertyOp4
 70
     0
102
RTVSPropertyOp5
 70
     0
102
RTVSPropertyOp6
 70
     0
102
RTVSPropertyOp7
 70
     0
102
RTVSPropertyOp8
 70
     0
102
RTVSPropertyOp9
 70
     0
102
RTVSPropertyOp10
 70
     0
102
RTVSPropertyOp11
 70
     0
102
RTVSPropertyOp12
 70
     0
102
RTVSPropertyOp13
 70
     0
102
RTVSPropertyOp14
 70
     2
102
RTVSPropertyOp15
 70
     0
102
RTVSPropertyOp16
 70
     0
102
RTVSPropertyOp17
 70
     0
102
RTVSPropertyOp18
 70
     0
102
RTVSPropertyOp19
 70
     0
102
RTVSPropertyOp20
 70
     0
102
RTVSPropertyOp21
 70
     0
102
RTVSPropertyOp22
 70
     0
102
RTVSPropertyOp23
 70
     0
102
RTVSPropertyOp24
 70
     0
102
RTVSPropertyOp25
 70
     0
102
RTVSPropertyOp26
 70
     0
102
RTVSPropertyOp27
 70
     0
102
RTVSPropertyOp28
 70
     0
102
RTVSPropertyOp29
 70
     0
102
RTVSPropertyOp30
 70
     0
102
RTVSPropertyOp31
 70
     0
102
RTVSPropertyOp32
 70
     0
102
RTVSPropertyOp33
 70
     0
102
RTVSPropertyOp34
 70
     0
102
RTVSPropertyOp35
 70
     0
102
RTVSPropertyOp36
 70
     0
102
RTVSPropertyOp37
 70
     0
102
RTVSPropertyOp38
 70
     0
102
RTVSPropertyOp39
 70
     0
102
RTVSPropertyOp40
 70
     0
102
RTVSPropertyOp41
 70
     0
102
RTVSPropertyOp42
 70
     0
102
RTVSPropertyOp43
 70
     0
102
RTVSPropertyOp44
 70
     0
102
RTVSPropertyOp45
 70
     0
102
RTVSPropertyOp46
 70
     0
102
RTVSPropertyOp47
 70
     0
102
RTVSPropertyOp48
 70
     0
102
RTVSPropertyOp49
 70
     0
102
RTVSPropertyOp50
 70
     0
102
RTVSPropertyOp51
 70
     0
102
RTVSPropertyOp52
 70
     0
102
RTVSPropertyOp53
 70
     0
102
RTVSPropertyOp54
 70
     0
102
RTVSPropertyOp55
 70
     0
102
RTVSPropertyOp56
 70
     0
102
RTVSPropertyOp57
 70
     0
102
RTVSPost2010Prop28
280
     0
102
RTVSPost2010PropOp28
 70
     0
102
RTVSPost2010Prop29
280
     1
102
RTVSPost2010PropOp29
 70
     0
102
RTVSPost2010Prop30
280
     1
102
RTVSPost2010PropOp30
 70
     0
102
RTVSPost2010Prop31
280
     0
102
RTVSPost2010PropOp31
 70
     0
102
RTVSPost2010Prop32
280
     0
102
RTVSPost2010PropOp32
 70
     0
102
RTVSPost2010Prop33
280
     0
102
RTVSPost2010PropOp33
 70
     0
102
RTVSPost2010Prop34
280
     0
102
RTVSPost2010PropOp34
 70
     0
102
RTVSPost2010Prop35
280
     0
102
RTVSPost2010PropOp35
 70
     0
102
RTVSPost2010Prop36
280
     0
102
RTVSPost2010PropOp36
 70
     0
102
RTVSPost2010Prop37
 90
       50
102
RTVSPost2010PropOp37
 70
     0
102
RTVSPost2010Prop38
140
0.0
102
RTVSPost2010PropOp38
 70
     0
102
RTVSPost2010Prop39
140
1.0
102
RTVSPost2010PropOp39
 70
     0
102
RTVSPost2010Prop40
 90
        0
102
RTVSPost2010PropOp40
 70
     0
102
RTVSPost2010Prop41ColorIndex
 90
       18
102
RTVSPost2010Prop41ColorRGB
 90
        0
102
RTVSPost2010PropOp41
 70
     0
102
RTVSPost2010Prop42
 90
       50
102
RTVSPost2010PropOp42
 70
     0
102
RTVSPost2010Prop43
 90
        3
102
RTVSPost2010PropOp43
 70
     0
102
RTVSPost2010Prop44ColorIndex
 90
        5
102
RTVSPost2010Prop44ColorRGB
 90
      255
102
RTVSPost2010PropOp44
 70
     0
102
RTVSPost2010Prop45
280
     0
102
RTVSPost2010PropOp45
 70
     0
102
RTVSPost2010Prop46
 90
       50
102
RTVSPost2010PropOp46
 70
     0
102
RTVSPost2010Prop47
 90
       50
102
RTVSPost2010PropOp47
 70
     0
102
RTVSPost2010Prop48
 90
       50
102
RTVSPost2010PropOp48
 70
     0
102
RTVSPost2010Prop49
280
     0
102
RTVSPost2010PropOp49
 70
     0
102
RTVSPost2010Prop50
 90
       50
102
RTVSPost2010PropOp50
 70
     0
102
RTVSPost2010Prop51ColorIndex
 90
      256
102
RTVSPost2010Prop51ColorRGB
 90
-16777216
102
RTVSPost2010PropOp51
 70
     0
102
RTVSPost2010Prop52
140
1.0
102
RTVSPost2010PropOp52
 70
     0
102
RTVSPost2010Prop53
 90
        2
102
RTVSPost2010PropOp53
 70
     0
102
RTVSPost2010Prop54
  1
strokes_ogs.tif
102
RTVSPost2010PropOp54
 70
     0
102
RTVSPost2010Prop55
280
     0
102
RTVSPost2010PropOp55
 70
     0
102
RTVSPost2010Prop56
140
1.0
102
RTVSPost2010PropOp56
 70
     0
102
RTVSPost2010Prop57
140
1.0
102
RTVSPost2010PropOp57
 70
     0
  0
XRECORD
  5
2B4
102
{ACAD_REACTORS
330
2B3
102
}
330
2B3
100
AcDbXrecord
280
     1
102
RTVSPropertyOp0
 70
     1
102
RTVSPropertyOp1
 70
     1
102
RTVSPropertyOp2
 70
     1
102
RTVSPropertyOp3
 70
     1
102
RTVSPropertyOp4
 70
     1
102
RTVSPropertyOp5
 70
     1
102
RTVSPropertyOp6
 70
     1
102
RTVSPropertyOp7
 70
     1
102
RTVSPropertyOp8
 70
     1
102
RTVSPropertyOp9
 70
     1
102
RTVSPropertyOp10
 70
     1
102
RTVSPropertyOp11
 70
     1
102
RTVSPropertyOp12
 70
     1
102
RTVSPropertyOp13
 70
     1
102
RTVSPropertyOp14
 70
     1
102
RTVSPropertyOp15
 70
     1
102
RTVSPropertyOp16
 70
     1
102
RTVSPropertyOp17
 70
     1
102
RTVSPropertyOp18
 70
     1
102
RTVSPropertyOp19
 70
     1
102
RTVSPropertyOp20
 70
     1
102
RTVSPropertyOp21
 70
     1
102
RTVSPropertyOp22
 70
     1
102
RTVSPropertyOp23
 70
     1
102
RTVSPropertyOp24
 70
     1
102
RTVSPropertyOp25
 70
     1
102
RTVSPropertyOp26
 70
     1
102
RTVSPropertyOp27
 70
     1
102
RTVSPropertyOp28
 70
     1
102
RTVSPropertyOp29
 70
     1
102
RTVSPropertyOp30
 70
     1
102
RTVSPropertyOp31
 70
     1
102
RTVSPropertyOp32
 70
     1
102
RTVSPropertyOp33
 70
     1
102
RTVSPropertyOp34
 70
     1
102
RTVSPropertyOp35
 70
     1
102
RTVSPropertyOp36
 70
     1
102
RTVSPropertyOp37
 70
     1
102
RTVSPropertyOp38
 70
     1
102
RTVSPropertyOp39
 70
     1
102
RTVSPropertyOp40
 70
     1
102
RTVSPropertyOp41
 70
     1
102
RTVSPropertyOp42
 70
     1
102
RTVSPropertyOp43
 70
     1
102
RTVSPropertyOp44
 70
     1
102
RTVSPropertyOp45
 70
     1
102
RTVSPropertyOp46
 70
     1
102
RTVSPropertyOp47
 70
     1
102
RTVSPropertyOp48
 70
     1
102
RTVSPropertyOp49
 70
     1
102
RTVSPropertyOp50
 70
     1
102
RTVSPropertyOp51
 70
     0
102
RTVSPropertyOp52
 70
     0
102
RTVSPropertyOp53
 70
     1
102
RTVSPropertyOp54
 70
     1
102
RTVSPropertyOp55
 70
     1
102
RTVSPropertyOp56
 70
     1
102
RTVSPropertyOp57
 70
     1
102
RTVSPost2010Prop28
280
     0
102
RTVSPost2010PropOp28
 70
     1
102
RTVSPost2010Prop29
280
     1
102
RTVSPost2010PropOp29
 70
     1
102
RTVSPost2010Prop30
280
     1
102
RTVSPost2010PropOp30
 70
     1
102
RTVSPost2010Prop31
280
     0
102
RTVSPost2010PropOp31
 70
     1
102
RTVSPost2010Prop32
280
     0
102
RTVSPost2010PropOp32
 70
     1
102
RTVSPost2010Prop33
280
     0
102
RTVSPost2010PropOp33
 70
     1
102
RTVSPost2010Prop34
280
     0
102
RTVSPost2010PropOp34
 70
     1
102
RTVSPost2010Prop35
280
     0
102
RTVSPost2010PropOp35
 70
     1
102
RTVSPost2010Prop36
280
     0
102
RTVSPost2010PropOp36
 70
     1
102
RTVSPost2010Prop37
 90
       50
102
RTVSPost2010PropOp37
 70
     1
102
RTVSPost2010Prop38
140
0.0
102
RTVSPost2010PropOp38
 70
     1
102
RTVSPost2010Prop39
140
1.0
102
RTVSPost2010PropOp39
 70
     1
102
RTVSPost2010Prop40
 90
        0
102
RTVSPost2010PropOp40
 70
     1
102
RTVSPost2010Prop41ColorIndex
 90
       18
102
RTVSPost2010Prop41ColorRGB
 90
        0
102
RTVSPost2010PropOp41
 70
     1
102
RTVSPost2010Prop42
 90
       50
102
RTVSPost2010PropOp42
 70
     1
102
RTVSPost2010Prop43
 90
        3
102
RTVSPost2010PropOp43
 70
     1
102
RTVSPost2010Prop44ColorIndex
 90
        5
102
RTVSPost2010Prop44ColorRGB
 90
      255
102
RTVSPost2010PropOp44
 70
     1
102
RTVSPost2010Prop45
280
     0
102
RTVSPost2010PropOp45
 70
     1
102
RTVSPost2010Prop46
 90
       50
102
RTVSPost2010PropOp46
 70
     1
102
RTVSPost2010Prop47
 90
       50
102
RTVSPost2010PropOp47
 70
     1
102
RTVSPost2010Prop48
 90
       50
102
RTVSPost2010PropOp48
 70
     1
102
RTVSPost2010Prop49
280
     0
102
RTVSPost2010PropOp49
 70
     1
102
RTVSPost2010Prop50
 90
       50
102
RTVSPost2010PropOp50
 70
     1
102
RTVSPost2010Prop51ColorIndex
 90
      256
102
RTVSPost2010Prop51ColorRGB
 90
-16777216
102
RTVSPost2010PropOp51
 70
     0
102
RTVSPost2010Prop52
140
1.0
102
RTVSPost2010PropOp52
 70
     0
102
RTVSPost2010Prop53
 90
        2
102
RTVSPost2010PropOp53
 70
     1
102
RTVSPost2010Prop54
  1
strokes_ogs.tif
102
RTVSPost2010PropOp54
 70
     1
102
RTVSPost2010Prop55
280
     0
102
RTVSPost2010PropOp55
 70
     1
102
RTVSPost2010Prop56
140
1.0
102
RTVSPost2010PropOp56
 70
     1
102
RTVSPost2010Prop57
140
1.0
102
RTVSPost2010PropOp57
 70
     1
  0
XRECORD
  5
2BC
102
{ACAD_REACTORS
330
2BB
102
}
330
2BB
100
AcDbXrecord
280
     1
102
RTVSPropertyOp0
 70
     0
102
RTVSPropertyOp1
 70
     0
102
RTVSPropertyOp2
 70
     0
102
RTVSPropertyOp3
 70
     0
102
RTVSPropertyOp4
 70
     0
102
RTVSPropertyOp5
 70
     0
102
RTVSPropertyOp6
 70
     0
102
RTVSPropertyOp7
 70
     0
102
RTVSPropertyOp8
 70
     0
102
RTVSPropertyOp9
 70
     0
102
RTVSPropertyOp10
 70
     0
102
RTVSPropertyOp11
 70
     0
102
RTVSPropertyOp12
 70
     0
102
RTVSPropertyOp13
 70
     0
102
RTVSPropertyOp14
 70
     2
102
RTVSPropertyOp15
 70
     0
102
RTVSPropertyOp16
 70
     0
102
RTVSPropertyOp17
 70
     0
102
RTVSPropertyOp18
 70
     0
102
RTVSPropertyOp19
 70
     0
102
RTVSPropertyOp20
 70
     0
102
RTVSPropertyOp21
 70
     0
102
RTVSPropertyOp22
 70
     0
102
RTVSPropertyOp23
 70
     0
102
RTVSPropertyOp24
 70
     0
102
RTVSPropertyOp25
 70
     0
102
RTVSPropertyOp26
 70
     0
102
RTVSPropertyOp27
 70
     0
102
RTVSPropertyOp28
 70
     0
102
RTVSPropertyOp29
 70
     0
102
RTVSPropertyOp30
 70
     0
102
RTVSPropertyOp31
 70
     0
102
RTVSPropertyOp32
 70
     0
102
RTVSPropertyOp33
 70
     0
102
RTVSPropertyOp34
 70
     0
102
RTVSPropertyOp35
 70
     0
102
RTVSPropertyOp36
 70
     0
102
RTVSPropertyOp37
 70
     0
102
RTVSPropertyOp38
 70
     0
102
RTVSPropertyOp39
 70
     0
102
RTVSPropertyOp40
 70
     0
102
RTVSPropertyOp41
 70
     0
102
RTVSPropertyOp42
 70
     0
102
RTVSPropertyOp43
 70
     0
102
RTVSPropertyOp44
 70
     0
102
RTVSPropertyOp45
 70
     0
102
RTVSPropertyOp46
 70
     0
102
RTVSPropertyOp47
 70
     0
102
RTVSPropertyOp48
 70
     0
102
RTVSPropertyOp49
 70
     0
102
RTVSPropertyOp50
 70
     0
102
RTVSPropertyOp51
 70
     0
102
RTVSPropertyOp52
 70
     0
102
RTVSPropertyOp53
 70
     0
102
RTVSPropertyOp54
 70
     0
102
RTVSPropertyOp55
 70
     0
102
RTVSPropertyOp56
 70
     0
102
RTVSPropertyOp57
 70
     0
102
RTVSPost2010Prop28
280
     0
102
RTVSPost2010PropOp28
 70
     0
102
RTVSPost2010Prop29
280
     1
102
RTVSPost2010PropOp29
 70
     0
102
RTVSPost2010Prop30
280
     1
102
RTVSPost2010PropOp30
 70
     0
102
RTVSPost2010Prop31
280
     0
102
RTVSPost2010PropOp31
 70
     0
102
RTVSPost2010Prop32
280
     0
102
RTVSPost2010PropOp32
 70
     0
102
RTVSPost2010Prop33
280
     0
102
RTVSPost2010PropOp33
 70
     0
102
RTVSPost2010Prop34
280
     0
102
RTVSPost2010PropOp34
 70
     0
102
RTVSPost2010Prop35
280
     0
102
RTVSPost2010PropOp35
 70
     0
102
RTVSPost2010Prop36
280
     0
102
RTVSPost2010PropOp36
 70
     0
102
RTVSPost2010Prop37
 90
       50
102
RTVSPost2010PropOp37
 70
     0
102
RTVSPost2010Prop38
140
0.0
102
RTVSPost2010PropOp38
 70
     0
102
RTVSPost2010Prop39
140
1.0
102
RTVSPost2010PropOp39
 70
     0
102
RTVSPost2010Prop40
 90
        0
102
RTVSPost2010PropOp40
 70
     0
102
RTVSPost2010Prop41ColorIndex
 90
       18
102
RTVSPost2010Prop41ColorRGB
 90
        0
102
RTVSPost2010PropOp41
 70
     0
102
RTVSPost2010Prop42
 90
       50
102
RTVSPost2010PropOp42
 70
     0
102
RTVSPost2010Prop43
 90
        3
102
RTVSPost2010PropOp43
 70
     0
102
RTVSPost2010Prop44ColorIndex
 90
        5
102
RTVSPost2010Prop44ColorRGB
 90
      255
102
RTVSPost2010PropOp44
 70
     0
102
RTVSPost2010Prop45
280
     0
102
RTVSPost2010PropOp45
 70
     0
102
RTVSPost2010Prop46
 90
       50
102
RTVSPost2010PropOp46
 70
     0
102
RTVSPost2010Prop47
 90
       50
102
RTVSPost2010PropOp47
 70
     0
102
RTVSPost2010Prop48
 90
       50
102
RTVSPost2010PropOp48
 70
     0
102
RTVSPost2010Prop49
280
     0
102
RTVSPost2010PropOp49
 70
     0
102
RTVSPost2010Prop50
 90
       50
102
RTVSPost2010PropOp50
 70
     0
102
RTVSPost2010Prop51ColorIndex
 90
      256
102
RTVSPost2010Prop51ColorRGB
 90
-16777216
102
RTVSPost2010PropOp51
 70
     0
102
RTVSPost2010Prop52
140
1.0
102
RTVSPost2010PropOp52
 70
     0
102
RTVSPost2010Prop53
 90
        2
102
RTVSPost2010PropOp53
 70
     0
102
RTVSPost2010Prop54
  1
strokes_ogs.tif
102
RTVSPost2010PropOp54
 70
     0
102
RTVSPost2010Prop55
280
     0
102
RTVSPost2010PropOp55
 70
     0
102
RTVSPost2010Prop56
140
1.0
102
RTVSPost2010PropOp56
 70
     0
102
RTVSPost2010Prop57
140
1.0
102
RTVSPost2010PropOp57
 70
     0
  0
XRECORD
  5
2AA
102
{ACAD_REACTORS
330
2A9
102
}
330
2A9
100
AcDbXrecord
280
     1
102
RTVSPropertyOp0
 70
     1
102
RTVSPropertyOp1
 70
     1
102
RTVSPropertyOp2
 70
     1
102
RTVSPropertyOp3
 70
     1
102
RTVSPropertyOp4
 70
     1
102
RTVSPropertyOp5
 70
     1
102
RTVSPropertyOp6
 70
     1
102
RTVSPropertyOp7
 70
     1
102
RTVSPropertyOp8
 70
     1
102
RTVSPropertyOp9
 70
     1
102
RTVSPropertyOp10
 70
     1
102
RTVSPropertyOp11
 70
     1
102
RTVSPropertyOp12
 70
     1
102
RTVSPropertyOp13
 70
     1
102
RTVSPropertyOp14
 70
     1
102
RTVSPropertyOp15
 70
     1
102
RTVSPropertyOp16
 70
     1
102
RTVSPropertyOp17
 70
     1
102
RTVSPropertyOp18
 70
     1
102
RTVSPropertyOp19
 70
     1
102
RTVSPropertyOp20
 70
     1
102
RTVSPropertyOp21
 70
     1
102
RTVSPropertyOp22
 70
     1
102
RTVSPropertyOp23
 70
     1
102
RTVSPropertyOp24
 70
     1
102
RTVSPropertyOp25
 70
     1
102
RTVSPropertyOp26
 70
     1
102
RTVSPropertyOp27
 70
     1
102
RTVSPropertyOp28
 70
     1
102
RTVSPropertyOp29
 70
     1
102
RTVSPropertyOp30
 70
     1
102
RTVSPropertyOp31
 70
     1
102
RTVSPropertyOp32
 70
     1
102
RTVSPropertyOp33
 70
     1
102
RTVSPropertyOp34
 70
     1
102
RTVSPropertyOp35
 70
     1
102
RTVSPropertyOp36
 70
     1
102
RTVSPropertyOp37
 70
     1
102
RTVSPropertyOp38
 70
     1
102
RTVSPropertyOp39
 70
     1
102
RTVSPropertyOp40
 70
     1
102
RTVSPropertyOp41
 70
     1
102
RTVSPropertyOp42
 70
     1
102
RTVSPropertyOp43
 70
     1
102
RTVSPropertyOp44
 70
     1
102
RTVSPropertyOp45
 70
     1
102
RTVSPropertyOp46
 70
     1
102
RTVSPropertyOp47
 70
     1
102
RTVSPropertyOp48
 70
     1
102
RTVSPropertyOp49
 70
     1
102
RTVSPropertyOp50
 70
     1
102
RTVSPropertyOp51
 70
     0
102
RTVSPropertyOp52
 70
     0
102
RTVSPropertyOp53
 70
     1
102
RTVSPropertyOp54
 70
     1
102
RTVSPropertyOp55
 70
     1
102
RTVSPropertyOp56
 70
     1
102
RTVSPropertyOp57
 70
     1
102
RTVSPost2010Prop28
280
     0
102
RTVSPost2010PropOp28
 70
     1
102
RTVSPost2010Prop29
280
     1
102
RTVSPost2010PropOp29
 70
     1
102
RTVSPost2010Prop30
280
     1
102
RTVSPost2010PropOp30
 70
     1
102
RTVSPost2010Prop31
280
     0
102
RTVSPost2010PropOp31
 70
     1
102
RTVSPost2010Prop32
280
     0
102
RTVSPost2010PropOp32
 70
     1
102
RTVSPost2010Prop33
280
     0
102
RTVSPost2010PropOp33
 70
     1
102
RTVSPost2010Prop34
280
     0
102
RTVSPost2010PropOp34
 70
     1
102
RTVSPost2010Prop35
280
     0
102
RTVSPost2010PropOp35
 70
     1
102
RTVSPost2010Prop36
280
     0
102
RTVSPost2010PropOp36
 70
     1
102
RTVSPost2010Prop37
 90
       50
102
RTVSPost2010PropOp37
 70
     1
102
RTVSPost2010Prop38
140
0.0
102
RTVSPost2010PropOp38
 70
     1
102
RTVSPost2010Prop39
140
1.0
102
RTVSPost2010PropOp39
 70
     1
102
RTVSPost2010Prop40
 90
        0
102
RTVSPost2010PropOp40
 70
     1
102
RTVSPost2010Prop41ColorIndex
 90
       18
102
RTVSPost2010Prop41ColorRGB
 90
        0
102
RTVSPost2010PropOp41
 70
     1
102
RTVSPost2010Prop42
 90
       50
102
RTVSPost2010PropOp42
 70
     1
102
RTVSPost2010Prop43
 90
        3
102
RTVSPost2010PropOp43
 70
     1
102
RTVSPost2010Prop44ColorIndex
 90
        5
102
RTVSPost2010Prop44ColorRGB
 90
      255
102
RTVSPost2010PropOp44
 70
     1
102
RTVSPost2010Prop45
280
     0
102
RTVSPost2010PropOp45
 70
     1
102
RTVSPost2010Prop46
 90
       50
102
RTVSPost2010PropOp46
 70
     1
102
RTVSPost2010Prop47
 90
       50
102
RTVSPost2010PropOp47
 70
     1
102
RTVSPost2010Prop48
 90
       50
102
RTVSPost2010PropOp48
 70
     1
102
RTVSPost2010Prop49
280
     0
102
RTVSPost2010PropOp49
 70
     1
102
RTVSPost2010Prop50
 90
       50
102
RTVSPost2010PropOp50
 70
     1
102
RTVSPost2010Prop51ColorIndex
 90
      256
102
RTVSPost2010Prop51ColorRGB
 90
-16777216
102
RTVSPost2010PropOp51
 70
     0
102
RTVSPost2010Prop52
140
1.0
102
RTVSPost2010PropOp52
 70
     0
102
RTVSPost2010Prop53
 90
        2
102
RTVSPost2010PropOp53
 70
     1
102
RTVSPost2010Prop54
  1
strokes_ogs.tif
102
RTVSPost2010PropOp54
 70
     1
102
RTVSPost2010Prop55
280
     0
102
RTVSPost2010PropOp55
 70
     1
102
RTVSPost2010Prop56
140
1.0
102
RTVSPost2010PropOp56
 70
     1
102
RTVSPost2010Prop57
140
1.0
102
RTVSPost2010PropOp57
 70
     1
  0
XRECORD
  5
2C8
102
{ACAD_REACTORS
330
2C7
102
}
330
2C7
100
AcDbXrecord
280
     1
102
RTVSPropertyOp0
 70
     1
102
RTVSPropertyOp1
 70
     1
102
RTVSPropertyOp2
 70
     1
102
RTVSPropertyOp3
 70
     1
102
RTVSPropertyOp4
 70
     1
102
RTVSPropertyOp5
 70
     1
102
RTVSPropertyOp6
 70
     1
102
RTVSPropertyOp7
 70
     1
102
RTVSPropertyOp8
 70
     1
102
RTVSPropertyOp9
 70
     1
102
RTVSPropertyOp10
 70
     1
102
RTVSPropertyOp11
 70
     1
102
RTVSPropertyOp12
 70
     1
102
RTVSPropertyOp13
 70
     1
102
RTVSPropertyOp14
 70
     1
102
RTVSPropertyOp15
 70
     1
102
RTVSPropertyOp16
 70
     1
102
RTVSPropertyOp17
 70
     1
102
RTVSPropertyOp18
 70
     1
102
RTVSPropertyOp19
 70
     1
102
RTVSPropertyOp20
 70
     1
102
RTVSPropertyOp21
 70
     1
102
RTVSPropertyOp22
 70
     1
102
RTVSPropertyOp23
 70
     1
102
RTVSPropertyOp24
 70
     1
102
RTVSPropertyOp25
 70
     1
102
RTVSPropertyOp26
 70
     1
102
RTVSPropertyOp27
 70
     1
102
RTVSPropertyOp28
 70
     1
102
RTVSPropertyOp29
 70
     1
102
RTVSPropertyOp30
 70
     1
102
RTVSPropertyOp31
 70
     1
102
RTVSPropertyOp32
 70
     1
102
RTVSPropertyOp33
 70
     1
102
RTVSPropertyOp34
 70
     1
102
RTVSPropertyOp35
 70
     1
102
RTVSPropertyOp36
 70
     1
102
RTVSPropertyOp37
 70
     1
102
RTVSPropertyOp38
 70
     1
102
RTVSPropertyOp39
 70
     1
102
RTVSPropertyOp40
 70
     1
102
RTVSPropertyOp41
 70
     1
102
RTVSPropertyOp42
 70
     1
102
RTVSPropertyOp43
 70
     1
102
RTVSPropertyOp44
 70
     1
102
RTVSPropertyOp45
 70
     1
102
RTVSPropertyOp46
 70
     1
102
RTVSPropertyOp47
 70
     1
102
RTVSPropertyOp48
 70
     1
102
RTVSPropertyOp49
 70
     1
102
RTVSPropertyOp50
 70
     1
102
RTVSPropertyOp51
 70
     0
102
RTVSPropertyOp52
 70
     0
102
RTVSPropertyOp53
 70
     1
102
RTVSPropertyOp54
 70
     1
102
RTVSPropertyOp55
 70
     1
102
RTVSPropertyOp56
 70
     1
102
RTVSPropertyOp57
 70
     1
102
RTVSPost2010Prop28
280
     0
102
RTVSPost2010PropOp28
 70
     1
102
RTVSPost2010Prop29
280
     1
102
RTVSPost2010PropOp29
 70
     1
102
RTVSPost2010Prop30
280
     1
102
RTVSPost2010PropOp30
 70
     1
102
RTVSPost2010Prop31
280
     0
102
RTVSPost2010PropOp31
 70
     1
102
RTVSPost2010Prop32
280
     0
102
RTVSPost2010PropOp32
 70
     1
102
RTVSPost2010Prop33
280
     0
102
RTVSPost2010PropOp33
 70
     1
102
RTVSPost2010Prop34
280
     0
102
RTVSPost2010PropOp34
 70
     1
102
RTVSPost2010Prop35
280
     0
102
RTVSPost2010PropOp35
 70
     1
102
RTVSPost2010Prop36
280
     0
102
RTVSPost2010PropOp36
 70
     1
102
RTVSPost2010Prop37
 90
       50
102
RTVSPost2010PropOp37
 70
     1
102
RTVSPost2010Prop38
140
0.0
102
RTVSPost2010PropOp38
 70
     1
102
RTVSPost2010Prop39
140
1.0
102
RTVSPost2010PropOp39
 70
     1
102
RTVSPost2010Prop40
 90
        0
102
RTVSPost2010PropOp40
 70
     1
102
RTVSPost2010Prop41ColorIndex
 90
       18
102
RTVSPost2010Prop41ColorRGB
 90
        0
102
RTVSPost2010PropOp41
 70
     1
102
RTVSPost2010Prop42
 90
       50
102
RTVSPost2010PropOp42
 70
     1
102
RTVSPost2010Prop43
 90
        3
102
RTVSPost2010PropOp43
 70
     1
102
RTVSPost2010Prop44ColorIndex
 90
        5
102
RTVSPost2010Prop44ColorRGB
 90
      255
102
RTVSPost2010PropOp44
 70
     1
102
RTVSPost2010Prop45
280
     0
102
RTVSPost2010PropOp45
 70
     1
102
RTVSPost2010Prop46
 90
       50
102
RTVSPost2010PropOp46
 70
     1
102
RTVSPost2010Prop47
 90
       50
102
RTVSPost2010PropOp47
 70
     1
102
RTVSPost2010Prop48
 90
       50
102
RTVSPost2010PropOp48
 70
     1
102
RTVSPost2010Prop49
280
     0
102
RTVSPost2010PropOp49
 70
     1
102
RTVSPost2010Prop50
 90
       50
102
RTVSPost2010PropOp50
 70
     1
102
RTVSPost2010Prop51ColorIndex
 90
      256
102
RTVSPost2010Prop51ColorRGB
 90
-16777216
102
RTVSPost2010PropOp51
 70
     0
102
RTVSPost2010Prop52
140
1.0
102
RTVSPost2010PropOp52
 70
     0
102
RTVSPost2010Prop53
 90
        2
102
RTVSPost2010PropOp53
 70
     1
102
RTVSPost2010Prop54
  1
strokes_ogs.tif
102
RTVSPost2010PropOp54
 70
     1
102
RTVSPost2010Prop55
280
     0
102
RTVSPost2010PropOp55
 70
     1
102
RTVSPost2010Prop56
140
1.0
102
RTVSPost2010PropOp56
 70
     1
102
RTVSPost2010Prop57
140
1.0
102
RTVSPost2010PropOp57
 70
     1
  0
XRECORD
  5
2C6
102
{ACAD_REACTORS
330
2C5
102
}
330
2C5
100
AcDbXrecord
280
     1
102
RTVSPropertyOp0
 70
     1
102
RTVSPropertyOp1
 70
     1
102
RTVSPropertyOp2
 70
     1
102
RTVSPropertyOp3
 70
     1
102
RTVSPropertyOp4
 70
     1
102
RTVSPropertyOp5
 70
     1
102
RTVSPropertyOp6
 70
     1
102
RTVSPropertyOp7
 70
     1
102
RTVSPropertyOp8
 70
     1
102
RTVSPropertyOp9
 70
     1
102
RTVSPropertyOp10
 70
     1
102
RTVSPropertyOp11
 70
     1
102
RTVSPropertyOp12
 70
     1
102
RTVSPropertyOp13
 70
     1
102
RTVSPropertyOp14
 70
     1
102
RTVSPropertyOp15
 70
     1
102
RTVSPropertyOp16
 70
     1
102
RTVSPropertyOp17
 70
     1
102
RTVSPropertyOp18
 70
     1
102
RTVSPropertyOp19
 70
     1
102
RTVSPropertyOp20
 70
     1
102
RTVSPropertyOp21
 70
     1
102
RTVSPropertyOp22
 70
     1
102
RTVSPropertyOp23
 70
     1
102
RTVSPropertyOp24
 70
     1
102
RTVSPropertyOp25
 70
     1
102
RTVSPropertyOp26
 70
     1
102
RTVSPropertyOp27
 70
     1
102
RTVSPropertyOp28
 70
     1
102
RTVSPropertyOp29
 70
     1
102
RTVSPropertyOp30
 70
     1
102
RTVSPropertyOp31
 70
     1
102
RTVSPropertyOp32
 70
     1
102
RTVSPropertyOp33
 70
     1
102
RTVSPropertyOp34
 70
     1
102
RTVSPropertyOp35
 70
     1
102
RTVSPropertyOp36
 70
     1
102
RTVSPropertyOp37
 70
     1
102
RTVSPropertyOp38
 70
     1
102
RTVSPropertyOp39
 70
     1
102
RTVSPropertyOp40
 70
     1
102
RTVSPropertyOp41
 70
     1
102
RTVSPropertyOp42
 70
     1
102
RTVSPropertyOp43
 70
     1
102
RTVSPropertyOp44
 70
     1
102
RTVSPropertyOp45
 70
     1
102
RTVSPropertyOp46
 70
     1
102
RTVSPropertyOp47
 70
     1
102
RTVSPropertyOp48
 70
     1
102
RTVSPropertyOp49
 70
     1
102
RTVSPropertyOp50
 70
     1
102
RTVSPropertyOp51
 70
     0
102
RTVSPropertyOp52
 70
     0
102
RTVSPropertyOp53
 70
     1
102
RTVSPropertyOp54
 70
     1
102
RTVSPropertyOp55
 70
     1
102
RTVSPropertyOp56
 70
     1
102
RTVSPropertyOp57
 70
     1
102
RTVSPost2010Prop28
280
     0
102
RTVSPost2010PropOp28
 70
     1
102
RTVSPost2010Prop29
280
     1
102
RTVSPost2010PropOp29
 70
     1
102
RTVSPost2010Prop30
280
     1
102
RTVSPost2010PropOp30
 70
     1
102
RTVSPost2010Prop31
280
     0
102
RTVSPost2010PropOp31
 70
     1
102
RTVSPost2010Prop32
280
     0
102
RTVSPost2010PropOp32
 70
     1
102
RTVSPost2010Prop33
280
     0
102
RTVSPost2010PropOp33
 70
     1
102
RTVSPost2010Prop34
280
     0
102
RTVSPost2010PropOp34
 70
     1
102
RTVSPost2010Prop35
280
     0
102
RTVSPost2010PropOp35
 70
     1
102
RTVSPost2010Prop36
280
     0
102
RTVSPost2010PropOp36
 70
     1
102
RTVSPost2010Prop37
 90
       50
102
RTVSPost2010PropOp37
 70
     1
102
RTVSPost2010Prop38
140
0.0
102
RTVSPost2010PropOp38
 70
     1
102
RTVSPost2010Prop39
140
1.0
102
RTVSPost2010PropOp39
 70
     1
102
RTVSPost2010Prop40
 90
        0
102
RTVSPost2010PropOp40
 70
     1
102
RTVSPost2010Prop41ColorIndex
 90
       18
102
RTVSPost2010Prop41ColorRGB
 90
        0
102
RTVSPost2010PropOp41
 70
     1
102
RTVSPost2010Prop42
 90
       50
102
RTVSPost2010PropOp42
 70
     1
102
RTVSPost2010Prop43
 90
        3
102
RTVSPost2010PropOp43
 70
     1
102
RTVSPost2010Prop44ColorIndex
 90
        5
102
RTVSPost2010Prop44ColorRGB
 90
      255
102
RTVSPost2010PropOp44
 70
     1
102
RTVSPost2010Prop45
280
     0
102
RTVSPost2010PropOp45
 70
     1
102
RTVSPost2010Prop46
 90
       50
102
RTVSPost2010PropOp46
 70
     1
102
RTVSPost2010Prop47
 90
       50
102
RTVSPost2010PropOp47
 70
     1
102
RTVSPost2010Prop48
 90
       50
102
RTVSPost2010PropOp48
 70
     1
102
RTVSPost2010Prop49
280
     0
102
RTVSPost2010PropOp49
 70
     1
102
RTVSPost2010Prop50
 90
       50
102
RTVSPost2010PropOp50
 70
     1
102
RTVSPost2010Prop51ColorIndex
 90
      256
102
RTVSPost2010Prop51ColorRGB
 90
-16777216
102
RTVSPost2010PropOp51
 70
     0
102
RTVSPost2010Prop52
140
1.0
102
RTVSPost2010PropOp52
 70
     0
102
RTVSPost2010Prop53
 90
        2
102
RTVSPost2010PropOp53
 70
     1
102
RTVSPost2010Prop54
  1
strokes_ogs.tif
102
RTVSPost2010PropOp54
 70
     1
102
RTVSPost2010Prop55
280
     0
102
RTVSPost2010PropOp55
 70
     1
102
RTVSPost2010Prop56
140
1.0
102
RTVSPost2010PropOp56
 70
     1
102
RTVSPost2010Prop57
140
1.0
102
RTVSPost2010PropOp57
 70
     1
  0
XRECORD
  5
2C0
102
{ACAD_REACTORS
330
2BF
102
}
330
2BF
100
AcDbXrecord
280
     1
102
RTVSPropertyOp0
 70
     1
102
RTVSPropertyOp1
 70
     1
102
RTVSPropertyOp2
 70
     1
102
RTVSPropertyOp3
 70
     1
102
RTVSPropertyOp4
 70
     1
102
RTVSPropertyOp5
 70
     1
102
RTVSPropertyOp6
 70
     1
102
RTVSPropertyOp7
 70
     1
102
RTVSPropertyOp8
 70
     1
102
RTVSPropertyOp9
 70
     1
102
RTVSPropertyOp10
 70
     1
102
RTVSPropertyOp11
 70
     1
102
RTVSPropertyOp12
 70
     1
102
RTVSPropertyOp13
 70
     1
102
RTVSPropertyOp14
 70
     1
102
RTVSPropertyOp15
 70
     1
102
RTVSPropertyOp16
 70
     1
102
RTVSPropertyOp17
 70
     1
102
RTVSPropertyOp18
 70
     1
102
RTVSPropertyOp19
 70
     1
102
RTVSPropertyOp20
 70
     1
102
RTVSPropertyOp21
 70
     1
102
RTVSPropertyOp22
 70
     1
102
RTVSPropertyOp23
 70
     1
102
RTVSPropertyOp24
 70
     1
102
RTVSPropertyOp25
 70
     1
102
RTVSPropertyOp26
 70
     1
102
RTVSPropertyOp27
 70
     1
102
RTVSPropertyOp28
 70
     1
102
RTVSPropertyOp29
 70
     1
102
RTVSPropertyOp30
 70
     1
102
RTVSPropertyOp31
 70
     1
102
RTVSPropertyOp32
 70
     1
102
RTVSPropertyOp33
 70
     1
102
RTVSPropertyOp34
 70
     1
102
RTVSPropertyOp35
 70
     1
102
RTVSPropertyOp36
 70
     1
102
RTVSPropertyOp37
 70
     1
102
RTVSPropertyOp38
 70
     1
102
RTVSPropertyOp39
 70
     1
102
RTVSPropertyOp40
 70
     1
102
RTVSPropertyOp41
 70
     1
102
RTVSPropertyOp42
 70
     1
102
RTVSPropertyOp43
 70
     1
102
RTVSPropertyOp44
 70
     1
102
RTVSPropertyOp45
 70
     1
102
RTVSPropertyOp46
 70
     1
102
RTVSPropertyOp47
 70
     1
102
RTVSPropertyOp48
 70
     1
102
RTVSPropertyOp49
 70
     1
102
RTVSPropertyOp50
 70
     1
102
RTVSPropertyOp51
 70
     0
102
RTVSPropertyOp52
 70
     0
102
RTVSPropertyOp53
 70
     1
102
RTVSPropertyOp54
 70
     1
102
RTVSPropertyOp55
 70
     1
102
RTVSPropertyOp56
 70
     1
102
RTVSPropertyOp57
 70
     1
102
RTVSPost2010Prop28
280
     0
102
RTVSPost2010PropOp28
 70
     1
102
RTVSPost2010Prop29
280
     1
102
RTVSPost2010PropOp29
 70
     1
102
RTVSPost2010Prop30
280
     1
102
RTVSPost2010PropOp30
 70
     1
102
RTVSPost2010Prop31
280
     0
102
RTVSPost2010PropOp31
 70
     1
102
RTVSPost2010Prop32
280
     0
102
RTVSPost2010PropOp32
 70
     1
102
RTVSPost2010Prop33
280
     0
102
RTVSPost2010PropOp33
 70
     1
102
RTVSPost2010Prop34
280
     0
102
RTVSPost2010PropOp34
 70
     1
102
RTVSPost2010Prop35
280
     0
102
RTVSPost2010PropOp35
 70
     1
102
RTVSPost2010Prop36
280
     0
102
RTVSPost2010PropOp36
 70
     1
102
RTVSPost2010Prop37
 90
       50
102
RTVSPost2010PropOp37
 70
     1
102
RTVSPost2010Prop38
140
0.0
102
RTVSPost2010PropOp38
 70
     1
102
RTVSPost2010Prop39
140
1.0
102
RTVSPost2010PropOp39
 70
     1
102
RTVSPost2010Prop40
 90
        0
102
RTVSPost2010PropOp40
 70
     1
102
RTVSPost2010Prop41ColorIndex
 90
       18
102
RTVSPost2010Prop41ColorRGB
 90
        0
102
RTVSPost2010PropOp41
 70
     1
102
RTVSPost2010Prop42
 90
       50
102
RTVSPost2010PropOp42
 70
     1
102
RTVSPost2010Prop43
 90
        3
102
RTVSPost2010PropOp43
 70
     1
102
RTVSPost2010Prop44ColorIndex
 90
        5
102
RTVSPost2010Prop44ColorRGB
 90
      255
102
RTVSPost2010PropOp44
 70
     1
102
RTVSPost2010Prop45
280
     0
102
RTVSPost2010PropOp45
 70
     1
102
RTVSPost2010Prop46
 90
       50
102
RTVSPost2010PropOp46
 70
     1
102
RTVSPost2010Prop47
 90
       50
102
RTVSPost2010PropOp47
 70
     1
102
RTVSPost2010Prop48
 90
       50
102
RTVSPost2010PropOp48
 70
     1
102
RTVSPost2010Prop49
280
     0
102
RTVSPost2010PropOp49
 70
     1
102
RTVSPost2010Prop50
 90
       50
102
RTVSPost2010PropOp50
 70
     1
102
RTVSPost2010Prop51ColorIndex
 90
      256
102
RTVSPost2010Prop51ColorRGB
 90
-16777216
102
RTVSPost2010PropOp51
 70
     0
102
RTVSPost2010Prop52
140
1.0
102
RTVSPost2010PropOp52
 70
     0
102
RTVSPost2010Prop53
 90
        2
102
RTVSPost2010PropOp53
 70
     1
102
RTVSPost2010Prop54
  1
strokes_ogs.tif
102
RTVSPost2010PropOp54
 70
     1
102
RTVSPost2010Prop55
280
     0
102
RTVSPost2010PropOp55
 70
     1
102
RTVSPost2010Prop56
140
1.0
102
RTVSPost2010PropOp56
 70
     1
102
RTVSPost2010Prop57
140
1.0
102
RTVSPost2010PropOp57
 70
     1
  0
XRECORD
  5
2C2
102
{ACAD_REACTORS
330
2C1
102
}
330
2C1
100
AcDbXrecord
280
     1
102
RTVSPropertyOp0
 70
     1
102
RTVSPropertyOp1
 70
     1
102
RTVSPropertyOp2
 70
     1
102
RTVSPropertyOp3
 70
     1
102
RTVSPropertyOp4
 70
     1
102
RTVSPropertyOp5
 70
     1
102
RTVSPropertyOp6
 70
     1
102
RTVSPropertyOp7
 70
     1
102
RTVSPropertyOp8
 70
     1
102
RTVSPropertyOp9
 70
     1
102
RTVSPropertyOp10
 70
     1
102
RTVSPropertyOp11
 70
     1
102
RTVSPropertyOp12
 70
     1
102
RTVSPropertyOp13
 70
     1
102
RTVSPropertyOp14
 70
     1
102
RTVSPropertyOp15
 70
     1
102
RTVSPropertyOp16
 70
     1
102
RTVSPropertyOp17
 70
     1
102
RTVSPropertyOp18
 70
     1
102
RTVSPropertyOp19
 70
     1
102
RTVSPropertyOp20
 70
     1
102
RTVSPropertyOp21
 70
     1
102
RTVSPropertyOp22
 70
     1
102
RTVSPropertyOp23
 70
     1
102
RTVSPropertyOp24
 70
     1
102
RTVSPropertyOp25
 70
     1
102
RTVSPropertyOp26
 70
     1
102
RTVSPropertyOp27
 70
     1
102
RTVSPropertyOp28
 70
     1
102
RTVSPropertyOp29
 70
     1
102
RTVSPropertyOp30
 70
     1
102
RTVSPropertyOp31
 70
     1
102
RTVSPropertyOp32
 70
     1
102
RTVSPropertyOp33
 70
     1
102
RTVSPropertyOp34
 70
     1
102
RTVSPropertyOp35
 70
     1
102
RTVSPropertyOp36
 70
     1
102
RTVSPropertyOp37
 70
     1
102
RTVSPropertyOp38
 70
     1
102
RTVSPropertyOp39
 70
     1
102
RTVSPropertyOp40
 70
     1
102
RTVSPropertyOp41
 70
     1
102
RTVSPropertyOp42
 70
     1
102
RTVSPropertyOp43
 70
     1
102
RTVSPropertyOp44
 70
     1
102
RTVSPropertyOp45
 70
     1
102
RTVSPropertyOp46
 70
     1
102
RTVSPropertyOp47
 70
     1
102
RTVSPropertyOp48
 70
     1
102
RTVSPropertyOp49
 70
     1
102
RTVSPropertyOp50
 70
     1
102
RTVSPropertyOp51
 70
     0
102
RTVSPropertyOp52
 70
     0
102
RTVSPropertyOp53
 70
     1
102
RTVSPropertyOp54
 70
     1
102
RTVSPropertyOp55
 70
     1
102
RTVSPropertyOp56
 70
     1
102
RTVSPropertyOp57
 70
     1
102
RTVSPost2010Prop28
280
     0
102
RTVSPost2010PropOp28
 70
     1
102
RTVSPost2010Prop29
280
     1
102
RTVSPost2010PropOp29
 70
     1
102
RTVSPost2010Prop30
280
     1
102
RTVSPost2010PropOp30
 70
     1
102
RTVSPost2010Prop31
280
     0
102
RTVSPost2010PropOp31
 70
     1
102
RTVSPost2010Prop32
280
     0
102
RTVSPost2010PropOp32
 70
     1
102
RTVSPost2010Prop33
280
     0
102
RTVSPost2010PropOp33
 70
     1
102
RTVSPost2010Prop34
280
     0
102
RTVSPost2010PropOp34
 70
     1
102
RTVSPost2010Prop35
280
     0
102
RTVSPost2010PropOp35
 70
     1
102
RTVSPost2010Prop36
280
     0
102
RTVSPost2010PropOp36
 70
     1
102
RTVSPost2010Prop37
 90
       50
102
RTVSPost2010PropOp37
 70
     1
102
RTVSPost2010Prop38
140
0.0
102
RTVSPost2010PropOp38
 70
     1
102
RTVSPost2010Prop39
140
1.0
102
RTVSPost2010PropOp39
 70
     1
102
RTVSPost2010Prop40
 90
        0
102
RTVSPost2010PropOp40
 70
     1
102
RTVSPost2010Prop41ColorIndex
 90
       18
102
RTVSPost2010Prop41ColorRGB
 90
        0
102
RTVSPost2010PropOp41
 70
     1
102
RTVSPost2010Prop42
 90
       50
102
RTVSPost2010PropOp42
 70
     1
102
RTVSPost2010Prop43
 90
        3
102
RTVSPost2010PropOp43
 70
     1
102
RTVSPost2010Prop44ColorIndex
 90
        5
102
RTVSPost2010Prop44ColorRGB
 90
      255
102
RTVSPost2010PropOp44
 70
     1
102
RTVSPost2010Prop45
280
     0
102
RTVSPost2010PropOp45
 70
     1
102
RTVSPost2010Prop46
 90
       50
102
RTVSPost2010PropOp46
 70
     1
102
RTVSPost2010Prop47
 90
       50
102
RTVSPost2010PropOp47
 70
     1
102
RTVSPost2010Prop48
 90
       50
102
RTVSPost2010PropOp48
 70
     1
102
RTVSPost2010Prop49
280
     0
102
RTVSPost2010PropOp49
 70
     1
102
RTVSPost2010Prop50
 90
       50
102
RTVSPost2010PropOp50
 70
     1
102
RTVSPost2010Prop51ColorIndex
 90
      256
102
RTVSPost2010Prop51ColorRGB
 90
-16777216
102
RTVSPost2010PropOp51
 70
     0
102
RTVSPost2010Prop52
140
1.0
102
RTVSPost2010PropOp52
 70
     0
102
RTVSPost2010Prop53
 90
        2
102
RTVSPost2010PropOp53
 70
     1
102
RTVSPost2010Prop54
  1
strokes_ogs.tif
102
RTVSPost2010PropOp54
 70
     1
102
RTVSPost2010Prop55
280
     0
102
RTVSPost2010PropOp55
 70
     1
102
RTVSPost2010Prop56
140
1.0
102
RTVSPost2010PropOp56
 70
     1
102
RTVSPost2010Prop57
140
1.0
102
RTVSPost2010PropOp57
 70
     1
  0
XRECORD
  5
2B2
102
{ACAD_REACTORS
330
2B1
102
}
330
2B1
100
AcDbXrecord
280
     1
102
RTVSPropertyOp0
 70
     1
102
RTVSPropertyOp1
 70
     1
102
RTVSPropertyOp2
 70
     1
102
RTVSPropertyOp3
 70
     1
102
RTVSPropertyOp4
 70
     1
102
RTVSPropertyOp5
 70
     1
102
RTVSPropertyOp6
 70
     1
102
RTVSPropertyOp7
 70
     1
102
RTVSPropertyOp8
 70
     1
102
RTVSPropertyOp9
 70
     1
102
RTVSPropertyOp10
 70
     1
102
RTVSPropertyOp11
 70
     1
102
RTVSPropertyOp12
 70
     1
102
RTVSPropertyOp13
 70
     1
102
RTVSPropertyOp14
 70
     1
102
RTVSPropertyOp15
 70
     1
102
RTVSPropertyOp16
 70
     1
102
RTVSPropertyOp17
 70
     1
102
RTVSPropertyOp18
 70
     1
102
RTVSPropertyOp19
 70
     1
102
RTVSPropertyOp20
 70
     1
102
RTVSPropertyOp21
 70
     1
102
RTVSPropertyOp22
 70
     1
102
RTVSPropertyOp23
 70
     1
102
RTVSPropertyOp24
 70
     1
102
RTVSPropertyOp25
 70
     1
102
RTVSPropertyOp26
 70
     1
102
RTVSPropertyOp27
 70
     1
102
RTVSPropertyOp28
 70
     1
102
RTVSPropertyOp29
 70
     1
102
RTVSPropertyOp30
 70
     1
102
RTVSPropertyOp31
 70
     1
102
RTVSPropertyOp32
 70
     1
102
RTVSPropertyOp33
 70
     1
102
RTVSPropertyOp34
 70
     1
102
RTVSPropertyOp35
 70
     1
102
RTVSPropertyOp36
 70
     1
102
RTVSPropertyOp37
 70
     1
102
RTVSPropertyOp38
 70
     1
102
RTVSPropertyOp39
 70
     1
102
RTVSPropertyOp40
 70
     1
102
RTVSPropertyOp41
 70
     1
102
RTVSPropertyOp42
 70
     1
102
RTVSPropertyOp43
 70
     1
102
RTVSPropertyOp44
 70
     1
102
RTVSPropertyOp45
 70
     1
102
RTVSPropertyOp46
 70
     1
102
RTVSPropertyOp47
 70
     1
102
RTVSPropertyOp48
 70
     1
102
RTVSPropertyOp49
 70
     1
102
RTVSPropertyOp50
 70
     1
102
RTVSPropertyOp51
 70
     0
102
RTVSPropertyOp52
 70
     0
102
RTVSPropertyOp53
 70
     1
102
RTVSPropertyOp54
 70
     1
102
RTVSPropertyOp55
 70
     1
102
RTVSPropertyOp56
 70
     1
102
RTVSPropertyOp57
 70
     1
102
RTVSPost2010Prop28
280
     0
102
RTVSPost2010PropOp28
 70
     1
102
RTVSPost2010Prop29
280
     1
102
RTVSPost2010PropOp29
 70
     1
102
RTVSPost2010Prop30
280
     1
102
RTVSPost2010PropOp30
 70
     1
102
RTVSPost2010Prop31
280
     0
102
RTVSPost2010PropOp31
 70
     1
102
RTVSPost2010Prop32
280
     0
102
RTVSPost2010PropOp32
 70
     1
102
RTVSPost2010Prop33
280
     0
102
RTVSPost2010PropOp33
 70
     1
102
RTVSPost2010Prop34
280
     0
102
RTVSPost2010PropOp34
 70
     1
102
RTVSPost2010Prop35
280
     0
102
RTVSPost2010PropOp35
 70
     1
102
RTVSPost2010Prop36
280
     0
102
RTVSPost2010PropOp36
 70
     1
102
RTVSPost2010Prop37
 90
       50
102
RTVSPost2010PropOp37
 70
     1
102
RTVSPost2010Prop38
140
0.0
102
RTVSPost2010PropOp38
 70
     1
102
RTVSPost2010Prop39
140
1.0
102
RTVSPost2010PropOp39
 70
     1
102
RTVSPost2010Prop40
 90
        0
102
RTVSPost2010PropOp40
 70
     1
102
RTVSPost2010Prop41ColorIndex
 90
       18
102
RTVSPost2010Prop41ColorRGB
 90
        0
102
RTVSPost2010PropOp41
 70
     1
102
RTVSPost2010Prop42
 90
       50
102
RTVSPost2010PropOp42
 70
     1
102
RTVSPost2010Prop43
 90
        3
102
RTVSPost2010PropOp43
 70
     1
102
RTVSPost2010Prop44ColorIndex
 90
        5
102
RTVSPost2010Prop44ColorRGB
 90
      255
102
RTVSPost2010PropOp44
 70
     1
102
RTVSPost2010Prop45
280
     0
102
RTVSPost2010PropOp45
 70
     1
102
RTVSPost2010Prop46
 90
       50
102
RTVSPost2010PropOp46
 70
     1
102
RTVSPost2010Prop47
 90
       50
102
RTVSPost2010PropOp47
 70
     1
102
RTVSPost2010Prop48
 90
       50
102
RTVSPost2010PropOp48
 70
     1
102
RTVSPost2010Prop49
280
     0
102
RTVSPost2010PropOp49
 70
     1
102
RTVSPost2010Prop50
 90
       50
102
RTVSPost2010PropOp50
 70
     1
102
RTVSPost2010Prop51ColorIndex
 90
      256
102
RTVSPost2010Prop51ColorRGB
 90
-16777216
102
RTVSPost2010PropOp51
 70
     0
102
RTVSPost2010Prop52
140
1.0
102
RTVSPost2010PropOp52
 70
     0
102
RTVSPost2010Prop53
 90
        2
102
RTVSPost2010PropOp53
 70
     1
102
RTVSPost2010Prop54
  1
strokes_ogs.tif
102
RTVSPost2010PropOp54
 70
     1
102
RTVSPost2010Prop55
280
     0
102
RTVSPost2010PropOp55
 70
     1
102
RTVSPost2010Prop56
140
1.0
102
RTVSPost2010PropOp56
 70
     1
102
RTVSPost2010Prop57
140
1.0
102
RTVSPost2010PropOp57
 70
     1
  0
XRECORD
  5
2A4
102
{ACAD_REACTORS
330
2A3
102
}
330
2A3
100
AcDbXrecord
280
     1
102
RTVSPropertyOp0
 70
     1
102
RTVSPropertyOp1
 70
     1
102
RTVSPropertyOp2
 70
     1
102
RTVSPropertyOp3
 70
     1
102
RTVSPropertyOp4
 70
     1
102
RTVSPropertyOp5
 70
     1
102
RTVSPropertyOp6
 70
     1
102
RTVSPropertyOp7
 70
     1
102
RTVSPropertyOp8
 70
     1
102
RTVSPropertyOp9
 70
     1
102
RTVSPropertyOp10
 70
     1
102
RTVSPropertyOp11
 70
     1
102
RTVSPropertyOp12
 70
     1
102
RTVSPropertyOp13
 70
     1
102
RTVSPropertyOp14
 70
     1
102
RTVSPropertyOp15
 70
     1
102
RTVSPropertyOp16
 70
     1
102
RTVSPropertyOp17
 70
     1
102
RTVSPropertyOp18
 70
     1
102
RTVSPropertyOp19
 70
     1
102
RTVSPropertyOp20
 70
     1
102
RTVSPropertyOp21
 70
     1
102
RTVSPropertyOp22
 70
     1
102
RTVSPropertyOp23
 70
     1
102
RTVSPropertyOp24
 70
     1
102
RTVSPropertyOp25
 70
     1
102
RTVSPropertyOp26
 70
     1
102
RTVSPropertyOp27
 70
     1
102
RTVSPropertyOp28
 70
     1
102
RTVSPropertyOp29
 70
     1
102
RTVSPropertyOp30
 70
     1
102
RTVSPropertyOp31
 70
     1
102
RTVSPropertyOp32
 70
     1
102
RTVSPropertyOp33
 70
     1
102
RTVSPropertyOp34
 70
     1
102
RTVSPropertyOp35
 70
     1
102
RTVSPropertyOp36
 70
     1
102
RTVSPropertyOp37
 70
     1
102
RTVSPropertyOp38
 70
     1
102
RTVSPropertyOp39
 70
     1
102
RTVSPropertyOp40
 70
     1
102
RTVSPropertyOp41
 70
     1
102
RTVSPropertyOp42
 70
     1
102
RTVSPropertyOp43
 70
     1
102
RTVSPropertyOp44
 70
     1
102
RTVSPropertyOp45
 70
     1
102
RTVSPropertyOp46
 70
     1
102
RTVSPropertyOp47
 70
     1
102
RTVSPropertyOp48
 70
     1
102
RTVSPropertyOp49
 70
     1
102
RTVSPropertyOp50
 70
     1
102
RTVSPropertyOp51
 70
     0
102
RTVSPropertyOp52
 70
     0
102
RTVSPropertyOp53
 70
     1
102
RTVSPropertyOp54
 70
     1
102
RTVSPropertyOp55
 70
     1
102
RTVSPropertyOp56
 70
     1
102
RTVSPropertyOp57
 70
     1
102
RTVSPost2010Prop28
280
     0
102
RTVSPost2010PropOp28
 70
     1
102
RTVSPost2010Prop29
280
     1
102
RTVSPost2010PropOp29
 70
     1
102
RTVSPost2010Prop30
280
     1
102
RTVSPost2010PropOp30
 70
     1
102
RTVSPost2010Prop31
280
     0
102
RTVSPost2010PropOp31
 70
     1
102
RTVSPost2010Prop32
280
     0
102
RTVSPost2010PropOp32
 70
     1
102
RTVSPost2010Prop33
280
     0
102
RTVSPost2010PropOp33
 70
     1
102
RTVSPost2010Prop34
280
     0
102
RTVSPost2010PropOp34
 70
     1
102
RTVSPost2010Prop35
280
     0
102
RTVSPost2010PropOp35
 70
     1
102
RTVSPost2010Prop36
280
     0
102
RTVSPost2010PropOp36
 70
     1
102
RTVSPost2010Prop37
 90
       50
102
RTVSPost2010PropOp37
 70
     1
102
RTVSPost2010Prop38
140
0.0
102
RTVSPost2010PropOp38
 70
     1
102
RTVSPost2010Prop39
140
1.0
102
RTVSPost2010PropOp39
 70
     1
102
RTVSPost2010Prop40
 90
        0
102
RTVSPost2010PropOp40
 70
     1
102
RTVSPost2010Prop41ColorIndex
 90
       18
102
RTVSPost2010Prop41ColorRGB
 90
        0
102
RTVSPost2010PropOp41
 70
     1
102
RTVSPost2010Prop42
 90
       50
102
RTVSPost2010PropOp42
 70
     1
102
RTVSPost2010Prop43
 90
        3
102
RTVSPost2010PropOp43
 70
     1
102
RTVSPost2010Prop44ColorIndex
 90
        5
102
RTVSPost2010Prop44ColorRGB
 90
      255
102
RTVSPost2010PropOp44
 70
     1
102
RTVSPost2010Prop45
280
     0
102
RTVSPost2010PropOp45
 70
     1
102
RTVSPost2010Prop46
 90
       50
102
RTVSPost2010PropOp46
 70
     1
102
RTVSPost2010Prop47
 90
       50
102
RTVSPost2010PropOp47
 70
     1
102
RTVSPost2010Prop48
 90
       50
102
RTVSPost2010PropOp48
 70
     1
102
RTVSPost2010Prop49
280
     0
102
RTVSPost2010PropOp49
 70
     1
102
RTVSPost2010Prop50
 90
       50
102
RTVSPost2010PropOp50
 70
     1
102
RTVSPost2010Prop51ColorIndex
 90
      256
102
RTVSPost2010Prop51ColorRGB
 90
-16777216
102
RTVSPost2010PropOp51
 70
     0
102
RTVSPost2010Prop52
140
1.0
102
RTVSPost2010PropOp52
 70
     0
102
RTVSPost2010Prop53
 90
        2
102
RTVSPost2010PropOp53
 70
     1
102
RTVSPost2010Prop54
  1
strokes_ogs.tif
102
RTVSPost2010PropOp54
 70
     1
102
RTVSPost2010Prop55
280
     0
102
RTVSPost2010PropOp55
 70
     1
102
RTVSPost2010Prop56
140
1.0
102
RTVSPost2010PropOp56
 70
     1
102
RTVSPost2010Prop57
140
1.0
102
RTVSPost2010PropOp57
 70
     1
  0
XRECORD
  5
2C4
102
{ACAD_REACTORS
330
2C3
102
}
330
2C3
100
AcDbXrecord
280
     1
102
RTVSPropertyOp0
 70
     1
102
RTVSPropertyOp1
 70
     1
102
RTVSPropertyOp2
 70
     1
102
RTVSPropertyOp3
 70
     1
102
RTVSPropertyOp4
 70
     1
102
RTVSPropertyOp5
 70
     1
102
RTVSPropertyOp6
 70
     1
102
RTVSPropertyOp7
 70
     1
102
RTVSPropertyOp8
 70
     1
102
RTVSPropertyOp9
 70
     1
102
RTVSPropertyOp10
 70
     1
102
RTVSPropertyOp11
 70
     1
102
RTVSPropertyOp12
 70
     1
102
RTVSPropertyOp13
 70
     1
102
RTVSPropertyOp14
 70
     1
102
RTVSPropertyOp15
 70
     1
102
RTVSPropertyOp16
 70
     1
102
RTVSPropertyOp17
 70
     1
102
RTVSPropertyOp18
 70
     1
102
RTVSPropertyOp19
 70
     1
102
RTVSPropertyOp20
 70
     1
102
RTVSPropertyOp21
 70
     1
102
RTVSPropertyOp22
 70
     1
102
RTVSPropertyOp23
 70
     1
102
RTVSPropertyOp24
 70
     1
102
RTVSPropertyOp25
 70
     1
102
RTVSPropertyOp26
 70
     1
102
RTVSPropertyOp27
 70
     1
102
RTVSPropertyOp28
 70
     1
102
RTVSPropertyOp29
 70
     1
102
RTVSPropertyOp30
 70
     1
102
RTVSPropertyOp31
 70
     1
102
RTVSPropertyOp32
 70
     1
102
RTVSPropertyOp33
 70
     1
102
RTVSPropertyOp34
 70
     1
102
RTVSPropertyOp35
 70
     1
102
RTVSPropertyOp36
 70
     1
102
RTVSPropertyOp37
 70
     1
102
RTVSPropertyOp38
 70
     1
102
RTVSPropertyOp39
 70
     1
102
RTVSPropertyOp40
 70
     1
102
RTVSPropertyOp41
 70
     1
102
RTVSPropertyOp42
 70
     1
102
RTVSPropertyOp43
 70
     1
102
RTVSPropertyOp44
 70
     1
102
RTVSPropertyOp45
 70
     1
102
RTVSPropertyOp46
 70
     1
102
RTVSPropertyOp47
 70
     1
102
RTVSPropertyOp48
 70
     1
102
RTVSPropertyOp49
 70
     1
102
RTVSPropertyOp50
 70
     1
102
RTVSPropertyOp51
 70
     0
102
RTVSPropertyOp52
 70
     0
102
RTVSPropertyOp53
 70
     1
102
RTVSPropertyOp54
 70
     1
102
RTVSPropertyOp55
 70
     1
102
RTVSPropertyOp56
 70
     1
102
RTVSPropertyOp57
 70
     1
102
RTVSPost2010Prop28
280
     0
102
RTVSPost2010PropOp28
 70
     1
102
RTVSPost2010Prop29
280
     1
102
RTVSPost2010PropOp29
 70
     1
102
RTVSPost2010Prop30
280
     1
102
RTVSPost2010PropOp30
 70
     1
102
RTVSPost2010Prop31
280
     0
102
RTVSPost2010PropOp31
 70
     1
102
RTVSPost2010Prop32
280
     0
102
RTVSPost2010PropOp32
 70
     1
102
RTVSPost2010Prop33
280
     0
102
RTVSPost2010PropOp33
 70
     1
102
RTVSPost2010Prop34
280
     0
102
RTVSPost2010PropOp34
 70
     1
102
RTVSPost2010Prop35
280
     0
102
RTVSPost2010PropOp35
 70
     1
102
RTVSPost2010Prop36
280
     0
102
RTVSPost2010PropOp36
 70
     1
102
RTVSPost2010Prop37
 90
       50
102
RTVSPost2010PropOp37
 70
     1
102
RTVSPost2010Prop38
140
0.0
102
RTVSPost2010PropOp38
 70
     1
102
RTVSPost2010Prop39
140
1.0
102
RTVSPost2010PropOp39
 70
     1
102
RTVSPost2010Prop40
 90
        0
102
RTVSPost2010PropOp40
 70
     1
102
RTVSPost2010Prop41ColorIndex
 90
       18
102
RTVSPost2010Prop41ColorRGB
 90
        0
102
RTVSPost2010PropOp41
 70
     1
102
RTVSPost2010Prop42
 90
       50
102
RTVSPost2010PropOp42
 70
     1
102
RTVSPost2010Prop43
 90
        3
102
RTVSPost2010PropOp43
 70
     1
102
RTVSPost2010Prop44ColorIndex
 90
        5
102
RTVSPost2010Prop44ColorRGB
 90
      255
102
RTVSPost2010PropOp44
 70
     1
102
RTVSPost2010Prop45
280
     0
102
RTVSPost2010PropOp45
 70
     1
102
RTVSPost2010Prop46
 90
       50
102
RTVSPost2010PropOp46
 70
     1
102
RTVSPost2010Prop47
 90
       50
102
RTVSPost2010PropOp47
 70
     1
102
RTVSPost2010Prop48
 90
       50
102
RTVSPost2010PropOp48
 70
     1
102
RTVSPost2010Prop49
280
     0
102
RTVSPost2010PropOp49
 70
     1
102
RTVSPost2010Prop50
 90
       50
102
RTVSPost2010PropOp50
 70
     1
102
RTVSPost2010Prop51ColorIndex
 90
      256
102
RTVSPost2010Prop51ColorRGB
 90
-16777216
102
RTVSPost2010PropOp51
 70
     0
102
RTVSPost2010Prop52
140
1.0
102
RTVSPost2010PropOp52
 70
     0
102
RTVSPost2010Prop53
 90
        2
102
RTVSPost2010PropOp53
 70
     1
102
RTVSPost2010Prop54
  1
strokes_ogs.tif
102
RTVSPost2010PropOp54
 70
     1
102
RTVSPost2010Prop55
280
     0
102
RTVSPost2010PropOp55
 70
     1
102
RTVSPost2010Prop56
140
1.0
102
RTVSPost2010PropOp56
 70
     1
102
RTVSPost2010Prop57
140
1.0
102
RTVSPost2010PropOp57
 70
     1
  0
ENDSEC
  0
EOF
