  0
SECTION
  2
HEADER
  9
$ACADVER
  1
AC1015
  9
$ACADMAINTVER
 70
     6
  9
$DWGCODEPAGE
  3
ANSI_1252
  9
$INSBASE
 10
0.0
 20
0.0
 30
0.0
  9
$EXTMIN
 10
0.0
 20
0.0
 30
0.0
  9
$EXTMAX
 10
3000.0
 20
4500.0
 30
0.0
  9
$LIMMIN
 10
0.0
 20
0.0
  9
$LIMMAX
 10
3000.0
 20
4500.0
  9
$ORTHOMODE
 70
     0
  9
$REGENMODE
 70
     1
  9
$FILLMODE
 70
     1
  9
$QTEXTMODE
 70
     0
  9
$MIRRTEXT
 70
     1
  9
$LTSCALE
 40
1.0
  9
$ATTMODE
 70
     1
  9
$TEXTSIZE
 40
2.5
  9
$TRACEWID
 40
1.0
  9
$TEXTSTYLE
  7
Standard
  9
$CLAYER
  8
0
  9
$CELTYPE
  6
ByLayer
  9
$CECOLOR
 62
   256
  9
$CELTSCALE
 40
1.0
  9
$DISPSILH
 70
     0
  9
$DIMSCALE
 40
1.0
  9
$DIMASZ
 40
2.5
  9
$DIMEXO
 40
0.625
  9
$DIMDLI
 40
3.75
  9
$DIMRND
 40
0.0
  9
$DIMDLE
 40
0.0
  9
$DIMEXE
 40
1.25
  9
$DIMTP
 40
0.0
  9
$DIMTM
 40
0.0
  9
$DIMTXT
 40
2.5
  9
$DIMCEN
 40
2.5
  9
$DIMTSZ
 40
0.0
  9
$DIMTOL
 70
     0
  9
$DIMLIM
 70
     0
  9
$DIMTIH
 70
     0
  9
$DIMTOH
 70
     0
  9
$DIMSE1
 70
     0
  9
$DIMSE2
 70
     0
  9
$DIMTAD
 70
     1
  9
$DIMZIN
 70
     8
  9
$DIMBLK
  1

  9
$DIMASO
 70
     1
  9
$DIMSHO
 70
     1
  9
$DIMPOST
  1

  9
$DIMAPOST
  1

  9
$DIMALT
 70
     0
  9
$DIMALTD
 70
     3
  9
$DIMALTF
 40
0.0393700787
  9
$DIMLFAC
 40
1.0
  9
$DIMTOFL
 70
     1
  9
$DIMTVP
 40
0.0
  9
$DIMTIX
 70
     0
  9
$DIMSOXD
 70
     0
  9
$DIMSAH
 70
     0
  9
$DIMBLK1
  1

  9
$DIMBLK2
  1

  9
$DIMSTYLE
  2
ISO-25
  9
$DIMCLRD
 70
     0
  9
$DIMCLRE
 70
     0
  9
$DIMCLRT
 70
     0
  9
$DIMTFAC
 40
1.0
  9
$DIMGAP
 40
0.625
  9
$DIMJUST
 70
     0
  9
$DIMSD1
 70
     0
  9
$DIMSD2
 70
     0
  9
$DIMTOLJ
 70
     0
  9
$DIMTZIN
 70
     8
  9
$DIMALTZ
 70
     0
  9
$DIMALTTZ
 70
     0
  9
$DIMUPT
 70
     0
  9
$DIMDEC
 70
     2
  9
$DIMTDEC
 70
     2
  9
$DIMALTU
 70
     2
  9
$DIMALTTD
 70
     3
  9
$DIMTXSTY
  7
Standard
  9
$DIMAUNIT
 70
     0
  9
$DIMADEC
 70
     0
  9
$DIMALTRND
 40
0.0
  9
$DIMAZIN
 70
     0
  9
$DIMDSEP
 70
    44
  9
$DIMATFIT
 70
     3
  9
$DIMFRAC
 70
     0
  9
$DIMLDRBLK
  1

  9
$DIMLUNIT
 70
     2
  9
$DIMLWD
 70
    -2
  9
$DIMLWE
 70
    -2
  9
$DIMTMOVE
 70
     0
  9
$LUNITS
 70
     2
  9
$LUPREC
 70
     4
  9
$SKETCHINC
 40
1.0
  9
$FILLETRAD
 40
10.0
  9
$AUNITS
 70
     0
  9
$AUPREC
 70
     0
  9
$MENU
  1
.
  9
$ELEVATION
 40
0.0
  9
$PELEVATION
 40
0.0
  9
$THICKNESS
 40
0.0
  9
$LIMCHECK
 70
     0
  9
$CHAMFERA
 40
10.0
  9
$CHAMFERB
 40
10.0
  9
$CHAMFERC
 40
20.0
  9
$CHAMFERD
 40
0.0
  9
$SKPOLY
 70
     0
  9
$TDCREATE
 40
2456450.384356122
  9
$TDUCREATE
 40
2456450.301022789
  9
$TDUPDATE
 40
2456450.384356134
  9
$TDUUPDATE
 40
2456450.301022801
  9
$TDINDWG
 40
0.0000000116
  9
$TDUSRTIMER
 40
0.0000000116
  9
$USRTIMER
 70
     1
  9
$ANGBASE
 50
0.0
  9
$ANGDIR
 70
     0
  9
$PDMODE
 70
     0
  9
$PDSIZE
 40
0.0
  9
$PLINEWID
 40
0.0
  9
$SPLFRAME
 70
     0
  9
$SPLINETYPE
 70
     6
  9
$SPLINESEGS
 70
     8
  9
$HANDSEED
  5
4A2
  9
$SURFTAB1
 70
     6
  9
$SURFTAB2
 70
     6
  9
$SURFTYPE
 70
     6
  9
$SURFU
 70
     6
  9
$SURFV
 70
     6
  9
$UCSBASE
  2

  9
$UCSNAME
  2

  9
$UCSORG
 10
0.0
 20
0.0
 30
0.0
  9
$UCSXDIR
 10
1.0
 20
0.0
 30
0.0
  9
$UCSYDIR
 10
0.0
 20
1.0
 30
0.0
  9
$UCSORTHOREF
  2

  9
$UCSORTHOVIEW
 70
     0
  9
$UCSORGTOP
 10
0.0
 20
0.0
 30
0.0
  9
$UCSORGBOTTOM
 10
0.0
 20
0.0
 30
0.0
  9
$UCSORGLEFT
 10
0.0
 20
0.0
 30
0.0
  9
$UCSORGRIGHT
 10
0.0
 20
0.0
 30
0.0
  9
$UCSORGFRONT
 10
0.0
 20
0.0
 30
0.0
  9
$UCSORGBACK
 10
0.0
 20
0.0
 30
0.0
  9
$PUCSBASE
  2

  9
$PUCSNAME
  2

  9
$PUCSORG
 10
0.0
 20
0.0
 30
0.0
  9
$PUCSXDIR
 10
1.0
 20
0.0
 30
0.0
  9
$PUCSYDIR
 10
0.0
 20
1.0
 30
0.0
  9
$PUCSORTHOREF
  2

  9
$PUCSORTHOVIEW
 70
     0
  9
$PUCSORGTOP
 10
0.0
 20
0.0
 30
0.0
  9
$PUCSORGBOTTOM
 10
0.0
 20
0.0
 30
0.0
  9
$PUCSORGLEFT
 10
0.0
 20
0.0
 30
0.0
  9
$PUCSORGRIGHT
 10
0.0
 20
0.0
 30
0.0
  9
$PUCSORGFRONT
 10
0.0
 20
0.0
 30
0.0
  9
$PUCSORGBACK
 10
0.0
 20
0.0
 30
0.0
  9
$USERI1
 70
     0
  9
$USERI2
 70
     0
  9
$USERI3
 70
     0
  9
$USERI4
 70
     0
  9
$USERI5
 70
     0
  9
$USERR1
 40
0.0
  9
$USERR2
 40
0.0
  9
$USERR3
 40
0.0
  9
$USERR4
 40
0.0
  9
$USERR5
 40
0.0
  9
$WORLDVIEW
 70
     1
  9
$SHADEDGE
 70
     3
  9
$SHADEDIF
 70
    70
  9
$TILEMODE
 70
     1
  9
$MAXACTVP
 70
    64
  9
$PINSBASE
 10
0.0
 20
0.0
 30
0.0
  9
$PLIMCHECK
 70
     0
  9
$PEXTMIN
 10
0.0
 20
0.0
 30
0.0
  9
$PEXTMAX
 10
3000.0
 20
4500.0
 30
0.0
  9
$PLIMMIN
 10
0.0
 20
0.0
  9
$PLIMMAX
 10
3000.0
 20
4500.0
  9
$UNITMODE
 70
     0
  9
$VISRETAIN
 70
     1
  9
$PLINEGEN
 70
     0
  9
$PSLTSCALE
 70
     1
  9
$TREEDEPTH
 70
  3020
  9
$CMLSTYLE
  2
Standard
  9
$CMLJUST
 70
     0
  9
$CMLSCALE
 40
20.0
  9
$PROXYGRAPHICS
 70
     1
  9
$MEASUREMENT
 70
     1
  9
$CELWEIGHT
370
    -1
  9
$ENDCAPS
280
     0
  9
$JOINSTYLE
280
     0
  9
$LWDISPLAY
290
     0
  9
$INSUNITS
 70
     4
  9
$HYPERLINKBASE
  1

  9
$STYLESHEET
  1

  9
$XEDIT
290
     1
  9
$CEPSNTYPE
380
     0
  9
$PSTYLEMODE
290
     1
  9
$FINGERPRINTGUID
  2
{1FB02186-F35B-4901-A398-338D2CD935A6}
  9
$VERSIONGUID
  2
{FAEB1C32-E019-11D5-929B-00C0DF256EC4}
  9
$EXTNAMES
290
     1
  9
$PSVPSCALE
 40
0.0
  9
$OLESTARTUP
290
     0
  0
ENDSEC
  0
SECTION
  2
CLASSES
  0
CLASS
  1
ACDBDICTIONARYWDFLT
  2
AcDbDictionaryWithDefault
  3
ObjectDBX Classes
 90
        0
280
     0
281
     0
  0
CLASS
  1
VISUALSTYLE
  2
AcDbVisualStyle
  3
ObjectDBX Classes
 90
     4095
280
     0
281
     0
  0
CLASS
  1
SCALE
  2
AcDbScale
  3
ObjectDBX Classes
 90
     1153
280
     0
281
     0
  0
CLASS
  1
DICTIONARYVAR
  2
AcDbDictionaryVar
  3
ObjectDBX Classes
 90
        0
280
     0
281
     0
  0
CLASS
  1
ACDBPLACEHOLDER
  2
AcDbPlaceHolder
  3
ObjectDBX Classes
 90
        0
280
     0
281
     0
  0
CLASS
  1
LAYOUT
  2
AcDbLayout
  3
ObjectDBX Classes
 90
        0
280
     0
281
     0
  0
ENDSEC
  0
SECTION
  2
TABLES
  0
TABLE
  2
VPORT
  5
8
330
0
100
AcDbSymbolTable
 70
     1
  0
VPORT
  5
29
330
8
100
AcDbSymbolTableRecord
100
AcDbViewportTableRecord
  2
*Active
 70
     0
 10
0.0
 20
0.0
 11
1.0
 21
1.0
 12
344.1869158879
 22
148.5
 13
0.0
 23
0.0
 14
10.0
 24
10.0
 15
10.0
 25
10.0
 16
0.0
 26
0.0
 36
1.0
 17
0.0
 27
0.0
 37
0.0
 40
297.0
 41
1.9729729729
 42
50.0
 43
0.0
 44
0.0
 50
0.0
 51
0.0
 71
     0
 72
   100
 73
     1
 74
     3
 75
     0
 76
     0
 77
     0
 78
     0
281
     0
 65
     1
110
0.0
120
0.0
130
0.0
111
1.0
121
0.0
131
0.0
112
0.0
122
1.0
132
0.0
 79
     0
146
0.0
  0
ENDTAB
  0
TABLE
  2
LTYPE
  5
5
330
0
100
AcDbSymbolTable
 70
     2
  0
LTYPE
  5
14
330
5
100
AcDbSymbolTableRecord
100
AcDbLinetypeTableRecord
  2
ByBlock
 70
     0
  3

 72
    65
 73
     0
 40
0.0
  0
LTYPE
  5
15
330
5
100
AcDbSymbolTableRecord
100
AcDbLinetypeTableRecord
  2
ByLayer
 70
     0
  3

 72
    65
 73
     0
 40
0.0
  0
LTYPE
  5
16
330
5
100
AcDbSymbolTableRecord
100
AcDbLinetypeTableRecord
  2
Continuous
 70
     0
  3
Solid line
 72
    65
 73
     0
 40
0.0
  0
LTYPE
  5
60
330
5
100
AcDbSymbolTableRecord
100
AcDbLinetypeTableRecord
  2
CENTER2
 70
     0
  3
Center (.5x) ___ _ ___ _ ___ _ ___ _ ___ _ ___
 72
    65
 73
     4
 40
28.575
 49
19.05
 74
     4
 75
     0
340
0
 46
0.0
 50
0.0
 44
0.0
 45
0.0
 49
-3.175
 74
     4
 75
     0
340
0
 46
0.0
 50
0.0
 44
0.0
 45
0.0
 49
3.175
 74
     4
 75
     0
340
0
 46
0.0
 50
0.0
 44
0.0
 45
0.0
 49
-3.175
 74
     4
 75
     0
340
0
 46
0.0
 50
0.0
 44
0.0
 45
0.0
  0
ENDTAB
  0
TABLE
  2
LAYER
  5
2
330
0
100
AcDbSymbolTable
 70
     8
  0
LAYER
  5
10
330
2
100
AcDbSymbolTableRecord
100
AcDbLayerTableRecord
  2
0
 70
     0
 62
     7
  6
Continuous
370
    -3
390
F
  0
LAYER
  5
5D
330
2
100
AcDbSymbolTableRecord
100
AcDbLayerTableRecord
  2
Default
 70
     0
 62
     7
  6
Continuous
370
    -3
390
F
  0
LAYER
  5
8F
330
2
100
AcDbSymbolTableRecord
100
AcDbLayerTableRecord
  2
04676329_ROHLING
 70
     0
 62
     7
  6
Continuous
370
    -3
390
F
  0
LAYER
  5
BE
330
2
100
AcDbSymbolTableRecord
100
AcDbLayerTableRecord
  2
E05099
 70
     0
 62
     7
  6
Continuous
370
    -3
390
F
  0
LAYER
  5
EE
330
2
100
AcDbSymbolTableRecord
100
AcDbLayerTableRecord
  2
E02773
 70
     0
 62
     7
  6
Continuous
370
    -3
390
F
  0
LAYER
  5
F4
330
2
100
AcDbSymbolTableRecord
100
AcDbLayerTableRecord
  2
$DDT_AUDIT_GENERATED_(F4)
 70
     0
 62
     7
  6
Continuous
370
    -3
390
F
  0
LAYER
  5
109
330
2
100
AcDbSymbolTableRecord
100
AcDbLayerTableRecord
  2
4221035_0__HUELS
 70
     0
 62
     7
  6
Continuous
370
    -3
390
F
  0
LAYER
  5
119
330
2
100
AcDbSymbolTableRecord
100
AcDbLayerTableRecord
  2
4221039_0__SIEB_
 70
     0
 62
     7
  6
Continuous
370
    -3
390
F
  0
ENDTAB
  0
TABLE
  2
STYLE
  5
3
330
0
100
AcDbSymbolTable
 70
     2
  0
STYLE
  5
11
330
3
100
AcDbSymbolTableRecord
100
AcDbTextStyleTableRecord
  2
Standard
 70
     0
 40
0.0
 41
1.0
 50
0.0
 71
     0
 42
2.5
  3
txt
  4

  0
STYLE
  5
491
330
3
100
AcDbSymbolTableRecord
100
AcDbTextStyleTableRecord
  2
SEACAD_seiso_ttf
 70
     0
 40
0.0
 41
1.0
 50
0.0
 71
     0
 42
0.2
  3
seiso.ttf
  4

  0
ENDTAB
  0
TABLE
  2
VIEW
  5
6
330
0
100
AcDbSymbolTable
 70
     0
  0
ENDTAB
  0
TABLE
  2
UCS
  5
7
330
0
100
AcDbSymbolTable
 70
     0
  0
ENDTAB
  0
TABLE
  2
APPID
  5
9
330
0
100
AcDbSymbolTable
 70
     1
  0
APPID
  5
12
330
9
100
AcDbSymbolTableRecord
100
AcDbRegAppTableRecord
  2
ACAD
 70
     0
  0
ENDTAB
  0
TABLE
  2
DIMSTYLE
  5
A
330
0
100
AcDbSymbolTable
 70
     1
100
AcDbDimStyleTable
  0
DIMSTYLE
105
27
330
A
100
AcDbSymbolTableRecord
100
AcDbDimStyleTableRecord
  2
ISO-25
 70
     0
 41
2.5
 42
0.625
 43
3.75
 44
1.25
 73
     0
 74
     0
 77
     1
 78
     8
140
2.5
141
2.5
143
0.0393700787
147
0.625
171
     3
172
     1
271
     2
272
     2
274
     3
278
    44
283
     0
284
     8
340
11
  0
ENDTAB
  0
TABLE
  2
BLOCK_RECORD
  5
1
330
0
100
AcDbSymbolTable
 70
    10
  0
BLOCK_RECORD
  5
1F
330
1
100
AcDbSymbolTableRecord
100
AcDbBlockTableRecord
  2
*Model_Space
340
22
  0
BLOCK_RECORD
  5
1B
330
1
100
AcDbSymbolTableRecord
100
AcDbBlockTableRecord
  2
*Paper_Space
340
1E
  0
BLOCK_RECORD
  5
5E
330
1
100
AcDbSymbolTableRecord
100
AcDbBlockTableRecord
  2
SEANNOT_GROUP
340
0
102
{BLKREFS
331
5F
102
}
  0
BLOCK_RECORD
  5
65
330
1
100
AcDbSymbolTableRecord
100
AcDbBlockTableRecord
  2
SEANNOT_GROUP1
340
0
102
{BLKREFS
331
66
102
}
  0
BLOCK_RECORD
  5
6B
330
1
100
AcDbSymbolTableRecord
100
AcDbBlockTableRecord
  2
SEANNOT_GROUP2
340
0
102
{BLKREFS
331
6C
102
}
  0
BLOCK_RECORD
  5
75
330
1
100
AcDbSymbolTableRecord
100
AcDbBlockTableRecord
  2
SEANNOT_GROUP3
340
0
102
{BLKREFS
331
76
102
}
  0
BLOCK_RECORD
  5
7B
330
1
100
AcDbSymbolTableRecord
100
AcDbBlockTableRecord
  2
SEANNOT_GROUP4
340
0
102
{BLKREFS
331
7C
102
}
  0
BLOCK_RECORD
  5
87
330
1
100
AcDbSymbolTableRecord
100
AcDbBlockTableRecord
  2
SEANNOT_GROUP5
340
0
102
{BLKREFS
331
88
102
}
  0
BLOCK_RECORD
  5
8D
330
1
100
AcDbSymbolTableRecord
100
AcDbBlockTableRecord
  2
SE
340
0
102
{BLKREFS
331
8E
102
}
  0
BLOCK_RECORD
  5
3F2
330
1
100
AcDbSymbolTableRecord
100
AcDbBlockTableRecord
  2
SE1
340
0
102
{BLKREFS
331
3F3
102
}
  0
BLOCK_RECORD
  5
444
330
1
100
AcDbSymbolTableRecord
100
AcDbBlockTableRecord
  2
SE2
340
0
102
{BLKREFS
331
445
102
}
  0
ENDTAB
  0
ENDSEC
  0
SECTION
  2
BLOCKS
  0
BLOCK
  5
20
330
1F
100
AcDbEntity
  8
0
100
AcDbBlockBegin
  2
*Model_Space
 70
     0
 10
0.0
 20
0.0
 30
0.0
  3
*Model_Space
  1

  0
ENDBLK
  5
21
330
1F
100
AcDbEntity
  8
0
100
AcDbBlockEnd
  0
BLOCK
  5
1C
330
1B
100
AcDbEntity
 67
     1
  8
0
100
AcDbBlockBegin
  2
*Paper_Space
 70
     0
 10
0.0
 20
0.0
 30
0.0
  3
*Paper_Space
  1

  0
ENDBLK
  5
1D
330
1B
100
AcDbEntity
 67
     1
  8
0
100
AcDbBlockEnd
  0
BLOCK
  5
63
330
5E
100
AcDbEntity
  8
0
100
AcDbBlockBegin
  2
SEANNOT_GROUP
 70
     0
 10
0.0
 20
0.0
 30
0.0
  3
SEANNOT_GROUP
  1

  0
LINE
  5
61
330
5E
100
AcDbEntity
  8
Default
  6
CENTER2
 62
     7
100
AcDbLine
 10
50.7022984787
 20
385.469274828
 30
0.0
 11
10.7022993728
 21
385.469274828
 31
0.0
  0
LINE
  5
62
330
5E
100
AcDbEntity
  8
Default
  6
CENTER2
 62
     7
100
AcDbLine
 10
30.7022989257
 20
405.469274381
 30
0.0
 11
30.7022989257
 21
365.469275275
 31
0.0
  0
ENDBLK
  5
64
330
5E
100
AcDbEntity
  8
0
100
AcDbBlockEnd
  0
BLOCK
  5
69
330
65
100
AcDbEntity
  8
0
100
AcDbBlockBegin
  2
SEANNOT_GROUP1
 70
     0
 10
0.0
 20
0.0
 30
0.0
  3
SEANNOT_GROUP1
  1

  0
LINE
  5
67
330
65
100
AcDbEntity
  8
Default
  6
CENTER2
 62
     7
100
AcDbLine
 10
165.2656965931
 20
385.469274828
 30
0.0
 11
125.2656974872
 21
385.469274828
 31
0.0
  0
LINE
  5
68
330
65
100
AcDbEntity
  8
Default
  6
CENTER2
 62
     7
100
AcDbLine
 10
145.2656970401
 20
405.469274381
 30
0.0
 11
145.2656970401
 21
365.469275275
 31
0.0
  0
ENDBLK
  5
6A
330
65
100
AcDbEntity
  8
0
100
AcDbBlockEnd
  0
BLOCK
  5
73
330
6B
100
AcDbEntity
  8
0
100
AcDbBlockBegin
  2
SEANNOT_GROUP2
 70
     0
 10
0.0
 20
0.0
 30
0.0
  3
SEANNOT_GROUP2
  1

  0
LINE
  5
6D
330
6B
100
AcDbEntity
  8
Default
  6
CENTER2
 62
     7
100
AcDbLine
 10
50.7022984787
 20
287.7601452313
 30
0.0
 11
10.7022993728
 21
287.7601452313
 31
0.0
  0
LINE
  5
6E
330
6B
100
AcDbEntity
  8
Default
  6
CENTER2
 62
     7
100
AcDbLine
 10
30.7022989257
 20
307.7601447843
 30
0.0
 11
30.7022989257
 21
267.7601456783
 31
0.0
  0
LINE
  5
6F
330
6B
100
AcDbEntity
  8
Default
  6
CENTER2
 62
     7
100
AcDbLine
 10
55.7022983669
 20
287.7601452313
 30
0.0
 11
58.2180477257
 21
287.7601452313
 31
0.0
  0
LINE
  5
70
330
6B
100
AcDbEntity
  8
Default
  6
CENTER2
 62
     7
100
AcDbLine
 10
30.7022989257
 20
312.7601446725
 30
0.0
 11
30.7022989257
 21
315.2758940313
 31
0.0
  0
LINE
  5
71
330
6B
100
AcDbEntity
  8
Default
  6
CENTER2
 62
     7
100
AcDbLine
 10
5.7022994845
 20
287.7601452313
 30
0.0
 11
3.1865501257
 21
287.7601452313
 31
0.0
  0
LINE
  5
72
330
6B
100
AcDbEntity
  8
Default
  6
CENTER2
 62
     7
100
AcDbLine
 10
30.7022989257
 20
262.7601457901
 30
0.0
 11
30.7022989257
 21
260.2443964313
 31
0.0
  0
ENDBLK
  5
74
330
6B
100
AcDbEntity
  8
0
100
AcDbBlockEnd
  0
BLOCK
  5
79
330
75
100
AcDbEntity
  8
0
100
AcDbBlockBegin
  2
SEANNOT_GROUP3
 70
     0
 10
0.0
 20
0.0
 30
0.0
  3
SEANNOT_GROUP3
  1

  0
LINE
  5
77
330
75
100
AcDbEntity
  8
Default
  6
CENTER2
 62
     7
100
AcDbLine
 10
261.0382740839
 20
478.2712639301
 30
0.0
 11
221.038274978
 21
478.2712639301
 31
0.0
  0
LINE
  5
78
330
75
100
AcDbEntity
  8
Default
  6
CENTER2
 62
     7
100
AcDbLine
 10
241.0382745309
 20
498.271263483
 30
0.0
 11
241.0382745309
 21
458.2712643771
 31
0.0
  0
ENDBLK
  5
7A
330
75
100
AcDbEntity
  8
0
100
AcDbBlockEnd
  0
BLOCK
  5
83
330
7B
100
AcDbEntity
  8
0
100
AcDbBlockBegin
  2
SEANNOT_GROUP4
 70
     0
 10
0.0
 20
0.0
 30
0.0
  3
SEANNOT_GROUP4
  1

  0
LINE
  5
7D
330
7B
100
AcDbEntity
  8
Default
  6
CENTER2
 62
     7
100
AcDbLine
 10
50.7042669827
 20
478.3205043177
 30
0.0
 11
10.7042678768
 21
478.3205043177
 31
0.0
  0
LINE
  5
7E
330
7B
100
AcDbEntity
  8
Default
  6
CENTER2
 62
     7
100
AcDbLine
 10
30.7042674297
 20
498.3205038707
 30
0.0
 11
30.7042674297
 21
458.3205047648
 31
0.0
  0
LINE
  5
7F
330
7B
100
AcDbEntity
  8
Default
  6
CENTER2
 62
     7
100
AcDbLine
 10
55.7042668709
 20
478.3205043177
 30
0.0
 11
44.9542674297
 21
478.3205043177
 31
0.0
  0
LINE
  5
80
330
7B
100
AcDbEntity
  8
Default
  6
CENTER2
 62
     7
100
AcDbLine
 10
30.7042674297
 20
503.3205037589
 30
0.0
 11
30.7042674297
 21
483.6872222276
 31
0.0
  0
LINE
  5
81
330
7B
100
AcDbEntity
  8
Default
  6
CENTER2
 62
     7
100
AcDbLine
 10
5.7042679885
 20
478.3205043177
 30
0.0
 11
16.4542674297
 21
478.3205043177
 31
0.0
  0
LINE
  5
82
330
7B
100
AcDbEntity
  8
Default
  6
CENTER2
 62
     7
100
AcDbLine
 10
30.7042674297
 20
453.3205048765
 30
0.0
 11
30.7042674297
 21
472.9537864079
 31
0.0
  0
ENDBLK
  5
84
330
7B
100
AcDbEntity
  8
0
100
AcDbBlockEnd
  0
BLOCK
  5
8B
330
87
100
AcDbEntity
  8
0
100
AcDbBlockBegin
  2
SEANNOT_GROUP5
 70
     0
 10
0.0
 20
0.0
 30
0.0
  3
SEANNOT_GROUP5
  1

  0
LINE
  5
89
330
87
100
AcDbEntity
  8
Default
  6
CENTER2
 62
     7
100
AcDbLine
 10
50.7022984787
 20
199.1090219503
 30
0.0
 11
10.7022993728
 21
199.1090219503
 31
0.0
  0
LINE
  5
8A
330
87
100
AcDbEntity
  8
Default
  6
CENTER2
 62
     7
100
AcDbLine
 10
30.7022989257
 20
219.1090215032
 30
0.0
 11
30.7022989257
 21
179.1090223973
 31
0.0
  0
ENDBLK
  5
8C
330
87
100
AcDbEntity
  8
0
100
AcDbBlockEnd
  0
BLOCK
  5
3F0
330
8D
100
AcDbEntity
  8
0
100
AcDbBlockBegin
  2
SE
 70
     0
 10
0.0
 20
0.0
 30
0.0
  3
SE
  1

  0
ARC
  5
90
330
8D
100
AcDbEntity
  8
04676329_ROHLING
  6
Continuous
 62
     7
100
AcDbCircle
 10
30.7118348761
 20
675.5287727399
 30
0.0
 40
187.0734519868579
100
AcDbArc
 50
266.0087787573
 51
273.9855232296
  0
ARC
  5
91
330
8D
100
AcDbEntity
  8
04676329_ROHLING
  6
Continuous
 62
     7
100
AcDbCircle
 10
30.7530836894
 20
703.8557528814
 30
0.0
 40
206.0639018335395
100
AcDbArc
 50
266.3197260179
 51
273.6520765784
  0
ARC
  5
92
330
8D
100
AcDbEntity
  8
04676329_ROHLING
  6
Continuous
 62
     7
100
AcDbCircle
 10
30.7478856122
 20
353.7656151328
 30
0.0
 40
152.5043205926965
100
AcDbArc
 50
85.1133369101
 51
86.9161256187
  0
ARC
  5
93
330
8D
100
AcDbEntity
  8
04676329_ROHLING
  6
Continuous
 62
     7
100
AcDbCircle
 10
30.7478856122
 20
353.7656151328
 30
0.0
 40
152.5043205926965
100
AcDbArc
 50
94.4452636602
 51
94.9207906789
  0
SPLINE
  5
94
330
8D
100
AcDbEntity
  8
04676329_ROHLING
  6
Continuous
 62
     7
100
AcDbSpline
210
0.0
220
0.0
230
1.0
 70
    12
 71
     3
 72
    57
 73
    53
 74
     0
 42
0.0000000002668689
 43
0.0000000001
 40
0.0
 40
0.0
 40
0.0
 40
0.0
 40
0.0188901440925692
 40
0.029292939355834
 40
0.0507611197501395
 40
0.0699033751979
 40
0.0859545372571966
 40
0.1051344018398109
 40
0.1308917425434837
 40
0.1474752266656765
 40
0.1617538108544854
 40
0.1805549178070522
 40
0.2048912513829003
 40
0.2155504534323814
 40
0.2348404659918437
 40
0.2491587353795005
 40
0.2491587353795005
 40
0.2704231959479375
 40
0.2838473881510988
 40
0.310472544805047
 40
0.3357862295023658
 40
0.3600141542895089
 40
0.3830033954123171
 40
0.3969219201542025
 40
0.4201499335747103
 40
0.4331352916097395
 40
0.452459864954537
 40
0.4759929230608643
 40
0.496435492316693
 40
0.511529379445134
 40
0.5312193699091884
 40
0.5588164141593637
 40
0.5724244321282419
 40
0.5988056306285718
 40
0.617162737113535
 40
0.6350736771646177
 40
0.6529622390423968
 40
0.6769008530814404
 40
0.7046980598679365
 40
0.7214728952620563
 40
0.7448113773613603
 40
0.7621271736275304
 40
0.7777394905274265
 40
0.7818092963445427
 40
0.7861648615148754
 40
0.7967703621764677
 40
0.8065340852952246
 40
0.8216630883060728
 40
0.8216630883060728
 40
0.837228334405244
 40
0.9231993568110856
 40
1.0
 40
1.0
 40
1.0
 40
1.0
 10
17.00784155746395
 20
475.6494350232749
 30
0.0
 41
1.0
 10
17.02835919243052
 20
475.4779109220608
 30
0.0
 41
1.0
 10
17.05467149195175
 20
475.2550092446326
 30
0.0
 41
1.0
 10
17.0938325100867
 20
474.8167499604655
 30
0.0
 41
1.0
 10
17.12377378200456
 20
474.37356364865
 30
0.0
 41
1.0
 10
17.14507109930419
 20
473.862736637673
 30
0.0
 41
1.0
 10
17.15587167104773
 20
473.3609241973585
 30
0.0
 41
1.0
 10
17.15771905240991
 20
472.7840825059574
 30
0.0
 41
1.0
 10
17.14682908882137
 20
472.1855266160107
 30
0.0
 41
1.0
 10
17.12646010926168
 20
471.6203706841527
 30
0.0
 41
1.0
 10
17.10219997743202
 20
471.1159153795306
 30
0.0
 41
1.0
 10
17.06689349676746
 20
470.5214949188079
 30
0.0
 41
1.0
 10
17.02606921316827
 20
469.9496403732796
 30
0.0
 41
1.0
 10
16.97919142447822
 20
469.3663340482746
 30
0.0
 41
1.0
 10
16.93571841428836
 20
468.8711042482317
 30
0.0
 41
1.0
 10
16.90191126737484
 20
468.5240903116351
 30
0.0
 41
1.0
 10
16.85938033253285
 20
468.0900237081815
 30
0.0
 41
1.0
 10
16.82124156753239
 20
467.7304110156434
 30
0.0
 41
1.0
 10
16.74325971813471
 20
467.0243289471929
 30
0.0
 41
1.0
 10
16.65568607642743
 20
466.2722012769474
 30
0.0
 41
1.0
 10
16.5480754210896
 20
465.3726230593444
 30
0.0
 41
1.0
 10
16.43810208572567
 20
464.5052502648083
 30
0.0
 41
1.0
 10
16.34215880762979
 20
463.761619621392
 30
0.0
 41
1.0
 10
16.24639622864324
 20
463.0215733746745
 30
0.0
 41
1.0
 10
16.16540770704915
 20
462.3978927765672
 30
0.0
 41
1.0
 10
16.07497118659416
 20
461.700022081872
 30
0.0
 41
1.0
 10
15.98389380724907
 20
460.9919166702132
 30
0.0
 41
1.0
 10
15.88187786859519
 20
460.1797637431663
 30
0.0
 41
1.0
 10
15.78832656227065
 20
459.4136281376888
 30
0.0
 41
1.0
 10
15.70284951198311
 20
458.6911466920267
 30
0.0
 41
1.0
 10
15.60939810447318
 20
457.8682229648083
 30
0.0
 41
1.0
 10
15.52367230351667
 20
457.0561331163475
 30
0.0
 41
1.0
 10
15.43493381789524
 20
456.1471892420661
 30
0.0
 41
1.0
 10
15.36471525992453
 20
455.3559231270136
 30
0.0
 41
1.0
 10
15.29911890752653
 20
454.4992002356969
 30
0.0
 41
1.0
 10
15.24918774663041
 20
453.7543461836024
 30
0.0
 41
1.0
 10
15.20014624269543
 20
452.9288271204085
 30
0.0
 41
1.0
 10
15.15772484941826
 20
451.9603195010781
 30
0.0
 41
1.0
 10
15.12988612040724
 20
451.0026990040419
 30
0.0
 41
1.0
 10
15.11466158665431
 20
450.0497956529472
 30
0.0
 41
1.0
 10
15.11148496676604
 20
449.2415156570763
 30
0.0
 41
1.0
 10
15.1282942697565
 20
448.447092575379
 30
0.0
 41
1.0
 10
15.1433926665114
 20
447.9246448487989
 30
0.0
 41
1.0
 10
15.15576683736072
 20
447.584840437777
 30
0.0
 41
1.0
 10
15.1483302111946
 20
447.3175672362279
 30
0.0
 41
1.0
 10
15.17714706362974
 20
446.9685417727815
 30
0.0
 41
1.0
 10
15.21064865804558
 20
446.4593163089659
 30
0.0
 41
1.0
 10
15.23488518987066
 20
446.135006860519
 30
0.0
 41
1.0
 10
15.2697699416541
 20
445.658183345762
 30
0.0
 41
1.0
 10
15.36594393960351
 20
444.3098318027798
 30
0.0
 41
1.0
 10
15.57105599935874
 20
441.6488383044531
 30
0.0
 41
1.0
 10
15.74783783583878
 20
439.5451170009994
 30
0.0
 41
1.0
 10
15.81248077393914
 20
438.3160510741776
 30
0.0
 41
1.0
  0
ARC
  5
95
330
8D
100
AcDbEntity
  8
04676329_ROHLING
  6
Continuous
 62
     7
100
AcDbCircle
 10
148.2031768367
 20
492.4374109111
 30
0.0
 40
132.2650828202629
100
AcDbArc
 50
184.7642464925
 51
187.2920362784
  0
ARC
  5
96
330
8D
100
AcDbEntity
  8
04676329_ROHLING
  6
Continuous
 62
     7
100
AcDbCircle
 10
237.4988429527
 20
498.902749512
 30
0.0
 40
221.7913436542891
100
AcDbArc
 50
182.0983159684
 51
184.5127490699
  0
ARC
  5
97
330
8D
100
AcDbEntity
  8
04676329_ROHLING
  6
Continuous
 62
     7
100
AcDbCircle
 10
17.8419133238
 20
490.89202053
 30
0.0
 40
1.988741584785555
100
AcDbArc
 50
183.1711270704
 51
265.6434838746
  0
ARC
  5
98
330
8D
100
AcDbEntity
  8
04676329_ROHLING
  6
Continuous
 62
     7
100
AcDbCircle
 10
174.5827407657
 20
497.7673076181
 30
0.0
 40
158.880155425334
100
AcDbArc
 50
179.9685256221
 51
180.0552140954
  0
ARC
  5
99
330
8D
100
AcDbEntity
  8
04676329_ROHLING
  6
Continuous
 62
     7
100
AcDbCircle
 10
174.5827407657
 20
497.7673076181
 30
0.0
 40
158.880155425334
100
AcDbArc
 50
180.0552140954
 51
182.5198698809
  0
ELLIPSE
  5
9A
330
8D
100
AcDbEntity
  8
04676329_ROHLING
  6
Continuous
 62
     7
100
AcDbEllipse
 10
17.7030344515
 20
497.8526058251
 30
0.0
 11
2.000425119148374
 21
-0.002003705193293071
 31
0.0
210
0.0
220
0.0
230
1.0
 40
0.1826889884
 41
1.659542535298784
 42
3.141658430758628
  0
ELLIPSE
  5
9B
330
8D
100
AcDbEntity
  8
04676329_ROHLING
  6
Continuous
 62
     7
100
AcDbEllipse
 10
17.837523642
 20
503.7184990444
 30
0.0
 11
0.4593786950512456
 21
-1.951226102815326
 31
0.0
210
0.0
220
0.0
230
0.9999999999999998
 40
0.9980507465
 41
2.996571896837963
 42
4.327439594137918
  0
SPLINE
  5
9C
330
8D
100
AcDbEntity
  8
04676329_ROHLING
  6
Continuous
 62
     7
100
AcDbSpline
210
0.0
220
0.0
230
1.0
 70
     8
 71
     3
 72
    38
 73
    34
 74
     0
 42
0.0000000002668412
 43
0.0000000001
 40
0.0
 40
0.0
 40
0.0
 40
0.0
 40
0.0628977067353433
 40
0.1249744714545311
 40
0.1550971637825751
 40
0.1874782240648756
 40
0.2157310016001552
 40
0.2499943672168118
 40
0.2859885311117052
 40
0.3124771072614371
 40
0.3306698898296702
 40
0.3514974881337394
 40
0.3750050247936785
 40
0.4093162632210444
 40
0.4500859132976042
 40
0.4999810174282459
 40
0.5325516746599005
 40
0.5656166473352686
 40
0.5999748358351366
 40
0.6211267731861112
 40
0.637478143486268
 40
0.6498894648278999
 40
0.6749856620705996
 40
0.6925199612612503
 40
0.7124873374401319
 40
0.730454996349057
 40
0.7499948962082257
 40
0.7838566876449513
 40
0.8123012248260253
 40
0.8746497889197594
 40
0.913932036867484
 40
0.946113008321745
 40
1.0
 40
1.0
 40
1.0
 40
1.0
 10
44.39675629931456
 20
475.6494350183091
 30
0.0
 10
44.34448353066811
 20
475.1192160891133
 30
0.0
 10
44.24061552524676
 20
474.065664141916
 30
0.0
 10
44.24329727717353
 20
472.602424259576
 30
0.0
 10
44.2857182568024
 20
471.3555826048353
 30
0.0
 10
44.34271518948733
 20
470.4223340222574
 30
0.0
 10
44.42207836311228
 20
469.4170412973756
 30
0.0
 10
44.51896712068346
 20
468.3315628159857
 30
0.0
 10
44.6316138713776
 20
467.2306454251107
 30
0.0
 10
44.74295805035908
 20
466.3016372698058
 30
0.0
 10
44.84510398241667
 20
465.5465753884446
 30
0.0
 10
44.93481961972957
 20
464.7955287327328
 30
0.0
 10
45.05177923433467
 20
463.8369324804739
 30
0.0
 10
45.20182833205617
 20
462.612555785039
 30
0.0
 10
45.40753879474561
 20
461.0417441419207
 30
0.0
 10
45.61644989428996
 20
459.4602058912719
 30
0.0
 10
45.78348624680858
 20
457.9325660856109
 30
0.0
 10
45.92526623618898
 20
456.5985481213474
 30
0.0
 10
46.03893469444014
 20
455.4004755744041
 30
0.0
 10
46.10904141527963
 20
454.4151333486604
 30
0.0
 10
46.16338050324906
 20
453.7308314505283
 30
0.0
 10
46.17477989357715
 20
452.9753145451935
 30
0.0
 10
46.24561886974246
 20
452.2217587584437
 30
0.0
 10
46.25506127332902
 20
451.3419753325849
 30
0.0
 10
46.28383774900616
 20
450.5677579849236
 30
0.0
 10
46.29702665900663
 20
449.760366149485
 30
0.0
 10
46.28397833892307
 20
448.7531489415794
 30
0.0
 10
46.26281600439874
 20
447.597129417094
 30
0.0
 10
46.15453590870503
 20
445.8331476031811
 30
0.0
 10
46.02343174162228
 20
443.9937340254875
 30
0.0
 10
45.84444099508292
 20
442.1039009419936
 30
0.0
 10
45.73101223692805
 20
440.3310899624864
 30
0.0
 10
45.62339056245342
 20
439.1153175435792
 30
0.0
 10
45.59223446632703
 20
438.3160371026005
 30
0.0
  0
ARC
  5
9D
330
8D
100
AcDbEntity
  8
04676329_ROHLING
  6
Continuous
 62
     7
100
AcDbCircle
 10
-175.8248958962
 20
498.887192807
 30
0.0
 40
221.5216055221234
100
AcDbArc
 50
355.4857807406
 51
357.903154238
  0
ELLIPSE
  5
9E
330
8D
100
AcDbEntity
  8
04676329_ROHLING
  6
Continuous
 62
     7
100
AcDbEllipse
 10
43.5570359379
 20
490.8778008444
 30
0.0
 11
-1.969177647950262
 21
0.3128352945085677
 31
0.0
210
0.0
220
0.0
230
1.0
 40
0.9906971106
 41
1.805860731387386
 42
3.252093494497991
  0
ARC
  5
9F
330
8D
100
AcDbEntity
  8
04676329_ROHLING
  6
Continuous
 62
     7
100
AcDbCircle
 10
-84.9477339137
 20
492.2419598176
 30
0.0
 40
130.404405706582
100
AcDbArc
 50
352.6899269543
 51
355.2537905238
  0
ARC
  5
A0
330
8D
100
AcDbEntity
  8
04676329_ROHLING
  6
Continuous
 62
     7
100
AcDbCircle
 10
-113.4700410834
 20
497.7736474084
 30
0.0
 40
159.1720501977664
100
AcDbArc
 50
359.9423172136
 51
0.0291345795
  0
ARC
  5
A1
330
8D
100
AcDbEntity
  8
04676329_ROHLING
  6
Continuous
 62
     7
100
AcDbCircle
 10
-113.4700410834
 20
497.7736474084
 30
0.0
 40
159.1720501977664
100
AcDbArc
 50
357.4824698284
 51
359.9423172136
  0
SPLINE
  5
A2
330
8D
100
AcDbEntity
  8
04676329_ROHLING
  6
Continuous
 62
     7
100
AcDbSpline
210
0.0
220
0.0
230
1.0
 70
     8
 71
     3
 72
    14
 73
    10
 74
     0
 42
0.0000000052088537
 43
0.0000000001
 40
0.0
 40
0.0
 40
0.0
 40
0.0
 40
0.25
 40
0.25
 40
0.5
 40
0.5
 40
0.75
 40
0.75
 40
1.0
 40
1.0
 40
1.0
 40
1.0
 10
43.87886127013881
 20
498.2103162634875
 30
0.0
 10
44.10296008295577
 20
498.212924045368
 30
0.0
 10
44.33932301433349
 20
498.2019036624611
 30
0.0
 10
44.78959591993419
 20
498.1627442251322
 30
0.0
 10
45.00232511951911
 20
498.1345392609585
 30
0.0
 10
45.35201608622126
 20
498.0652149755055
 30
0.0
 10
45.48805390910412
 20
498.0242766444912
 30
0.0
 10
45.66275008594348
 20
497.9393611723555
 30
0.0
 10
45.70187020668295
 20
497.8955907518036
 30
0.0
 10
45.70198853612017
 20
497.8545854913799
 30
0.0
  0
ARC
  5
A3
330
8D
100
AcDbEntity
  8
04676329_ROHLING
  6
Continuous
 62
     7
100
AcDbCircle
 10
43.5604478685
 20
503.7158571929
 30
0.0
 40
2.007703285259574
100
AcDbArc
 50
8.885158434
 51
84.8635108017
  0
SPLINE
  5
A4
330
8D
100
AcDbEntity
  8
04676329_ROHLING
  6
Continuous
 62
     7
100
AcDbSpline
210
0.0
220
0.0
230
1.0
 70
    12
 71
     3
 72
     8
 73
     4
 74
     0
 42
0.0000000007275089
 43
0.0000000001
 40
0.6950034973669479
 40
0.6950034973669479
 40
0.6950034973669479
 40
0.6950034973669479
 40
0.9845719643362844
 40
0.9845719643362844
 40
0.9845719643362844
 40
0.9845719643362844
 10
12.71847640906559
 20
504.6696417135507
 30
0.0
 41
0.7698287684807595
 10
12.69078591524375
 20
504.0082480606773
 30
0.0
 41
0.8107050705909631
 10
13.83688881686213
 20
503.4037818426479
 30
0.0
 41
0.8819307979608423
 10
15.79566522759256
 20
502.899833557688
 30
0.0
 41
0.9835059505903971
  0
SPLINE
  5
A5
330
8D
100
AcDbEntity
  8
04676329_ROHLING
  6
Continuous
 62
     7
100
AcDbSpline
210
0.0
220
0.0
230
1.0
 70
    12
 71
     3
 72
     8
 73
     4
 74
     0
 42
0.0000000007255019
 43
0.0000000001
 40
0.0136557813944996
 40
0.0136557813944996
 40
0.0136557813944996
 40
0.0136557813944996
 40
0.3057005911520205
 40
0.3057005911520205
 40
0.3057005911520205
 40
0.3057005911520205
 10
45.57663629819235
 20
502.8915530358343
 30
0.0
 41
0.9853743812929446
 10
47.56012107100103
 20
503.3983506203193
 30
0.0
 41
0.8825559014107781
 10
48.72006720591802
 20
504.0076026360863
 30
0.0
 41
0.8106081528419633
 10
48.68588487898169
 20
504.6747234027877
 30
0.0
 41
0.7695311355865002
  0
ARC
  5
A6
330
8D
100
AcDbEntity
  8
04676329_ROHLING
  6
Continuous
 62
     7
100
AcDbCircle
 10
-100.3871219998
 20
495.1527217928
 30
0.0
 40
146.0915795326138
100
AcDbArc
 50
352.3280847993
 51
0.0003282431
  0
ARC
  5
A7
330
8D
100
AcDbEntity
  8
04676329_ROHLING
  6
Continuous
 62
     7
100
AcDbCircle
 10
-100.3871219998
 20
495.1527217928
 30
0.0
 40
146.0915795326138
100
AcDbArc
 50
0.0003282431
 51
0.0121156553
  0
ARC
  5
A8
330
8D
100
AcDbEntity
  8
04676329_ROHLING
  6
Continuous
 62
     7
100
AcDbCircle
 10
-100.3871219998
 20
495.1527217928
 30
0.0
 40
146.0915795326138
100
AcDbArc
 50
1.0807873025
 51
1.2078534861
  0
ARC
  5
A9
330
8D
100
AcDbEntity
  8
04676329_ROHLING
  6
Continuous
 62
     7
100
AcDbCircle
 10
161.9427120026
 20
495.1595515952
 30
0.0
 40
146.2421325049779
100
AcDbArc
 50
180.0023475266
 51
187.6666696213
  0
ARC
  5
AA
330
8D
100
AcDbEntity
  8
04676329_ROHLING
  6
Continuous
 62
     7
100
AcDbCircle
 10
161.9427120026
 20
495.1595515952
 30
0.0
 40
146.2421325049779
100
AcDbArc
 50
179.9905816636
 51
180.0023475266
  0
ARC
  5
AB
330
8D
100
AcDbEntity
  8
04676329_ROHLING
  6
Continuous
 62
     7
100
AcDbCircle
 10
161.9427120026
 20
495.1595515952
 30
0.0
 40
146.2421325049779
100
AcDbArc
 50
178.7987428241
 51
178.9228168482
  0
LINE
  5
AC
330
8D
100
AcDbEntity
  8
04676329_ROHLING
  6
Continuous
 62
     7
100
AcDbLine
 10
16.1877083845
 20
385.469274828
 30
0.0
 11
45.2168894669
 21
385.469274828
 31
0.0
  0
LINE
  5
AD
330
8D
100
AcDbEntity
  8
04676329_ROHLING
  6
Continuous
 62
     7
100
AcDbLine
 10
17.9448035029
 20
505.726812802
 30
0.0
 11
17.666221167
 21
505.705717475
 31
0.0
  0
ARC
  5
AE
330
8D
100
AcDbEntity
  8
04676329_ROHLING
  6
Continuous
 62
     7
100
AcDbCircle
 10
30.70549669
 20
358.3199785239
 30
0.0
 40
147.9581362497961
100
AcDbArc
 50
86.6685910952
 51
94.947638042
  0
LINE
  5
AF
330
8D
100
AcDbEntity
  8
04676329_ROHLING
  6
Continuous
 62
     7
100
AcDbLine
 10
39.4760458756
 20
506.0206125738
 30
0.0
 11
39.3035360501
 21
506.0280818956
 31
0.0
  0
ARC
  5
B0
330
8D
100
AcDbEntity
  8
04676329_ROHLING
  6
Continuous
 62
     7
100
AcDbCircle
 10
154.9582479075
 20
498.0812748629
 30
0.0
 40
139.2252664632597
100
AcDbArc
 50
177.5519893577
 51
180.0672612033
  0
ARC
  5
B1
330
8D
100
AcDbEntity
  8
04676329_ROHLING
  6
Continuous
 62
     7
100
AcDbCircle
 10
-77.8171415447
 20
498.3775082346
 30
0.0
 40
123.4894944602932
100
AcDbArc
 50
359.7866319499
 51
2.625921704
  0
SPLINE
  5
B2
330
8D
100
AcDbEntity
  8
04676329_ROHLING
  6
Continuous
 62
     7
100
AcDbSpline
210
0.0
220
0.0
230
1.0
 70
     8
 71
     3
 72
    19
 73
    15
 74
     0
 42
0.0000000003176351
 43
0.0000000001
 40
0.0
 40
0.0
 40
0.0
 40
0.0
 40
0.0122369582159104
 40
0.0223817200965789
 40
0.0303981137493291
 40
0.0362733352370088
 40
0.042038881184486
 40
0.047224212372295
 40
0.0529198940144997
 40
0.0590779637092149
 40
0.0654351177517371
 40
0.0719747587679273
 40
0.0786999802208963
 40
0.0788140293365628
 40
0.0788140293365628
 40
0.0788140293365628
 40
0.0788140293365628
 10
48.68614367276771
 20
504.6691048334004
 30
0.0
 10
48.67570502332782
 20
504.8042287682576
 30
0.0
 10
48.65705392789499
 20
505.0126127837582
 30
0.0
 10
48.57346495442859
 20
505.33054972356
 30
0.0
 10
48.47708625247471
 20
505.57900206697
 30
0.0
 10
48.37830774856626
 20
505.7808183033981
 30
0.0
 10
48.26507280407963
 20
505.9723220864991
 30
0.0
 10
48.1502195621002
 20
506.1348393831463
 30
0.0
 10
48.03757606731156
 20
506.2747598501811
 30
0.0
 10
47.92099846593262
 20
506.4036534331917
 30
0.0
 10
47.79352382531929
 20
506.5300623628706
 30
0.0
 10
47.65928592013555
 20
506.6497864859692
 30
0.0
 10
47.56575209899621
 20
506.7253220417692
 30
0.0
 10
47.51738250936964
 20
506.7625950704998
 30
0.0
 10
47.51657576175917
 20
506.7632162495908
 30
0.0
  0
SPLINE
  5
B3
330
8D
100
AcDbEntity
  8
04676329_ROHLING
  6
Continuous
 62
     7
100
AcDbSpline
210
0.0
220
0.0
230
1.0
 70
     8
 71
     3
 72
    14
 73
    10
 74
     0
 42
0.0000000003167695
 43
0.0000000001
 40
0.9212465491351112
 40
0.9212465491351112
 40
0.9212465491351112
 40
0.9212465491351112
 40
0.9286249030712889
 40
0.9413449015864743
 40
0.9527587137716922
 40
0.966218588346774
 40
0.9764923046124105
 40
0.987775847704335
 40
1.0
 40
1.0
 40
1.0
 40
1.0
 10
13.88943536565003
 20
506.7643908733918
 30
0.0
 10
13.83732657615618
 20
506.7243804238424
 30
0.0
 10
13.69706660171888
 20
506.6109446205724
 30
0.0
 10
13.47092411867419
 20
506.397491746446
 30
0.0
 10
13.23119659710689
 20
506.1142281672559
 30
0.0
 10
13.02695638392978
 20
505.7980456356068
 30
0.0
 10
12.86631382015132
 20
505.4439674992233
 30
0.0
 10
12.75462187018097
 20
505.0686802945978
 30
0.0
 10
12.73130344700698
 20
504.8219298343248
 30
0.0
 10
12.71845417503809
 20
504.6691047444213
 30
0.0
  0
SPLINE
  5
B4
330
8D
100
AcDbEntity
  8
04676329_ROHLING
  6
Continuous
 62
     7
100
AcDbSpline
210
0.0
220
0.0
230
1.0
 70
     8
 71
     3
 72
    23
 73
    19
 74
     0
 42
0.0000000000939359
 43
0.0000000001
 40
0.0
 40
0.0
 40
0.0
 40
0.0
 40
0.0743575442156967
 40
0.1472022062028029
 40
0.2185403199419477
 40
0.2883780526573828
 40
0.3567213993993795
 40
0.4223953641641839
 40
0.4866387939923739
 40
0.5494568625302219
 40
0.6108545717196558
 40
0.6720461697949754
 40
0.73176881372796
 40
0.7900272570269073
 40
0.8468260624456195
 40
0.9021696012593584
 40
0.9560620525983334
 40
1.0
 40
1.0
 40
1.0
 40
1.0
 10
12.7185600486127
 20
504.6715589489917
 30
0.0
 10
12.58710898927438
 20
501.7658632319767
 30
0.0
 10
12.36793459396482
 20
496.9208484674334
 30
0.0
 10
12.01046566460528
 20
489.0074683058695
 30
0.0
 10
11.66912428322612
 20
481.4465494904906
 30
0.0
 10
11.3329282636269
 20
473.9975942433982
 30
0.0
 10
11.00642583479757
 20
466.76433271224
 30
0.0
 10
10.68867824705971
 20
459.7282620534491
 30
0.0
 10
10.37969004687569
 20
452.8911750898872
 30
0.0
 10
10.07736573138733
 20
446.2078509222053
 30
0.0
 10
9.779729308143983
 20
439.635204900102
 30
0.0
 10
9.486870267370987
 20
433.1752368871172
 30
0.0
 10
9.198848731890465
 20
426.8285300363188
 30
0.0
 10
8.917963123912628
 20
420.6439578775625
 30
0.0
 10
8.64360812015405
 20
414.6056504315562
 30
0.0
 10
8.3784847286201
 20
408.7690340186718
 30
0.0
 10
8.127563689063335
 20
403.240821425952
 30
0.0
 10
7.982300638337495
 20
400.0311167002647
 30
0.0
 10
7.905085277605813
 20
398.3249016125345
 30
0.0
  0
LINE
  5
B5
330
8D
100
AcDbEntity
  8
04676329_ROHLING
  6
Continuous
 62
     7
100
AcDbLine
 10
53.5004782805
 20
398.3049173076
 30
0.0
 11
48.6858870847
 21
504.6746806238
 31
0.0
  0
ARC
  5
B6
330
8D
100
AcDbEntity
  8
04676329_ROHLING
  6
Continuous
 62
     7
100
AcDbCircle
 10
2130.1724820829
 20
496.1980834163
 30
0.0
 40
2084.470889083929
100
AcDbArc
 50
179.9611182153
 51
180.0278856866
  0
ARC
  5
B7
330
8D
100
AcDbEntity
  8
04676329_ROHLING
  6
Continuous
 62
     7
100
AcDbCircle
 10
-2068.8310408097
 20
496.1979947803
 30
0.0
 40
2084.534045707108
100
AcDbArc
 50
359.9721169667
 51
0.0388830959
  0
ARC
  5
B8
330
8D
100
AcDbEntity
  8
04676329_ROHLING
  6
Continuous
 62
     7
100
AcDbCircle
 10
-276.0364812472
 20
426.5869723401
 30
0.0
 40
285.3446629651147
100
AcDbArc
 50
352.2652786899
 51
354.3156222342
  0
ARC
  5
B9
330
8D
100
AcDbEntity
  8
04676329_ROHLING
  6
Continuous
 62
     7
100
AcDbCircle
 10
380.4383916473
 20
431.6330418558
 30
0.0
 40
328.6312313643789
100
AcDbArc
 50
185.8173067131
 51
187.5976543297
  0
SPLINE
  5
BA
330
8D
100
AcDbEntity
  8
04676329_ROHLING
  6
Continuous
 62
     7
100
AcDbSpline
210
0.0
220
0.0
230
1.0
 70
     8
 71
     3
 72
    14
 73
    10
 74
     0
 42
0.0000000029548054
 43
0.0000000001
 40
0.0
 40
0.0
 40
0.0
 40
0.0
 40
0.1374674148713055
 40
0.2868018226025166
 40
0.4444436709556961
 40
0.6053381430694597
 40
0.7711235946652616
 40
0.9282798051002926
 40
1.0
 40
1.0
 40
1.0
 40
1.0
 10
52.8227199405325
 20
385.8678808987803
 30
0.0
 10
52.99043683801194
 20
385.8864065118532
 30
0.0
 10
53.2873787604506
 20
385.9244791618282
 30
0.0
 10
53.75675228768916
 20
386.1303455202058
 30
0.0
 10
54.16912756222766
 20
386.4543592026151
 30
0.0
 10
54.4967490144349
 20
386.8956954962644
 30
0.0
 10
54.68615791966645
 20
387.4022379938045
 30
0.0
 10
54.74104877362884
 20
387.8594427933032
 30
0.0
 10
54.69554119536962
 20
388.0953579144516
 30
0.0
 10
54.67802165320671
 20
388.1816313292914
 30
0.0
  0
SPLINE
  5
BB
330
8D
100
AcDbEntity
  8
04676329_ROHLING
  6
Continuous
 62
     7
100
AcDbSpline
210
0.0
220
0.0
230
1.0
 70
     8
 71
     3
 72
    14
 73
    10
 74
     0
 42
0.000000002953813
 43
0.0000000001
 40
0.0
 40
0.0
 40
0.0
 40
0.0
 40
0.0651552835167236
 40
0.2144470147428644
 40
0.3720438125062783
 40
0.5328923045015972
 40
0.6986303782440733
 40
0.8557416768740226
 40
1.0
 40
1.0
 40
1.0
 40
1.0
 10
6.725354539069095
 20
388.1828030379219
 30
0.0
 10
6.709223458060579
 20
388.1044473291972
 30
0.0
 10
6.665790292280847
 20
387.8835373136826
 30
0.0
 10
6.709735735071702
 20
387.4520692884366
 30
0.0
 10
6.877049024787532
 20
386.9572472743993
 30
0.0
 10
7.187462198350245
 20
386.5036228972712
 30
0.0
 10
7.603565699440262
 20
386.154804831363
 30
0.0
 10
8.093653446009517
 20
385.9290727336202
 30
0.0
 10
8.405882181061953
 20
385.8878340164786
 30
0.0
 10
8.581877910910464
 20
385.8678808987803
 30
0.0
  0
LINE
  5
BC
330
8D
100
AcDbEntity
  8
04676329_ROHLING
  6
Continuous
 62
     7
100
AcDbLine
 10
8.5806475959
 20
385.8679453771
 30
0.0
 11
16.1877083845
 21
385.469274828
 31
0.0
  0
LINE
  5
BD
330
8D
100
AcDbEntity
  8
04676329_ROHLING
  6
Continuous
 62
     7
100
AcDbLine
 10
45.2168894669
 20
385.469274828
 30
0.0
 11
52.8239502555
 21
385.8679453771
 31
0.0
  0
ELLIPSE
  5
BF
330
8D
100
AcDbEntity
  8
E05099
  6
Continuous
 62
     7
100
AcDbEllipse
 10
30.7022989257
 20
555.1384808515
 30
0.0
 11
14.99999999999972
 21
0.0
 31
0.0
210
0.0
220
0.0
230
1.0
 40
0.1736481777
 41
4.995331420819761
 42
6.283185307179586
  0
ELLIPSE
  5
C0
330
8D
100
AcDbEntity
  8
E05099
  6
Continuous
 62
     7
100
AcDbEllipse
 10
30.7022989257
 20
555.1384808515
 30
0.0
 11
14.99999999999972
 21
0.0
 31
0.0
210
0.0
220
0.0
230
1.0
 40
0.1736481777
 41
1.799484066076811
 42
4.429446622611006
  0
ELLIPSE
  5
C1
330
8D
100
AcDbEntity
  8
E05099
  6
Continuous
 62
     7
100
AcDbEllipse
 10
30.7022989257
 20
555.1384808515
 30
0.0
 11
14.99999999999972
 21
0.0
 31
0.0
210
0.0
220
0.0
230
1.0
 40
0.1736481777
 41
0.0
 42
1.342108563483355
  0
ELLIPSE
  5
C2
330
8D
100
AcDbEntity
  8
E05099
  6
Continuous
 62
     7
100
AcDbEllipse
 10
30.7022989257
 20
507.8677087069
 30
0.0
 11
-18.0
 21
-1.387778780781446E-14
 31
0.0
210
0.0
220
0.0
230
1.0
 40
0.1736481777
 41
2.380906353812049
 42
3.141592653589789
  0
ELLIPSE
  5
C3
330
8D
100
AcDbEntity
  8
E05099
  6
Continuous
 62
     7
100
AcDbEllipse
 10
30.7022989257
 20
507.8677087069
 30
0.0
 11
-18.0
 21
-1.387778780781446E-14
 31
0.0
210
0.0
220
0.0
230
1.0
 40
0.1736481777
 41
0.0
 42
0.7606839351943112
  0
ELLIPSE
  5
C4
330
8D
100
AcDbEntity
  8
E05099
  6
Continuous
 62
     7
100
AcDbEllipse
 10
30.7022989257
 20
552.1840575925
 30
0.0
 11
17.99999999999999
 21
-2.775557561562891E-14
 31
0.0
210
0.0
220
0.0
230
1.0
 40
0.1736481777
 41
3.141592653589838
 42
3.991887196755204
  0
ELLIPSE
  5
C5
330
8D
100
AcDbEntity
  8
E05099
  6
Continuous
 62
     7
100
AcDbEllipse
 10
30.7022989257
 20
552.1840575925
 30
0.0
 11
17.99999999999999
 21
-2.775557561562891E-14
 31
0.0
210
0.0
220
0.0
230
1.0
 40
0.1736481777
 41
-0.8502944784743008
 42
0.0000000000000089
  0
LINE
  5
C6
330
8D
100
AcDbEntity
  8
E05099
  6
Continuous
 62
     7
100
AcDbLine
 10
25.6283031869
 20
547.2859646375
 30
0.0
 11
25.6283031869
 21
537.9580666811
 31
0.0
  0
ELLIPSE
  5
C7
330
8D
100
AcDbEntity
  8
E05099
  6
Continuous
 62
     7
100
AcDbEllipse
 10
5.6313492812
 20
547.2253530922
 30
0.0
 11
20.00000000000007
 21
-1.942890293094024E-13
 31
0.0
210
0.0
220
0.0
230
1.0
 40
0.1736481777
 41
0.0174532849921899
 42
0.8502945431653752
  0
ARC
  5
C8
330
8D
100
AcDbEntity
  8
E05099
  6
Continuous
 62
     7
100
AcDbCircle
 10
1014.131681625
 20
547.2720193355
 30
0.0
 40
978.3553852072131
100
AcDbArc
 50
179.8199657043
 51
179.9991832966
  0
ELLIPSE
  5
C9
330
8D
100
AcDbEntity
  8
E05099
  6
Continuous
 62
     7
100
AcDbEllipse
 10
55.7732504176
 20
547.2253533738
 30
0.0
 11
-19.99999999999984
 21
-8.326672684688674E-14
 31
0.0
210
0.0
220
0.0
230
1.0
 40
0.1736481777
 41
5.432890828705282
 42
6.265732006886402
  0
SPLINE
  5
CA
330
8D
100
AcDbEntity
  8
E05099
  6
Continuous
 62
     7
100
AcDbSpline
210
0.0
220
0.0
230
1.0
 70
     8
 71
     3
 72
    14
 73
    10
 74
     0
 42
0.0000000004980703
 43
0.0000000001
 40
0.0
 40
0.0
 40
0.0
 40
0.0
 40
0.25
 40
0.25
 40
0.5
 40
0.5
 40
0.75
 40
0.75
 40
1.0
 40
1.0
 40
1.0
 40
1.0
 10
18.82658593620481
 20
519.1061860070232
 30
0.0
 10
19.57139374183348
 20
521.042823289838
 30
0.0
 10
20.30084618164516
 20
522.9916881401228
 30
0.0
 10
21.71182632347608
 20
526.7278069262605
 30
0.0
 10
22.40328572197973
 20
528.5389175484685
 30
0.0
 10
23.69169223411868
 20
531.8897305147817
 30
0.0
 10
24.29374337604325
 20
533.4374495019567
 30
0.0
 10
25.25413054661323
 20
536.1351506776031
 30
0.0
 10
25.592158282723
 20
537.222308106055
 30
0.0
 10
25.62830318694165
 20
537.9580666811358
 30
0.0
  0
ARC
  5
CB
330
8D
100
AcDbEntity
  8
E05099
  6
Continuous
 62
     7
100
AcDbCircle
 10
-952.7280114325
 20
547.272018999
 30
0.0
 40
978.3563147188354
100
AcDbArc
 50
0.0008167027
 51
0.1800341487
  0
ELLIPSE
  5
CC
330
8D
100
AcDbEntity
  8
E05099
  6
Continuous
 62
     7
100
AcDbEllipse
 10
27.2143882188
 20
558.6321628831
 30
0.0
 11
0.01515967410075161
 21
-5.000000013441808
 31
0.0
210
0.0
220
0.0
230
0.9999999999999999
 40
0.0171897179
 41
0.6129711343998596
 42
1.328296623805903
  0
ELLIPSE
  5
CD
330
8D
100
AcDbEntity
  8
E05099
  6
Continuous
 62
     7
100
AcDbEllipse
 10
27.2143882188
 20
558.6321628831
 30
0.0
 11
0.01515967410075161
 21
-5.000000013441808
 31
0.0
210
0.0
220
0.0
230
0.9999999999999999
 40
0.0171897179
 41
0.0348544669357058
 42
0.6129711343998596
  0
ELLIPSE
  5
CE
330
8D
100
AcDbEntity
  8
E05099
  6
Continuous
 62
     7
100
AcDbEllipse
 10
27.5104455742
 20
554.5552959892
 30
0.0
 11
0.03638321769457815
 21
-11.99999998370169
 31
0.0
210
0.0
220
0.0
230
0.9999999999999999
 40
0.0171897179
 41
0.0348544669360148
 42
0.5757539245620095
  0
ELLIPSE
  5
CF
330
8D
100
AcDbEntity
  8
E05099
  6
Continuous
 62
     7
100
AcDbEllipse
 10
27.5104455742
 20
554.5552959892
 30
0.0
 11
0.03638321769457815
 21
-11.99999998370169
 31
0.0
210
0.0
220
0.0
230
0.9999999999999999
 40
0.0171897179
 41
0.5757539245620095
 42
2.596938665817048
  0
ELLIPSE
  5
D0
330
8D
100
AcDbEntity
  8
E05099
  6
Continuous
 62
     7
100
AcDbEllipse
 10
27.5104455742
 20
554.5552959892
 30
0.0
 11
0.03638321769457815
 21
-11.99999998370169
 31
0.0
210
0.0
220
0.0
230
0.9999999999999999
 40
0.0171897179
 41
2.596938665817048
 42
4.121836237164494
  0
ELLIPSE
  5
D1
330
8D
100
AcDbEntity
  8
E05099
  6
Continuous
 62
     7
100
AcDbEllipse
 10
27.5104455742
 20
554.5552959892
 30
0.0
 11
0.03638321769457815
 21
-11.99999998370169
 31
0.0
210
0.0
220
0.0
230
0.9999999999999999
 40
0.0171897179
 41
4.121836237164494
 42
4.470274003560309
  0
LINE
  5
D2
330
8D
100
AcDbEntity
  8
E05099
  6
Continuous
 62
     7
100
AcDbLine
 10
25.7179604149
 20
538.80964272
 30
0.0
 11
27.5539949001
 21
542.562606065
 31
0.0
  0
ARC
  5
D3
330
8D
100
AcDbEntity
  8
E05099
  6
Continuous
 62
     7
100
AcDbCircle
 10
30.0494186388
 20
537.9231022501
 30
0.0
 40
4.421253707920956
100
AcDbArc
 50
168.4327544744
 51
179.5468852631
  0
ELLIPSE
  5
D4
330
8D
100
AcDbEntity
  8
E05099
  6
Continuous
 62
     7
100
AcDbEllipse
 10
27.6231688539
 20
550.3522552128
 30
0.0
 11
1.796532097282396
 21
-0.8789041036618706
 31
0.0
210
0.0
220
0.0
230
1.0
 40
0.9992451934
 41
3.141592653589793
 42
3.599911795610852
  0
LINE
  5
D5
330
8D
100
AcDbEntity
  8
E05099
  6
Continuous
 62
     7
100
AcDbLine
 10
35.7762965172
 20
537.9580661211
 30
0.0
 11
35.7762965172
 21
547.2859649723
 31
0.0
  0
SPLINE
  5
D6
330
8D
100
AcDbEntity
  8
E05099
  6
Continuous
 62
     7
100
AcDbSpline
210
0.0
220
0.0
230
1.0
 70
     8
 71
     3
 72
    14
 73
    10
 74
     0
 42
0.0000000004980703
 43
0.0000000001
 40
0.0
 40
0.0
 40
0.0
 40
0.0
 40
0.25
 40
0.25
 40
0.5
 40
0.5
 40
0.75
 40
0.75
 40
1.0
 40
1.0
 40
1.0
 40
1.0
 10
35.77629651716298
 20
537.9580661211288
 30
0.0
 10
35.81244144927933
 20
537.2223073809276
 30
0.0
 10
36.15046914461174
 20
536.1351498676481
 30
0.0
 10
37.11085615585997
 20
533.4374486695685
 30
0.0
 10
37.71290720719384
 20
531.8897296830485
 30
0.0
 10
39.00131350722079
 20
528.5389168423147
 30
0.0
 10
39.69277279623662
 20
526.7278063112575
 30
0.0
 10
41.1037527360786
 20
522.9916877148679
 30
0.0
 10
41.83320507752536
 20
521.0428229756077
 30
0.0
 10
42.57801279028489
 20
519.1061858009278
 30
0.0
  0
ELLIPSE
  5
D7
330
8D
100
AcDbEntity
  8
E05099
  6
Continuous
 62
     7
100
AcDbEllipse
 10
34.1902100604
 20
558.6321628778
 30
0.0
 11
-0.01515968740156519
 21
-5.000000013441753
 31
0.0
210
0.0
220
0.0
230
1.0
 40
0.017189733
 41
-0.6457551492389335
 42
-0.0348544668447497
  0
ELLIPSE
  5
D8
330
8D
100
AcDbEntity
  8
E05099
  6
Continuous
 62
     7
100
AcDbEllipse
 10
34.1902100604
 20
558.6321628778
 30
0.0
 11
-0.01515968740156519
 21
-5.000000013441753
 31
0.0
210
0.0
220
0.0
230
1.0
 40
0.017189733
 41
-1.328296623714499
 42
-0.6457551492389335
  0
ELLIPSE
  5
D9
330
8D
100
AcDbEntity
  8
E05099
  6
Continuous
 62
     7
100
AcDbEllipse
 10
33.8941524454
 20
554.5552959839
 30
0.0
 11
-0.03638324961652891
 21
-11.99999998370171
 31
0.0
210
0.0
220
0.0
230
1.0
 40
0.017189733
 41
-4.470274003468884
 42
-3.971956935904825
  0
ELLIPSE
  5
DA
330
8D
100
AcDbEntity
  8
E05099
  6
Continuous
 62
     7
100
AcDbEllipse
 10
33.8941524454
 20
554.5552959839
 30
0.0
 11
-0.03638324961652891
 21
-11.99999998370171
 31
0.0
210
0.0
220
0.0
230
1.0
 40
0.017189733
 41
2.311228371274761
 42
3.715037781719758
  0
ELLIPSE
  5
DB
330
8D
100
AcDbEntity
  8
E05099
  6
Continuous
 62
     7
100
AcDbEllipse
 10
33.8941524454
 20
554.5552959839
 30
0.0
 11
-0.03638324961652891
 21
-11.99999998370171
 31
0.0
210
0.0
220
0.0
230
1.0
 40
0.017189733
 41
3.715037781719758
 42
5.734564251757945
  0
ELLIPSE
  5
DC
330
8D
100
AcDbEntity
  8
E05099
  6
Continuous
 62
     7
100
AcDbEllipse
 10
33.8941524454
 20
554.5552959839
 30
0.0
 11
-0.03638324961652891
 21
-11.99999998370171
 31
0.0
210
0.0
220
0.0
230
1.0
 40
0.017189733
 41
-0.5486210554216413
 42
-0.0348544668442496
  0
LINE
  5
DD
330
8D
100
AcDbEntity
  8
E05099
  6
Continuous
 62
     7
100
AcDbLine
 10
33.8506030812
 20
542.5626060597
 30
0.0
 11
35.6866391788
 21
538.8096427098
 31
0.0
  0
ARC
  5
DE
330
8D
100
AcDbEntity
  8
E05099
  6
Continuous
 62
     7
100
AcDbCircle
 10
31.3551812165
 20
537.9231017169
 30
0.0
 40
4.421253556579125
100
AcDbArc
 50
0.4531144062
 51
11.5672528462
  0
ELLIPSE
  5
DF
330
8D
100
AcDbEntity
  8
E05099
  6
Continuous
 62
     7
100
AcDbEllipse
 10
33.781430854
 20
550.3522551448
 30
0.0
 11
-1.796531793040193
 21
-0.8789047255505777
 31
0.0
210
0.0
220
0.0
230
1.0
 40
0.9992451931
 41
2.683273162488545
 42
3.14159265358984
  0
ELLIPSE
  5
E0
330
8D
100
AcDbEntity
  8
E05099
  6
Continuous
 62
     7
100
AcDbEllipse
 10
30.7022989257
 20
555.1384808515
 30
0.0
 11
-5.00000000000017
 21
0.0
 31
0.0
210
0.0
220
0.0
230
1.0
 40
0.1736481777
 41
5.728741527241917
 42
6.283185307179586
  0
ELLIPSE
  5
E1
330
8D
100
AcDbEntity
  8
E05099
  6
Continuous
 62
     7
100
AcDbEllipse
 10
30.7022989257
 20
555.1384808515
 30
0.0
 11
-5.00000000000017
 21
0.0
 31
0.0
210
0.0
220
0.0
230
1.0
 40
0.1736481777
 41
2.329073432967264
 42
3.69603643352747
  0
ELLIPSE
  5
E2
330
8D
100
AcDbEntity
  8
E05099
  6
Continuous
 62
     7
100
AcDbEllipse
 10
30.7022989257
 20
555.1384808515
 30
0.0
 11
-5.00000000000017
 21
0.0
 31
0.0
210
0.0
220
0.0
230
1.0
 40
0.1736481777
 41
0.0
 42
0.8138119185565346
  0
LINE
  5
E3
330
8D
100
AcDbEntity
  8
E05099
  6
Continuous
 62
     7
100
AcDbLine
 10
31.9308295541
 20
568.5613571438
 30
0.0
 11
29.4737684979
 21
568.5613571438
 31
0.0
  0
SPLINE
  5
E4
330
8D
100
AcDbEntity
  8
E05099
  6
Continuous
 62
     7
100
AcDbSpline
210
0.0
220
0.0
230
1.0
 70
     8
 71
     3
 72
    38
 73
    34
 74
     0
 42
0.0000000002569102
 43
0.0000000001
 40
0.0
 40
0.0
 40
0.0
 40
0.0
 40
0.0085860139424478
 40
0.0175147581911017
 40
0.0263742906567804
 40
0.0352171323661541
 40
0.044102716663572
 40
0.0531030998323533
 40
0.0623104929323706
 40
0.0718468507836025
 40
0.0818754924951912
 40
0.0926160756294911
 40
0.104365943311101
 40
0.1175291867126374
 40
0.1326316460148805
 40
0.1501712281653865
 40
0.1698429916898041
 40
0.1896008099534465
 40
0.2083551740807364
 40
0.2262679369554238
 40
0.2435899146889614
 40
0.2604967090623104
 40
0.2771033714291535
 40
0.293486921917084
 40
0.3097006821735528
 40
0.3257827731287902
 40
0.3417612392216212
 40
0.3576572417571724
 40
0.3734871178652918
 40
0.3892637508108838
 40
0.4049975088109581
 40
0.4206969057361199
 40
0.4346417349245424
 40
0.4346417349245424
 40
0.4346417349245424
 40
0.4346417349245424
 10
48.70229892572137
 20
552.1840575924576
 30
0.0
 10
48.69878655993575
 20
552.3165762007415
 30
0.0
 10
48.69110121725193
 20
552.5443200960659
 30
0.0
 10
48.63066731172104
 20
552.9153460371913
 30
0.0
 10
48.53499599668555
 20
553.2675794101353
 30
0.0
 10
48.40544801976214
 20
553.6034313384622
 30
0.0
 10
48.24692285335654
 20
553.9175289389757
 30
0.0
 10
48.06292331835843
 20
554.2097262615939
 30
0.0
 10
47.85657489392328
 20
554.4800301184346
 30
0.0
 10
47.62964911384257
 20
554.7299938490041
 30
0.0
 10
47.38204383187382
 20
554.9622313977961
 30
0.0
 10
47.11104940922031
 20
555.1803509290746
 30
0.0
 10
46.81047240884281
 20
555.3887539902559
 30
0.0
 10
46.46953204449905
 20
555.5924138102049
 30
0.0
 10
46.07269679975476
 20
555.795944199528
 30
0.0
 10
45.60597840879768
 20
556.0002131283511
 30
0.0
 10
45.07393451558985
 20
556.1980413214025
 30
0.0
 10
44.49809265089202
 20
556.3809703779256
 30
0.0
 10
43.90468377122698
 20
556.5443219632411
 30
0.0
 10
43.30288777326248
 20
556.6898318001453
 30
0.0
 10
42.68924625712999
 20
556.821364472168
 30
0.0
 10
42.0601519639668
 20
556.9415918769434
 30
0.0
 10
41.41346888586229
 20
557.0521377113645
 30
0.0
 10
40.74821088597214
 20
557.1539828989291
 30
0.0
 10
40.06417164026495
 20
557.2477235275076
 30
0.0
 10
39.3616810744191
 20
557.333719285115
 30
0.0
 10
38.64145185354466
 20
557.4121808015026
 30
0.0
 10
37.90447997068448
 20
557.4832231440114
 30
0.0
 10
37.15197762647865
 20
557.5468998889974
 30
0.0
 10
36.38532586702478
 20
557.6032255759957
 30
0.0
 10
35.60603967941795
 20
557.6521909367982
 30
0.0
 10
34.84472126180575
 20
557.6922486430374
 30
0.0
 10
34.34100289901254
 20
557.7140458683908
 30
0.0
 10
34.10288144072454
 20
557.7233231139584
 30
0.0
  0
SPLINE
  5
E5
330
8D
100
AcDbEntity
  8
E05099
  6
Continuous
 62
     7
100
AcDbSpline
210
0.0
220
0.0
230
1.0
 70
     8
 71
     3
 72
    38
 73
    34
 74
     0
 42
0.0000000002569077
 43
0.0000000001
 40
0.5653970648416616
 40
0.5653970648416616
 40
0.5653970648416616
 40
0.5653970648416616
 40
0.5770258852494201
 40
0.5926879998846591
 40
0.6083739027889074
 40
0.6240898531345839
 40
0.6398431606559499
 40
0.6556425360970333
 40
0.6714985601852592
 40
0.6874243261432506
 40
0.7034363403167144
 40
0.7195558142974895
 40
0.7358105642636456
 40
0.7522378749172539
 40
0.7688889313212609
 40
0.7858358391245821
 40
0.8031828692897083
 40
0.8210838466237957
 40
0.8397629464638895
 40
0.859494879105393
 40
0.8770062216867127
 40
0.891778904695999
 40
0.9045928672653418
 40
0.9160527762559624
 40
0.9265631567382687
 40
0.9364113680744235
 40
0.94580304494163
 40
0.9548835791860931
 40
0.9637537946275789
 40
0.9724829412561686
 40
0.9820316523454345
 40
0.9913834256212287
 40
1.0
 40
1.0
 40
1.0
 40
1.0
 10
27.30121200756955
 20
557.7233034423512
 30
0.0
 10
27.10264008657155
 20
557.7155658426252
 30
0.0
 10
26.63853234964813
 20
557.6958137684403
 30
0.0
 10
25.91593510848814
 20
557.6588648262402
 30
0.0
 10
25.13701510453144
 20
557.6111392843778
 30
0.0
 10
24.37097521016597
 20
557.5561330241211
 30
0.0
 10
23.61942825598116
 20
557.4938845921051
 30
0.0
 10
22.88388484736574
 20
557.4244199529054
 30
0.0
 10
22.16573078354243
 20
557.3477425987228
 30
0.0
 10
21.46619880526086
 20
557.2638195612534
 30
0.0
 10
20.78633196595662
 20
557.1725612480396
 30
0.0
 10
20.1269343851186
 20
557.0737916931411
 30
0.0
 10
19.48850255935175
 20
556.9672034368031
 30
0.0
 10
18.8711259931226
 20
556.8522869096195
 30
0.0
 10
18.27433836751174
 20
556.7282157883301
 30
0.0
 10
17.69688843490763
 20
556.5936537976785
 30
0.0
 10
17.13638634511844
 20
556.4464154081686
 30
0.0
 10
16.58880871816654
 20
556.2828651911437
 30
0.0
 10
16.04821390289968
 20
556.096927534486
 30
0.0
 10
15.53894500977356
 20
555.8914328834978
 30
0.0
 10
15.08358031284902
 20
555.6732060955933
 30
0.0
 10
14.69755363775437
 20
555.4545210496703
 30
0.0
 10
14.36745885596378
 20
555.2351034852315
 30
0.0
 10
14.07666265730777
 20
555.0089623496914
 30
0.0
 10
13.8154615293562
 20
554.7709605531287
 30
0.0
 10
13.57920879859673
 20
554.5172603852089
 30
0.0
 10
13.36656982968673
 20
554.245281008409
 30
0.0
 10
13.17843904267404
 20
553.9537420564563
 30
0.0
 10
13.0172171960514
 20
553.643144367454
 30
0.0
 10
12.88098945414205
 20
553.3029550238412
 30
0.0
 10
12.77836194625573
 20
552.9390166084809
 30
0.0
 10
12.7135797846001
 20
552.5520376916912
 30
0.0
 10
12.70654714828554
 20
552.3181937257727
 30
0.0
 10
12.70351359941819
 20
552.1851747389072
 30
0.0
  0
LINE
  5
E6
330
8D
100
AcDbEntity
  8
E05099
  6
Continuous
 62
     7
100
AcDbLine
 10
48.7022989257
 20
507.8677087069
 30
0.0
 11
48.7022989257
 21
552.1840575925
 31
0.0
  0
LINE
  5
E7
330
8D
100
AcDbEntity
  8
E05099
  6
Continuous
 62
     7
100
AcDbLine
 10
12.7022989257
 20
552.1840575925
 30
0.0
 11
12.7022989257
 21
507.8677087069
 31
0.0
  0
LINE
  5
E8
330
8D
100
AcDbEntity
  8
E05099
  6
Continuous
 62
     7
100
AcDbLine
 10
27.2650095015
 20
554.1712784869
 30
0.0
 11
25.8266367566
 21
551.2311593163
 31
0.0
  0
SPLINE
  5
E9
330
8D
100
AcDbEntity
  8
E05099
  6
Continuous
 62
     7
100
AcDbSpline
210
0.0
220
0.0
230
1.0
 70
     8
 71
     3
 72
    14
 73
    10
 74
     0
 42
0.0000000093376494
 43
0.0000000001
 40
0.0
 40
0.0
 40
0.0
 40
0.0
 40
0.0796293222168409
 40
0.2168032795987234
 40
0.3510593803497216
 40
0.4642758088517256
 40
0.5632231116026116
 40
0.6433740542783132
 40
0.648532517380186
 40
0.648532517380186
 40
0.648532517380186
 40
0.648532517380186
 10
27.27630699767189
 20
554.5943295467082
 30
0.0
 10
27.27519373271351
 20
554.5411760654222
 30
0.0
 10
27.27261442245943
 20
554.4190937462968
 30
0.0
 10
27.26763151057431
 20
554.2406879665178
 30
0.0
 10
27.26221936962311
 20
554.0839185091019
 30
0.0
 10
27.25743417723862
 20
553.9769558810623
 30
0.0
 10
27.25395100976404
 20
553.91702951244
 30
0.0
 10
27.25265823318528
 20
553.9007313970951
 30
0.0
 10
27.25261248723899
 20
553.9002593871021
 30
0.0
 10
27.25261199408532
 20
553.9002579389647
 30
0.0
  0
ARC
  5
EA
330
8D
100
AcDbEntity
  8
E05099
  6
Continuous
 62
     7
100
AcDbCircle
 10
316.2933683575
 20
558.9139823847
 30
0.0
 40
288.9842174834615
100
AcDbArc
 50
179.3237556198
 51
179.5348807474
  0
SPLINE
  5
EB
330
8D
100
AcDbEntity
  8
E05099
  6
Continuous
 62
     7
100
AcDbSpline
210
0.0
220
0.0
230
1.0
 70
     8
 71
     3
 72
    37
 73
    33
 74
     0
 42
0.0000000013526157
 43
0.0000000001
 40
0.0
 40
0.0
 40
0.0
 40
0.0
 40
0.0008102063472984
 40
0.0238123089477197
 40
0.045892072016592
 40
0.0671584946115078
 40
0.0876701832029072
 40
0.1074474935115025
 40
0.1264725979998548
 40
0.1446750788177684
 40
0.1619041855986834
 40
0.1779402058261288
 40
0.1926989406021107
 40
0.2065638648273856
 40
0.2204004276838649
 40
0.235112461558789
 40
0.2518544944730484
 40
0.2723138813589188
 40
0.2991096170763281
 40
0.3376330821173635
 40
0.4070120716858478
 40
0.4668219801876707
 40
0.523828539680698
 40
0.5840876367277961
 40
0.6426479495038449
 40
0.7003317430283933
 40
0.7575193923109266
 40
0.8143994414843985
 40
0.8710766070423192
 40
0.927613719973912
 40
0.9840506959387153
 40
1.0
 40
1.0
 40
1.0
 40
1.0
 10
29.47542183014508
 20
568.5606158356915
 30
0.0
 10
29.47169572831751
 20
568.5608903443642
 30
0.0
 10
29.37724796833538
 20
568.5678164631158
 30
0.0
 10
29.17740383644746
 20
568.5435511978895
 30
0.0
 10
28.90786040230818
 20
568.4867918504293
 30
0.0
 10
28.65565201575519
 20
568.3928850982459
 30
0.0
 10
28.42760218849085
 20
568.2728250704894
 30
0.0
 10
28.22455849760995
 20
568.1305943042779
 30
0.0
 10
28.04826271734178
 20
567.9722898722048
 30
0.0
 10
27.89965277247594
 20
567.8042594176768
 30
0.0
 10
27.77917183176393
 20
567.6341329243836
 30
0.0
 10
27.68597746977177
 20
567.4703777997124
 30
0.0
 10
27.61710663388283
 20
567.320330550801
 30
0.0
 10
27.56768077961764
 20
567.1875529472247
 30
0.0
 10
27.53248722451551
 20
567.0715885253348
 30
0.0
 10
27.50699300031171
 20
566.9689467163982
 30
0.0
 10
27.48771964360439
 20
566.8742019922787
 30
0.0
 10
27.47213791912465
 20
566.7801230918491
 30
0.0
 10
27.45817780783145
 20
566.6751036853088
 30
0.0
 10
27.44286530681878
 20
566.5273800423872
 30
0.0
 10
27.42876784358745
 20
566.3396999036909
 30
0.0
 10
27.41500894439218
 20
566.0971409687417
 30
0.0
 10
27.40295042764442
 20
565.8314681094172
 30
0.0
 10
27.39168062724415
 20
565.5301285068325
 30
0.0
 10
27.38099361166659
 20
565.1887681732929
 30
0.0
 10
27.37106451373126
 20
564.8162171001047
 30
0.0
 10
27.36179076121757
 20
564.4115721111012
 30
0.0
 10
27.35314681008101
 20
563.9754159260408
 30
0.0
 10
27.34508842808222
 20
563.5073754645762
 30
0.0
 10
27.33775999931261
 20
563.0131551684616
 30
0.0
 10
27.33235280458457
 20
562.6052476236893
 30
0.0
 10
27.32990761446251
 20
562.3822353803569
 30
0.0
 10
27.329278898933
 20
562.3246946140232
 30
0.0
  0
LINE
  5
EC
330
8D
100
AcDbEntity
  8
E05099
  6
Continuous
 62
     7
100
AcDbLine
 10
35.5779626471
 20
551.2311598702
 30
0.0
 11
34.1395502752
 21
554.1713574628
 31
0.0
  0
SPLINE
  5
ED
330
8D
100
AcDbEntity
  8
E05099
  6
Continuous
 62
     7
100
AcDbSpline
210
0.0
220
0.0
230
1.0
 70
     8
 71
     3
 72
    35
 73
    31
 74
     0
 42
0.0000000014251074
 43
0.0000000001
 40
0.0
 40
0.0
 40
0.0
 40
0.0
 40
0.0029477825529462
 40
0.0616062267432956
 40
0.1203346671539617
 40
0.1791566013956643
 40
0.2381064810361917
 40
0.2972367848160645
 40
0.3566312388624466
 40
0.4164314263075956
 40
0.4768958457579467
 40
0.538550208173642
 40
0.6026593665255284
 40
0.6733994588848563
 40
0.709021684773001
 40
0.7335748093034101
 40
0.7527015836891846
 40
0.7694727616658212
 40
0.7852070836321998
 40
0.8008927574553127
 40
0.8176168087974502
 40
0.8361689525781489
 40
0.856329939586941
 40
0.8774850858410687
 40
0.8992563280664084
 40
0.921421608653829
 40
0.9438314534610209
 40
0.9663889911033697
 40
0.9890313544505692
 40
1.0
 40
1.0
 40
1.0
 40
1.0
 10
34.07086381093408
 20
562.6990204542085
 30
0.0
 10
34.07074567179856
 20
562.7089674019453
 30
0.0
 10
34.0686171627605
 20
562.8880820645682
 30
0.0
 10
34.06349285732419
 20
563.244367523799
 30
0.0
 10
34.05593526827734
 20
563.7237971101843
 30
0.0
 10
34.04762811148264
 20
564.175795877083
 30
0.0
 10
34.03877158006261
 20
564.5948907688114
 30
0.0
 10
34.02931906636238
 20
564.9811842682404
 30
0.0
 10
34.0192715986453
 20
565.3336738554077
 30
0.0
 10
34.00858243033245
 20
565.6522285462606
 30
0.0
 10
33.99712604965682
 20
565.9375182320988
 30
0.0
 10
33.98462323823487
 20
566.1919474586175
 30
0.0
 10
33.97001902652135
 20
566.4239897280205
 30
0.0
 10
33.95509371314625
 20
566.6000516256715
 30
0.0
 10
33.93759633587298
 20
566.745159651446
 30
0.0
 10
33.92113133346076
 20
566.8509133758845
 30
0.0
 10
33.90140521231946
 20
566.9521487403048
 30
0.0
 10
33.87502060505639
 20
567.061487052707
 30
0.0
 10
33.83727391152138
 20
567.1872845205977
 30
0.0
 10
33.78266223619471
 20
567.3328345569371
 30
0.0
 10
33.70465110516738
 20
567.4983558828065
 30
0.0
 10
33.59664198156657
 20
567.6796035073762
 30
0.0
 10
33.45482474961467
 20
567.866567941301
 30
0.0
 10
33.2800439213681
 20
568.0465771117567
 30
0.0
 10
33.07592805727718
 20
568.2090306721153
 30
0.0
 10
32.84718299722243
 20
568.3462690175577
 30
0.0
 10
32.59804385817542
 20
568.4537238229601
 30
0.0
 10
32.33689802211518
 20
568.5251264440137
 30
0.0
 10
32.10625476777663
 20
568.5606870111467
 30
0.0
 10
31.97944924923582
 20
568.5574811636052
 30
0.0
 10
31.93087179239955
 20
568.5560064387506
 30
0.0
  0
ELLIPSE
  5
EF
330
8D
100
AcDbEntity
  8
E02773
  6
Continuous
 62
     7
100
AcDbEllipse
 10
30.7022989257
 20
555.1384808515
 30
0.0
 11
4.530728418256804
 21
0.0
 31
0.0
210
0.0
220
0.0
230
1.0
 40
0.1736481777
 41
5.57090820701607
 42
6.283185307179586
  0
ELLIPSE
  5
F0
330
8D
100
AcDbEntity
  8
E02773
  6
Continuous
 62
     7
100
AcDbEllipse
 10
30.7022989257
 20
555.1384808515
 30
0.0
 11
4.530728418256804
 21
0.0
 31
0.0
210
0.0
220
0.0
230
1.0
 40
0.1736481777
 41
3.034362722878069
 42
3.855490805835451
  0
ELLIPSE
  5
F1
330
8D
100
AcDbEntity
  8
E02773
  6
Continuous
 62
     7
100
AcDbEllipse
 10
30.7022989257
 20
555.1384808515
 30
0.0
 11
4.530728418256804
 21
0.0
 31
0.0
210
0.0
220
0.0
230
1.0
 40
0.1736481777
 41
0.0
 42
0.1072299307117244
  0
ARC
  5
F2
330
8D
100
AcDbEntity
  8
E02773
  6
Continuous
 62
     7
100
AcDbCircle
 10
30.7022989257
 20
552.4302595307
 30
0.0
 40
5.300000000000125
100
AcDbArc
 50
129.9572152782
 51
148.2056287964
  0
ARC
  5
F3
330
8D
100
AcDbEntity
  8
E02773
  6
Continuous
 62
     7
100
AcDbCircle
 10
30.7022989257
 20
552.4302595307
 30
0.0
 40
5.300000000000082
100
AcDbArc
 50
31.7943712036
 51
50.0427797096
  0
ELLIPSE
  5
F5
330
8D
100
AcDbEntity
  8
$DDT_AUDIT_GENERATED_(F4)
  6
Continuous
 62
     7
100
AcDbEllipse
 10
30.7042674297
 20
478.3205043177
 30
0.0
 11
10.05000000000001
 21
0.0
 31
0.0
210
0.0
220
0.0
230
1.0
 40
0.1736481777
 41
0.0
 42
6.283185307179586
  0
ELLIPSE
  5
F6
330
8D
100
AcDbEntity
  8
$DDT_AUDIT_GENERATED_(F4)
  6
Continuous
 62
     7
100
AcDbEllipse
 10
30.7042674297
 20
478.3205043177
 30
0.0
 11
10.75000000000001
 21
0.0
 31
0.0
210
0.0
220
0.0
230
1.0
 40
0.1736481777
 41
0.0
 42
6.283185307179586
  0
ELLIPSE
  5
F7
330
8D
100
AcDbEntity
  8
$DDT_AUDIT_GENERATED_(F4)
  6
Continuous
 62
     7
100
AcDbEllipse
 10
30.7042674297
 20
486.6913702183
 30
0.0
 11
11.80000000000001
 21
0.0
 31
0.0
210
0.0
220
0.0
230
1.0
 40
0.1736481777
 41
2.01755781018816
 42
3.141592653589793
  0
ELLIPSE
  5
F8
330
8D
100
AcDbEntity
  8
$DDT_AUDIT_GENERATED_(F4)
  6
Continuous
 62
     7
100
AcDbEllipse
 10
30.7042674297
 20
486.6913702183
 30
0.0
 11
11.80000000000001
 21
0.0
 31
0.0
210
0.0
220
0.0
230
1.0
 40
0.1736481777
 41
0.0
 42
1.115699719101817
  0
ELLIPSE
  5
F9
330
8D
100
AcDbEntity
  8
$DDT_AUDIT_GENERATED_(F4)
  6
Continuous
 62
     7
100
AcDbEllipse
 10
30.7042674297
 20
478.6332227794
 30
0.0
 11
-11.29999999999998
 21
-1.387778780781446E-14
 31
0.0
210
0.0
220
0.0
230
1.0
 40
0.1736481777
 41
3.372534132729926
 42
6.052243828039432
  0
LINE
  5
FA
330
8D
100
AcDbEntity
  8
$DDT_AUDIT_GENERATED_(F4)
  6
Continuous
 62
     7
100
AcDbLine
 10
19.7042674297
 20
479.0823643868
 30
0.0
 11
19.7042674297
 21
478.1840811721
 31
0.0
  0
ELLIPSE
  5
FB
330
8D
100
AcDbEntity
  8
$DDT_AUDIT_GENERATED_(F4)
  6
Continuous
 62
     7
100
AcDbEllipse
 10
30.7042674297
 20
479.4860913114
 30
0.0
 11
-11.80000000000002
 21
0.0
 31
0.0
210
0.0
220
0.0
230
1.0
 40
0.1736481777
 41
3.51193528568152
 42
5.912842675087865
  0
ELLIPSE
  5
FC
330
8D
100
AcDbEntity
  8
$DDT_AUDIT_GENERATED_(F4)
  6
Continuous
 62
     7
100
AcDbEllipse
 10
30.7042674297
 20
481.2749275768
 30
0.0
 11
11.80000000000026
 21
0.0
 31
0.0
210
0.0
220
0.0
230
1.0
 40
0.1736481777
 41
2.771250021498079
 42
3.511935285681506
  0
LINE
  5
FD
330
8D
100
AcDbEntity
  8
$DDT_AUDIT_GENERATED_(F4)
  6
Continuous
 62
     7
100
AcDbLine
 10
19.7042674297
 20
482.0165496493
 30
0.0
 11
19.7042674297
 21
480.2277133839
 31
0.0
  0
LINE
  5
FE
330
8D
100
AcDbEntity
  8
$DDT_AUDIT_GENERATED_(F4)
  6
Continuous
 62
     7
100
AcDbLine
 10
19.7042674297
 20
480.2277133839
 30
0.0
 11
19.7042674297
 21
479.0823643868
 31
0.0
  0
ELLIPSE
  5
FF
330
8D
100
AcDbEntity
  8
$DDT_AUDIT_GENERATED_(F4)
  6
Continuous
 62
     7
100
AcDbEllipse
 10
30.7042674297
 20
478.6332227794
 30
0.0
 11
11.29999999999998
 21
0.0
 31
0.0
210
0.0
220
0.0
230
1.0
 40
0.1736481777
 41
-0.3103661252168539
 42
-0.2309414791401565
  0
ELLIPSE
  5
100
330
8D
100
AcDbEntity
  8
$DDT_AUDIT_GENERATED_(F4)
  6
Continuous
 62
     7
100
AcDbEllipse
 10
30.7042674297
 20
478.6332227794
 30
0.0
 11
11.29999999999998
 21
0.0
 31
0.0
210
0.0
220
0.0
230
1.0
 40
0.1736481777
 41
3.372534132729946
 42
3.45195877880666
  0
LINE
  5
101
330
8D
100
AcDbEntity
  8
$DDT_AUDIT_GENERATED_(F4)
  6
Continuous
 62
     7
100
AcDbLine
 10
41.7042674297
 20
478.1840811721
 30
0.0
 11
41.7042674297
 21
479.0823643868
 31
0.0
  0
ELLIPSE
  5
102
330
8D
100
AcDbEntity
  8
$DDT_AUDIT_GENERATED_(F4)
  6
Continuous
 62
     7
100
AcDbEllipse
 10
30.7042674297
 20
481.2749275768
 30
0.0
 11
-11.79999999999942
 21
5.551115123125782E-14
 31
0.0
210
0.0
220
0.0
230
1.0
 40
0.1736481777
 41
2.771250021498068
 42
3.511935285681518
  0
LINE
  5
103
330
8D
100
AcDbEntity
  8
$DDT_AUDIT_GENERATED_(F4)
  6
Continuous
 62
     7
100
AcDbLine
 10
41.7042674297
 20
479.0823643868
 30
0.0
 11
41.7042674297
 21
480.2277133839
 31
0.0
  0
LINE
  5
104
330
8D
100
AcDbEntity
  8
$DDT_AUDIT_GENERATED_(F4)
  6
Continuous
 62
     7
100
AcDbLine
 10
41.7042674297
 20
480.2277133839
 30
0.0
 11
41.7042674297
 21
482.0165496493
 31
0.0
  0
LINE
  5
105
330
8D
100
AcDbEntity
  8
$DDT_AUDIT_GENERATED_(F4)
  6
Continuous
 62
     7
100
AcDbLine
 10
19.9441609044
 20
478.0339451421
 30
0.0
 11
20.4678829034
 21
477.7503950609
 31
0.0
  0
LINE
  5
106
330
8D
100
AcDbEntity
  8
$DDT_AUDIT_GENERATED_(F4)
  6
Continuous
 62
     7
100
AcDbLine
 10
40.940651956
 20
477.7503950609
 30
0.0
 11
41.464373955
 21
478.0339451421
 31
0.0
  0
LINE
  5
107
330
8D
100
AcDbEntity
  8
$DDT_AUDIT_GENERATED_(F4)
  6
Continuous
 62
     7
100
AcDbLine
 10
18.9042674297
 20
486.6913702183
 30
0.0
 11
18.9042674297
 21
481.2749275768
 31
0.0
  0
LINE
  5
108
330
8D
100
AcDbEntity
  8
$DDT_AUDIT_GENERATED_(F4)
  6
Continuous
 62
     7
100
AcDbLine
 10
42.5042674297
 20
481.2749275768
 30
0.0
 11
42.5042674297
 21
486.6913702183
 31
0.0
  0
ELLIPSE
  5
10A
330
8D
100
AcDbEntity
  8
4221035_0__HUELS
  6
Continuous
 62
     7
100
AcDbEllipse
 10
30.7042674297
 20
478.566706256
 30
0.0
 11
8.5
 21
0.0
 31
0.0
210
0.0
220
0.0
230
1.0
 40
0.1736481777
 41
3.392644025763252
 42
3.488772106333771
  0
ELLIPSE
  5
10B
330
8D
100
AcDbEntity
  8
4221035_0__HUELS
  6
Continuous
 62
     7
100
AcDbEllipse
 10
30.7042674297
 20
478.566706256
 30
0.0
 11
8.5
 21
0.0
 31
0.0
210
0.0
220
0.0
230
1.0
 40
0.1736481777
 41
3.797359295080853
 42
3.84959290022991
  0
ELLIPSE
  5
10C
330
8D
100
AcDbEntity
  8
4221035_0__HUELS
  6
Continuous
 62
     7
100
AcDbEllipse
 10
30.7042674297
 20
478.566706256
 30
0.0
 11
8.5
 21
0.0
 31
0.0
210
0.0
220
0.0
230
1.0
 40
0.1736481777
 41
4.053118523833424
 42
4.094897632260428
  0
ELLIPSE
  5
10D
330
8D
100
AcDbEntity
  8
4221035_0__HUELS
  6
Continuous
 62
     7
100
AcDbEllipse
 10
30.7042674297
 20
478.566706256
 30
0.0
 11
8.5
 21
0.0
 31
0.0
210
0.0
220
0.0
230
1.0
 40
0.1736481777
 41
4.123470300595693
 42
4.302705165914235
  0
ELLIPSE
  5
10E
330
8D
100
AcDbEntity
  8
4221035_0__HUELS
  6
Continuous
 62
     7
100
AcDbEllipse
 10
30.7042674297
 20
478.566706256
 30
0.0
 11
8.5
 21
0.0
 31
0.0
210
0.0
220
0.0
230
1.0
 40
0.1736481777
 41
4.471438420692079
 42
4.492985892912976
  0
ELLIPSE
  5
10F
330
8D
100
AcDbEntity
  8
4221035_0__HUELS
  6
Continuous
 62
     7
100
AcDbEllipse
 10
30.7042674297
 20
478.566706256
 30
0.0
 11
8.5
 21
0.0
 31
0.0
210
0.0
220
0.0
230
1.0
 40
0.1736481777
 41
4.517031072685256
 42
4.675405760359279
  0
ELLIPSE
  5
110
330
8D
100
AcDbEntity
  8
4221035_0__HUELS
  6
Continuous
 62
     7
100
AcDbEllipse
 10
30.7042674297
 20
478.566706256
 30
0.0
 11
8.5
 21
0.0
 31
0.0
210
0.0
220
0.0
230
1.0
 40
0.1736481777
 41
4.698943197095275
 42
4.85658564593677
  0
ELLIPSE
  5
111
330
8D
100
AcDbEntity
  8
4221035_0__HUELS
  6
Continuous
 62
     7
100
AcDbEllipse
 10
30.7042674297
 20
478.566706256
 30
0.0
 11
8.5
 21
0.0
 31
0.0
210
0.0
220
0.0
230
1.0
 40
0.1736481777
 41
-1.402780049331345
 42
-1.329845767102288
  0
ELLIPSE
  5
112
330
8D
100
AcDbEntity
  8
4221035_0__HUELS
  6
Continuous
 62
     7
100
AcDbEllipse
 10
30.7042674297
 20
478.566706256
 30
0.0
 11
8.5
 21
0.0
 31
0.0
210
0.0
220
0.0
230
1.0
 40
0.1736481777
 41
-1.013879517101579
 42
-0.911525870243632
  0
ELLIPSE
  5
113
330
8D
100
AcDbEntity
  8
4221035_0__HUELS
  6
Continuous
 62
     7
100
AcDbEllipse
 10
30.7042674297
 20
478.566706256
 30
0.0
 11
8.5
 21
0.0
 31
0.0
210
0.0
220
0.0
230
1.0
 40
0.1736481777
 41
-0.7823715225000036
 42
-0.6557666414910592
  0
ELLIPSE
  5
114
330
8D
100
AcDbEntity
  8
4221035_0__HUELS
  6
Continuous
 62
     7
100
AcDbEllipse
 10
30.7042674297
 20
478.566706256
 30
0.0
 11
8.5
 21
0.0
 31
0.0
210
0.0
220
0.0
230
1.0
 40
0.1736481777
 41
-0.4736354243296326
 42
-0.4434903662561087
  0
ELLIPSE
  5
115
330
8D
100
AcDbEntity
  8
4221035_0__HUELS
  6
Continuous
 62
     7
100
AcDbEllipse
 10
30.7042674297
 20
478.2712639301
 30
0.0
 11
8.5
 21
0.0
 31
0.0
210
0.0
220
0.0
230
1.0
 40
0.1736481777
 41
0.0
 42
6.283185307179586
  0
ELLIPSE
  5
116
330
8D
100
AcDbEntity
  8
4221035_0__HUELS
  6
Continuous
 62
     7
100
AcDbEllipse
 10
30.7042674297
 20
478.2712639301
 30
0.0
 11
9.4
 21
0.0
 31
0.0
210
0.0
220
0.0
230
1.0
 40
0.1736481777
 41
0.0
 42
6.283185307179586
  0
LINE
  5
117
330
8D
100
AcDbEntity
  8
4221035_0__HUELS
  6
Continuous
 62
     7
100
AcDbLine
 10
40.1042674297
 20
478.2712639301
 30
0.0
 11
40.1042674297
 21
478.937932873
 31
0.0
  0
LINE
  5
118
330
8D
100
AcDbEntity
  8
4221035_0__HUELS
  6
Continuous
 62
     7
100
AcDbLine
 10
21.3042674297
 20
478.937932873
 30
0.0
 11
21.3042674297
 21
478.2712639301
 31
0.0
  0
ELLIPSE
  5
11A
330
8D
100
AcDbEntity
  8
4221039_0__SIEB_
  6
Continuous
 62
     7
100
AcDbEllipse
 10
33.5614102869
 20
477.2333363204
 30
0.0
 11
-0.07660444431173852
 21
0.0766044443117897
 31
0.0
210
0.0
220
0.0
230
1.0
 40
0.8390996312
 41
2.268928027595812
 42
2.443460952790875
  0
ELLIPSE
  5
11B
330
8D
100
AcDbEntity
  8
4221039_0__SIEB_
  6
Continuous
 62
     7
100
AcDbEllipse
 10
33.5614102869
 20
477.2333363204
 30
0.0
 11
-0.076604444311755
 21
-0.07660444431174807
 31
0.0
210
0.0
220
0.0
230
1.0
 40
0.8390996312
 41
0.8726646259948885
 42
2.443460952789747
  0
ELLIPSE
  5
11C
330
8D
100
AcDbEntity
  8
4221039_0__SIEB_
  6
Continuous
 62
     7
100
AcDbEllipse
 10
33.5614102869
 20
477.2333363204
 30
0.0
 11
0.07660444431173852
 21
-0.0766044443117897
 31
0.0
210
0.0
220
0.0
230
1.0
 40
0.8390996312
 41
3.839724354389777
 42
5.410520681185181
  0
ELLIPSE
  5
11D
330
8D
100
AcDbEntity
  8
4221039_0__SIEB_
  6
Continuous
 62
     7
100
AcDbEllipse
 10
33.5614102869
 20
477.2333363204
 30
0.0
 11
0.0766044443117485
 21
0.07660444431177582
 31
0.0
210
0.0
220
0.0
230
1.0
 40
0.8390996312
 41
3.839724354389749
 42
4.014257279584731
  0
ELLIPSE
  5
11E
330
8D
100
AcDbEntity
  8
4221039_0__SIEB_
  6
Continuous
 62
     7
100
AcDbEllipse
 10
32.0256960011
 20
477.2333363204
 30
0.0
 11
-0.07660444431173852
 21
0.0766044443117897
 31
0.0
210
0.0
220
0.0
230
1.0
 40
0.8390996312
 41
2.268928027595812
 42
2.443460952790731
  0
ELLIPSE
  5
11F
330
8D
100
AcDbEntity
  8
4221039_0__SIEB_
  6
Continuous
 62
     7
100
AcDbEllipse
 10
32.0256960011
 20
477.2333363204
 30
0.0
 11
-0.07660444431176346
 21
-0.07660444431173419
 31
0.0
210
0.0
220
0.0
230
1.0
 40
0.8390996312
 41
0.8726646259949811
 42
2.44346095278991
  0
ELLIPSE
  5
120
330
8D
100
AcDbEntity
  8
4221039_0__SIEB_
  6
Continuous
 62
     7
100
AcDbEllipse
 10
32.0256960011
 20
477.2333363204
 30
0.0
 11
0.07660444431173852
 21
-0.0766044443117897
 31
0.0
210
0.0
220
0.0
230
1.0
 40
0.8390996312
 41
3.839724354389777
 42
5.410520681185121
  0
ELLIPSE
  5
121
330
8D
100
AcDbEntity
  8
4221039_0__SIEB_
  6
Continuous
 62
     7
100
AcDbEllipse
 10
32.0256960011
 20
477.2333363204
 30
0.0
 11
0.07660444431173852
 21
0.0766044443117897
 31
0.0
210
0.0
220
0.0
230
1.0
 40
0.8390996312
 41
3.839724354389865
 42
4.014257279583775
  0
ELLIPSE
  5
122
330
8D
100
AcDbEntity
  8
4221039_0__SIEB_
  6
Continuous
 62
     7
100
AcDbEllipse
 10
30.4899817154
 20
477.2333363204
 30
0.0
 11
-0.07660444431173849
 21
0.0766044443117897
 31
0.0
210
0.0
220
0.0
230
1.0
 40
0.8390996312
 41
2.268928027595812
 42
2.443460952789721
  0
ELLIPSE
  5
123
330
8D
100
AcDbEntity
  8
4221039_0__SIEB_
  6
Continuous
 62
     7
100
AcDbEllipse
 10
30.4899817154
 20
477.2333363204
 30
0.0
 11
-0.07660444431173848
 21
-0.0766044443117897
 31
0.0
210
0.0
220
0.0
230
1.0
 40
0.8390996312
 41
0.8726646259944049
 42
2.443460952789846
  0
ELLIPSE
  5
124
330
8D
100
AcDbEntity
  8
4221039_0__SIEB_
  6
Continuous
 62
     7
100
AcDbEllipse
 10
30.4899817154
 20
477.2333363204
 30
0.0
 11
0.07660444431173825
 21
-0.0766044443117897
 31
0.0
210
0.0
220
0.0
230
1.0
 40
0.8390996312
 41
3.839724354390353
 42
5.410520681185607
  0
ELLIPSE
  5
125
330
8D
100
AcDbEntity
  8
4221039_0__SIEB_
  6
Continuous
 62
     7
100
AcDbEllipse
 10
30.4899817154
 20
477.2333363204
 30
0.0
 11
0.0766044443117387
 21
0.0766044443117897
 31
0.0
210
0.0
220
0.0
230
1.0
 40
0.8390996312
 41
3.839724354388786
 42
4.014257279583776
  0
ELLIPSE
  5
126
330
8D
100
AcDbEntity
  8
4221039_0__SIEB_
  6
Continuous
 62
     7
100
AcDbEllipse
 10
28.9542674297
 20
477.2333363204
 30
0.0
 11
-0.07660444431172378
 21
0.07660444431181747
 31
0.0
210
0.0
220
0.0
230
1.0
 40
0.8390996312
 41
2.268928027595519
 42
2.443460952790321
  0
ELLIPSE
  5
127
330
8D
100
AcDbEntity
  8
4221039_0__SIEB_
  6
Continuous
 62
     7
100
AcDbEllipse
 10
28.9542674297
 20
477.2333363204
 30
0.0
 11
-0.07660444431176433
 21
-0.07660444431173419
 31
0.0
210
0.0
220
0.0
230
0.9999999999999999
 40
0.8390996312
 41
0.8726646259945364
 42
2.443460952789837
  0
ELLIPSE
  5
128
330
8D
100
AcDbEntity
  8
4221039_0__SIEB_
  6
Continuous
 62
     7
100
AcDbEllipse
 10
28.9542674297
 20
477.2333363204
 30
0.0
 11
0.07660444431175609
 21
-0.07660444431174807
 31
0.0
210
0.0
220
0.0
230
1.0
 40
0.8390996312
 41
3.839724354389842
 42
5.410520681185019
  0
ELLIPSE
  5
129
330
8D
100
AcDbEntity
  8
4221039_0__SIEB_
  6
Continuous
 62
     7
100
AcDbEllipse
 10
28.9542674297
 20
477.2333363204
 30
0.0
 11
0.07660444431173766
 21
0.0766044443117897
 31
0.0
210
0.0
220
0.0
230
1.0
 40
0.8390996312
 41
3.839724354389854
 42
4.014257279583765
  0
ELLIPSE
  5
12A
330
8D
100
AcDbEntity
  8
4221039_0__SIEB_
  6
Continuous
 62
     7
100
AcDbEllipse
 10
27.418553144
 20
477.2333363204
 30
0.0
 11
-0.0766044443117485
 21
0.07660444431177582
 31
0.0
210
0.0
220
0.0
230
1.0
 40
0.8390996312
 41
2.268928027595733
 42
2.443460952790017
  0
ELLIPSE
  5
12B
330
8D
100
AcDbEntity
  8
4221039_0__SIEB_
  6
Continuous
 62
     7
100
AcDbEllipse
 10
27.418553144
 20
477.2333363204
 30
0.0
 11
-0.07660444431174546
 21
-0.07660444431176194
 31
0.0
210
0.0
220
0.0
230
1.0
 40
0.8390996312
 41
0.8726646259949957
 42
2.44346095278962
  0
ELLIPSE
  5
12C
330
8D
100
AcDbEntity
  8
4221039_0__SIEB_
  6
Continuous
 62
     7
100
AcDbEllipse
 10
27.418553144
 20
477.2333363204
 30
0.0
 11
0.07660444431173113
 21
-0.07660444431177581
 31
0.0
210
0.0
220
0.0
230
1.0
 40
0.8390996312
 41
3.839724354390153
 42
5.410520681185655
  0
ELLIPSE
  5
12D
330
8D
100
AcDbEntity
  8
4221039_0__SIEB_
  6
Continuous
 62
     7
100
AcDbEllipse
 10
27.418553144
 20
477.2333363204
 30
0.0
 11
0.07660444431172986
 21
0.07660444431180358
 31
0.0
210
0.0
220
0.0
230
1.0
 40
0.8390996312
 41
3.839724354389313
 42
4.014257279584255
  0
ELLIPSE
  5
12E
330
8D
100
AcDbEntity
  8
4221039_0__SIEB_
  6
Continuous
 62
     7
100
AcDbEllipse
 10
25.8828388583
 20
477.5000103075
 30
0.0
 11
0.07660444431171337
 21
-0.07660444431183135
 31
0.0
210
0.0
220
0.0
230
1.0
 40
0.8390996312
 41
3.839724354390812
 42
5.41052068118579
  0
ELLIPSE
  5
12F
330
8D
100
AcDbEntity
  8
4221039_0__SIEB_
  6
Continuous
 62
     7
100
AcDbEllipse
 10
25.8828388583
 20
477.5000103075
 30
0.0
 11
0.07660444431173852
 21
0.0766044443117897
 31
0.0
210
0.0
220
0.0
230
1.0
 40
0.8390996312
 41
3.839724354389721
 42
4.014257279584198
  0
ELLIPSE
  5
130
330
8D
100
AcDbEntity
  8
4221039_0__SIEB_
  6
Continuous
 62
     7
100
AcDbEllipse
 10
27.418553144
 20
477.5000103075
 30
0.0
 11
0.07660444431172292
 21
-0.07660444431181745
 31
0.0
210
0.0
220
0.0
230
1.0
 40
0.8390996312
 41
3.839724354390686
 42
5.410520681185806
  0
ELLIPSE
  5
131
330
8D
100
AcDbEntity
  8
4221039_0__SIEB_
  6
Continuous
 62
     7
100
AcDbEllipse
 10
27.418553144
 20
477.5000103075
 30
0.0
 11
0.07660444431175543
 21
0.07660444431174807
 31
0.0
210
0.0
220
0.0
230
1.0
 40
0.8390996312
 41
3.839724354389597
 42
4.014257279584807
  0
ELLIPSE
  5
132
330
8D
100
AcDbEntity
  8
4221039_0__SIEB_
  6
Continuous
 62
     7
100
AcDbEllipse
 10
25.8828388583
 20
477.5000103075
 30
0.0
 11
-0.07660444431173852
 21
0.0766044443117897
 31
0.0
210
0.0
220
0.0
230
1.0
 40
0.8390996312
 41
2.268928027595388
 42
2.443460952789793
  0
ELLIPSE
  5
133
330
8D
100
AcDbEntity
  8
4221039_0__SIEB_
  6
Continuous
 62
     7
100
AcDbEllipse
 10
25.8828388583
 20
477.5000103075
 30
0.0
 11
-0.07660444431173852
 21
-0.0766044443117897
 31
0.0
210
0.0
220
0.0
230
1.0
 40
0.8390996312
 41
0.8726646259940419
 42
2.443460952789232
  0
ELLIPSE
  5
134
330
8D
100
AcDbEntity
  8
4221039_0__SIEB_
  6
Continuous
 62
     7
100
AcDbEllipse
 10
28.9542674297
 20
477.5000103075
 30
0.0
 11
0.07660444431172268
 21
-0.07660444431181744
 31
0.0
210
0.0
220
0.0
230
1.0
 40
0.8390996312
 41
3.839724354390649
 42
5.410520681185748
  0
ELLIPSE
  5
135
330
8D
100
AcDbEntity
  8
4221039_0__SIEB_
  6
Continuous
 62
     7
100
AcDbEllipse
 10
28.9542674297
 20
477.5000103075
 30
0.0
 11
0.07660444431173852
 21
0.0766044443117897
 31
0.0
210
0.0
220
0.0
230
1.0
 40
0.8390996312
 41
3.839724354389072
 42
4.014257279584168
  0
ELLIPSE
  5
136
330
8D
100
AcDbEntity
  8
4221039_0__SIEB_
  6
Continuous
 62
     7
100
AcDbEllipse
 10
27.418553144
 20
477.5000103075
 30
0.0
 11
-0.07660444431175586
 21
0.07660444431174807
 31
0.0
210
0.0
220
0.0
230
1.0
 40
0.8390996312
 41
2.268928027594896
 42
2.443460952789911
  0
ELLIPSE
  5
137
330
8D
100
AcDbEntity
  8
4221039_0__SIEB_
  6
Continuous
 62
     7
100
AcDbEllipse
 10
27.418553144
 20
477.5000103075
 30
0.0
 11
-0.07660444431171988
 21
-0.07660444431177582
 31
0.0
210
0.0
220
0.0
230
1.0
 40
0.8390996312
 41
0.8726646259938983
 42
2.443460952788846
  0
ELLIPSE
  5
138
330
8D
100
AcDbEntity
  8
4221039_0__SIEB_
  6
Continuous
 62
     7
100
AcDbEllipse
 10
30.4899817154
 20
477.5000103075
 30
0.0
 11
0.07660444431171275
 21
-0.07660444431183133
 31
0.0
210
0.0
220
0.0
230
0.9999999999999999
 40
0.8390996312
 41
3.839724354390883
 42
5.410520681185797
  0
ELLIPSE
  5
139
330
8D
100
AcDbEntity
  8
4221039_0__SIEB_
  6
Continuous
 62
     7
100
AcDbEllipse
 10
30.4899817154
 20
477.5000103075
 30
0.0
 11
0.076604444311749
 21
0.07660444431176196
 31
0.0
210
0.0
220
0.0
230
1.0
 40
0.8390996312
 41
3.839724354389507
 42
4.014257279584676
  0
ELLIPSE
  5
13A
330
8D
100
AcDbEntity
  8
4221039_0__SIEB_
  6
Continuous
 62
     7
100
AcDbEllipse
 10
28.9542674297
 20
477.5000103075
 30
0.0
 11
-0.07660444431175631
 21
0.07660444431174807
 31
0.0
210
0.0
220
0.0
230
1.0
 40
0.8390996312
 41
2.26892802759489
 42
2.443460952789833
  0
ELLIPSE
  5
13B
330
8D
100
AcDbEntity
  8
4221039_0__SIEB_
  6
Continuous
 62
     7
100
AcDbEllipse
 10
28.9542674297
 20
477.5000103075
 30
0.0
 11
-0.07660444431173788
 21
-0.0766044443117897
 31
0.0
210
0.0
220
0.0
230
1.0
 40
0.8390996312
 41
0.8726646259939743
 42
2.443460952789234
  0
ELLIPSE
  5
13C
330
8D
100
AcDbEntity
  8
4221039_0__SIEB_
  6
Continuous
 62
     7
100
AcDbEllipse
 10
32.0256960011
 20
477.5000103075
 30
0.0
 11
0.07660444431171294
 21
-0.07660444431183133
 31
0.0
210
0.0
220
0.0
230
1.0
 40
0.8390996312
 41
3.839724354390847
 42
5.410520681185764
  0
ELLIPSE
  5
13D
330
8D
100
AcDbEntity
  8
4221039_0__SIEB_
  6
Continuous
 62
     7
100
AcDbEllipse
 10
32.0256960011
 20
477.5000103075
 30
0.0
 11
0.07660444431173852
 21
0.0766044443117897
 31
0.0
210
0.0
220
0.0
230
1.0
 40
0.8390996312
 41
3.839724354389721
 42
4.014257279584198
  0
ELLIPSE
  5
13E
330
8D
100
AcDbEntity
  8
4221039_0__SIEB_
  6
Continuous
 62
     7
100
AcDbEllipse
 10
30.4899817154
 20
477.5000103075
 30
0.0
 11
-0.07660444431173849
 21
0.0766044443117897
 31
0.0
210
0.0
220
0.0
230
1.0
 40
0.8390996312
 41
2.268928027595388
 42
2.443460952789721
  0
ELLIPSE
  5
13F
330
8D
100
AcDbEntity
  8
4221039_0__SIEB_
  6
Continuous
 62
     7
100
AcDbEllipse
 10
30.4899817154
 20
477.5000103075
 30
0.0
 11
-0.07660444431175684
 21
-0.07660444431174805
 31
0.0
210
0.0
220
0.0
230
1.0
 40
0.8390996312
 41
0.8726646259949693
 42
2.443460952789742
  0
ELLIPSE
  5
140
330
8D
100
AcDbEntity
  8
4221039_0__SIEB_
  6
Continuous
 62
     7
100
AcDbEllipse
 10
33.5614102869
 20
477.5000103075
 30
0.0
 11
0.07660444431175674
 21
-0.07660444431174807
 31
0.0
210
0.0
220
0.0
230
1.0
 40
0.8390996312
 41
3.839724354389844
 42
5.410520681184618
  0
ELLIPSE
  5
141
330
8D
100
AcDbEntity
  8
4221039_0__SIEB_
  6
Continuous
 62
     7
100
AcDbEllipse
 10
33.5614102869
 20
477.5000103075
 30
0.0
 11
0.0766044443117485
 21
0.07660444431177582
 31
0.0
210
0.0
220
0.0
230
1.0
 40
0.8390996312
 41
3.839724354389677
 42
4.014257279584731
  0
ELLIPSE
  5
142
330
8D
100
AcDbEntity
  8
4221039_0__SIEB_
  6
Continuous
 62
     7
100
AcDbEllipse
 10
32.0256960011
 20
477.5000103075
 30
0.0
 11
-0.07660444431173852
 21
0.0766044443117897
 31
0.0
210
0.0
220
0.0
230
1.0
 40
0.8390996312
 41
2.268928027595388
 42
2.443460952789865
  0
ELLIPSE
  5
143
330
8D
100
AcDbEntity
  8
4221039_0__SIEB_
  6
Continuous
 62
     7
100
AcDbEllipse
 10
32.0256960011
 20
477.5000103075
 30
0.0
 11
-0.07660444431173852
 21
-0.0766044443117897
 31
0.0
210
0.0
220
0.0
230
1.0
 40
0.8390996312
 41
0.8726646259939813
 42
2.443460952789232
  0
ELLIPSE
  5
144
330
8D
100
AcDbEntity
  8
4221039_0__SIEB_
  6
Continuous
 62
     7
100
AcDbEllipse
 10
35.0971245726
 20
477.5000103075
 30
0.0
 11
0.07660444431175586
 21
-0.07660444431174807
 31
0.0
210
0.0
220
0.0
230
1.0
 40
0.8390996312
 41
3.839724354389842
 42
5.410520681184749
  0
ELLIPSE
  5
145
330
8D
100
AcDbEntity
  8
4221039_0__SIEB_
  6
Continuous
 62
     7
100
AcDbEllipse
 10
35.0971245726
 20
477.5000103075
 30
0.0
 11
0.0766044443117498
 21
0.07660444431176194
 31
0.0
210
0.0
220
0.0
230
0.9999999999999998
 40
0.8390996312
 41
3.83972435438959
 42
4.014257279584685
  0
ELLIPSE
  5
146
330
8D
100
AcDbEntity
  8
4221039_0__SIEB_
  6
Continuous
 62
     7
100
AcDbEllipse
 10
33.5614102869
 20
477.5000103075
 30
0.0
 11
-0.07660444431174676
 21
0.07660444431176194
 31
0.0
210
0.0
220
0.0
230
1.0
 40
0.8390996312
 41
2.268928027594995
 42
2.44346095278982
  0
ELLIPSE
  5
147
330
8D
100
AcDbEntity
  8
4221039_0__SIEB_
  6
Continuous
 62
     7
100
AcDbEllipse
 10
33.5614102869
 20
477.5000103075
 30
0.0
 11
-0.07660444431175674
 21
-0.07660444431174807
 31
0.0
210
0.0
220
0.0
230
1.0
 40
0.8390996312
 41
0.8726646259949681
 42
2.443460952789814
  0
ELLIPSE
  5
148
330
8D
100
AcDbEntity
  8
4221039_0__SIEB_
  6
Continuous
 62
     7
100
AcDbEllipse
 10
35.0971245726
 20
477.5000103075
 30
0.0
 11
-0.07660444431174721
 21
0.07660444431176194
 31
0.0
210
0.0
220
0.0
230
1.0
 40
0.8390996312
 41
2.268928027595838
 42
2.443460952790102
  0
ELLIPSE
  5
149
330
8D
100
AcDbEntity
  8
4221039_0__SIEB_
  6
Continuous
 62
     7
100
AcDbEllipse
 10
35.0971245726
 20
477.5000103075
 30
0.0
 11
-0.07660444431175586
 21
-0.07660444431174807
 31
0.0
210
0.0
220
0.0
230
1.0
 40
0.8390996312
 41
0.8726646259949583
 42
2.443460952789744
  0
ELLIPSE
  5
14A
330
8D
100
AcDbEntity
  8
4221039_0__SIEB_
  6
Continuous
 62
     7
100
AcDbEllipse
 10
36.6328388583
 20
477.7666842946
 30
0.0
 11
-0.07660444431173852
 21
0.0766044443117897
 31
0.0
210
0.0
220
0.0
230
1.0
 40
0.8390996312
 41
2.268928027594904
 42
2.443460952789144
  0
ELLIPSE
  5
14B
330
8D
100
AcDbEntity
  8
4221039_0__SIEB_
  6
Continuous
 62
     7
100
AcDbEllipse
 10
36.6328388583
 20
477.7666842946
 30
0.0
 11
-0.0766044443117099
 21
-0.07660444431183133
 31
0.0
210
0.0
220
0.0
230
0.9999999999999998
 40
0.8390996312
 41
0.8726646259942128
 42
2.443460952789251
  0
ELLIPSE
  5
14C
330
8D
100
AcDbEntity
  8
4221039_0__SIEB_
  6
Continuous
 62
     7
100
AcDbEllipse
 10
36.6328388583
 20
477.7666842946
 30
0.0
 11
0.07660444431173852
 21
-0.0766044443117897
 31
0.0
210
0.0
220
0.0
230
1.0
 40
0.8390996312
 41
3.839724354389777
 42
5.410520681184999
  0
ELLIPSE
  5
14D
330
8D
100
AcDbEntity
  8
4221039_0__SIEB_
  6
Continuous
 62
     7
100
AcDbEllipse
 10
36.6328388583
 20
477.7666842946
 30
0.0
 11
0.07660444431174113
 21
0.07660444431177582
 31
0.0
210
0.0
220
0.0
230
1.0
 40
0.8390996312
 41
3.839724354389507
 42
4.014257279584227
  0
ELLIPSE
  5
14E
330
8D
100
AcDbEntity
  8
4221039_0__SIEB_
  6
Continuous
 62
     7
100
AcDbEllipse
 10
35.0971245726
 20
477.7666842946
 30
0.0
 11
-0.07660444431172204
 21
0.0766044443117897
 31
0.0
210
0.0
220
0.0
230
1.0
 40
0.8390996312
 41
2.268928027594963
 42
2.443460952788929
  0
ELLIPSE
  5
14F
330
8D
100
AcDbEntity
  8
4221039_0__SIEB_
  6
Continuous
 62
     7
100
AcDbEllipse
 10
35.0971245726
 20
477.7666842946
 30
0.0
 11
-0.07660444431173852
 21
-0.0766044443117897
 31
0.0
210
0.0
220
0.0
230
1.0
 40
0.8390996312
 41
0.8726646259944657
 42
2.443460952789809
  0
ELLIPSE
  5
150
330
8D
100
AcDbEntity
  8
4221039_0__SIEB_
  6
Continuous
 62
     7
100
AcDbEllipse
 10
35.0971245726
 20
477.7666842946
 30
0.0
 11
0.07660444431175586
 21
-0.07660444431174807
 31
0.0
210
0.0
220
0.0
230
1.0
 40
0.8390996312
 41
3.839724354389193
 42
5.410520681184144
  0
ELLIPSE
  5
151
330
8D
100
AcDbEntity
  8
4221039_0__SIEB_
  6
Continuous
 62
     7
100
AcDbEllipse
 10
35.0971245726
 20
477.7666842946
 30
0.0
 11
0.07660444431176454
 21
0.07660444431173417
 31
0.0
210
0.0
220
0.0
230
1.0
 40
0.8390996312
 41
3.839724354390444
 42
4.014257279584847
  0
ELLIPSE
  5
152
330
8D
100
AcDbEntity
  8
4221039_0__SIEB_
  6
Continuous
 62
     7
100
AcDbEllipse
 10
33.5614102869
 20
477.7666842946
 30
0.0
 11
-0.07660444431172292
 21
0.0766044443117897
 31
0.0
210
0.0
220
0.0
230
1.0
 40
0.8390996312
 41
2.268928027594953
 42
2.44346095278935
  0
ELLIPSE
  5
153
330
8D
100
AcDbEntity
  8
4221039_0__SIEB_
  6
Continuous
 62
     7
100
AcDbEllipse
 10
33.5614102869
 20
477.7666842946
 30
0.0
 11
-0.07660444431174027
 21
-0.0766044443117897
 31
0.0
210
0.0
220
0.0
230
1.0
 40
0.8390996312
 41
0.8726646259945454
 42
2.443460952789878
  0
ELLIPSE
  5
154
330
8D
100
AcDbEntity
  8
4221039_0__SIEB_
  6
Continuous
 62
     7
100
AcDbEllipse
 10
33.5614102869
 20
477.7666842946
 30
0.0
 11
0.07660444431175717
 21
-0.07660444431174805
 31
0.0
210
0.0
220
0.0
230
1.0
 40
0.8390996312
 41
3.839724354388691
 42
5.41052068118413
  0
ELLIPSE
  5
155
330
8D
100
AcDbEntity
  8
4221039_0__SIEB_
  6
Continuous
 62
     7
100
AcDbEllipse
 10
33.5614102869
 20
477.7666842946
 30
0.0
 11
0.07660444431176454
 21
0.07660444431173417
 31
0.0
210
0.0
220
0.0
230
1.0
 40
0.8390996312
 41
3.839724354390444
 42
4.014257279584847
  0
ELLIPSE
  5
156
330
8D
100
AcDbEntity
  8
4221039_0__SIEB_
  6
Continuous
 62
     7
100
AcDbEllipse
 10
32.0256960011
 20
477.7666842946
 30
0.0
 11
-0.07660444431174829
 21
0.07660444431177582
 31
0.0
210
0.0
220
0.0
230
1.0
 40
0.8390996312
 41
2.268928027595281
 42
2.443460952789479
  0
ELLIPSE
  5
157
330
8D
100
AcDbEntity
  8
4221039_0__SIEB_
  6
Continuous
 62
     7
100
AcDbEllipse
 10
32.0256960011
 20
477.7666842946
 30
0.0
 11
-0.07660444431171294
 21
-0.07660444431183133
 31
0.0
210
0.0
220
0.0
230
1.0
 40
0.8390996312
 41
0.8726646259943067
 42
2.443460952789316
  0
ELLIPSE
  5
158
330
8D
100
AcDbEntity
  8
4221039_0__SIEB_
  6
Continuous
 62
     7
100
AcDbEllipse
 10
32.0256960011
 20
477.7666842946
 30
0.0
 11
0.07660444431173115
 21
-0.0766044443117897
 31
0.0
210
0.0
220
0.0
230
0.9999999999999998
 40
0.8390996312
 41
3.839724354389255
 42
5.410520681184778
  0
ELLIPSE
  5
159
330
8D
100
AcDbEntity
  8
4221039_0__SIEB_
  6
Continuous
 62
     7
100
AcDbEllipse
 10
32.0256960011
 20
477.7666842946
 30
0.0
 11
0.07660444431173852
 21
0.0766044443117897
 31
0.0
210
0.0
220
0.0
230
1.0
 40
0.8390996312
 41
3.839724354389144
 42
4.014257279584319
  0
ELLIPSE
  5
15A
330
8D
100
AcDbEntity
  8
4221039_0__SIEB_
  6
Continuous
 62
     7
100
AcDbEllipse
 10
30.4899817154
 20
477.7666842946
 30
0.0
 11
-0.07660444431172296
 21
0.0766044443117897
 31
0.0
210
0.0
220
0.0
230
1.0
 40
0.8390996312
 41
2.268928027594983
 42
2.443460952788953
  0
ELLIPSE
  5
15B
330
8D
100
AcDbEntity
  8
4221039_0__SIEB_
  6
Continuous
 62
     7
100
AcDbEllipse
 10
30.4899817154
 20
477.7666842946
 30
0.0
 11
-0.07660444431171291
 21
-0.07660444431183133
 31
0.0
210
0.0
220
0.0
230
0.9999999999999998
 40
0.8390996312
 41
0.8726646259942762
 42
2.443460952789353
  0
ELLIPSE
  5
15C
330
8D
100
AcDbEntity
  8
4221039_0__SIEB_
  6
Continuous
 62
     7
100
AcDbEllipse
 10
30.4899817154
 20
477.7666842946
 30
0.0
 11
0.07660444431175674
 21
-0.07660444431174807
 31
0.0
210
0.0
220
0.0
230
1.0
 40
0.8390996312
 41
3.839724354389303
 42
5.410520681184134
  0
ELLIPSE
  5
15D
330
8D
100
AcDbEntity
  8
4221039_0__SIEB_
  6
Continuous
 62
     7
100
AcDbEllipse
 10
30.4899817154
 20
477.7666842946
 30
0.0
 11
0.0766044443117387
 21
0.0766044443117897
 31
0.0
210
0.0
220
0.0
230
1.0
 40
0.8390996312
 41
3.839724354389291
 42
4.01425727958426
  0
ELLIPSE
  5
15E
330
8D
100
AcDbEntity
  8
4221039_0__SIEB_
  6
Continuous
 62
     7
100
AcDbEllipse
 10
28.9542674297
 20
477.7666842946
 30
0.0
 11
-0.07660444431173939
 21
0.0766044443117897
 31
0.0
210
0.0
220
0.0
230
1.0
 40
0.8390996312
 41
2.268928027594894
 42
2.443460952788844
  0
ELLIPSE
  5
15F
330
8D
100
AcDbEntity
  8
4221039_0__SIEB_
  6
Continuous
 62
     7
100
AcDbEllipse
 10
28.9542674297
 20
477.7666842946
 30
0.0
 11
-0.07660444431174633
 21
-0.07660444431176194
 31
0.0
210
0.0
220
0.0
230
1.0
 40
0.8390996312
 41
0.8726646259953685
 42
2.443460952790124
  0
ELLIPSE
  5
160
330
8D
100
AcDbEntity
  8
4221039_0__SIEB_
  6
Continuous
 62
     7
100
AcDbEllipse
 10
28.9542674297
 20
477.7666842946
 30
0.0
 11
0.07660444431173766
 21
-0.0766044443117897
 31
0.0
210
0.0
220
0.0
230
1.0
 40
0.8390996312
 41
3.839724354389739
 42
5.410520681185099
  0
ELLIPSE
  5
161
330
8D
100
AcDbEntity
  8
4221039_0__SIEB_
  6
Continuous
 62
     7
100
AcDbEllipse
 10
28.9542674297
 20
477.7666842946
 30
0.0
 11
0.07660444431175349
 21
0.07660444431174807
 31
0.0
210
0.0
220
0.0
230
1.0
 40
0.8390996312
 41
3.839724354390329
 42
4.01425727958524
  0
ELLIPSE
  5
162
330
8D
100
AcDbEntity
  8
4221039_0__SIEB_
  6
Continuous
 62
     7
100
AcDbEllipse
 10
27.418553144
 20
477.7666842946
 30
0.0
 11
-0.07660444431173852
 21
0.0766044443117897
 31
0.0
210
0.0
220
0.0
230
1.0
 40
0.8390996312
 41
2.268928027594904
 42
2.443460952788783
  0
ELLIPSE
  5
163
330
8D
100
AcDbEntity
  8
4221039_0__SIEB_
  6
Continuous
 62
     7
100
AcDbEllipse
 10
27.418553144
 20
477.7666842946
 30
0.0
 11
-0.07660444431175416
 21
-0.07660444431174807
 31
0.0
210
0.0
220
0.0
230
1.0
 40
0.8390996312
 41
0.8726646259954844
 42
2.443460952790325
  0
ELLIPSE
  5
164
330
8D
100
AcDbEntity
  8
4221039_0__SIEB_
  6
Continuous
 62
     7
100
AcDbEllipse
 10
27.418553144
 20
477.7666842946
 30
0.0
 11
0.07660444431173852
 21
-0.0766044443117897
 31
0.0
210
0.0
220
0.0
230
1.0
 40
0.8390996312
 41
3.8397243543892
 42
5.410520681185121
  0
ELLIPSE
  5
165
330
8D
100
AcDbEntity
  8
4221039_0__SIEB_
  6
Continuous
 62
     7
100
AcDbEllipse
 10
27.418553144
 20
477.7666842946
 30
0.0
 11
0.07660444431174546
 21
0.07660444431176194
 31
0.0
210
0.0
220
0.0
230
1.0
 40
0.8390996312
 41
3.839724354390326
 42
4.014257279585213
  0
ELLIPSE
  5
166
330
8D
100
AcDbEntity
  8
4221039_0__SIEB_
  6
Continuous
 62
     7
100
AcDbEllipse
 10
25.8828388583
 20
477.7666842946
 30
0.0
 11
-0.076604444311755
 21
0.07660444431174807
 31
0.0
210
0.0
220
0.0
230
0.9999999999999999
 40
0.8390996312
 41
2.26892802759433
 42
2.44346095278967
  0
ELLIPSE
  5
167
330
8D
100
AcDbEntity
  8
4221039_0__SIEB_
  6
Continuous
 62
     7
100
AcDbEllipse
 10
25.8828388583
 20
477.7666842946
 30
0.0
 11
-0.07660444431171337
 21
-0.07660444431183135
 31
0.0
210
0.0
220
0.0
230
1.0
 40
0.8390996312
 41
0.8726646259942812
 42
2.443460952789316
  0
ELLIPSE
  5
168
330
8D
100
AcDbEntity
  8
4221039_0__SIEB_
  6
Continuous
 62
     7
100
AcDbEllipse
 10
25.8828388583
 20
477.7666842946
 30
0.0
 11
0.0766044443117446
 21
-0.07660444431176194
 31
0.0
210
0.0
220
0.0
230
1.0
 40
0.8390996312
 41
3.839724354388846
 42
5.410520681184207
  0
ELLIPSE
  5
169
330
8D
100
AcDbEntity
  8
4221039_0__SIEB_
  6
Continuous
 62
     7
100
AcDbEllipse
 10
25.8828388583
 20
477.7666842946
 30
0.0
 11
0.07660444431173852
 21
0.0766044443117897
 31
0.0
210
0.0
220
0.0
230
1.0
 40
0.8390996312
 41
3.839724354389216
 42
4.014257279584289
  0
ELLIPSE
  5
16A
330
8D
100
AcDbEntity
  8
4221039_0__SIEB_
  6
Continuous
 62
     7
100
AcDbEllipse
 10
24.3471245726
 20
477.7666842946
 30
0.0
 11
-0.07660444431173852
 21
0.0766044443117897
 31
0.0
210
0.0
220
0.0
230
1.0
 40
0.8390996312
 41
2.268928027595297
 42
2.443460952790298
  0
ELLIPSE
  5
16B
330
8D
100
AcDbEntity
  8
4221039_0__SIEB_
  6
Continuous
 62
     7
100
AcDbEllipse
 10
24.3471245726
 20
477.7666842946
 30
0.0
 11
-0.07660444431172725
 21
-0.07660444431180358
 31
0.0
210
0.0
220
0.0
230
1.0
 40
0.8390996312
 41
0.8726646259948571
 42
2.443460952789652
  0
ELLIPSE
  5
16C
330
8D
100
AcDbEntity
  8
4221039_0__SIEB_
  6
Continuous
 62
     7
100
AcDbEllipse
 10
24.3471245726
 20
477.7666842946
 30
0.0
 11
0.07660444431174113
 21
-0.07660444431177582
 31
0.0
210
0.0
220
0.0
230
1.0
 40
0.8390996312
 41
3.839724354389058
 42
5.410520681184244
  0
ELLIPSE
  5
16D
330
8D
100
AcDbEntity
  8
4221039_0__SIEB_
  6
Continuous
 62
     7
100
AcDbEllipse
 10
24.3471245726
 20
477.7666842946
 30
0.0
 11
0.0766044443117446
 21
0.07660444431176194
 31
0.0
210
0.0
220
0.0
230
1.0
 40
0.8390996312
 41
3.839724354390243
 42
4.014257279584325
  0
ELLIPSE
  5
16E
330
8D
100
AcDbEntity
  8
4221039_0__SIEB_
  6
Continuous
 62
     7
100
AcDbEllipse
 10
22.8114102869
 20
478.0333582817
 30
0.0
 11
0.07660444431173592
 21
-0.0766044443117897
 31
0.0
210
0.0
220
0.0
230
1.0
 40
0.8390996312
 41
3.839724354389807
 42
5.410520681184664
  0
ELLIPSE
  5
16F
330
8D
100
AcDbEntity
  8
4221039_0__SIEB_
  6
Continuous
 62
     7
100
AcDbEllipse
 10
22.8114102869
 20
478.0333582817
 30
0.0
 11
0.07660444431175152
 21
0.07660444431174805
 31
0.0
210
0.0
220
0.0
230
1.0
 40
0.8390996312
 41
3.839724354389978
 42
4.014257279585219
  0
ELLIPSE
  5
170
330
8D
100
AcDbEntity
  8
4221039_0__SIEB_
  6
Continuous
 62
     7
100
AcDbEllipse
 10
24.3471245726
 20
478.0333582817
 30
0.0
 11
0.07660444431173852
 21
-0.0766044443117897
 31
0.0
210
0.0
220
0.0
230
1.0
 40
0.8390996312
 41
3.839724354389777
 42
5.41052068118506
  0
ELLIPSE
  5
171
330
8D
100
AcDbEntity
  8
4221039_0__SIEB_
  6
Continuous
 62
     7
100
AcDbEllipse
 10
24.3471245726
 20
478.0333582817
 30
0.0
 11
0.07660444431173852
 21
0.0766044443117897
 31
0.0
210
0.0
220
0.0
230
1.0
 40
0.8390996312
 41
3.839724354389577
 42
4.014257279584289
  0
ELLIPSE
  5
172
330
8D
100
AcDbEntity
  8
4221039_0__SIEB_
  6
Continuous
 62
     7
100
AcDbEllipse
 10
22.8114102869
 20
478.0333582817
 30
0.0
 11
-0.07660444431173766
 21
0.0766044443117897
 31
0.0
210
0.0
220
0.0
230
1.0
 40
0.8390996312
 41
2.268928027594913
 42
2.443460952789227
  0
ELLIPSE
  5
173
330
8D
100
AcDbEntity
  8
4221039_0__SIEB_
  6
Continuous
 62
     7
100
AcDbEllipse
 10
22.8114102869
 20
478.0333582817
 30
0.0
 11
-0.07660444431177235
 21
-0.07660444431172031
 31
0.0
210
0.0
220
0.0
230
1.0
 40
0.8390996312
 41
0.872664625995593
 42
2.443460952790652
  0
ELLIPSE
  5
174
330
8D
100
AcDbEntity
  8
4221039_0__SIEB_
  6
Continuous
 62
     7
100
AcDbEllipse
 10
25.8828388583
 20
478.0333582817
 30
0.0
 11
0.07660444431173852
 21
-0.0766044443117897
 31
0.0
210
0.0
220
0.0
230
1.0
 40
0.8390996312
 41
3.839724354389164
 42
5.410520681184666
  0
ELLIPSE
  5
175
330
8D
100
AcDbEntity
  8
4221039_0__SIEB_
  6
Continuous
 62
     7
100
AcDbEllipse
 10
25.8828388583
 20
478.0333582817
 30
0.0
 11
0.07660444431173852
 21
0.0766044443117897
 31
0.0
210
0.0
220
0.0
230
1.0
 40
0.8390996312
 41
3.839724354390443
 42
4.014257279584683
  0
ELLIPSE
  5
176
330
8D
100
AcDbEntity
  8
4221039_0__SIEB_
  6
Continuous
 62
     7
100
AcDbEllipse
 10
24.3471245726
 20
478.0333582817
 30
0.0
 11
-0.07660444431174113
 21
0.07660444431177582
 31
0.0
210
0.0
220
0.0
230
1.0
 40
0.8390996312
 41
2.268928027594482
 42
2.443460952789358
  0
ELLIPSE
  5
177
330
8D
100
AcDbEntity
  8
4221039_0__SIEB_
  6
Continuous
 62
     7
100
AcDbEllipse
 10
24.3471245726
 20
478.0333582817
 30
0.0
 11
-0.07660444431174113
 21
-0.07660444431177582
 31
0.0
210
0.0
220
0.0
230
1.0
 40
0.8390996312
 41
0.8726646259953418
 42
2.443460952789952
  0
ELLIPSE
  5
178
330
8D
100
AcDbEntity
  8
4221039_0__SIEB_
  6
Continuous
 62
     7
100
AcDbEllipse
 10
27.418553144
 20
478.0333582817
 30
0.0
 11
0.07660444431173852
 21
-0.0766044443117897
 31
0.0
210
0.0
220
0.0
230
1.0
 40
0.8390996312
 41
3.839724354389777
 42
5.410520681185121
  0
ELLIPSE
  5
179
330
8D
100
AcDbEntity
  8
4221039_0__SIEB_
  6
Continuous
 62
     7
100
AcDbEllipse
 10
27.418553144
 20
478.0333582817
 30
0.0
 11
0.07660444431172031
 21
0.07660444431181745
 31
0.0
210
0.0
220
0.0
230
1.0
 40
0.8390996312
 41
3.839724354389075
 42
4.014257279584211
  0
ELLIPSE
  5
17A
330
8D
100
AcDbEntity
  8
4221039_0__SIEB_
  6
Continuous
 62
     7
100
AcDbEllipse
 10
25.8828388583
 20
478.0333582817
 30
0.0
 11
-0.07660444431173852
 21
0.0766044443117897
 31
0.0
210
0.0
220
0.0
230
1.0
 40
0.8390996312
 41
2.268928027595297
 42
2.443460952789072
  0
ELLIPSE
  5
17B
330
8D
100
AcDbEntity
  8
4221039_0__SIEB_
  6
Continuous
 62
     7
100
AcDbEllipse
 10
25.8828388583
 20
478.0333582817
 30
0.0
 11
-0.07660444431171337
 21
-0.07660444431183135
 31
0.0
210
0.0
220
0.0
230
1.0
 40
0.8390996312
 41
0.8726646259952195
 42
2.443460952789857
  0
ELLIPSE
  5
17C
330
8D
100
AcDbEntity
  8
4221039_0__SIEB_
  6
Continuous
 62
     7
100
AcDbEllipse
 10
28.9542674297
 20
478.0333582817
 30
0.0
 11
0.07660444431173766
 21
-0.0766044443117897
 31
0.0
210
0.0
220
0.0
230
1.0
 40
0.8390996312
 41
3.839724354389739
 42
5.410520681185099
  0
ELLIPSE
  5
17D
330
8D
100
AcDbEntity
  8
4221039_0__SIEB_
  6
Continuous
 62
     7
100
AcDbEllipse
 10
28.9542674297
 20
478.0333582817
 30
0.0
 11
0.07660444431173766
 21
0.0766044443117897
 31
0.0
210
0.0
220
0.0
230
1.0
 40
0.8390996312
 41
3.839724354390287
 42
4.014257279584672
  0
ELLIPSE
  5
17E
330
8D
100
AcDbEntity
  8
4221039_0__SIEB_
  6
Continuous
 62
     7
100
AcDbEllipse
 10
27.418553144
 20
478.0333582817
 30
0.0
 11
-0.07660444431173852
 21
0.0766044443117897
 31
0.0
210
0.0
220
0.0
230
1.0
 40
0.8390996312
 41
2.268928027594904
 42
2.443460952789072
  0
ELLIPSE
  5
17F
330
8D
100
AcDbEntity
  8
4221039_0__SIEB_
  6
Continuous
 62
     7
100
AcDbEllipse
 10
27.418553144
 20
478.0333582817
 30
0.0
 11
-0.07660444431175416
 21
-0.07660444431174807
 31
0.0
210
0.0
220
0.0
230
1.0
 40
0.8390996312
 41
0.8726646259954844
 42
2.443460952790325
  0
ELLIPSE
  5
180
330
8D
100
AcDbEntity
  8
4221039_0__SIEB_
  6
Continuous
 62
     7
100
AcDbEllipse
 10
30.4899817154
 20
478.0333582817
 30
0.0
 11
0.07660444431173825
 21
-0.0766044443117897
 31
0.0
210
0.0
220
0.0
230
1.0
 40
0.8390996312
 41
3.839724354389776
 42
5.410520681185123
  0
ELLIPSE
  5
181
330
8D
100
AcDbEntity
  8
4221039_0__SIEB_
  6
Continuous
 62
     7
100
AcDbEllipse
 10
30.4899817154
 20
478.0333582817
 30
0.0
 11
0.0766044443117387
 21
0.0766044443117897
 31
0.0
210
0.0
220
0.0
230
1.0
 40
0.8390996312
 41
3.839724354389687
 42
4.01425727958426
  0
ELLIPSE
  5
182
330
8D
100
AcDbEntity
  8
4221039_0__SIEB_
  6
Continuous
 62
     7
100
AcDbEllipse
 10
28.9542674297
 20
478.0333582817
 30
0.0
 11
-0.07660444431173939
 21
0.0766044443117897
 31
0.0
210
0.0
220
0.0
230
1.0
 40
0.8390996312
 41
2.268928027594894
 42
2.443460952789132
  0
ELLIPSE
  5
183
330
8D
100
AcDbEntity
  8
4221039_0__SIEB_
  6
Continuous
 62
     7
100
AcDbEllipse
 10
28.9542674297
 20
478.0333582817
 30
0.0
 11
-0.07660444431171294
 21
-0.07660444431183133
 31
0.0
210
0.0
220
0.0
230
1.0
 40
0.8390996312
 41
0.8726646259951543
 42
2.443460952789894
  0
ELLIPSE
  5
184
330
8D
100
AcDbEntity
  8
4221039_0__SIEB_
  6
Continuous
 62
     7
100
AcDbEllipse
 10
32.0256960011
 20
478.0333582817
 30
0.0
 11
0.07660444431173852
 21
-0.0766044443117897
 31
0.0
210
0.0
220
0.0
230
1.0
 40
0.8390996312
 41
3.8397243543892
 42
5.410520681184696
  0
ELLIPSE
  5
185
330
8D
100
AcDbEntity
  8
4221039_0__SIEB_
  6
Continuous
 62
     7
100
AcDbEllipse
 10
32.0256960011
 20
478.0333582817
 30
0.0
 11
0.07660444431173852
 21
0.0766044443117897
 31
0.0
210
0.0
220
0.0
230
1.0
 40
0.8390996312
 41
3.839724354389577
 42
4.014257279584259
  0
ELLIPSE
  5
186
330
8D
100
AcDbEntity
  8
4221039_0__SIEB_
  6
Continuous
 62
     7
100
AcDbEllipse
 10
30.4899817154
 20
478.0333582817
 30
0.0
 11
-0.07660444431173849
 21
0.0766044443117897
 31
0.0
210
0.0
220
0.0
230
1.0
 40
0.8390996312
 41
2.268928027594904
 42
2.443460952789216
  0
ELLIPSE
  5
187
330
8D
100
AcDbEntity
  8
4221039_0__SIEB_
  6
Continuous
 62
     7
100
AcDbEllipse
 10
30.4899817154
 20
478.0333582817
 30
0.0
 11
-0.07660444431173848
 21
-0.0766044443117897
 31
0.0
210
0.0
220
0.0
230
1.0
 40
0.8390996312
 41
0.8726646259944655
 42
2.443460952789846
  0
ELLIPSE
  5
188
330
8D
100
AcDbEntity
  8
4221039_0__SIEB_
  6
Continuous
 62
     7
100
AcDbEllipse
 10
33.5614102869
 20
478.0333582817
 30
0.0
 11
0.07660444431173852
 21
-0.0766044443117897
 31
0.0
210
0.0
220
0.0
230
1.0
 40
0.8390996312
 41
3.839724354389777
 42
5.410520681185121
  0
ELLIPSE
  5
189
330
8D
100
AcDbEntity
  8
4221039_0__SIEB_
  6
Continuous
 62
     7
100
AcDbEllipse
 10
33.5614102869
 20
478.0333582817
 30
0.0
 11
0.07660444431173852
 21
0.0766044443117897
 31
0.0
210
0.0
220
0.0
230
1.0
 40
0.8390996312
 41
3.839724354390298
 42
4.014257279584683
  0
ELLIPSE
  5
18A
330
8D
100
AcDbEntity
  8
4221039_0__SIEB_
  6
Continuous
 62
     7
100
AcDbEllipse
 10
32.0256960011
 20
478.0333582817
 30
0.0
 11
-0.07660444431173939
 21
0.0766044443117897
 31
0.0
210
0.0
220
0.0
230
1.0
 40
0.8390996312
 41
2.268928027595318
 42
2.443460952789132
  0
ELLIPSE
  5
18B
330
8D
100
AcDbEntity
  8
4221039_0__SIEB_
  6
Continuous
 62
     7
100
AcDbEllipse
 10
32.0256960011
 20
478.0333582817
 30
0.0
 11
-0.07660444431173939
 21
-0.0766044443117897
 31
0.0
210
0.0
220
0.0
230
1.0
 40
0.8390996312
 41
0.8726646259944751
 42
2.443460952789808
  0
ELLIPSE
  5
18C
330
8D
100
AcDbEntity
  8
4221039_0__SIEB_
  6
Continuous
 62
     7
100
AcDbEllipse
 10
35.0971245726
 20
478.0333582817
 30
0.0
 11
0.07660444431173852
 21
-0.0766044443117897
 31
0.0
210
0.0
220
0.0
230
1.0
 40
0.8390996312
 41
3.839724354389705
 42
5.410520681185121
  0
ELLIPSE
  5
18D
330
8D
100
AcDbEntity
  8
4221039_0__SIEB_
  6
Continuous
 62
     7
100
AcDbEllipse
 10
35.0971245726
 20
478.0333582817
 30
0.0
 11
0.07660444431173852
 21
0.0766044443117897
 31
0.0
210
0.0
220
0.0
230
1.0
 40
0.8390996312
 41
3.839724354390298
 42
4.014257279584683
  0
ELLIPSE
  5
18E
330
8D
100
AcDbEntity
  8
4221039_0__SIEB_
  6
Continuous
 62
     7
100
AcDbEllipse
 10
33.5614102869
 20
478.0333582817
 30
0.0
 11
-0.07660444431173852
 21
0.0766044443117897
 31
0.0
210
0.0
220
0.0
230
1.0
 40
0.8390996312
 41
2.268928027594904
 42
2.443460952789288
  0
ELLIPSE
  5
18F
330
8D
100
AcDbEntity
  8
4221039_0__SIEB_
  6
Continuous
 62
     7
100
AcDbEllipse
 10
33.5614102869
 20
478.0333582817
 30
0.0
 11
-0.07660444431171294
 21
-0.07660444431183133
 31
0.0
210
0.0
220
0.0
230
1.0
 40
0.8390996312
 41
0.8726646259951543
 42
2.443460952789894
  0
ELLIPSE
  5
190
330
8D
100
AcDbEntity
  8
4221039_0__SIEB_
  6
Continuous
 62
     7
100
AcDbEllipse
 10
36.6328388583
 20
478.0333582817
 30
0.0
 11
0.07660444431174199
 21
-0.07660444431176194
 31
0.0
210
0.0
220
0.0
230
0.9999999999999999
 40
0.8390996312
 41
3.839724354389489
 42
5.410520681185203
  0
ELLIPSE
  5
191
330
8D
100
AcDbEntity
  8
4221039_0__SIEB_
  6
Continuous
 62
     7
100
AcDbEllipse
 10
36.6328388583
 20
478.0333582817
 30
0.0
 11
0.07660444431173852
 21
0.0766044443117897
 31
0.0
210
0.0
220
0.0
230
1.0
 40
0.8390996312
 41
3.839724354389577
 42
4.014257279584259
  0
ELLIPSE
  5
192
330
8D
100
AcDbEntity
  8
4221039_0__SIEB_
  6
Continuous
 62
     7
100
AcDbEllipse
 10
35.0971245726
 20
478.0333582817
 30
0.0
 11
-0.07660444431173852
 21
0.0766044443117897
 31
0.0
210
0.0
220
0.0
230
1.0
 40
0.8390996312
 41
2.268928027594904
 42
2.443460952789288
  0
ELLIPSE
  5
193
330
8D
100
AcDbEntity
  8
4221039_0__SIEB_
  6
Continuous
 62
     7
100
AcDbEllipse
 10
35.0971245726
 20
478.0333582817
 30
0.0
 11
-0.07660444431171337
 21
-0.07660444431183135
 31
0.0
210
0.0
220
0.0
230
1.0
 40
0.8390996312
 41
0.8726646259952195
 42
2.443460952789893
  0
ELLIPSE
  5
194
330
8D
100
AcDbEntity
  8
4221039_0__SIEB_
  6
Continuous
 62
     7
100
AcDbEllipse
 10
38.168553144
 20
478.0333582817
 30
0.0
 11
0.07660444431173852
 21
-0.0766044443117897
 31
0.0
210
0.0
220
0.0
230
1.0
 40
0.8390996312
 41
3.8397243543892
 42
5.410520681184636
  0
ELLIPSE
  5
195
330
8D
100
AcDbEntity
  8
4221039_0__SIEB_
  6
Continuous
 62
     7
100
AcDbEllipse
 10
38.168553144
 20
478.0333582817
 30
0.0
 11
0.07660444431173592
 21
0.0766044443117897
 31
0.0
210
0.0
220
0.0
230
1.0
 40
0.8390996312
 41
3.839724354389686
 42
4.014257279584655
  0
ELLIPSE
  5
196
330
8D
100
AcDbEntity
  8
4221039_0__SIEB_
  6
Continuous
 62
     7
100
AcDbEllipse
 10
36.6328388583
 20
478.0333582817
 30
0.0
 11
-0.07660444431172725
 21
0.07660444431180358
 31
0.0
210
0.0
220
0.0
230
1.0
 40
0.8390996312
 41
2.268928027594967
 42
2.443460952789838
  0
ELLIPSE
  5
197
330
8D
100
AcDbEntity
  8
4221039_0__SIEB_
  6
Continuous
 62
     7
100
AcDbEllipse
 10
36.6328388583
 20
478.0333582817
 30
0.0
 11
-0.07660444431173852
 21
-0.0766044443117897
 31
0.0
210
0.0
220
0.0
230
1.0
 40
0.8390996312
 41
0.8726646259944657
 42
2.443460952789809
  0
ELLIPSE
  5
198
330
8D
100
AcDbEntity
  8
4221039_0__SIEB_
  6
Continuous
 62
     7
100
AcDbEllipse
 10
38.168553144
 20
478.0333582817
 30
0.0
 11
-0.07660444431173852
 21
0.0766044443117897
 31
0.0
210
0.0
220
0.0
230
1.0
 40
0.8390996312
 41
2.268928027595328
 42
2.443460952789144
  0
ELLIPSE
  5
199
330
8D
100
AcDbEntity
  8
4221039_0__SIEB_
  6
Continuous
 62
     7
100
AcDbEllipse
 10
38.168553144
 20
478.0333582817
 30
0.0
 11
-0.07660444431171337
 21
-0.07660444431183135
 31
0.0
210
0.0
220
0.0
230
1.0
 40
0.8390996312
 41
0.872664625995159
 42
2.44346095278982
  0
ELLIPSE
  5
19A
330
8D
100
AcDbEntity
  8
4221039_0__SIEB_
  6
Continuous
 62
     7
100
AcDbEllipse
 10
38.168553144
 20
478.3000322689
 30
0.0
 11
-0.07660444431173852
 21
0.0766044443117897
 31
0.0
210
0.0
220
0.0
230
1.0
 40
0.8390996312
 41
2.268928027595328
 42
2.443460952790442
  0
ELLIPSE
  5
19B
330
8D
100
AcDbEntity
  8
4221039_0__SIEB_
  6
Continuous
 62
     7
100
AcDbEllipse
 10
38.168553144
 20
478.3000322689
 30
0.0
 11
-0.07660444431173852
 21
-0.0766044443117897
 31
0.0
210
0.0
220
0.0
230
1.0
 40
0.8390996312
 41
0.8726646259944657
 42
2.443460952789809
  0
ELLIPSE
  5
19C
330
8D
100
AcDbEntity
  8
4221039_0__SIEB_
  6
Continuous
 62
     7
100
AcDbEllipse
 10
38.168553144
 20
478.3000322689
 30
0.0
 11
0.07660444431173592
 21
-0.0766044443117897
 31
0.0
210
0.0
220
0.0
230
1.0
 40
0.8390996312
 41
3.839724354389771
 42
5.410520681185149
  0
ELLIPSE
  5
19D
330
8D
100
AcDbEntity
  8
4221039_0__SIEB_
  6
Continuous
 62
     7
100
AcDbEllipse
 10
38.168553144
 20
478.3000322689
 30
0.0
 11
0.0766044443117099
 21
0.07660444431183133
 31
0.0
210
0.0
220
0.0
230
0.9999999999999998
 40
0.8390996312
 41
3.839724354389005
 42
4.014257279584067
  0
ELLIPSE
  5
19E
330
8D
100
AcDbEntity
  8
4221039_0__SIEB_
  6
Continuous
 62
     7
100
AcDbEllipse
 10
36.6328388583
 20
478.3000322689
 30
0.0
 11
-0.07660444431173852
 21
0.0766044443117897
 31
0.0
210
0.0
220
0.0
230
1.0
 40
0.8390996312
 41
2.268928027595328
 42
2.443460952790442
  0
ELLIPSE
  5
19F
330
8D
100
AcDbEntity
  8
4221039_0__SIEB_
  6
Continuous
 62
     7
100
AcDbEllipse
 10
36.6328388583
 20
478.3000322689
 30
0.0
 11
-0.07660444431173852
 21
-0.0766044443117897
 31
0.0
210
0.0
220
0.0
230
1.0
 40
0.8390996312
 41
0.8726646259944657
 42
2.443460952789809
  0
ELLIPSE
  5
1A0
330
8D
100
AcDbEntity
  8
4221039_0__SIEB_
  6
Continuous
 62
     7
100
AcDbEllipse
 10
36.6328388583
 20
478.3000322689
 30
0.0
 11
0.07660444431173852
 21
-0.0766044443117897
 31
0.0
210
0.0
220
0.0
230
1.0
 40
0.8390996312
 41
3.839724354389777
 42
5.410520681185121
  0
ELLIPSE
  5
1A1
330
8D
100
AcDbEntity
  8
4221039_0__SIEB_
  6
Continuous
 62
     7
100
AcDbEllipse
 10
36.6328388583
 20
478.3000322689
 30
0.0
 11
0.07660444431171337
 21
0.07660444431183135
 31
0.0
210
0.0
220
0.0
230
1.0
 40
0.8390996312
 41
3.839724354389051
 42
4.014257279584104
  0
ELLIPSE
  5
1A2
330
8D
100
AcDbEntity
  8
4221039_0__SIEB_
  6
Continuous
 62
     7
100
AcDbEllipse
 10
35.0971245726
 20
478.3000322689
 30
0.0
 11
-0.07660444431173852
 21
0.0766044443117897
 31
0.0
210
0.0
220
0.0
230
1.0
 40
0.8390996312
 41
2.268928027595328
 42
2.443460952789793
  0
ELLIPSE
  5
1A3
330
8D
100
AcDbEntity
  8
4221039_0__SIEB_
  6
Continuous
 62
     7
100
AcDbEllipse
 10
35.0971245726
 20
478.3000322689
 30
0.0
 11
-0.07660444431175586
 21
-0.07660444431174807
 31
0.0
210
0.0
220
0.0
230
1.0
 40
0.8390996312
 41
0.8726646259950189
 42
2.443460952789744
  0
ELLIPSE
  5
1A4
330
8D
100
AcDbEntity
  8
4221039_0__SIEB_
  6
Continuous
 62
     7
100
AcDbEllipse
 10
35.0971245726
 20
478.3000322689
 30
0.0
 11
0.07660444431173852
 21
-0.0766044443117897
 31
0.0
210
0.0
220
0.0
230
1.0
 40
0.8390996312
 41
3.839724354389705
 42
5.410520681185121
  0
ELLIPSE
  5
1A5
330
8D
100
AcDbEntity
  8
4221039_0__SIEB_
  6
Continuous
 62
     7
100
AcDbEllipse
 10
35.0971245726
 20
478.3000322689
 30
0.0
 11
0.07660444431172378
 21
0.07660444431181747
 31
0.0
210
0.0
220
0.0
230
1.0
 40
0.8390996312
 41
3.83972435438894
 42
4.014257279584218
  0
ELLIPSE
  5
1A6
330
8D
100
AcDbEntity
  8
4221039_0__SIEB_
  6
Continuous
 62
     7
100
AcDbEllipse
 10
33.5614102869
 20
478.3000322689
 30
0.0
 11
-0.07660444431173852
 21
0.0766044443117897
 31
0.0
210
0.0
220
0.0
230
1.0
 40
0.8390996312
 41
2.268928027595328
 42
2.443460952790298
  0
ELLIPSE
  5
1A7
330
8D
100
AcDbEntity
  8
4221039_0__SIEB_
  6
Continuous
 62
     7
100
AcDbEllipse
 10
33.5614102869
 20
478.3000322689
 30
0.0
 11
-0.07660444431176454
 21
-0.07660444431173417
 31
0.0
210
0.0
220
0.0
230
1.0
 40
0.8390996312
 41
0.8726646259951749
 42
2.443460952789908
  0
ELLIPSE
  5
1A8
330
8D
100
AcDbEntity
  8
4221039_0__SIEB_
  6
Continuous
 62
     7
100
AcDbEllipse
 10
33.5614102869
 20
478.3000322689
 30
0.0
 11
0.07660444431173852
 21
-0.0766044443117897
 31
0.0
210
0.0
220
0.0
230
1.0
 40
0.8390996312
 41
3.839724354389777
 42
5.410520681185121
  0
ELLIPSE
  5
1A9
330
8D
100
AcDbEntity
  8
4221039_0__SIEB_
  6
Continuous
 62
     7
100
AcDbEllipse
 10
33.5614102869
 20
478.3000322689
 30
0.0
 11
0.07660444431173852
 21
0.0766044443117897
 31
0.0
210
0.0
220
0.0
230
1.0
 40
0.8390996312
 41
3.839724354389793
 42
4.014257279584319
  0
ELLIPSE
  5
1AA
330
8D
100
AcDbEntity
  8
4221039_0__SIEB_
  6
Continuous
 62
     7
100
AcDbEllipse
 10
32.0256960011
 20
478.3000322689
 30
0.0
 11
-0.07660444431173939
 21
0.0766044443117897
 31
0.0
210
0.0
220
0.0
230
1.0
 40
0.8390996312
 41
2.268928027595318
 42
2.443460952790287
  0
ELLIPSE
  5
1AB
330
8D
100
AcDbEntity
  8
4221039_0__SIEB_
  6
Continuous
 62
     7
100
AcDbEllipse
 10
32.0256960011
 20
478.3000322689
 30
0.0
 11
-0.07660444431176476
 21
-0.07660444431173419
 31
0.0
210
0.0
220
0.0
230
1.0
 40
0.8390996312
 41
0.8726646259951163
 42
2.443460952789259
  0
ELLIPSE
  5
1AC
330
8D
100
AcDbEntity
  8
4221039_0__SIEB_
  6
Continuous
 62
     7
100
AcDbEllipse
 10
32.0256960011
 20
478.3000322689
 30
0.0
 11
0.07660444431173852
 21
-0.0766044443117897
 31
0.0
210
0.0
220
0.0
230
1.0
 40
0.8390996312
 41
3.839724354389777
 42
5.410520681185121
  0
ELLIPSE
  5
1AD
330
8D
100
AcDbEntity
  8
4221039_0__SIEB_
  6
Continuous
 62
     7
100
AcDbEllipse
 10
32.0256960011
 20
478.3000322689
 30
0.0
 11
0.07660444431173852
 21
0.0766044443117897
 31
0.0
210
0.0
220
0.0
230
1.0
 40
0.8390996312
 41
3.839724354389721
 42
4.014257279584259
  0
ELLIPSE
  5
1AE
330
8D
100
AcDbEntity
  8
4221039_0__SIEB_
  6
Continuous
 62
     7
100
AcDbEllipse
 10
30.4899817154
 20
478.3000322689
 30
0.0
 11
-0.07660444431173849
 21
0.0766044443117897
 31
0.0
210
0.0
220
0.0
230
1.0
 40
0.8390996312
 41
2.268928027595328
 42
2.443460952790298
  0
ELLIPSE
  5
1AF
330
8D
100
AcDbEntity
  8
4221039_0__SIEB_
  6
Continuous
 62
     7
100
AcDbEllipse
 10
30.4899817154
 20
478.3000322689
 30
0.0
 11
-0.07660444431173848
 21
-0.0766044443117897
 31
0.0
210
0.0
220
0.0
230
1.0
 40
0.8390996312
 41
0.8726646259944655
 42
2.443460952789846
  0
ELLIPSE
  5
1B0
330
8D
100
AcDbEntity
  8
4221039_0__SIEB_
  6
Continuous
 62
     7
100
AcDbEllipse
 10
30.4899817154
 20
478.3000322689
 30
0.0
 11
0.07660444431173825
 21
-0.0766044443117897
 31
0.0
210
0.0
220
0.0
230
1.0
 40
0.8390996312
 41
3.839724354389776
 42
5.410520681185123
  0
ELLIPSE
  5
1B1
330
8D
100
AcDbEntity
  8
4221039_0__SIEB_
  6
Continuous
 62
     7
100
AcDbEllipse
 10
30.4899817154
 20
478.3000322689
 30
0.0
 11
0.07660444431171298
 21
0.07660444431183132
 31
0.0
210
0.0
220
0.0
230
1.0
 40
0.8390996312
 41
3.839724354389262
 42
4.01425727958407
  0
ELLIPSE
  5
1B2
330
8D
100
AcDbEntity
  8
4221039_0__SIEB_
  6
Continuous
 62
     7
100
AcDbEllipse
 10
28.9542674297
 20
478.3000322689
 30
0.0
 11
-0.07660444431173939
 21
0.0766044443117897
 31
0.0
210
0.0
220
0.0
230
1.0
 40
0.8390996312
 41
2.268928027595288
 42
2.44346095279025
  0
ELLIPSE
  5
1B3
330
8D
100
AcDbEntity
  8
4221039_0__SIEB_
  6
Continuous
 62
     7
100
AcDbEllipse
 10
28.9542674297
 20
478.3000322689
 30
0.0
 11
-0.07660444431176433
 21
-0.07660444431173419
 31
0.0
210
0.0
220
0.0
230
0.9999999999999999
 40
0.8390996312
 41
0.8726646259950814
 42
2.443460952789837
  0
ELLIPSE
  5
1B4
330
8D
100
AcDbEntity
  8
4221039_0__SIEB_
  6
Continuous
 62
     7
100
AcDbEllipse
 10
28.9542674297
 20
478.3000322689
 30
0.0
 11
0.07660444431173766
 21
-0.0766044443117897
 31
0.0
210
0.0
220
0.0
230
1.0
 40
0.8390996312
 41
3.839724354389739
 42
5.410520681184706
  0
ELLIPSE
  5
1B5
330
8D
100
AcDbEntity
  8
4221039_0__SIEB_
  6
Continuous
 62
     7
100
AcDbEllipse
 10
28.9542674297
 20
478.3000322689
 30
0.0
 11
0.07660444431173766
 21
0.0766044443117897
 31
0.0
210
0.0
220
0.0
230
1.0
 40
0.8390996312
 41
3.839724354389133
 42
4.01425727958425
  0
ELLIPSE
  5
1B6
330
8D
100
AcDbEntity
  8
4221039_0__SIEB_
  6
Continuous
 62
     7
100
AcDbEllipse
 10
27.418553144
 20
478.3000322689
 30
0.0
 11
-0.07660444431173852
 21
0.0766044443117897
 31
0.0
210
0.0
220
0.0
230
1.0
 40
0.8390996312
 41
2.268928027595328
 42
2.443460952790081
  0
ELLIPSE
  5
1B7
330
8D
100
AcDbEntity
  8
4221039_0__SIEB_
  6
Continuous
 62
     7
100
AcDbEllipse
 10
27.418553144
 20
478.3000322689
 30
0.0
 11
-0.07660444431176454
 21
-0.07660444431173417
 31
0.0
210
0.0
220
0.0
230
1.0
 40
0.8390996312
 41
0.8726646259951143
 42
2.443460952789872
  0
ELLIPSE
  5
1B8
330
8D
100
AcDbEntity
  8
4221039_0__SIEB_
  6
Continuous
 62
     7
100
AcDbEllipse
 10
27.418553144
 20
478.3000322689
 30
0.0
 11
0.07660444431173852
 21
-0.0766044443117897
 31
0.0
210
0.0
220
0.0
230
1.0
 40
0.8390996312
 41
3.839724354389777
 42
5.410520681185121
  0
ELLIPSE
  5
1B9
330
8D
100
AcDbEntity
  8
4221039_0__SIEB_
  6
Continuous
 62
     7
100
AcDbEllipse
 10
27.418553144
 20
478.3000322689
 30
0.0
 11
0.07660444431173852
 21
0.0766044443117897
 31
0.0
210
0.0
220
0.0
230
1.0
 40
0.8390996312
 41
3.839724354389685
 42
4.014257279584259
  0
ELLIPSE
  5
1BA
330
8D
100
AcDbEntity
  8
4221039_0__SIEB_
  6
Continuous
 62
     7
100
AcDbEllipse
 10
25.8828388583
 20
478.3000322689
 30
0.0
 11
-0.07660444431173852
 21
0.0766044443117897
 31
0.0
210
0.0
220
0.0
230
1.0
 40
0.8390996312
 41
2.268928027595297
 42
2.443460952790226
  0
ELLIPSE
  5
1BB
330
8D
100
AcDbEntity
  8
4221039_0__SIEB_
  6
Continuous
 62
     7
100
AcDbEllipse
 10
25.8828388583
 20
478.3000322689
 30
0.0
 11
-0.07660444431176454
 21
-0.07660444431173417
 31
0.0
210
0.0
220
0.0
230
1.0
 40
0.8390996312
 41
0.872664625995084
 42
2.443460952789836
  0
ELLIPSE
  5
1BC
330
8D
100
AcDbEntity
  8
4221039_0__SIEB_
  6
Continuous
 62
     7
100
AcDbEllipse
 10
25.8828388583
 20
478.3000322689
 30
0.0
 11
0.07660444431173852
 21
-0.0766044443117897
 31
0.0
210
0.0
220
0.0
230
1.0
 40
0.8390996312
 41
3.839724354389741
 42
5.41052068118506
  0
ELLIPSE
  5
1BD
330
8D
100
AcDbEntity
  8
4221039_0__SIEB_
  6
Continuous
 62
     7
100
AcDbEllipse
 10
25.8828388583
 20
478.3000322689
 30
0.0
 11
0.07660444431173852
 21
0.0766044443117897
 31
0.0
210
0.0
220
0.0
230
1.0
 40
0.8390996312
 41
3.839724354389216
 42
4.014257279584289
  0
ELLIPSE
  5
1BE
330
8D
100
AcDbEntity
  8
4221039_0__SIEB_
  6
Continuous
 62
     7
100
AcDbEllipse
 10
24.3471245726
 20
478.3000322689
 30
0.0
 11
-0.07660444431174113
 21
0.07660444431177582
 31
0.0
210
0.0
220
0.0
230
1.0
 40
0.8390996312
 41
2.26892802759536
 42
2.443460952790368
  0
ELLIPSE
  5
1BF
330
8D
100
AcDbEntity
  8
4221039_0__SIEB_
  6
Continuous
 62
     7
100
AcDbEllipse
 10
24.3471245726
 20
478.3000322689
 30
0.0
 11
-0.07660444431174113
 21
-0.07660444431177582
 31
0.0
210
0.0
220
0.0
230
1.0
 40
0.8390996312
 41
0.8726646259953418
 42
2.443460952789952
  0
ELLIPSE
  5
1C0
330
8D
100
AcDbEntity
  8
4221039_0__SIEB_
  6
Continuous
 62
     7
100
AcDbEllipse
 10
24.3471245726
 20
478.3000322689
 30
0.0
 11
0.07660444431173852
 21
-0.0766044443117897
 31
0.0
210
0.0
220
0.0
230
1.0
 40
0.8390996312
 41
3.839724354389777
 42
5.41052068118506
  0
ELLIPSE
  5
1C1
330
8D
100
AcDbEntity
  8
4221039_0__SIEB_
  6
Continuous
 62
     7
100
AcDbEllipse
 10
24.3471245726
 20
478.3000322689
 30
0.0
 11
0.07660444431171337
 21
0.07660444431183135
 31
0.0
210
0.0
220
0.0
230
1.0
 40
0.8390996312
 41
3.839724354389195
 42
4.014257279584074
  0
ELLIPSE
  5
1C2
330
8D
100
AcDbEntity
  8
4221039_0__SIEB_
  6
Continuous
 62
     7
100
AcDbEllipse
 10
22.8114102869
 20
478.3000322689
 30
0.0
 11
-0.07660444431173766
 21
0.0766044443117897
 31
0.0
210
0.0
220
0.0
230
1.0
 40
0.8390996312
 41
2.268928027595337
 42
2.443460952790237
  0
ELLIPSE
  5
1C3
330
8D
100
AcDbEntity
  8
4221039_0__SIEB_
  6
Continuous
 62
     7
100
AcDbEllipse
 10
22.8114102869
 20
478.3000322689
 30
0.0
 11
-0.07660444431174633
 21
-0.07660444431176194
 31
0.0
210
0.0
220
0.0
230
1.0
 40
0.8390996312
 41
0.8726646259953685
 42
2.44346095279016
  0
ELLIPSE
  5
1C4
330
8D
100
AcDbEntity
  8
4221039_0__SIEB_
  6
Continuous
 62
     7
100
AcDbEllipse
 10
22.8114102869
 20
478.3000322689
 30
0.0
 11
0.07660444431173592
 21
-0.0766044443117897
 31
0.0
210
0.0
220
0.0
230
1.0
 40
0.8390996312
 41
3.839724354389807
 42
5.410520681184664
  0
ELLIPSE
  5
1C5
330
8D
100
AcDbEntity
  8
4221039_0__SIEB_
  6
Continuous
 62
     7
100
AcDbEllipse
 10
22.8114102869
 20
478.3000322689
 30
0.0
 11
0.076604444311755
 21
0.07660444431174807
 31
0.0
210
0.0
220
0.0
230
1.0
 40
0.8390996312
 41
3.839724354389627
 42
4.014257279584802
  0
ELLIPSE
  5
1C6
330
8D
100
AcDbEntity
  8
4221039_0__SIEB_
  6
Continuous
 62
     7
100
AcDbEllipse
 10
22.8114102869
 20
478.566706256
 30
0.0
 11
0.07660444431175847
 21
-0.07660444431174807
 31
0.0
210
0.0
220
0.0
230
1.0
 40
0.8390996312
 41
3.839724354389848
 42
5.410520681184993
  0
ELLIPSE
  5
1C7
330
8D
100
AcDbEntity
  8
4221039_0__SIEB_
  6
Continuous
 62
     7
100
AcDbEllipse
 10
22.8114102869
 20
478.566706256
 30
0.0
 11
0.076604444311755
 21
0.07660444431174807
 31
0.0
210
0.0
220
0.0
230
1.0
 40
0.8390996312
 41
3.839724354389591
 42
4.014257279584318
  0
ELLIPSE
  5
1C8
330
8D
100
AcDbEntity
  8
4221039_0__SIEB_
  6
Continuous
 62
     7
100
AcDbEllipse
 10
24.3471245726
 20
478.566706256
 30
0.0
 11
0.07660444431175586
 21
-0.07660444431174807
 31
0.0
210
0.0
220
0.0
230
1.0
 40
0.8390996312
 41
3.839724354389878
 42
5.410520681185051
  0
ELLIPSE
  5
1C9
330
8D
100
AcDbEntity
  8
4221039_0__SIEB_
  6
Continuous
 62
     7
100
AcDbEllipse
 10
24.3471245726
 20
478.566706256
 30
0.0
 11
0.07660444431171337
 21
0.07660444431183135
 31
0.0
210
0.0
220
0.0
230
1.0
 40
0.8390996312
 41
3.839724354389592
 42
4.01425727958359
  0
ELLIPSE
  5
1CA
330
8D
100
AcDbEntity
  8
4221039_0__SIEB_
  6
Continuous
 62
     7
100
AcDbEllipse
 10
22.8114102869
 20
478.566706256
 30
0.0
 11
-0.07660444431172377
 21
0.07660444431178969
 31
0.0
210
0.0
220
0.0
230
1.0
 40
0.8390996312
 41
2.268928027595459
 42
2.443460952790746
  0
ELLIPSE
  5
1CB
330
8D
100
AcDbEntity
  8
4221039_0__SIEB_
  6
Continuous
 62
     7
100
AcDbEllipse
 10
22.8114102869
 20
478.566706256
 30
0.0
 11
-0.07660444431174633
 21
-0.07660444431176194
 31
0.0
210
0.0
220
0.0
230
1.0
 40
0.8390996312
 41
0.8726646259940063
 42
2.443460952789582
  0
ELLIPSE
  5
1CC
330
8D
100
AcDbEntity
  8
4221039_0__SIEB_
  6
Continuous
 62
     7
100
AcDbEllipse
 10
25.8828388583
 20
478.566706256
 30
0.0
 11
0.07660444431175586
 21
-0.07660444431174807
 31
0.0
210
0.0
220
0.0
230
1.0
 40
0.8390996312
 41
3.839724354389842
 42
5.410520681185051
  0
ELLIPSE
  5
1CD
330
8D
100
AcDbEntity
  8
4221039_0__SIEB_
  6
Continuous
 62
     7
100
AcDbEllipse
 10
25.8828388583
 20
478.566706256
 30
0.0
 11
0.07660444431171337
 21
0.07660444431183135
 31
0.0
210
0.0
220
0.0
230
1.0
 40
0.8390996312
 41
3.839724354389123
 42
4.01425727958359
  0
ELLIPSE
  5
1CE
330
8D
100
AcDbEntity
  8
4221039_0__SIEB_
  6
Continuous
 62
     7
100
AcDbEllipse
 10
24.3471245726
 20
478.566706256
 30
0.0
 11
-0.07660444431172204
 21
0.0766044443117897
 31
0.0
210
0.0
220
0.0
230
1.0
 40
0.8390996312
 41
2.268928027595478
 42
2.443460952790841
  0
ELLIPSE
  5
1CF
330
8D
100
AcDbEntity
  8
4221039_0__SIEB_
  6
Continuous
 62
     7
100
AcDbEllipse
 10
24.3471245726
 20
478.566706256
 30
0.0
 11
-0.07660444431174113
 21
-0.07660444431177582
 31
0.0
210
0.0
220
0.0
230
1.0
 40
0.8390996312
 41
0.8726646259939796
 42
2.443460952789374
  0
ELLIPSE
  5
1D0
330
8D
100
AcDbEntity
  8
4221039_0__SIEB_
  6
Continuous
 62
     7
100
AcDbEllipse
 10
27.418553144
 20
478.566706256
 30
0.0
 11
0.07660444431174591
 21
-0.07660444431176196
 31
0.0
210
0.0
220
0.0
230
0.9999999999999998
 40
0.8390996312
 41
3.839724354390003
 42
5.410520681184585
  0
ELLIPSE
  5
1D1
330
8D
100
AcDbEntity
  8
4221039_0__SIEB_
  6
Continuous
 62
     7
100
AcDbEllipse
 10
27.418553144
 20
478.566706256
 30
0.0
 11
0.07660444431173852
 21
0.0766044443117897
 31
0.0
210
0.0
220
0.0
230
1.0
 40
0.8390996312
 41
3.839724354389
 42
4.014257279584198
  0
ELLIPSE
  5
1D2
330
8D
100
AcDbEntity
  8
4221039_0__SIEB_
  6
Continuous
 62
     7
100
AcDbEllipse
 10
25.8828388583
 20
478.566706256
 30
0.0
 11
-0.07660444431172204
 21
0.0766044443117897
 31
0.0
210
0.0
220
0.0
230
1.0
 40
0.8390996312
 41
2.268928027595478
 42
2.443460952790913
  0
ELLIPSE
  5
1D3
330
8D
100
AcDbEntity
  8
4221039_0__SIEB_
  6
Continuous
 62
     7
100
AcDbEllipse
 10
25.8828388583
 20
478.566706256
 30
0.0
 11
-0.07660444431173852
 21
-0.0766044443117897
 31
0.0
210
0.0
220
0.0
230
1.0
 40
0.8390996312
 41
0.8726646259940419
 42
2.443460952789232
  0
ELLIPSE
  5
1D4
330
8D
100
AcDbEntity
  8
4221039_0__SIEB_
  6
Continuous
 62
     7
100
AcDbEllipse
 10
28.9542674297
 20
478.566706256
 30
0.0
 11
0.07660444431174676
 21
-0.07660444431176194
 31
0.0
210
0.0
220
0.0
230
1.0
 40
0.8390996312
 41
3.839724354389969
 42
5.410520681185424
  0
ELLIPSE
  5
1D5
330
8D
100
AcDbEntity
  8
4221039_0__SIEB_
  6
Continuous
 62
     7
100
AcDbEllipse
 10
28.9542674297
 20
478.566706256
 30
0.0
 11
0.07660444431171294
 21
0.07660444431183133
 31
0.0
210
0.0
220
0.0
230
1.0
 40
0.8390996312
 41
3.839724354389082
 42
4.014257279583585
  0
ELLIPSE
  5
1D6
330
8D
100
AcDbEntity
  8
4221039_0__SIEB_
  6
Continuous
 62
     7
100
AcDbEllipse
 10
27.418553144
 20
478.566706256
 30
0.0
 11
-0.07660444431175674
 21
0.07660444431174807
 31
0.0
210
0.0
220
0.0
230
1.0
 40
0.8390996312
 41
2.268928027594765
 42
2.443460952790332
  0
ELLIPSE
  5
1D7
330
8D
100
AcDbEntity
  8
4221039_0__SIEB_
  6
Continuous
 62
     7
100
AcDbEllipse
 10
27.418553144
 20
478.566706256
 30
0.0
 11
-0.07660444431176454
 21
-0.07660444431173417
 31
0.0
210
0.0
220
0.0
230
1.0
 40
0.8390996312
 41
0.8726646259945391
 42
2.443460952789872
  0
ELLIPSE
  5
1D8
330
8D
100
AcDbEntity
  8
4221039_0__SIEB_
  6
Continuous
 62
     7
100
AcDbEllipse
 10
30.4899817154
 20
478.566706256
 30
0.0
 11
0.07660444431174591
 21
-0.07660444431176196
 31
0.0
210
0.0
220
0.0
230
1.0
 40
0.8390996312
 41
3.839724354390003
 42
5.410520681184585
  0
ELLIPSE
  5
1D9
330
8D
100
AcDbEntity
  8
4221039_0__SIEB_
  6
Continuous
 62
     7
100
AcDbEllipse
 10
30.4899817154
 20
478.566706256
 30
0.0
 11
0.07660444431171298
 21
0.07660444431183132
 31
0.0
210
0.0
220
0.0
230
1.0
 40
0.8390996312
 41
3.83972435438919
 42
4.014257279583585
  0
ELLIPSE
  5
1DA
330
8D
100
AcDbEntity
  8
4221039_0__SIEB_
  6
Continuous
 62
     7
100
AcDbEllipse
 10
28.9542674297
 20
478.566706256
 30
0.0
 11
-0.0766044443117305
 21
0.0766044443117897
 31
0.0
210
0.0
220
0.0
230
1.0
 40
0.8390996312
 41
2.268928027595325
 42
2.443460952790368
  0
ELLIPSE
  5
1DB
330
8D
100
AcDbEntity
  8
4221039_0__SIEB_
  6
Continuous
 62
     7
100
AcDbEllipse
 10
28.9542674297
 20
478.566706256
 30
0.0
 11
-0.07660444431173852
 21
-0.0766044443117897
 31
0.0
210
0.0
220
0.0
230
1.0
 40
0.8390996312
 41
0.8726646259939813
 42
2.443460952789232
  0
ELLIPSE
  5
1DC
330
8D
100
AcDbEntity
  8
4221039_0__SIEB_
  6
Continuous
 62
     7
100
AcDbEllipse
 10
32.0256960011
 20
478.566706256
 30
0.0
 11
0.07660444431175674
 21
-0.07660444431174807
 31
0.0
210
0.0
220
0.0
230
1.0
 40
0.8390996312
 41
3.839724354389844
 42
5.410520681185042
  0
ELLIPSE
  5
1DD
330
8D
100
AcDbEntity
  8
4221039_0__SIEB_
  6
Continuous
 62
     7
100
AcDbEllipse
 10
32.0256960011
 20
478.566706256
 30
0.0
 11
0.07660444431171294
 21
0.07660444431183133
 31
0.0
210
0.0
220
0.0
230
1.0
 40
0.8390996312
 41
3.839724354389622
 42
4.014257279583616
  0
ELLIPSE
  5
1DE
330
8D
100
AcDbEntity
  8
4221039_0__SIEB_
  6
Continuous
 62
     7
100
AcDbEllipse
 10
30.4899817154
 20
478.566706256
 30
0.0
 11
-0.07660444431175586
 21
0.07660444431174807
 31
0.0
210
0.0
220
0.0
230
1.0
 40
0.8390996312
 41
2.268928027594774
 42
2.443460952789947
  0
ELLIPSE
  5
1DF
330
8D
100
AcDbEntity
  8
4221039_0__SIEB_
  6
Continuous
 62
     7
100
AcDbEllipse
 10
30.4899817154
 20
478.566706256
 30
0.0
 11
-0.07660444431173848
 21
-0.0766044443117897
 31
0.0
210
0.0
220
0.0
230
1.0
 40
0.8390996312
 41
0.872664625993981
 42
2.443460952789268
  0
ELLIPSE
  5
1E0
330
8D
100
AcDbEntity
  8
4221039_0__SIEB_
  6
Continuous
 62
     7
100
AcDbEllipse
 10
33.5614102869
 20
478.566706256
 30
0.0
 11
0.07660444431175717
 21
-0.07660444431174805
 31
0.0
210
0.0
220
0.0
230
1.0
 40
0.8390996312
 41
3.839724354389917
 42
5.410520681185037
  0
ELLIPSE
  5
1E1
330
8D
100
AcDbEntity
  8
4221039_0__SIEB_
  6
Continuous
 62
     7
100
AcDbEllipse
 10
33.5614102869
 20
478.566706256
 30
0.0
 11
0.07660444431173852
 21
0.0766044443117897
 31
0.0
210
0.0
220
0.0
230
1.0
 40
0.8390996312
 41
3.839724354389
 42
4.014257279584198
  0
ELLIPSE
  5
1E2
330
8D
100
AcDbEntity
  8
4221039_0__SIEB_
  6
Continuous
 62
     7
100
AcDbEllipse
 10
32.0256960011
 20
478.566706256
 30
0.0
 11
-0.07660444431172247
 21
0.0766044443117897
 31
0.0
210
0.0
220
0.0
230
1.0
 40
0.8390996312
 41
2.268928027595443
 42
2.443460952790727
  0
ELLIPSE
  5
1E3
330
8D
100
AcDbEntity
  8
4221039_0__SIEB_
  6
Continuous
 62
     7
100
AcDbEllipse
 10
32.0256960011
 20
478.566706256
 30
0.0
 11
-0.07660444431173939
 21
-0.0766044443117897
 31
0.0
210
0.0
220
0.0
230
1.0
 40
0.8390996312
 41
0.8726646259939908
 42
2.443460952789231
  0
ELLIPSE
  5
1E4
330
8D
100
AcDbEntity
  8
4221039_0__SIEB_
  6
Continuous
 62
     7
100
AcDbEllipse
 10
35.0971245726
 20
478.566706256
 30
0.0
 11
0.07660444431173072
 21
-0.07660444431177582
 31
0.0
210
0.0
220
0.0
230
0.9999999999999998
 40
0.8390996312
 41
3.83972435439008
 42
5.41052068118569
  0
ELLIPSE
  5
1E5
330
8D
100
AcDbEntity
  8
4221039_0__SIEB_
  6
Continuous
 62
     7
100
AcDbEllipse
 10
35.0971245726
 20
478.566706256
 30
0.0
 11
0.0766044443117498
 21
0.07660444431176194
 31
0.0
210
0.0
220
0.0
230
0.9999999999999998
 40
0.8390996312
 41
3.83972435438959
 42
4.014257279584685
  0
ELLIPSE
  5
1E6
330
8D
100
AcDbEntity
  8
4221039_0__SIEB_
  6
Continuous
 62
     7
100
AcDbEllipse
 10
33.5614102869
 20
478.566706256
 30
0.0
 11
-0.07660444431172204
 21
0.0766044443117897
 31
0.0
210
0.0
220
0.0
230
1.0
 40
0.8390996312
 41
2.268928027595448
 42
2.443460952790877
  0
ELLIPSE
  5
1E7
330
8D
100
AcDbEntity
  8
4221039_0__SIEB_
  6
Continuous
 62
     7
100
AcDbEllipse
 10
33.5614102869
 20
478.566706256
 30
0.0
 11
-0.07660444431176454
 21
-0.07660444431173417
 31
0.0
210
0.0
220
0.0
230
1.0
 40
0.8390996312
 41
0.8726646259945089
 42
2.443460952789908
  0
ELLIPSE
  5
1E8
330
8D
100
AcDbEntity
  8
4221039_0__SIEB_
  6
Continuous
 62
     7
100
AcDbEllipse
 10
36.6328388583
 20
478.566706256
 30
0.0
 11
0.07660444431175586
 21
-0.07660444431174807
 31
0.0
210
0.0
220
0.0
230
1.0
 40
0.8390996312
 41
3.839724354389914
 42
5.410520681185112
  0
ELLIPSE
  5
1E9
330
8D
100
AcDbEntity
  8
4221039_0__SIEB_
  6
Continuous
 62
     7
100
AcDbEllipse
 10
36.6328388583
 20
478.566706256
 30
0.0
 11
0.07660444431171337
 21
0.07660444431183135
 31
0.0
210
0.0
220
0.0
230
1.0
 40
0.8390996312
 41
3.839724354389628
 42
4.01425727958362
  0
ELLIPSE
  5
1EA
330
8D
100
AcDbEntity
  8
4221039_0__SIEB_
  6
Continuous
 62
     7
100
AcDbEllipse
 10
35.0971245726
 20
478.566706256
 30
0.0
 11
-0.07660444431172463
 21
0.07660444431181745
 31
0.0
210
0.0
220
0.0
230
1.0
 40
0.8390996312
 41
2.268928027595964
 42
2.443460952790201
  0
ELLIPSE
  5
1EB
330
8D
100
AcDbEntity
  8
4221039_0__SIEB_
  6
Continuous
 62
     7
100
AcDbEllipse
 10
35.0971245726
 20
478.566706256
 30
0.0
 11
-0.07660444431175847
 21
-0.07660444431174807
 31
0.0
210
0.0
220
0.0
230
1.0
 40
0.8390996312
 41
0.8726646259949871
 42
2.443460952789738
  0
ELLIPSE
  5
1EC
330
8D
100
AcDbEntity
  8
4221039_0__SIEB_
  6
Continuous
 62
     7
100
AcDbEllipse
 10
38.168553144
 20
478.566706256
 30
0.0
 11
0.07660444431174721
 21
-0.07660444431176194
 31
0.0
210
0.0
220
0.0
230
1.0
 40
0.8390996312
 41
3.839724354389934
 42
5.410520681184541
  0
ELLIPSE
  5
1ED
330
8D
100
AcDbEntity
  8
4221039_0__SIEB_
  6
Continuous
 62
     7
100
AcDbEllipse
 10
38.168553144
 20
478.566706256
 30
0.0
 11
0.07660444431171337
 21
0.07660444431183135
 31
0.0
210
0.0
220
0.0
230
1.0
 40
0.8390996312
 41
3.839724354389051
 42
4.01425727958362
  0
ELLIPSE
  5
1EE
330
8D
100
AcDbEntity
  8
4221039_0__SIEB_
  6
Continuous
 62
     7
100
AcDbEllipse
 10
36.6328388583
 20
478.566706256
 30
0.0
 11
-0.07660444431172031
 21
0.0766044443117897
 31
0.0
210
0.0
220
0.0
230
0.9999999999999999
 40
0.8390996312
 41
2.268928027595406
 42
2.4434609527909
  0
ELLIPSE
  5
1EF
330
8D
100
AcDbEntity
  8
4221039_0__SIEB_
  6
Continuous
 62
     7
100
AcDbEllipse
 10
36.6328388583
 20
478.566706256
 30
0.0
 11
-0.07660444431173852
 21
-0.0766044443117897
 31
0.0
210
0.0
220
0.0
230
1.0
 40
0.8390996312
 41
0.8726646259939813
 42
2.443460952789232
  0
ELLIPSE
  5
1F0
330
8D
100
AcDbEntity
  8
4221039_0__SIEB_
  6
Continuous
 62
     7
100
AcDbEllipse
 10
38.168553144
 20
478.566706256
 30
0.0
 11
-0.07660444431175586
 21
0.07660444431174807
 31
0.0
210
0.0
220
0.0
230
1.0
 40
0.8390996312
 41
2.268928027594835
 42
2.443460952789875
  0
ELLIPSE
  5
1F1
330
8D
100
AcDbEntity
  8
4221039_0__SIEB_
  6
Continuous
 62
     7
100
AcDbEllipse
 10
38.168553144
 20
478.566706256
 30
0.0
 11
-0.07660444431174113
 21
-0.07660444431177582
 31
0.0
210
0.0
220
0.0
230
1.0
 40
0.8390996312
 41
0.8726646259940097
 42
2.44346095278941
  0
ELLIPSE
  5
1F2
330
8D
100
AcDbEntity
  8
4221039_0__SIEB_
  6
Continuous
 62
     7
100
AcDbEllipse
 10
38.168553144
 20
478.8333802431
 30
0.0
 11
-0.07660444431175586
 21
0.07660444431174807
 31
0.0
210
0.0
220
0.0
230
1.0
 40
0.8390996312
 41
2.268928027594835
 42
2.443460952790236
  0
ELLIPSE
  5
1F3
330
8D
100
AcDbEntity
  8
4221039_0__SIEB_
  6
Continuous
 62
     7
100
AcDbEllipse
 10
38.168553144
 20
478.8333802431
 30
0.0
 11
-0.07660444431174113
 21
-0.07660444431177582
 31
0.0
210
0.0
220
0.0
230
1.0
 40
0.8390996312
 41
0.8726646259940097
 42
2.44346095278941
  0
ELLIPSE
  5
1F4
330
8D
100
AcDbEntity
  8
4221039_0__SIEB_
  6
Continuous
 62
     7
100
AcDbEllipse
 10
38.168553144
 20
478.8333802431
 30
0.0
 11
0.07660444431172117
 21
-0.07660444431180358
 31
0.0
210
0.0
220
0.0
230
1.0
 40
0.8390996312
 41
3.839724354390498
 42
5.41052068118525
  0
ELLIPSE
  5
1F5
330
8D
100
AcDbEntity
  8
4221039_0__SIEB_
  6
Continuous
 62
     7
100
AcDbEllipse
 10
38.168553144
 20
478.8333802431
 30
0.0
 11
0.07660444431173852
 21
0.0766044443117897
 31
0.0
210
0.0
220
0.0
230
1.0
 40
0.8390996312
 41
3.839724354389865
 42
4.014257279584198
  0
ELLIPSE
  5
1F6
330
8D
100
AcDbEntity
  8
4221039_0__SIEB_
  6
Continuous
 62
     7
100
AcDbEllipse
 10
36.6328388583
 20
478.8333802431
 30
0.0
 11
-0.07660444431175586
 21
0.07660444431174807
 31
0.0
210
0.0
220
0.0
230
1.0
 40
0.8390996312
 41
2.268928027594835
 42
2.443460952790236
  0
ELLIPSE
  5
1F7
330
8D
100
AcDbEntity
  8
4221039_0__SIEB_
  6
Continuous
 62
     7
100
AcDbEllipse
 10
36.6328388583
 20
478.8333802431
 30
0.0
 11
-0.07660444431173592
 21
-0.0766044443117897
 31
0.0
210
0.0
220
0.0
230
0.9999999999999998
 40
0.8390996312
 41
0.8726646259939528
 42
2.443460952789166
  0
ELLIPSE
  5
1F8
330
8D
100
AcDbEntity
  8
4221039_0__SIEB_
  6
Continuous
 62
     7
100
AcDbEllipse
 10
36.6328388583
 20
478.8333802431
 30
0.0
 11
0.07660444431174891
 21
-0.07660444431176193
 31
0.0
210
0.0
220
0.0
230
1.0
 40
0.8390996312
 41
3.83972435439001
 42
5.410520681184522
  0
ELLIPSE
  5
1F9
330
8D
100
AcDbEntity
  8
4221039_0__SIEB_
  6
Continuous
 62
     7
100
AcDbEllipse
 10
36.6328388583
 20
478.8333802431
 30
0.0
 11
0.07660444431171511
 21
0.07660444431183133
 31
0.0
210
0.0
220
0.0
230
1.0
 40
0.8390996312
 41
3.839724354388352
 42
4.014257279583639
  0
ELLIPSE
  5
1FA
330
8D
100
AcDbEntity
  8
4221039_0__SIEB_
  6
Continuous
 62
     7
100
AcDbEllipse
 10
35.0971245726
 20
478.8333802431
 30
0.0
 11
-0.0766044443117498
 21
0.07660444431176194
 31
0.0
210
0.0
220
0.0
230
0.9999999999999998
 40
0.8390996312
 41
2.268928027594901
 42
2.443460952789852
  0
ELLIPSE
  5
1FB
330
8D
100
AcDbEntity
  8
4221039_0__SIEB_
  6
Continuous
 62
     7
100
AcDbEllipse
 10
35.0971245726
 20
478.8333802431
 30
0.0
 11
-0.07660444431173852
 21
-0.0766044443117897
 31
0.0
210
0.0
220
0.0
230
1.0
 40
0.8390996312
 41
0.8726646259939813
 42
2.443460952789232
  0
ELLIPSE
  5
1FC
330
8D
100
AcDbEntity
  8
4221039_0__SIEB_
  6
Continuous
 62
     7
100
AcDbEllipse
 10
35.0971245726
 20
478.8333802431
 30
0.0
 11
0.07660444431175586
 21
-0.07660444431174807
 31
0.0
210
0.0
220
0.0
230
1.0
 40
0.8390996312
 41
3.839724354389842
 42
5.410520681184628
  0
ELLIPSE
  5
1FD
330
8D
100
AcDbEntity
  8
4221039_0__SIEB_
  6
Continuous
 62
     7
100
AcDbEllipse
 10
35.0971245726
 20
478.8333802431
 30
0.0
 11
0.07660444431171337
 21
0.07660444431183135
 31
0.0
210
0.0
220
0.0
230
1.0
 40
0.8390996312
 41
3.839724354388474
 42
4.01425727958362
  0
ELLIPSE
  5
1FE
330
8D
100
AcDbEntity
  8
4221039_0__SIEB_
  6
Continuous
 62
     7
100
AcDbEllipse
 10
33.5614102869
 20
478.8333802431
 30
0.0
 11
-0.07660444431175023
 21
0.07660444431176194
 31
0.0
210
0.0
220
0.0
230
0.9999999999999998
 40
0.8390996312
 41
2.268928027594957
 42
2.443460952789846
  0
ELLIPSE
  5
1FF
330
8D
100
AcDbEntity
  8
4221039_0__SIEB_
  6
Continuous
 62
     7
100
AcDbEllipse
 10
33.5614102869
 20
478.8333802431
 30
0.0
 11
-0.07660444431173852
 21
-0.0766044443117897
 31
0.0
210
0.0
220
0.0
230
1.0
 40
0.8390996312
 41
0.8726646259940419
 42
2.443460952789304
  0
ELLIPSE
  5
200
330
8D
100
AcDbEntity
  8
4221039_0__SIEB_
  6
Continuous
 62
     7
100
AcDbEllipse
 10
33.5614102869
 20
478.8333802431
 30
0.0
 11
0.07660444431175717
 21
-0.07660444431174805
 31
0.0
210
0.0
220
0.0
230
1.0
 40
0.8390996312
 41
3.839724354389845
 42
5.410520681184614
  0
ELLIPSE
  5
201
330
8D
100
AcDbEntity
  8
4221039_0__SIEB_
  6
Continuous
 62
     7
100
AcDbEllipse
 10
33.5614102869
 20
478.8333802431
 30
0.0
 11
0.07660444431173852
 21
0.0766044443117897
 31
0.0
210
0.0
220
0.0
230
1.0
 40
0.8390996312
 41
3.839724354389865
 42
4.014257279584198
  0
ELLIPSE
  5
202
330
8D
100
AcDbEntity
  8
4221039_0__SIEB_
  6
Continuous
 62
     7
100
AcDbEllipse
 10
32.0256960011
 20
478.8333802431
 30
0.0
 11
-0.07660444431174829
 21
0.07660444431177582
 31
0.0
210
0.0
220
0.0
230
1.0
 40
0.8390996312
 41
2.268928027594857
 42
2.443460952789696
  0
ELLIPSE
  5
203
330
8D
100
AcDbEntity
  8
4221039_0__SIEB_
  6
Continuous
 62
     7
100
AcDbEllipse
 10
32.0256960011
 20
478.8333802431
 30
0.0
 11
-0.07660444431173939
 21
-0.0766044443117897
 31
0.0
210
0.0
220
0.0
230
1.0
 40
0.8390996312
 41
0.8726646259939908
 42
2.443460952789231
  0
ELLIPSE
  5
204
330
8D
100
AcDbEntity
  8
4221039_0__SIEB_
  6
Continuous
 62
     7
100
AcDbEllipse
 10
32.0256960011
 20
478.8333802431
 30
0.0
 11
0.07660444431173072
 21
-0.07660444431177582
 31
0.0
210
0.0
220
0.0
230
0.9999999999999998
 40
0.8390996312
 41
3.839724354390152
 42
5.410520681184722
  0
ELLIPSE
  5
205
330
8D
100
AcDbEntity
  8
4221039_0__SIEB_
  6
Continuous
 62
     7
100
AcDbEllipse
 10
32.0256960011
 20
478.8333802431
 30
0.0
 11
0.07660444431171294
 21
0.07660444431183133
 31
0.0
210
0.0
220
0.0
230
1.0
 40
0.8390996312
 41
3.839724354388468
 42
4.014257279583616
  0
ELLIPSE
  5
206
330
8D
100
AcDbEntity
  8
4221039_0__SIEB_
  6
Continuous
 62
     7
100
AcDbEllipse
 10
30.4899817154
 20
478.8333802431
 30
0.0
 11
-0.07660444431175586
 21
0.07660444431174807
 31
0.0
210
0.0
220
0.0
230
1.0
 40
0.8390996312
 41
2.268928027594774
 42
2.443460952789803
  0
ELLIPSE
  5
207
330
8D
100
AcDbEntity
  8
4221039_0__SIEB_
  6
Continuous
 62
     7
100
AcDbEllipse
 10
30.4899817154
 20
478.8333802431
 30
0.0
 11
-0.07660444431175684
 21
-0.07660444431174805
 31
0.0
210
0.0
220
0.0
230
1.0
 40
0.8390996312
 41
0.8726646259949693
 42
2.443460952789742
  0
ELLIPSE
  5
208
330
8D
100
AcDbEntity
  8
4221039_0__SIEB_
  6
Continuous
 62
     7
100
AcDbEllipse
 10
30.4899817154
 20
478.8333802431
 30
0.0
 11
0.07660444431174605
 21
-0.07660444431176194
 31
0.0
210
0.0
220
0.0
230
1.0
 40
0.8390996312
 41
3.839724354390003
 42
5.410520681184614
  0
ELLIPSE
  5
209
330
8D
100
AcDbEntity
  8
4221039_0__SIEB_
  6
Continuous
 62
     7
100
AcDbEllipse
 10
30.4899817154
 20
478.8333802431
 30
0.0
 11
0.076604444311749
 21
0.07660444431176196
 31
0.0
210
0.0
220
0.0
230
1.0
 40
0.8390996312
 41
3.839724354389615
 42
4.014257279584676
  0
ELLIPSE
  5
20A
330
8D
100
AcDbEntity
  8
4221039_0__SIEB_
  6
Continuous
 62
     7
100
AcDbEllipse
 10
28.9542674297
 20
478.8333802431
 30
0.0
 11
-0.07660444431175609
 21
0.07660444431174807
 31
0.0
210
0.0
220
0.0
230
1.0
 40
0.8390996312
 41
2.268928027594772
 42
2.443460952790305
  0
ELLIPSE
  5
20B
330
8D
100
AcDbEntity
  8
4221039_0__SIEB_
  6
Continuous
 62
     7
100
AcDbEllipse
 10
28.9542674297
 20
478.8333802431
 30
0.0
 11
-0.07660444431173852
 21
-0.0766044443117897
 31
0.0
210
0.0
220
0.0
230
1.0
 40
0.8390996312
 41
0.8726646259939813
 42
2.443460952789232
  0
ELLIPSE
  5
20C
330
8D
100
AcDbEntity
  8
4221039_0__SIEB_
  6
Continuous
 62
     7
100
AcDbEllipse
 10
28.9542674297
 20
478.8333802431
 30
0.0
 11
0.07660444431174633
 21
-0.07660444431176194
 31
0.0
210
0.0
220
0.0
230
1.0
 40
0.8390996312
 41
3.839724354389968
 42
5.410520681184581
  0
ELLIPSE
  5
20D
330
8D
100
AcDbEntity
  8
4221039_0__SIEB_
  6
Continuous
 62
     7
100
AcDbEllipse
 10
28.9542674297
 20
478.8333802431
 30
0.0
 11
0.07660444431171294
 21
0.07660444431183133
 31
0.0
210
0.0
220
0.0
230
1.0
 40
0.8390996312
 41
3.83972435438854
 42
4.014257279583585
  0
ELLIPSE
  5
20E
330
8D
100
AcDbEntity
  8
4221039_0__SIEB_
  6
Continuous
 62
     7
100
AcDbEllipse
 10
27.418553144
 20
478.8333802431
 30
0.0
 11
-0.07660444431175674
 21
0.07660444431174807
 31
0.0
210
0.0
220
0.0
230
1.0
 40
0.8390996312
 41
2.268928027594765
 42
2.443460952789611
  0
ELLIPSE
  5
20F
330
8D
100
AcDbEntity
  8
4221039_0__SIEB_
  6
Continuous
 62
     7
100
AcDbEllipse
 10
27.418553144
 20
478.8333802431
 30
0.0
 11
-0.07660444431173852
 21
-0.0766044443117897
 31
0.0
210
0.0
220
0.0
230
1.0
 40
0.8390996312
 41
0.8726646259939813
 42
2.443460952789268
  0
ELLIPSE
  5
210
330
8D
100
AcDbEntity
  8
4221039_0__SIEB_
  6
Continuous
 62
     7
100
AcDbEllipse
 10
27.418553144
 20
478.8333802431
 30
0.0
 11
0.07660444431174546
 21
-0.07660444431176194
 31
0.0
210
0.0
220
0.0
230
1.0
 40
0.8390996312
 41
3.839724354390038
 42
5.410520681184591
  0
ELLIPSE
  5
211
330
8D
100
AcDbEntity
  8
4221039_0__SIEB_
  6
Continuous
 62
     7
100
AcDbEllipse
 10
27.418553144
 20
478.8333802431
 30
0.0
 11
0.07660444431173852
 21
0.0766044443117897
 31
0.0
210
0.0
220
0.0
230
1.0
 40
0.8390996312
 41
3.839724354389865
 42
4.014257279584198
  0
ELLIPSE
  5
212
330
8D
100
AcDbEntity
  8
4221039_0__SIEB_
  6
Continuous
 62
     7
100
AcDbEllipse
 10
25.8828388583
 20
478.8333802431
 30
0.0
 11
-0.0766044443117498
 21
0.07660444431176194
 31
0.0
210
0.0
220
0.0
230
0.9999999999999998
 40
0.8390996312
 41
2.268928027594901
 42
2.443460952790068
  0
ELLIPSE
  5
213
330
8D
100
AcDbEntity
  8
4221039_0__SIEB_
  6
Continuous
 62
     7
100
AcDbEllipse
 10
25.8828388583
 20
478.8333802431
 30
0.0
 11
-0.07660444431173852
 21
-0.0766044443117897
 31
0.0
210
0.0
220
0.0
230
1.0
 40
0.8390996312
 41
0.8726646259940419
 42
2.443460952789232
  0
ELLIPSE
  5
214
330
8D
100
AcDbEntity
  8
4221039_0__SIEB_
  6
Continuous
 62
     7
100
AcDbEllipse
 10
25.8828388583
 20
478.8333802431
 30
0.0
 11
0.07660444431173072
 21
-0.07660444431177582
 31
0.0
210
0.0
220
0.0
230
0.9999999999999998
 40
0.8390996312
 41
3.839724354390116
 42
5.410520681184752
  0
ELLIPSE
  5
215
330
8D
100
AcDbEntity
  8
4221039_0__SIEB_
  6
Continuous
 62
     7
100
AcDbEllipse
 10
25.8828388583
 20
478.8333802431
 30
0.0
 11
0.07660444431173852
 21
0.0766044443117897
 31
0.0
210
0.0
220
0.0
230
1.0
 40
0.8390996312
 41
3.839724354389938
 42
4.014257279584198
  0
ELLIPSE
  5
216
330
8D
100
AcDbEntity
  8
4221039_0__SIEB_
  6
Continuous
 62
     7
100
AcDbEllipse
 10
24.3471245726
 20
478.8333802431
 30
0.0
 11
-0.07660444431172725
 21
0.07660444431180358
 31
0.0
210
0.0
220
0.0
230
1.0
 40
0.8390996312
 41
2.26892802759542
 42
2.443460952790379
  0
ELLIPSE
  5
217
330
8D
100
AcDbEntity
  8
4221039_0__SIEB_
  6
Continuous
 62
     7
100
AcDbEllipse
 10
24.3471245726
 20
478.8333802431
 30
0.0
 11
-0.07660444431176627
 21
-0.07660444431173419
 31
0.0
210
0.0
220
0.0
230
0.9999999999999998
 40
0.8390996312
 41
0.8726646259945274
 42
2.443460952789868
  0
ELLIPSE
  5
218
330
8D
100
AcDbEntity
  8
4221039_0__SIEB_
  6
Continuous
 62
     7
100
AcDbEllipse
 10
24.3471245726
 20
478.8333802431
 30
0.0
 11
0.07660444431174546
 21
-0.07660444431176194
 31
0.0
210
0.0
220
0.0
230
1.0
 40
0.8390996312
 41
3.839724354390038
 42
5.410520681184591
  0
ELLIPSE
  5
219
330
8D
100
AcDbEntity
  8
4221039_0__SIEB_
  6
Continuous
 62
     7
100
AcDbEllipse
 10
24.3471245726
 20
478.8333802431
 30
0.0
 11
0.07660444431173852
 21
0.0766044443117897
 31
0.0
210
0.0
220
0.0
230
1.0
 40
0.8390996312
 41
3.839724354389
 42
4.014257279583805
  0
ELLIPSE
  5
21A
330
8D
100
AcDbEntity
  8
4221039_0__SIEB_
  6
Continuous
 62
     7
100
AcDbEllipse
 10
22.8114102869
 20
478.8333802431
 30
0.0
 11
-0.07660444431173245
 21
0.07660444431178971
 31
0.0
210
0.0
220
0.0
230
1.0
 40
0.8390996312
 41
2.268928027595394
 42
2.443460952789837
  0
ELLIPSE
  5
21B
330
8D
100
AcDbEntity
  8
4221039_0__SIEB_
  6
Continuous
 62
     7
100
AcDbEllipse
 10
22.8114102869
 20
478.8333802431
 30
0.0
 11
-0.07660444431176369
 21
-0.0766044443117342
 31
0.0
210
0.0
220
0.0
230
0.9999999999999998
 40
0.8390996312
 41
0.8726646259950137
 42
2.443460952789874
  0
ELLIPSE
  5
21C
330
8D
100
AcDbEntity
  8
4221039_0__SIEB_
  6
Continuous
 62
     7
100
AcDbEllipse
 10
22.8114102869
 20
478.8333802431
 30
0.0
 11
0.07660444431174285
 21
-0.07660444431176193
 31
0.0
210
0.0
220
0.0
230
1.0
 40
0.8390996312
 41
4.527749118494896
 42
5.410520681184619
  0
ELLIPSE
  5
21D
330
8D
100
AcDbEntity
  8
4221039_0__SIEB_
  6
Continuous
 62
     7
100
AcDbEllipse
 10
22.8114102869
 20
478.8333802431
 30
0.0
 11
0.07660444431174113
 21
0.07660444431177582
 31
0.0
210
0.0
220
0.0
230
1.0
 40
0.8390996312
 41
3.839724354388822
 42
4.014257279583742
  0
ELLIPSE
  5
21E
330
8D
100
AcDbEntity
  8
4221039_0__SIEB_
  6
Continuous
 62
     7
100
AcDbEllipse
 10
24.3471245726
 20
479.1000542302
 30
0.0
 11
0.076604444311755
 21
-0.07660444431174807
 31
0.0
210
0.0
220
0.0
230
0.9999999999999999
 40
0.8390996312
 41
3.839724354389263
 42
5.410520681184577
  0
ELLIPSE
  5
21F
330
8D
100
AcDbEntity
  8
4221039_0__SIEB_
  6
Continuous
 62
     7
100
AcDbEllipse
 10
24.3471245726
 20
479.1000542302
 30
0.0
 11
0.07660444431176194
 21
0.07660444431173419
 31
0.0
210
0.0
220
0.0
230
1.0
 40
0.8390996312
 41
3.839724354389615
 42
4.014257279584758
  0
ELLIPSE
  5
220
330
8D
100
AcDbEntity
  8
4221039_0__SIEB_
  6
Continuous
 62
     7
100
AcDbEllipse
 10
25.8828388583
 20
479.1000542302
 30
0.0
 11
0.07660444431176108
 21
-0.07660444431174805
 31
0.0
210
0.0
220
0.0
230
1.0
 40
0.8390996312
 41
3.839724354389818
 42
5.410520681184479
  0
ELLIPSE
  5
221
330
8D
100
AcDbEntity
  8
4221039_0__SIEB_
  6
Continuous
 62
     7
100
AcDbEllipse
 10
25.8828388583
 20
479.1000542302
 30
0.0
 11
0.07660444431173852
 21
0.0766044443117897
 31
0.0
210
0.0
220
0.0
230
1.0
 40
0.8390996312
 41
3.83972435439001
 42
4.014257279584198
  0
ELLIPSE
  5
222
330
8D
100
AcDbEntity
  8
4221039_0__SIEB_
  6
Continuous
 62
     7
100
AcDbEllipse
 10
24.3471245726
 20
479.1000542302
 30
0.0
 11
-0.0766044443117446
 21
0.07660444431176194
 31
0.0
210
0.0
220
0.0
230
1.0
 40
0.8390996312
 41
2.268928027595775
 42
2.443460952791147
  0
ELLIPSE
  5
223
330
8D
100
AcDbEntity
  8
4221039_0__SIEB_
  6
Continuous
 62
     7
100
AcDbEllipse
 10
24.3471245726
 20
479.1000542302
 30
0.0
 11
-0.07660444431173852
 21
-0.0766044443117897
 31
0.0
210
0.0
220
0.0
230
1.0
 40
0.8390996312
 41
0.8726646259944052
 42
2.443460952789232
  0
ELLIPSE
  5
224
330
8D
100
AcDbEntity
  8
4221039_0__SIEB_
  6
Continuous
 62
     7
100
AcDbEllipse
 10
27.418553144
 20
479.1000542302
 30
0.0
 11
0.07660444431175416
 21
-0.07660444431174807
 31
0.0
210
0.0
220
0.0
230
1.0
 40
0.8390996312
 41
3.839724354389261
 42
5.410520681184526
  0
ELLIPSE
  5
225
330
8D
100
AcDbEntity
  8
4221039_0__SIEB_
  6
Continuous
 62
     7
100
AcDbEllipse
 10
27.418553144
 20
479.1000542302
 30
0.0
 11
0.07660444431175543
 21
0.07660444431174807
 31
0.0
210
0.0
220
0.0
230
1.0
 40
0.8390996312
 41
3.839724354389741
 42
4.014257279584747
  0
ELLIPSE
  5
226
330
8D
100
AcDbEntity
  8
4221039_0__SIEB_
  6
Continuous
 62
     7
100
AcDbEllipse
 10
25.8828388583
 20
479.1000542302
 30
0.0
 11
-0.07660444431173505
 21
0.0766044443117897
 31
0.0
210
0.0
220
0.0
230
1.0
 40
0.8390996312
 41
2.268928027595789
 42
2.443460952790416
  0
ELLIPSE
  5
227
330
8D
100
AcDbEntity
  8
4221039_0__SIEB_
  6
Continuous
 62
     7
100
AcDbEllipse
 10
25.8828388583
 20
479.1000542302
 30
0.0
 11
-0.07660444431173852
 21
-0.0766044443117897
 31
0.0
210
0.0
220
0.0
230
1.0
 40
0.8390996312
 41
0.8726646259940419
 42
2.443460952789809
  0
ELLIPSE
  5
228
330
8D
100
AcDbEntity
  8
4221039_0__SIEB_
  6
Continuous
 62
     7
100
AcDbEllipse
 10
28.9542674297
 20
479.1000542302
 30
0.0
 11
0.07660444431175392
 21
-0.07660444431174807
 31
0.0
210
0.0
220
0.0
230
1.0
 40
0.8390996312
 41
3.839724354389801
 42
5.410520681184559
  0
ELLIPSE
  5
229
330
8D
100
AcDbEntity
  8
4221039_0__SIEB_
  6
Continuous
 62
     7
100
AcDbEllipse
 10
28.9542674297
 20
479.1000542302
 30
0.0
 11
0.07660444431173766
 21
0.0766044443117897
 31
0.0
210
0.0
220
0.0
230
1.0
 40
0.8390996312
 41
3.839724354389854
 42
4.014257279584189
  0
ELLIPSE
  5
22A
330
8D
100
AcDbEntity
  8
4221039_0__SIEB_
  6
Continuous
 62
     7
100
AcDbEllipse
 10
27.418553144
 20
479.1000542302
 30
0.0
 11
-0.07660444431174546
 21
0.07660444431176194
 31
0.0
210
0.0
220
0.0
230
1.0
 40
0.8390996312
 41
2.268928027595706
 42
2.443460952789909
  0
ELLIPSE
  5
22B
330
8D
100
AcDbEntity
  8
4221039_0__SIEB_
  6
Continuous
 62
     7
100
AcDbEllipse
 10
27.418553144
 20
479.1000542302
 30
0.0
 11
-0.07660444431174676
 21
-0.07660444431176194
 31
0.0
210
0.0
220
0.0
230
1.0
 40
0.8390996312
 41
0.8726646259948888
 42
2.443460952789581
  0
ELLIPSE
  5
22C
330
8D
100
AcDbEntity
  8
4221039_0__SIEB_
  6
Continuous
 62
     7
100
AcDbEllipse
 10
30.4899817154
 20
479.1000542302
 30
0.0
 11
0.07660444431172039
 21
-0.07660444431177582
 31
0.0
210
0.0
220
0.0
230
1.0
 40
0.8390996312
 41
3.839724354390778
 42
5.410520681185712
  0
ELLIPSE
  5
22D
330
8D
100
AcDbEntity
  8
4221039_0__SIEB_
  6
Continuous
 62
     7
100
AcDbEllipse
 10
30.4899817154
 20
479.1000542302
 30
0.0
 11
0.07660444431174616
 21
0.07660444431176194
 31
0.0
210
0.0
220
0.0
230
1.0
 40
0.8390996312
 41
3.839724354389506
 42
4.014257279584767
  0
ELLIPSE
  5
22E
330
8D
100
AcDbEntity
  8
4221039_0__SIEB_
  6
Continuous
 62
     7
100
AcDbEllipse
 10
28.9542674297
 20
479.1000542302
 30
0.0
 11
-0.07660444431174611
 21
0.07660444431176194
 31
0.0
210
0.0
220
0.0
230
1.0
 40
0.8390996312
 41
2.268928027595668
 42
2.443460952789973
  0
ELLIPSE
  5
22F
330
8D
100
AcDbEntity
  8
4221039_0__SIEB_
  6
Continuous
 62
     7
100
AcDbEllipse
 10
28.9542674297
 20
479.1000542302
 30
0.0
 11
-0.07660444431173852
 21
-0.0766044443117897
 31
0.0
210
0.0
220
0.0
230
1.0
 40
0.8390996312
 41
0.8726646259939813
 42
2.443460952789232
  0
ELLIPSE
  5
230
330
8D
100
AcDbEntity
  8
4221039_0__SIEB_
  6
Continuous
 62
     7
100
AcDbEllipse
 10
32.0256960011
 20
479.1000542302
 30
0.0
 11
0.07660444431173527
 21
-0.07660444431176194
 31
0.0
210
0.0
220
0.0
230
1.0
 40
0.8390996312
 41
3.839724354389474
 42
5.410520681184611
  0
ELLIPSE
  5
231
330
8D
100
AcDbEntity
  8
4221039_0__SIEB_
  6
Continuous
 62
     7
100
AcDbEllipse
 10
32.0256960011
 20
479.1000542302
 30
0.0
 11
0.07660444431176454
 21
0.07660444431173417
 31
0.0
210
0.0
220
0.0
230
1.0
 40
0.8390996312
 41
3.839724354389578
 42
4.014257279584302
  0
ELLIPSE
  5
232
330
8D
100
AcDbEntity
  8
4221039_0__SIEB_
  6
Continuous
 62
     7
100
AcDbEllipse
 10
30.4899817154
 20
479.1000542302
 30
0.0
 11
-0.07660444431175586
 21
0.07660444431174807
 31
0.0
210
0.0
220
0.0
230
1.0
 40
0.8390996312
 41
2.268928027594774
 42
2.443460952789803
  0
ELLIPSE
  5
233
330
8D
100
AcDbEntity
  8
4221039_0__SIEB_
  6
Continuous
 62
     7
100
AcDbEllipse
 10
30.4899817154
 20
479.1000542302
 30
0.0
 11
-0.07660444431175384
 21
-0.07660444431174807
 31
0.0
210
0.0
220
0.0
230
0.9999999999999999
 40
0.8390996312
 41
0.8726646259946336
 42
2.443460952789785
  0
ELLIPSE
  5
234
330
8D
100
AcDbEntity
  8
4221039_0__SIEB_
  6
Continuous
 62
     7
100
AcDbEllipse
 10
33.5614102869
 20
479.1000542302
 30
0.0
 11
0.07660444431174591
 21
-0.07660444431176196
 31
0.0
210
0.0
220
0.0
230
0.9999999999999998
 40
0.8390996312
 41
3.83972435439058
 42
5.410520681185464
  0
ELLIPSE
  5
235
330
8D
100
AcDbEntity
  8
4221039_0__SIEB_
  6
Continuous
 62
     7
100
AcDbEllipse
 10
33.5614102869
 20
479.1000542302
 30
0.0
 11
0.07660444431176454
 21
0.07660444431173417
 31
0.0
210
0.0
220
0.0
230
1.0
 40
0.8390996312
 41
3.83972435438965
 42
4.014257279584302
  0
ELLIPSE
  5
236
330
8D
100
AcDbEntity
  8
4221039_0__SIEB_
  6
Continuous
 62
     7
100
AcDbEllipse
 10
32.0256960011
 20
479.1000542302
 30
0.0
 11
-0.07660444431173809
 21
0.07660444431177582
 31
0.0
210
0.0
220
0.0
230
1.0
 40
0.8390996312
 41
2.268928027594848
 42
2.443460952789686
  0
ELLIPSE
  5
237
330
8D
100
AcDbEntity
  8
4221039_0__SIEB_
  6
Continuous
 62
     7
100
AcDbEllipse
 10
32.0256960011
 20
479.1000542302
 30
0.0
 11
-0.07660444431173939
 21
-0.0766044443117897
 31
0.0
210
0.0
220
0.0
230
1.0
 40
0.8390996312
 41
0.8726646259944145
 42
2.443460952789231
  0
ELLIPSE
  5
238
330
8D
100
AcDbEntity
  8
4221039_0__SIEB_
  6
Continuous
 62
     7
100
AcDbEllipse
 10
35.0971245726
 20
479.1000542302
 30
0.0
 11
0.07660444431174721
 21
-0.07660444431176194
 31
0.0
210
0.0
220
0.0
230
1.0
 40
0.8390996312
 41
3.839724354389934
 42
5.410520681185389
  0
ELLIPSE
  5
239
330
8D
100
AcDbEntity
  8
4221039_0__SIEB_
  6
Continuous
 62
     7
100
AcDbEllipse
 10
35.0971245726
 20
479.1000542302
 30
0.0
 11
0.07660444431175586
 21
0.07660444431174807
 31
0.0
210
0.0
220
0.0
230
1.0
 40
0.8390996312
 41
3.839724354389711
 42
4.01425727958469
  0
ELLIPSE
  5
23A
330
8D
100
AcDbEntity
  8
4221039_0__SIEB_
  6
Continuous
 62
     7
100
AcDbEllipse
 10
33.5614102869
 20
479.1000542302
 30
0.0
 11
-0.07660444431175674
 21
0.07660444431174807
 31
0.0
210
0.0
220
0.0
230
1.0
 40
0.8390996312
 41
2.268928027594825
 42
2.443460952789864
  0
ELLIPSE
  5
23B
330
8D
100
AcDbEntity
  8
4221039_0__SIEB_
  6
Continuous
 62
     7
100
AcDbEllipse
 10
33.5614102869
 20
479.1000542302
 30
0.0
 11
-0.07660444431173852
 21
-0.0766044443117897
 31
0.0
210
0.0
220
0.0
230
1.0
 40
0.8390996312
 41
0.8726646259944052
 42
2.443460952789304
  0
ELLIPSE
  5
23C
330
8D
100
AcDbEntity
  8
4221039_0__SIEB_
  6
Continuous
 62
     7
100
AcDbEllipse
 10
36.6328388583
 20
479.1000542302
 30
0.0
 11
0.07660444431172117
 21
-0.07660444431177582
 31
0.0
210
0.0
220
0.0
230
1.0
 40
0.8390996312
 41
3.839724354390202
 42
5.410520681185674
  0
ELLIPSE
  5
23D
330
8D
100
AcDbEntity
  8
4221039_0__SIEB_
  6
Continuous
 62
     7
100
AcDbEllipse
 10
36.6328388583
 20
479.1000542302
 30
0.0
 11
0.07660444431174113
 21
0.07660444431177582
 31
0.0
210
0.0
220
0.0
230
1.0
 40
0.8390996312
 41
3.839724354389651
 42
4.01425727958465
  0
ELLIPSE
  5
23E
330
8D
100
AcDbEntity
  8
4221039_0__SIEB_
  6
Continuous
 62
     7
100
AcDbEllipse
 10
35.0971245726
 20
479.1000542302
 30
0.0
 11
-0.07660444431175586
 21
0.07660444431174807
 31
0.0
210
0.0
220
0.0
230
1.0
 40
0.8390996312
 41
2.268928027594714
 42
2.443460952790308
  0
ELLIPSE
  5
23F
330
8D
100
AcDbEntity
  8
4221039_0__SIEB_
  6
Continuous
 62
     7
100
AcDbEllipse
 10
35.0971245726
 20
479.1000542302
 30
0.0
 11
-0.0766044443117498
 21
-0.07660444431176194
 31
0.0
210
0.0
220
0.0
230
0.9999999999999998
 40
0.8390996312
 41
0.8726646259948314
 42
2.443460952790079
  0
ELLIPSE
  5
240
330
8D
100
AcDbEntity
  8
4221039_0__SIEB_
  6
Continuous
 62
     7
100
AcDbEllipse
 10
36.6328388583
 20
479.1000542302
 30
0.0
 11
-0.07660444431175586
 21
0.07660444431174807
 31
0.0
210
0.0
220
0.0
230
1.0
 40
0.8390996312
 41
2.268928027594835
 42
2.443460952790236
  0
ELLIPSE
  5
241
330
8D
100
AcDbEntity
  8
4221039_0__SIEB_
  6
Continuous
 62
     7
100
AcDbEllipse
 10
36.6328388583
 20
479.1000542302
 30
0.0
 11
-0.07660444431173592
 21
-0.0766044443117897
 31
0.0
210
0.0
220
0.0
230
0.9999999999999998
 40
0.8390996312
 41
0.8726646259939528
 42
2.443460952789166
  0
ELLIPSE
  5
242
330
8D
100
AcDbEntity
  8
4221039_0__SIEB_
  6
Continuous
 62
     7
100
AcDbEllipse
 10
36.6328388583
 20
479.3667282174
 30
0.0
 11
-0.07660444431173247
 21
0.07660444431177584
 31
0.0
210
0.0
220
0.0
230
0.9999999999999999
 40
0.8390996312
 41
2.268928027594486
 42
2.443460952788895
  0
ELLIPSE
  5
243
330
8D
100
AcDbEntity
  8
4221039_0__SIEB_
  6
Continuous
 62
     7
100
AcDbEllipse
 10
36.6328388583
 20
479.3667282174
 30
0.0
 11
-0.07660444431176194
 21
-0.07660444431173419
 31
0.0
210
0.0
220
0.0
230
1.0
 40
0.8390996312
 41
0.8726646259953883
 42
1.736513414009367
  0
ELLIPSE
  5
244
330
8D
100
AcDbEntity
  8
4221039_0__SIEB_
  6
Continuous
 62
     7
100
AcDbEllipse
 10
36.6328388583
 20
479.3667282174
 30
0.0
 11
0.07660444431172117
 21
-0.07660444431177582
 31
0.0
210
0.0
220
0.0
230
1.0
 40
0.8390996312
 41
4.240349212763935
 42
5.410520681185189
  0
ELLIPSE
  5
245
330
8D
100
AcDbEntity
  8
4221039_0__SIEB_
  6
Continuous
 62
     7
100
AcDbEllipse
 10
36.6328388583
 20
479.3667282174
 30
0.0
 11
0.07660444431174113
 21
0.07660444431177582
 31
0.0
210
0.0
220
0.0
230
1.0
 40
0.8390996312
 41
3.839724354389218
 42
4.014257279584227
  0
ELLIPSE
  5
246
330
8D
100
AcDbEntity
  8
4221039_0__SIEB_
  6
Continuous
 62
     7
100
AcDbEllipse
 10
35.0971245726
 20
479.3667282174
 30
0.0
 11
-0.0766044443117446
 21
0.07660444431176194
 31
0.0
210
0.0
220
0.0
230
1.0
 40
0.8390996312
 41
2.268928027594353
 42
2.443460952789199
  0
ELLIPSE
  5
247
330
8D
100
AcDbEntity
  8
4221039_0__SIEB_
  6
Continuous
 62
     7
100
AcDbEllipse
 10
35.0971245726
 20
479.3667282174
 30
0.0
 11
-0.0766044443117446
 21
-0.07660444431176194
 31
0.0
210
0.0
220
0.0
230
1.0
 40
0.8390996312
 41
0.8726646259953192
 42
2.443460952790091
  0
ELLIPSE
  5
248
330
8D
100
AcDbEntity
  8
4221039_0__SIEB_
  6
Continuous
 62
     7
100
AcDbEllipse
 10
35.0971245726
 20
479.3667282174
 30
0.0
 11
0.07660444431172725
 21
-0.07660444431180358
 31
0.0
210
0.0
220
0.0
230
1.0
 40
0.8390996312
 41
3.839724354389863
 42
5.410520681184699
  0
ELLIPSE
  5
249
330
8D
100
AcDbEntity
  8
4221039_0__SIEB_
  6
Continuous
 62
     7
100
AcDbEllipse
 10
35.0971245726
 20
479.3667282174
 30
0.0
 11
0.076604444311755
 21
0.07660444431174807
 31
0.0
210
0.0
220
0.0
230
0.9999999999999999
 40
0.8390996312
 41
3.839724354390277
 42
4.014257279584863
  0
ELLIPSE
  5
24A
330
8D
100
AcDbEntity
  8
4221039_0__SIEB_
  6
Continuous
 62
     7
100
AcDbEllipse
 10
33.5614102869
 20
479.3667282174
 30
0.0
 11
-0.07660444431172898
 21
0.07660444431177582
 31
0.0
210
0.0
220
0.0
230
0.9999999999999998
 40
0.8390996312
 41
2.268928027594463
 42
2.443460952789085
  0
ELLIPSE
  5
24B
330
8D
100
AcDbEntity
  8
4221039_0__SIEB_
  6
Continuous
 62
     7
100
AcDbEllipse
 10
33.5614102869
 20
479.3667282174
 30
0.0
 11
-0.07660444431173852
 21
-0.0766044443117897
 31
0.0
210
0.0
220
0.0
230
1.0
 40
0.8390996312
 41
0.8726646259948896
 42
2.443460952789882
  0
ELLIPSE
  5
24C
330
8D
100
AcDbEntity
  8
4221039_0__SIEB_
  6
Continuous
 62
     7
100
AcDbEllipse
 10
33.5614102869
 20
479.3667282174
 30
0.0
 11
0.07660444431172031
 21
-0.07660444431177582
 31
0.0
210
0.0
220
0.0
230
1.0
 40
0.8390996312
 41
3.8397243543902
 42
5.410520681185199
  0
ELLIPSE
  5
24D
330
8D
100
AcDbEntity
  8
4221039_0__SIEB_
  6
Continuous
 62
     7
100
AcDbEllipse
 10
33.5614102869
 20
479.3667282174
 30
0.0
 11
0.07660444431173852
 21
0.0766044443117897
 31
0.0
210
0.0
220
0.0
230
1.0
 40
0.8390996312
 41
3.83972435438936
 42
4.014257279584319
  0
ELLIPSE
  5
24E
330
8D
100
AcDbEntity
  8
4221039_0__SIEB_
  6
Continuous
 62
     7
100
AcDbEllipse
 10
32.0256960011
 20
479.3667282174
 30
0.0
 11
-0.0766044443117305
 21
0.07660444431177582
 31
0.0
210
0.0
220
0.0
230
1.0
 40
0.8390996312
 41
2.268928027594447
 42
2.443460952788921
  0
ELLIPSE
  5
24F
330
8D
100
AcDbEntity
  8
4221039_0__SIEB_
  6
Continuous
 62
     7
100
AcDbEllipse
 10
32.0256960011
 20
479.3667282174
 30
0.0
 11
-0.07660444431173939
 21
-0.0766044443117897
 31
0.0
210
0.0
220
0.0
230
1.0
 40
0.8390996312
 41
0.872664625994899
 42
2.443460952789808
  0
ELLIPSE
  5
250
330
8D
100
AcDbEntity
  8
4221039_0__SIEB_
  6
Continuous
 62
     7
100
AcDbEllipse
 10
32.0256960011
 20
479.3667282174
 30
0.0
 11
0.07660444431172074
 21
-0.07660444431177582
 31
0.0
210
0.0
220
0.0
230
1.0
 40
0.8390996312
 41
3.839724354390201
 42
5.410520681185194
  0
ELLIPSE
  5
251
330
8D
100
AcDbEntity
  8
4221039_0__SIEB_
  6
Continuous
 62
     7
100
AcDbEllipse
 10
32.0256960011
 20
479.3667282174
 30
0.0
 11
0.07660444431173852
 21
0.0766044443117897
 31
0.0
210
0.0
220
0.0
230
1.0
 40
0.8390996312
 41
3.839724354390443
 42
4.014257279584259
  0
ELLIPSE
  5
252
330
8D
100
AcDbEntity
  8
4221039_0__SIEB_
  6
Continuous
 62
     7
100
AcDbEllipse
 10
30.4899817154
 20
479.3667282174
 30
0.0
 11
-0.07660444431174904
 21
0.07660444431177582
 31
0.0
210
0.0
220
0.0
230
1.0
 40
0.8390996312
 41
2.268928027595243
 42
2.443460952789541
  0
ELLIPSE
  5
253
330
8D
100
AcDbEntity
  8
4221039_0__SIEB_
  6
Continuous
 62
     7
100
AcDbEllipse
 10
30.4899817154
 20
479.3667282174
 30
0.0
 11
-0.07660444431175684
 21
-0.07660444431174805
 31
0.0
210
0.0
220
0.0
230
1.0
 40
0.8390996312
 41
0.8726646259950602
 42
2.443460952789742
  0
ELLIPSE
  5
254
330
8D
100
AcDbEntity
  8
4221039_0__SIEB_
  6
Continuous
 62
     7
100
AcDbEllipse
 10
30.4899817154
 20
479.3667282174
 30
0.0
 11
0.07660444431173101
 21
-0.0766044443117897
 31
0.0
210
0.0
220
0.0
230
1.0
 40
0.8390996312
 41
3.839724354389796
 42
5.410520681184779
  0
ELLIPSE
  5
255
330
8D
100
AcDbEntity
  8
4221039_0__SIEB_
  6
Continuous
 62
     7
100
AcDbEllipse
 10
30.4899817154
 20
479.3667282174
 30
0.0
 11
0.076604444311749
 21
0.07660444431176196
 31
0.0
210
0.0
220
0.0
230
1.0
 40
0.8390996312
 41
3.839724354390265
 42
4.01425727958516
  0
ELLIPSE
  5
256
330
8D
100
AcDbEntity
  8
4221039_0__SIEB_
  6
Continuous
 62
     7
100
AcDbEllipse
 10
28.9542674297
 20
479.3667282174
 30
0.0
 11
-0.07660444431175632
 21
0.07660444431176196
 31
0.0
210
0.0
220
0.0
230
1.0
 40
0.8390996312
 41
2.268928027594225
 42
2.443460952789116
  0
ELLIPSE
  5
257
330
8D
100
AcDbEntity
  8
4221039_0__SIEB_
  6
Continuous
 62
     7
100
AcDbEllipse
 10
28.9542674297
 20
479.3667282174
 30
0.0
 11
-0.07660444431173852
 21
-0.0766044443117897
 31
0.0
210
0.0
220
0.0
230
1.0
 40
0.8390996312
 41
0.8726646259948896
 42
2.443460952789809
  0
ELLIPSE
  5
258
330
8D
100
AcDbEntity
  8
4221039_0__SIEB_
  6
Continuous
 62
     7
100
AcDbEllipse
 10
28.9542674297
 20
479.3667282174
 30
0.0
 11
0.07660444431174676
 21
-0.07660444431176194
 31
0.0
210
0.0
220
0.0
230
1.0
 40
0.8390996312
 41
3.839724354389969
 42
5.410520681184062
  0
ELLIPSE
  5
259
330
8D
100
AcDbEntity
  8
4221039_0__SIEB_
  6
Continuous
 62
     7
100
AcDbEllipse
 10
28.9542674297
 20
479.3667282174
 30
0.0
 11
0.07660444431173766
 21
0.0766044443117897
 31
0.0
210
0.0
220
0.0
230
1.0
 40
0.8390996312
 41
3.839724354390431
 42
4.01425727958425
  0
ELLIPSE
  5
25A
330
8D
100
AcDbEntity
  8
4221039_0__SIEB_
  6
Continuous
 62
     7
100
AcDbEllipse
 10
27.418553144
 20
479.3667282174
 30
0.0
 11
-0.07660444431172986
 21
0.07660444431177582
 31
0.0
210
0.0
220
0.0
230
1.0
 40
0.8390996312
 41
2.268928027594454
 42
2.443460952788966
  0
ELLIPSE
  5
25B
330
8D
100
AcDbEntity
  8
4221039_0__SIEB_
  6
Continuous
 62
     7
100
AcDbEllipse
 10
27.418553144
 20
479.3667282174
 30
0.0
 11
-0.07660444431173852
 21
-0.0766044443117897
 31
0.0
210
0.0
220
0.0
230
1.0
 40
0.8390996312
 41
0.8726646259948896
 42
2.443460952789845
  0
ELLIPSE
  5
25C
330
8D
100
AcDbEntity
  8
4221039_0__SIEB_
  6
Continuous
 62
     7
100
AcDbEllipse
 10
27.418553144
 20
479.3667282174
 30
0.0
 11
0.07660444431172031
 21
-0.07660444431177582
 31
0.0
210
0.0
220
0.0
230
1.0
 40
0.8390996312
 41
3.8397243543902
 42
5.410520681185229
  0
ELLIPSE
  5
25D
330
8D
100
AcDbEntity
  8
4221039_0__SIEB_
  6
Continuous
 62
     7
100
AcDbEllipse
 10
27.418553144
 20
479.3667282174
 30
0.0
 11
0.07660444431173852
 21
0.0766044443117897
 31
0.0
210
0.0
220
0.0
230
1.0
 40
0.8390996312
 41
3.839724354390371
 42
4.014257279584259
  0
ELLIPSE
  5
25E
330
8D
100
AcDbEntity
  8
4221039_0__SIEB_
  6
Continuous
 62
     7
100
AcDbEllipse
 10
25.8828388583
 20
479.3667282174
 30
0.0
 11
-0.07660444431175586
 21
0.07660444431174807
 31
0.0
210
0.0
220
0.0
230
1.0
 40
0.8390996312
 41
2.26892802759429
 42
2.443460952789262
  0
ELLIPSE
  5
25F
330
8D
100
AcDbEntity
  8
4221039_0__SIEB_
  6
Continuous
 62
     7
100
AcDbEllipse
 10
25.8828388583
 20
479.3667282174
 30
0.0
 11
-0.076604444311755
 21
-0.07660444431174807
 31
0.0
210
0.0
220
0.0
230
0.9999999999999999
 40
0.8390996312
 41
0.872664625995524
 42
2.443460952789747
  0
ELLIPSE
  5
260
330
8D
100
AcDbEntity
  8
4221039_0__SIEB_
  6
Continuous
 62
     7
100
AcDbEllipse
 10
25.8828388583
 20
479.3667282174
 30
0.0
 11
0.07660444431172117
 21
-0.07660444431180358
 31
0.0
210
0.0
220
0.0
230
1.0
 40
0.8390996312
 41
3.839724354390498
 42
5.410520681184705
  0
ELLIPSE
  5
261
330
8D
100
AcDbEntity
  8
4221039_0__SIEB_
  6
Continuous
 62
     7
100
AcDbEllipse
 10
25.8828388583
 20
479.3667282174
 30
0.0
 11
0.0766044443117446
 21
0.07660444431176194
 31
0.0
210
0.0
220
0.0
230
1.0
 40
0.8390996312
 41
3.839724354388908
 42
4.014257279584325
  0
ELLIPSE
  5
262
330
8D
100
AcDbEntity
  8
4221039_0__SIEB_
  6
Continuous
 62
     7
100
AcDbEllipse
 10
27.418553144
 20
479.6334022045
 30
0.0
 11
0.07660444431174591
 21
-0.07660444431176196
 31
0.0
210
0.0
220
0.0
230
0.9999999999999998
 40
0.8390996312
 41
4.094640927650516
 42
5.410520681184979
  0
ELLIPSE
  5
263
330
8D
100
AcDbEntity
  8
4221039_0__SIEB_
  6
Continuous
 62
     7
100
AcDbEllipse
 10
27.418553144
 20
479.6334022045
 30
0.0
 11
0.07660444431176454
 21
0.07660444431173417
 31
0.0
210
0.0
220
0.0
230
1.0
 40
0.8390996312
 41
3.83972435438947
 42
4.014257279584907
  0
ELLIPSE
  5
264
330
8D
100
AcDbEntity
  8
4221039_0__SIEB_
  6
Continuous
 62
     7
100
AcDbEllipse
 10
28.9542674297
 20
479.6334022045
 30
0.0
 11
0.07660444431174676
 21
-0.07660444431176194
 31
0.0
210
0.0
220
0.0
230
1.0
 40
0.8390996312
 41
3.839724354389969
 42
5.41052068118494
  0
ELLIPSE
  5
265
330
8D
100
AcDbEntity
  8
4221039_0__SIEB_
  6
Continuous
 62
     7
100
AcDbEllipse
 10
28.9542674297
 20
479.6334022045
 30
0.0
 11
0.07660444431173766
 21
0.0766044443117897
 31
0.0
210
0.0
220
0.0
230
1.0
 40
0.8390996312
 41
3.839724354389133
 42
4.01425727958425
  0
ELLIPSE
  5
266
330
8D
100
AcDbEntity
  8
4221039_0__SIEB_
  6
Continuous
 62
     7
100
AcDbEllipse
 10
27.418553144
 20
479.6334022045
 30
0.0
 11
-0.07660444431172986
 21
0.07660444431177582
 31
0.0
210
0.0
220
0.0
230
1.0
 40
0.8390996312
 41
2.268928027594454
 42
2.443460952789255
  0
ELLIPSE
  5
267
330
8D
100
AcDbEntity
  8
4221039_0__SIEB_
  6
Continuous
 62
     7
100
AcDbEllipse
 10
27.418553144
 20
479.6334022045
 30
0.0
 11
-0.07660444431173852
 21
-0.0766044443117897
 31
0.0
210
0.0
220
0.0
230
1.0
 40
0.8390996312
 41
0.8726646259948896
 42
2.443460952789845
  0
ELLIPSE
  5
268
330
8D
100
AcDbEntity
  8
4221039_0__SIEB_
  6
Continuous
 62
     7
100
AcDbEllipse
 10
30.4899817154
 20
479.6334022045
 30
0.0
 11
0.07660444431173825
 21
-0.0766044443117897
 31
0.0
210
0.0
220
0.0
230
1.0
 40
0.8390996312
 41
3.839724354389776
 42
5.4105206811847
  0
ELLIPSE
  5
269
330
8D
100
AcDbEntity
  8
4221039_0__SIEB_
  6
Continuous
 62
     7
100
AcDbEllipse
 10
30.4899817154
 20
479.6334022045
 30
0.0
 11
0.07660444431175717
 21
0.07660444431174805
 31
0.0
210
0.0
220
0.0
230
1.0
 40
0.8390996312
 41
3.839724354390197
 42
4.014257279585189
  0
ELLIPSE
  5
26A
330
8D
100
AcDbEntity
  8
4221039_0__SIEB_
  6
Continuous
 62
     7
100
AcDbEllipse
 10
28.9542674297
 20
479.6334022045
 30
0.0
 11
-0.0766044443117305
 21
0.07660444431177582
 31
0.0
210
0.0
220
0.0
230
1.0
 40
0.8390996312
 41
2.268928027594447
 42
2.443460952789318
  0
ELLIPSE
  5
26B
330
8D
100
AcDbEntity
  8
4221039_0__SIEB_
  6
Continuous
 62
     7
100
AcDbEllipse
 10
28.9542674297
 20
479.6334022045
 30
0.0
 11
-0.07660444431173852
 21
-0.0766044443117897
 31
0.0
210
0.0
220
0.0
230
1.0
 40
0.8390996312
 41
0.8726646259944657
 42
2.443460952789809
  0
ELLIPSE
  5
26C
330
8D
100
AcDbEntity
  8
4221039_0__SIEB_
  6
Continuous
 62
     7
100
AcDbEllipse
 10
32.0256960011
 20
479.6334022045
 30
0.0
 11
0.07660444431173852
 21
-0.0766044443117897
 31
0.0
210
0.0
220
0.0
230
1.0
 40
0.8390996312
 41
3.839724354389777
 42
5.410520681184696
  0
ELLIPSE
  5
26D
330
8D
100
AcDbEntity
  8
4221039_0__SIEB_
  6
Continuous
 62
     7
100
AcDbEllipse
 10
32.0256960011
 20
479.6334022045
 30
0.0
 11
0.07660444431174633
 21
0.07660444431176194
 31
0.0
210
0.0
220
0.0
230
1.0
 40
0.8390996312
 41
3.839724354388895
 42
4.014257279584283
  0
ELLIPSE
  5
26E
330
8D
100
AcDbEntity
  8
4221039_0__SIEB_
  6
Continuous
 62
     7
100
AcDbEllipse
 10
30.4899817154
 20
479.6334022045
 30
0.0
 11
-0.07660444431173825
 21
0.0766044443117897
 31
0.0
210
0.0
220
0.0
230
1.0
 40
0.8390996312
 41
2.26892802759533
 42
2.443460952790446
  0
ELLIPSE
  5
26F
330
8D
100
AcDbEntity
  8
4221039_0__SIEB_
  6
Continuous
 62
     7
100
AcDbEllipse
 10
30.4899817154
 20
479.6334022045
 30
0.0
 11
-0.07660444431172359
 21
-0.07660444431181745
 31
0.0
210
0.0
220
0.0
230
1.0
 40
0.8390996312
 41
0.8726646259943021
 42
2.44346095278944
  0
ELLIPSE
  5
270
330
8D
100
AcDbEntity
  8
4221039_0__SIEB_
  6
Continuous
 62
     7
100
AcDbEllipse
 10
33.5614102869
 20
479.6334022045
 30
0.0
 11
0.07660444431176369
 21
-0.0766044443117342
 31
0.0
210
0.0
220
0.0
230
1.0
 40
0.8390996312
 41
3.839724354389171
 42
5.410520681184603
  0
ELLIPSE
  5
271
330
8D
100
AcDbEntity
  8
4221039_0__SIEB_
  6
Continuous
 62
     7
100
AcDbEllipse
 10
33.5614102869
 20
479.6334022045
 30
0.0
 11
0.07660444431174546
 21
0.07660444431176194
 31
0.0
210
0.0
220
0.0
230
1.0
 40
0.8390996312
 41
3.839724354389028
 42
4.014257279584335
  0
ELLIPSE
  5
272
330
8D
100
AcDbEntity
  8
4221039_0__SIEB_
  6
Continuous
 62
     7
100
AcDbEllipse
 10
32.0256960011
 20
479.6334022045
 30
0.0
 11
-0.07660444431173939
 21
0.0766044443117897
 31
0.0
210
0.0
220
0.0
230
1.0
 40
0.8390996312
 41
2.268928027595318
 42
2.443460952789998
  0
ELLIPSE
  5
273
330
8D
100
AcDbEntity
  8
4221039_0__SIEB_
  6
Continuous
 62
     7
100
AcDbEllipse
 10
32.0256960011
 20
479.6334022045
 30
0.0
 11
-0.07660444431172855
 21
-0.07660444431180358
 31
0.0
210
0.0
220
0.0
230
0.9999999999999999
 40
0.8390996312
 41
0.8726646259949014
 42
2.443460952789648
  0
ELLIPSE
  5
274
330
8D
100
AcDbEntity
  8
4221039_0__SIEB_
  6
Continuous
 62
     7
100
AcDbEllipse
 10
35.0971245726
 20
479.6334022045
 30
0.0
 11
0.07660444431173852
 21
0.0766044443117897
 31
0.0
210
0.0
220
0.0
230
1.0
 40
0.8390996312
 41
3.839724354389721
 42
4.014257279584259
  0
ELLIPSE
  5
275
330
8D
100
AcDbEntity
  8
4221039_0__SIEB_
  6
Continuous
 62
     7
100
AcDbEllipse
 10
33.5614102869
 20
479.6334022045
 30
0.0
 11
-0.07660444431176454
 21
0.07660444431173417
 31
0.0
210
0.0
220
0.0
230
1.0
 40
0.8390996312
 41
2.2689280275948
 42
2.443460952789431
  0
ELLIPSE
  5
276
330
8D
100
AcDbEntity
  8
4221039_0__SIEB_
  6
Continuous
 62
     7
100
AcDbEllipse
 10
33.5614102869
 20
479.6334022045
 30
0.0
 11
-0.07660444431172941
 21
-0.07660444431180358
 31
0.0
210
0.0
220
0.0
230
0.9999999999999998
 40
0.8390996312
 41
0.8726646259950319
 42
2.443460952789791
  0
ELLIPSE
  5
277
330
8D
100
AcDbEntity
  8
4221039_0__SIEB_
  6
Continuous
 62
     7
100
AcDbEllipse
 10
35.0971245726
 20
479.6334022045
 30
0.0
 11
-0.07660444431173852
 21
0.0766044443117897
 31
0.0
210
0.0
220
0.0
230
1.0
 40
0.8390996312
 41
2.268928027595328
 42
2.443460952789793
  0
ELLIPSE
  5
278
330
8D
100
AcDbEntity
  8
4221039_0__SIEB_
  6
Continuous
 62
     7
100
AcDbEllipse
 10
30.7042674297
 20
480.0439178855
 30
0.0
 11
8.800000000000002
 21
-1.387778780781446E-14
 31
0.0
210
0.0
220
0.0
230
1.0
 40
0.1736481777
 41
-0.813567293642719
 42
-0.7520131324309718
  0
ELLIPSE
  5
279
330
8D
100
AcDbEntity
  8
4221039_0__SIEB_
  6
Continuous
 62
     7
100
AcDbEllipse
 10
30.7042674297
 20
480.0439178855
 30
0.0
 11
8.800000000000002
 21
-1.387778780781446E-14
 31
0.0
210
0.0
220
0.0
230
1.0
 40
0.1736481777
 41
-1.034969744432705
 42
-1.030630382059965
  0
ELLIPSE
  5
27A
330
8D
100
AcDbEntity
  8
4221039_0__SIEB_
  6
Continuous
 62
     7
100
AcDbEllipse
 10
30.7042674297
 20
480.0439178855
 30
0.0
 11
8.800000000000002
 21
-1.387778780781446E-14
 31
0.0
210
0.0
220
0.0
230
1.0
 40
0.1736481777
 41
-1.122657736643911
 42
-1.061200261438369
  0
ELLIPSE
  5
27B
330
8D
100
AcDbEntity
  8
4221039_0__SIEB_
  6
Continuous
 62
     7
100
AcDbEllipse
 10
30.7042674297
 20
480.0439178855
 30
0.0
 11
8.800000000000002
 21
-1.387778780781446E-14
 31
0.0
210
0.0
220
0.0
230
1.0
 40
0.1736481777
 41
4.172223035649759
 42
4.264250390233704
  0
ELLIPSE
  5
27C
330
8D
100
AcDbEntity
  8
4221039_0__SIEB_
  6
Continuous
 62
     7
100
AcDbEllipse
 10
30.7042674297
 20
480.0439178855
 30
0.0
 11
8.800000000000002
 21
-1.387778780781446E-14
 31
0.0
210
0.0
220
0.0
230
1.0
 40
0.1736481777
 41
3.92141429726178
 42
3.955159947232512
  0
SPLINE
  5
27D
330
8D
100
AcDbEntity
  8
4221039_0__SIEB_
  6
Continuous
 62
     7
100
AcDbSpline
210
0.0
220
0.0
230
1.0
 70
     8
 71
     3
 72
    11
 73
     7
 74
     0
 42
0.0000000236312142
 43
0.0000000001
 40
0.1738686561029071
 40
0.1738686561029071
 40
0.1738686561029071
 40
0.1738686561029071
 40
0.276858672066522
 40
0.276858672066522
 40
0.276858672066522
 40
0.4244856207124511
 40
0.4244856207124511
 40
0.4244856207124511
 40
0.4244856207124511
 10
26.27399409278938
 20
477.3114116884903
 30
0.0
 10
26.28666332906931
 20
477.3184284471916
 30
0.0
 10
26.30049492624109
 20
477.3232452322397
 30
0.0
 10
26.31450393255936
 20
477.3266343415424
 30
0.0
 10
26.33448002477055
 20
477.3314670297721
 30
0.0
 10
26.3553149727718
 20
477.3335300849421
 30
0.0
 10
26.3763366223449
 20
477.3333824639816
 30
0.0
  0
SPLINE
  5
27E
330
8D
100
AcDbEntity
  8
4221039_0__SIEB_
  6
Continuous
 62
     7
100
AcDbSpline
210
0.0
220
0.0
230
1.0
 70
     8
 71
     3
 72
    11
 73
     7
 74
     0
 42
0.0000000383363422
 43
0.0000000001
 40
0.564839275600405
 40
0.564839275600405
 40
0.564839275600405
 40
0.564839275600405
 40
0.6909618002506457
 40
0.6909618002506457
 40
0.6909618002506457
 40
0.7073452031400788
 40
0.7073452031400788
 40
0.7073452031400788
 40
0.7073452031400788
 10
37.02191965661131
 20
477.6000075619957
 30
0.0
 10
37.03289201385313
 20
477.600059406263
 30
0.0
 10
37.04372265998478
 20
477.5981381486006
 30
0.0
 10
37.0538053512559
 20
477.5939944676452
 30
0.0
 10
37.05512368531805
 20
477.5934526722456
 30
0.0
 10
37.05643364847555
 20
477.5928706362594
 30
0.0
 10
37.05773264723292
 20
477.5922477799767
 30
0.0
  0
LINE
  5
27F
330
8D
100
AcDbEntity
  8
4221039_0__SIEB_
  6
Continuous
 62
     7
100
AcDbLine
 10
29.0542674297
 20
477.1187730206
 30
0.0
 11
29.0542674297
 21
477.1333363204
 31
0.0
  0
LINE
  5
280
330
8D
100
AcDbEntity
  8
4221039_0__SIEB_
  6
Continuous
 62
     7
100
AcDbLine
 10
28.8542674297
 20
477.1333363204
 30
0.0
 11
28.8542674297
 21
477.1260803256
 31
0.0
  0
LINE
  5
281
330
8D
100
AcDbEntity
  8
4221039_0__SIEB_
  6
Continuous
 62
     7
100
AcDbLine
 10
30.5899817154
 20
477.090830167
 30
0.0
 11
30.5899817154
 21
477.1333363204
 31
0.0
  0
LINE
  5
282
330
8D
100
AcDbEntity
  8
4221039_0__SIEB_
  6
Continuous
 62
     7
100
AcDbLine
 10
30.3899817154
 20
477.1333363204
 30
0.0
 11
30.3899817154
 21
477.0917060431
 31
0.0
  0
LINE
  5
283
330
8D
100
AcDbEntity
  8
4221039_0__SIEB_
  6
Continuous
 62
     7
100
AcDbLine
 10
32.1256960011
 20
477.1114812648
 30
0.0
 11
32.1256960011
 21
477.1333363204
 31
0.0
  0
LINE
  5
284
330
8D
100
AcDbEntity
  8
4221039_0__SIEB_
  6
Continuous
 62
     7
100
AcDbLine
 10
31.9256960011
 20
477.1333363204
 30
0.0
 11
31.9256960011
 21
477.106015271
 31
0.0
  0
LINE
  5
285
330
8D
100
AcDbEntity
  8
4221039_0__SIEB_
  6
Continuous
 62
     7
100
AcDbLine
 10
34.9971245726
 20
477.3333363204
 30
0.0
 11
33.6614102869
 21
477.3333363204
 31
0.0
  0
LINE
  5
286
330
8D
100
AcDbEntity
  8
4221039_0__SIEB_
  6
Continuous
 62
     7
100
AcDbLine
 10
33.4614102869
 20
477.3333363204
 30
0.0
 11
32.1256960011
 21
477.3333363204
 31
0.0
  0
LINE
  5
287
330
8D
100
AcDbEntity
  8
4221039_0__SIEB_
  6
Continuous
 62
     7
100
AcDbLine
 10
32.0430608189
 20
477.1333363204
 30
0.0
 11
33.5440454691
 21
477.1333363204
 31
0.0
  0
LINE
  5
288
330
8D
100
AcDbEntity
  8
4221039_0__SIEB_
  6
Continuous
 62
     7
100
AcDbLine
 10
31.9256960011
 20
477.3333363204
 30
0.0
 11
30.5899817154
 21
477.3333363204
 31
0.0
  0
LINE
  5
289
330
8D
100
AcDbEntity
  8
4221039_0__SIEB_
  6
Continuous
 62
     7
100
AcDbLine
 10
30.5073465332
 20
477.1333363204
 30
0.0
 11
32.0083311834
 21
477.1333363204
 31
0.0
  0
LINE
  5
28A
330
8D
100
AcDbEntity
  8
4221039_0__SIEB_
  6
Continuous
 62
     7
100
AcDbLine
 10
30.3899817154
 20
477.3333363204
 30
0.0
 11
29.0542674297
 21
477.3333363204
 31
0.0
  0
LINE
  5
28B
330
8D
100
AcDbEntity
  8
4221039_0__SIEB_
  6
Continuous
 62
     7
100
AcDbLine
 10
28.9716322475
 20
477.1333363204
 30
0.0
 11
30.4726168977
 21
477.1333363204
 31
0.0
  0
LINE
  5
28C
330
8D
100
AcDbEntity
  8
4221039_0__SIEB_
  6
Continuous
 62
     7
100
AcDbLine
 10
28.8542674297
 20
477.3333363204
 30
0.0
 11
27.518553144
 21
477.3333363204
 31
0.0
  0
LINE
  5
28D
330
8D
100
AcDbEntity
  8
4221039_0__SIEB_
  6
Continuous
 62
     7
100
AcDbLine
 10
27.4359179618
 20
477.1333363204
 30
0.0
 11
28.936902612
 21
477.1333363204
 31
0.0
  0
LINE
  5
28E
330
8D
100
AcDbEntity
  8
4221039_0__SIEB_
  6
Continuous
 62
     7
100
AcDbLine
 10
27.318553144
 20
477.3333363204
 30
0.0
 11
26.376707035
 21
477.3333363204
 31
0.0
  0
LINE
  5
28F
330
8D
100
AcDbEntity
  8
4221039_0__SIEB_
  6
Continuous
 62
     7
100
AcDbLine
 10
35.1971245726
 20
477.3137382706
 30
0.0
 11
35.1971245726
 21
477.4000103075
 31
0.0
  0
LINE
  5
290
330
8D
100
AcDbEntity
  8
4221039_0__SIEB_
  6
Continuous
 62
     7
100
AcDbLine
 10
34.9971245726
 20
477.4000103075
 30
0.0
 11
34.9971245726
 21
477.2927701851
 31
0.0
  0
LINE
  5
291
330
8D
100
AcDbEntity
  8
4221039_0__SIEB_
  6
Continuous
 62
     7
100
AcDbLine
 10
33.6614102869
 20
477.2507011381
 30
0.0
 11
33.6614102869
 21
477.4000103075
 31
0.0
  0
LINE
  5
292
330
8D
100
AcDbEntity
  8
4221039_0__SIEB_
  6
Continuous
 62
     7
100
AcDbLine
 10
33.4614102869
 20
477.4000103075
 30
0.0
 11
33.4614102869
 21
477.2507011381
 31
0.0
  0
LINE
  5
293
330
8D
100
AcDbEntity
  8
4221039_0__SIEB_
  6
Continuous
 62
     7
100
AcDbLine
 10
32.1256960011
 20
477.2507011381
 30
0.0
 11
32.1256960011
 21
477.4000103075
 31
0.0
  0
LINE
  5
294
330
8D
100
AcDbEntity
  8
4221039_0__SIEB_
  6
Continuous
 62
     7
100
AcDbLine
 10
31.9256960011
 20
477.4000103075
 30
0.0
 11
31.9256960011
 21
477.2507011381
 31
0.0
  0
LINE
  5
295
330
8D
100
AcDbEntity
  8
4221039_0__SIEB_
  6
Continuous
 62
     7
100
AcDbLine
 10
30.5899817154
 20
477.2507011381
 30
0.0
 11
30.5899817154
 21
477.4000103075
 31
0.0
  0
LINE
  5
296
330
8D
100
AcDbEntity
  8
4221039_0__SIEB_
  6
Continuous
 62
     7
100
AcDbLine
 10
30.3899817154
 20
477.4000103075
 30
0.0
 11
30.3899817154
 21
477.2507011381
 31
0.0
  0
LINE
  5
297
330
8D
100
AcDbEntity
  8
4221039_0__SIEB_
  6
Continuous
 62
     7
100
AcDbLine
 10
29.0542674297
 20
477.2507011381
 30
0.0
 11
29.0542674297
 21
477.4000103075
 31
0.0
  0
LINE
  5
298
330
8D
100
AcDbEntity
  8
4221039_0__SIEB_
  6
Continuous
 62
     7
100
AcDbLine
 10
28.8542674297
 20
477.4000103075
 30
0.0
 11
28.8542674297
 21
477.2507011381
 31
0.0
  0
LINE
  5
299
330
8D
100
AcDbEntity
  8
4221039_0__SIEB_
  6
Continuous
 62
     7
100
AcDbLine
 10
27.518553144
 20
477.2507011381
 30
0.0
 11
27.518553144
 21
477.4000103075
 31
0.0
  0
LINE
  5
29A
330
8D
100
AcDbEntity
  8
4221039_0__SIEB_
  6
Continuous
 62
     7
100
AcDbLine
 10
27.318553144
 20
477.4000103075
 30
0.0
 11
27.318553144
 21
477.2507011381
 31
0.0
  0
LINE
  5
29B
330
8D
100
AcDbEntity
  8
4221039_0__SIEB_
  6
Continuous
 62
     7
100
AcDbLine
 10
25.9828388583
 20
477.3393426546
 30
0.0
 11
25.9828388583
 21
477.4000103075
 31
0.0
  0
LINE
  5
29C
330
8D
100
AcDbEntity
  8
4221039_0__SIEB_
  6
Continuous
 62
     7
100
AcDbLine
 10
25.7828388583
 20
477.4000103075
 30
0.0
 11
25.7828388583
 21
477.3632662427
 31
0.0
  0
LINE
  5
29D
330
8D
100
AcDbEntity
  8
4221039_0__SIEB_
  6
Continuous
 62
     7
100
AcDbLine
 10
25.7828388583
 20
477.6000103075
 30
0.0
 11
24.4471245726
 21
477.6000103075
 31
0.0
  0
LINE
  5
29E
330
8D
100
AcDbEntity
  8
4221039_0__SIEB_
  6
Continuous
 62
     7
100
AcDbLine
 10
24.3644893903
 20
477.4000103075
 30
0.0
 11
25.8654740405
 21
477.4000103075
 31
0.0
  0
LINE
  5
29F
330
8D
100
AcDbEntity
  8
4221039_0__SIEB_
  6
Continuous
 62
     7
100
AcDbLine
 10
27.318553144
 20
477.6000103075
 30
0.0
 11
25.9828388583
 21
477.6000103075
 31
0.0
  0
LINE
  5
2A0
330
8D
100
AcDbEntity
  8
4221039_0__SIEB_
  6
Continuous
 62
     7
100
AcDbLine
 10
25.9002036761
 20
477.4000103075
 30
0.0
 11
27.4011883262
 21
477.4000103075
 31
0.0
  0
LINE
  5
2A1
330
8D
100
AcDbEntity
  8
4221039_0__SIEB_
  6
Continuous
 62
     7
100
AcDbLine
 10
28.8542674297
 20
477.6000103075
 30
0.0
 11
27.518553144
 21
477.6000103075
 31
0.0
  0
LINE
  5
2A2
330
8D
100
AcDbEntity
  8
4221039_0__SIEB_
  6
Continuous
 62
     7
100
AcDbLine
 10
27.4359179618
 20
477.4000103075
 30
0.0
 11
28.936902612
 21
477.4000103075
 31
0.0
  0
LINE
  5
2A3
330
8D
100
AcDbEntity
  8
4221039_0__SIEB_
  6
Continuous
 62
     7
100
AcDbLine
 10
30.4726168977
 20
477.6000103075
 30
0.0
 11
28.9716322475
 21
477.6000103075
 31
0.0
  0
LINE
  5
2A4
330
8D
100
AcDbEntity
  8
4221039_0__SIEB_
  6
Continuous
 62
     7
100
AcDbLine
 10
28.9716322475
 20
477.4000103075
 30
0.0
 11
30.4726168977
 21
477.4000103075
 31
0.0
  0
LINE
  5
2A5
330
8D
100
AcDbEntity
  8
4221039_0__SIEB_
  6
Continuous
 62
     7
100
AcDbLine
 10
31.9256960011
 20
477.6000103075
 30
0.0
 11
30.5899817154
 21
477.6000103075
 31
0.0
  0
LINE
  5
2A6
330
8D
100
AcDbEntity
  8
4221039_0__SIEB_
  6
Continuous
 62
     7
100
AcDbLine
 10
30.5073465332
 20
477.4000103075
 30
0.0
 11
32.0083311834
 21
477.4000103075
 31
0.0
  0
LINE
  5
2A7
330
8D
100
AcDbEntity
  8
4221039_0__SIEB_
  6
Continuous
 62
     7
100
AcDbLine
 10
33.4614102869
 20
477.6000103075
 30
0.0
 11
32.1256960011
 21
477.6000103075
 31
0.0
  0
LINE
  5
2A8
330
8D
100
AcDbEntity
  8
4221039_0__SIEB_
  6
Continuous
 62
     7
100
AcDbLine
 10
32.0430608189
 20
477.4000103075
 30
0.0
 11
33.5440454691
 21
477.4000103075
 31
0.0
  0
LINE
  5
2A9
330
8D
100
AcDbEntity
  8
4221039_0__SIEB_
  6
Continuous
 62
     7
100
AcDbLine
 10
34.9971245726
 20
477.6000103075
 30
0.0
 11
33.6614102869
 21
477.6000103075
 31
0.0
  0
LINE
  5
2AA
330
8D
100
AcDbEntity
  8
4221039_0__SIEB_
  6
Continuous
 62
     7
100
AcDbLine
 10
33.5787751046
 20
477.4000103075
 30
0.0
 11
35.0797597548
 21
477.4000103075
 31
0.0
  0
LINE
  5
2AB
330
8D
100
AcDbEntity
  8
4221039_0__SIEB_
  6
Continuous
 62
     7
100
AcDbLine
 10
36.5328388583
 20
477.6000103075
 30
0.0
 11
35.1971245726
 21
477.6000103075
 31
0.0
  0
LINE
  5
2AC
330
8D
100
AcDbEntity
  8
4221039_0__SIEB_
  6
Continuous
 62
     7
100
AcDbLine
 10
35.1144893903
 20
477.4000103075
 30
0.0
 11
36.6154740405
 21
477.4000103075
 31
0.0
  0
LINE
  5
2AD
330
8D
100
AcDbEntity
  8
4221039_0__SIEB_
  6
Continuous
 62
     7
100
AcDbLine
 10
37.0216997378
 20
477.6000103075
 30
0.0
 11
36.7328388583
 21
477.6000103075
 31
0.0
  0
LINE
  5
2AE
330
8D
100
AcDbEntity
  8
4221039_0__SIEB_
  6
Continuous
 62
     7
100
AcDbLine
 10
24.4471245726
 20
477.5676908699
 30
0.0
 11
24.4471245726
 21
477.6666842946
 31
0.0
  0
LINE
  5
2AF
330
8D
100
AcDbEntity
  8
4221039_0__SIEB_
  6
Continuous
 62
     7
100
AcDbLine
 10
24.2471245726
 20
477.6666842946
 30
0.0
 11
24.2471245726
 21
477.6068337558
 31
0.0
  0
LINE
  5
2B0
330
8D
100
AcDbEntity
  8
4221039_0__SIEB_
  6
Continuous
 62
     7
100
AcDbLine
 10
25.9828388583
 20
477.5173751252
 30
0.0
 11
25.9828388583
 21
477.6666842946
 31
0.0
  0
LINE
  5
2B1
330
8D
100
AcDbEntity
  8
4221039_0__SIEB_
  6
Continuous
 62
     7
100
AcDbLine
 10
25.7828388583
 20
477.6666842946
 30
0.0
 11
25.7828388583
 21
477.5173751252
 31
0.0
  0
LINE
  5
2B2
330
8D
100
AcDbEntity
  8
4221039_0__SIEB_
  6
Continuous
 62
     7
100
AcDbLine
 10
27.518553144
 20
477.5173751252
 30
0.0
 11
27.518553144
 21
477.6666842946
 31
0.0
  0
LINE
  5
2B3
330
8D
100
AcDbEntity
  8
4221039_0__SIEB_
  6
Continuous
 62
     7
100
AcDbLine
 10
27.318553144
 20
477.6666842946
 30
0.0
 11
27.318553144
 21
477.5173751252
 31
0.0
  0
LINE
  5
2B4
330
8D
100
AcDbEntity
  8
4221039_0__SIEB_
  6
Continuous
 62
     7
100
AcDbLine
 10
29.0542674297
 20
477.5173751252
 30
0.0
 11
29.0542674297
 21
477.6666842946
 31
0.0
  0
LINE
  5
2B5
330
8D
100
AcDbEntity
  8
4221039_0__SIEB_
  6
Continuous
 62
     7
100
AcDbLine
 10
28.8542674297
 20
477.6666842946
 30
0.0
 11
28.8542674297
 21
477.5173751252
 31
0.0
  0
LINE
  5
2B6
330
8D
100
AcDbEntity
  8
4221039_0__SIEB_
  6
Continuous
 62
     7
100
AcDbLine
 10
30.5899817154
 20
477.5173751252
 30
0.0
 11
30.5899817154
 21
477.6666842946
 31
0.0
  0
LINE
  5
2B7
330
8D
100
AcDbEntity
  8
4221039_0__SIEB_
  6
Continuous
 62
     7
100
AcDbLine
 10
30.3899817154
 20
477.6666842946
 30
0.0
 11
30.3899817154
 21
477.5173751252
 31
0.0
  0
LINE
  5
2B8
330
8D
100
AcDbEntity
  8
4221039_0__SIEB_
  6
Continuous
 62
     7
100
AcDbLine
 10
32.1256960011
 20
477.5173751252
 30
0.0
 11
32.1256960011
 21
477.6666842946
 31
0.0
  0
LINE
  5
2B9
330
8D
100
AcDbEntity
  8
4221039_0__SIEB_
  6
Continuous
 62
     7
100
AcDbLine
 10
31.9256960011
 20
477.6666842946
 30
0.0
 11
31.9256960011
 21
477.5173751252
 31
0.0
  0
LINE
  5
2BA
330
8D
100
AcDbEntity
  8
4221039_0__SIEB_
  6
Continuous
 62
     7
100
AcDbLine
 10
33.6614102869
 20
477.5173751252
 30
0.0
 11
33.6614102869
 21
477.6666842946
 31
0.0
  0
LINE
  5
2BB
330
8D
100
AcDbEntity
  8
4221039_0__SIEB_
  6
Continuous
 62
     7
100
AcDbLine
 10
33.4614102869
 20
477.6666842946
 30
0.0
 11
33.4614102869
 21
477.5173751252
 31
0.0
  0
LINE
  5
2BC
330
8D
100
AcDbEntity
  8
4221039_0__SIEB_
  6
Continuous
 62
     7
100
AcDbLine
 10
35.1971245726
 20
477.5173751252
 30
0.0
 11
35.1971245726
 21
477.6666842946
 31
0.0
  0
LINE
  5
2BD
330
8D
100
AcDbEntity
  8
4221039_0__SIEB_
  6
Continuous
 62
     7
100
AcDbLine
 10
34.9971245726
 20
477.6666842946
 30
0.0
 11
34.9971245726
 21
477.5173751252
 31
0.0
  0
LINE
  5
2BE
330
8D
100
AcDbEntity
  8
4221039_0__SIEB_
  6
Continuous
 62
     7
100
AcDbLine
 10
36.7328388583
 20
477.5261735919
 30
0.0
 11
36.7328388583
 21
477.6666842946
 31
0.0
  0
LINE
  5
2BF
330
8D
100
AcDbEntity
  8
4221039_0__SIEB_
  6
Continuous
 62
     7
100
AcDbLine
 10
36.5328388583
 20
477.6666842946
 30
0.0
 11
36.5328388583
 21
477.5173751252
 31
0.0
  0
LINE
  5
2C0
330
8D
100
AcDbEntity
  8
4221039_0__SIEB_
  6
Continuous
 62
     7
100
AcDbLine
 10
38.068553144
 20
477.8666842946
 30
0.0
 11
36.7328388583
 21
477.8666842946
 31
0.0
  0
LINE
  5
2C1
330
8D
100
AcDbEntity
  8
4221039_0__SIEB_
  6
Continuous
 62
     7
100
AcDbLine
 10
36.6502036761
 20
477.6666842946
 30
0.0
 11
38.1511883262
 21
477.6666842946
 31
0.0
  0
LINE
  5
2C2
330
8D
100
AcDbEntity
  8
4221039_0__SIEB_
  6
Continuous
 62
     7
100
AcDbLine
 10
36.5328388583
 20
477.8666842946
 30
0.0
 11
35.1971245726
 21
477.8666842946
 31
0.0
  0
LINE
  5
2C3
330
8D
100
AcDbEntity
  8
4221039_0__SIEB_
  6
Continuous
 62
     7
100
AcDbLine
 10
35.1144893903
 20
477.6666842946
 30
0.0
 11
36.6154740405
 21
477.6666842946
 31
0.0
  0
LINE
  5
2C4
330
8D
100
AcDbEntity
  8
4221039_0__SIEB_
  6
Continuous
 62
     7
100
AcDbLine
 10
34.9971245726
 20
477.8666842946
 30
0.0
 11
33.6614102869
 21
477.8666842946
 31
0.0
  0
LINE
  5
2C5
330
8D
100
AcDbEntity
  8
4221039_0__SIEB_
  6
Continuous
 62
     7
100
AcDbLine
 10
33.5787751046
 20
477.6666842946
 30
0.0
 11
35.0797597548
 21
477.6666842946
 31
0.0
  0
LINE
  5
2C6
330
8D
100
AcDbEntity
  8
4221039_0__SIEB_
  6
Continuous
 62
     7
100
AcDbLine
 10
33.4614102869
 20
477.8666842946
 30
0.0
 11
32.1256960011
 21
477.8666842946
 31
0.0
  0
LINE
  5
2C7
330
8D
100
AcDbEntity
  8
4221039_0__SIEB_
  6
Continuous
 62
     7
100
AcDbLine
 10
32.0430608189
 20
477.6666842946
 30
0.0
 11
33.5440454691
 21
477.6666842946
 31
0.0
  0
LINE
  5
2C8
330
8D
100
AcDbEntity
  8
4221039_0__SIEB_
  6
Continuous
 62
     7
100
AcDbLine
 10
31.9256960011
 20
477.8666842946
 30
0.0
 11
30.5899817154
 21
477.8666842946
 31
0.0
  0
LINE
  5
2C9
330
8D
100
AcDbEntity
  8
4221039_0__SIEB_
  6
Continuous
 62
     7
100
AcDbLine
 10
30.5073465332
 20
477.6666842946
 30
0.0
 11
32.0083311834
 21
477.6666842946
 31
0.0
  0
LINE
  5
2CA
330
8D
100
AcDbEntity
  8
4221039_0__SIEB_
  6
Continuous
 62
     7
100
AcDbLine
 10
30.4726168977
 20
477.8666842946
 30
0.0
 11
28.9716322475
 21
477.8666842946
 31
0.0
  0
LINE
  5
2CB
330
8D
100
AcDbEntity
  8
4221039_0__SIEB_
  6
Continuous
 62
     7
100
AcDbLine
 10
28.9716322475
 20
477.6666842946
 30
0.0
 11
30.4726168977
 21
477.6666842946
 31
0.0
  0
LINE
  5
2CC
330
8D
100
AcDbEntity
  8
4221039_0__SIEB_
  6
Continuous
 62
     7
100
AcDbLine
 10
28.8542674297
 20
477.8666842946
 30
0.0
 11
27.518553144
 21
477.8666842946
 31
0.0
  0
LINE
  5
2CD
330
8D
100
AcDbEntity
  8
4221039_0__SIEB_
  6
Continuous
 62
     7
100
AcDbLine
 10
27.4359179618
 20
477.6666842946
 30
0.0
 11
28.936902612
 21
477.6666842946
 31
0.0
  0
LINE
  5
2CE
330
8D
100
AcDbEntity
  8
4221039_0__SIEB_
  6
Continuous
 62
     7
100
AcDbLine
 10
27.318553144
 20
477.8666842946
 30
0.0
 11
25.9828388583
 21
477.8666842946
 31
0.0
  0
LINE
  5
2CF
330
8D
100
AcDbEntity
  8
4221039_0__SIEB_
  6
Continuous
 62
     7
100
AcDbLine
 10
25.9002036761
 20
477.6666842946
 30
0.0
 11
27.4011883262
 21
477.6666842946
 31
0.0
  0
LINE
  5
2D0
330
8D
100
AcDbEntity
  8
4221039_0__SIEB_
  6
Continuous
 62
     7
100
AcDbLine
 10
25.7828388583
 20
477.8666842946
 30
0.0
 11
24.4471245726
 21
477.8666842946
 31
0.0
  0
LINE
  5
2D1
330
8D
100
AcDbEntity
  8
4221039_0__SIEB_
  6
Continuous
 62
     7
100
AcDbLine
 10
24.3644893903
 20
477.6666842946
 30
0.0
 11
25.8654740405
 21
477.6666842946
 31
0.0
  0
LINE
  5
2D2
330
8D
100
AcDbEntity
  8
4221039_0__SIEB_
  6
Continuous
 62
     7
100
AcDbLine
 10
24.2471245726
 20
477.8666842946
 30
0.0
 11
23.2210264221
 21
477.8666842946
 31
0.0
  0
LINE
  5
2D3
330
8D
100
AcDbEntity
  8
4221039_0__SIEB_
  6
Continuous
 62
     7
100
AcDbLine
 10
22.9832027015
 20
477.6666842946
 30
0.0
 11
24.3297597548
 21
477.6666842946
 31
0.0
  0
LINE
  5
2D4
330
8D
100
AcDbEntity
  8
4221039_0__SIEB_
  6
Continuous
 62
     7
100
AcDbLine
 10
38.268553144
 20
477.8934621347
 30
0.0
 11
38.268553144
 21
477.9333582817
 31
0.0
  0
LINE
  5
2D5
330
8D
100
AcDbEntity
  8
4221039_0__SIEB_
  6
Continuous
 62
     7
100
AcDbLine
 10
38.068553144
 20
477.9333582817
 30
0.0
 11
38.068553144
 21
477.8296255625
 31
0.0
  0
LINE
  5
2D6
330
8D
100
AcDbEntity
  8
4221039_0__SIEB_
  6
Continuous
 62
     7
100
AcDbLine
 10
36.7328388583
 20
477.7840491124
 30
0.0
 11
36.7328388583
 21
477.9333582817
 31
0.0
  0
LINE
  5
2D7
330
8D
100
AcDbEntity
  8
4221039_0__SIEB_
  6
Continuous
 62
     7
100
AcDbLine
 10
36.5328388583
 20
477.9333582817
 30
0.0
 11
36.5328388583
 21
477.7840491124
 31
0.0
  0
LINE
  5
2D8
330
8D
100
AcDbEntity
  8
4221039_0__SIEB_
  6
Continuous
 62
     7
100
AcDbLine
 10
35.1971245726
 20
477.7840491124
 30
0.0
 11
35.1971245726
 21
477.9333582817
 31
0.0
  0
LINE
  5
2D9
330
8D
100
AcDbEntity
  8
4221039_0__SIEB_
  6
Continuous
 62
     7
100
AcDbLine
 10
34.9971245726
 20
477.9333582817
 30
0.0
 11
34.9971245726
 21
477.7840491124
 31
0.0
  0
LINE
  5
2DA
330
8D
100
AcDbEntity
  8
4221039_0__SIEB_
  6
Continuous
 62
     7
100
AcDbLine
 10
33.6614102869
 20
477.7840491124
 30
0.0
 11
33.6614102869
 21
477.9333582817
 31
0.0
  0
LINE
  5
2DB
330
8D
100
AcDbEntity
  8
4221039_0__SIEB_
  6
Continuous
 62
     7
100
AcDbLine
 10
33.4614102869
 20
477.9333582817
 30
0.0
 11
33.4614102869
 21
477.7840491124
 31
0.0
  0
LINE
  5
2DC
330
8D
100
AcDbEntity
  8
4221039_0__SIEB_
  6
Continuous
 62
     7
100
AcDbLine
 10
32.1256960011
 20
477.7840491124
 30
0.0
 11
32.1256960011
 21
477.9333582817
 31
0.0
  0
LINE
  5
2DD
330
8D
100
AcDbEntity
  8
4221039_0__SIEB_
  6
Continuous
 62
     7
100
AcDbLine
 10
31.9256960011
 20
477.9333582817
 30
0.0
 11
31.9256960011
 21
477.7840491124
 31
0.0
  0
LINE
  5
2DE
330
8D
100
AcDbEntity
  8
4221039_0__SIEB_
  6
Continuous
 62
     7
100
AcDbLine
 10
30.5899817154
 20
477.7840491124
 30
0.0
 11
30.5899817154
 21
477.9333582817
 31
0.0
  0
LINE
  5
2DF
330
8D
100
AcDbEntity
  8
4221039_0__SIEB_
  6
Continuous
 62
     7
100
AcDbLine
 10
30.3899817154
 20
477.9333582817
 30
0.0
 11
30.3899817154
 21
477.7840491124
 31
0.0
  0
LINE
  5
2E0
330
8D
100
AcDbEntity
  8
4221039_0__SIEB_
  6
Continuous
 62
     7
100
AcDbLine
 10
29.0542674297
 20
477.7840491124
 30
0.0
 11
29.0542674297
 21
477.9333582817
 31
0.0
  0
LINE
  5
2E1
330
8D
100
AcDbEntity
  8
4221039_0__SIEB_
  6
Continuous
 62
     7
100
AcDbLine
 10
28.8542674297
 20
477.9333582817
 30
0.0
 11
28.8542674297
 21
477.7840491124
 31
0.0
  0
LINE
  5
2E2
330
8D
100
AcDbEntity
  8
4221039_0__SIEB_
  6
Continuous
 62
     7
100
AcDbLine
 10
27.518553144
 20
477.7840491124
 30
0.0
 11
27.518553144
 21
477.9333582817
 31
0.0
  0
LINE
  5
2E3
330
8D
100
AcDbEntity
  8
4221039_0__SIEB_
  6
Continuous
 62
     7
100
AcDbLine
 10
27.318553144
 20
477.9333582817
 30
0.0
 11
27.318553144
 21
477.7840491124
 31
0.0
  0
LINE
  5
2E4
330
8D
100
AcDbEntity
  8
4221039_0__SIEB_
  6
Continuous
 62
     7
100
AcDbLine
 10
25.9828388583
 20
477.7840491124
 30
0.0
 11
25.9828388583
 21
477.9333582817
 31
0.0
  0
LINE
  5
2E5
330
8D
100
AcDbEntity
  8
4221039_0__SIEB_
  6
Continuous
 62
     7
100
AcDbLine
 10
25.7828388583
 20
477.9333582817
 30
0.0
 11
25.7828388583
 21
477.7840491124
 31
0.0
  0
LINE
  5
2E6
330
8D
100
AcDbEntity
  8
4221039_0__SIEB_
  6
Continuous
 62
     7
100
AcDbLine
 10
24.4471245726
 20
477.7840491124
 30
0.0
 11
24.4471245726
 21
477.9333582817
 31
0.0
  0
LINE
  5
2E7
330
8D
100
AcDbEntity
  8
4221039_0__SIEB_
  6
Continuous
 62
     7
100
AcDbLine
 10
24.2471245726
 20
477.9333582817
 30
0.0
 11
24.2471245726
 21
477.7840491124
 31
0.0
  0
LINE
  5
2E8
330
8D
100
AcDbEntity
  8
4221039_0__SIEB_
  6
Continuous
 62
     7
100
AcDbLine
 10
22.7114102869
 20
478.1333582817
 30
0.0
 11
22.578861434
 21
478.1333582817
 31
0.0
  0
LINE
  5
2E9
330
8D
100
AcDbEntity
  8
4221039_0__SIEB_
  6
Continuous
 62
     7
100
AcDbLine
 10
24.2471245726
 20
478.1333582817
 30
0.0
 11
22.9114102869
 21
478.1333582817
 31
0.0
  0
LINE
  5
2EA
330
8D
100
AcDbEntity
  8
4221039_0__SIEB_
  6
Continuous
 62
     7
100
AcDbLine
 10
22.8287751046
 20
477.9333582817
 30
0.0
 11
24.3297597548
 21
477.9333582817
 31
0.0
  0
LINE
  5
2EB
330
8D
100
AcDbEntity
  8
4221039_0__SIEB_
  6
Continuous
 62
     7
100
AcDbLine
 10
25.7828388583
 20
478.1333582817
 30
0.0
 11
24.4471245726
 21
478.1333582817
 31
0.0
  0
LINE
  5
2EC
330
8D
100
AcDbEntity
  8
4221039_0__SIEB_
  6
Continuous
 62
     7
100
AcDbLine
 10
24.3644893903
 20
477.9333582817
 30
0.0
 11
25.8654740405
 21
477.9333582817
 31
0.0
  0
LINE
  5
2ED
330
8D
100
AcDbEntity
  8
4221039_0__SIEB_
  6
Continuous
 62
     7
100
AcDbLine
 10
27.318553144
 20
478.1333582817
 30
0.0
 11
25.9828388583
 21
478.1333582817
 31
0.0
  0
LINE
  5
2EE
330
8D
100
AcDbEntity
  8
4221039_0__SIEB_
  6
Continuous
 62
     7
100
AcDbLine
 10
25.9002036761
 20
477.9333582817
 30
0.0
 11
27.4011883262
 21
477.9333582817
 31
0.0
  0
LINE
  5
2EF
330
8D
100
AcDbEntity
  8
4221039_0__SIEB_
  6
Continuous
 62
     7
100
AcDbLine
 10
28.8542674297
 20
478.1333582817
 30
0.0
 11
27.518553144
 21
478.1333582817
 31
0.0
  0
LINE
  5
2F0
330
8D
100
AcDbEntity
  8
4221039_0__SIEB_
  6
Continuous
 62
     7
100
AcDbLine
 10
27.4359179618
 20
477.9333582817
 30
0.0
 11
28.936902612
 21
477.9333582817
 31
0.0
  0
LINE
  5
2F1
330
8D
100
AcDbEntity
  8
4221039_0__SIEB_
  6
Continuous
 62
     7
100
AcDbLine
 10
30.3899817154
 20
478.1333582817
 30
0.0
 11
29.0542674297
 21
478.1333582817
 31
0.0
  0
LINE
  5
2F2
330
8D
100
AcDbEntity
  8
4221039_0__SIEB_
  6
Continuous
 62
     7
100
AcDbLine
 10
28.9716322475
 20
477.9333582817
 30
0.0
 11
30.4726168977
 21
477.9333582817
 31
0.0
  0
LINE
  5
2F3
330
8D
100
AcDbEntity
  8
4221039_0__SIEB_
  6
Continuous
 62
     7
100
AcDbLine
 10
31.9256960011
 20
478.1333582817
 30
0.0
 11
30.5899817154
 21
478.1333582817
 31
0.0
  0
LINE
  5
2F4
330
8D
100
AcDbEntity
  8
4221039_0__SIEB_
  6
Continuous
 62
     7
100
AcDbLine
 10
30.5073465332
 20
477.9333582817
 30
0.0
 11
32.0083311834
 21
477.9333582817
 31
0.0
  0
LINE
  5
2F5
330
8D
100
AcDbEntity
  8
4221039_0__SIEB_
  6
Continuous
 62
     7
100
AcDbLine
 10
33.4614102869
 20
478.1333582817
 30
0.0
 11
32.1256960011
 21
478.1333582817
 31
0.0
  0
LINE
  5
2F6
330
8D
100
AcDbEntity
  8
4221039_0__SIEB_
  6
Continuous
 62
     7
100
AcDbLine
 10
32.0430608189
 20
477.9333582817
 30
0.0
 11
33.5440454691
 21
477.9333582817
 31
0.0
  0
LINE
  5
2F7
330
8D
100
AcDbEntity
  8
4221039_0__SIEB_
  6
Continuous
 62
     7
100
AcDbLine
 10
34.9971245726
 20
478.1333582817
 30
0.0
 11
33.6614102869
 21
478.1333582817
 31
0.0
  0
LINE
  5
2F8
330
8D
100
AcDbEntity
  8
4221039_0__SIEB_
  6
Continuous
 62
     7
100
AcDbLine
 10
33.5787751046
 20
477.9333582817
 30
0.0
 11
35.0797597548
 21
477.9333582817
 31
0.0
  0
LINE
  5
2F9
330
8D
100
AcDbEntity
  8
4221039_0__SIEB_
  6
Continuous
 62
     7
100
AcDbLine
 10
36.5328388583
 20
478.1333582817
 30
0.0
 11
35.1971245726
 21
478.1333582817
 31
0.0
  0
LINE
  5
2FA
330
8D
100
AcDbEntity
  8
4221039_0__SIEB_
  6
Continuous
 62
     7
100
AcDbLine
 10
35.1144893903
 20
477.9333582817
 30
0.0
 11
36.6154740405
 21
477.9333582817
 31
0.0
  0
LINE
  5
2FB
330
8D
100
AcDbEntity
  8
4221039_0__SIEB_
  6
Continuous
 62
     7
100
AcDbLine
 10
38.068553144
 20
478.1333582817
 30
0.0
 11
36.7328388583
 21
478.1333582817
 31
0.0
  0
LINE
  5
2FC
330
8D
100
AcDbEntity
  8
4221039_0__SIEB_
  6
Continuous
 62
     7
100
AcDbLine
 10
36.6502036761
 20
477.9333582817
 30
0.0
 11
38.1511883262
 21
477.9333582817
 31
0.0
  0
LINE
  5
2FD
330
8D
100
AcDbEntity
  8
4221039_0__SIEB_
  6
Continuous
 62
     7
100
AcDbLine
 10
38.8296734255
 20
478.1333582817
 30
0.0
 11
38.268553144
 21
478.1333582817
 31
0.0
  0
LINE
  5
2FE
330
8D
100
AcDbEntity
  8
4221039_0__SIEB_
  6
Continuous
 62
     7
100
AcDbLine
 10
22.9114102869
 20
478.0507230995
 30
0.0
 11
22.9114102869
 21
478.2000322689
 31
0.0
  0
LINE
  5
2FF
330
8D
100
AcDbEntity
  8
4221039_0__SIEB_
  6
Continuous
 62
     7
100
AcDbLine
 10
22.7114102869
 20
478.2000322689
 30
0.0
 11
22.7114102869
 21
478.064498593
 31
0.0
  0
LINE
  5
300
330
8D
100
AcDbEntity
  8
4221039_0__SIEB_
  6
Continuous
 62
     7
100
AcDbLine
 10
24.4471245726
 20
478.0507230995
 30
0.0
 11
24.4471245726
 21
478.2000322689
 31
0.0
  0
LINE
  5
301
330
8D
100
AcDbEntity
  8
4221039_0__SIEB_
  6
Continuous
 62
     7
100
AcDbLine
 10
24.2471245726
 20
478.2000322689
 30
0.0
 11
24.2471245726
 21
478.0507230995
 31
0.0
  0
LINE
  5
302
330
8D
100
AcDbEntity
  8
4221039_0__SIEB_
  6
Continuous
 62
     7
100
AcDbLine
 10
25.9828388583
 20
478.0507230995
 30
0.0
 11
25.9828388583
 21
478.2000322689
 31
0.0
  0
LINE
  5
303
330
8D
100
AcDbEntity
  8
4221039_0__SIEB_
  6
Continuous
 62
     7
100
AcDbLine
 10
25.7828388583
 20
478.2000322689
 30
0.0
 11
25.7828388583
 21
478.0507230995
 31
0.0
  0
LINE
  5
304
330
8D
100
AcDbEntity
  8
4221039_0__SIEB_
  6
Continuous
 62
     7
100
AcDbLine
 10
27.518553144
 20
478.0507230995
 30
0.0
 11
27.518553144
 21
478.2000322689
 31
0.0
  0
LINE
  5
305
330
8D
100
AcDbEntity
  8
4221039_0__SIEB_
  6
Continuous
 62
     7
100
AcDbLine
 10
27.318553144
 20
478.2000322689
 30
0.0
 11
27.318553144
 21
478.0507230995
 31
0.0
  0
LINE
  5
306
330
8D
100
AcDbEntity
  8
4221039_0__SIEB_
  6
Continuous
 62
     7
100
AcDbLine
 10
29.0542674297
 20
478.0507230995
 30
0.0
 11
29.0542674297
 21
478.2000322689
 31
0.0
  0
LINE
  5
307
330
8D
100
AcDbEntity
  8
4221039_0__SIEB_
  6
Continuous
 62
     7
100
AcDbLine
 10
28.8542674297
 20
478.2000322689
 30
0.0
 11
28.8542674297
 21
478.0507230995
 31
0.0
  0
LINE
  5
308
330
8D
100
AcDbEntity
  8
4221039_0__SIEB_
  6
Continuous
 62
     7
100
AcDbLine
 10
30.5899817154
 20
478.0507230995
 30
0.0
 11
30.5899817154
 21
478.2000322689
 31
0.0
  0
LINE
  5
309
330
8D
100
AcDbEntity
  8
4221039_0__SIEB_
  6
Continuous
 62
     7
100
AcDbLine
 10
30.3899817154
 20
478.2000322689
 30
0.0
 11
30.3899817154
 21
478.0507230995
 31
0.0
  0
LINE
  5
30A
330
8D
100
AcDbEntity
  8
4221039_0__SIEB_
  6
Continuous
 62
     7
100
AcDbLine
 10
32.1256960011
 20
478.0507230995
 30
0.0
 11
32.1256960011
 21
478.2000322689
 31
0.0
  0
LINE
  5
30B
330
8D
100
AcDbEntity
  8
4221039_0__SIEB_
  6
Continuous
 62
     7
100
AcDbLine
 10
31.9256960011
 20
478.2000322689
 30
0.0
 11
31.9256960011
 21
478.0507230995
 31
0.0
  0
LINE
  5
30C
330
8D
100
AcDbEntity
  8
4221039_0__SIEB_
  6
Continuous
 62
     7
100
AcDbLine
 10
33.6614102869
 20
478.0507230995
 30
0.0
 11
33.6614102869
 21
478.2000322689
 31
0.0
  0
LINE
  5
30D
330
8D
100
AcDbEntity
  8
4221039_0__SIEB_
  6
Continuous
 62
     7
100
AcDbLine
 10
33.4614102869
 20
478.2000322689
 30
0.0
 11
33.4614102869
 21
478.0507230995
 31
0.0
  0
LINE
  5
30E
330
8D
100
AcDbEntity
  8
4221039_0__SIEB_
  6
Continuous
 62
     7
100
AcDbLine
 10
35.1971245726
 20
478.0507230995
 30
0.0
 11
35.1971245726
 21
478.2000322689
 31
0.0
  0
LINE
  5
30F
330
8D
100
AcDbEntity
  8
4221039_0__SIEB_
  6
Continuous
 62
     7
100
AcDbLine
 10
34.9971245726
 20
478.2000322689
 30
0.0
 11
34.9971245726
 21
478.0507230995
 31
0.0
  0
LINE
  5
310
330
8D
100
AcDbEntity
  8
4221039_0__SIEB_
  6
Continuous
 62
     7
100
AcDbLine
 10
36.7328388583
 20
478.0507230995
 30
0.0
 11
36.7328388583
 21
478.2000322689
 31
0.0
  0
LINE
  5
311
330
8D
100
AcDbEntity
  8
4221039_0__SIEB_
  6
Continuous
 62
     7
100
AcDbLine
 10
36.5328388583
 20
478.2000322689
 30
0.0
 11
36.5328388583
 21
478.0507230995
 31
0.0
  0
LINE
  5
312
330
8D
100
AcDbEntity
  8
4221039_0__SIEB_
  6
Continuous
 62
     7
100
AcDbLine
 10
38.268553144
 20
478.0507230995
 30
0.0
 11
38.268553144
 21
478.2000322689
 31
0.0
  0
LINE
  5
313
330
8D
100
AcDbEntity
  8
4221039_0__SIEB_
  6
Continuous
 62
     7
100
AcDbLine
 10
38.068553144
 20
478.2000322689
 30
0.0
 11
38.068553144
 21
478.0507230995
 31
0.0
  0
LINE
  5
314
330
8D
100
AcDbEntity
  8
4221039_0__SIEB_
  6
Continuous
 62
     7
100
AcDbLine
 10
39.1499001756
 20
478.4000322689
 30
0.0
 11
38.268553144
 21
478.4000322689
 31
0.0
  0
LINE
  5
315
330
8D
100
AcDbEntity
  8
4221039_0__SIEB_
  6
Continuous
 62
     7
100
AcDbLine
 10
38.1859179618
 20
478.2000322689
 30
0.0
 11
39.5692786682
 21
478.2000322689
 31
0.0
  0
LINE
  5
316
330
8D
100
AcDbEntity
  8
4221039_0__SIEB_
  6
Continuous
 62
     7
100
AcDbLine
 10
38.068553144
 20
478.4000322689
 30
0.0
 11
36.7328388583
 21
478.4000322689
 31
0.0
  0
LINE
  5
317
330
8D
100
AcDbEntity
  8
4221039_0__SIEB_
  6
Continuous
 62
     7
100
AcDbLine
 10
36.6502036761
 20
478.2000322689
 30
0.0
 11
38.1511883262
 21
478.2000322689
 31
0.0
  0
LINE
  5
318
330
8D
100
AcDbEntity
  8
4221039_0__SIEB_
  6
Continuous
 62
     7
100
AcDbLine
 10
36.5328388583
 20
478.4000322689
 30
0.0
 11
35.1971245726
 21
478.4000322689
 31
0.0
  0
LINE
  5
319
330
8D
100
AcDbEntity
  8
4221039_0__SIEB_
  6
Continuous
 62
     7
100
AcDbLine
 10
35.1144893903
 20
478.2000322689
 30
0.0
 11
36.6154740405
 21
478.2000322689
 31
0.0
  0
LINE
  5
31A
330
8D
100
AcDbEntity
  8
4221039_0__SIEB_
  6
Continuous
 62
     7
100
AcDbLine
 10
34.9971245726
 20
478.4000322689
 30
0.0
 11
33.6614102869
 21
478.4000322689
 31
0.0
  0
LINE
  5
31B
330
8D
100
AcDbEntity
  8
4221039_0__SIEB_
  6
Continuous
 62
     7
100
AcDbLine
 10
33.5787751046
 20
478.2000322689
 30
0.0
 11
35.0797597548
 21
478.2000322689
 31
0.0
  0
LINE
  5
31C
330
8D
100
AcDbEntity
  8
4221039_0__SIEB_
  6
Continuous
 62
     7
100
AcDbLine
 10
33.4614102869
 20
478.4000322689
 30
0.0
 11
32.1256960011
 21
478.4000322689
 31
0.0
  0
LINE
  5
31D
330
8D
100
AcDbEntity
  8
4221039_0__SIEB_
  6
Continuous
 62
     7
100
AcDbLine
 10
32.0430608189
 20
478.2000322689
 30
0.0
 11
33.5440454691
 21
478.2000322689
 31
0.0
  0
LINE
  5
31E
330
8D
100
AcDbEntity
  8
4221039_0__SIEB_
  6
Continuous
 62
     7
100
AcDbLine
 10
31.9256960011
 20
478.4000322689
 30
0.0
 11
30.5899817154
 21
478.4000322689
 31
0.0
  0
LINE
  5
31F
330
8D
100
AcDbEntity
  8
4221039_0__SIEB_
  6
Continuous
 62
     7
100
AcDbLine
 10
30.5073465332
 20
478.2000322689
 30
0.0
 11
32.0083311834
 21
478.2000322689
 31
0.0
  0
LINE
  5
320
330
8D
100
AcDbEntity
  8
4221039_0__SIEB_
  6
Continuous
 62
     7
100
AcDbLine
 10
30.3899817154
 20
478.4000322689
 30
0.0
 11
29.0542674297
 21
478.4000322689
 31
0.0
  0
LINE
  5
321
330
8D
100
AcDbEntity
  8
4221039_0__SIEB_
  6
Continuous
 62
     7
100
AcDbLine
 10
28.9716322475
 20
478.2000322689
 30
0.0
 11
30.4726168977
 21
478.2000322689
 31
0.0
  0
LINE
  5
322
330
8D
100
AcDbEntity
  8
4221039_0__SIEB_
  6
Continuous
 62
     7
100
AcDbLine
 10
28.8542674297
 20
478.4000322689
 30
0.0
 11
27.518553144
 21
478.4000322689
 31
0.0
  0
LINE
  5
323
330
8D
100
AcDbEntity
  8
4221039_0__SIEB_
  6
Continuous
 62
     7
100
AcDbLine
 10
27.4359179618
 20
478.2000322689
 30
0.0
 11
28.936902612
 21
478.2000322689
 31
0.0
  0
LINE
  5
324
330
8D
100
AcDbEntity
  8
4221039_0__SIEB_
  6
Continuous
 62
     7
100
AcDbLine
 10
27.318553144
 20
478.4000322689
 30
0.0
 11
25.9828388583
 21
478.4000322689
 31
0.0
  0
LINE
  5
325
330
8D
100
AcDbEntity
  8
4221039_0__SIEB_
  6
Continuous
 62
     7
100
AcDbLine
 10
25.9002036761
 20
478.2000322689
 30
0.0
 11
27.4011883262
 21
478.2000322689
 31
0.0
  0
LINE
  5
326
330
8D
100
AcDbEntity
  8
4221039_0__SIEB_
  6
Continuous
 62
     7
100
AcDbLine
 10
25.7828388583
 20
478.4000322689
 30
0.0
 11
24.4471245726
 21
478.4000322689
 31
0.0
  0
LINE
  5
327
330
8D
100
AcDbEntity
  8
4221039_0__SIEB_
  6
Continuous
 62
     7
100
AcDbLine
 10
24.3644893903
 20
478.2000322689
 30
0.0
 11
25.8654740405
 21
478.2000322689
 31
0.0
  0
LINE
  5
328
330
8D
100
AcDbEntity
  8
4221039_0__SIEB_
  6
Continuous
 62
     7
100
AcDbLine
 10
24.2471245726
 20
478.4000322689
 30
0.0
 11
22.9114102869
 21
478.4000322689
 31
0.0
  0
LINE
  5
329
330
8D
100
AcDbEntity
  8
4221039_0__SIEB_
  6
Continuous
 62
     7
100
AcDbLine
 10
22.8287751046
 20
478.2000322689
 30
0.0
 11
24.3297597548
 21
478.2000322689
 31
0.0
  0
LINE
  5
32A
330
8D
100
AcDbEntity
  8
4221039_0__SIEB_
  6
Continuous
 62
     7
100
AcDbLine
 10
22.7114102869
 20
478.4000322689
 30
0.0
 11
22.2586346839
 21
478.4000322689
 31
0.0
  0
LINE
  5
32B
330
8D
100
AcDbEntity
  8
4221039_0__SIEB_
  6
Continuous
 62
     7
100
AcDbLine
 10
38.268553144
 20
478.3173970866
 30
0.0
 11
38.268553144
 21
478.466706256
 31
0.0
  0
LINE
  5
32C
330
8D
100
AcDbEntity
  8
4221039_0__SIEB_
  6
Continuous
 62
     7
100
AcDbLine
 10
38.068553144
 20
478.466706256
 30
0.0
 11
38.068553144
 21
478.3173970866
 31
0.0
  0
LINE
  5
32D
330
8D
100
AcDbEntity
  8
4221039_0__SIEB_
  6
Continuous
 62
     7
100
AcDbLine
 10
36.7328388583
 20
478.3173970866
 30
0.0
 11
36.7328388583
 21
478.466706256
 31
0.0
  0
LINE
  5
32E
330
8D
100
AcDbEntity
  8
4221039_0__SIEB_
  6
Continuous
 62
     7
100
AcDbLine
 10
36.5328388583
 20
478.466706256
 30
0.0
 11
36.5328388583
 21
478.3173970866
 31
0.0
  0
LINE
  5
32F
330
8D
100
AcDbEntity
  8
4221039_0__SIEB_
  6
Continuous
 62
     7
100
AcDbLine
 10
35.1971245726
 20
478.3173970866
 30
0.0
 11
35.1971245726
 21
478.466706256
 31
0.0
  0
LINE
  5
330
330
8D
100
AcDbEntity
  8
4221039_0__SIEB_
  6
Continuous
 62
     7
100
AcDbLine
 10
34.9971245726
 20
478.466706256
 30
0.0
 11
34.9971245726
 21
478.3173970866
 31
0.0
  0
LINE
  5
331
330
8D
100
AcDbEntity
  8
4221039_0__SIEB_
  6
Continuous
 62
     7
100
AcDbLine
 10
33.6614102869
 20
478.3173970866
 30
0.0
 11
33.6614102869
 21
478.466706256
 31
0.0
  0
LINE
  5
332
330
8D
100
AcDbEntity
  8
4221039_0__SIEB_
  6
Continuous
 62
     7
100
AcDbLine
 10
33.4614102869
 20
478.466706256
 30
0.0
 11
33.4614102869
 21
478.3173970866
 31
0.0
  0
LINE
  5
333
330
8D
100
AcDbEntity
  8
4221039_0__SIEB_
  6
Continuous
 62
     7
100
AcDbLine
 10
32.1256960011
 20
478.3173970866
 30
0.0
 11
32.1256960011
 21
478.466706256
 31
0.0
  0
LINE
  5
334
330
8D
100
AcDbEntity
  8
4221039_0__SIEB_
  6
Continuous
 62
     7
100
AcDbLine
 10
31.9256960011
 20
478.466706256
 30
0.0
 11
31.9256960011
 21
478.3173970866
 31
0.0
  0
LINE
  5
335
330
8D
100
AcDbEntity
  8
4221039_0__SIEB_
  6
Continuous
 62
     7
100
AcDbLine
 10
30.5899817154
 20
478.3173970866
 30
0.0
 11
30.5899817154
 21
478.466706256
 31
0.0
  0
LINE
  5
336
330
8D
100
AcDbEntity
  8
4221039_0__SIEB_
  6
Continuous
 62
     7
100
AcDbLine
 10
30.3899817154
 20
478.466706256
 30
0.0
 11
30.3899817154
 21
478.3173970866
 31
0.0
  0
LINE
  5
337
330
8D
100
AcDbEntity
  8
4221039_0__SIEB_
  6
Continuous
 62
     7
100
AcDbLine
 10
29.0542674297
 20
478.3173970866
 30
0.0
 11
29.0542674297
 21
478.466706256
 31
0.0
  0
LINE
  5
338
330
8D
100
AcDbEntity
  8
4221039_0__SIEB_
  6
Continuous
 62
     7
100
AcDbLine
 10
28.8542674297
 20
478.466706256
 30
0.0
 11
28.8542674297
 21
478.3173970866
 31
0.0
  0
LINE
  5
339
330
8D
100
AcDbEntity
  8
4221039_0__SIEB_
  6
Continuous
 62
     7
100
AcDbLine
 10
27.518553144
 20
478.3173970866
 30
0.0
 11
27.518553144
 21
478.466706256
 31
0.0
  0
LINE
  5
33A
330
8D
100
AcDbEntity
  8
4221039_0__SIEB_
  6
Continuous
 62
     7
100
AcDbLine
 10
27.318553144
 20
478.466706256
 30
0.0
 11
27.318553144
 21
478.3173970866
 31
0.0
  0
LINE
  5
33B
330
8D
100
AcDbEntity
  8
4221039_0__SIEB_
  6
Continuous
 62
     7
100
AcDbLine
 10
25.9828388583
 20
478.3173970866
 30
0.0
 11
25.9828388583
 21
478.466706256
 31
0.0
  0
LINE
  5
33C
330
8D
100
AcDbEntity
  8
4221039_0__SIEB_
  6
Continuous
 62
     7
100
AcDbLine
 10
25.7828388583
 20
478.466706256
 30
0.0
 11
25.7828388583
 21
478.3173970866
 31
0.0
  0
LINE
  5
33D
330
8D
100
AcDbEntity
  8
4221039_0__SIEB_
  6
Continuous
 62
     7
100
AcDbLine
 10
24.4471245726
 20
478.3173970866
 30
0.0
 11
24.4471245726
 21
478.466706256
 31
0.0
  0
LINE
  5
33E
330
8D
100
AcDbEntity
  8
4221039_0__SIEB_
  6
Continuous
 62
     7
100
AcDbLine
 10
24.2471245726
 20
478.466706256
 30
0.0
 11
24.2471245726
 21
478.3173970866
 31
0.0
  0
LINE
  5
33F
330
8D
100
AcDbEntity
  8
4221039_0__SIEB_
  6
Continuous
 62
     7
100
AcDbLine
 10
22.9114102869
 20
478.3173970866
 30
0.0
 11
22.9114102869
 21
478.466706256
 31
0.0
  0
LINE
  5
340
330
8D
100
AcDbEntity
  8
4221039_0__SIEB_
  6
Continuous
 62
     7
100
AcDbLine
 10
22.7114102869
 20
478.466706256
 30
0.0
 11
22.7114102869
 21
478.3173970866
 31
0.0
  0
LINE
  5
341
330
8D
100
AcDbEntity
  8
4221039_0__SIEB_
  6
Continuous
 62
     7
100
AcDbLine
 10
22.7114102869
 20
478.666706256
 30
0.0
 11
22.5150013068
 21
478.666706256
 31
0.0
  0
LINE
  5
342
330
8D
100
AcDbEntity
  8
4221039_0__SIEB_
  6
Continuous
 62
     7
100
AcDbLine
 10
22.2791126612
 20
478.466706256
 30
0.0
 11
22.7940454691
 21
478.466706256
 31
0.0
  0
LINE
  5
343
330
8D
100
AcDbEntity
  8
4221039_0__SIEB_
  6
Continuous
 62
     7
100
AcDbLine
 10
24.2471245726
 20
478.666706256
 30
0.0
 11
22.9114102869
 21
478.666706256
 31
0.0
  0
LINE
  5
344
330
8D
100
AcDbEntity
  8
4221039_0__SIEB_
  6
Continuous
 62
     7
100
AcDbLine
 10
22.8287751046
 20
478.466706256
 30
0.0
 11
24.3297597548
 21
478.466706256
 31
0.0
  0
LINE
  5
345
330
8D
100
AcDbEntity
  8
4221039_0__SIEB_
  6
Continuous
 62
     7
100
AcDbLine
 10
25.7828388583
 20
478.666706256
 30
0.0
 11
24.4471245726
 21
478.666706256
 31
0.0
  0
LINE
  5
346
330
8D
100
AcDbEntity
  8
4221039_0__SIEB_
  6
Continuous
 62
     7
100
AcDbLine
 10
24.3644893903
 20
478.466706256
 30
0.0
 11
25.8654740405
 21
478.466706256
 31
0.0
  0
LINE
  5
347
330
8D
100
AcDbEntity
  8
4221039_0__SIEB_
  6
Continuous
 62
     7
100
AcDbLine
 10
27.318553144
 20
478.666706256
 30
0.0
 11
25.9828388583
 21
478.666706256
 31
0.0
  0
LINE
  5
348
330
8D
100
AcDbEntity
  8
4221039_0__SIEB_
  6
Continuous
 62
     7
100
AcDbLine
 10
25.9002036761
 20
478.466706256
 30
0.0
 11
27.4011883262
 21
478.466706256
 31
0.0
  0
LINE
  5
349
330
8D
100
AcDbEntity
  8
4221039_0__SIEB_
  6
Continuous
 62
     7
100
AcDbLine
 10
28.8542674297
 20
478.666706256
 30
0.0
 11
27.518553144
 21
478.666706256
 31
0.0
  0
LINE
  5
34A
330
8D
100
AcDbEntity
  8
4221039_0__SIEB_
  6
Continuous
 62
     7
100
AcDbLine
 10
27.4359179618
 20
478.466706256
 30
0.0
 11
28.936902612
 21
478.466706256
 31
0.0
  0
LINE
  5
34B
330
8D
100
AcDbEntity
  8
4221039_0__SIEB_
  6
Continuous
 62
     7
100
AcDbLine
 10
30.3899817154
 20
478.666706256
 30
0.0
 11
29.0542674297
 21
478.666706256
 31
0.0
  0
LINE
  5
34C
330
8D
100
AcDbEntity
  8
4221039_0__SIEB_
  6
Continuous
 62
     7
100
AcDbLine
 10
28.9716322475
 20
478.466706256
 30
0.0
 11
30.4726168977
 21
478.466706256
 31
0.0
  0
LINE
  5
34D
330
8D
100
AcDbEntity
  8
4221039_0__SIEB_
  6
Continuous
 62
     7
100
AcDbLine
 10
31.9256960011
 20
478.666706256
 30
0.0
 11
30.5899817154
 21
478.666706256
 31
0.0
  0
LINE
  5
34E
330
8D
100
AcDbEntity
  8
4221039_0__SIEB_
  6
Continuous
 62
     7
100
AcDbLine
 10
30.5073465332
 20
478.466706256
 30
0.0
 11
32.0083311834
 21
478.466706256
 31
0.0
  0
LINE
  5
34F
330
8D
100
AcDbEntity
  8
4221039_0__SIEB_
  6
Continuous
 62
     7
100
AcDbLine
 10
33.4614102869
 20
478.666706256
 30
0.0
 11
32.1256960011
 21
478.666706256
 31
0.0
  0
LINE
  5
350
330
8D
100
AcDbEntity
  8
4221039_0__SIEB_
  6
Continuous
 62
     7
100
AcDbLine
 10
32.0430608189
 20
478.466706256
 30
0.0
 11
33.5440454691
 21
478.466706256
 31
0.0
  0
LINE
  5
351
330
8D
100
AcDbEntity
  8
4221039_0__SIEB_
  6
Continuous
 62
     7
100
AcDbLine
 10
34.9971245726
 20
478.666706256
 30
0.0
 11
33.6614102869
 21
478.666706256
 31
0.0
  0
LINE
  5
352
330
8D
100
AcDbEntity
  8
4221039_0__SIEB_
  6
Continuous
 62
     7
100
AcDbLine
 10
33.5787751046
 20
478.466706256
 30
0.0
 11
35.0797597548
 21
478.466706256
 31
0.0
  0
LINE
  5
353
330
8D
100
AcDbEntity
  8
4221039_0__SIEB_
  6
Continuous
 62
     7
100
AcDbLine
 10
36.5328388583
 20
478.666706256
 30
0.0
 11
35.1971245726
 21
478.666706256
 31
0.0
  0
LINE
  5
354
330
8D
100
AcDbEntity
  8
4221039_0__SIEB_
  6
Continuous
 62
     7
100
AcDbLine
 10
35.1144893903
 20
478.466706256
 30
0.0
 11
36.6154740405
 21
478.466706256
 31
0.0
  0
LINE
  5
355
330
8D
100
AcDbEntity
  8
4221039_0__SIEB_
  6
Continuous
 62
     7
100
AcDbLine
 10
38.068553144
 20
478.666706256
 30
0.0
 11
36.7328388583
 21
478.666706256
 31
0.0
  0
LINE
  5
356
330
8D
100
AcDbEntity
  8
4221039_0__SIEB_
  6
Continuous
 62
     7
100
AcDbLine
 10
36.6502036761
 20
478.466706256
 30
0.0
 11
38.1511883262
 21
478.466706256
 31
0.0
  0
LINE
  5
357
330
8D
100
AcDbEntity
  8
4221039_0__SIEB_
  6
Continuous
 62
     7
100
AcDbLine
 10
38.8935335526
 20
478.666706256
 30
0.0
 11
38.268553144
 21
478.666706256
 31
0.0
  0
LINE
  5
358
330
8D
100
AcDbEntity
  8
4221039_0__SIEB_
  6
Continuous
 62
     7
100
AcDbLine
 10
38.1859179618
 20
478.466706256
 30
0.0
 11
39.1294221982
 21
478.466706256
 31
0.0
  0
LINE
  5
359
330
8D
100
AcDbEntity
  8
4221039_0__SIEB_
  6
Continuous
 62
     7
100
AcDbLine
 10
22.9114102869
 20
478.5840710737
 30
0.0
 11
22.9114102869
 21
478.7333802431
 31
0.0
  0
LINE
  5
35A
330
8D
100
AcDbEntity
  8
4221039_0__SIEB_
  6
Continuous
 62
     7
100
AcDbLine
 10
22.7114102869
 20
478.7333802431
 30
0.0
 11
22.7114102869
 21
478.5840710737
 31
0.0
  0
LINE
  5
35B
330
8D
100
AcDbEntity
  8
4221039_0__SIEB_
  6
Continuous
 62
     7
100
AcDbLine
 10
24.4471245726
 20
478.5840710737
 30
0.0
 11
24.4471245726
 21
478.7333802431
 31
0.0
  0
LINE
  5
35C
330
8D
100
AcDbEntity
  8
4221039_0__SIEB_
  6
Continuous
 62
     7
100
AcDbLine
 10
24.2471245726
 20
478.7333802431
 30
0.0
 11
24.2471245726
 21
478.5840710737
 31
0.0
  0
LINE
  5
35D
330
8D
100
AcDbEntity
  8
4221039_0__SIEB_
  6
Continuous
 62
     7
100
AcDbLine
 10
25.9828388583
 20
478.5840710737
 30
0.0
 11
25.9828388583
 21
478.7333802431
 31
0.0
  0
LINE
  5
35E
330
8D
100
AcDbEntity
  8
4221039_0__SIEB_
  6
Continuous
 62
     7
100
AcDbLine
 10
25.7828388583
 20
478.7333802431
 30
0.0
 11
25.7828388583
 21
478.5840710737
 31
0.0
  0
LINE
  5
35F
330
8D
100
AcDbEntity
  8
4221039_0__SIEB_
  6
Continuous
 62
     7
100
AcDbLine
 10
27.518553144
 20
478.5840710737
 30
0.0
 11
27.518553144
 21
478.7333802431
 31
0.0
  0
LINE
  5
360
330
8D
100
AcDbEntity
  8
4221039_0__SIEB_
  6
Continuous
 62
     7
100
AcDbLine
 10
27.318553144
 20
478.7333802431
 30
0.0
 11
27.318553144
 21
478.5840710737
 31
0.0
  0
LINE
  5
361
330
8D
100
AcDbEntity
  8
4221039_0__SIEB_
  6
Continuous
 62
     7
100
AcDbLine
 10
29.0542674297
 20
478.5840710737
 30
0.0
 11
29.0542674297
 21
478.7333802431
 31
0.0
  0
LINE
  5
362
330
8D
100
AcDbEntity
  8
4221039_0__SIEB_
  6
Continuous
 62
     7
100
AcDbLine
 10
28.8542674297
 20
478.7333802431
 30
0.0
 11
28.8542674297
 21
478.5840710737
 31
0.0
  0
LINE
  5
363
330
8D
100
AcDbEntity
  8
4221039_0__SIEB_
  6
Continuous
 62
     7
100
AcDbLine
 10
30.5899817154
 20
478.5840710737
 30
0.0
 11
30.5899817154
 21
478.7333802431
 31
0.0
  0
LINE
  5
364
330
8D
100
AcDbEntity
  8
4221039_0__SIEB_
  6
Continuous
 62
     7
100
AcDbLine
 10
30.3899817154
 20
478.7333802431
 30
0.0
 11
30.3899817154
 21
478.5840710737
 31
0.0
  0
LINE
  5
365
330
8D
100
AcDbEntity
  8
4221039_0__SIEB_
  6
Continuous
 62
     7
100
AcDbLine
 10
32.1256960011
 20
478.5840710737
 30
0.0
 11
32.1256960011
 21
478.7333802431
 31
0.0
  0
LINE
  5
366
330
8D
100
AcDbEntity
  8
4221039_0__SIEB_
  6
Continuous
 62
     7
100
AcDbLine
 10
31.9256960011
 20
478.7333802431
 30
0.0
 11
31.9256960011
 21
478.5840710737
 31
0.0
  0
LINE
  5
367
330
8D
100
AcDbEntity
  8
4221039_0__SIEB_
  6
Continuous
 62
     7
100
AcDbLine
 10
33.6614102869
 20
478.5840710737
 30
0.0
 11
33.6614102869
 21
478.7333802431
 31
0.0
  0
LINE
  5
368
330
8D
100
AcDbEntity
  8
4221039_0__SIEB_
  6
Continuous
 62
     7
100
AcDbLine
 10
33.4614102869
 20
478.7333802431
 30
0.0
 11
33.4614102869
 21
478.5840710737
 31
0.0
  0
LINE
  5
369
330
8D
100
AcDbEntity
  8
4221039_0__SIEB_
  6
Continuous
 62
     7
100
AcDbLine
 10
35.1971245726
 20
478.5840710737
 30
0.0
 11
35.1971245726
 21
478.7333802431
 31
0.0
  0
LINE
  5
36A
330
8D
100
AcDbEntity
  8
4221039_0__SIEB_
  6
Continuous
 62
     7
100
AcDbLine
 10
34.9971245726
 20
478.7333802431
 30
0.0
 11
34.9971245726
 21
478.5840710737
 31
0.0
  0
LINE
  5
36B
330
8D
100
AcDbEntity
  8
4221039_0__SIEB_
  6
Continuous
 62
     7
100
AcDbLine
 10
36.7328388583
 20
478.5840710737
 30
0.0
 11
36.7328388583
 21
478.7333802431
 31
0.0
  0
LINE
  5
36C
330
8D
100
AcDbEntity
  8
4221039_0__SIEB_
  6
Continuous
 62
     7
100
AcDbLine
 10
36.5328388583
 20
478.7333802431
 30
0.0
 11
36.5328388583
 21
478.5840710737
 31
0.0
  0
LINE
  5
36D
330
8D
100
AcDbEntity
  8
4221039_0__SIEB_
  6
Continuous
 62
     7
100
AcDbLine
 10
38.268553144
 20
478.5840710737
 30
0.0
 11
38.268553144
 21
478.7333802431
 31
0.0
  0
LINE
  5
36E
330
8D
100
AcDbEntity
  8
4221039_0__SIEB_
  6
Continuous
 62
     7
100
AcDbLine
 10
38.068553144
 20
478.7333802431
 30
0.0
 11
38.068553144
 21
478.5840710737
 31
0.0
  0
LINE
  5
36F
330
8D
100
AcDbEntity
  8
4221039_0__SIEB_
  6
Continuous
 62
     7
100
AcDbLine
 10
38.3010572082
 20
478.9333802431
 30
0.0
 11
38.268553144
 21
478.9333802431
 31
0.0
  0
LINE
  5
370
330
8D
100
AcDbEntity
  8
4221039_0__SIEB_
  6
Continuous
 62
     7
100
AcDbLine
 10
38.1859179618
 20
478.7333802431
 30
0.0
 11
38.776931093
 21
478.7333802431
 31
0.0
  0
LINE
  5
371
330
8D
100
AcDbEntity
  8
4221039_0__SIEB_
  6
Continuous
 62
     7
100
AcDbLine
 10
38.068553144
 20
478.9333802431
 30
0.0
 11
36.7328388583
 21
478.9333802431
 31
0.0
  0
LINE
  5
372
330
8D
100
AcDbEntity
  8
4221039_0__SIEB_
  6
Continuous
 62
     7
100
AcDbLine
 10
36.6502036761
 20
478.7333802431
 30
0.0
 11
38.1511883262
 21
478.7333802431
 31
0.0
  0
LINE
  5
373
330
8D
100
AcDbEntity
  8
4221039_0__SIEB_
  6
Continuous
 62
     7
100
AcDbLine
 10
36.5328388583
 20
478.9333802431
 30
0.0
 11
35.1971245726
 21
478.9333802431
 31
0.0
  0
LINE
  5
374
330
8D
100
AcDbEntity
  8
4221039_0__SIEB_
  6
Continuous
 62
     7
100
AcDbLine
 10
35.1144893903
 20
478.7333802431
 30
0.0
 11
36.6154740405
 21
478.7333802431
 31
0.0
  0
LINE
  5
375
330
8D
100
AcDbEntity
  8
4221039_0__SIEB_
  6
Continuous
 62
     7
100
AcDbLine
 10
34.9971245726
 20
478.9333802431
 30
0.0
 11
33.6614102869
 21
478.9333802431
 31
0.0
  0
LINE
  5
376
330
8D
100
AcDbEntity
  8
4221039_0__SIEB_
  6
Continuous
 62
     7
100
AcDbLine
 10
33.5787751046
 20
478.7333802431
 30
0.0
 11
35.0797597548
 21
478.7333802431
 31
0.0
  0
LINE
  5
377
330
8D
100
AcDbEntity
  8
4221039_0__SIEB_
  6
Continuous
 62
     7
100
AcDbLine
 10
33.4614102869
 20
478.9333802431
 30
0.0
 11
32.1256960011
 21
478.9333802431
 31
0.0
  0
LINE
  5
378
330
8D
100
AcDbEntity
  8
4221039_0__SIEB_
  6
Continuous
 62
     7
100
AcDbLine
 10
32.0430608189
 20
478.7333802431
 30
0.0
 11
33.5440454691
 21
478.7333802431
 31
0.0
  0
LINE
  5
379
330
8D
100
AcDbEntity
  8
4221039_0__SIEB_
  6
Continuous
 62
     7
100
AcDbLine
 10
31.9256960011
 20
478.9333802431
 30
0.0
 11
30.5899817154
 21
478.9333802431
 31
0.0
  0
LINE
  5
37A
330
8D
100
AcDbEntity
  8
4221039_0__SIEB_
  6
Continuous
 62
     7
100
AcDbLine
 10
30.5073465332
 20
478.7333802431
 30
0.0
 11
32.0083311834
 21
478.7333802431
 31
0.0
  0
LINE
  5
37B
330
8D
100
AcDbEntity
  8
4221039_0__SIEB_
  6
Continuous
 62
     7
100
AcDbLine
 10
30.3899817154
 20
478.9333802431
 30
0.0
 11
29.0542674297
 21
478.9333802431
 31
0.0
  0
LINE
  5
37C
330
8D
100
AcDbEntity
  8
4221039_0__SIEB_
  6
Continuous
 62
     7
100
AcDbLine
 10
28.9716322475
 20
478.7333802431
 30
0.0
 11
30.4726168977
 21
478.7333802431
 31
0.0
  0
LINE
  5
37D
330
8D
100
AcDbEntity
  8
4221039_0__SIEB_
  6
Continuous
 62
     7
100
AcDbLine
 10
28.8542674297
 20
478.9333802431
 30
0.0
 11
27.518553144
 21
478.9333802431
 31
0.0
  0
LINE
  5
37E
330
8D
100
AcDbEntity
  8
4221039_0__SIEB_
  6
Continuous
 62
     7
100
AcDbLine
 10
27.4359179618
 20
478.7333802431
 30
0.0
 11
28.936902612
 21
478.7333802431
 31
0.0
  0
LINE
  5
37F
330
8D
100
AcDbEntity
  8
4221039_0__SIEB_
  6
Continuous
 62
     7
100
AcDbLine
 10
27.318553144
 20
478.9333802431
 30
0.0
 11
25.9828388583
 21
478.9333802431
 31
0.0
  0
LINE
  5
380
330
8D
100
AcDbEntity
  8
4221039_0__SIEB_
  6
Continuous
 62
     7
100
AcDbLine
 10
25.9002036761
 20
478.7333802431
 30
0.0
 11
27.4011883262
 21
478.7333802431
 31
0.0
  0
LINE
  5
381
330
8D
100
AcDbEntity
  8
4221039_0__SIEB_
  6
Continuous
 62
     7
100
AcDbLine
 10
25.7828388583
 20
478.9333802431
 30
0.0
 11
24.4471245726
 21
478.9333802431
 31
0.0
  0
LINE
  5
382
330
8D
100
AcDbEntity
  8
4221039_0__SIEB_
  6
Continuous
 62
     7
100
AcDbLine
 10
24.3644893903
 20
478.7333802431
 30
0.0
 11
25.8654740405
 21
478.7333802431
 31
0.0
  0
LINE
  5
383
330
8D
100
AcDbEntity
  8
4221039_0__SIEB_
  6
Continuous
 62
     7
100
AcDbLine
 10
24.2471245726
 20
478.9333802431
 30
0.0
 11
23.1074776512
 21
478.9333802431
 31
0.0
  0
LINE
  5
384
330
8D
100
AcDbEntity
  8
4221039_0__SIEB_
  6
Continuous
 62
     7
100
AcDbLine
 10
22.8287751046
 20
478.7333802431
 30
0.0
 11
24.3297597548
 21
478.7333802431
 31
0.0
  0
LINE
  5
385
330
8D
100
AcDbEntity
  8
4221039_0__SIEB_
  6
Continuous
 62
     7
100
AcDbLine
 10
22.6316037665
 20
478.7333802431
 30
0.0
 11
22.7940454691
 21
478.7333802431
 31
0.0
  0
LINE
  5
386
330
8D
100
AcDbEntity
  8
4221039_0__SIEB_
  6
Continuous
 62
     7
100
AcDbLine
 10
38.268553144
 20
478.8507450609
 30
0.0
 11
38.268553144
 21
478.9445080514
 31
0.0
  0
LINE
  5
387
330
8D
100
AcDbEntity
  8
4221039_0__SIEB_
  6
Continuous
 62
     7
100
AcDbLine
 10
38.068553144
 20
479.0000542302
 30
0.0
 11
38.068553144
 21
478.8507450609
 31
0.0
  0
LINE
  5
388
330
8D
100
AcDbEntity
  8
4221039_0__SIEB_
  6
Continuous
 62
     7
100
AcDbLine
 10
36.7328388583
 20
478.8507450609
 30
0.0
 11
36.7328388583
 21
479.0000542302
 31
0.0
  0
LINE
  5
389
330
8D
100
AcDbEntity
  8
4221039_0__SIEB_
  6
Continuous
 62
     7
100
AcDbLine
 10
36.5328388583
 20
479.0000542302
 30
0.0
 11
36.5328388583
 21
478.8507450609
 31
0.0
  0
LINE
  5
38A
330
8D
100
AcDbEntity
  8
4221039_0__SIEB_
  6
Continuous
 62
     7
100
AcDbLine
 10
35.1971245726
 20
478.8507450609
 30
0.0
 11
35.1971245726
 21
479.0000542302
 31
0.0
  0
LINE
  5
38B
330
8D
100
AcDbEntity
  8
4221039_0__SIEB_
  6
Continuous
 62
     7
100
AcDbLine
 10
34.9971245726
 20
479.0000542302
 30
0.0
 11
34.9971245726
 21
478.8507450609
 31
0.0
  0
LINE
  5
38C
330
8D
100
AcDbEntity
  8
4221039_0__SIEB_
  6
Continuous
 62
     7
100
AcDbLine
 10
33.6614102869
 20
478.8507450609
 30
0.0
 11
33.6614102869
 21
479.0000542302
 31
0.0
  0
LINE
  5
38D
330
8D
100
AcDbEntity
  8
4221039_0__SIEB_
  6
Continuous
 62
     7
100
AcDbLine
 10
33.4614102869
 20
479.0000542302
 30
0.0
 11
33.4614102869
 21
478.8507450609
 31
0.0
  0
LINE
  5
38E
330
8D
100
AcDbEntity
  8
4221039_0__SIEB_
  6
Continuous
 62
     7
100
AcDbLine
 10
32.1256960011
 20
478.8507450609
 30
0.0
 11
32.1256960011
 21
479.0000542302
 31
0.0
  0
LINE
  5
38F
330
8D
100
AcDbEntity
  8
4221039_0__SIEB_
  6
Continuous
 62
     7
100
AcDbLine
 10
31.9256960011
 20
479.0000542302
 30
0.0
 11
31.9256960011
 21
478.8507450609
 31
0.0
  0
LINE
  5
390
330
8D
100
AcDbEntity
  8
4221039_0__SIEB_
  6
Continuous
 62
     7
100
AcDbLine
 10
30.5899817154
 20
478.8507450609
 30
0.0
 11
30.5899817154
 21
479.0000542302
 31
0.0
  0
LINE
  5
391
330
8D
100
AcDbEntity
  8
4221039_0__SIEB_
  6
Continuous
 62
     7
100
AcDbLine
 10
30.3899817154
 20
479.0000542302
 30
0.0
 11
30.3899817154
 21
478.8507450609
 31
0.0
  0
LINE
  5
392
330
8D
100
AcDbEntity
  8
4221039_0__SIEB_
  6
Continuous
 62
     7
100
AcDbLine
 10
29.0542674297
 20
478.8507450609
 30
0.0
 11
29.0542674297
 21
479.0000542302
 31
0.0
  0
LINE
  5
393
330
8D
100
AcDbEntity
  8
4221039_0__SIEB_
  6
Continuous
 62
     7
100
AcDbLine
 10
28.8542674297
 20
479.0000542302
 30
0.0
 11
28.8542674297
 21
478.8507450609
 31
0.0
  0
LINE
  5
394
330
8D
100
AcDbEntity
  8
4221039_0__SIEB_
  6
Continuous
 62
     7
100
AcDbLine
 10
27.518553144
 20
478.8507450609
 30
0.0
 11
27.518553144
 21
479.0000542302
 31
0.0
  0
LINE
  5
395
330
8D
100
AcDbEntity
  8
4221039_0__SIEB_
  6
Continuous
 62
     7
100
AcDbLine
 10
27.318553144
 20
479.0000542302
 30
0.0
 11
27.318553144
 21
478.8507450609
 31
0.0
  0
LINE
  5
396
330
8D
100
AcDbEntity
  8
4221039_0__SIEB_
  6
Continuous
 62
     7
100
AcDbLine
 10
25.9828388583
 20
478.8507450609
 30
0.0
 11
25.9828388583
 21
479.0000542302
 31
0.0
  0
LINE
  5
397
330
8D
100
AcDbEntity
  8
4221039_0__SIEB_
  6
Continuous
 62
     7
100
AcDbLine
 10
25.7828388583
 20
479.0000542302
 30
0.0
 11
25.7828388583
 21
478.8507450609
 31
0.0
  0
LINE
  5
398
330
8D
100
AcDbEntity
  8
4221039_0__SIEB_
  6
Continuous
 62
     7
100
AcDbLine
 10
24.4471245726
 20
478.8507450609
 30
0.0
 11
24.4471245726
 21
479.0000542302
 31
0.0
  0
LINE
  5
399
330
8D
100
AcDbEntity
  8
4221039_0__SIEB_
  6
Continuous
 62
     7
100
AcDbLine
 10
24.2471245726
 20
479.0000542302
 30
0.0
 11
24.2471245726
 21
478.8507450609
 31
0.0
  0
LINE
  5
39A
330
8D
100
AcDbEntity
  8
4221039_0__SIEB_
  6
Continuous
 62
     7
100
AcDbLine
 10
22.9114102869
 20
478.8507450609
 30
0.0
 11
22.9114102869
 21
478.8606806269
 31
0.0
  0
LINE
  5
39B
330
8D
100
AcDbEntity
  8
4221039_0__SIEB_
  6
Continuous
 62
     7
100
AcDbLine
 10
24.2471245726
 20
479.2000542302
 30
0.0
 11
24.0980950499
 21
479.2000542302
 31
0.0
  0
LINE
  5
39C
330
8D
100
AcDbEntity
  8
4221039_0__SIEB_
  6
Continuous
 62
     7
100
AcDbLine
 10
23.3126689806
 20
479.0000542302
 30
0.0
 11
24.3297597548
 21
479.0000542302
 31
0.0
  0
LINE
  5
39D
330
8D
100
AcDbEntity
  8
4221039_0__SIEB_
  6
Continuous
 62
     7
100
AcDbLine
 10
25.7828388583
 20
479.2000542302
 30
0.0
 11
24.4471245726
 21
479.2000542302
 31
0.0
  0
LINE
  5
39E
330
8D
100
AcDbEntity
  8
4221039_0__SIEB_
  6
Continuous
 62
     7
100
AcDbLine
 10
24.3644893903
 20
479.0000542302
 30
0.0
 11
25.8654740405
 21
479.0000542302
 31
0.0
  0
LINE
  5
39F
330
8D
100
AcDbEntity
  8
4221039_0__SIEB_
  6
Continuous
 62
     7
100
AcDbLine
 10
27.318553144
 20
479.2000542302
 30
0.0
 11
25.9828388583
 21
479.2000542302
 31
0.0
  0
LINE
  5
3A0
330
8D
100
AcDbEntity
  8
4221039_0__SIEB_
  6
Continuous
 62
     7
100
AcDbLine
 10
25.9002036761
 20
479.0000542302
 30
0.0
 11
27.4011883262
 21
479.0000542302
 31
0.0
  0
LINE
  5
3A1
330
8D
100
AcDbEntity
  8
4221039_0__SIEB_
  6
Continuous
 62
     7
100
AcDbLine
 10
28.8542674297
 20
479.2000542302
 30
0.0
 11
27.518553144
 21
479.2000542302
 31
0.0
  0
LINE
  5
3A2
330
8D
100
AcDbEntity
  8
4221039_0__SIEB_
  6
Continuous
 62
     7
100
AcDbLine
 10
27.4359179618
 20
479.0000542302
 30
0.0
 11
28.936902612
 21
479.0000542302
 31
0.0
  0
LINE
  5
3A3
330
8D
100
AcDbEntity
  8
4221039_0__SIEB_
  6
Continuous
 62
     7
100
AcDbLine
 10
30.3899817154
 20
479.2000542302
 30
0.0
 11
29.0542674297
 21
479.2000542302
 31
0.0
  0
LINE
  5
3A4
330
8D
100
AcDbEntity
  8
4221039_0__SIEB_
  6
Continuous
 62
     7
100
AcDbLine
 10
28.9716322475
 20
479.0000542302
 30
0.0
 11
30.4726168977
 21
479.0000542302
 31
0.0
  0
LINE
  5
3A5
330
8D
100
AcDbEntity
  8
4221039_0__SIEB_
  6
Continuous
 62
     7
100
AcDbLine
 10
31.9256960011
 20
479.2000542302
 30
0.0
 11
30.5899817154
 21
479.2000542302
 31
0.0
  0
LINE
  5
3A6
330
8D
100
AcDbEntity
  8
4221039_0__SIEB_
  6
Continuous
 62
     7
100
AcDbLine
 10
30.5073465332
 20
479.0000542302
 30
0.0
 11
32.0083311834
 21
479.0000542302
 31
0.0
  0
LINE
  5
3A7
330
8D
100
AcDbEntity
  8
4221039_0__SIEB_
  6
Continuous
 62
     7
100
AcDbLine
 10
33.4614102869
 20
479.2000542302
 30
0.0
 11
32.1256960011
 21
479.2000542302
 31
0.0
  0
LINE
  5
3A8
330
8D
100
AcDbEntity
  8
4221039_0__SIEB_
  6
Continuous
 62
     7
100
AcDbLine
 10
32.0430608189
 20
479.0000542302
 30
0.0
 11
33.5440454691
 21
479.0000542302
 31
0.0
  0
LINE
  5
3A9
330
8D
100
AcDbEntity
  8
4221039_0__SIEB_
  6
Continuous
 62
     7
100
AcDbLine
 10
34.9971245726
 20
479.2000542302
 30
0.0
 11
33.6614102869
 21
479.2000542302
 31
0.0
  0
LINE
  5
3AA
330
8D
100
AcDbEntity
  8
4221039_0__SIEB_
  6
Continuous
 62
     7
100
AcDbLine
 10
33.5787751046
 20
479.0000542302
 30
0.0
 11
35.0797597548
 21
479.0000542302
 31
0.0
  0
LINE
  5
3AB
330
8D
100
AcDbEntity
  8
4221039_0__SIEB_
  6
Continuous
 62
     7
100
AcDbLine
 10
36.5328388583
 20
479.2000542302
 30
0.0
 11
35.1971245726
 21
479.2000542302
 31
0.0
  0
LINE
  5
3AC
330
8D
100
AcDbEntity
  8
4221039_0__SIEB_
  6
Continuous
 62
     7
100
AcDbLine
 10
35.1144893903
 20
479.0000542302
 30
0.0
 11
36.6154740405
 21
479.0000542302
 31
0.0
  0
LINE
  5
3AD
330
8D
100
AcDbEntity
  8
4221039_0__SIEB_
  6
Continuous
 62
     7
100
AcDbLine
 10
37.3104398095
 20
479.2000542302
 30
0.0
 11
36.7328388583
 21
479.2000542302
 31
0.0
  0
LINE
  5
3AE
330
8D
100
AcDbEntity
  8
4221039_0__SIEB_
  6
Continuous
 62
     7
100
AcDbLine
 10
36.6502036761
 20
479.0000542302
 30
0.0
 11
38.0958658788
 21
479.0000542302
 31
0.0
  0
LINE
  5
3AF
330
8D
100
AcDbEntity
  8
4221039_0__SIEB_
  6
Continuous
 62
     7
100
AcDbLine
 10
24.4471245726
 20
479.117419048
 30
0.0
 11
24.4471245726
 21
479.2667282174
 31
0.0
  0
LINE
  5
3B0
330
8D
100
AcDbEntity
  8
4221039_0__SIEB_
  6
Continuous
 62
     7
100
AcDbLine
 10
24.2471245726
 20
479.2311364303
 30
0.0
 11
24.2471245726
 21
479.117419048
 31
0.0
  0
LINE
  5
3B1
330
8D
100
AcDbEntity
  8
4221039_0__SIEB_
  6
Continuous
 62
     7
100
AcDbLine
 10
25.9828388583
 20
479.117419048
 30
0.0
 11
25.9828388583
 21
479.2667282174
 31
0.0
  0
LINE
  5
3B2
330
8D
100
AcDbEntity
  8
4221039_0__SIEB_
  6
Continuous
 62
     7
100
AcDbLine
 10
25.7828388583
 20
479.2667282174
 30
0.0
 11
25.7828388583
 21
479.117419048
 31
0.0
  0
LINE
  5
3B3
330
8D
100
AcDbEntity
  8
4221039_0__SIEB_
  6
Continuous
 62
     7
100
AcDbLine
 10
27.518553144
 20
479.117419048
 30
0.0
 11
27.518553144
 21
479.2667282174
 31
0.0
  0
LINE
  5
3B4
330
8D
100
AcDbEntity
  8
4221039_0__SIEB_
  6
Continuous
 62
     7
100
AcDbLine
 10
27.318553144
 20
479.2667282174
 30
0.0
 11
27.318553144
 21
479.117419048
 31
0.0
  0
LINE
  5
3B5
330
8D
100
AcDbEntity
  8
4221039_0__SIEB_
  6
Continuous
 62
     7
100
AcDbLine
 10
29.0542674297
 20
479.117419048
 30
0.0
 11
29.0542674297
 21
479.2667282174
 31
0.0
  0
LINE
  5
3B6
330
8D
100
AcDbEntity
  8
4221039_0__SIEB_
  6
Continuous
 62
     7
100
AcDbLine
 10
28.8542674297
 20
479.2667282174
 30
0.0
 11
28.8542674297
 21
479.117419048
 31
0.0
  0
LINE
  5
3B7
330
8D
100
AcDbEntity
  8
4221039_0__SIEB_
  6
Continuous
 62
     7
100
AcDbLine
 10
30.5899817154
 20
479.117419048
 30
0.0
 11
30.5899817154
 21
479.2667282174
 31
0.0
  0
LINE
  5
3B8
330
8D
100
AcDbEntity
  8
4221039_0__SIEB_
  6
Continuous
 62
     7
100
AcDbLine
 10
30.3899817154
 20
479.2667282174
 30
0.0
 11
30.3899817154
 21
479.117419048
 31
0.0
  0
LINE
  5
3B9
330
8D
100
AcDbEntity
  8
4221039_0__SIEB_
  6
Continuous
 62
     7
100
AcDbLine
 10
32.1256960011
 20
479.117419048
 30
0.0
 11
32.1256960011
 21
479.2667282174
 31
0.0
  0
LINE
  5
3BA
330
8D
100
AcDbEntity
  8
4221039_0__SIEB_
  6
Continuous
 62
     7
100
AcDbLine
 10
31.9256960011
 20
479.2667282174
 30
0.0
 11
31.9256960011
 21
479.117419048
 31
0.0
  0
LINE
  5
3BB
330
8D
100
AcDbEntity
  8
4221039_0__SIEB_
  6
Continuous
 62
     7
100
AcDbLine
 10
33.6614102869
 20
479.117419048
 30
0.0
 11
33.6614102869
 21
479.2667282174
 31
0.0
  0
LINE
  5
3BC
330
8D
100
AcDbEntity
  8
4221039_0__SIEB_
  6
Continuous
 62
     7
100
AcDbLine
 10
33.4614102869
 20
479.2667282174
 30
0.0
 11
33.4614102869
 21
479.117419048
 31
0.0
  0
LINE
  5
3BD
330
8D
100
AcDbEntity
  8
4221039_0__SIEB_
  6
Continuous
 62
     7
100
AcDbLine
 10
35.1971245726
 20
479.117419048
 30
0.0
 11
35.1971245726
 21
479.2667282174
 31
0.0
  0
LINE
  5
3BE
330
8D
100
AcDbEntity
  8
4221039_0__SIEB_
  6
Continuous
 62
     7
100
AcDbLine
 10
34.9971245726
 20
479.2667282174
 30
0.0
 11
34.9971245726
 21
479.117419048
 31
0.0
  0
LINE
  5
3BF
330
8D
100
AcDbEntity
  8
4221039_0__SIEB_
  6
Continuous
 62
     7
100
AcDbLine
 10
36.7328388583
 20
479.117419048
 30
0.0
 11
36.7328388583
 21
479.2667282174
 31
0.0
  0
LINE
  5
3C0
330
8D
100
AcDbEntity
  8
4221039_0__SIEB_
  6
Continuous
 62
     7
100
AcDbLine
 10
36.5328388583
 20
479.2667282174
 30
0.0
 11
36.5328388583
 21
479.117419048
 31
0.0
  0
LINE
  5
3C1
330
8D
100
AcDbEntity
  8
4221039_0__SIEB_
  6
Continuous
 62
     7
100
AcDbLine
 10
36.6502036761
 20
479.2667282174
 30
0.0
 11
36.980151424
 21
479.2667282174
 31
0.0
  0
LINE
  5
3C2
330
8D
100
AcDbEntity
  8
4221039_0__SIEB_
  6
Continuous
 62
     7
100
AcDbLine
 10
35.6897438713
 20
479.4667282174
 30
0.0
 11
35.1971245726
 21
479.4667282174
 31
0.0
  0
LINE
  5
3C3
330
8D
100
AcDbEntity
  8
4221039_0__SIEB_
  6
Continuous
 62
     7
100
AcDbLine
 10
35.1144893903
 20
479.2667282174
 30
0.0
 11
36.6154740405
 21
479.2667282174
 31
0.0
  0
LINE
  5
3C4
330
8D
100
AcDbEntity
  8
4221039_0__SIEB_
  6
Continuous
 62
     7
100
AcDbLine
 10
34.9971245726
 20
479.4667282174
 30
0.0
 11
33.6614102869
 21
479.4667282174
 31
0.0
  0
LINE
  5
3C5
330
8D
100
AcDbEntity
  8
4221039_0__SIEB_
  6
Continuous
 62
     7
100
AcDbLine
 10
33.5787751046
 20
479.2667282174
 30
0.0
 11
35.0797597548
 21
479.2667282174
 31
0.0
  0
LINE
  5
3C6
330
8D
100
AcDbEntity
  8
4221039_0__SIEB_
  6
Continuous
 62
     7
100
AcDbLine
 10
33.4614102869
 20
479.4667282174
 30
0.0
 11
32.1256960011
 21
479.4667282174
 31
0.0
  0
LINE
  5
3C7
330
8D
100
AcDbEntity
  8
4221039_0__SIEB_
  6
Continuous
 62
     7
100
AcDbLine
 10
32.0430608189
 20
479.2667282174
 30
0.0
 11
33.5440454691
 21
479.2667282174
 31
0.0
  0
LINE
  5
3C8
330
8D
100
AcDbEntity
  8
4221039_0__SIEB_
  6
Continuous
 62
     7
100
AcDbLine
 10
31.9256960011
 20
479.4667282174
 30
0.0
 11
30.5899817154
 21
479.4667282174
 31
0.0
  0
LINE
  5
3C9
330
8D
100
AcDbEntity
  8
4221039_0__SIEB_
  6
Continuous
 62
     7
100
AcDbLine
 10
30.5073465332
 20
479.2667282174
 30
0.0
 11
32.0083311834
 21
479.2667282174
 31
0.0
  0
LINE
  5
3CA
330
8D
100
AcDbEntity
  8
4221039_0__SIEB_
  6
Continuous
 62
     7
100
AcDbLine
 10
30.3899817154
 20
479.4667282174
 30
0.0
 11
29.0542674297
 21
479.4667282174
 31
0.0
  0
LINE
  5
3CB
330
8D
100
AcDbEntity
  8
4221039_0__SIEB_
  6
Continuous
 62
     7
100
AcDbLine
 10
28.9716322475
 20
479.2667282174
 30
0.0
 11
30.4726168977
 21
479.2667282174
 31
0.0
  0
LINE
  5
3CC
330
8D
100
AcDbEntity
  8
4221039_0__SIEB_
  6
Continuous
 62
     7
100
AcDbLine
 10
28.8542674297
 20
479.4667282174
 30
0.0
 11
27.518553144
 21
479.4667282174
 31
0.0
  0
LINE
  5
3CD
330
8D
100
AcDbEntity
  8
4221039_0__SIEB_
  6
Continuous
 62
     7
100
AcDbLine
 10
27.4359179618
 20
479.2667282174
 30
0.0
 11
28.936902612
 21
479.2667282174
 31
0.0
  0
LINE
  5
3CE
330
8D
100
AcDbEntity
  8
4221039_0__SIEB_
  6
Continuous
 62
     7
100
AcDbLine
 10
27.318553144
 20
479.4667282174
 30
0.0
 11
25.9828388583
 21
479.4667282174
 31
0.0
  0
LINE
  5
3CF
330
8D
100
AcDbEntity
  8
4221039_0__SIEB_
  6
Continuous
 62
     7
100
AcDbLine
 10
25.9002036761
 20
479.2667282174
 30
0.0
 11
27.4011883262
 21
479.2667282174
 31
0.0
  0
LINE
  5
3D0
330
8D
100
AcDbEntity
  8
4221039_0__SIEB_
  6
Continuous
 62
     7
100
AcDbLine
 10
25.7828388583
 20
479.4667282174
 30
0.0
 11
25.7187909881
 21
479.4667282174
 31
0.0
  0
LINE
  5
3D1
330
8D
100
AcDbEntity
  8
4221039_0__SIEB_
  6
Continuous
 62
     7
100
AcDbLine
 10
24.4283834354
 20
479.2667282174
 30
0.0
 11
25.8654740405
 21
479.2667282174
 31
0.0
  0
LINE
  5
3D2
330
8D
100
AcDbEntity
  8
4221039_0__SIEB_
  6
Continuous
 62
     7
100
AcDbLine
 10
35.1971245726
 20
479.3840930351
 30
0.0
 11
35.1971245726
 21
479.5242319155
 31
0.0
  0
LINE
  5
3D3
330
8D
100
AcDbEntity
  8
4221039_0__SIEB_
  6
Continuous
 62
     7
100
AcDbLine
 10
34.9971245726
 20
479.5334022045
 30
0.0
 11
34.9971245726
 21
479.3840930351
 31
0.0
  0
LINE
  5
3D4
330
8D
100
AcDbEntity
  8
4221039_0__SIEB_
  6
Continuous
 62
     7
100
AcDbLine
 10
33.6614102869
 20
479.3840930351
 30
0.0
 11
33.6614102869
 21
479.5334022045
 31
0.0
  0
LINE
  5
3D5
330
8D
100
AcDbEntity
  8
4221039_0__SIEB_
  6
Continuous
 62
     7
100
AcDbLine
 10
33.4614102869
 20
479.5334022045
 30
0.0
 11
33.4614102869
 21
479.3840930351
 31
0.0
  0
LINE
  5
3D6
330
8D
100
AcDbEntity
  8
4221039_0__SIEB_
  6
Continuous
 62
     7
100
AcDbLine
 10
32.1256960011
 20
479.3840930351
 30
0.0
 11
32.1256960011
 21
479.5334022045
 31
0.0
  0
LINE
  5
3D7
330
8D
100
AcDbEntity
  8
4221039_0__SIEB_
  6
Continuous
 62
     7
100
AcDbLine
 10
31.9256960011
 20
479.5334022045
 30
0.0
 11
31.9256960011
 21
479.3840930351
 31
0.0
  0
LINE
  5
3D8
330
8D
100
AcDbEntity
  8
4221039_0__SIEB_
  6
Continuous
 62
     7
100
AcDbLine
 10
30.5899817154
 20
479.3840930351
 30
0.0
 11
30.5899817154
 21
479.5334022045
 31
0.0
  0
LINE
  5
3D9
330
8D
100
AcDbEntity
  8
4221039_0__SIEB_
  6
Continuous
 62
     7
100
AcDbLine
 10
30.3899817154
 20
479.5334022045
 30
0.0
 11
30.3899817154
 21
479.3840930351
 31
0.0
  0
LINE
  5
3DA
330
8D
100
AcDbEntity
  8
4221039_0__SIEB_
  6
Continuous
 62
     7
100
AcDbLine
 10
29.0542674297
 20
479.3840930351
 30
0.0
 11
29.0542674297
 21
479.5334022045
 31
0.0
  0
LINE
  5
3DB
330
8D
100
AcDbEntity
  8
4221039_0__SIEB_
  6
Continuous
 62
     7
100
AcDbLine
 10
28.8542674297
 20
479.5334022045
 30
0.0
 11
28.8542674297
 21
479.3840930351
 31
0.0
  0
LINE
  5
3DC
330
8D
100
AcDbEntity
  8
4221039_0__SIEB_
  6
Continuous
 62
     7
100
AcDbLine
 10
27.518553144
 20
479.3840930351
 30
0.0
 11
27.518553144
 21
479.5334022045
 31
0.0
  0
LINE
  5
3DD
330
8D
100
AcDbEntity
  8
4221039_0__SIEB_
  6
Continuous
 62
     7
100
AcDbLine
 10
27.318553144
 20
479.5334022045
 30
0.0
 11
27.318553144
 21
479.3840930351
 31
0.0
  0
LINE
  5
3DE
330
8D
100
AcDbEntity
  8
4221039_0__SIEB_
  6
Continuous
 62
     7
100
AcDbLine
 10
25.9828388583
 20
479.3840930351
 30
0.0
 11
25.9828388583
 21
479.4986275314
 31
0.0
  0
LINE
  5
3DF
330
8D
100
AcDbEntity
  8
4221039_0__SIEB_
  6
Continuous
 62
     7
100
AcDbLine
 10
25.7828388583
 20
479.4747039434
 30
0.0
 11
25.7828388583
 21
479.3840930351
 31
0.0
  0
LINE
  5
3E0
330
8D
100
AcDbEntity
  8
4221039_0__SIEB_
  6
Continuous
 62
     7
100
AcDbLine
 10
26.297355194
 20
479.5334022045
 30
0.0
 11
27.4011883262
 21
479.5334022045
 31
0.0
  0
LINE
  5
3E1
330
8D
100
AcDbEntity
  8
4221039_0__SIEB_
  6
Continuous
 62
     7
100
AcDbLine
 10
27.4359179618
 20
479.5334022045
 30
0.0
 11
28.936902612
 21
479.5334022045
 31
0.0
  0
LINE
  5
3E2
330
8D
100
AcDbEntity
  8
4221039_0__SIEB_
  6
Continuous
 62
     7
100
AcDbLine
 10
30.3899817154
 20
479.7334022045
 30
0.0
 11
29.5416839046
 21
479.7334022045
 31
0.0
  0
LINE
  5
3E3
330
8D
100
AcDbEntity
  8
4221039_0__SIEB_
  6
Continuous
 62
     7
100
AcDbLine
 10
28.9716322475
 20
479.5334022045
 30
0.0
 11
30.4726168977
 21
479.5334022045
 31
0.0
  0
LINE
  5
3E4
330
8D
100
AcDbEntity
  8
4221039_0__SIEB_
  6
Continuous
 62
     7
100
AcDbLine
 10
31.8668509548
 20
479.7334022045
 30
0.0
 11
30.5899817154
 21
479.7334022045
 31
0.0
  0
LINE
  5
3E5
330
8D
100
AcDbEntity
  8
4221039_0__SIEB_
  6
Continuous
 62
     7
100
AcDbLine
 10
30.5073465332
 20
479.5334022045
 30
0.0
 11
32.0083311834
 21
479.5334022045
 31
0.0
  0
LINE
  5
3E6
330
8D
100
AcDbEntity
  8
4221039_0__SIEB_
  6
Continuous
 62
     7
100
AcDbLine
 10
32.0430608189
 20
479.5334022045
 30
0.0
 11
33.5440454691
 21
479.5334022045
 31
0.0
  0
LINE
  5
3E7
330
8D
100
AcDbEntity
  8
4221039_0__SIEB_
  6
Continuous
 62
     7
100
AcDbLine
 10
33.5787751046
 20
479.5334022045
 30
0.0
 11
35.0797597548
 21
479.5334022045
 31
0.0
  0
LINE
  5
3E8
330
8D
100
AcDbEntity
  8
4221039_0__SIEB_
  6
Continuous
 62
     7
100
AcDbLine
 10
29.0542674297
 20
479.6507670222
 30
0.0
 11
29.0542674297
 21
479.7191971654
 31
0.0
  0
LINE
  5
3E9
330
8D
100
AcDbEntity
  8
4221039_0__SIEB_
  6
Continuous
 62
     7
100
AcDbLine
 10
28.8542674297
 20
479.7118898605
 30
0.0
 11
28.8542674297
 21
479.6507670222
 31
0.0
  0
LINE
  5
3EA
330
8D
100
AcDbEntity
  8
4221039_0__SIEB_
  6
Continuous
 62
     7
100
AcDbLine
 10
30.5899817154
 20
479.6507670222
 30
0.0
 11
30.5899817154
 21
479.747140019
 31
0.0
  0
LINE
  5
3EB
330
8D
100
AcDbEntity
  8
4221039_0__SIEB_
  6
Continuous
 62
     7
100
AcDbLine
 10
30.3899817154
 20
479.7462641429
 30
0.0
 11
30.3899817154
 21
479.6507670222
 31
0.0
  0
LINE
  5
3EC
330
8D
100
AcDbEntity
  8
4221039_0__SIEB_
  6
Continuous
 62
     7
100
AcDbLine
 10
32.1256960011
 20
479.6507670222
 30
0.0
 11
32.1256960011
 21
479.7264889212
 31
0.0
  0
LINE
  5
3ED
330
8D
100
AcDbEntity
  8
4221039_0__SIEB_
  6
Continuous
 62
     7
100
AcDbLine
 10
31.9256960011
 20
479.7319549151
 30
0.0
 11
31.9256960011
 21
479.6507670222
 31
0.0
  0
LINE
  5
3EE
330
8D
100
AcDbEntity
  8
4221039_0__SIEB_
  6
Continuous
 62
     7
100
AcDbLine
 10
33.6614102869
 20
479.6507670222
 30
0.0
 11
33.6614102869
 21
479.6550700181
 31
0.0
  0
LINE
  5
3EF
330
8D
100
AcDbEntity
  8
4221039_0__SIEB_
  6
Continuous
 62
     7
100
AcDbLine
 10
33.4614102869
 20
479.6674661535
 30
0.0
 11
33.4614102869
 21
479.6507670222
 31
0.0
  0
ENDBLK
  5
3F1
330
8D
100
AcDbEntity
  8
0
100
AcDbBlockEnd
  0
BLOCK
  5
442
330
3F2
100
AcDbEntity
  8
0
100
AcDbBlockBegin
  2
SE1
 70
     0
 10
0.0
 20
0.0
 30
0.0
  3
SE1
  1

  0
ARC
  5
3F4
330
3F2
100
AcDbEntity
  8
04676329_ROHLING
  6
Continuous
 62
     7
100
AcDbCircle
 10
1343.569336491
 20
399.5201146507
 30
0.0
 40
1175.3150201322
100
AcDbArc
 50
178.1083818
 51
180.058310795
  0
SPLINE
  5
3F5
330
3F2
100
AcDbEntity
  8
04676329_ROHLING
  6
Continuous
 62
     7
100
AcDbSpline
210
0.0
220
0.0
230
1.0
 70
    12
 71
     3
 72
    57
 73
    53
 74
     0
 42
0.0000000002354383
 43
0.0000000001
 40
0.0
 40
0.0
 40
0.0
 40
0.0
 40
0.0188901440925692
 40
0.029292939355834
 40
0.0507611197501395
 40
0.0699033751979
 40
0.0859545372571966
 40
0.1051344018398109
 40
0.1308917425434837
 40
0.1474752266656765
 40
0.1617538108544854
 40
0.1805549178070522
 40
0.2048912513829003
 40
0.2155504534323814
 40
0.2348404659918437
 40
0.2491587353795005
 40
0.2491587353795005
 40
0.2704231959479375
 40
0.2838473881510988
 40
0.310472544805047
 40
0.3357862295023658
 40
0.3600141542895089
 40
0.3830033954123171
 40
0.3969219201542025
 40
0.4201499335747103
 40
0.4331352916097395
 40
0.452459864954537
 40
0.4759929230608643
 40
0.496435492316693
 40
0.511529379445134
 40
0.5312193699091884
 40
0.5588164141593637
 40
0.5724244321282419
 40
0.5988056306285718
 40
0.617162737113535
 40
0.6350736771646177
 40
0.6529622390423968
 40
0.6769008530814404
 40
0.7046980598679365
 40
0.7214728952620563
 40
0.7448113773613603
 40
0.7621271736275304
 40
0.7777394905274265
 40
0.7818092963445427
 40
0.7861648615148754
 40
0.7967703621764677
 40
0.8065340852952246
 40
0.8216630883060728
 40
0.8216630883060728
 40
0.837228334405244
 40
0.9231993568110856
 40
1.0
 40
1.0
 40
1.0
 40
1.0
 10
184.8209152820564
 20
475.6494350232749
 30
0.0
 41
1.0
 10
184.5810466304345
 20
475.4779109220608
 30
0.0
 41
1.0
 10
184.2701681850033
 20
475.2550092446326
 30
0.0
 41
1.0
 10
183.6857672386533
 20
474.8167499604655
 30
0.0
 41
1.0
 10
183.116581879327
 20
474.37356364865
 30
0.0
 41
1.0
 10
182.4919145038049
 20
473.862736637673
 30
0.0
 41
1.0
 10
181.9036171597125
 20
473.3609241973585
 30
0.0
 41
1.0
 10
181.2553289993485
 20
472.7840825059574
 30
0.0
 41
1.0
 10
180.6167026917398
 20
472.1855266160107
 30
0.0
 41
1.0
 10
180.0431110754392
 20
471.6203706841527
 30
0.0
 41
1.0
 10
179.5489314517252
 20
471.1159153795306
 30
0.0
 41
1.0
 10
178.9901996282056
 20
470.5214949188079
 30
0.0
 41
1.0
 10
178.4811165422002
 20
469.9496403732796
 30
0.0
 41
1.0
 10
177.9817710313704
 20
469.3663340482746
 30
0.0
 41
1.0
 10
177.5709921393758
 20
468.8711042482317
 30
0.0
 41
1.0
 10
177.295045921544
 20
468.5240903116351
 30
0.0
 41
1.0
 10
176.9507461452226
 20
468.0900237081815
 30
0.0
 41
1.0
 10
176.6773413547621
 20
467.7304110156434
 30
0.0
 41
1.0
 10
176.155382215838
 20
467.0243289471929
 30
0.0
 41
1.0
 10
175.6298639765212
 20
466.2722012769474
 30
0.0
 41
1.0
 10
175.0393015911723
 20
465.3726230593444
 30
0.0
 41
1.0
 10
174.4986306263479
 20
464.5052502648083
 30
0.0
 41
1.0
 10
174.0634776807423
 20
463.761619621392
 30
0.0
 41
1.0
 10
173.6511777245844
 20
463.0215733746745
 30
0.0
 41
1.0
 10
173.3199554119995
 20
462.3978927765672
 30
0.0
 41
1.0
 10
172.9667522932969
 20
461.700022081872
 30
0.0
 41
1.0
 10
172.6244772129049
 20
460.9919166702132
 30
0.0
 41
1.0
 10
172.2563532883386
 20
460.1797637431663
 30
0.0
 41
1.0
 10
171.9312710276923
 20
459.4136281376888
 30
0.0
 41
1.0
 10
171.6418485636731
 20
458.6911466920267
 30
0.0
 41
1.0
 10
171.3315294268302
 20
457.8682229648083
 30
0.0
 41
1.0
 10
171.0508744641096
 20
457.0561331163475
 30
0.0
 41
1.0
 10
170.7609297971528
 20
456.1471892420661
 30
0.0
 41
1.0
 10
170.5296566607788
 20
455.3559231270136
 30
0.0
 41
1.0
 10
170.304488471243
 20
454.4992002356969
 30
0.0
 41
1.0
 10
170.124918998166
 20
453.7543461836024
 30
0.0
 41
1.0
 10
169.9419067705194
 20
452.9288271204085
 30
0.0
 41
1.0
 10
169.7553922076244
 20
451.9603195010781
 30
0.0
 41
1.0
 10
169.5945136812496
 20
451.0026990040419
 30
0.0
 41
1.0
 10
169.457753720555
 20
450.0497956529472
 30
0.0
 41
1.0
 10
169.3582362663991
 20
449.2415156570763
 30
0.0
 41
1.0
 10
169.2866664948012
 20
448.447092575379
 30
0.0
 41
1.0
 10
169.243799812609
 20
447.9246448487989
 30
0.0
 41
1.0
 10
169.219263640455
 20
447.584840437777
 30
0.0
 41
1.0
 10
169.1785066397469
 20
447.3175672362279
 30
0.0
 41
1.0
 10
169.1738719952585
 20
446.9685417727815
 30
0.0
 41
1.0
 10
169.156219752407
 20
446.4593163089659
 30
0.0
 41
1.0
 10
169.1485252065404
 20
446.135006860519
 30
0.0
 41
1.0
 10
169.1362568071768
 20
445.658183345762
 30
0.0
 41
1.0
 10
169.0971214724024
 20
444.3098318027798
 30
0.0
 41
1.0
 10
169.0244416650418
 20
441.6488383044531
 30
0.0
 41
1.0
 10
168.968440780321
 20
439.5451170009994
 30
0.0
 41
1.0
 10
168.8947977929894
 20
438.3160510741776
 30
0.0
 41
1.0
  0
ARC
  5
3F6
330
3F2
100
AcDbEntity
  8
04676329_ROHLING
  6
Continuous
 62
     7
100
AcDbCircle
 10
205.7549825912
 20
444.7388265509
 30
0.0
 40
37.33230357527175
100
AcDbArc
 50
100.4493056708
 51
124.107640489
  0
LINE
  5
3F7
330
3F2
100
AcDbEntity
  8
04676329_ROHLING
  6
Continuous
 62
     7
100
AcDbLine
 10
250.468180232
 20
490.7856497051
 30
0.0
 11
198.9841911659
 21
481.4520023897
 31
0.0
  0
ARC
  5
3F8
330
3F2
100
AcDbEntity
  8
04676329_ROHLING
  6
Continuous
 62
     7
100
AcDbCircle
 10
249.3090182567
 20
496.752106993
 30
0.0
 40
6.081715434783122
100
AcDbArc
 50
280.9939162026
 51
10.4441825594
  0
SPLINE
  5
3F9
330
3F2
100
AcDbEntity
  8
04676329_ROHLING
  6
Continuous
 62
     7
100
AcDbSpline
210
0.0
220
0.0
230
1.0
 70
    12
 71
     3
 72
    36
 73
    32
 74
     0
 42
0.0000000010807017
 43
0.0000000001
 40
0.0
 40
0.0
 40
0.0
 40
0.0
 40
0.0365007061450834
 40
0.0719736435697222
 40
0.1077969656464472
 40
0.1405915945132172
 40
0.1803175551764841
 40
0.2203033040044687
 40
0.242584798862678
 40
0.2755516442869324
 40
0.3125287743216862
 40
0.3495769818461157
 40
0.3849119323817543
 40
0.4184678874738147
 40
0.4387500335408525
 40
0.4752609502986634
 40
0.5149870557409103
 40
0.5510003409823295
 40
0.5866167752001787
 40
0.6224355038064121
 40
0.641930887119966
 40
0.675388462503948
 40
0.7089018105940884
 40
0.7461204277914998
 40
0.781470627905516
 40
0.8040864417397688
 40
0.8416960150839439
 40
0.8758166493741392
 40
0.8758166493741392
 40
0.9598625227976245
 40
1.0
 40
1.0
 40
1.0
 40
1.0
 10
249.5151547725125
 20
503.8058093673243
 30
0.0
 41
1.0
 10
249.6564934514839
 20
503.805498418755
 30
0.0
 41
1.0
 10
249.8601080483432
 20
503.8017238205102
 30
0.0
 41
1.0
 10
250.1968169829028
 20
503.7748277174184
 30
0.0
 41
1.0
 10
250.5094719539412
 20
503.7335187521428
 30
0.0
 41
1.0
 10
250.8328204236398
 20
503.6737930191844
 30
0.0
 41
1.0
 10
251.162155306961
 20
503.5938338773894
 30
0.0
 41
1.0
 10
251.4540166944669
 20
503.5035185398152
 30
0.0
 41
1.0
 10
251.7209220509833
 20
503.4062588175179
 30
0.0
 41
1.0
 10
251.9733449689171
 20
503.3014820970273
 30
0.0
 41
1.0
 10
252.2616739955295
 20
503.1622318872858
 30
0.0
 41
1.0
 10
252.547262915189
 20
503.0032381869727
 30
0.0
 41
1.0
 10
252.8131304163335
 20
502.8343534780142
 30
0.0
 41
1.0
 10
253.0276974067213
 20
502.6806536946785
 30
0.0
 41
1.0
 10
253.2370922075804
 20
502.516220091388
 30
0.0
 41
1.0
 10
253.4514630622789
 20
502.3309916354529
 30
0.0
 41
1.0
 10
253.6850208355313
 20
502.1016373409117
 30
0.0
 41
1.0
 10
253.9001248257394
 20
501.8610797221233
 30
0.0
 41
1.0
 10
254.0914667445179
 20
501.6188712299475
 30
0.0
 41
1.0
 10
254.227777370553
 20
501.4186517909982
 30
0.0
 41
1.0
 10
254.3573079256567
 20
501.2054921301987
 30
0.0
 41
1.0
 10
254.4752732402534
 20
500.988157287177
 30
0.0
 41
1.0
 10
254.6057383618692
 20
500.7110164014168
 30
0.0
 41
1.0
 10
254.7250448270453
 20
500.4149122215961
 30
0.0
 41
1.0
 10
254.8195853891641
 20
500.1374083503782
 30
0.0
 41
1.0
 10
254.9037598937435
 20
499.8524199845205
 30
0.0
 41
1.0
 10
254.9784159457083
 20
499.556885034398
 30
0.0
 41
1.0
 10
255.0196085026849
 20
499.3461114354151
 30
0.0
 41
1.0
 10
255.1078423104317
 20
498.8853396284922
 30
0.0
 41
1.0
 10
255.1824281548086
 20
498.4539633691604
 30
0.0
 41
1.0
 10
255.2632308651947
 20
498.0020766971041
 30
0.0
 41
1.0
 10
255.2899716748362
 20
497.8545854916406
 30
0.0
 41
1.0
  0
LINE
  5
3FA
330
3F2
100
AcDbEntity
  8
04676329_ROHLING
  6
Continuous
 62
     7
100
AcDbLine
 10
183.7269350494
 20
501.5052102192
 30
0.0
 11
249.5151715948
 21
503.8025853783
 31
0.0
  0
ARC
  5
3FB
330
3F2
100
AcDbEntity
  8
04676329_ROHLING
  6
Continuous
 62
     7
100
AcDbCircle
 10
200.0179481299
 20
145.2401324988
 30
0.0
 40
356.6373549547875
100
AcDbArc
 50
92.6181531237
 51
93.6337855672
  0
ARC
  5
3FC
330
3F2
100
AcDbEntity
  8
04676329_ROHLING
  6
Continuous
 62
     7
100
AcDbCircle
 10
201.1510851991
 20
120.9630923029
 30
0.0
 40
380.9376222566937
100
AcDbArc
 50
93.5724500889
 51
94.4906678905
  0
LINE
  5
3FD
330
3F2
100
AcDbEntity
  8
04676329_ROHLING
  6
Continuous
 62
     7
100
AcDbLine
 10
148.0654883639
 20
507.7698787052
 30
0.0
 11
176.0873046983
 21
502.8288764854
 31
0.0
  0
LINE
  5
3FE
330
3F2
100
AcDbEntity
  8
04676329_ROHLING
  6
Continuous
 62
     7
100
AcDbLine
 10
121.32888042
 20
388.4214658536
 30
0.0
 11
124.1965837253
 21
398.3240301196
 31
0.0
  0
LINE
  5
3FF
330
3F2
100
AcDbEntity
  8
04676329_ROHLING
  6
Continuous
 62
     7
100
AcDbLine
 10
159.7802875813
 20
385.469274828
 30
0.0
 11
130.7511064989
 21
385.469274828
 31
0.0
  0
ARC
  5
400
330
3F2
100
AcDbEntity
  8
04676329_ROHLING
  6
Continuous
 62
     7
100
AcDbCircle
 10
1854.7626864364
 20
353.169013995
 30
0.0
 40
1686.763605144649
100
AcDbArc
 50
177.0827688299
 51
178.4663568996
  0
ARC
  5
401
330
3F2
100
AcDbEntity
  8
04676329_ROHLING
  6
Continuous
 62
     7
100
AcDbCircle
 10
1029.5839616925
 20
-3978.8523471089
 30
0.0
 40
4534.576800613698
100
AcDbArc
 50
99.8811652273
 51
99.8836857501
  0
ARC
  5
402
330
3F2
100
AcDbEntity
  8
04676329_ROHLING
  6
Continuous
 62
     7
100
AcDbCircle
 10
1293.2791233645
 20
-5502.3667236982
 30
0.0
 40
6080.733621939135
100
AcDbArc
 50
100.089778281
 51
100.3632355807
  0
ARC
  5
403
330
3F2
100
AcDbEntity
  8
04676329_ROHLING
  6
Continuous
 62
     7
100
AcDbCircle
 10
205.5334655599
 20
444.6802406119
 30
0.0
 40
35.02842761351216
100
AcDbArc
 50
100.0376488269
 51
177.9623766998
  0
LINE
  5
404
330
3F2
100
AcDbEntity
  8
04676329_ROHLING
  6
Continuous
 62
     7
100
AcDbLine
 10
170.1852652717
 20
439.0138524275
 30
0.0
 11
170.5271924156
 21
445.9257020592
 31
0.0
  0
ARC
  5
405
330
3F2
100
AcDbEntity
  8
04676329_ROHLING
  6
Continuous
 62
     7
100
AcDbCircle
 10
250.0064656781
 20
496.3664768819
 30
0.0
 40
8.03794471529622
100
AcDbArc
 50
280.1847853022
 51
10.1663331944
  0
ARC
  5
406
330
3F2
100
AcDbEntity
  8
04676329_ROHLING
  6
Continuous
 62
     7
100
AcDbCircle
 10
249.7170467291
 20
498.3066047158
 30
0.0
 40
7.972644732738892
100
AcDbArc
 50
9.8288331673
 51
92.171116053
  0
LINE
  5
407
330
3F2
100
AcDbEntity
  8
04676329_ROHLING
  6
Continuous
 62
     7
100
AcDbLine
 10
257.9195298415
 20
497.7775131244
 30
0.0
 11
257.5726699662
 21
499.6675779761
 31
0.0
  0
LINE
  5
408
330
3F2
100
AcDbEntity
  8
04676329_ROHLING
  6
Continuous
 62
     7
100
AcDbLine
 10
249.4150106029
 20
506.273526263
 30
0.0
 11
183.5624996471
 21
503.9739067358
 31
0.0
  0
LINE
  5
409
330
3F2
100
AcDbEntity
  8
04676329_ROHLING
  6
Continuous
 62
     7
100
AcDbLine
 10
169.2798494172
 20
387.94503459
 30
0.0
 11
168.5981173319
 21
398.3240301014
 31
0.0
  0
LINE
  5
40A
330
3F2
100
AcDbEntity
  8
04676329_ROHLING
  6
Continuous
 62
     7
100
AcDbLine
 10
183.5624992867
 20
503.9739067232
 30
0.0
 11
181.5190726222
 21
503.8991871063
 31
0.0
  0
LINE
  5
40B
330
3F2
100
AcDbEntity
  8
04676329_ROHLING
  6
Continuous
 62
     7
100
AcDbLine
 10
181.524242954
 20
503.9134608464
 30
0.0
 11
174.7153391763
 21
506.3916991495
 31
0.0
  0
LINE
  5
40C
330
3F2
100
AcDbEntity
  8
04676329_ROHLING
  6
Continuous
 62
     7
100
AcDbLine
 10
157.9736068394
 20
509.3437182643
 30
0.0
 11
150.0183275154
 21
509.3437182643
 31
0.0
  0
SPLINE
  5
40D
330
3F2
100
AcDbEntity
  8
04676329_ROHLING
  6
Continuous
 62
     7
100
AcDbSpline
210
0.0
220
0.0
230
1.0
 70
     8
 71
     3
 72
    11
 73
     7
 74
     0
 42
0.0000000036399963
 43
0.0000000001
 40
0.0
 40
0.0
 40
0.0
 40
0.0
 40
0.2727881893189972
 40
0.5617814273525177
 40
0.7872111017948391
 40
1.0
 40
1.0
 40
1.0
 40
1.0
 10
150.019557830418
 20
509.3437182643099
 30
0.0
 10
149.7507993038549
 20
509.3187751780711
 30
0.0
 10
149.2747957731693
 20
509.2605111065467
 30
0.0
 10
148.6522159620991
 20
508.8582734057468
 30
0.0
 10
148.238258390229
 20
508.3253781156905
 30
0.0
 10
148.1250391062004
 20
507.9718280497893
 30
0.0
 10
148.0654883638847
 20
507.7698787052394
 30
0.0
  0
LINE
  5
40E
330
3F2
100
AcDbEntity
  8
04676329_ROHLING
  6
Continuous
 62
     7
100
AcDbLine
 10
148.0654887535
 20
507.7698786365
 30
0.0
 11
124.1965666993
 21
398.3239509388
 31
0.0
  0
SPLINE
  5
40F
330
3F2
100
AcDbEntity
  8
04676329_ROHLING
  6
Continuous
 62
     7
100
AcDbSpline
210
0.0
220
0.0
230
1.0
 70
     8
 71
     3
 72
    11
 73
     7
 74
     0
 42
0.0000000031193118
 43
0.0000000001
 40
0.0
 40
0.0
 40
0.0
 40
0.0
 40
0.3077518009162576
 40
0.6489685383307987
 40
0.9135453616639103
 40
1.0
 40
1.0
 40
1.0
 40
1.0
 10
167.3861180549338
 20
385.8678808987804
 30
0.0
 10
167.7304212029318
 20
385.9279280187627
 30
0.0
 10
168.3646297988327
 20
386.0641132946532
 30
0.0
 10
169.0493212886467
 20
386.7945701668712
 30
0.0
 10
169.3069970226371
 20
387.514271772758
 30
0.0
 10
169.261785337896
 20
387.8551503168687
 30
0.0
 10
169.2477098831936
 20
387.9523188559725
 30
0.0
  0
SPLINE
  5
410
330
3F2
100
AcDbEntity
  8
04676329_ROHLING
  6
Continuous
 62
     7
100
AcDbSpline
210
0.0
220
0.0
230
1.0
 70
     8
 71
     3
 72
    11
 73
     7
 74
     0
 42
0.0000000027136746
 43
0.0000000001
 40
0.0
 40
0.0
 40
0.0
 40
0.0
 40
0.2671053786960851
 40
0.5632558011898053
 40
0.7928885519330782
 40
1.0
 40
1.0
 40
1.0
 40
1.0
 10
121.3288804200242
 20
388.4214658535671
 30
0.0
 10
121.2726550551358
 20
388.0765179985474
 30
0.0
 10
121.1939186850352
 20
387.4361615626277
 30
0.0
 10
121.6563092558338
 20
386.5341949113595
 30
0.0
 10
122.3912057297829
 20
385.993830429498
 30
0.0
 10
122.877131232992
 20
385.9071134474358
 30
0.0
 10
123.1452760253117
 20
385.8678808987802
 30
0.0
  0
LINE
  5
411
330
3F2
100
AcDbEntity
  8
04676329_ROHLING
  6
Continuous
 62
     7
100
AcDbLine
 10
123.1440457103
 20
385.8679453771
 30
0.0
 11
130.7511064989
 21
385.469274828
 31
0.0
  0
LINE
  5
412
330
3F2
100
AcDbEntity
  8
04676329_ROHLING
  6
Continuous
 62
     7
100
AcDbLine
 10
159.7802875813
 20
385.469274828
 30
0.0
 11
167.3873483699
 21
385.8679453771
 31
0.0
  0
LINE
  5
413
330
3F2
100
AcDbEntity
  8
E05099
  6
Continuous
 62
     7
100
AcDbLine
 10
159.9074692407
 20
557.7432035165
 30
0.0
 11
189.451701831
 21
552.5337581865
 31
0.0
  0
LINE
  5
414
330
3F2
100
AcDbEntity
  8
E05099
  6
Continuous
 62
     7
100
AcDbLine
 10
148.6179334536
 20
510.9933759049
 30
0.0
 11
184.0710125621
 21
504.7420415089
 31
0.0
  0
ARC
  5
415
330
3F2
100
AcDbEntity
  8
E05099
  6
Continuous
 62
     7
100
AcDbCircle
 10
206.4033222851
 20
516.5583628319
 30
0.0
 40
20.27098657854665
100
AcDbArc
 50
92.0063599269
 51
106.0153219995
  0
SPLINE
  5
416
330
3F2
100
AcDbEntity
  8
E05099
  6
Continuous
 62
     7
100
AcDbSpline
210
0.0
220
0.0
230
1.0
 70
     8
 71
     3
 72
    14
 73
    10
 74
     0
 42
0.0000000003710082
 43
0.0000000001
 40
0.0
 40
0.0
 40
0.0
 40
0.0
 40
0.25
 40
0.25
 40
0.5
 40
0.5
 40
0.75
 40
0.75
 40
1.0
 40
1.0
 40
1.0
 40
1.0
 10
182.0613343393027
 20
519.1061860070232
 30
0.0
 10
183.0668118716334
 20
521.042823289838
 30
0.0
 10
184.1583851145045
 20
522.9916881401228
 30
0.0
 10
186.5393477562588
 20
526.7278069262605
 30
0.0
 10
187.843076731699
 20
528.5389175484685
 30
0.0
 10
190.7512532754722
 20
531.8897305147817
 30
0.0
 10
192.3559009987954
 20
533.4374495019567
 30
0.0
 10
196.0539522413723
 20
536.1351506776031
 30
0.0
 10
198.0599267699641
 20
537.222308106055
 30
0.0
 10
200.292346445974
 20
537.9580666811358
 30
0.0
  0
LINE
  5
417
330
3F2
100
AcDbEntity
  8
E05099
  6
Continuous
 62
     7
100
AcDbLine
 10
296.3808014094
 20
553.6352087278
 30
0.0
 11
202.1957442813
 21
550.3461940582
 31
0.0
  0
ARC
  5
418
330
3F2
100
AcDbEntity
  8
E05099
  6
Continuous
 62
     7
100
AcDbCircle
 10
296.2063039252
 20
558.6321628831
 30
0.0
 40
5.0000000202325
100
AcDbArc
 50
272.0
 51
346.108776633
  0
ARC
  5
419
330
3F2
100
AcDbEntity
  8
E05099
  6
Continuous
 62
     7
100
AcDbCircle
 10
312.710216787
 20
554.5552959892
 30
0.0
 40
11.9999999999995
100
AcDbArc
 50
272.0
 51
166.1308198185
  0
LINE
  5
41A
330
3F2
100
AcDbEntity
  8
E05099
  6
Continuous
 62
     7
100
AcDbLine
 10
205.6582018397
 20
538.80964272
 30
0.0
 11
313.1290107474
 21
542.562606065
 31
0.0
  0
ARC
  5
41B
330
3F2
100
AcDbEntity
  8
E05099
  6
Continuous
 62
     7
100
AcDbCircle
 10
206.4255880148
 20
516.6431240388
 30
0.0
 40
22.17979783466793
100
AcDbArc
 50
91.9827397047
 51
106.0528421876
  0
LINE
  5
41C
330
3F2
100
AcDbEntity
  8
E05099
  6
Continuous
 62
     7
100
AcDbLine
 10
313.1644352253
 20
540.5698855655
 30
0.0
 11
205.6936263176
 21
536.8169222205
 31
0.0
  0
ARC
  5
41D
330
3F2
100
AcDbEntity
  8
E05099
  6
Continuous
 62
     7
100
AcDbCircle
 10
242.756148014
 20
-547.3144716681
 30
0.0
 40
1098.409797586356
100
AcDbArc
 50
92.1162123818
 51
92.4855851663
  0
SPLINE
  5
41E
330
3F2
100
AcDbEntity
  8
E05099
  6
Continuous
 62
     7
100
AcDbSpline
210
0.0
220
0.0
230
1.0
 70
     8
 71
     3
 72
    20
 73
    16
 74
     0
 42
0.000000000525269
 43
0.0000000001
 40
0.0
 40
0.0
 40
0.0
 40
0.0
 40
0.2500000000000001
 40
0.2500000000000001
 40
0.3750000000000001
 40
0.3750000000000001
 40
0.5000000000000001
 40
0.5000000000000001
 40
0.7500000000000001
 40
0.7500000000000001
 40
0.8750000000000001
 40
0.8750000000000001
 40
0.9375000000000001
 40
0.9375000000000001
 40
1.0
 40
1.0
 40
1.0
 40
1.0
 10
195.1202689282597
 20
550.0619024430986
 30
0.0
 10
193.4467192213138
 20
549.9874655575734
 30
0.0
 10
191.9120355405272
 20
550.1320150019178
 30
0.0
 10
189.7864336079228
 20
550.6253373592601
 30
0.0
 10
189.1206552500431
 20
550.8402706298538
 30
0.0
 10
187.8159891812367
 20
551.3931033586155
 30
0.0
 10
187.1649876869616
 20
551.723746388876
 30
0.0
 10
185.0875089881326
 20
552.5815599359591
 30
0.0
 10
183.5574490912244
 20
553.0006981538983
 30
0.0
 10
181.0900000843937
 20
553.571051658249
 30
0.0
 10
180.2445514140753
 20
553.7495289712047
 30
0.0
 10
178.9488934566616
 20
554.008427619575
 30
0.0
 10
178.513190733277
 20
554.0930132996152
 30
0.0
 10
177.634117362786
 20
554.259584896357
 30
0.0
 10
177.1801143017311
 20
554.3436222494718
 30
0.0
 10
176.7469314847411
 20
554.4218230764118
 30
0.0
  0
ARC
  5
41F
330
3F2
100
AcDbEntity
  8
E05099
  6
Continuous
 62
     7
100
AcDbCircle
 10
312.6758422714
 20
554.5613571438
 30
0.0
 40
13.99999999999948
100
AcDbArc
 50
272.0
 51
166.1308198242
  0
LINE
  5
420
330
3F2
100
AcDbEntity
  8
E05099
  6
Continuous
 62
     7
100
AcDbLine
 10
202.0915707724
 20
552.3510368668
 30
0.0
 11
296.2766279005
 21
555.6400515363
 31
0.0
  0
LINE
  5
421
330
3F2
100
AcDbEntity
  8
E05099
  6
Continuous
 62
     7
100
AcDbLine
 10
194.3088055271
 20
552.0792567157
 30
0.0
 11
202.0915707724
 21
552.3510368668
 31
0.0
  0
ARC
  5
422
330
3F2
100
AcDbEntity
  8
E05099
  6
Continuous
 62
     7
100
AcDbCircle
 10
296.1719294097
 20
558.6382240376
 30
0.0
 40
3.000000020232527
100
AcDbArc
 50
272.0
 51
346.0940811767
  0
ARC
  5
423
330
3F2
100
AcDbEntity
  8
E05099
  6
Continuous
 62
     7
100
AcDbCircle
 10
159.3865247077
 20
554.7887802575
 30
0.0
 40
3.000000000000028
100
AcDbArc
 50
80.0
 51
170.0
  0
LINE
  5
424
330
3F2
100
AcDbEntity
  8
E05099
  6
Continuous
 62
     7
100
AcDbLine
 10
184.0710125621
 20
504.7420415089
 30
0.0
 11
186.815403814
 21
520.3062577222
 31
0.0
  0
LINE
  5
425
330
3F2
100
AcDbEntity
  8
E05099
  6
Continuous
 62
     7
100
AcDbLine
 10
156.4321014486
 20
555.3097247905
 30
0.0
 11
148.6179334536
 21
510.9933759049
 31
0.0
  0
ARC
  5
426
330
3F2
100
AcDbEntity
  8
E05099
  6
Continuous
 62
     7
100
AcDbCircle
 10
206.5115588743
 20
516.8332941688
 30
0.0
 40
20.0
100
AcDbArc
 50
92.0
 51
170.0273416366
  0
ARC
  5
427
330
3F2
100
AcDbEntity
  8
E05099
  6
Continuous
 62
     7
100
AcDbCircle
 10
193.7373088225
 20
572.0714904877
 30
0.0
 40
19.99999999075179
100
AcDbArc
 50
257.8726915565
 51
271.9999972588
  0
ARC
  5
428
330
3F2
100
AcDbEntity
  8
E02773
  6
Continuous
 62
     7
100
AcDbCircle
 10
174.2020530473
 20
552.4302595307
 30
0.0
 40
5.246665607793326
100
AcDbArc
 50
32.5306635475
 51
127.4693364525
  0
LINE
  5
429
330
3F2
100
AcDbEntity
  8
E02773
  6
Continuous
 62
     7
100
AcDbLine
 10
171.0103135162
 20
556.594427967
 30
0.0
 11
170.9393371447
 21
556.6069430163
 31
0.0
  0
LINE
  5
42A
330
3F2
100
AcDbEntity
  8
E02773
  6
Continuous
 62
     7
100
AcDbLine
 10
178.6255366175
 20
555.2516586702
 30
0.0
 11
178.696512989
 21
555.2391436209
 31
0.0
  0
ARC
  5
42B
330
3F2
100
AcDbEntity
  8
E02773
  6
Continuous
 62
     7
100
AcDbCircle
 10
174.2020530473
 20
552.4302595307
 30
0.0
 40
5.300000000000129
100
AcDbArc
 50
21.2563447073
 51
32.0039771869
  0
ARC
  5
42C
330
3F2
100
AcDbEntity
  8
E02773
  6
Continuous
 62
     7
100
AcDbCircle
 10
174.2020530473
 20
552.4302595307
 30
0.0
 40
5.300000000000124
100
AcDbArc
 50
127.9960228131
 51
138.7436552927
  0
LINE
  5
42D
330
3F2
100
AcDbEntity
  8
$DDT_AUDIT_GENERATED_(F4)
  6
Continuous
 62
     7
100
AcDbLine
 10
251.6162754669
 20
480.1872222276
 30
0.0
 11
230.4429087772
 21
476.4537864079
 31
0.0
  0
LINE
  5
42E
330
3F2
100
AcDbEntity
  8
$DDT_AUDIT_GENERATED_(F4)
  6
Continuous
 62
     7
100
AcDbLine
 10
251.1743140975
 20
488.7404187148
 30
0.0
 11
227.9328511264
 21
484.6423217219
 31
0.0
  0
LINE
  5
42F
330
3F2
100
AcDbEntity
  8
$DDT_AUDIT_GENERATED_(F4)
  6
Continuous
 62
     7
100
AcDbLine
 10
252.1027790289
 20
480.595447187
 30
0.0
 11
243.5216600522
 21
479.0823643868
 31
0.0
  0
SPLINE
  5
430
330
3F2
100
AcDbEntity
  8
$DDT_AUDIT_GENERATED_(F4)
  6
Continuous
 62
     7
100
AcDbSpline
210
0.0
220
0.0
230
1.0
 70
     8
 71
     3
 72
    10
 73
     6
 74
     0
 42
0.0000000019260148
 43
0.0000000001
 40
0.0
 40
0.0
 40
0.0
 40
0.0
 40
0.5
 40
0.5
 40
1.0
 40
1.0
 40
1.0
 40
1.0
 10
243.5216600521996
 20
479.0823643868029
 30
0.0
 10
242.692516889029
 20
478.8204888692892
 30
0.0
 10
241.8538160332435
 20
478.6124117089408
 30
0.0
 10
240.1556804830322
 20
478.3129640560088
 30
0.0
 10
239.2962455093129
 20
478.2215951355125
 30
0.0
 10
238.4272427875699
 20
478.1840811720853
 30
0.0
  0
LINE
  5
431
330
3F2
100
AcDbEntity
  8
$DDT_AUDIT_GENERATED_(F4)
  6
Continuous
 62
     7
100
AcDbLine
 10
252.4447991723
 20
481.5351398078
 30
0.0
 11
245.0300154636
 21
480.2277133839
 31
0.0
  0
LINE
  5
432
330
3F2
100
AcDbEntity
  8
$DDT_AUDIT_GENERATED_(F4)
  6
Continuous
 62
     7
100
AcDbLine
 10
244.7145953659
 20
482.0165496493
 30
0.0
 11
236.3026998122
 21
480.5333055043
 31
0.0
  0
LINE
  5
433
330
3F2
100
AcDbEntity
  8
$DDT_AUDIT_GENERATED_(F4)
  6
Continuous
 62
     7
100
AcDbLine
 10
244.7145953659
 20
482.0165496493
 30
0.0
 11
245.0300154636
 21
480.2277133839
 31
0.0
  0
SPLINE
  5
434
330
3F2
100
AcDbEntity
  8
$DDT_AUDIT_GENERATED_(F4)
  6
Continuous
 62
     7
100
AcDbSpline
210
0.0
220
0.0
230
1.0
 70
     8
 71
     3
 72
    14
 73
    10
 74
     0
 42
0.0000000049321089
 43
0.0000000001
 40
0.0
 40
0.0
 40
0.0
 40
0.0
 40
0.1250000000000004
 40
0.1250000000000004
 40
0.2500000000000009
 40
0.2500000000000009
 40
0.5000000000000008
 40
0.5000000000000008
 40
1.0
 40
1.0
 40
1.0
 40
1.0
 10
245.0300154635589
 20
480.2277133838873
 30
0.0
 10
245.0446438116012
 20
480.1447518995816
 30
0.0
 10
245.0276107507556
 20
480.0563133043241
 30
0.0
 10
244.9574399941996
 20
479.9025950534371
 30
0.0
 10
244.9055200859956
 20
479.8335143621258
 30
0.0
 10
244.7325255483669
 20
479.6495585652664
 30
0.0
 10
244.5913050704664
 20
479.5521513309442
 30
0.0
 10
244.1574494362442
 20
479.301635070137
 30
0.0
 10
243.8407983877195
 20
479.1831606310283
 30
0.0
 10
243.5216600521996
 20
479.0823643868029
 30
0.0
  0
SPLINE
  5
435
330
3F2
100
AcDbEntity
  8
$DDT_AUDIT_GENERATED_(F4)
  6
Continuous
 62
     7
100
AcDbSpline
210
0.0
220
0.0
230
1.0
 70
     8
 71
     3
 72
    18
 73
    14
 74
     0
 42
0.0000000049401632
 43
0.0000000001
 40
0.0
 40
0.0
 40
0.0
 40
0.0
 40
0.2499999999999998
 40
0.2499999999999998
 40
0.4999999999999997
 40
0.4999999999999997
 40
0.6249999999999992
 40
0.6249999999999992
 40
0.7499999999999989
 40
0.7499999999999989
 40
0.8749999999999994
 40
0.8749999999999994
 40
1.0
 40
1.0
 40
1.0
 40
1.0
 10
238.4272427875699
 20
478.1840811720853
 30
0.0
 10
238.2595595115793
 20
478.1768424556512
 30
0.0
 10
238.0918206751916
 20
478.1747574947506
 30
0.0
 10
237.7561619921796
 20
478.1873779948986
 30
0.0
 10
237.5883193325415
 20
478.2019059610055
 30
0.0
 10
237.3415031950727
 20
478.2456408742142
 30
0.0
 10
237.2599205961727
 20
478.263920559059
 30
0.0
 10
237.0988481841544
 20
478.3117153061247
 30
0.0
 10
237.0189048098155
 20
478.3414205525131
 30
0.0
 10
236.8695059518832
 20
478.4169236240532
 30
0.0
 10
236.7979846849579
 20
478.4633180890399
 30
0.0
 10
236.6786285390889
 20
478.5845931011215
 30
0.0
 10
236.6330104118272
 20
478.6600210057986
 30
0.0
 10
236.6181199098574
 20
478.7444692389071
 30
0.0
  0
LINE
  5
436
330
3F2
100
AcDbEntity
  8
$DDT_AUDIT_GENERATED_(F4)
  6
Continuous
 62
     7
100
AcDbLine
 10
236.6181199099
 20
478.7444692389
 30
0.0
 11
236.3026998122
 21
480.5333055043
 31
0.0
  0
LINE
  5
437
330
3F2
100
AcDbEntity
  8
$DDT_AUDIT_GENERATED_(F4)
  6
Continuous
 62
     7
100
AcDbLine
 10
238.4272427876
 20
478.1840811721
 30
0.0
 11
229.8461238108
 21
476.6709983719
 31
0.0
  0
LINE
  5
438
330
3F2
100
AcDbEntity
  8
$DDT_AUDIT_GENERATED_(F4)
  6
Continuous
 62
     7
100
AcDbLine
 10
229.2033362012
 20
477.437042815
 30
0.0
 11
236.6181199099
 21
478.7444692389
 31
0.0
  0
LINE
  5
439
330
3F2
100
AcDbEntity
  8
$DDT_AUDIT_GENERATED_(F4)
  6
Continuous
 62
     7
100
AcDbLine
 10
229.8461238108
 20
476.6709983719
 30
0.0
 11
230.4429087772
 21
476.4537864079
 31
0.0
  0
LINE
  5
43A
330
3F2
100
AcDbEntity
  8
$DDT_AUDIT_GENERATED_(F4)
  6
Continuous
 62
     7
100
AcDbLine
 10
251.6162754669
 20
480.1872222276
 30
0.0
 11
252.1027790289
 21
480.595447187
 31
0.0
  0
ARC
  5
43B
330
3F2
100
AcDbEntity
  8
$DDT_AUDIT_GENERATED_(F4)
  6
Continuous
 62
     7
100
AcDbCircle
 10
230.1881439542
 20
477.6106909926
 30
0.0
 40
1.000000000000002
100
AcDbArc
 50
189.9999999997
 51
249.9999999997
  0
ARC
  5
43C
330
3F2
100
AcDbEntity
  8
$DDT_AUDIT_GENERATED_(F4)
  6
Continuous
 62
     7
100
AcDbCircle
 10
251.4599914192
 20
481.3614916302
 30
0.0
 40
1.000000000000003
100
AcDbArc
 50
309.9999999997
 51
9.9999999997
  0
LINE
  5
43D
330
3F2
100
AcDbEntity
  8
$DDT_AUDIT_GENERATED_(F4)
  6
Continuous
 62
     7
100
AcDbLine
 10
227.9328511264
 20
484.6423217219
 30
0.0
 11
229.2033362012
 21
477.437042815
 31
0.0
  0
LINE
  5
43E
330
3F2
100
AcDbEntity
  8
$DDT_AUDIT_GENERATED_(F4)
  6
Continuous
 62
     7
100
AcDbLine
 10
252.4447991723
 20
481.5351398078
 30
0.0
 11
251.1743140975
 21
488.7404187148
 31
0.0
  0
LINE
  5
43F
330
3F2
100
AcDbEntity
  8
4221035_0__HUELS
  6
Continuous
 62
     7
100
AcDbLine
 10
231.7810816526
 20
476.63897106
 30
0.0
 11
250.2954674093
 21
479.9035568001
 31
0.0
  0
LINE
  5
440
330
3F2
100
AcDbEntity
  8
4221035_0__HUELS
  6
Continuous
 62
     7
100
AcDbLine
 10
250.2954674093
 20
479.9035568001
 30
0.0
 11
250.2867850004
 21
479.9527971878
 31
0.0
  0
LINE
  5
441
330
3F2
100
AcDbEntity
  8
4221035_0__HUELS
  6
Continuous
 62
     7
100
AcDbLine
 10
231.7723992437
 20
476.6882114477
 30
0.0
 11
231.7810816526
 21
476.63897106
 31
0.0
  0
ENDBLK
  5
443
330
3F2
100
AcDbEntity
  8
0
100
AcDbBlockEnd
  0
BLOCK
  5
48F
330
444
100
AcDbEntity
  8
0
100
AcDbBlockBegin
  2
SE2
 70
     0
 10
0.0
 20
0.0
 30
0.0
  3
SE2
  1

  0
ARC
  5
446
330
444
100
AcDbEntity
  8
04676329_ROHLING
  6
Continuous
 62
     7
100
AcDbCircle
 10
30.7075039736
 20
305.5358807034
 30
0.0
 40
130.4269120681823
100
AcDbArc
 50
264.1995843543
 51
268.1838937967
  0
ARC
  5
447
330
444
100
AcDbEntity
  8
04676329_ROHLING
  6
Continuous
 62
     7
100
AcDbCircle
 10
30.7075039736
 20
305.5358807034
 30
0.0
 40
130.4269120681823
100
AcDbArc
 50
271.8114397734
 51
275.7959803264
  0
SPLINE
  5
448
330
444
100
AcDbEntity
  8
04676329_ROHLING
  6
Continuous
 62
     7
100
AcDbSpline
210
0.0
220
0.0
230
1.0
 70
    12
 71
     3
 72
    11
 73
     7
 74
     0
 42
0.0000000091704156
 43
0.0000000001
 40
0.8943787514963245
 40
0.8943787514963245
 40
0.8943787514963245
 40
0.8943787514963245
 40
0.9110390640405573
 40
0.9478904735504678
 40
0.9752049035404521
 40
1.0
 40
1.0
 40
1.0
 40
1.0
 10
17.49310790701421
 20
175.6677727057125
 30
0.0
 41
1.0
 10
17.49383869699348
 20
175.6676646109479
 30
0.0
 41
1.0
 10
17.49656433243493
 20
175.6699873593487
 30
0.0
 41
1.0
 10
17.50271616617097
 20
175.686809776057
 30
0.0
 41
1.0
 10
17.51314970339973
 20
175.7253876257334
 30
0.0
 41
1.0
 10
17.52114720749246
 20
175.7581705515177
 30
0.0
 41
1.0
 10
17.52610186398181
 20
175.776757594184
 30
0.0
 41
1.0
  0
SPLINE
  5
449
330
444
100
AcDbEntity
  8
04676329_ROHLING
  6
Continuous
 62
     7
100
AcDbSpline
210
0.0
220
0.0
230
1.0
 70
    12
 71
     3
 72
    11
 73
     7
 74
     0
 42
0.000000009258415
 43
0.0000000001
 40
0.0
 40
0.0
 40
0.0
 40
0.0
 40
0.0247950964595479
 40
0.0521095264495322
 40
0.0889609359594427
 40
0.1056387642675173
 40
0.1056387642675173
 40
0.1056387642675173
 40
0.1056387642675173
 10
43.87886127013881
 20
175.7757375984508
 30
0.0
 41
1.0
 10
43.88345064395051
 20
175.7581705515177
 30
0.0
 41
1.0
 10
43.89144814804325
 20
175.7253876257334
 30
0.0
 41
1.0
 10
43.901881685272
 20
175.686809776057
 30
0.0
 41
1.0
 10
43.90803485216648
 20
175.6699837137776
 30
0.0
 41
1.0
 10
43.9107609386464
 20
175.6676630913017
 30
0.0
 41
1.0
 10
43.91149224897892
 20
175.6677730494042
 30
0.0
 41
1.0
  0
ARC
  5
44A
330
444
100
AcDbEntity
  8
04676329_ROHLING
  6
Continuous
 62
     7
100
AcDbCircle
 10
175.4413482752
 20
182.1123727237
 30
0.0
 40
131.7092029559577
100
AcDbArc
 50
179.3910412417
 51
182.649619595
  0
ARC
  5
44B
330
444
100
AcDbEntity
  8
04676329_ROHLING
  6
Continuous
 62
     7
100
AcDbCircle
 10
36.8088295242
 20
175.7313750134
 30
0.0
 40
7.07017092637594
100
AcDbArc
 50
0.3595111908
 51
2.3696882922
  0
ARC
  5
44C
330
444
100
AcDbEntity
  8
04676329_ROHLING
  6
Continuous
 62
     7
100
AcDbCircle
 10
23.7544648392
 20
175.7624902282
 30
0.0
 40
6.228379316389707
100
AcDbArc
 50
177.5962726018
 51
179.8687522825
  0
ARC
  5
44D
330
444
100
AcDbEntity
  8
04676329_ROHLING
  6
Continuous
 62
     7
100
AcDbCircle
 10
-129.3546626417
 20
182.3867159242
 30
0.0
 40
147.0239842100745
100
AcDbArc
 50
357.5195397641
 51
0.4386056358
  0
LINE
  5
44E
330
444
100
AcDbEntity
  8
04676329_ROHLING
  6
Continuous
 62
     7
100
AcDbLine
 10
17.6644856473
 20
246.6211221561
 30
0.0
 11
17.6644856473
 21
183.5122544121
 31
0.0
  0
LINE
  5
44F
330
444
100
AcDbEntity
  8
04676329_ROHLING
  6
Continuous
 62
     7
100
AcDbLine
 10
43.7401121739
 20
183.5122544031
 30
0.0
 11
43.7401121739
 21
246.6145147441
 31
0.0
  0
ARC
  5
450
330
444
100
AcDbEntity
  8
04676329_ROHLING
  6
Continuous
 62
     7
100
AcDbCircle
 10
-62.9102264705
 20
182.5402395478
 30
0.0
 40
78.7664452212081
100
AcDbArc
 50
356.4734586541
 51
356.4832986988
  0
ARC
  5
451
330
444
100
AcDbEntity
  8
04676329_ROHLING
  6
Continuous
 62
     7
100
AcDbCircle
 10
-62.9102264705
 20
182.5402395478
 30
0.0
 40
78.7664452212081
100
AcDbArc
 50
356.4832986988
 51
356.5027578522
  0
ELLIPSE
  5
452
330
444
100
AcDbEntity
  8
04676329_ROHLING
  6
Continuous
 62
     7
100
AcDbEllipse
 10
17.7030344515
 20
177.7355238376
 30
0.0
 11
-2.000353898137606
 21
0.01717522671761118
 31
0.0
210
0.0
220
0.0
230
0.9999999999999998
 40
0.983050802
 41
0.0085575775895556
 42
1.490673473043652
  0
ARC
  5
453
330
444
100
AcDbEntity
  8
04676329_ROHLING
  6
Continuous
 62
     7
100
AcDbCircle
 10
123.584916715
 20
182.501823497
 30
0.0
 40
78.03655535162697
100
AcDbArc
 50
183.5175195956
 51
183.5260520314
  0
ARC
  5
454
330
444
100
AcDbEntity
  8
04676329_ROHLING
  6
Continuous
 62
     7
100
AcDbCircle
 10
123.584916715
 20
182.501823497
 30
0.0
 40
78.03655535162697
100
AcDbArc
 50
183.5017802301
 51
183.5175195956
  0
ARC
  5
455
330
444
100
AcDbEntity
  8
04676329_ROHLING
  6
Continuous
 62
     7
100
AcDbCircle
 10
43.7185411436
 20
177.7527673188
 30
0.0
 40
1.983519361653928
100
AcDbArc
 50
274.6360513327
 51
359.5119167472
  0
ARC
  5
456
330
444
100
AcDbEntity
  8
04676329_ROHLING
  6
Continuous
 62
     7
100
AcDbCircle
 10
30.4674691277
 20
267.2567757797
 30
0.0
 40
17.7051355138562
100
AcDbArc
 50
89.2400424816
 51
180.0662536595
  0
ARC
  5
457
330
444
100
AcDbEntity
  8
04676329_ROHLING
  6
Continuous
 62
     7
100
AcDbCircle
 10
30.9371287019
 20
267.2567757479
 30
0.0
 40
17.70513554532955
100
AcDbArc
 50
359.948585579
 51
90.7599574464
  0
ARC
  5
458
330
444
100
AcDbEntity
  8
04676329_ROHLING
  6
Continuous
 62
     7
100
AcDbCircle
 10
30.7342672752
 20
286.0096540211
 30
0.0
 40
22.83005657138595
100
AcDbArc
 50
150.0448867019
 51
194.9384881256
  0
ARC
  5
459
330
444
100
AcDbEntity
  8
04676329_ROHLING
  6
Continuous
 62
     7
100
AcDbCircle
 10
30.695037665
 20
286.0566472522
 30
0.0
 40
22.77261245156253
100
AcDbArc
 50
89.9817310339
 51
150.098043505
  0
ARC
  5
45A
330
444
100
AcDbEntity
  8
04676329_ROHLING
  6
Continuous
 62
     7
100
AcDbCircle
 10
30.6870866194
 20
286.0133590346
 30
0.0
 40
22.81590458282209
100
AcDbArc
 50
29.9808344587
 51
89.9617988629
  0
ARC
  5
45B
330
444
100
AcDbEntity
  8
04676329_ROHLING
  6
Continuous
 62
     7
100
AcDbCircle
 10
30.662657307
 20
286.0137525383
 30
0.0
 40
22.8368718823352
100
AcDbArc
 50
345.0682011874
 51
29.9351631493
  0
ARC
  5
45C
330
444
100
AcDbEntity
  8
04676329_ROHLING
  6
Continuous
 62
     7
100
AcDbCircle
 10
30.8537688923
 20
305.8255017775
 30
0.0
 40
130.8028053189541
100
AcDbArc
 50
264.1357805927
 51
268.1255036262
  0
ARC
  5
45D
330
444
100
AcDbEntity
  8
04676329_ROHLING
  6
Continuous
 62
     7
100
AcDbCircle
 10
30.8537688923
 20
305.8255017775
 30
0.0
 40
130.8028053189541
100
AcDbArc
 50
271.7415467446
 51
275.7322526591
  0
ARC
  5
45E
330
444
100
AcDbEntity
  8
04676329_ROHLING
  6
Continuous
 62
     7
100
AcDbCircle
 10
17.7066107055
 20
177.6608107275
 30
0.0
 40
2.004441041116822
100
AcDbArc
 50
178.9180267849
 51
263.8855276713
  0
ARC
  5
45F
330
444
100
AcDbEntity
  8
04676329_ROHLING
  6
Continuous
 62
     7
100
AcDbCircle
 10
43.6965615766
 20
177.6620676146
 30
0.0
 40
2.005843033356945
100
AcDbArc
 50
276.1511371239
 51
1.0453084199
  0
LINE
  5
460
330
444
100
AcDbEntity
  8
04676329_ROHLING
  6
Continuous
 62
     7
100
AcDbLine
 10
48.7022989257
 20
265.0218795128
 30
0.0
 11
52.7298955138
 21
280.1290083105
 31
0.0
  0
LINE
  5
461
330
444
100
AcDbEntity
  8
04676329_ROHLING
  6
Continuous
 62
     7
100
AcDbLine
 10
8.6759373402
 20
280.1243759365
 30
0.0
 11
12.7022989257
 21
265.0218795132
 31
0.0
  0
SPLINE
  5
462
330
444
100
AcDbEntity
  8
04676329_ROHLING
  6
Continuous
 62
     7
100
AcDbSpline
210
0.0
220
0.0
230
1.0
 70
     8
 71
     3
 72
     8
 73
     4
 74
     0
 42
0.0000000001383073
 43
0.0000000001
 40
0.0
 40
0.0
 40
0.0
 40
0.0
 40
0.9865722567556466
 40
0.9865722567556466
 40
0.9865722567556466
 40
0.9865722567556466
 10
45.70209705577751
 20
177.7188390799766
 30
0.0
 10
45.70159277040236
 20
198.4101242601446
 30
0.0
 10
45.70147434407806
 20
222.1874258232518
 30
0.0
 10
45.70174177680457
 20
249.050743769298
 30
0.0
  0
SPLINE
  5
463
330
444
100
AcDbEntity
  8
04676329_ROHLING
  6
Continuous
 62
     7
100
AcDbSpline
210
0.0
220
0.0
230
1.0
 70
     8
 71
     3
 72
     8
 73
     4
 74
     0
 42
0.0000000001383077
 43
0.0000000001
 40
0.013449815217795
 40
0.013449815217795
 40
0.013449815217795
 40
0.013449815217795
 40
1.0
 40
1.0
 40
1.0
 40
1.0
 10
15.70285619539196
 20
249.0489391290193
 30
0.0
 10
15.7031235416644
 20
222.1863571180716
 30
0.0
 10
15.7030050742794
 20
198.4096571107341
 30
0.0
 10
15.70250079323698
 20
177.7188391070067
 30
0.0
  0
ARC
  5
464
330
444
100
AcDbEntity
  8
04676329_ROHLING
  6
Continuous
 62
     7
100
AcDbCircle
 10
30.7022989257
 20
287.7601452313
 30
0.0
 40
24.01574879999963
100
AcDbArc
 50
0.0
 51
209.2206682208
  0
ARC
  5
465
330
444
100
AcDbEntity
  8
04676329_ROHLING
  6
Continuous
 62
     7
100
AcDbCircle
 10
30.7022989257
 20
287.7601452313
 30
0.0
 40
24.01574879999963
100
AcDbArc
 50
330.6049646729
 51
0.0
  0
ELLIPSE
  5
466
330
444
100
AcDbEntity
  8
E05099
  6
Continuous
 62
     7
100
AcDbEllipse
 10
30.7022989257
 20
258.3462567356
 30
0.0
 11
14.99999999999972
 21
-3.122502256758253E-13
 31
0.0
210
0.0
220
0.0
230
1.0
 40
0.984807753
 41
0.0
 42
6.283185307179586
  0
ELLIPSE
  5
467
330
444
100
AcDbEntity
  8
E05099
  6
Continuous
 62
     7
100
AcDbEllipse
 10
30.7022989257
 20
266.6813692636
 30
0.0
 11
17.99999999999993
 21
-2.772088114610938E-12
 31
0.0
210
0.0
220
0.0
230
1.0
 40
0.984807753
 41
0.0
 42
3.141592653589946
  0
ELLIPSE
  5
468
330
444
100
AcDbEntity
  8
E05099
  6
Continuous
 62
     7
100
AcDbEllipse
 10
30.7022989257
 20
258.8672012686
 30
0.0
 11
18.00000000000012
 21
7.924216838262055E-12
 31
0.0
210
0.0
220
0.0
230
1.0
 40
0.984807753
 41
3.057452644165038
 42
3.222497596329544
  0
ELLIPSE
  5
469
330
444
100
AcDbEntity
  8
E05099
  6
Continuous
 62
     7
100
AcDbEllipse
 10
30.7022989257
 20
258.8672012686
 30
0.0
 11
18.00000000000012
 21
7.924216838262055E-12
 31
0.0
210
0.0
220
0.0
230
1.0
 40
0.984807753
 41
0.0286611480127779
 42
3.057452644165038
  0
ELLIPSE
  5
46A
330
444
100
AcDbEntity
  8
E05099
  6
Continuous
 62
     7
100
AcDbEllipse
 10
30.7022989257
 20
258.8672012686
 30
0.0
 11
18.00000000000012
 21
7.924216838262055E-12
 31
0.0
210
0.0
220
0.0
230
1.0
 40
0.984807753
 41
-0.000000000000447
 42
0.0286611480127779
  0
LINE
  5
46B
330
444
100
AcDbEntity
  8
E05099
  6
Continuous
 62
     7
100
AcDbLine
 10
27.2325337713
 20
136.6450408621
 30
0.0
 11
25.6234734634
 21
230.8300979901
 31
0.0
  0
ELLIPSE
  5
46C
330
444
100
AcDbEntity
  8
E05099
  6
Continuous
 62
     7
100
AcDbEllipse
 10
27.2143882188
 20
136.8195383463
 30
0.0
 11
0.08595016891392539
 21
-5.000000013449579
 31
0.0
210
0.0
220
0.0
230
1.0
 40
0.0030301435
 41
0.2423954966157283
 42
1.535837653485748
  0
ELLIPSE
  5
46D
330
444
100
AcDbEntity
  8
E05099
  6
Continuous
 62
     7
100
AcDbEllipse
 10
27.5104455742
 20
120.3156254845
 30
0.0
 11
-0.2062804045586978
 21
11.99999998372037
 31
0.0
210
0.0
220
0.0
230
0.9999999999999998
 40
0.0030301435
 41
0.242010770450993
 42
2.962247820054953
  0
SPLINE
  5
46E
330
444
100
AcDbEntity
  8
E05099
  6
Continuous
 62
     7
100
AcDbSpline
210
0.0
220
0.0
230
1.0
 70
     8
 71
     3
 72
    20
 73
    16
 74
     0
 42
0.0000000004675062
 43
0.0000000001
 40
0.0
 40
0.0
 40
0.0
 40
0.0
 40
0.0625
 40
0.0625
 40
0.125
 40
0.125
 40
0.2499999999999998
 40
0.2499999999999998
 40
0.4999999999999996
 40
0.4999999999999996
 40
0.6249999999999996
 40
0.6249999999999996
 40
0.7499999999999997
 40
0.7499999999999997
 40
1.0
 40
1.0
 40
1.0
 40
1.0
 10
14.44506498028886
 20
256.2789107866968
 30
0.0
 10
14.53030434322077
 20
255.8505447825917
 30
0.0
 10
14.6384705049495
 20
255.3984134470067
 30
0.0
 10
14.885484906101
 20
254.5314739928382
 30
0.0
 10
15.02696408641697
 20
254.1022944097622
 30
0.0
 10
15.5015152786625
 20
252.8370044587368
 30
0.0
 10
15.88706857122611
 20
252.0178208407233
 30
0.0
 10
17.22059226133204
 20
249.6745676897501
 30
0.0
 10
18.33647260554951
 20
248.3015094724245
 30
0.0
 10
20.19986465714133
 20
246.4016963055789
 30
0.0
 10
20.84755738972497
 20
245.7911491481609
 30
0.0
 10
22.10014582445029
 20
244.5347644124007
 30
0.0
 10
22.70411636327746
 20
243.8877270178638
 30
0.0
 10
24.39204496991218
 20
241.836409488273
 30
0.0
 10
25.33327309827305
 20
240.3502395290292
 30
0.0
 10
26.05809222356093
 20
238.7170367443607
 30
0.0
  0
ARC
  5
46F
330
444
100
AcDbEntity
  8
E05099
  6
Continuous
 62
     7
100
AcDbCircle
 10
5.607483051
 20
230.4861895241
 30
0.0
 40
20.01894465797845
100
AcDbArc
 50
0.9843412485
 51
21.7537439613
  0
SPLINE
  5
470
330
444
100
AcDbEntity
  8
E05099
  6
Continuous
 62
     7
100
AcDbSpline
210
0.0
220
0.0
230
1.0
 70
     8
 71
     3
 72
    10
 73
     6
 74
     0
 42
0.0000000004682837
 43
0.0000000001
 40
0.0
 40
0.0
 40
0.0
 40
0.0
 40
0.2500000000000001
 40
0.2500000000000001
 40
0.2532392456154285
 40
0.2532392456154285
 40
0.2532392456154285
 40
0.2532392456154285
 10
24.20078531190699
 20
237.9055733431782
 30
0.0
 10
23.53324363819105
 20
239.5791230501241
 30
0.0
 10
22.65417732551686
 20
241.1138067309108
 30
0.0
 10
21.58206380900934
 20
242.5492356106212
 30
0.0
 10
21.56832370377681
 20
242.5675678234279
 30
0.0
 10
21.5545580709808
 20
242.5858718344609
 30
0.0
  0
ELLIPSE
  5
471
330
444
100
AcDbEntity
  8
E05099
  6
Continuous
 62
     7
100
AcDbEllipse
 10
29.5101409648
 20
120.35
 30
0.0
 11
-0.2062799021498032
 21
13.99999998974632
 31
0.0
210
0.0
220
0.0
230
0.9999999999999997
 40
0.0025974694
 41
0.242024586780502
 42
3.141554381898642
  0
LINE
  5
472
330
444
100
AcDbEntity
  8
E05099
  6
Continuous
 62
     7
100
AcDbLine
 10
27.6231688539
 20
230.934271499
 30
0.0
 11
29.2322291619
 21
136.749214371
 31
0.0
  0
ARC
  5
473
330
444
100
AcDbEntity
  8
E05099
  6
Continuous
 62
     7
100
AcDbCircle
 10
5.6117093572
 20
230.5566202524
 30
0.0
 40
22.0146989449946
100
AcDbArc
 50
0.9829289061
 51
21.757582853
  0
ELLIPSE
  5
474
330
444
100
AcDbEntity
  8
E05099
  6
Continuous
 62
     7
100
AcDbEllipse
 10
29.2140836094
 20
136.8539128618
 30
0.0
 11
0.08595157040821624
 21
-2.999999988861801
 31
0.0
210
0.0
220
0.0
230
0.9999999999999999
 40
0.0050475883
 41
0.2425594529361904
 42
1.535745125708964
  0
LINE
  5
475
330
444
100
AcDbEntity
  8
E05099
  6
Continuous
 62
     7
100
AcDbLine
 10
35.7811262441
 20
230.8300999063
 30
0.0
 11
34.1720644919
 21
136.6450408319
 31
0.0
  0
ELLIPSE
  5
476
330
444
100
AcDbEntity
  8
E05099
  6
Continuous
 62
     7
100
AcDbEllipse
 10
34.1902100604
 20
136.8195383161
 30
0.0
 11
-0.08595024428183953
 21
-5.000000013449552
 31
0.0
210
0.0
220
0.0
230
1.0
 40
0.0030301462
 41
-1.535837653394431
 42
-0.2423954965244022
  0
ELLIPSE
  5
477
330
444
100
AcDbEntity
  8
E05099
  6
Continuous
 62
     7
100
AcDbEllipse
 10
33.8941524454
 20
120.3156254544
 30
0.0
 11
0.2062805854416896
 21
11.99999998372031
 31
0.0
210
0.0
220
0.0
230
1.0
 40
0.0030301462
 41
3.293761865840626
 42
6.041174536819802
  0
ELLIPSE
  5
478
330
444
100
AcDbEntity
  8
E05099
  6
Continuous
 62
     7
100
AcDbEllipse
 10
31.8944570553
 20
120.35
 30
0.0
 11
0.2062800830314757
 21
13.99999998974632
 31
0.0
210
0.0
220
0.0
230
1.0
 40
0.0025974717
 41
3.141630925513016
 42
6.041160720466159
  0
SPLINE
  5
479
330
444
100
AcDbEntity
  8
E05099
  6
Continuous
 62
     7
100
AcDbSpline
210
0.0
220
0.0
230
1.0
 70
     8
 71
     3
 72
    20
 73
    16
 74
     0
 42
0.0000000004675034
 43
0.0000000001
 40
0.0
 40
0.0
 40
0.0
 40
0.0
 40
0.2500000000000001
 40
0.2500000000000001
 40
0.3750000000000001
 40
0.3750000000000001
 40
0.5
 40
0.5
 40
0.7500000000000001
 40
0.7500000000000001
 40
0.8750000000000001
 40
0.8750000000000001
 40
0.9375000000000001
 40
0.9375000000000001
 40
1.0
 40
1.0
 40
1.0
 40
1.0
 10
35.34650686374239
 20
238.7170368238554
 30
0.0
 10
36.07592093960909
 20
240.3605935545693
 30
0.0
 10
37.01886819783832
 20
241.844082859372
 30
0.0
 10
38.6973209867808
 20
243.8838856685834
 30
0.0
 10
39.30273729940765
 20
244.5330084008272
 30
0.0
 10
40.55694915639921
 20
245.791092874606
 30
0.0
 10
41.2053274883966
 20
246.4022281664248
 30
0.0
 10
43.0712295805698
 20
248.3048223611642
 30
0.0
 10
44.19209906044357
 20
249.6854882940151
 30
0.0
 10
45.52526914444901
 20
252.0330936265957
 30
0.0
 10
45.90655975262208
 20
252.8450943291017
 30
0.0
 10
46.3799756375773
 20
254.1091366243451
 30
0.0
 10
46.52057075604269
 20
254.5362319976109
 30
0.0
 10
46.76666053035429
 20
255.4006457595964
 30
0.0
 10
46.87436166170153
 20
255.850886680798
 30
0.0
 10
46.95953346791295
 20
256.2789135702534
 30
0.0
  0
ARC
  5
47A
330
444
100
AcDbEntity
  8
E05099
  6
Continuous
 62
     7
100
AcDbCircle
 10
55.7934790407
 20
230.4869225708
 30
0.0
 40
20.01529503009927
100
AcDbArc
 50
158.2443457743
 51
179.0175724895
  0
SPLINE
  5
47B
330
444
100
AcDbEntity
  8
E05099
  6
Continuous
 62
     7
100
AcDbSpline
210
0.0
220
0.0
230
1.0
 70
     8
 71
     3
 72
     8
 73
     4
 74
     0
 42
0.000000000469287
 43
0.0000000001
 40
0.7549122861233618
 40
0.7549122861233618
 40
0.7549122861233618
 40
0.7549122861233618
 40
1.0
 40
1.0
 40
1.0
 40
1.0
 10
39.73987892091342
 20
242.4380647952127
 30
0.0
 10
38.71429875363206
 20
241.0497758822039
 30
0.0
 10
37.85825259083999
 20
239.5462741783374
 30
0.0
 10
37.20381383119705
 20
237.9055735626825
 30
0.0
  0
ELLIPSE
  5
47C
330
444
100
AcDbEntity
  8
E05099
  6
Continuous
 62
     7
100
AcDbEllipse
 10
32.1905146703
 20
136.8539128618
 30
0.0
 11
-0.08595164577981212
 21
-2.99999998886169
 31
0.0
210
0.0
220
0.0
230
1.0
 40
0.0050475927
 41
-1.53574512545554
 42
-0.242559452682733
  0
LINE
  5
47D
330
444
100
AcDbEntity
  8
E05099
  6
Continuous
 62
     7
100
AcDbLine
 10
32.1723691018
 20
136.749214371
 30
0.0
 11
33.781430854
 21
230.9342734453
 31
0.0
  0
ARC
  5
47E
330
444
100
AcDbEntity
  8
E05099
  6
Continuous
 62
     7
100
AcDbCircle
 10
55.7928903667
 20
230.5566218686
 30
0.0
 40
22.0146989666966
100
AcDbArc
 50
158.2424214757
 51
179.0170702356
  0
ELLIPSE
  5
47F
330
444
100
AcDbEntity
  8
E05099
  6
Continuous
 62
     7
100
AcDbEllipse
 10
30.7022989257
 20
258.3462567356
 30
0.0
 11
5.000000000000169
 21
-1.734723475976807E-14
 31
0.0
210
0.0
220
0.0
230
1.0
 40
0.984807753
 41
0.0
 42
6.283185307179586
  0
LINE
  5
480
330
444
100
AcDbEntity
  8
E05099
  6
Continuous
 62
     7
100
AcDbLine
 10
29.716419475
 20
106.35
 30
0.0
 11
31.6881783642
 21
106.35
 31
0.0
  0
ARC
  5
481
330
444
100
AcDbEntity
  8
E05099
  6
Continuous
 62
     7
100
AcDbCircle
 10
32.8771722485
 20
258.8641620391
 30
0.0
 40
15.8251269690497
100
AcDbArc
 50
357.2310025626
 51
0.0110037046
  0
ARC
  5
482
330
444
100
AcDbEntity
  8
E05099
  6
Continuous
 62
     7
100
AcDbCircle
 10
31.0392310095
 20
258.8891906131
 30
0.0
 40
17.66224657975017
100
AcDbArc
 50
311.0180153145
 51
357.4379368473
  0
ARC
  5
483
330
444
100
AcDbEntity
  8
E05099
  6
Continuous
 62
     7
100
AcDbCircle
 10
30.3683456717
 20
258.8864436065
 30
0.0
 40
17.66285091088741
100
AcDbArc
 50
184.7379118467
 51
228.9767683273
  0
LINE
  5
484
330
444
100
AcDbEntity
  8
E05099
  6
Continuous
 62
     7
100
AcDbLine
 10
12.7022989257
 20
266.6813692636
 30
0.0
 11
12.7022989257
 21
258.8672012686
 31
0.0
  0
LINE
  5
485
330
444
100
AcDbEntity
  8
E05099
  6
Continuous
 62
     7
100
AcDbLine
 10
48.7022989257
 20
258.8672012686
 30
0.0
 11
48.7022989257
 21
266.6813692636
 31
0.0
  0
ARC
  5
486
330
444
100
AcDbEntity
  8
E05099
  6
Continuous
 62
     7
100
AcDbCircle
 10
5.8744708807
 20
230.7120503227
 30
0.0
 40
19.66506499922389
100
AcDbArc
 50
33.4831701601
 51
49.0171038509
  0
ARC
  5
487
330
444
100
AcDbEntity
  8
E05099
  6
Continuous
 62
     7
100
AcDbCircle
 10
55.754636257
 20
230.5153280864
 30
0.0
 40
19.9673863413388
100
AcDbArc
 50
131.0600566749
 51
145.7739614797
  0
ARC
  5
488
330
444
100
AcDbEntity
  8
E05099
  6
Continuous
 62
     7
100
AcDbCircle
 10
29.7087460539
 20
108.3591349019
 30
0.0
 40
2.00440477064403
100
AcDbArc
 50
176.6526259325
 51
270.2031338931
  0
ARC
  5
489
330
444
100
AcDbEntity
  8
E05099
  6
Continuous
 62
     7
100
AcDbCircle
 10
31.6923742078
 20
108.3557794257
 30
0.0
 40
2.003295988106408
100
AcDbArc
 50
269.8587301292
 51
1.7838008155
  0
ELLIPSE
  5
48A
330
444
100
AcDbEntity
  8
E02773
  6
Continuous
 62
     7
100
AcDbEllipse
 10
30.7022989257
 20
258.3462567356
 30
0.0
 11
-4.530728418256815
 21
-3.955169525227120E-13
 31
0.0
210
0.0
220
0.0
230
1.0
 40
0.984807753
 41
0.0
 42
6.283185307179586
  0
LINE
  5
48B
330
444
100
AcDbEntity
  8
E02773
  6
Continuous
 62
     7
100
AcDbLine
 10
29.9522989257
 20
254.400305654
 30
0.0
 11
29.9522989257
 21
262.0155287552
 31
0.0
  0
ELLIPSE
  5
48C
330
444
100
AcDbEntity
  8
E02773
  6
Continuous
 62
     7
100
AcDbEllipse
 10
30.7022989257
 20
258.2079172046
 30
0.0
 11
-3.938421392702822
 21
-3.157196726277789E-13
 31
0.0
210
0.0
220
0.0
230
1.0
 40
0.984807753
 41
4.520787178128518
 42
4.903990782640711
  0
ELLIPSE
  5
48D
330
444
100
AcDbEntity
  8
E02773
  6
Continuous
 62
     7
100
AcDbEllipse
 10
30.7022989257
 20
258.2079172046
 30
0.0
 11
3.938421392701646
 21
-1.295491491859480E-11
 31
0.0
210
0.0
220
0.0
230
1.0
 40
0.984807753
 41
4.520787178131776
 42
4.903990782644087
  0
LINE
  5
48E
330
444
100
AcDbEntity
  8
E02773
  6
Continuous
 62
     7
100
AcDbLine
 10
31.4522989257
 20
262.0155287552
 30
0.0
 11
31.4522989257
 21
254.400305654
 31
0.0
  0
ENDBLK
  5
490
330
444
100
AcDbEntity
  8
0
100
AcDbBlockEnd
  0
ENDSEC
  0
SECTION
  2
ENTITIES
  0
INSERT
  5
5F
330
1F
100
AcDbEntity
  8
Default
100
AcDbBlockReference
  2
SEANNOT_GROUP
 10
0.0
 20
0.0
 30
0.0
  0
INSERT
  5
66
330
1F
100
AcDbEntity
  8
Default
100
AcDbBlockReference
  2
SEANNOT_GROUP1
 10
0.0
 20
0.0
 30
0.0
  0
INSERT
  5
6C
330
1F
100
AcDbEntity
  8
Default
100
AcDbBlockReference
  2
SEANNOT_GROUP2
 10
0.0
 20
0.0
 30
0.0
  0
INSERT
  5
76
330
1F
100
AcDbEntity
  8
Default
100
AcDbBlockReference
  2
SEANNOT_GROUP3
 10
0.0
 20
0.0
 30
0.0
  0
INSERT
  5
7C
330
1F
100
AcDbEntity
  8
Default
100
AcDbBlockReference
  2
SEANNOT_GROUP4
 10
0.0
 20
0.0
 30
0.0
  0
LINE
  5
85
330
1F
100
AcDbEntity
  8
Default
  6
Continuous
 62
     7
100
AcDbLine
 10
31.2022989257
 20
199.1090219503
 30
0.0
 11
30.2022989257
 21
199.1090219503
 31
0.0
  0
LINE
  5
86
330
1F
100
AcDbEntity
  8
Default
  6
Continuous
 62
     7
100
AcDbLine
 10
30.7022989257
 20
199.4630006293
 30
0.0
 11
30.7022989257
 21
198.6761626169
 31
0.0
  0
INSERT
  5
88
330
1F
100
AcDbEntity
  8
Default
100
AcDbBlockReference
  2
SEANNOT_GROUP5
 10
0.0
 20
0.0
 30
0.0
  0
INSERT
  5
8E
330
1F
100
AcDbEntity
  8
Default
100
AcDbBlockReference
  2
SE
 10
0.0
 20
0.0
 30
0.0
  0
INSERT
  5
3F3
330
1F
100
AcDbEntity
  8
Default
100
AcDbBlockReference
  2
SE1
 10
0.0
 20
0.0
 30
0.0
  0
INSERT
  5
445
330
1F
100
AcDbEntity
  8
Default
100
AcDbBlockReference
  2
SE2
 10
0.0
 20
0.0
 30
0.0
  0
TEXT
  5
492
330
1F
100
AcDbEntity
  8
Default
  6
Continuous
 62
     7
100
AcDbText
 10
5.9362635081
 20
53.4225120485
 30
0.0
 40
10.0
  1
Grohe AG^J
  7
SEACAD_seiso_ttf
 11
5.9362635081
 21
63.4225120485
 31
0.0
100
AcDbText
 73
     3
  0
TEXT
  5
493
330
1F
100
AcDbEntity
  8
Default
  6
Continuous
 62
     7
100
AcDbText
 10
5.9362635081
 20
37.0588756849
 30
0.0
 40
10.0
  1
 
  7
SEACAD_seiso_ttf
 11
5.9362635081
 21
47.0588756849
 31
0.0
100
AcDbText
 73
     3
  0
TEXT
  5
494
330
1F
100
AcDbEntity
  8
Default
  6
Continuous
 62
     7
100
AcDbText
 10
5.9362635081
 20
20.6952393213
 30
0.0
 40
10.0
  1
ecn:
  7
SEACAD_seiso_ttf
 11
5.9362635081
 21
30.6952393213
 31
0.0
100
AcDbText
 73
     3
  0
TEXT
  5
495
330
1F
100
AcDbEntity
  8
Default
  6
Continuous
 62
     7
100
AcDbText
 10
5.9362635081
 20
4.3316029576
 30
0.0
 40
10.0
  1
unit: mm
  7
SEACAD_seiso_ttf
 11
5.9362635081
 21
14.3316029576
 31
0.0
100
AcDbText
 73
     3
  0
LINE
  5
496
330
1F
100
AcDbEntity
  8
Default
  6
Continuous
 62
     7
100
AcDbLine
 10
0.0
 20
0.0
 30
0.0
 11
100.0
 21
0.0
 31
0.0
  0
LINE
  5
497
330
1F
100
AcDbEntity
  8
Default
  6
Continuous
 62
     7
100
AcDbLine
 10
0.0
 20
0.0
 30
0.0
 11
0.0
 21
100.0
 31
0.0
  0
TEXT
  5
498
330
1F
100
AcDbEntity
  8
Default
  6
Continuous
 62
     7
100
AcDbText
 10
24.3923665681
 20
-18.2375342018
 30
0.0
 40
10.0
  1
100 mm
  7
SEACAD_seiso_ttf
 11
24.3923665681
 21
-8.2375342018
 31
0.0
100
AcDbText
 73
     3
  0
TEXT
  5
499
330
1F
100
AcDbEntity
  8
Default
  6
Continuous
 62
     7
100
AcDbText
 10
-7.6150308803
 20
24.6231930421
 30
0.0
 40
10.0
  1
100 mm
 50
90.0
  7
SEACAD_seiso_ttf
 11
-17.6150308803
 21
24.6231930421
 31
0.0
100
AcDbText
 73
     3
  0
TEXT
  5
49A
330
1F
100
AcDbEntity
  8
Default
  6
Continuous
 62
     7
100
AcDbText
 10
28.4878128572
 20
20.0907663715
 30
0.0
 40
10.0
  1
227495
  7
SEACAD_seiso_ttf
 11
28.4878128572
 21
30.0907663715
 31
0.0
100
AcDbText
 73
     3
  0
TEXT
  5
49B
330
1F
100
AcDbEntity
  8
Default
  6
Continuous
 62
     7
100
AcDbText
 10
5.9012241913
 20
36.7242780188
 30
0.0
 40
10.0
  1
30979000
  7
SEACAD_seiso_ttf
 11
5.9012241913
 21
46.7242780188
 31
0.0
100
AcDbText
 73
     3
  0
ENDSEC
  0
SECTION
  2
OBJECTS
  0
DICTIONARY
  5
C
330
0
100
AcDbDictionary
281
     1
  3
ACAD_GROUP
350
D
  3
ACAD_LAYOUT
350
1A
  3
ACAD_MLEADERSTYLE
350
49F
  3
ACAD_MLINESTYLE
350
17
  3
ACAD_PLOTSETTINGS
350
19
  3
ACAD_PLOTSTYLENAME
350
E
  3
ACAD_SCALELIST
350
3B
  3
ACAD_TABLESTYLE
350
49E
  3
ACAD_VISUALSTYLE
350
2A
  3
AcDbVariableDictionary
350
49C
  0
DICTIONARY
  5
D
102
{ACAD_REACTORS
330
C
102
}
330
C
100
AcDbDictionary
281
     1
  0
DICTIONARY
  5
1A
102
{ACAD_REACTORS
330
C
102
}
330
C
100
AcDbDictionary
281
     1
  3
Layout1
350
1E
  3
Model
350
22
  0
DICTIONARY
  5
49F
102
{ACAD_REACTORS
330
C
102
}
330
C
100
AcDbDictionary
281
     1
  0
DICTIONARY
  5
17
102
{ACAD_REACTORS
330
C
102
}
330
C
100
AcDbDictionary
281
     1
  3
Standard
350
18
  0
DICTIONARY
  5
19
102
{ACAD_REACTORS
330
C
102
}
330
C
100
AcDbDictionary
281
     1
  0
ACDBDICTIONARYWDFLT
  5
E
102
{ACAD_REACTORS
330
C
102
}
330
C
100
AcDbDictionary
281
     1
  3
Normal
350
F
100
AcDbDictionaryWithDefault
340
F
  0
DICTIONARY
  5
3B
102
{ACAD_REACTORS
330
C
102
}
330
C
100
AcDbDictionary
281
     1
  3
A0
350
3C
  3
A1
350
3D
  3
A2
350
3E
  3
A3
350
3F
  3
A4
350
40
  3
A5
350
41
  3
A6
350
42
  3
A7
350
43
  3
A8
350
44
  3
A9
350
45
  3
B0
350
46
  3
B1
350
47
  3
B2
350
48
  3
B3
350
49
  3
B4
350
4A
  3
B5
350
4B
  3
B6
350
4C
  3
B7
350
4D
  3
B8
350
4E
  3
B9
350
4F
  3
C0
350
50
  3
C1
350
51
  3
C2
350
52
  3
C3
350
53
  3
C4
350
54
  3
C5
350
55
  3
C6
350
56
  3
C7
350
57
  3
C8
350
58
  3
C9
350
59
  3
D0
350
5A
  3
D1
350
5B
  3
D2
350
5C
  0
DICTIONARY
  5
49E
102
{ACAD_REACTORS
330
C
102
}
330
C
100
AcDbDictionary
281
     1
  0
DICTIONARY
  5
2A
102
{ACAD_REACTORS
330
C
102
}
330
C
100
AcDbDictionary
281
     1
  3
2dWireframe
350
2F
  3
3D Hidden
350
31
  3
3dWireframe
350
30
  3
Basic
350
32
  3
Brighten
350
36
  3
ColorChange
350
3A
  3
Conceptual
350
34
  3
Dim
350
35
  3
Facepattern
350
39
  3
Flat
350
2B
  3
FlatWithEdges
350
2C
  3
Gouraud
350
2D
  3
GouraudWithEdges
350
2E
  3
Linepattern
350
38
  3
Realistic
350
33
  3
Thicken
350
37
  0
DICTIONARY
  5
49C
102
{ACAD_REACTORS
330
C
102
}
330
C
100
AcDbDictionary
281
     1
  3
CANNOSCALE
350
49D
  3
PSOLHEIGHT
350
4A1
  3
PSOLWIDTH
350
4A0
  0
LAYOUT
  5
1E
102
{ACAD_REACTORS
330
1A
102
}
330
1A
100
AcDbPlotSettings
  1

  2
none_device
  4

  6

 40
0.0
 41
0.0
 42
0.0
 43
0.0
 44
0.0
 45
0.0
 46
0.0
 47
0.0
 48
0.0
 49
0.0
140
0.0
141
0.0
142
1.0
143
1.0
 70
   688
 72
     0
 73
     0
 74
     5
  7

 75
    16
147
1.0
148
0.0
149
0.0
100
AcDbLayout
  1
Layout1
 70
     1
 71
     1
 10
0.0
 20
0.0
 11
3000.0
 21
4500.0
 12
0.0
 22
0.0
 32
0.0
 14
0.0
 24
0.0
 34
0.0
 15
3000.0
 25
4500.0
 35
0.0
146
0.0
 13
0.0
 23
0.0
 33
0.0
 16
1.0
 26
0.0
 36
0.0
 17
0.0
 27
1.0
 37
0.0
 76
     0
330
1B
  0
LAYOUT
  5
22
102
{ACAD_REACTORS
330
1A
102
}
330
1A
100
AcDbPlotSettings
  1

  2
none_device
  4

  6

 40
0.0
 41
0.0
 42
0.0
 43
0.0
 44
0.0
 45
0.0
 46
0.0
 47
0.0
 48
0.0
 49
0.0
140
0.0
141
0.0
142
1.0
143
1.0
 70
  1712
 72
     0
 73
     0
 74
     0
  7

 75
     0
147
1.0
148
0.0
149
0.0
100
AcDbLayout
  1
Model
 70
     1
 71
     0
 10
0.0
 20
0.0
 11
3000.0
 21
4500.0
 12
0.0
 22
0.0
 32
0.0
 14
0.0
 24
0.0
 34
0.0
 15
3000.0
 25
4500.0
 35
0.0
146
0.0
 13
0.0
 23
0.0
 33
0.0
 16
1.0
 26
0.0
 36
0.0
 17
0.0
 27
1.0
 37
0.0
 76
     0
330
1F
331
29
  0
MLINESTYLE
  5
18
102
{ACAD_REACTORS
330
17
102
}
330
17
100
AcDbMlineStyle
  2
Standard
 70
     0
  3

 62
   256
 51
90.0
 52
90.0
 71
     2
 49
0.5
 62
   256
  6
BYLAYER
 49
-0.5
 62
   256
  6
BYLAYER
  0
ACDBPLACEHOLDER
  5
F
102
{ACAD_REACTORS
330
E
102
}
330
E
  0
SCALE
  5
3C
102
{ACAD_REACTORS
330
3B
102
}
330
3B
100
AcDbScale
 70
     0
300
1:1
140
1.0
141
1.0
290
     1
  0
SCALE
  5
3D
102
{ACAD_REACTORS
330
3B
102
}
330
3B
100
AcDbScale
 70
     0
300
1:2
140
1.0
141
2.0
290
     0
  0
SCALE
  5
3E
102
{ACAD_REACTORS
330
3B
102
}
330
3B
100
AcDbScale
 70
     0
300
1:4
140
1.0
141
4.0
290
     0
  0
SCALE
  5
3F
102
{ACAD_REACTORS
330
3B
102
}
330
3B
100
AcDbScale
 70
     0
300
1:5
140
1.0
141
5.0
290
     0
  0
SCALE
  5
40
102
{ACAD_REACTORS
330
3B
102
}
330
3B
100
AcDbScale
 70
     0
300
1:8
140
1.0
141
8.0
290
     0
  0
SCALE
  5
41
102
{ACAD_REACTORS
330
3B
102
}
330
3B
100
AcDbScale
 70
     0
300
1:10
140
1.0
141
10.0
290
     0
  0
SCALE
  5
42
102
{ACAD_REACTORS
330
3B
102
}
330
3B
100
AcDbScale
 70
     0
300
1:16
140
1.0
141
16.0
290
     0
  0
SCALE
  5
43
102
{ACAD_REACTORS
330
3B
102
}
330
3B
100
AcDbScale
 70
     0
300
1:20
140
1.0
141
20.0
290
     0
  0
SCALE
  5
44
102
{ACAD_REACTORS
330
3B
102
}
330
3B
100
AcDbScale
 70
     0
300
1:30
140
1.0
141
30.0
290
     0
  0
SCALE
  5
45
102
{ACAD_REACTORS
330
3B
102
}
330
3B
100
AcDbScale
 70
     0
300
1:40
140
1.0
141
40.0
290
     0
  0
SCALE
  5
46
102
{ACAD_REACTORS
330
3B
102
}
330
3B
100
AcDbScale
 70
     0
300
1:50
140
1.0
141
50.0
290
     0
  0
SCALE
  5
47
102
{ACAD_REACTORS
330
3B
102
}
330
3B
100
AcDbScale
 70
     0
300
1:100
140
1.0
141
100.0
290
     0
  0
SCALE
  5
48
102
{ACAD_REACTORS
330
3B
102
}
330
3B
100
AcDbScale
 70
     0
300
2:1
140
2.0
141
1.0
290
     0
  0
SCALE
  5
49
102
{ACAD_REACTORS
330
3B
102
}
330
3B
100
AcDbScale
 70
     0
300
4:1
140
4.0
141
1.0
290
     0
  0
SCALE
  5
4A
102
{ACAD_REACTORS
330
3B
102
}
330
3B
100
AcDbScale
 70
     0
300
8:1
140
8.0
141
1.0
290
     0
  0
SCALE
  5
4B
102
{ACAD_REACTORS
330
3B
102
}
330
3B
100
AcDbScale
 70
     0
300
10:1
140
10.0
141
1.0
290
     0
  0
SCALE
  5
4C
102
{ACAD_REACTORS
330
3B
102
}
330
3B
100
AcDbScale
 70
     0
300
100:1
140
100.0
141
1.0
290
     0
  0
SCALE
  5
4D
102
{ACAD_REACTORS
330
3B
102
}
330
3B
100
AcDbScale
 70
     0
300
1/128" = 1'-0"
140
0.0078125
141
12.0
290
     0
  0
SCALE
  5
4E
102
{ACAD_REACTORS
330
3B
102
}
330
3B
100
AcDbScale
 70
     0
300
1/64" = 1'-0"
140
0.015625
141
12.0
290
     0
  0
SCALE
  5
4F
102
{ACAD_REACTORS
330
3B
102
}
330
3B
100
AcDbScale
 70
     0
300
1/32" = 1'-0"
140
0.03125
141
12.0
290
     0
  0
SCALE
  5
50
102
{ACAD_REACTORS
330
3B
102
}
330
3B
100
AcDbScale
 70
     0
300
1/16" = 1'-0"
140
0.0625
141
12.0
290
     0
  0
SCALE
  5
51
102
{ACAD_REACTORS
330
3B
102
}
330
3B
100
AcDbScale
 70
     0
300
3/32" = 1'-0"
140
0.09375
141
12.0
290
     0
  0
SCALE
  5
52
102
{ACAD_REACTORS
330
3B
102
}
330
3B
100
AcDbScale
 70
     0
300
1/8" = 1'-0"
140
0.125
141
12.0
290
     0
  0
SCALE
  5
53
102
{ACAD_REACTORS
330
3B
102
}
330
3B
100
AcDbScale
 70
     0
300
3/16" = 1'-0"
140
0.1875
141
12.0
290
     0
  0
SCALE
  5
54
102
{ACAD_REACTORS
330
3B
102
}
330
3B
100
AcDbScale
 70
     0
300
1/4" = 1'-0"
140
0.25
141
12.0
290
     0
  0
SCALE
  5
55
102
{ACAD_REACTORS
330
3B
102
}
330
3B
100
AcDbScale
 70
     0
300
3/8" = 1'-0"
140
0.375
141
12.0
290
     0
  0
SCALE
  5
56
102
{ACAD_REACTORS
330
3B
102
}
330
3B
100
AcDbScale
 70
     0
300
1/2" = 1'-0"
140
0.5
141
12.0
290
     0
  0
SCALE
  5
57
102
{ACAD_REACTORS
330
3B
102
}
330
3B
100
AcDbScale
 70
     0
300
3/4" = 1'-0"
140
0.75
141
12.0
290
     0
  0
SCALE
  5
58
102
{ACAD_REACTORS
330
3B
102
}
330
3B
100
AcDbScale
 70
     0
300
1" = 1'-0"
140
1.0
141
12.0
290
     0
  0
SCALE
  5
59
102
{ACAD_REACTORS
330
3B
102
}
330
3B
100
AcDbScale
 70
     0
300
1-1/2" = 1'-0"
140
1.5
141
12.0
290
     0
  0
SCALE
  5
5A
102
{ACAD_REACTORS
330
3B
102
}
330
3B
100
AcDbScale
 70
     0
300
3" = 1'-0"
140
3.0
141
12.0
290
     0
  0
SCALE
  5
5B
102
{ACAD_REACTORS
330
3B
102
}
330
3B
100
AcDbScale
 70
     0
300
6" = 1'-0"
140
6.0
141
12.0
290
     0
  0
SCALE
  5
5C
102
{ACAD_REACTORS
330
3B
102
}
330
3B
100
AcDbScale
 70
     0
300
1'-0" = 1'-0"
140
12.0
141
12.0
290
     0
  0
VISUALSTYLE
  5
2F
102
{ACAD_REACTORS
330
2A
102
}
330
2A
100
AcDbVisualStyle
  2
2dWireframe
 70
     4
 71
     0
 72
     2
 73
     0
 90
        0
 40
-0.6
 41
-30.0
 62
     5
 63
     7
 74
     1
 91
        4
 64
     7
 65
   257
 75
     1
175
     1
 42
1.0
 92
        0
 66
   257
 43
1.0
 76
     1
 77
     6
 78
     2
 67
     7
 79
     5
170
     0
171
     0
290
     0
174
     0
 93
        1
 44
0.0
173
     0
291
     0
 45
0.0
1001
ACAD
1000
AcDbSavedByObjectVersion
1070
     0
  0
VISUALSTYLE
  5
31
102
{ACAD_REACTORS
330
2A
102
}
330
2A
100
AcDbVisualStyle
  2
3D Hidden
 70
     6
 71
     1
 72
     2
 73
     2
 90
        0
 40
-0.6
 41
-30.0
 62
     5
 63
     7
 74
     2
 91
        2
 64
     7
 65
   257
 75
     2
175
     1
 42
40.0
 92
        0
 66
   257
 43
1.0
 76
     1
 77
     6
 78
     2
 67
     7
 79
     3
170
     0
171
     0
290
     0
174
     0
 93
        1
 44
0.0
173
     0
291
     0
 45
0.0
1001
ACAD
1000
AcDbSavedByObjectVersion
1070
     0
  0
VISUALSTYLE
  5
30
102
{ACAD_REACTORS
330
2A
102
}
330
2A
100
AcDbVisualStyle
  2
3dWireframe
 70
     5
 71
     0
 72
     2
 73
     0
 90
        0
 40
-0.6
 41
-30.0
 62
     5
 63
     7
 74
     1
 91
        4
 64
     7
 65
   257
 75
     1
175
     1
 42
1.0
 92
        0
 66
   257
 43
1.0
 76
     1
 77
     6
 78
     2
 67
     7
 79
     5
170
     0
171
     0
290
     0
174
     0
 93
        1
 44
0.0
173
     0
291
     0
 45
0.0
1001
ACAD
1000
AcDbSavedByObjectVersion
1070
     0
  0
VISUALSTYLE
  5
32
102
{ACAD_REACTORS
330
2A
102
}
330
2A
100
AcDbVisualStyle
  2
Basic
 70
     7
 71
     1
 72
     0
 73
     1
 90
        0
 40
-0.6
 41
-30.0
 62
     5
 63
     7
 74
     0
 91
        4
 64
     7
 65
   257
 75
     1
175
     1
 42
1.0
 92
        8
 66
     7
 43
1.0
 76
     1
 77
     6
 78
     2
 67
     7
 79
     5
170
     0
171
     0
290
     0
174
     0
 93
        1
 44
0.0
173
     0
291
     1
 45
0.0
1001
ACAD
1000
AcDbSavedByObjectVersion
1070
     0
  0
VISUALSTYLE
  5
36
102
{ACAD_REACTORS
330
2A
102
}
330
2A
100
AcDbVisualStyle
  2
Brighten
 70
    12
 71
     2
 72
     2
 73
     0
 90
        0
 40
-0.6
 41
-30.0
 62
     5
 63
     7
 74
     1
 91
        4
 64
     7
 65
   257
 75
     1
175
     1
 42
1.0
 92
        8
 66
     7
 43
1.0
 76
     1
 77
     6
 78
     2
 67
     7
 79
     5
170
     0
171
     0
290
     0
174
     0
 93
        1
 44
50.0
173
     0
291
     1
 45
0.0
1001
ACAD
1000
AcDbSavedByObjectVersion
1070
     0
  0
VISUALSTYLE
  5
3A
102
{ACAD_REACTORS
330
2A
102
}
330
2A
100
AcDbVisualStyle
  2
ColorChange
 70
    16
 71
     2
 72
     2
 73
     3
 90
        0
 40
-0.6
 41
-30.0
 62
     5
 63
     8
 74
     1
 91
        4
 64
     7
 65
   257
 75
     1
175
     1
 42
1.0
 92
        8
 66
     8
 43
1.0
 76
     1
 77
     6
 78
     2
 67
     7
 79
     5
170
     0
171
     0
290
     0
174
     0
 93
        1
 44
0.0
173
     0
291
     1
 45
0.0
1001
ACAD
1000
AcDbSavedByObjectVersion
1070
     0
  0
VISUALSTYLE
  5
34
102
{ACAD_REACTORS
330
2A
102
}
330
2A
100
AcDbVisualStyle
  2
Conceptual
 70
     9
 71
     3
 72
     2
 73
     0
 90
        0
 40
-0.6
 41
-30.0
 62
     5
 63
     7
 74
     2
 91
        2
 64
     7
 65
   257
 75
     1
175
     1
 42
40.0
 92
        8
 66
     7
 43
1.0
 76
     1
 77
     6
 78
     2
 67
     7
 79
     3
170
     0
171
     0
290
     0
174
     0
 93
        1
 44
0.0
173
     0
291
     0
 45
0.0
1001
ACAD
1000
AcDbSavedByObjectVersion
1070
     0
  0
VISUALSTYLE
  5
35
102
{ACAD_REACTORS
330
2A
102
}
330
2A
100
AcDbVisualStyle
  2
Dim
 70
    11
 71
     2
 72
     2
 73
     0
 90
        0
 40
-0.6
 41
-30.0
 62
     5
 63
     7
 74
     1
 91
        4
 64
     7
 65
   257
 75
     1
175
     1
 42
1.0
 92
        8
 66
     7
 43
1.0
 76
     1
 77
     6
 78
     2
 67
     7
 79
     5
170
     0
171
     0
290
     0
174
     0
 93
        1
 44
-50.0
173
     0
291
     1
 45
0.0
1001
ACAD
1000
AcDbSavedByObjectVersion
1070
     0
  0
VISUALSTYLE
  5
39
102
{ACAD_REACTORS
330
2A
102
}
330
2A
100
AcDbVisualStyle
  2
Facepattern
 70
    15
 71
     2
 72
     2
 73
     0
 90
        0
 40
-0.6
 41
-30.0
 62
     5
 63
     7
 74
     1
 91
        4
 64
     7
 65
   257
 75
     1
175
     1
 42
1.0
 92
        8
 66
     7
 43
1.0
 76
     1
 77
     6
 78
     2
 67
     7
 79
     5
170
     0
171
     0
290
     0
174
     0
 93
        1
 44
0.0
173
     0
291
     1
 45
0.0
1001
ACAD
1000
AcDbSavedByObjectVersion
1070
     0
  0
VISUALSTYLE
  5
2B
102
{ACAD_REACTORS
330
2A
102
}
330
2A
100
AcDbVisualStyle
  2
Flat
 70
     0
 71
     2
 72
     1
 73
     1
 90
        2
 40
-0.6
 41
30.0
 62
     5
 63
     7
 74
     0
 91
        4
 64
     7
 65
   257
 75
     1
175
     1
 42
1.0
 92
        8
 66
     7
 43
1.0
 76
     1
 77
     6
 78
     2
 67
     7
 79
     5
170
     0
171
     0
290
     0
174
     0
 93
       13
 44
0.0
173
     0
291
     1
 45
0.0
1001
ACAD
1000
AcDbSavedByObjectVersion
1070
     0
  0
VISUALSTYLE
  5
2C
102
{ACAD_REACTORS
330
2A
102
}
330
2A
100
AcDbVisualStyle
  2
FlatWithEdges
 70
     1
 71
     2
 72
     1
 73
     1
 90
        2
 40
-0.6
 41
30.0
 62
     5
 63
     7
 74
     1
 91
        4
 64
     7
 65
   257
 75
     1
175
     1
 42
1.0
 92
        0
 66
   257
 43
1.0
 76
     1
 77
     6
 78
     2
 67
     7
 79
     5
170
     0
171
     0
290
     0
174
     0
 93
       13
 44
0.0
173
     0
291
     1
 45
0.0
1001
ACAD
1000
AcDbSavedByObjectVersion
1070
     0
  0
VISUALSTYLE
  5
2D
102
{ACAD_REACTORS
330
2A
102
}
330
2A
100
AcDbVisualStyle
  2
Gouraud
 70
     2
 71
     2
 72
     2
 73
     1
 90
        2
 40
-0.6
 41
30.0
 62
     5
 63
     7
 74
     0
 91
        4
 64
     7
 65
   257
 75
     1
175
     1
 42
1.0
 92
        0
 66
     7
 43
1.0
 76
     1
 77
     6
 78
     2
 67
     7
 79
     5
170
     0
171
     0
290
     0
174
     0
 93
       13
 44
0.0
173
     0
291
     1
 45
0.0
1001
ACAD
1000
AcDbSavedByObjectVersion
1070
     0
  0
VISUALSTYLE
  5
2E
102
{ACAD_REACTORS
330
2A
102
}
330
2A
100
AcDbVisualStyle
  2
GouraudWithEdges
 70
     3
 71
     2
 72
     2
 73
     1
 90
        2
 40
-0.6
 41
30.0
 62
     5
 63
     7
 74
     1
 91
        4
 64
     7
 65
   257
 75
     1
175
     1
 42
1.0
 92
        0
 66
   257
 43
1.0
 76
     1
 77
     6
 78
     2
 67
     7
 79
     5
170
     0
171
     0
290
     0
174
     0
 93
       13
 44
0.0
173
     0
291
     1
 45
0.0
1001
ACAD
1000
AcDbSavedByObjectVersion
1070
     0
  0
VISUALSTYLE
  5
38
102
{ACAD_REACTORS
330
2A
102
}
330
2A
100
AcDbVisualStyle
  2
Linepattern
 70
    14
 71
     2
 72
     2
 73
     0
 90
        0
 40
-0.6
 41
-30.0
 62
     5
 63
     7
 74
     1
 91
        4
 64
     7
 65
   257
 75
     7
175
     7
 42
1.0
 92
        8
 66
     7
 43
1.0
 76
     1
 77
     6
 78
     2
 67
     7
 79
     5
170
     0
171
     0
290
     0
174
     0
 93
        1
 44
0.0
173
     0
291
     1
 45
0.0
1001
ACAD
1000
AcDbSavedByObjectVersion
1070
     0
  0
VISUALSTYLE
  5
33
102
{ACAD_REACTORS
330
2A
102
}
330
2A
100
AcDbVisualStyle
  2
Realistic
 70
     8
 71
     2
 72
     2
 73
     0
 90
        0
 40
-0.6
 41
-30.0
 62
     5
 63
     7
 74
     1
 91
        0
 64
     7
 65
   257
 75
     1
175
     1
 42
1.0
 92
        8
 66
     8
 43
1.0
 76
     1
 77
     6
 78
     2
 67
     7
 79
     5
170
     0
171
     0
290
     0
174
     0
 93
       13
 44
0.0
173
     0
291
     0
 45
0.0
1001
ACAD
1000
AcDbSavedByObjectVersion
1070
     0
  0
VISUALSTYLE
  5
37
102
{ACAD_REACTORS
330
2A
102
}
330
2A
100
AcDbVisualStyle
  2
Thicken
 70
    13
 71
     2
 72
     2
 73
     0
 90
        0
 40
-0.6
 41
-30.0
 62
     5
 63
     7
 74
     1
 91
        4
 64
     7
 65
   257
 75
     1
175
     1
 42
1.0
 92
       12
 66
     7
 43
1.0
 76
     1
 77
     6
 78
     2
 67
     7
 79
     5
170
     0
171
     0
290
     0
174
     0
 93
        1
 44
0.0
173
     0
291
     1
 45
0.0
1001
ACAD
1000
AcDbSavedByObjectVersion
1070
     0
  0
DICTIONARYVAR
  5
49D
102
{ACAD_REACTORS
330
49C
102
}
330
49C
100
DictionaryVariables
280
     0
  1
1:1
  0
DICTIONARYVAR
  5
4A1
102
{ACAD_REACTORS
330
49C
102
}
330
49C
100
DictionaryVariables
280
     0
  1
80.000000
  0
DICTIONARYVAR
  5
4A0
102
{ACAD_REACTORS
330
49C
102
}
330
49C
100
DictionaryVariables
280
     0
  1
5.000000
  0
ENDSEC
  0
EOF
