  0
SECTION
  2
HEADER
  9
$ACADVER
  1
AC1015
  9
$ACADMAINTVER
 70
     6
  9
$DWGCODEPAGE
  3
ANSI_1252
  9
$INSBASE
 10
0.0
 20
0.0
 30
0.0
  9
$EXTMIN
 10
0.0
 20
0.0
 30
0.0
  9
$EXTMAX
 10
3000.0
 20
4500.0
 30
0.0
  9
$LIMMIN
 10
0.0
 20
0.0
  9
$LIMMAX
 10
3000.0
 20
4500.0
  9
$ORTHOMODE
 70
     0
  9
$REGENMODE
 70
     1
  9
$FILLMODE
 70
     1
  9
$QTEXTMODE
 70
     0
  9
$MIRRTEXT
 70
     1
  9
$LTSCALE
 40
1.0
  9
$ATTMODE
 70
     1
  9
$TEXTSIZE
 40
2.5
  9
$TRACEWID
 40
1.0
  9
$TEXTSTYLE
  7
Standard
  9
$CLAYER
  8
0
  9
$CELTYPE
  6
ByLayer
  9
$CECOLOR
 62
   256
  9
$CELTSCALE
 40
1.0
  9
$DISPSILH
 70
     0
  9
$DIMSCALE
 40
1.0
  9
$DIMASZ
 40
2.5
  9
$DIMEXO
 40
0.625
  9
$DIMDLI
 40
3.75
  9
$DIMRND
 40
0.0
  9
$DIMDLE
 40
0.0
  9
$DIMEXE
 40
1.25
  9
$DIMTP
 40
0.0
  9
$DIMTM
 40
0.0
  9
$DIMTXT
 40
2.5
  9
$DIMCEN
 40
2.5
  9
$DIMTSZ
 40
0.0
  9
$DIMTOL
 70
     0
  9
$DIMLIM
 70
     0
  9
$DIMTIH
 70
     0
  9
$DIMTOH
 70
     0
  9
$DIMSE1
 70
     0
  9
$DIMSE2
 70
     0
  9
$DIMTAD
 70
     1
  9
$DIMZIN
 70
     8
  9
$DIMBLK
  1

  9
$DIMASO
 70
     1
  9
$DIMSHO
 70
     1
  9
$DIMPOST
  1

  9
$DIMAPOST
  1

  9
$DIMALT
 70
     0
  9
$DIMALTD
 70
     3
  9
$DIMALTF
 40
0.0393700787
  9
$DIMLFAC
 40
1.0
  9
$DIMTOFL
 70
     1
  9
$DIMTVP
 40
0.0
  9
$DIMTIX
 70
     0
  9
$DIMSOXD
 70
     0
  9
$DIMSAH
 70
     0
  9
$DIMBLK1
  1

  9
$DIMBLK2
  1

  9
$DIMSTYLE
  2
ISO-25
  9
$DIMCLRD
 70
     0
  9
$DIMCLRE
 70
     0
  9
$DIMCLRT
 70
     0
  9
$DIMTFAC
 40
1.0
  9
$DIMGAP
 40
0.625
  9
$DIMJUST
 70
     0
  9
$DIMSD1
 70
     0
  9
$DIMSD2
 70
     0
  9
$DIMTOLJ
 70
     0
  9
$DIMTZIN
 70
     8
  9
$DIMALTZ
 70
     0
  9
$DIMALTTZ
 70
     0
  9
$DIMUPT
 70
     0
  9
$DIMDEC
 70
     2
  9
$DIMTDEC
 70
     2
  9
$DIMALTU
 70
     2
  9
$DIMALTTD
 70
     3
  9
$DIMTXSTY
  7
Standard
  9
$DIMAUNIT
 70
     0
  9
$DIMADEC
 70
     0
  9
$DIMALTRND
 40
0.0
  9
$DIMAZIN
 70
     0
  9
$DIMDSEP
 70
    44
  9
$DIMATFIT
 70
     3
  9
$DIMFRAC
 70
     0
  9
$DIMLDRBLK
  1

  9
$DIMLUNIT
 70
     2
  9
$DIMLWD
 70
    -2
  9
$DIMLWE
 70
    -2
  9
$DIMTMOVE
 70
     0
  9
$LUNITS
 70
     2
  9
$LUPREC
 70
     4
  9
$SKETCHINC
 40
1.0
  9
$FILLETRAD
 40
10.0
  9
$AUNITS
 70
     0
  9
$AUPREC
 70
     0
  9
$MENU
  1
.
  9
$ELEVATION
 40
0.0
  9
$PELEVATION
 40
0.0
  9
$THICKNESS
 40
0.0
  9
$LIMCHECK
 70
     0
  9
$CHAMFERA
 40
10.0
  9
$CHAMFERB
 40
10.0
  9
$CHAMFERC
 40
20.0
  9
$CHAMFERD
 40
0.0
  9
$SKPOLY
 70
     0
  9
$TDCREATE
 40
2456918.438372349
  9
$TDUCREATE
 40
2456918.355039016
  9
$TDUPDATE
 40
2456918.438372361
  9
$TDUUPDATE
 40
2456918.355039028
  9
$TDINDWG
 40
0.0000000116
  9
$TDUSRTIMER
 40
0.0000000116
  9
$USRTIMER
 70
     1
  9
$ANGBASE
 50
0.0
  9
$ANGDIR
 70
     0
  9
$PDMODE
 70
     0
  9
$PDSIZE
 40
0.0
  9
$PLINEWID
 40
0.0
  9
$SPLFRAME
 70
     0
  9
$SPLINETYPE
 70
     6
  9
$SPLINESEGS
 70
     8
  9
$HANDSEED
  5
25E
  9
$SURFTAB1
 70
     6
  9
$SURFTAB2
 70
     6
  9
$SURFTYPE
 70
     6
  9
$SURFU
 70
     6
  9
$SURFV
 70
     6
  9
$UCSBASE
  2

  9
$UCSNAME
  2

  9
$UCSORG
 10
0.0
 20
0.0
 30
0.0
  9
$UCSXDIR
 10
1.0
 20
0.0
 30
0.0
  9
$UCSYDIR
 10
0.0
 20
1.0
 30
0.0
  9
$UCSORTHOREF
  2

  9
$UCSORTHOVIEW
 70
     0
  9
$UCSORGTOP
 10
0.0
 20
0.0
 30
0.0
  9
$UCSORGBOTTOM
 10
0.0
 20
0.0
 30
0.0
  9
$UCSORGLEFT
 10
0.0
 20
0.0
 30
0.0
  9
$UCSORGRIGHT
 10
0.0
 20
0.0
 30
0.0
  9
$UCSORGFRONT
 10
0.0
 20
0.0
 30
0.0
  9
$UCSORGBACK
 10
0.0
 20
0.0
 30
0.0
  9
$PUCSBASE
  2

  9
$PUCSNAME
  2

  9
$PUCSORG
 10
0.0
 20
0.0
 30
0.0
  9
$PUCSXDIR
 10
1.0
 20
0.0
 30
0.0
  9
$PUCSYDIR
 10
0.0
 20
1.0
 30
0.0
  9
$PUCSORTHOREF
  2

  9
$PUCSORTHOVIEW
 70
     0
  9
$PUCSORGTOP
 10
0.0
 20
0.0
 30
0.0
  9
$PUCSORGBOTTOM
 10
0.0
 20
0.0
 30
0.0
  9
$PUCSORGLEFT
 10
0.0
 20
0.0
 30
0.0
  9
$PUCSORGRIGHT
 10
0.0
 20
0.0
 30
0.0
  9
$PUCSORGFRONT
 10
0.0
 20
0.0
 30
0.0
  9
$PUCSORGBACK
 10
0.0
 20
0.0
 30
0.0
  9
$USERI1
 70
     0
  9
$USERI2
 70
     0
  9
$USERI3
 70
     0
  9
$USERI4
 70
     0
  9
$USERI5
 70
     0
  9
$USERR1
 40
0.0
  9
$USERR2
 40
0.0
  9
$USERR3
 40
0.0
  9
$USERR4
 40
0.0
  9
$USERR5
 40
0.0
  9
$WORLDVIEW
 70
     1
  9
$SHADEDGE
 70
     3
  9
$SHADEDIF
 70
    70
  9
$TILEMODE
 70
     1
  9
$MAXACTVP
 70
    64
  9
$PINSBASE
 10
0.0
 20
0.0
 30
0.0
  9
$PLIMCHECK
 70
     0
  9
$PEXTMIN
 10
0.0
 20
0.0
 30
0.0
  9
$PEXTMAX
 10
3000.0
 20
4500.0
 30
0.0
  9
$PLIMMIN
 10
0.0
 20
0.0
  9
$PLIMMAX
 10
3000.0
 20
4500.0
  9
$UNITMODE
 70
     0
  9
$VISRETAIN
 70
     1
  9
$PLINEGEN
 70
     0
  9
$PSLTSCALE
 70
     1
  9
$TREEDEPTH
 70
  3020
  9
$CMLSTYLE
  2
Standard
  9
$CMLJUST
 70
     0
  9
$CMLSCALE
 40
20.0
  9
$PROXYGRAPHICS
 70
     1
  9
$MEASUREMENT
 70
     1
  9
$CELWEIGHT
370
    -1
  9
$ENDCAPS
280
     0
  9
$JOINSTYLE
280
     0
  9
$LWDISPLAY
290
     0
  9
$INSUNITS
 70
     4
  9
$HYPERLINKBASE
  1

  9
$STYLESHEET
  1

  9
$XEDIT
290
     1
  9
$CEPSNTYPE
380
     0
  9
$PSTYLEMODE
290
     1
  9
$FINGERPRINTGUID
  2
{67E24E14-4836-4768-891E-76737134211A}
  9
$VERSIONGUID
  2
{FAEB1C32-E019-11D5-929B-00C0DF256EC4}
  9
$EXTNAMES
290
     1
  9
$PSVPSCALE
 40
0.0
  9
$OLESTARTUP
290
     0
  0
ENDSEC
  0
SECTION
  2
CLASSES
  0
CLASS
  1
ACDBDICTIONARYWDFLT
  2
AcDbDictionaryWithDefault
  3
ObjectDBX Classes
 90
        0
280
     0
281
     0
  0
CLASS
  1
VISUALSTYLE
  2
AcDbVisualStyle
  3
ObjectDBX Classes
 90
     4095
280
     0
281
     0
  0
CLASS
  1
SCALE
  2
AcDbScale
  3
ObjectDBX Classes
 90
     1153
280
     0
281
     0
  0
CLASS
  1
DICTIONARYVAR
  2
AcDbDictionaryVar
  3
ObjectDBX Classes
 90
        0
280
     0
281
     0
  0
CLASS
  1
ACDBPLACEHOLDER
  2
AcDbPlaceHolder
  3
ObjectDBX Classes
 90
        0
280
     0
281
     0
  0
CLASS
  1
LAYOUT
  2
AcDbLayout
  3
ObjectDBX Classes
 90
        0
280
     0
281
     0
  0
ENDSEC
  0
SECTION
  2
TABLES
  0
TABLE
  2
VPORT
  5
8
330
0
100
AcDbSymbolTable
 70
     1
  0
VPORT
  5
29
330
8
100
AcDbSymbolTableRecord
100
AcDbViewportTableRecord
  2
*Active
 70
     0
 10
0.0
 20
0.0
 11
1.0
 21
1.0
 12
344.1869158879
 22
148.5
 13
0.0
 23
0.0
 14
10.0
 24
10.0
 15
10.0
 25
10.0
 16
0.0
 26
0.0
 36
1.0
 17
0.0
 27
0.0
 37
0.0
 40
297.0
 41
1.9729729729
 42
50.0
 43
0.0
 44
0.0
 50
0.0
 51
0.0
 71
     0
 72
   100
 73
     1
 74
     3
 75
     0
 76
     0
 77
     0
 78
     0
281
     0
 65
     1
110
0.0
120
0.0
130
0.0
111
1.0
121
0.0
131
0.0
112
0.0
122
1.0
132
0.0
 79
     0
146
0.0
  0
ENDTAB
  0
TABLE
  2
LTYPE
  5
5
330
0
100
AcDbSymbolTable
 70
     2
  0
LTYPE
  5
14
330
5
100
AcDbSymbolTableRecord
100
AcDbLinetypeTableRecord
  2
ByBlock
 70
     0
  3

 72
    65
 73
     0
 40
0.0
  0
LTYPE
  5
15
330
5
100
AcDbSymbolTableRecord
100
AcDbLinetypeTableRecord
  2
ByLayer
 70
     0
  3

 72
    65
 73
     0
 40
0.0
  0
LTYPE
  5
16
330
5
100
AcDbSymbolTableRecord
100
AcDbLinetypeTableRecord
  2
Continuous
 70
     0
  3
Solid line
 72
    65
 73
     0
 40
0.0
  0
LTYPE
  5
60
330
5
100
AcDbSymbolTableRecord
100
AcDbLinetypeTableRecord
  2
CENTER2
 70
     0
  3
Center (.5x) ___ _ ___ _ ___ _ ___ _ ___ _ ___
 72
    65
 73
     4
 40
28.575
 49
19.05
 74
     4
 75
     0
340
0
 46
0.0
 50
0.0
 44
0.0
 45
0.0
 49
-3.175
 74
     4
 75
     0
340
0
 46
0.0
 50
0.0
 44
0.0
 45
0.0
 49
3.175
 74
     4
 75
     0
340
0
 46
0.0
 50
0.0
 44
0.0
 45
0.0
 49
-3.175
 74
     4
 75
     0
340
0
 46
0.0
 50
0.0
 44
0.0
 45
0.0
  0
ENDTAB
  0
TABLE
  2
LAYER
  5
2
330
0
100
AcDbSymbolTable
 70
    13
  0
LAYER
  5
10
330
2
100
AcDbSymbolTableRecord
100
AcDbLayerTableRecord
  2
0
 70
     0
 62
     7
  6
Continuous
370
    -3
390
F
  0
LAYER
  5
5D
330
2
100
AcDbSymbolTableRecord
100
AcDbLayerTableRecord
  2
Default
 70
     0
 62
     7
  6
Continuous
370
    -3
390
F
  0
LAYER
  5
B5
330
2
100
AcDbSymbolTableRecord
100
AcDbLayerTableRecord
  2
$DDT_AUDIT_GENERATED_(B5)
 70
     0
 62
     7
  6
Continuous
370
    -3
390
F
  0
LAYER
  5
C5
330
2
100
AcDbSymbolTableRecord
100
AcDbLayerTableRecord
  2
$DDT_AUDIT_GENERATED_(C5)
 70
     0
 62
     7
  6
Continuous
370
    -3
390
F
  0
LAYER
  5
D4
330
2
100
AcDbSymbolTableRecord
100
AcDbLayerTableRecord
  2
$DDT_AUDIT_GENERATED_(D4)
 70
     0
 62
     7
  6
Continuous
370
    -3
390
F
  0
LAYER
  5
E2
330
2
100
AcDbSymbolTableRecord
100
AcDbLayerTableRecord
  2
$DDT_AUDIT_GENERATED_(E2)
 70
     0
 62
     7
  6
Continuous
370
    -3
390
F
  0
LAYER
  5
EA
330
2
100
AcDbSymbolTableRecord
100
AcDbLayerTableRecord
  2
$DDT_AUDIT_GENERATED_(EA)
 70
     0
 62
     7
  6
Continuous
370
    -3
390
F
  0
LAYER
  5
FD
330
2
100
AcDbSymbolTableRecord
100
AcDbLayerTableRecord
  2
$DDT_AUDIT_GENERATED_(FD)
 70
     0
 62
     7
  6
Continuous
370
    -3
390
F
  0
LAYER
  5
10A
330
2
100
AcDbSymbolTableRecord
100
AcDbLayerTableRecord
  2
$DDT_AUDIT_GENERATED_(10A)
 70
     0
 62
     7
  6
Continuous
370
    -3
390
F
  0
LAYER
  5
10E
330
2
100
AcDbSymbolTableRecord
100
AcDbLayerTableRecord
  2
$DDT_AUDIT_GENERATED_(10E)
 70
     0
 62
     7
  6
Continuous
370
    -3
390
F
  0
LAYER
  5
13B
330
2
100
AcDbSymbolTableRecord
100
AcDbLayerTableRecord
  2
$DDT_AUDIT_GENERATED_(13B)
 70
     0
 62
     7
  6
Continuous
370
    -3
390
F
  0
LAYER
  5
16B
330
2
100
AcDbSymbolTableRecord
100
AcDbLayerTableRecord
  2
$DDT_AUDIT_GENERATED_(16B)
 70
     0
 62
     7
  6
Continuous
370
    -3
390
F
  0
LAYER
  5
18C
330
2
100
AcDbSymbolTableRecord
100
AcDbLayerTableRecord
  2
$DDT_AUDIT_GENERATED_(18C)
 70
     0
 62
     7
  6
Continuous
370
    -3
390
F
  0
ENDTAB
  0
TABLE
  2
STYLE
  5
3
330
0
100
AcDbSymbolTable
 70
     2
  0
STYLE
  5
11
330
3
100
AcDbSymbolTableRecord
100
AcDbTextStyleTableRecord
  2
Standard
 70
     0
 40
0.0
 41
1.0
 50
0.0
 71
     0
 42
2.5
  3
txt
  4

  0
STYLE
  5
24D
330
3
100
AcDbSymbolTableRecord
100
AcDbTextStyleTableRecord
  2
SEACAD_seiso_ttf
 70
     0
 40
0.0
 41
1.0
 50
0.0
 71
     0
 42
0.2
  3
seiso.ttf
  4

  0
ENDTAB
  0
TABLE
  2
VIEW
  5
6
330
0
100
AcDbSymbolTable
 70
     0
  0
ENDTAB
  0
TABLE
  2
UCS
  5
7
330
0
100
AcDbSymbolTable
 70
     0
  0
ENDTAB
  0
TABLE
  2
APPID
  5
9
330
0
100
AcDbSymbolTable
 70
     1
  0
APPID
  5
12
330
9
100
AcDbSymbolTableRecord
100
AcDbRegAppTableRecord
  2
ACAD
 70
     0
  0
ENDTAB
  0
TABLE
  2
DIMSTYLE
  5
A
330
0
100
AcDbSymbolTable
 70
     1
100
AcDbDimStyleTable
  0
DIMSTYLE
105
27
330
A
100
AcDbSymbolTableRecord
100
AcDbDimStyleTableRecord
  2
ISO-25
 70
     0
 41
2.5
 42
0.625
 43
3.75
 44
1.25
 73
     0
 74
     0
 77
     1
 78
     8
140
2.5
141
2.5
143
0.0393700787
147
0.625
171
     3
172
     1
271
     2
272
     2
274
     3
278
    44
283
     0
284
     8
340
11
  0
ENDTAB
  0
TABLE
  2
BLOCK_RECORD
  5
1
330
0
100
AcDbSymbolTable
 70
    16
  0
BLOCK_RECORD
  5
1F
330
1
100
AcDbSymbolTableRecord
100
AcDbBlockTableRecord
  2
*Model_Space
340
22
  0
BLOCK_RECORD
  5
1B
330
1
100
AcDbSymbolTableRecord
100
AcDbBlockTableRecord
  2
*Paper_Space
340
1E
  0
BLOCK_RECORD
  5
5E
330
1
100
AcDbSymbolTableRecord
100
AcDbBlockTableRecord
  2
SEANNOT_GROUP
340
0
102
{BLKREFS
331
5F
102
}
  0
BLOCK_RECORD
  5
69
330
1
100
AcDbSymbolTableRecord
100
AcDbBlockTableRecord
  2
SEANNOT_GROUP1
340
0
102
{BLKREFS
331
6A
102
}
  0
BLOCK_RECORD
  5
73
330
1
100
AcDbSymbolTableRecord
100
AcDbBlockTableRecord
  2
SEANNOT_GROUP2
340
0
102
{BLKREFS
331
74
102
}
  0
BLOCK_RECORD
  5
79
330
1
100
AcDbSymbolTableRecord
100
AcDbBlockTableRecord
  2
SEANNOT_GROUP3
340
0
102
{BLKREFS
331
7A
102
}
  0
BLOCK_RECORD
  5
7F
330
1
100
AcDbSymbolTableRecord
100
AcDbBlockTableRecord
  2
SEANNOT_GROUP4
340
0
102
{BLKREFS
331
80
102
}
  0
BLOCK_RECORD
  5
89
330
1
100
AcDbSymbolTableRecord
100
AcDbBlockTableRecord
  2
SEANNOT_GROUP5
340
0
102
{BLKREFS
331
8A
102
}
  0
BLOCK_RECORD
  5
8F
330
1
100
AcDbSymbolTableRecord
100
AcDbBlockTableRecord
  2
SEANNOT_GROUP6
340
0
102
{BLKREFS
331
90
102
}
  0
BLOCK_RECORD
  5
95
330
1
100
AcDbSymbolTableRecord
100
AcDbBlockTableRecord
  2
SEANNOT_GROUP7
340
0
102
{BLKREFS
331
96
102
}
  0
BLOCK_RECORD
  5
9B
330
1
100
AcDbSymbolTableRecord
100
AcDbBlockTableRecord
  2
SEANNOT_GROUP8
340
0
102
{BLKREFS
331
9C
102
}
  0
BLOCK_RECORD
  5
A1
330
1
100
AcDbSymbolTableRecord
100
AcDbBlockTableRecord
  2
SEANNOT_GROUP9
340
0
102
{BLKREFS
331
A2
102
}
  0
BLOCK_RECORD
  5
A7
330
1
100
AcDbSymbolTableRecord
100
AcDbBlockTableRecord
  2
SEANNOT_GROUP10
340
0
102
{BLKREFS
331
A8
102
}
  0
BLOCK_RECORD
  5
AD
330
1
100
AcDbSymbolTableRecord
100
AcDbBlockTableRecord
  2
SEANNOT_GROUP11
340
0
102
{BLKREFS
331
AE
102
}
  0
BLOCK_RECORD
  5
B3
330
1
100
AcDbSymbolTableRecord
100
AcDbBlockTableRecord
  2
SE
340
0
102
{BLKREFS
331
B4
102
}
  0
BLOCK_RECORD
  5
120
330
1
100
AcDbSymbolTableRecord
100
AcDbBlockTableRecord
  2
SE1
340
0
102
{BLKREFS
331
121
102
}
  0
BLOCK_RECORD
  5
199
330
1
100
AcDbSymbolTableRecord
100
AcDbBlockTableRecord
  2
SE2
340
0
102
{BLKREFS
331
19A
102
}
  0
ENDTAB
  0
ENDSEC
  0
SECTION
  2
BLOCKS
  0
BLOCK
  5
20
330
1F
100
AcDbEntity
  8
0
100
AcDbBlockBegin
  2
*Model_Space
 70
     0
 10
0.0
 20
0.0
 30
0.0
  3
*Model_Space
  1

  0
ENDBLK
  5
21
330
1F
100
AcDbEntity
  8
0
100
AcDbBlockEnd
  0
BLOCK
  5
1C
330
1B
100
AcDbEntity
 67
     1
  8
0
100
AcDbBlockBegin
  2
*Paper_Space
 70
     0
 10
0.0
 20
0.0
 30
0.0
  3
*Paper_Space
  1

  0
ENDBLK
  5
1D
330
1B
100
AcDbEntity
 67
     1
  8
0
100
AcDbBlockEnd
  0
BLOCK
  5
67
330
5E
100
AcDbEntity
  8
0
100
AcDbBlockBegin
  2
SEANNOT_GROUP
 70
     0
 10
0.0
 20
0.0
 30
0.0
  3
SEANNOT_GROUP
  1

  0
LINE
  5
61
330
5E
100
AcDbEntity
  8
Default
  6
CENTER2
 62
     7
100
AcDbLine
 10
100.2499995526
 20
274.875358972
 30
0.0
 11
60.2500004467
 21
274.875358972
 31
0.0
  0
LINE
  5
62
330
5E
100
AcDbEntity
  8
Default
  6
CENTER2
 62
     7
100
AcDbLine
 10
80.2499999996
 20
294.875358525
 30
0.0
 11
80.2499999996
 21
254.8753594191
 31
0.0
  0
LINE
  5
63
330
5E
100
AcDbEntity
  8
Default
  6
CENTER2
 62
     7
100
AcDbLine
 10
105.2499985095
 20
274.875358972
 30
0.0
 11
94.9808845762
 21
274.875358972
 31
0.0
  0
LINE
  5
64
330
5E
100
AcDbEntity
  8
Default
  6
CENTER2
 62
     7
100
AcDbLine
 10
80.2499999996
 20
299.8753574819
 30
0.0
 11
80.2499999996
 21
289.6062435486
 31
0.0
  0
LINE
  5
65
330
5E
100
AcDbEntity
  8
Default
  6
CENTER2
 62
     7
100
AcDbLine
 10
55.2500014897
 20
274.875358972
 30
0.0
 11
65.5191154231
 21
274.875358972
 31
0.0
  0
LINE
  5
66
330
5E
100
AcDbEntity
  8
Default
  6
CENTER2
 62
     7
100
AcDbLine
 10
80.2499999996
 20
249.8753604621
 30
0.0
 11
80.2499999996
 21
260.1444743955
 31
0.0
  0
ENDBLK
  5
68
330
5E
100
AcDbEntity
  8
0
100
AcDbBlockEnd
  0
BLOCK
  5
71
330
69
100
AcDbEntity
  8
0
100
AcDbBlockBegin
  2
SEANNOT_GROUP1
 70
     0
 10
0.0
 20
0.0
 30
0.0
  3
SEANNOT_GROUP1
  1

  0
LINE
  5
6B
330
69
100
AcDbEntity
  8
Default
  6
CENTER2
 62
     7
100
AcDbLine
 10
250.2499995526
 20
274.875358972
 30
0.0
 11
210.2500004467
 21
274.875358972
 31
0.0
  0
LINE
  5
6C
330
69
100
AcDbEntity
  8
Default
  6
CENTER2
 62
     7
100
AcDbLine
 10
230.2499999996
 20
294.875358525
 30
0.0
 11
230.2499999996
 21
254.8753594191
 31
0.0
  0
LINE
  5
6D
330
69
100
AcDbEntity
  8
Default
  6
CENTER2
 62
     7
100
AcDbLine
 10
255.2499985095
 20
274.875358972
 30
0.0
 11
244.9808845762
 21
274.875358972
 31
0.0
  0
LINE
  5
6E
330
69
100
AcDbEntity
  8
Default
  6
CENTER2
 62
     7
100
AcDbLine
 10
230.2499999996
 20
299.8753574819
 30
0.0
 11
230.2499999996
 21
289.6062435486
 31
0.0
  0
LINE
  5
6F
330
69
100
AcDbEntity
  8
Default
  6
CENTER2
 62
     7
100
AcDbLine
 10
205.2500014897
 20
274.875358972
 30
0.0
 11
215.5191154231
 21
274.875358972
 31
0.0
  0
LINE
  5
70
330
69
100
AcDbEntity
  8
Default
  6
CENTER2
 62
     7
100
AcDbLine
 10
230.2499999996
 20
249.8753604621
 30
0.0
 11
230.2499999996
 21
260.1444743955
 31
0.0
  0
ENDBLK
  5
72
330
69
100
AcDbEntity
  8
0
100
AcDbBlockEnd
  0
BLOCK
  5
77
330
73
100
AcDbEntity
  8
0
100
AcDbBlockBegin
  2
SEANNOT_GROUP2
 70
     0
 10
0.0
 20
0.0
 30
0.0
  3
SEANNOT_GROUP2
  1

  0
LINE
  5
75
330
73
100
AcDbEntity
  8
Default
  6
CENTER2
 62
     7
100
AcDbLine
 10
100.2499995526
 20
106.35
 30
0.0
 11
60.2500004467
 21
106.35
 31
0.0
  0
LINE
  5
76
330
73
100
AcDbEntity
  8
Default
  6
CENTER2
 62
     7
100
AcDbLine
 10
80.2499999996
 20
126.349999553
 30
0.0
 11
80.2499999996
 21
86.350000447
 31
0.0
  0
ENDBLK
  5
78
330
73
100
AcDbEntity
  8
0
100
AcDbBlockEnd
  0
BLOCK
  5
7D
330
79
100
AcDbEntity
  8
0
100
AcDbBlockBegin
  2
SEANNOT_GROUP3
 70
     0
 10
0.0
 20
0.0
 30
0.0
  3
SEANNOT_GROUP3
  1

  0
LINE
  5
7B
330
79
100
AcDbEntity
  8
Default
  6
CENTER2
 62
     7
100
AcDbLine
 10
409.8694882768
 20
240.475358972
 30
0.0
 11
369.8694891709
 21
240.475358972
 31
0.0
  0
LINE
  5
7C
330
79
100
AcDbEntity
  8
Default
  6
CENTER2
 62
     7
100
AcDbLine
 10
389.8694887239
 20
260.475358525
 30
0.0
 11
389.8694887239
 21
220.475359419
 31
0.0
  0
ENDBLK
  5
7E
330
79
100
AcDbEntity
  8
0
100
AcDbBlockEnd
  0
BLOCK
  5
87
330
7F
100
AcDbEntity
  8
0
100
AcDbBlockBegin
  2
SEANNOT_GROUP4
 70
     0
 10
0.0
 20
0.0
 30
0.0
  3
SEANNOT_GROUP4
  1

  0
LINE
  5
81
330
7F
100
AcDbEntity
  8
Default
  6
CENTER2
 62
     7
100
AcDbLine
 10
409.8294877796
 20
274.7753590467
 30
0.0
 11
369.8294886737
 21
274.7753590467
 31
0.0
  0
LINE
  5
82
330
7F
100
AcDbEntity
  8
Default
  6
CENTER2
 62
     7
100
AcDbLine
 10
389.8294882266
 20
294.7753585997
 30
0.0
 11
389.8294882266
 21
254.7753594937
 31
0.0
  0
LINE
  5
83
330
7F
100
AcDbEntity
  8
Default
  6
CENTER2
 62
     7
100
AcDbLine
 10
414.8294867365
 20
274.7753590467
 30
0.0
 11
413.3294882266
 21
274.7753590467
 31
0.0
  0
LINE
  5
84
330
7F
100
AcDbEntity
  8
Default
  6
CENTER2
 62
     7
100
AcDbLine
 10
389.8294882266
 20
299.7753575566
 30
0.0
 11
389.8294882266
 21
298.2753590467
 31
0.0
  0
LINE
  5
85
330
7F
100
AcDbEntity
  8
Default
  6
CENTER2
 62
     7
100
AcDbLine
 10
364.8294897167
 20
274.7753590467
 30
0.0
 11
366.3294882266
 21
274.7753590467
 31
0.0
  0
LINE
  5
86
330
7F
100
AcDbEntity
  8
Default
  6
CENTER2
 62
     7
100
AcDbLine
 10
389.8294882266
 20
249.7753605368
 30
0.0
 11
389.8294882266
 21
251.2753590467
 31
0.0
  0
ENDBLK
  5
88
330
7F
100
AcDbEntity
  8
0
100
AcDbBlockEnd
  0
BLOCK
  5
8D
330
89
100
AcDbEntity
  8
0
100
AcDbBlockBegin
  2
SEANNOT_GROUP5
 70
     0
 10
0.0
 20
0.0
 30
0.0
  3
SEANNOT_GROUP5
  1

  0
LINE
  5
8B
330
89
100
AcDbEntity
  8
Default
  6
CENTER2
 62
     7
100
AcDbLine
 10
461.2748472488
 20
274.875358972
 30
0.0
 11
421.2748481429
 21
274.875358972
 31
0.0
  0
LINE
  5
8C
330
89
100
AcDbEntity
  8
Default
  6
CENTER2
 62
     7
100
AcDbLine
 10
441.2748476959
 20
294.875358525
 30
0.0
 11
441.2748476959
 21
254.8753594191
 31
0.0
  0
ENDBLK
  5
8E
330
89
100
AcDbEntity
  8
0
100
AcDbBlockEnd
  0
BLOCK
  5
93
330
8F
100
AcDbEntity
  8
0
100
AcDbBlockBegin
  2
SEANNOT_GROUP6
 70
     0
 10
0.0
 20
0.0
 30
0.0
  3
SEANNOT_GROUP6
  1

  0
LINE
  5
91
330
8F
100
AcDbEntity
  8
Default
  6
CENTER2
 62
     7
100
AcDbLine
 10
253.249999553
 20
240.475358972
 30
0.0
 11
213.250000447
 21
240.475358972
 31
0.0
  0
LINE
  5
92
330
8F
100
AcDbEntity
  8
Default
  6
CENTER2
 62
     7
100
AcDbLine
 10
233.25
 20
260.475358525
 30
0.0
 11
233.25
 21
220.475359419
 31
0.0
  0
ENDBLK
  5
94
330
8F
100
AcDbEntity
  8
0
100
AcDbBlockEnd
  0
BLOCK
  5
99
330
95
100
AcDbEntity
  8
0
100
AcDbBlockBegin
  2
SEANNOT_GROUP7
 70
     0
 10
0.0
 20
0.0
 30
0.0
  3
SEANNOT_GROUP7
  1

  0
LINE
  5
97
330
95
100
AcDbEntity
  8
Default
  6
CENTER2
 62
     7
100
AcDbLine
 10
324.469999553
 20
157.755358972
 30
0.0
 11
284.470000447
 21
157.755358972
 31
0.0
  0
LINE
  5
98
330
95
100
AcDbEntity
  8
Default
  6
CENTER2
 62
     7
100
AcDbLine
 10
304.47
 20
177.755358525
 30
0.0
 11
304.47
 21
137.755359419
 31
0.0
  0
ENDBLK
  5
9A
330
95
100
AcDbEntity
  8
0
100
AcDbBlockEnd
  0
BLOCK
  5
9F
330
9B
100
AcDbEntity
  8
0
100
AcDbBlockBegin
  2
SEANNOT_GROUP8
 70
     0
 10
0.0
 20
0.0
 30
0.0
  3
SEANNOT_GROUP8
  1

  0
LINE
  5
9D
330
9B
100
AcDbEntity
  8
Default
  6
CENTER2
 62
     7
100
AcDbLine
 10
324.469999553
 20
274.875358972
 30
0.0
 11
284.470000447
 21
274.875358972
 31
0.0
  0
LINE
  5
9E
330
9B
100
AcDbEntity
  8
Default
  6
CENTER2
 62
     7
100
AcDbLine
 10
304.47
 20
294.875358525
 30
0.0
 11
304.47
 21
254.875359419
 31
0.0
  0
ENDBLK
  5
A0
330
9B
100
AcDbEntity
  8
0
100
AcDbBlockEnd
  0
BLOCK
  5
A5
330
A1
100
AcDbEntity
  8
0
100
AcDbBlockBegin
  2
SEANNOT_GROUP9
 70
     0
 10
0.0
 20
0.0
 30
0.0
  3
SEANNOT_GROUP9
  1

  0
LINE
  5
A3
330
A1
100
AcDbEntity
  8
Default
  6
CENTER2
 62
     7
100
AcDbLine
 10
26.349999553
 20
274.875358972
 30
0.0
 11
-13.649999553
 21
274.875358972
 31
0.0
  0
LINE
  5
A4
330
A1
100
AcDbEntity
  8
Default
  6
CENTER2
 62
     7
100
AcDbLine
 10
6.35
 20
294.875358525
 30
0.0
 11
6.35
 21
254.875359419
 31
0.0
  0
ENDBLK
  5
A6
330
A1
100
AcDbEntity
  8
0
100
AcDbBlockEnd
  0
BLOCK
  5
AB
330
A7
100
AcDbEntity
  8
0
100
AcDbBlockBegin
  2
SEANNOT_GROUP10
 70
     0
 10
0.0
 20
0.0
 30
0.0
  3
SEANNOT_GROUP10
  1

  0
LINE
  5
A9
330
A7
100
AcDbEntity
  8
Default
  6
CENTER2
 62
     7
100
AcDbLine
 10
26.349999553
 20
157.755358972
 30
0.0
 11
-13.649999553
 21
157.755358972
 31
0.0
  0
LINE
  5
AA
330
A7
100
AcDbEntity
  8
Default
  6
CENTER2
 62
     7
100
AcDbLine
 10
6.35
 20
177.755358525
 30
0.0
 11
6.35
 21
137.755359419
 31
0.0
  0
ENDBLK
  5
AC
330
A7
100
AcDbEntity
  8
0
100
AcDbBlockEnd
  0
BLOCK
  5
B1
330
AD
100
AcDbEntity
  8
0
100
AcDbBlockBegin
  2
SEANNOT_GROUP11
 70
     0
 10
0.0
 20
0.0
 30
0.0
  3
SEANNOT_GROUP11
  1

  0
LINE
  5
AF
330
AD
100
AcDbEntity
  8
Default
  6
CENTER2
 62
     7
100
AcDbLine
 10
250.2499995526
 20
106.35
 30
0.0
 11
210.2500004467
 21
106.35
 31
0.0
  0
LINE
  5
B0
330
AD
100
AcDbEntity
  8
Default
  6
CENTER2
 62
     7
100
AcDbLine
 10
230.2499999996
 20
126.349999553
 30
0.0
 11
230.2499999996
 21
86.350000447
 31
0.0
  0
ENDBLK
  5
B2
330
AD
100
AcDbEntity
  8
0
100
AcDbBlockEnd
  0
BLOCK
  5
11E
330
B3
100
AcDbEntity
  8
0
100
AcDbBlockBegin
  2
SE
 70
     0
 10
0.0
 20
0.0
 30
0.0
  3
SE
  1

  0
LINE
  5
B6
330
B3
100
AcDbEntity
  8
$DDT_AUDIT_GENERATED_(B5)
  6
Continuous
 62
     7
100
AcDbLine
 10
62.75
 20
255.175358972
 30
0.0
 11
62.75
 21
294.575358972
 31
0.0
  0
LINE
  5
B7
330
B3
100
AcDbEntity
  8
$DDT_AUDIT_GENERATED_(B5)
  6
Continuous
 62
     7
100
AcDbLine
 10
247.75
 20
294.575358972
 30
0.0
 11
247.75
 21
255.175358972
 31
0.0
  0
SPLINE
  5
B8
330
B3
100
AcDbEntity
  8
$DDT_AUDIT_GENERATED_(B5)
  6
Continuous
 62
     7
100
AcDbSpline
210
0.0
220
0.0
230
1.0
 70
     8
 71
     3
 72
    16
 73
    12
 74
     0
 42
0.0000000000952647
 43
0.0000000001
 40
0.0
 40
0.0
 40
0.0
 40
0.0
 40
0.0301475087651924
 40
0.0589345746987611
 40
0.087603033595499
 40
0.1162899032052778
 40
0.145165991596406
 40
0.1754183382508953
 40
0.2061856727094146
 40
0.2371718161301257
 40
0.2691884534743241
 40
0.2691884534743241
 40
0.2691884534743241
 40
0.2691884534743241
 10
94.65642660485472
 20
283.6413827354855
 30
0.0
 10
95.23444545084078
 20
282.7941290419321
 30
0.0
 10
96.22549490325919
 20
281.001831083792
 30
0.0
 10
97.16235542341781
 20
277.9882415958066
 30
0.0
 10
97.48147256457295
 20
274.8252482457097
 30
0.0
 10
97.14181455155598
 20
271.6624295482321
 30
0.0
 10
96.18391878699089
 20
268.6508616158254
 30
0.0
 10
94.65495454394775
 20
265.9311307188327
 30
0.0
 10
92.65509172251593
 20
263.5782910873559
 30
0.0
 10
90.21969826606845
 20
261.655960633306
 30
0.0
 10
88.35487026749138
 20
260.6740508754402
 30
0.0
 10
87.34617024486757
 20
260.2639687702499
 30
0.0
  0
SPLINE
  5
B9
330
B3
100
AcDbEntity
  8
$DDT_AUDIT_GENERATED_(B5)
  6
Continuous
 62
     7
100
AcDbSpline
210
0.0
220
0.0
230
1.0
 70
     8
 71
     3
 72
    11
 73
     7
 74
     0
 42
0.0000000000925541
 43
0.0000000001
 40
0.280176349842889
 40
0.280176349842889
 40
0.280176349842889
 40
0.280176349842889
 40
0.3027578567181556
 40
0.3376486924755261
 40
0.3725874155645805
 40
0.3941268651285876
 40
0.3941268651285876
 40
0.3941268651285876
 40
0.3941268651285876
 10
86.28630894551094
 20
259.8734754347533
 30
0.0
 10
85.54597935234082
 20
259.627881722645
 30
0.0
 10
83.58898644833953
 20
259.1183386406731
 30
0.0
 10
80.19327853623476
 20
258.7948049755813
 30
0.0
 10
76.84123117846484
 20
259.1331448018739
 30
0.0
 10
74.92137423973574
 20
259.6388679878678
 30
0.0
 10
74.2151611848593
 20
259.8730083079252
 30
0.0
  0
SPLINE
  5
BA
330
B3
100
AcDbEntity
  8
$DDT_AUDIT_GENERATED_(B5)
  6
Continuous
 62
     7
100
AcDbSpline
210
0.0
220
0.0
230
1.0
 70
     8
 71
     3
 72
    20
 73
    16
 74
     0
 42
0.0000000000963246
 43
0.0000000001
 40
0.4030815660150556
 40
0.4030815660150556
 40
0.4030815660150556
 40
0.4030815660150556
 40
0.4040115923659742
 40
0.4381584924080869
 40
0.4691572412479935
 40
0.499901538519346
 40
0.5300231798068737
 40
0.5587910388161236
 40
0.5875534547603265
 40
0.6163326813108574
 40
0.6451831893267013
 40
0.6754075607740929
 40
0.7062033970466195
 40
0.7372175693152248
 40
0.7691571459295247
 40
0.7691571459295247
 40
0.7691571459295247
 40
0.7691571459295247
 10
73.34811359444292
 20
260.1862934098032
 30
0.0
 10
73.3185820932482
 20
260.1978707484882
 30
0.0
 10
72.20670917581421
 20
260.6373695480766
 30
0.0
 10
70.25081296941106
 20
261.6671544756668
 30
0.0
 10
67.77235730840455
 20
263.6485882621632
 30
0.0
 10
65.78886951968316
 20
266.0126196829068
 30
0.0
 10
64.27971695076494
 20
268.7369790036922
 30
0.0
 10
63.33978560161938
 20
271.7508833107814
 30
0.0
 10
63.01776326311395
 20
274.919879783096
 30
0.0
 10
63.35806404076562
 20
278.0888451424693
 30
0.0
 10
64.31696395843524
 20
281.1013625951653
 30
0.0
 10
65.84551605654637
 20
283.8202723919197
 30
0.0
 10
67.84605717320649
 20
286.1738185367801
 30
0.0
 10
70.2813156172647
 20
288.0952266709508
 30
0.0
 10
72.14476108862338
 20
289.0762995797912
 30
0.0
 10
73.15091559292401
 20
289.4855810019558
 30
0.0
  0
SPLINE
  5
BB
330
B3
100
AcDbEntity
  8
$DDT_AUDIT_GENERATED_(B5)
  6
Continuous
 62
     7
100
AcDbSpline
210
0.0
220
0.0
230
1.0
 70
     8
 71
     3
 72
    11
 73
     7
 74
     0
 42
0.0000000000925546
 43
0.0000000001
 40
0.7801768139604073
 40
0.7801768139604073
 40
0.7801768139604073
 40
0.7801768139604073
 40
0.8029534178313423
 40
0.8378197903272363
 40
0.8727492478333564
 40
0.8941366382205114
 40
0.8941366382205114
 40
0.8941366382205114
 40
0.8941366382205114
 10
74.21379212132379
 20
289.8773034308245
 30
0.0
 10
74.96053370338406
 20
290.1250213866115
 30
0.0
 10
76.9240249359332
 20
290.635063241512
 30
0.0
 10
80.32656232430637
 20
290.9557252217863
 30
0.0
 10
83.67082704891722
 20
290.6150190355123
 30
0.0
 10
85.5846475695575
 20
290.109882386921
 30
0.0
 10
86.28584913893442
 20
289.8773637545182
 30
0.0
  0
SPLINE
  5
BC
330
B3
100
AcDbEntity
  8
$DDT_AUDIT_GENERATED_(B5)
  6
Continuous
 62
     7
100
AcDbSpline
210
0.0
220
0.0
230
1.0
 70
     8
 71
     3
 72
    11
 73
     7
 74
     0
 42
0.0000000000994981
 43
0.0000000001
 40
0.9031192860063362
 40
0.9031192860063362
 40
0.9031192860063362
 40
0.9031192860063362
 40
0.9041572334098622
 40
0.9382822253201333
 40
0.9692737161387929
 40
1.0
 40
1.0
 40
1.0
 40
1.0
 10
87.15552942137569
 20
289.5629976112958
 30
0.0
 10
87.18848341757237
 20
289.5500703957755
 30
0.0
 10
88.30271014656336
 20
289.1089451081123
 30
0.0
 10
90.25985815774894
 20
288.0764713668887
 30
0.0
 10
92.73573777123818
 20
286.094211679734
 30
0.0
 10
94.0673108912737
 20
284.5049020960184
 30
0.0
 10
94.65642660485472
 20
283.6413827354855
 30
0.0
  0
ARC
  5
BD
330
B3
100
AcDbEntity
  8
$DDT_AUDIT_GENERATED_(B5)
  6
Continuous
 62
     7
100
AcDbCircle
 10
233.249999969
 20
237.1260013258
 30
0.0
 40
19.92340835767237
100
AcDbArc
 50
62.9839846211
 51
117.0160154496
  0
LINE
  5
BE
330
B3
100
AcDbEntity
  8
$DDT_AUDIT_GENERATED_(B5)
  6
Continuous
 62
     7
100
AcDbLine
 10
247.45
 20
294.875358972
 30
0.0
 11
63.05
 21
294.875358972
 31
0.0
  0
LINE
  5
BF
330
B3
100
AcDbEntity
  8
$DDT_AUDIT_GENERATED_(B5)
  6
Continuous
 62
     7
100
AcDbLine
 10
242.2961139136
 20
254.875358972
 30
0.0
 11
247.45
 21
254.875358972
 31
0.0
  0
LINE
  5
C0
330
B3
100
AcDbEntity
  8
$DDT_AUDIT_GENERATED_(B5)
  6
Continuous
 62
     7
100
AcDbLine
 10
63.05
 20
254.875358972
 30
0.0
 11
224.2050581959
 21
254.875358972
 31
0.0
  0
ARC
  5
C1
330
B3
100
AcDbEntity
  8
$DDT_AUDIT_GENERATED_(B5)
  6
Continuous
 62
     7
100
AcDbCircle
 10
63.05
 20
255.175358972
 30
0.0
 40
0.2999999999999947
100
AcDbArc
 50
180.0
 51
270.0
  0
ARC
  5
C2
330
B3
100
AcDbEntity
  8
$DDT_AUDIT_GENERATED_(B5)
  6
Continuous
 62
     7
100
AcDbCircle
 10
63.05
 20
294.575358972
 30
0.0
 40
0.3000000000000017
100
AcDbArc
 50
90.0
 51
180.0
  0
ARC
  5
C3
330
B3
100
AcDbEntity
  8
$DDT_AUDIT_GENERATED_(B5)
  6
Continuous
 62
     7
100
AcDbCircle
 10
247.45
 20
294.575358972
 30
0.0
 40
0.2999999999999947
100
AcDbArc
 50
0.0
 51
90.0
  0
ARC
  5
C4
330
B3
100
AcDbEntity
  8
$DDT_AUDIT_GENERATED_(B5)
  6
Continuous
 62
     7
100
AcDbCircle
 10
247.45
 20
255.175358972
 30
0.0
 40
0.3000000000000017
100
AcDbArc
 50
270.0
 51
0.0
  0
LINE
  5
C6
330
B3
100
AcDbEntity
  8
$DDT_AUDIT_GENERATED_(C5)
  6
Continuous
 62
     7
100
AcDbLine
 10
224.25
 20
249.375358972
 30
0.0
 11
242.25
 21
249.375358972
 31
0.0
  0
LINE
  5
C7
330
B3
100
AcDbEntity
  8
$DDT_AUDIT_GENERATED_(C5)
  6
Continuous
 62
     7
100
AcDbLine
 10
243.73
 20
247.895358972
 30
0.0
 11
222.77
 21
247.895358972
 31
0.0
  0
LINE
  5
C8
330
B3
100
AcDbEntity
  8
$DDT_AUDIT_GENERATED_(C5)
  6
Continuous
 62
     7
100
AcDbLine
 10
242.53
 20
240.475358972
 30
0.0
 11
223.97
 21
240.475358972
 31
0.0
  0
LINE
  5
C9
330
B3
100
AcDbEntity
  8
$DDT_AUDIT_GENERATED_(C5)
  6
Continuous
 62
     7
100
AcDbLine
 10
243.73
 20
241.675358972
 30
0.0
 11
222.77
 21
241.675358972
 31
0.0
  0
LINE
  5
CA
330
B3
100
AcDbEntity
  8
$DDT_AUDIT_GENERATED_(C5)
  6
Continuous
 62
     7
100
AcDbLine
 10
222.77
 20
247.895358972
 30
0.0
 11
222.77
 21
241.675358972
 31
0.0
  0
LINE
  5
CB
330
B3
100
AcDbEntity
  8
$DDT_AUDIT_GENERATED_(C5)
  6
Continuous
 62
     7
100
AcDbLine
 10
243.73
 20
241.675358972
 30
0.0
 11
243.73
 21
247.895358972
 31
0.0
  0
LINE
  5
CC
330
B3
100
AcDbEntity
  8
$DDT_AUDIT_GENERATED_(C5)
  6
Continuous
 62
     7
100
AcDbLine
 10
224.25
 20
254.8979268226
 30
0.0
 11
224.25
 21
249.375358972
 31
0.0
  0
LINE
  5
CD
330
B3
100
AcDbEntity
  8
$DDT_AUDIT_GENERATED_(C5)
  6
Continuous
 62
     7
100
AcDbLine
 10
242.25
 20
249.375358972
 30
0.0
 11
242.25
 21
254.8979338036
 31
0.0
  0
LINE
  5
CE
330
B3
100
AcDbEntity
  8
$DDT_AUDIT_GENERATED_(C5)
  6
Continuous
 62
     7
100
AcDbLine
 10
243.73
 20
247.895358972
 30
0.0
 11
242.25
 21
249.375358972
 31
0.0
  0
LINE
  5
CF
330
B3
100
AcDbEntity
  8
$DDT_AUDIT_GENERATED_(C5)
  6
Continuous
 62
     7
100
AcDbLine
 10
224.25
 20
249.375358972
 30
0.0
 11
222.77
 21
247.895358972
 31
0.0
  0
LINE
  5
D0
330
B3
100
AcDbEntity
  8
$DDT_AUDIT_GENERATED_(C5)
  6
Continuous
 62
     7
100
AcDbLine
 10
222.77
 20
241.675358972
 30
0.0
 11
223.97
 21
240.475358972
 31
0.0
  0
LINE
  5
D1
330
B3
100
AcDbEntity
  8
$DDT_AUDIT_GENERATED_(C5)
  6
Continuous
 62
     7
100
AcDbLine
 10
242.53
 20
240.475358972
 30
0.0
 11
243.73
 21
241.675358972
 31
0.0
  0
LINE
  5
D2
330
B3
100
AcDbEntity
  8
$DDT_AUDIT_GENERATED_(C5)
  6
Continuous
 62
     7
100
AcDbLine
 10
242.565
 20
249.060358972
 30
0.0
 11
242.565
 21
240.510358972
 31
0.0
  0
LINE
  5
D3
330
B3
100
AcDbEntity
  8
$DDT_AUDIT_GENERATED_(C5)
  6
Continuous
 62
     7
100
AcDbLine
 10
223.935
 20
249.060358972
 30
0.0
 11
223.935
 21
240.510358972
 31
0.0
  0
CIRCLE
  5
D5
330
B3
100
AcDbEntity
  8
$DDT_AUDIT_GENERATED_(D4)
  6
Continuous
 62
     7
100
AcDbCircle
 10
80.2499999996
 20
274.875358972
 30
0.0
 40
14.5
  0
ARC
  5
D6
330
B3
100
AcDbEntity
  8
$DDT_AUDIT_GENERATED_(D4)
  6
Continuous
 62
     7
100
AcDbCircle
 10
80.2499999996
 20
274.875358972
 30
0.0
 40
16.25000000000001
100
AcDbArc
 50
292.619864948
 51
307.380135052
  0
ARC
  5
D7
330
B3
100
AcDbEntity
  8
$DDT_AUDIT_GENERATED_(D4)
  6
Continuous
 62
     7
100
AcDbCircle
 10
80.2499999996
 20
274.875358972
 30
0.0
 40
16.25
100
AcDbArc
 50
232.619864948
 51
247.380135052
  0
ARC
  5
D8
330
B3
100
AcDbEntity
  8
$DDT_AUDIT_GENERATED_(D4)
  6
Continuous
 62
     7
100
AcDbCircle
 10
80.2499999996
 20
274.875358972
 30
0.0
 40
16.24999999999999
100
AcDbArc
 50
172.619864948
 51
187.380135052
  0
ARC
  5
D9
330
B3
100
AcDbEntity
  8
$DDT_AUDIT_GENERATED_(D4)
  6
Continuous
 62
     7
100
AcDbCircle
 10
80.2499999996
 20
274.875358972
 30
0.0
 40
16.25
100
AcDbArc
 50
112.619864948
 51
127.380135052
  0
ARC
  5
DA
330
B3
100
AcDbEntity
  8
$DDT_AUDIT_GENERATED_(D4)
  6
Continuous
 62
     7
100
AcDbCircle
 10
80.2499999996
 20
274.875358972
 30
0.0
 40
16.25
100
AcDbArc
 50
52.619864948
 51
67.380135052
  0
ARC
  5
DB
330
B3
100
AcDbEntity
  8
$DDT_AUDIT_GENERATED_(D4)
  6
Continuous
 62
     7
100
AcDbCircle
 10
80.2499999996
 20
274.875358972
 30
0.0
 40
16.25000000000001
100
AcDbArc
 50
352.619864948
 51
7.380135052
  0
LINE
  5
DC
330
B3
100
AcDbEntity
  8
$DDT_AUDIT_GENERATED_(D4)
  6
Continuous
 62
     7
100
AcDbLine
 10
96.3653810564
 20
272.7880177457
 30
0.0
 11
90.1153810564
 21
261.9627001984
 31
0.0
  0
LINE
  5
DD
330
B3
100
AcDbEntity
  8
$DDT_AUDIT_GENERATED_(D4)
  6
Continuous
 62
     7
100
AcDbLine
 10
90.1153810564
 20
287.7880177457
 30
0.0
 11
96.3653810564
 21
276.9627001984
 31
0.0
  0
LINE
  5
DE
330
B3
100
AcDbEntity
  8
$DDT_AUDIT_GENERATED_(D4)
  6
Continuous
 62
     7
100
AcDbLine
 10
73.9999999996
 20
289.875358972
 30
0.0
 11
86.4999999996
 21
289.875358972
 31
0.0
  0
LINE
  5
DF
330
B3
100
AcDbEntity
  8
$DDT_AUDIT_GENERATED_(D4)
  6
Continuous
 62
     7
100
AcDbLine
 10
64.1346189429
 20
276.9627001984
 30
0.0
 11
70.3846189429
 21
287.7880177457
 31
0.0
  0
LINE
  5
E0
330
B3
100
AcDbEntity
  8
$DDT_AUDIT_GENERATED_(D4)
  6
Continuous
 62
     7
100
AcDbLine
 10
70.3846189429
 20
261.9627001984
 30
0.0
 11
64.1346189429
 21
272.7880177457
 31
0.0
  0
LINE
  5
E1
330
B3
100
AcDbEntity
  8
$DDT_AUDIT_GENERATED_(D4)
  6
Continuous
 62
     7
100
AcDbLine
 10
86.4999999996
 20
259.875358972
 30
0.0
 11
73.9999999996
 21
259.875358972
 31
0.0
  0
LINE
  5
E3
330
B3
100
AcDbEntity
  8
$DDT_AUDIT_GENERATED_(E2)
  6
Continuous
 62
     7
100
AcDbLine
 10
62.75
 20
281.2707682938
 30
0.0
 11
62.35
 21
281.2707682938
 31
0.0
  0
LINE
  5
E4
330
B3
100
AcDbEntity
  8
$DDT_AUDIT_GENERATED_(E2)
  6
Continuous
 62
     7
100
AcDbLine
 10
62.75
 20
292.6444072465
 30
0.0
 11
62.35
 21
292.6444072465
 31
0.0
  0
LINE
  5
E5
330
B3
100
AcDbEntity
  8
$DDT_AUDIT_GENERATED_(E2)
  6
Continuous
 62
     7
100
AcDbLine
 10
62.75
 20
257.1063106975
 30
0.0
 11
62.35
 21
257.1063106975
 31
0.0
  0
LINE
  5
E6
330
B3
100
AcDbEntity
  8
$DDT_AUDIT_GENERATED_(E2)
  6
Continuous
 62
     7
100
AcDbLine
 10
62.75
 20
263.5017200193
 30
0.0
 11
62.35
 21
263.5017200193
 31
0.0
  0
LINE
  5
E7
330
B3
100
AcDbEntity
  8
$DDT_AUDIT_GENERATED_(E2)
  6
Continuous
 62
     7
100
AcDbLine
 10
62.35
 20
274.6203130516
 30
0.0
 11
62.75
 21
274.6203130516
 31
0.0
  0
LINE
  5
E8
330
B3
100
AcDbEntity
  8
$DDT_AUDIT_GENERATED_(E2)
  6
Continuous
 62
     7
100
AcDbLine
 10
62.35
 20
259.1609436441
 30
0.0
 11
62.75
 21
259.1609436441
 31
0.0
  0
LINE
  5
E9
330
B3
100
AcDbEntity
  8
$DDT_AUDIT_GENERATED_(E2)
  6
Continuous
 62
     7
100
AcDbLine
 10
62.35
 20
290.3347283796
 30
0.0
 11
62.75
 21
290.3347283796
 31
0.0
  0
LINE
  5
EB
330
B3
100
AcDbEntity
  8
$DDT_AUDIT_GENERATED_(EA)
  6
Continuous
 62
     7
100
AcDbLine
 10
248.47
 20
281.5220773482
 30
0.0
 11
247.75
 21
281.5220773482
 31
0.0
  0
LINE
  5
EC
330
B3
100
AcDbEntity
  8
$DDT_AUDIT_GENERATED_(EA)
  6
Continuous
 62
     7
100
AcDbLine
 10
248.47
 20
285.8522043671
 30
0.0
 11
247.75
 21
285.8522043671
 31
0.0
  0
LINE
  5
ED
330
B3
100
AcDbEntity
  8
$DDT_AUDIT_GENERATED_(EA)
  6
Continuous
 62
     7
100
AcDbLine
 10
248.47
 20
285.1951756966
 30
0.0
 11
247.75
 21
285.1951756966
 31
0.0
  0
LINE
  5
EE
330
B3
100
AcDbEntity
  8
$DDT_AUDIT_GENERATED_(EA)
  6
Continuous
 62
     7
100
AcDbLine
 10
247.75
 20
257.075358972
 30
0.0
 11
248.47
 21
257.075358972
 31
0.0
  0
LINE
  5
EF
330
B3
100
AcDbEntity
  8
$DDT_AUDIT_GENERATED_(EA)
  6
Continuous
 62
     7
100
AcDbLine
 10
248.47
 20
292.675358972
 30
0.0
 11
247.75
 21
292.675358972
 31
0.0
  0
CIRCLE
  5
F0
330
B3
100
AcDbEntity
  8
$DDT_AUDIT_GENERATED_(D4)
  6
Continuous
 62
     7
100
AcDbCircle
 10
230.2499999996
 20
274.875358972
 30
0.0
 40
14.5
  0
ARC
  5
F1
330
B3
100
AcDbEntity
  8
$DDT_AUDIT_GENERATED_(D4)
  6
Continuous
 62
     7
100
AcDbCircle
 10
230.2499999996
 20
274.875358972
 30
0.0
 40
16.25
100
AcDbArc
 50
22.619864948
 51
37.380135052
  0
ARC
  5
F2
330
B3
100
AcDbEntity
  8
$DDT_AUDIT_GENERATED_(D4)
  6
Continuous
 62
     7
100
AcDbCircle
 10
230.2499999996
 20
274.875358972
 30
0.0
 40
16.25
100
AcDbArc
 50
322.619864948
 51
337.380135052
  0
ARC
  5
F3
330
B3
100
AcDbEntity
  8
$DDT_AUDIT_GENERATED_(D4)
  6
Continuous
 62
     7
100
AcDbCircle
 10
230.2499999996
 20
274.875358972
 30
0.0
 40
16.25
100
AcDbArc
 50
262.619864948
 51
277.380135052
  0
ARC
  5
F4
330
B3
100
AcDbEntity
  8
$DDT_AUDIT_GENERATED_(D4)
  6
Continuous
 62
     7
100
AcDbCircle
 10
230.2499999996
 20
274.875358972
 30
0.0
 40
16.25
100
AcDbArc
 50
202.619864948
 51
217.380135052
  0
ARC
  5
F5
330
B3
100
AcDbEntity
  8
$DDT_AUDIT_GENERATED_(D4)
  6
Continuous
 62
     7
100
AcDbCircle
 10
230.2499999996
 20
274.875358972
 30
0.0
 40
16.25
100
AcDbArc
 50
142.619864948
 51
157.380135052
  0
ARC
  5
F6
330
B3
100
AcDbEntity
  8
$DDT_AUDIT_GENERATED_(D4)
  6
Continuous
 62
     7
100
AcDbCircle
 10
230.2499999996
 20
274.875358972
 30
0.0
 40
16.25
100
AcDbArc
 50
82.619864948
 51
97.380135052
  0
LINE
  5
F7
330
B3
100
AcDbEntity
  8
$DDT_AUDIT_GENERATED_(D4)
  6
Continuous
 62
     7
100
AcDbLine
 10
232.337341226
 20
290.9907400288
 30
0.0
 11
243.1626587733
 21
284.7407400288
 31
0.0
  0
LINE
  5
F8
330
B3
100
AcDbEntity
  8
$DDT_AUDIT_GENERATED_(D4)
  6
Continuous
 62
     7
100
AcDbLine
 10
217.337341226
 20
284.7407400288
 30
0.0
 11
228.1626587733
 21
290.9907400288
 31
0.0
  0
LINE
  5
F9
330
B3
100
AcDbEntity
  8
$DDT_AUDIT_GENERATED_(D4)
  6
Continuous
 62
     7
100
AcDbLine
 10
215.2499999996
 20
268.625358972
 30
0.0
 11
215.2499999996
 21
281.125358972
 31
0.0
  0
LINE
  5
FA
330
B3
100
AcDbEntity
  8
$DDT_AUDIT_GENERATED_(D4)
  6
Continuous
 62
     7
100
AcDbLine
 10
228.1626587733
 20
258.7599779153
 30
0.0
 11
217.337341226
 21
265.0099779153
 31
0.0
  0
LINE
  5
FB
330
B3
100
AcDbEntity
  8
$DDT_AUDIT_GENERATED_(D4)
  6
Continuous
 62
     7
100
AcDbLine
 10
243.1626587733
 20
265.0099779153
 30
0.0
 11
232.337341226
 21
258.7599779153
 31
0.0
  0
LINE
  5
FC
330
B3
100
AcDbEntity
  8
$DDT_AUDIT_GENERATED_(D4)
  6
Continuous
 62
     7
100
AcDbLine
 10
245.2499999996
 20
281.125358972
 30
0.0
 11
245.2499999996
 21
268.625358972
 31
0.0
  0
LINE
  5
FE
330
B3
100
AcDbEntity
  8
$DDT_AUDIT_GENERATED_(FD)
  6
Continuous
 62
     7
100
AcDbLine
 10
248.47
 20
255.375358972
 30
0.0
 11
248.47
 21
294.375358972
 31
0.0
  0
LINE
  5
FF
330
B3
100
AcDbEntity
  8
$DDT_AUDIT_GENERATED_(FD)
  6
Continuous
 62
     7
100
AcDbLine
 10
304.47
 20
255.875358972
 30
0.0
 11
304.47
 21
293.875358972
 31
0.0
  0
ARC
  5
100
330
B3
100
AcDbEntity
  8
$DDT_AUDIT_GENERATED_(FD)
  6
Continuous
 62
     7
100
AcDbCircle
 10
295.97
 20
274.875358972
 30
0.0
 40
2.000000000000002
100
AcDbArc
 50
270.0
 51
90.0
  0
LINE
  5
101
330
B3
100
AcDbEntity
  8
$DDT_AUDIT_GENERATED_(FD)
  6
Continuous
 62
     7
100
AcDbLine
 10
295.97
 20
272.875358972
 30
0.0
 11
256.97
 21
272.875358972
 31
0.0
  0
ARC
  5
102
330
B3
100
AcDbEntity
  8
$DDT_AUDIT_GENERATED_(FD)
  6
Continuous
 62
     7
100
AcDbCircle
 10
256.97
 20
274.875358972
 30
0.0
 40
2.000000000000011
100
AcDbArc
 50
90.0
 51
270.0
  0
LINE
  5
103
330
B3
100
AcDbEntity
  8
$DDT_AUDIT_GENERATED_(FD)
  6
Continuous
 62
     7
100
AcDbLine
 10
256.97
 20
276.875358972
 30
0.0
 11
295.97
 21
276.875358972
 31
0.0
  0
LINE
  5
104
330
B3
100
AcDbEntity
  8
$DDT_AUDIT_GENERATED_(FD)
  6
Continuous
 62
     7
100
AcDbLine
 10
248.97
 20
254.875358972
 30
0.0
 11
303.47
 21
254.875358972
 31
0.0
  0
LINE
  5
105
330
B3
100
AcDbEntity
  8
$DDT_AUDIT_GENERATED_(FD)
  6
Continuous
 62
     7
100
AcDbLine
 10
303.47
 20
294.875358972
 30
0.0
 11
248.97
 21
294.875358972
 31
0.0
  0
ARC
  5
106
330
B3
100
AcDbEntity
  8
$DDT_AUDIT_GENERATED_(FD)
  6
Continuous
 62
     7
100
AcDbCircle
 10
248.97
 20
255.375358972
 30
0.0
 40
0.5000000000000004
100
AcDbArc
 50
180.0
 51
270.0
  0
ARC
  5
107
330
B3
100
AcDbEntity
  8
$DDT_AUDIT_GENERATED_(FD)
  6
Continuous
 62
     7
100
AcDbCircle
 10
248.97
 20
294.375358972
 30
0.0
 40
0.4999999999998408
100
AcDbArc
 50
90.0
 51
180.0
  0
ARC
  5
108
330
B3
100
AcDbEntity
  8
$DDT_AUDIT_GENERATED_(FD)
  6
Continuous
 62
     7
100
AcDbCircle
 10
303.47
 20
293.875358972
 30
0.0
 40
0.9999999999997511
100
AcDbArc
 50
0.0
 51
90.0
  0
ARC
  5
109
330
B3
100
AcDbEntity
  8
$DDT_AUDIT_GENERATED_(FD)
  6
Continuous
 62
     7
100
AcDbCircle
 10
303.47
 20
255.875358972
 30
0.0
 40
0.9999999999995047
100
AcDbArc
 50
270.0
 51
0.0
  0
CIRCLE
  5
10B
330
B3
100
AcDbEntity
  8
$DDT_AUDIT_GENERATED_(10A)
  6
Continuous
 62
     7
100
AcDbCircle
 10
80.2499999996
 20
274.875358972
 30
0.0
 40
14.0
  0
CIRCLE
  5
10C
330
B3
100
AcDbEntity
  8
$DDT_AUDIT_GENERATED_(10A)
  6
Continuous
 62
     7
100
AcDbCircle
 10
80.2499999996
 20
274.875358972
 30
0.0
 40
11.23088457654259
  0
CIRCLE
  5
10D
330
B3
100
AcDbEntity
  8
$DDT_AUDIT_GENERATED_(10A)
  6
Continuous
 62
     7
100
AcDbCircle
 10
80.2499999996
 20
274.875358972
 30
0.0
 40
12.02967676456173
  0
CIRCLE
  5
10F
330
B3
100
AcDbEntity
  8
$DDT_AUDIT_GENERATED_(10E)
  6
Continuous
 62
     7
100
AcDbCircle
 10
230.2499999996
 20
274.875358972
 30
0.0
 40
14.0
  0
CIRCLE
  5
110
330
B3
100
AcDbEntity
  8
$DDT_AUDIT_GENERATED_(10E)
  6
Continuous
 62
     7
100
AcDbCircle
 10
230.2499999996
 20
274.875358972
 30
0.0
 40
11.23088457654259
  0
CIRCLE
  5
111
330
B3
100
AcDbEntity
  8
$DDT_AUDIT_GENERATED_(10E)
  6
Continuous
 62
     7
100
AcDbCircle
 10
230.2499999996
 20
274.875358972
 30
0.0
 40
12.02967676456173
  0
LINE
  5
112
330
B3
100
AcDbEntity
  8
$DDT_AUDIT_GENERATED_(FD)
  6
Continuous
 62
     7
100
AcDbLine
 10
62.35
 20
294.375358972
 30
0.0
 11
62.35
 21
255.375358972
 31
0.0
  0
LINE
  5
113
330
B3
100
AcDbEntity
  8
$DDT_AUDIT_GENERATED_(FD)
  6
Continuous
 62
     7
100
AcDbLine
 10
6.35
 20
293.875358972
 30
0.0
 11
6.35
 21
255.875358972
 31
0.0
  0
ARC
  5
114
330
B3
100
AcDbEntity
  8
$DDT_AUDIT_GENERATED_(FD)
  6
Continuous
 62
     7
100
AcDbCircle
 10
14.85
 20
274.875358972
 30
0.0
 40
2.000000000000002
100
AcDbArc
 50
90.0
 51
270.0
  0
LINE
  5
115
330
B3
100
AcDbEntity
  8
$DDT_AUDIT_GENERATED_(FD)
  6
Continuous
 62
     7
100
AcDbLine
 10
14.85
 20
276.875358972
 30
0.0
 11
53.85
 21
276.875358972
 31
0.0
  0
ARC
  5
116
330
B3
100
AcDbEntity
  8
$DDT_AUDIT_GENERATED_(FD)
  6
Continuous
 62
     7
100
AcDbCircle
 10
53.85
 20
274.875358972
 30
0.0
 40
2.00000000000001
100
AcDbArc
 50
270.0
 51
90.0
  0
LINE
  5
117
330
B3
100
AcDbEntity
  8
$DDT_AUDIT_GENERATED_(FD)
  6
Continuous
 62
     7
100
AcDbLine
 10
53.85
 20
272.875358972
 30
0.0
 11
14.85
 21
272.875358972
 31
0.0
  0
LINE
  5
118
330
B3
100
AcDbEntity
  8
$DDT_AUDIT_GENERATED_(FD)
  6
Continuous
 62
     7
100
AcDbLine
 10
61.85
 20
294.875358972
 30
0.0
 11
7.35
 21
294.875358972
 31
0.0
  0
LINE
  5
119
330
B3
100
AcDbEntity
  8
$DDT_AUDIT_GENERATED_(FD)
  6
Continuous
 62
     7
100
AcDbLine
 10
7.35
 20
254.875358972
 30
0.0
 11
61.85
 21
254.875358972
 31
0.0
  0
ARC
  5
11A
330
B3
100
AcDbEntity
  8
$DDT_AUDIT_GENERATED_(FD)
  6
Continuous
 62
     7
100
AcDbCircle
 10
61.85
 20
294.375358972
 30
0.0
 40
0.5000000000000004
100
AcDbArc
 50
0.0
 51
90.0
  0
ARC
  5
11B
330
B3
100
AcDbEntity
  8
$DDT_AUDIT_GENERATED_(FD)
  6
Continuous
 62
     7
100
AcDbCircle
 10
61.85
 20
255.375358972
 30
0.0
 40
0.4999999999998408
100
AcDbArc
 50
270.0
 51
0.0
  0
ARC
  5
11C
330
B3
100
AcDbEntity
  8
$DDT_AUDIT_GENERATED_(FD)
  6
Continuous
 62
     7
100
AcDbCircle
 10
7.35
 20
255.875358972
 30
0.0
 40
0.9999999999997511
100
AcDbArc
 50
180.0
 51
270.0
  0
ARC
  5
11D
330
B3
100
AcDbEntity
  8
$DDT_AUDIT_GENERATED_(FD)
  6
Continuous
 62
     7
100
AcDbCircle
 10
7.35
 20
293.875358972
 30
0.0
 40
0.9999999999995047
100
AcDbArc
 50
90.0
 51
180.0
  0
ENDBLK
  5
11F
330
B3
100
AcDbEntity
  8
0
100
AcDbBlockEnd
  0
BLOCK
  5
197
330
120
100
AcDbEntity
  8
0
100
AcDbBlockBegin
  2
SE1
 70
     0
 10
0.0
 20
0.0
 30
0.0
  3
SE1
  1

  0
LINE
  5
122
330
120
100
AcDbEntity
  8
$DDT_AUDIT_GENERATED_(B5)
  6
Continuous
 62
     7
100
AcDbLine
 10
422.6748476959
 20
260.175358972
 30
0.0
 11
422.6748476959
 21
289.575358972
 31
0.0
  0
LINE
  5
123
330
120
100
AcDbEntity
  8
$DDT_AUDIT_GENERATED_(B5)
  6
Continuous
 62
     7
100
AcDbLine
 10
422.3748476959
 20
289.875358972
 30
0.0
 11
404.776050469
 21
289.875358972
 31
0.0
  0
LINE
  5
124
330
120
100
AcDbEntity
  8
$DDT_AUDIT_GENERATED_(B5)
  6
Continuous
 62
     7
100
AcDbLine
 10
404.7763260228
 20
259.875358972
 30
0.0
 11
422.3748476959
 21
259.875358972
 31
0.0
  0
ARC
  5
125
330
120
100
AcDbEntity
  8
$DDT_AUDIT_GENERATED_(B5)
  6
Continuous
 62
     7
100
AcDbCircle
 10
422.3748476959
 20
289.575358972
 30
0.0
 40
0.3000000000000017
100
AcDbArc
 50
0.0
 51
90.0
  0
ARC
  5
126
330
120
100
AcDbEntity
  8
$DDT_AUDIT_GENERATED_(B5)
  6
Continuous
 62
     7
100
AcDbCircle
 10
422.3748476959
 20
260.175358972
 30
0.0
 40
0.2999999999999999
100
AcDbArc
 50
270.0
 51
0.0
  0
ARC
  5
127
330
120
100
AcDbEntity
  8
$DDT_AUDIT_GENERATED_(B5)
  6
Continuous
 62
     7
100
AcDbCircle
 10
404.8844240803
 20
295.3583822898
 30
0.0
 40
5.484122017585743
100
AcDbArc
 50
242.8247682976
 51
268.8532841899
  0
SPLINE
  5
128
330
120
100
AcDbEntity
  8
$DDT_AUDIT_GENERATED_(B5)
  6
Continuous
 62
     7
100
AcDbSpline
210
0.0
220
0.0
230
1.0
 70
     8
 71
     3
 72
    21
 73
    17
 74
     0
 42
0.0000000036003924
 43
0.0000000001
 40
0.0989657953040309
 40
0.0989657953040309
 40
0.0989657953040309
 40
0.0989657953040309
 40
0.1755627510053346
 40
0.3241411230871789
 40
0.4459534583948475
 40
0.5417553498371951
 40
0.6125414955272693
 40
0.659575884633795
 40
0.6749275473304518
 40
0.6808462259612597
 40
0.6858233923403014
 40
0.7042774041723204
 40
0.7535004111959901
 40
0.8195137361425738
 40
0.9019509015827126
 40
1.0
 40
1.0
 40
1.0
 40
1.0
 10
402.3761776557593
 20
259.2639998767125
 30
0.0
 10
402.3760630159759
 20
259.2623163994398
 30
0.0
 10
402.3819011560986
 20
259.2606974192834
 30
0.0
 10
402.4338200760672
 20
259.2802437045625
 30
0.0
 10
402.5388983505703
 20
259.3264511791778
 30
0.0
 10
402.6637427578772
 20
259.382981469254
 30
0.0
 10
402.7913713110981
 20
259.4401502916637
 30
0.0
 10
402.8976231954013
 20
259.4864242353968
 30
0.0
 10
402.9759304818515
 20
259.5189989397826
 30
0.0
 10
403.0130891829272
 20
259.5340651386784
 30
0.0
 10
403.0611233937383
 20
259.5532401029188
 30
0.0
 10
403.1924865450563
 20
259.6036071955804
 30
0.0
 10
403.4289675697502
 20
259.6831662256243
 30
0.0
 10
403.7893788952364
 20
259.7775991747118
 30
0.0
 10
404.2563635573986
 20
259.8576007973594
 30
0.0
 10
404.5714647933456
 20
259.8693823673179
 30
0.0
 10
404.7746708181482
 20
259.8753592730881
 30
0.0
  0
ARC
  5
129
330
120
100
AcDbEntity
  8
$DDT_AUDIT_GENERATED_(B5)
  6
Continuous
 62
     7
100
AcDbCircle
 10
404.8466975462
 20
295.0197249443
 30
0.0
 40
5.144753397558602
100
AcDbArc
 50
261.018887617
 51
269.1977827385
  0
ARC
  5
12A
330
120
100
AcDbEntity
  8
$DDT_AUDIT_GENERATED_(B5)
  6
Continuous
 62
     7
100
AcDbCircle
 10
404.8466975462
 20
295.0197249443
 30
0.0
 40
5.144753397558602
100
AcDbArc
 50
239.9599599758
 51
253.841505528
  0
ARC
  5
12B
330
120
100
AcDbEntity
  8
$DDT_AUDIT_GENERATED_(B5)
  6
Continuous
 62
     7
100
AcDbCircle
 10
404.8351641776
 20
254.7699011173
 30
0.0
 40
5.105777409609472
100
AcDbArc
 50
106.3154964078
 51
120.1099240302
  0
ARC
  5
12C
330
120
100
AcDbEntity
  8
$DDT_AUDIT_GENERATED_(B5)
  6
Continuous
 62
     7
100
AcDbCircle
 10
404.8351641776
 20
254.7699011173
 30
0.0
 40
5.105777409609472
100
AcDbArc
 50
90.6778104151
 51
96.7716970738
  0
LINE
  5
12D
330
120
100
AcDbEntity
  8
$DDT_AUDIT_GENERATED_(C5)
  6
Continuous
 62
     7
100
AcDbLine
 10
380.8694887239
 20
249.375358972
 30
0.0
 11
398.8694887239
 21
249.375358972
 31
0.0
  0
LINE
  5
12E
330
120
100
AcDbEntity
  8
$DDT_AUDIT_GENERATED_(C5)
  6
Continuous
 62
     7
100
AcDbLine
 10
400.3494887239
 20
247.895358972
 30
0.0
 11
379.3894887239
 21
247.895358972
 31
0.0
  0
LINE
  5
12F
330
120
100
AcDbEntity
  8
$DDT_AUDIT_GENERATED_(C5)
  6
Continuous
 62
     7
100
AcDbLine
 10
399.1494887239
 20
240.475358972
 30
0.0
 11
380.5894887239
 21
240.475358972
 31
0.0
  0
LINE
  5
130
330
120
100
AcDbEntity
  8
$DDT_AUDIT_GENERATED_(C5)
  6
Continuous
 62
     7
100
AcDbLine
 10
400.3494887239
 20
241.675358972
 30
0.0
 11
379.3894887239
 21
241.675358972
 31
0.0
  0
LINE
  5
131
330
120
100
AcDbEntity
  8
$DDT_AUDIT_GENERATED_(C5)
  6
Continuous
 62
     7
100
AcDbLine
 10
379.3894887239
 20
247.895358972
 30
0.0
 11
379.3894887239
 21
241.675358972
 31
0.0
  0
LINE
  5
132
330
120
100
AcDbEntity
  8
$DDT_AUDIT_GENERATED_(C5)
  6
Continuous
 62
     7
100
AcDbLine
 10
400.3494887239
 20
241.675358972
 30
0.0
 11
400.3494887239
 21
247.895358972
 31
0.0
  0
LINE
  5
133
330
120
100
AcDbEntity
  8
$DDT_AUDIT_GENERATED_(C5)
  6
Continuous
 62
     7
100
AcDbLine
 10
380.8694887239
 20
257.0147878725
 30
0.0
 11
380.8694887239
 21
249.375358972
 31
0.0
  0
LINE
  5
134
330
120
100
AcDbEntity
  8
$DDT_AUDIT_GENERATED_(C5)
  6
Continuous
 62
     7
100
AcDbLine
 10
398.8694887239
 20
249.375358972
 30
0.0
 11
398.8694887239
 21
257.0147878725
 31
0.0
  0
LINE
  5
135
330
120
100
AcDbEntity
  8
$DDT_AUDIT_GENERATED_(C5)
  6
Continuous
 62
     7
100
AcDbLine
 10
400.3494887239
 20
247.895358972
 30
0.0
 11
398.8694887239
 21
249.375358972
 31
0.0
  0
LINE
  5
136
330
120
100
AcDbEntity
  8
$DDT_AUDIT_GENERATED_(C5)
  6
Continuous
 62
     7
100
AcDbLine
 10
380.8694887239
 20
249.375358972
 30
0.0
 11
379.3894887239
 21
247.895358972
 31
0.0
  0
LINE
  5
137
330
120
100
AcDbEntity
  8
$DDT_AUDIT_GENERATED_(C5)
  6
Continuous
 62
     7
100
AcDbLine
 10
379.3894887239
 20
241.675358972
 30
0.0
 11
380.5894887239
 21
240.475358972
 31
0.0
  0
LINE
  5
138
330
120
100
AcDbEntity
  8
$DDT_AUDIT_GENERATED_(C5)
  6
Continuous
 62
     7
100
AcDbLine
 10
399.1494887239
 20
240.475358972
 30
0.0
 11
400.3494887239
 21
241.675358972
 31
0.0
  0
LINE
  5
139
330
120
100
AcDbEntity
  8
$DDT_AUDIT_GENERATED_(C5)
  6
Continuous
 62
     7
100
AcDbLine
 10
399.1844887239
 20
249.060358972
 30
0.0
 11
399.1844887239
 21
240.510358972
 31
0.0
  0
LINE
  5
13A
330
120
100
AcDbEntity
  8
$DDT_AUDIT_GENERATED_(C5)
  6
Continuous
 62
     7
100
AcDbLine
 10
380.5544887239
 20
249.060358972
 30
0.0
 11
380.5544887239
 21
240.510358972
 31
0.0
  0
LINE
  5
13C
330
120
100
AcDbEntity
  8
$DDT_AUDIT_GENERATED_(13B)
  6
Continuous
 62
     7
100
AcDbLine
 10
423.3748476959
 20
285.325358972
 30
0.0
 11
423.3748476959
 21
264.425358972
 31
0.0
  0
LINE
  5
13D
330
120
100
AcDbEntity
  8
$DDT_AUDIT_GENERATED_(13B)
  6
Continuous
 62
     7
100
AcDbLine
 10
422.6748476959
 20
264.425358972
 30
0.0
 11
423.3748476959
 21
264.425358972
 31
0.0
  0
LINE
  5
13E
330
120
100
AcDbEntity
  8
$DDT_AUDIT_GENERATED_(13B)
  6
Continuous
 62
     7
100
AcDbLine
 10
423.3748476959
 20
285.325358972
 30
0.0
 11
422.6748476959
 21
285.325358972
 31
0.0
  0
LINE
  5
13F
330
120
100
AcDbEntity
  8
$DDT_AUDIT_GENERATED_(13B)
  6
Continuous
 62
     7
100
AcDbLine
 10
423.3748476959
 20
264.425358972
 30
0.0
 11
423.4748476959
 21
264.5088093468
 31
0.0
  0
LINE
  5
140
330
120
100
AcDbEntity
  8
$DDT_AUDIT_GENERATED_(13B)
  6
Continuous
 62
     7
100
AcDbLine
 10
423.4748476959
 20
285.2419085972
 30
0.0
 11
423.3748476959
 21
285.325358972
 31
0.0
  0
LINE
  5
141
330
120
100
AcDbEntity
  8
$DDT_AUDIT_GENERATED_(D4)
  6
Continuous
 62
     7
100
AcDbLine
 10
423.4748476959
 20
289.375358972
 30
0.0
 11
423.4748476959
 21
260.375358972
 31
0.0
  0
LINE
  5
142
330
120
100
AcDbEntity
  8
$DDT_AUDIT_GENERATED_(D4)
  6
Continuous
 62
     7
100
AcDbLine
 10
440.4748476959
 20
289.375358972
 30
0.0
 11
440.4748476959
 21
260.375358972
 31
0.0
  0
LINE
  5
143
330
120
100
AcDbEntity
  8
$DDT_AUDIT_GENERATED_(D4)
  6
Continuous
 62
     7
100
AcDbLine
 10
436.9748476959
 20
259.875358972
 30
0.0
 11
436.9748476959
 21
261.9627001984
 31
0.0
  0
LINE
  5
144
330
120
100
AcDbEntity
  8
$DDT_AUDIT_GENERATED_(D4)
  6
Continuous
 62
     7
100
AcDbLine
 10
436.9748476959
 20
272.7880177457
 30
0.0
 11
436.9748476959
 21
276.9627001984
 31
0.0
  0
LINE
  5
145
330
120
100
AcDbEntity
  8
$DDT_AUDIT_GENERATED_(D4)
  6
Continuous
 62
     7
100
AcDbLine
 10
436.9748476959
 20
287.7880177457
 30
0.0
 11
436.9748476959
 21
289.875358972
 31
0.0
  0
LINE
  5
146
330
120
100
AcDbEntity
  8
$DDT_AUDIT_GENERATED_(D4)
  6
Continuous
 62
     7
100
AcDbLine
 10
439.770576425
 20
289.875358972
 30
0.0
 11
436.9748476959
 21
289.875358972
 31
0.0
  0
ARC
  5
147
330
120
100
AcDbEntity
  8
$DDT_AUDIT_GENERATED_(D4)
  6
Continuous
 62
     7
100
AcDbCircle
 10
433.1962881767
 20
282.375358972
 30
0.0
 40
6.601089837288625
100
AcDbArc
 50
304.9187681796
 51
55.0812318204
  0
ARC
  5
148
330
120
100
AcDbEntity
  8
$DDT_AUDIT_GENERATED_(D4)
  6
Continuous
 62
     7
100
AcDbCircle
 10
433.1962881767
 20
267.375358972
 30
0.0
 40
6.601089837288617
100
AcDbArc
 50
304.9187681796
 51
55.0812318204
  0
LINE
  5
149
330
120
100
AcDbEntity
  8
$DDT_AUDIT_GENERATED_(D4)
  6
Continuous
 62
     7
100
AcDbLine
 10
436.9748476959
 20
259.875358972
 30
0.0
 11
439.770576425
 21
259.875358972
 31
0.0
  0
LINE
  5
14A
330
120
100
AcDbEntity
  8
$DDT_AUDIT_GENERATED_(D4)
  6
Continuous
 62
     7
100
AcDbLine
 10
426.9748476959
 20
259.875358972
 30
0.0
 11
426.9748476959
 21
261.9627001984
 31
0.0
  0
LINE
  5
14B
330
120
100
AcDbEntity
  8
$DDT_AUDIT_GENERATED_(D4)
  6
Continuous
 62
     7
100
AcDbLine
 10
426.9748476959
 20
272.7880177457
 30
0.0
 11
426.9748476959
 21
276.9627001984
 31
0.0
  0
LINE
  5
14C
330
120
100
AcDbEntity
  8
$DDT_AUDIT_GENERATED_(D4)
  6
Continuous
 62
     7
100
AcDbLine
 10
426.9748476959
 20
287.7880177457
 30
0.0
 11
426.9748476959
 21
289.875358972
 31
0.0
  0
LINE
  5
14D
330
120
100
AcDbEntity
  8
$DDT_AUDIT_GENERATED_(D4)
  6
Continuous
 62
     7
100
AcDbLine
 10
424.1791189668
 20
259.875358972
 30
0.0
 11
426.9748476959
 21
259.875358972
 31
0.0
  0
LINE
  5
14E
330
120
100
AcDbEntity
  8
$DDT_AUDIT_GENERATED_(D4)
  6
Continuous
 62
     7
100
AcDbLine
 10
426.9748476959
 20
259.875358972
 30
0.0
 11
436.9748476959
 21
259.875358972
 31
0.0
  0
LINE
  5
14F
330
120
100
AcDbEntity
  8
$DDT_AUDIT_GENERATED_(D4)
  6
Continuous
 62
     7
100
AcDbLine
 10
436.9748476959
 20
261.9627001984
 30
0.0
 11
426.9748476959
 21
261.9627001984
 31
0.0
  0
ARC
  5
150
330
120
100
AcDbEntity
  8
$DDT_AUDIT_GENERATED_(D4)
  6
Continuous
 62
     7
100
AcDbCircle
 10
430.753407215
 20
267.375358972
 30
0.0
 40
6.6010898372886
100
AcDbArc
 50
124.9187681796
 51
235.0812318204
  0
LINE
  5
151
330
120
100
AcDbEntity
  8
$DDT_AUDIT_GENERATED_(D4)
  6
Continuous
 62
     7
100
AcDbLine
 10
426.9748476959
 20
272.7880177457
 30
0.0
 11
436.9748476959
 21
272.7880177457
 31
0.0
  0
LINE
  5
152
330
120
100
AcDbEntity
  8
$DDT_AUDIT_GENERATED_(D4)
  6
Continuous
 62
     7
100
AcDbLine
 10
436.9748476959
 20
276.9627001984
 30
0.0
 11
426.9748476959
 21
276.9627001984
 31
0.0
  0
ARC
  5
153
330
120
100
AcDbEntity
  8
$DDT_AUDIT_GENERATED_(D4)
  6
Continuous
 62
     7
100
AcDbCircle
 10
430.753407215
 20
282.375358972
 30
0.0
 40
6.601089837288607
100
AcDbArc
 50
124.9187681796
 51
235.0812318204
  0
LINE
  5
154
330
120
100
AcDbEntity
  8
$DDT_AUDIT_GENERATED_(D4)
  6
Continuous
 62
     7
100
AcDbLine
 10
426.9748476959
 20
287.7880177457
 30
0.0
 11
436.9748476959
 21
287.7880177457
 31
0.0
  0
LINE
  5
155
330
120
100
AcDbEntity
  8
$DDT_AUDIT_GENERATED_(D4)
  6
Continuous
 62
     7
100
AcDbLine
 10
436.9748476959
 20
289.875358972
 30
0.0
 11
426.9748476959
 21
289.875358972
 31
0.0
  0
LINE
  5
156
330
120
100
AcDbEntity
  8
$DDT_AUDIT_GENERATED_(D4)
  6
Continuous
 62
     7
100
AcDbLine
 10
426.9748476959
 20
289.875358972
 30
0.0
 11
424.1791189668
 21
289.875358972
 31
0.0
  0
ARC
  5
157
330
120
100
AcDbEntity
  8
$DDT_AUDIT_GENERATED_(D4)
  6
Continuous
 62
     7
100
AcDbCircle
 10
429.6105488941
 20
268.2717613685
 30
0.0
 40
9.999999999999998
100
AcDbArc
 50
232.1519040322
 51
237.1010373901
  0
ARC
  5
158
330
120
100
AcDbEntity
  8
$DDT_AUDIT_GENERATED_(D4)
  6
Continuous
 62
     7
100
AcDbCircle
 10
429.6105488941
 20
281.4789565756
 30
0.0
 40
9.999999999999996
100
AcDbArc
 50
122.8977368374
 51
127.8480959678
  0
ARC
  5
159
330
120
100
AcDbEntity
  8
$DDT_AUDIT_GENERATED_(D4)
  6
Continuous
 62
     7
100
AcDbCircle
 10
434.3391464977
 20
268.2717613685
 30
0.0
 40
9.999999999999995
100
AcDbArc
 50
302.8977368374
 51
307.8480959678
  0
ARC
  5
15A
330
120
100
AcDbEntity
  8
$DDT_AUDIT_GENERATED_(D4)
  6
Continuous
 62
     7
100
AcDbCircle
 10
434.3391464977
 20
281.4789565756
 30
0.0
 40
9.999999999999998
100
AcDbArc
 50
52.1519040322
 51
57.1010373901
  0
LINE
  5
15B
330
120
100
AcDbEntity
  8
$DDT_AUDIT_GENERATED_(D4)
  6
Continuous
 62
     7
100
AcDbLine
 10
436.9748476959
 20
258.7599779153
 30
0.0
 11
436.9748476959
 21
258.625358972
 31
0.0
  0
LINE
  5
15C
330
120
100
AcDbEntity
  8
$DDT_AUDIT_GENERATED_(D4)
  6
Continuous
 62
     7
100
AcDbLine
 10
436.9748476959
 20
290.9907400288
 30
0.0
 11
436.9748476959
 21
291.125358972
 31
0.0
  0
SPLINE
  5
15D
330
120
100
AcDbEntity
  8
$DDT_AUDIT_GENERATED_(D4)
  6
Continuous
 62
     7
100
AcDbSpline
210
0.0
220
0.0
230
1.0
 70
     8
 71
     3
 72
     8
 73
     4
 74
     0
 42
0.0000000009326959
 43
0.0000000001
 40
0.793477060476963
 40
0.793477060476963
 40
0.793477060476963
 40
0.793477060476963
 40
1.0
 40
1.0
 40
1.0
 40
1.0
 10
438.8483580690503
 20
289.8757822422018
 30
0.0
 10
438.400769883003
 20
290.3132224502311
 30
0.0
 10
437.7817158040475
 20
290.7041396883031
 30
0.0
 10
436.9748476958659
 20
290.9907400288
 30
0.0
  0
SPLINE
  5
15E
330
120
100
AcDbEntity
  8
$DDT_AUDIT_GENERATED_(D4)
  6
Continuous
 62
     7
100
AcDbSpline
210
0.0
220
0.0
230
1.0
 70
     8
 71
     3
 72
     8
 73
     4
 74
     0
 42
0.0000000009355662
 43
0.0000000001
 40
0.0
 40
0.0
 40
0.0
 40
0.0
 40
0.2069673890478368
 40
0.2069673890478368
 40
0.2069673890478368
 40
0.2069673890478368
 10
436.9748476958659
 20
258.7599779152669
 30
0.0
 10
437.7843439857321
 20
259.0475117884673
 30
0.0
 10
438.4012874552495
 20
259.4382685690718
 30
0.0
 10
438.846916026122
 20
259.8734758944457
 30
0.0
  0
LINE
  5
15F
330
120
100
AcDbEntity
  8
$DDT_AUDIT_GENERATED_(D4)
  6
Continuous
 62
     7
100
AcDbLine
 10
426.9748476959
 20
258.7599779153
 30
0.0
 11
426.9748476959
 21
258.625358972
 31
0.0
  0
LINE
  5
160
330
120
100
AcDbEntity
  8
$DDT_AUDIT_GENERATED_(D4)
  6
Continuous
 62
     7
100
AcDbLine
 10
426.9748476959
 20
290.9907400288
 30
0.0
 11
426.9748476959
 21
291.125358972
 31
0.0
  0
LINE
  5
161
330
120
100
AcDbEntity
  8
$DDT_AUDIT_GENERATED_(D4)
  6
Continuous
 62
     7
100
AcDbLine
 10
436.9748476959
 20
258.7599779153
 30
0.0
 11
426.9748476959
 21
258.7599779153
 31
0.0
  0
SPLINE
  5
162
330
120
100
AcDbEntity
  8
$DDT_AUDIT_GENERATED_(D4)
  6
Continuous
 62
     7
100
AcDbSpline
210
0.0
220
0.0
230
1.0
 70
     8
 71
     3
 72
     8
 73
     4
 74
     0
 42
0.0000000009355662
 43
0.0000000001
 40
0.0
 40
0.0
 40
0.0
 40
0.0
 40
0.2069673890478358
 40
0.2069673890478358
 40
0.2069673890478358
 40
0.2069673890478358
 10
426.9748476958659
 20
258.7599779152669
 30
0.0
 10
426.1653514059997
 20
259.0475117884673
 30
0.0
 10
425.5484079364823
 20
259.4382685690718
 30
0.0
 10
425.1027793656098
 20
259.8734758944457
 30
0.0
  0
SPLINE
  5
163
330
120
100
AcDbEntity
  8
$DDT_AUDIT_GENERATED_(D4)
  6
Continuous
 62
     7
100
AcDbSpline
210
0.0
220
0.0
230
1.0
 70
     8
 71
     3
 72
     8
 73
     4
 74
     0
 42
0.0000000009326959
 43
0.0000000001
 40
0.7934770604769633
 40
0.7934770604769633
 40
0.7934770604769633
 40
0.7934770604769633
 40
1.0
 40
1.0
 40
1.0
 40
1.0
 10
425.1013373226814
 20
289.8757822422018
 30
0.0
 10
425.5489255087288
 20
290.3132224502311
 30
0.0
 10
426.1679795876843
 20
290.7041396883031
 30
0.0
 10
426.9748476958659
 20
290.9907400288
 30
0.0
  0
LINE
  5
164
330
120
100
AcDbEntity
  8
$DDT_AUDIT_GENERATED_(D4)
  6
Continuous
 62
     7
100
AcDbLine
 10
426.9748476959
 20
290.9907400288
 30
0.0
 11
436.9748476959
 21
290.9907400288
 31
0.0
  0
LINE
  5
165
330
120
100
AcDbEntity
  8
$DDT_AUDIT_GENERATED_(D4)
  6
Continuous
 62
     7
100
AcDbLine
 10
436.9748476959
 20
291.125358972
 30
0.0
 11
426.9748476959
 21
291.125358972
 31
0.0
  0
ARC
  5
166
330
120
100
AcDbEntity
  8
$DDT_AUDIT_GENERATED_(D4)
  6
Continuous
 62
     7
100
AcDbCircle
 10
429.6105488941
 20
268.2717613685
 30
0.0
 40
9.999999999999995
100
AcDbArc
 50
237.0765349333
 51
254.7179936136
  0
ARC
  5
167
330
120
100
AcDbEntity
  8
$DDT_AUDIT_GENERATED_(D4)
  6
Continuous
 62
     7
100
AcDbCircle
 10
429.6105488941
 20
281.4789565756
 30
0.0
 40
9.999999999999998
100
AcDbArc
 50
105.2820063864
 51
122.8977368374
  0
ARC
  5
168
330
120
100
AcDbEntity
  8
$DDT_AUDIT_GENERATED_(D4)
  6
Continuous
 62
     7
100
AcDbCircle
 10
434.3391464977
 20
268.2717613685
 30
0.0
 40
10.0
100
AcDbArc
 50
285.2820063864
 51
302.9381778112
  0
ARC
  5
169
330
120
100
AcDbEntity
  8
$DDT_AUDIT_GENERATED_(D4)
  6
Continuous
 62
     7
100
AcDbCircle
 10
434.3391464977
 20
281.4789565756
 30
0.0
 40
9.999999999999995
100
AcDbArc
 50
57.1010373901
 51
74.7179936136
  0
LINE
  5
16A
330
120
100
AcDbEntity
  8
$DDT_AUDIT_GENERATED_(D4)
  6
Continuous
 62
     7
100
AcDbLine
 10
426.9748476959
 20
258.625358972
 30
0.0
 11
436.9748476959
 21
258.625358972
 31
0.0
  0
ARC
  5
16C
330
120
100
AcDbEntity
  8
$DDT_AUDIT_GENERATED_(16B)
  6
Continuous
 62
     7
100
AcDbCircle
 10
389.8294882266
 20
274.7753590467
 30
0.0
 40
20.00000000000004
100
AcDbArc
 50
180.000000214
 51
207.4864241525
  0
ARC
  5
16D
330
120
100
AcDbEntity
  8
$DDT_AUDIT_GENERATED_(16B)
  6
Continuous
 62
     7
100
AcDbCircle
 10
372.5230056907
 20
265.7713340513
 30
0.0
 40
0.4926779845008016
100
AcDbArc
 50
212.6413108861
 51
241.9549773451
  0
LINE
  5
16E
330
120
100
AcDbEntity
  8
$DDT_AUDIT_GENERATED_(10A)
  6
Continuous
 62
     7
100
AcDbLine
 10
441.2748476959
 20
260.875358972
 30
0.0
 11
441.2748476959
 21
288.875358972
 31
0.0
  0
LINE
  5
16F
330
120
100
AcDbEntity
  8
$DDT_AUDIT_GENERATED_(10A)
  6
Continuous
 62
     7
100
AcDbLine
 10
441.2748476959
 20
288.875358972
 30
0.0
 11
440.4748476959
 21
288.875358972
 31
0.0
  0
LINE
  5
170
330
120
100
AcDbEntity
  8
$DDT_AUDIT_GENERATED_(10A)
  6
Continuous
 62
     7
100
AcDbLine
 10
440.4748476959
 20
260.875358972
 30
0.0
 11
441.2748476959
 21
260.875358972
 31
0.0
  0
CIRCLE
  5
171
330
120
100
AcDbEntity
  8
$DDT_AUDIT_GENERATED_(FD)
  6
Continuous
 62
     7
100
AcDbCircle
 10
389.8694887239
 20
274.875358972
 30
0.0
 40
20.0
  0
LINE
  5
172
330
120
100
AcDbEntity
  8
$DDT_AUDIT_GENERATED_(FD)
  6
Continuous
 62
     7
100
AcDbLine
 10
411.3694887239
 20
276.375358972
 30
0.0
 11
411.3694887239
 21
273.375358972
 31
0.0
  0
LINE
  5
173
330
120
100
AcDbEntity
  8
$DDT_AUDIT_GENERATED_(FD)
  6
Continuous
 62
     7
100
AcDbLine
 10
410.8694887239
 20
272.875358972
 30
0.0
 11
410.2164786732
 21
272.875358972
 31
0.0
  0
ARC
  5
174
330
120
100
AcDbEntity
  8
$DDT_AUDIT_GENERATED_(FD)
  6
Continuous
 62
     7
100
AcDbCircle
 10
410.8694887239
 20
276.375358972
 30
0.0
 40
0.499999999999997
100
AcDbArc
 50
0.0
 51
90.0
  0
ARC
  5
175
330
120
100
AcDbEntity
  8
$DDT_AUDIT_GENERATED_(FD)
  6
Continuous
 62
     7
100
AcDbCircle
 10
410.8694887239
 20
273.375358972
 30
0.0
 40
0.5000000000000002
100
AcDbArc
 50
270.0
 51
0.0
  0
LINE
  5
176
330
120
100
AcDbEntity
  8
$DDT_AUDIT_GENERATED_(FD)
  6
Continuous
 62
     7
100
AcDbLine
 10
410.2164786732
 20
276.875358972
 30
0.0
 11
410.8694887239
 21
276.875358972
 31
0.0
  0
ARC
  5
177
330
120
100
AcDbEntity
  8
$DDT_AUDIT_GENERATED_(FD)
  6
Continuous
 62
     7
100
AcDbCircle
 10
410.2164786732
 20
277.375358972
 30
0.0
 40
0.4999999999999975
100
AcDbArc
 50
187.0047264091
 51
270.0
  0
ARC
  5
178
330
120
100
AcDbEntity
  8
$DDT_AUDIT_GENERATED_(FD)
  6
Continuous
 62
     7
100
AcDbCircle
 10
410.2164786732
 20
272.375358972
 30
0.0
 40
0.5
100
AcDbArc
 50
90.0
 51
172.9952735909
  0
CIRCLE
  5
179
330
120
100
AcDbEntity
  8
$DDT_AUDIT_GENERATED_(FD)
  6
Continuous
 62
     7
100
AcDbCircle
 10
389.8694887239
 20
274.875358972
 30
0.0
 40
18.5
  0
ARC
  5
17A
330
120
100
AcDbEntity
  8
$DDT_AUDIT_GENERATED_(FD)
  6
Continuous
 62
     7
100
AcDbCircle
 10
389.8694887239
 20
274.875358972
 30
0.0
 40
18.48254626441848
100
AcDbArc
 50
102.4741179033
 51
144.0190115363
  0
ARC
  5
17B
330
120
100
AcDbEntity
  8
$DDT_AUDIT_GENERATED_(FD)
  6
Continuous
 62
     7
100
AcDbCircle
 10
389.8694887239
 20
274.875358972
 30
0.0
 40
18.48227839566299
100
AcDbArc
 50
261.3859221182
 51
278.6140778818
  0
ARC
  5
17C
330
120
100
AcDbEntity
  8
$DDT_AUDIT_GENERATED_(FD)
  6
Continuous
 62
     7
100
AcDbCircle
 10
389.8694887239
 20
274.875358972
 30
0.0
 40
18.48227839566299
100
AcDbArc
 50
78.1804202693
 51
101.8195797307
  0
LINE
  5
17D
330
120
100
AcDbEntity
  8
$DDT_AUDIT_GENERATED_(FD)
  6
Continuous
 62
     7
100
AcDbLine
 10
375.1559451224
 20
285.8579052364
 30
0.0
 11
375.2313987682
 21
285.8579052364
 31
0.0
  0
SPLINE
  5
17E
330
120
100
AcDbEntity
  8
$DDT_AUDIT_GENERATED_(FD)
  6
Continuous
 62
     7
100
AcDbSpline
210
0.0
220
0.0
230
1.0
 70
     8
 71
     3
 72
     8
 73
     4
 74
     0
 42
0.0000000341047212
 43
0.0000000001
 40
0.0
 40
0.0
 40
0.0
 40
0.0
 40
1.0
 40
1.0
 40
1.0
 40
1.0
 10
374.9131907705402
 20
285.7341649813027
 30
0.0
 10
374.9690556237334
 20
285.8111100329742
 30
0.0
 10
375.0608587177282
 20
285.8579052364177
 30
0.0
 10
375.1559451223925
 20
285.8579052364177
 30
0.0
  0
SPLINE
  5
17F
330
120
100
AcDbEntity
  8
$DDT_AUDIT_GENERATED_(FD)
  6
Continuous
 62
     7
100
AcDbSpline
210
0.0
220
0.0
230
1.0
 70
     8
 71
     3
 72
    10
 73
     6
 74
     0
 42
0.0000000173571011
 43
0.0000000001
 40
0.3435258452557868
 40
0.3435258452557868
 40
0.3435258452557868
 40
0.3435258452557868
 40
0.5
 40
0.5
 40
1.0
 40
1.0
 40
1.0
 40
1.0
 10
372.306665160092
 20
279.9666797984119
 30
0.0
 10
372.2832886220331
 20
279.9840068294191
 30
0.0
 10
372.2624092296098
 20
280.0046755979853
 30
0.0
 10
372.1895058764168
 20
280.1030994748971
 30
0.0
 10
372.1716596943513
 20
280.2045472029
 30
0.0
 10
372.1992950069572
 20
280.2946550908007
 30
0.0
  0
ARC
  5
180
330
120
100
AcDbEntity
  8
$DDT_AUDIT_GENERATED_(FD)
  6
Continuous
 62
     7
100
AcDbCircle
 10
389.8694887239
 20
274.875358972
 30
0.0
 40
18.48254626441848
100
AcDbArc
 50
162.9496747166
 51
260.7371116032
  0
ARC
  5
181
330
120
100
AcDbEntity
  8
$DDT_AUDIT_GENERATED_(FD)
  6
Continuous
 62
     7
100
AcDbCircle
 10
387.0767554676
 20
257.3913925957
 30
0.0
 40
0.7902042709440212
100
AcDbArc
 50
271.7759477052
 51
287.8880995007
  0
LINE
  5
182
330
120
100
AcDbEntity
  8
$DDT_AUDIT_GENERATED_(FD)
  6
Continuous
 62
     7
100
AcDbLine
 10
387.1012448239
 20
256.6015678928
 30
0.0
 11
386.8944534013
 21
256.6338217219
 31
0.0
  0
ARC
  5
183
330
120
100
AcDbEntity
  8
$DDT_AUDIT_GENERATED_(FD)
  6
Continuous
 62
     7
100
AcDbCircle
 10
389.8694887239
 20
274.875358972
 30
0.0
 40
18.48254626441848
100
AcDbArc
 50
279.2628883968
 51
77.5258820967
  0
ARC
  5
184
330
120
100
AcDbEntity
  8
$DDT_AUDIT_GENERATED_(FD)
  6
Continuous
 62
     7
100
AcDbCircle
 10
393.6337161201
 20
292.1719451527
 30
0.0
 40
0.7941120788248175
100
AcDbArc
 50
88.4480039108
 51
104.5798331229
  0
LINE
  5
185
330
120
100
AcDbEntity
  8
$DDT_AUDIT_GENERATED_(FD)
  6
Continuous
 62
     7
100
AcDbLine
 10
393.6552239544
 20
292.9657659176
 30
0.0
 11
393.8616923205
 21
292.9216003219
 31
0.0
  0
LINE
  5
186
330
120
100
AcDbEntity
  8
$DDT_AUDIT_GENERATED_(FD)
  6
Continuous
 62
     7
100
AcDbLine
 10
385.8772851272
 20
292.9216003219
 30
0.0
 11
386.0837534933
 21
292.9657659176
 31
0.0
  0
ARC
  5
187
330
120
100
AcDbEntity
  8
$DDT_AUDIT_GENERATED_(FD)
  6
Continuous
 62
     7
100
AcDbCircle
 10
386.1052613276
 20
292.1719451528
 30
0.0
 40
0.7941120787877155
100
AcDbArc
 50
75.4201668767
 51
91.5519960896
  0
LINE
  5
188
330
120
100
AcDbEntity
  8
$DDT_AUDIT_GENERATED_(FD)
  6
Continuous
 62
     7
100
AcDbLine
 10
392.8445240464
 20
256.6338217219
 30
0.0
 11
392.6377326239
 21
256.6015678928
 31
0.0
  0
ARC
  5
189
330
120
100
AcDbEntity
  8
$DDT_AUDIT_GENERATED_(FD)
  6
Continuous
 62
     7
100
AcDbCircle
 10
392.6622219801
 20
257.3913925957
 30
0.0
 40
0.7902042709815127
100
AcDbArc
 50
252.1119004996
 51
268.2240522944
  0
ARC
  5
18A
330
120
100
AcDbEntity
  8
$DDT_AUDIT_GENERATED_(16B)
  6
Continuous
 62
     7
100
AcDbCircle
 10
389.8294882266
 20
274.9753588973
 30
0.0
 40
20.00000000000006
100
AcDbArc
 50
152.5221617389
 51
203.8568333279
  0
ARC
  5
18B
330
120
100
AcDbEntity
  8
$DDT_AUDIT_GENERATED_(16B)
  6
Continuous
 62
     7
100
AcDbCircle
 10
372.5277106745
 20
283.973434486
 30
0.0
 40
0.4999202336033374
100
AcDbArc
 50
115.919703246
 51
147.092347701
  0
ARC
  5
18D
330
120
100
AcDbEntity
  8
$DDT_AUDIT_GENERATED_(18C)
  6
Continuous
 62
     7
100
AcDbCircle
 10
406.0561068529
 20
270.1051442332
 30
0.0
 40
7.913521316272036
100
AcDbArc
 50
76.3822223315
 51
77.8259352886
  0
ARC
  5
18E
330
120
100
AcDbEntity
  8
$DDT_AUDIT_GENERATED_(18C)
  6
Continuous
 62
     7
100
AcDbCircle
 10
389.8694887239
 20
274.875358972
 30
0.0
 40
18.30000000000001
100
AcDbArc
 50
9.8181777051
 51
350.1818222949
  0
ARC
  5
18F
330
120
100
AcDbEntity
  8
$DDT_AUDIT_GENERATED_(18C)
  6
Continuous
 62
     7
100
AcDbCircle
 10
402.884341844
 20
277.1277446554
 30
0.0
 40
5.091682810285755
100
AcDbArc
 50
8.4197431901
 51
9.8173165234
  0
ARC
  5
190
330
120
100
AcDbEntity
  8
$DDT_AUDIT_GENERATED_(18C)
  6
Continuous
 62
     7
100
AcDbCircle
 10
402.8843418439
 20
272.6229732886
 30
0.0
 40
5.091682810329504
100
AcDbArc
 50
350.1826834766
 51
351.5802568099
  0
ARC
  5
191
330
120
100
AcDbEntity
  8
$DDT_AUDIT_GENERATED_(18C)
  6
Continuous
 62
     7
100
AcDbCircle
 10
406.1908841799
 20
279.0594801505
 30
0.0
 40
7.312190544061814
100
AcDbArc
 50
282.1102077774
 51
283.6766482125
  0
ARC
  5
192
330
120
100
AcDbEntity
  8
$DDT_AUDIT_GENERATED_(18C)
  6
Continuous
 62
     7
100
AcDbCircle
 10
407.7842999821
 20
271.9099391854
 30
0.0
 40
0.1406548230563082
100
AcDbArc
 50
346.6362080239
 51
7.6348608647
  0
SPLINE
  5
193
330
120
100
AcDbEntity
  8
$DDT_AUDIT_GENERATED_(18C)
  6
Continuous
 62
     7
100
AcDbSpline
210
0.0
220
0.0
230
1.0
 70
     8
 71
     3
 72
    17
 73
    13
 74
     0
 42
0.0000001136562249
 43
0.0000000001
 40
0.41557868067687
 40
0.41557868067687
 40
0.41557868067687
 40
0.41557868067687
 40
0.601371866868217
 40
0.601371866868217
 40
0.601371866868217
 40
0.7887897968669834
 40
0.7887897968669834
 40
0.7887897968669834
 40
0.9458021757247637
 40
0.9458021757247637
 40
0.9458021757247637
 40
1.0
 40
1.0
 40
1.0
 40
1.0
 10
407.9240544948932
 20
277.8220766562795
 30
0.0
 10
407.9244541075082
 20
277.8265730552665
 30
0.0
 10
407.9246141846595
 20
277.8313867841109
 30
0.0
 10
407.9245371578625
 20
277.8364980092347
 30
0.0
 10
407.9244591344895
 20
277.8416753636142
 30
0.0
 10
407.9241368332874
 20
277.8472476869081
 30
0.0
 10
407.9236091245946
 20
277.8530451376916
 30
0.0
 10
407.923167599325
 20
277.8578957703511
 30
0.0
 10
407.9225721354399
 20
277.8630111661602
 30
0.0
 10
407.9218906947122
 20
277.8680420841097
 30
0.0
 10
407.9216526041898
 20
277.8697998509022
 30
0.0
 10
407.9214029757865
 20
277.8715567941619
 30
0.0
 10
407.9211461731401
 20
277.8732887455805
 30
0.0
  0
ARC
  5
194
330
120
100
AcDbEntity
  8
$DDT_AUDIT_GENERATED_(18C)
  6
Continuous
 62
     7
100
AcDbCircle
 10
407.7249288215
 20
277.8407019406
 30
0.0
 40
0.2000000000000291
100
AcDbArc
 50
347.1123441131
 51
354.8335017781
  0
ARC
  5
195
330
120
100
AcDbEntity
  8
$DDT_AUDIT_GENERATED_(18C)
  6
Continuous
 62
     7
100
AcDbCircle
 10
407.7249288215
 20
271.9100160034
 30
0.0
 40
0.2000000000000421
100
AcDbArc
 50
5.1918363821
 51
12.8950655043
  0
ARC
  5
196
330
120
100
AcDbEntity
  8
$DDT_AUDIT_GENERATED_(18C)
  6
Continuous
 62
     7
100
AcDbCircle
 10
420.5525290354
 20
274.875358972
 30
0.0
 40
12.96588757031647
100
AcDbArc
 50
166.9823673471
 51
193.0176326529
  0
ENDBLK
  5
198
330
120
100
AcDbEntity
  8
0
100
AcDbBlockEnd
  0
BLOCK
  5
24B
330
199
100
AcDbEntity
  8
0
100
AcDbBlockBegin
  2
SE2
 70
     0
 10
0.0
 20
0.0
 30
0.0
  3
SE2
  1

  0
LINE
  5
19B
330
199
100
AcDbEntity
  8
$DDT_AUDIT_GENERATED_(B5)
  6
Continuous
 62
     7
100
AcDbLine
 10
94.9499999996
 20
124.95
 30
0.0
 11
65.5499999996
 21
124.95
 31
0.0
  0
LINE
  5
19C
330
199
100
AcDbEntity
  8
$DDT_AUDIT_GENERATED_(B5)
  6
Continuous
 62
     7
100
AcDbLine
 10
62.75
 20
138.055358972
 30
0.0
 11
62.75
 21
177.455358972
 31
0.0
  0
LINE
  5
19D
330
199
100
AcDbEntity
  8
$DDT_AUDIT_GENERATED_(B5)
  6
Continuous
 62
     7
100
AcDbLine
 10
247.75
 20
138.055358972
 30
0.0
 11
247.75
 21
177.455358972
 31
0.0
  0
LINE
  5
19E
330
199
100
AcDbEntity
  8
$DDT_AUDIT_GENERATED_(B5)
  6
Continuous
 62
     7
100
AcDbLine
 10
215.5499999996
 20
124.95
 30
0.0
 11
244.9499999996
 21
124.95
 31
0.0
  0
LINE
  5
19F
330
199
100
AcDbEntity
  8
$DDT_AUDIT_GENERATED_(B5)
  6
Continuous
 62
     7
100
AcDbLine
 10
247.45
 20
177.755358972
 30
0.0
 11
63.05
 21
177.755358972
 31
0.0
  0
LINE
  5
1A0
330
199
100
AcDbEntity
  8
$DDT_AUDIT_GENERATED_(B5)
  6
Continuous
 62
     7
100
AcDbLine
 10
247.3542071918
 20
137.755358972
 30
0.0
 11
247.45
 21
137.755358972
 31
0.0
  0
LINE
  5
1A1
330
199
100
AcDbEntity
  8
$DDT_AUDIT_GENERATED_(B5)
  6
Continuous
 62
     7
100
AcDbLine
 10
97.3695477204
 20
137.755358972
 30
0.0
 11
213.1446161573
 21
137.755358972
 31
0.0
  0
LINE
  5
1A2
330
199
100
AcDbEntity
  8
$DDT_AUDIT_GENERATED_(B5)
  6
Continuous
 62
     7
100
AcDbLine
 10
63.05
 20
137.755358972
 30
0.0
 11
63.1301889884
 21
137.755358972
 31
0.0
  0
LINE
  5
1A3
330
199
100
AcDbEntity
  8
$DDT_AUDIT_GENERATED_(B5)
  6
Continuous
 62
     7
100
AcDbLine
 10
245.2499999996
 20
125.25
 30
0.0
 11
245.2499999996
 21
135.6487534247
 31
0.0
  0
LINE
  5
1A4
330
199
100
AcDbEntity
  8
$DDT_AUDIT_GENERATED_(B5)
  6
Continuous
 62
     7
100
AcDbLine
 10
215.2499999996
 20
135.6479100077
 30
0.0
 11
215.2499999996
 21
125.25
 31
0.0
  0
LINE
  5
1A5
330
199
100
AcDbEntity
  8
$DDT_AUDIT_GENERATED_(B5)
  6
Continuous
 62
     7
100
AcDbLine
 10
95.2499999996
 20
125.25
 30
0.0
 11
95.2499999996
 21
135.6366701806
 31
0.0
  0
LINE
  5
1A6
330
199
100
AcDbEntity
  8
$DDT_AUDIT_GENERATED_(B5)
  6
Continuous
 62
     7
100
AcDbLine
 10
65.2499999996
 20
135.6366062971
 30
0.0
 11
65.2499999996
 21
125.25
 31
0.0
  0
ARC
  5
1A7
330
199
100
AcDbEntity
  8
$DDT_AUDIT_GENERATED_(B5)
  6
Continuous
 62
     7
100
AcDbCircle
 10
94.9499999996
 20
125.25
 30
0.0
 40
0.3000000000000017
100
AcDbArc
 50
270.0
 51
0.0
  0
ARC
  5
1A8
330
199
100
AcDbEntity
  8
$DDT_AUDIT_GENERATED_(B5)
  6
Continuous
 62
     7
100
AcDbCircle
 10
65.5499999996
 20
125.25
 30
0.0
 40
0.2999999999999947
100
AcDbArc
 50
180.0
 51
270.0
  0
ARC
  5
1A9
330
199
100
AcDbEntity
  8
$DDT_AUDIT_GENERATED_(B5)
  6
Continuous
 62
     7
100
AcDbCircle
 10
63.05
 20
138.055358972
 30
0.0
 40
0.2999999999999947
100
AcDbArc
 50
180.0
 51
270.0
  0
ARC
  5
1AA
330
199
100
AcDbEntity
  8
$DDT_AUDIT_GENERATED_(B5)
  6
Continuous
 62
     7
100
AcDbCircle
 10
63.05
 20
177.455358972
 30
0.0
 40
0.3000000000000017
100
AcDbArc
 50
90.0
 51
180.0
  0
ARC
  5
1AB
330
199
100
AcDbEntity
  8
$DDT_AUDIT_GENERATED_(B5)
  6
Continuous
 62
     7
100
AcDbCircle
 10
247.45
 20
177.455358972
 30
0.0
 40
0.2999999999999947
100
AcDbArc
 50
0.0
 51
90.0
  0
ARC
  5
1AC
330
199
100
AcDbEntity
  8
$DDT_AUDIT_GENERATED_(B5)
  6
Continuous
 62
     7
100
AcDbCircle
 10
247.45
 20
138.055358972
 30
0.0
 40
0.3000000000000017
100
AcDbArc
 50
270.0
 51
0.0
  0
ARC
  5
1AD
330
199
100
AcDbEntity
  8
$DDT_AUDIT_GENERATED_(B5)
  6
Continuous
 62
     7
100
AcDbCircle
 10
215.5499999996
 20
125.25
 30
0.0
 40
0.3000000000000017
100
AcDbArc
 50
180.0
 51
270.0
  0
ARC
  5
1AE
330
199
100
AcDbEntity
  8
$DDT_AUDIT_GENERATED_(B5)
  6
Continuous
 62
     7
100
AcDbCircle
 10
244.9499999996
 20
125.25
 30
0.0
 40
0.3000000000000017
100
AcDbArc
 50
270.0
 51
0.0
  0
ARC
  5
1AF
330
199
100
AcDbEntity
  8
$DDT_AUDIT_GENERATED_(B5)
  6
Continuous
 62
     7
100
AcDbCircle
 10
63.128681953
 20
135.6340407013
 30
0.0
 40
2.121320337221269
100
AcDbArc
 50
0.0
 51
89.9999958389
  0
ARC
  5
1B0
330
199
100
AcDbEntity
  8
$DDT_AUDIT_GENERATED_(B5)
  6
Continuous
 62
     7
100
AcDbCircle
 10
97.3775176013
 20
135.6281350076
 30
0.0
 40
2.13004960574016
100
AcDbArc
 50
90.2304268413
 51
179.7634516044
  0
ARC
  5
1B1
330
199
100
AcDbEntity
  8
$DDT_AUDIT_GENERATED_(B5)
  6
Continuous
 62
     7
100
AcDbCircle
 10
213.1286067817
 20
135.6339893506
 30
0.0
 40
2.121350035748323
100
AcDbArc
 50
0.0008263795
 51
89.9992364429
  0
ARC
  5
1B2
330
199
100
AcDbEntity
  8
$DDT_AUDIT_GENERATED_(B5)
  6
Continuous
 62
     7
100
AcDbCircle
 10
247.3714412486
 20
135.6339532024
 30
0.0
 40
2.121354560778142
100
AcDbArc
 50
90.0008427651
 51
179.9990198026
  0
LINE
  5
1B3
330
199
100
AcDbEntity
  8
$DDT_AUDIT_GENERATED_(13B)
  6
Continuous
 62
     7
100
AcDbLine
 10
240.6999999996
 20
124.25
 30
0.0
 11
219.7999999996
 21
124.25
 31
0.0
  0
LINE
  5
1B4
330
199
100
AcDbEntity
  8
$DDT_AUDIT_GENERATED_(13B)
  6
Continuous
 62
     7
100
AcDbLine
 10
219.7999999996
 20
124.95
 30
0.0
 11
219.7999999996
 21
124.25
 31
0.0
  0
LINE
  5
1B5
330
199
100
AcDbEntity
  8
$DDT_AUDIT_GENERATED_(13B)
  6
Continuous
 62
     7
100
AcDbLine
 10
240.6999999996
 20
124.25
 30
0.0
 11
240.6999999996
 21
124.95
 31
0.0
  0
LINE
  5
1B6
330
199
100
AcDbEntity
  8
$DDT_AUDIT_GENERATED_(13B)
  6
Continuous
 62
     7
100
AcDbLine
 10
219.7999999996
 20
124.25
 30
0.0
 11
219.8834503744
 21
124.15
 31
0.0
  0
LINE
  5
1B7
330
199
100
AcDbEntity
  8
$DDT_AUDIT_GENERATED_(13B)
  6
Continuous
 62
     7
100
AcDbLine
 10
240.6165496248
 20
124.15
 30
0.0
 11
240.6999999996
 21
124.25
 31
0.0
  0
LINE
  5
1B8
330
199
100
AcDbEntity
  8
$DDT_AUDIT_GENERATED_(13B)
  6
Continuous
 62
     7
100
AcDbLine
 10
90.6999999996
 20
124.25
 30
0.0
 11
69.7999999996
 21
124.25
 31
0.0
  0
LINE
  5
1B9
330
199
100
AcDbEntity
  8
$DDT_AUDIT_GENERATED_(13B)
  6
Continuous
 62
     7
100
AcDbLine
 10
69.7999999996
 20
124.95
 30
0.0
 11
69.7999999996
 21
124.25
 31
0.0
  0
LINE
  5
1BA
330
199
100
AcDbEntity
  8
$DDT_AUDIT_GENERATED_(13B)
  6
Continuous
 62
     7
100
AcDbLine
 10
90.6999999996
 20
124.25
 30
0.0
 11
90.6999999996
 21
124.95
 31
0.0
  0
LINE
  5
1BB
330
199
100
AcDbEntity
  8
$DDT_AUDIT_GENERATED_(13B)
  6
Continuous
 62
     7
100
AcDbLine
 10
69.7999999996
 20
124.25
 30
0.0
 11
69.8834503744
 21
124.15
 31
0.0
  0
LINE
  5
1BC
330
199
100
AcDbEntity
  8
$DDT_AUDIT_GENERATED_(13B)
  6
Continuous
 62
     7
100
AcDbLine
 10
90.6165496248
 20
124.15
 30
0.0
 11
90.6999999996
 21
124.25
 31
0.0
  0
LINE
  5
1BD
330
199
100
AcDbEntity
  8
$DDT_AUDIT_GENERATED_(D4)
  6
Continuous
 62
     7
100
AcDbLine
 10
94.7499999996
 20
124.15
 30
0.0
 11
65.7499999996
 21
124.15
 31
0.0
  0
LINE
  5
1BE
330
199
100
AcDbEntity
  8
$DDT_AUDIT_GENERATED_(D4)
  6
Continuous
 62
     7
100
AcDbLine
 10
94.7499999996
 20
107.15
 30
0.0
 11
65.7499999996
 21
107.15
 31
0.0
  0
LINE
  5
1BF
330
199
100
AcDbEntity
  8
$DDT_AUDIT_GENERATED_(D4)
  6
Continuous
 62
     7
100
AcDbLine
 10
64.1346189429
 20
110.65
 30
0.0
 11
63.9999999996
 21
110.65
 31
0.0
  0
LINE
  5
1C0
330
199
100
AcDbEntity
  8
$DDT_AUDIT_GENERATED_(D4)
  6
Continuous
 62
     7
100
AcDbLine
 10
70.3846189429
 20
110.65
 30
0.0
 11
73.9999999996
 21
110.65
 31
0.0
  0
LINE
  5
1C1
330
199
100
AcDbEntity
  8
$DDT_AUDIT_GENERATED_(D4)
  6
Continuous
 62
     7
100
AcDbLine
 10
86.4999999996
 20
110.65
 30
0.0
 11
90.1153810564
 21
110.65
 31
0.0
  0
LINE
  5
1C2
330
199
100
AcDbEntity
  8
$DDT_AUDIT_GENERATED_(D4)
  6
Continuous
 62
     7
100
AcDbLine
 10
96.3653810564
 20
110.65
 30
0.0
 11
96.4999999996
 21
110.65
 31
0.0
  0
SPLINE
  5
1C3
330
199
100
AcDbEntity
  8
$DDT_AUDIT_GENERATED_(D4)
  6
Continuous
 62
     7
100
AcDbSpline
210
0.0
220
0.0
230
1.0
 70
     8
 71
     3
 72
    14
 73
    10
 74
     0
 42
0.0000000011014719
 43
0.0000000001
 40
0.0
 40
0.0
 40
0.0
 40
0.0
 40
0.2500000000000001
 40
0.2500000000000001
 40
0.5000000000000001
 40
0.5000000000000001
 40
0.7500000000000002
 40
0.7500000000000002
 40
1.0
 40
1.0
 40
1.0
 40
1.0
 10
90.11538105639833
 20
110.65
 30
0.0
 10
90.4626989050256
 20
109.6721934315469
 30
0.0
 10
90.960626217609
 20
108.975334937366
 30
0.0
 10
92.05053428217725
 20
108.0686529854963
 30
0.0
 10
92.64440846358228
 20
107.8547058851773
 30
0.0
 10
93.83281356697118
 20
107.8538387321354
 30
0.0
 10
94.41836734936822
 20
108.0611572904044
 30
0.0
 10
95.51864909247469
 20
108.9717557863278
 30
0.0
 10
96.01844581864853
 20
109.6732705988436
 30
0.0
 10
96.36538105639835
 20
110.65
 30
0.0
  0
SPLINE
  5
1C4
330
199
100
AcDbEntity
  8
$DDT_AUDIT_GENERATED_(D4)
  6
Continuous
 62
     7
100
AcDbSpline
210
0.0
220
0.0
230
1.0
 70
     8
 71
     3
 72
    14
 73
    10
 74
     0
 42
0.0000000006969408
 43
0.0000000001
 40
0.0
 40
0.0
 40
0.0
 40
0.0
 40
0.25
 40
0.25
 40
0.5
 40
0.5
 40
0.75
 40
0.75
 40
1.0
 40
1.0
 40
1.0
 40
1.0
 10
73.99999999963175
 20
110.65
 30
0.0
 10
74.69308835214389
 20
109.6743715572303
 30
0.0
 10
75.70064851997473
 20
108.9683928685829
 30
0.0
 10
77.89129397234852
 20
108.0626791041867
 30
0.0
 10
79.07550827583789
 20
107.8523767074967
 30
0.0
 10
81.45559628466239
 20
107.8561915456337
 30
0.0
 10
82.638619894206
 20
108.0714907881835
 30
0.0
 10
84.81062293404848
 20
108.9766771028217
 30
0.0
 10
85.81212564728177
 20
109.6817110642937
 30
0.0
 10
86.49999999963175
 20
110.65
 30
0.0
  0
SPLINE
  5
1C5
330
199
100
AcDbEntity
  8
$DDT_AUDIT_GENERATED_(D4)
  6
Continuous
 62
     7
100
AcDbSpline
210
0.0
220
0.0
230
1.0
 70
     8
 71
     3
 72
    14
 73
    10
 74
     0
 42
0.0000000011014719
 43
0.0000000001
 40
0.0
 40
0.0
 40
0.0
 40
0.0
 40
0.2499999999999999
 40
0.2499999999999999
 40
0.4999999999999999
 40
0.4999999999999999
 40
0.7499999999999999
 40
0.7499999999999999
 40
1.0
 40
1.0
 40
1.0
 40
1.0
 10
64.13461894286517
 20
110.65
 30
0.0
 10
64.48193679149246
 20
109.6721934315469
 30
0.0
 10
64.97986410407584
 20
108.975334937366
 30
0.0
 10
66.0697721686441
 20
108.0686529854963
 30
0.0
 10
66.66364635004912
 20
107.8547058851772
 30
0.0
 10
67.85205145343802
 20
107.8538387321354
 30
0.0
 10
68.43760523583506
 20
108.0611572904044
 30
0.0
 10
69.53788697894154
 20
108.9717557863278
 30
0.0
 10
70.03768370511538
 20
109.6732705988436
 30
0.0
 10
70.38461894286519
 20
110.65
 30
0.0
  0
LINE
  5
1C6
330
199
100
AcDbEntity
  8
$DDT_AUDIT_GENERATED_(D4)
  6
Continuous
 62
     7
100
AcDbLine
 10
64.1346189429
 20
120.65
 30
0.0
 11
63.9999999996
 21
120.65
 31
0.0
  0
LINE
  5
1C7
330
199
100
AcDbEntity
  8
$DDT_AUDIT_GENERATED_(D4)
  6
Continuous
 62
     7
100
AcDbLine
 10
70.3846189429
 20
120.65
 30
0.0
 11
73.9999999996
 21
120.65
 31
0.0
  0
LINE
  5
1C8
330
199
100
AcDbEntity
  8
$DDT_AUDIT_GENERATED_(D4)
  6
Continuous
 62
     7
100
AcDbLine
 10
86.4999999996
 20
120.65
 30
0.0
 11
90.1153810564
 21
120.65
 31
0.0
  0
LINE
  5
1C9
330
199
100
AcDbEntity
  8
$DDT_AUDIT_GENERATED_(D4)
  6
Continuous
 62
     7
100
AcDbLine
 10
96.3653810564
 20
120.65
 30
0.0
 11
96.4999999996
 21
120.65
 31
0.0
  0
LINE
  5
1CA
330
199
100
AcDbEntity
  8
$DDT_AUDIT_GENERATED_(D4)
  6
Continuous
 62
     7
100
AcDbLine
 10
64.1346189429
 20
110.65
 30
0.0
 11
64.1346189429
 21
120.65
 31
0.0
  0
SPLINE
  5
1CB
330
199
100
AcDbEntity
  8
$DDT_AUDIT_GENERATED_(D4)
  6
Continuous
 62
     7
100
AcDbSpline
210
0.0
220
0.0
230
1.0
 70
     8
 71
     3
 72
    14
 73
    10
 74
     0
 42
0.0000000011014719
 43
0.0000000001
 40
0.0
 40
0.0
 40
0.0
 40
0.0
 40
0.25
 40
0.25
 40
0.5
 40
0.5
 40
0.75
 40
0.75
 40
1.0
 40
1.0
 40
1.0
 40
1.0
 10
64.13461894286516
 20
120.65
 30
0.0
 10
64.48193679149246
 20
121.6278065684531
 30
0.0
 10
64.97986410407584
 20
122.324665062634
 30
0.0
 10
66.06977216864409
 20
123.2313470145037
 30
0.0
 10
66.6636463500491
 20
123.4452941148228
 30
0.0
 10
67.85205145343801
 20
123.4461612678647
 30
0.0
 10
68.43760523583505
 20
123.2388427095956
 30
0.0
 10
69.53788697894153
 20
122.3282442136722
 30
0.0
 10
70.03768370511537
 20
121.6267294011564
 30
0.0
 10
70.38461894286517
 20
120.65
 30
0.0
  0
LINE
  5
1CC
330
199
100
AcDbEntity
  8
$DDT_AUDIT_GENERATED_(D4)
  6
Continuous
 62
     7
100
AcDbLine
 10
70.3846189429
 20
120.65
 30
0.0
 11
70.3846189429
 21
110.65
 31
0.0
  0
LINE
  5
1CD
330
199
100
AcDbEntity
  8
$DDT_AUDIT_GENERATED_(D4)
  6
Continuous
 62
     7
100
AcDbLine
 10
73.9999999996
 20
110.65
 30
0.0
 11
73.9999999996
 21
120.65
 31
0.0
  0
SPLINE
  5
1CE
330
199
100
AcDbEntity
  8
$DDT_AUDIT_GENERATED_(D4)
  6
Continuous
 62
     7
100
AcDbSpline
210
0.0
220
0.0
230
1.0
 70
     8
 71
     3
 72
    14
 73
    10
 74
     0
 42
0.0000000006969408
 43
0.0000000001
 40
0.0
 40
0.0
 40
0.0
 40
0.0
 40
0.25
 40
0.25
 40
0.5
 40
0.5
 40
0.75
 40
0.75
 40
1.0
 40
1.0
 40
1.0
 40
1.0
 10
73.99999999963175
 20
120.65
 30
0.0
 10
74.69308835214387
 20
121.6256284427698
 30
0.0
 10
75.70064851997472
 20
122.3316071314171
 30
0.0
 10
77.8912939723485
 20
123.2373208958134
 30
0.0
 10
79.07550827583788
 20
123.4476232925033
 30
0.0
 10
81.45559628466238
 20
123.4438084543663
 30
0.0
 10
82.63861989420599
 20
123.2285092118166
 30
0.0
 10
84.81062293404847
 20
122.3233228971783
 30
0.0
 10
85.81212564728176
 20
121.6182889357064
 30
0.0
 10
86.49999999963174
 20
120.65
 30
0.0
  0
LINE
  5
1CF
330
199
100
AcDbEntity
  8
$DDT_AUDIT_GENERATED_(D4)
  6
Continuous
 62
     7
100
AcDbLine
 10
86.4999999996
 20
120.65
 30
0.0
 11
86.4999999996
 21
110.65
 31
0.0
  0
LINE
  5
1D0
330
199
100
AcDbEntity
  8
$DDT_AUDIT_GENERATED_(D4)
  6
Continuous
 62
     7
100
AcDbLine
 10
90.1153810564
 20
110.65
 30
0.0
 11
90.1153810564
 21
120.65
 31
0.0
  0
SPLINE
  5
1D1
330
199
100
AcDbEntity
  8
$DDT_AUDIT_GENERATED_(D4)
  6
Continuous
 62
     7
100
AcDbSpline
210
0.0
220
0.0
230
1.0
 70
     8
 71
     3
 72
    14
 73
    10
 74
     0
 42
0.0000000011014719
 43
0.0000000001
 40
0.0
 40
0.0
 40
0.0
 40
0.0
 40
0.2500000000000001
 40
0.2500000000000001
 40
0.5000000000000001
 40
0.5000000000000001
 40
0.7500000000000002
 40
0.7500000000000002
 40
1.0
 40
1.0
 40
1.0
 40
1.0
 10
90.11538105639832
 20
120.65
 30
0.0
 10
90.4626989050256
 20
121.6278065684532
 30
0.0
 10
90.96062621760899
 20
122.324665062634
 30
0.0
 10
92.05053428217724
 20
123.2313470145037
 30
0.0
 10
92.64440846358225
 20
123.4452941148228
 30
0.0
 10
93.83281356697115
 20
123.4461612678647
 30
0.0
 10
94.41836734936821
 20
123.2388427095956
 30
0.0
 10
95.51864909247467
 20
122.3282442136722
 30
0.0
 10
96.01844581864852
 20
121.6267294011564
 30
0.0
 10
96.36538105639833
 20
120.65
 30
0.0
  0
LINE
  5
1D2
330
199
100
AcDbEntity
  8
$DDT_AUDIT_GENERATED_(D4)
  6
Continuous
 62
     7
100
AcDbLine
 10
96.3653810564
 20
120.65
 30
0.0
 11
96.3653810564
 21
110.65
 31
0.0
  0
LINE
  5
1D3
330
199
100
AcDbEntity
  8
$DDT_AUDIT_GENERATED_(D4)
  6
Continuous
 62
     7
100
AcDbLine
 10
96.4999999996
 20
110.65
 30
0.0
 11
96.4999999996
 21
120.65
 31
0.0
  0
ARC
  5
1D4
330
199
100
AcDbEntity
  8
$DDT_AUDIT_GENERATED_(D4)
  6
Continuous
 62
     7
100
AcDbCircle
 10
73.6464023961
 20
118.0142988018
 30
0.0
 40
9.999999999999991
100
AcDbArc
 50
142.1519040322
 51
164.7179936136
  0
ARC
  5
1D5
330
199
100
AcDbEntity
  8
$DDT_AUDIT_GENERATED_(D4)
  6
Continuous
 62
     7
100
AcDbCircle
 10
86.8535976032
 20
118.0142988018
 30
0.0
 40
10.00000000000001
100
AcDbArc
 50
15.2820063864
 51
37.8480959678
  0
ARC
  5
1D6
330
199
100
AcDbEntity
  8
$DDT_AUDIT_GENERATED_(D4)
  6
Continuous
 62
     7
100
AcDbCircle
 10
73.6464023961
 20
113.2857011982
 30
0.0
 40
10.00000000000001
100
AcDbArc
 50
195.2820063864
 51
217.8480959678
  0
ARC
  5
1D7
330
199
100
AcDbEntity
  8
$DDT_AUDIT_GENERATED_(D4)
  6
Continuous
 62
     7
100
AcDbCircle
 10
86.8535976032
 20
113.2857011982
 30
0.0
 40
9.999999999999991
100
AcDbArc
 50
322.1519040322
 51
344.7179936136
  0
LINE
  5
1D8
330
199
100
AcDbEntity
  8
$DDT_AUDIT_GENERATED_(D4)
  6
Continuous
 62
     7
100
AcDbLine
 10
63.9999999996
 20
120.65
 30
0.0
 11
63.9999999996
 21
110.65
 31
0.0
  0
LINE
  5
1D9
330
199
100
AcDbEntity
  8
$DDT_AUDIT_GENERATED_(E2)
  6
Continuous
 62
     7
100
AcDbLine
 10
62.75
 20
140.9298206565
 30
0.0
 11
62.35
 21
140.9298206565
 31
0.0
  0
LINE
  5
1DA
330
199
100
AcDbEntity
  8
$DDT_AUDIT_GENERATED_(E2)
  6
Continuous
 62
     7
100
AcDbLine
 10
62.75
 20
154.8811767545
 30
0.0
 11
62.35
 21
154.8811767545
 31
0.0
  0
LINE
  5
1DB
330
199
100
AcDbEntity
  8
$DDT_AUDIT_GENERATED_(E2)
  6
Continuous
 62
     7
100
AcDbLine
 10
62.75
 20
171.70671507
 30
0.0
 11
62.35
 21
171.70671507
 31
0.0
  0
LINE
  5
1DC
330
199
100
AcDbEntity
  8
$DDT_AUDIT_GENERATED_(E2)
  6
Continuous
 62
     7
100
AcDbLine
 10
62.35
 20
175.7535519807
 30
0.0
 11
62.75
 21
175.7535519807
 31
0.0
  0
LINE
  5
1DD
330
199
100
AcDbEntity
  8
$DDT_AUDIT_GENERATED_(E2)
  6
Continuous
 62
     7
100
AcDbLine
 10
62.35
 20
166.5335792302
 30
0.0
 11
62.75
 21
166.5335792302
 31
0.0
  0
LINE
  5
1DE
330
199
100
AcDbEntity
  8
$DDT_AUDIT_GENERATED_(E2)
  6
Continuous
 62
     7
100
AcDbLine
 10
62.35
 20
148.5353862215
 30
0.0
 11
62.75
 21
148.5353862215
 31
0.0
  0
LINE
  5
1DF
330
199
100
AcDbEntity
  8
$DDT_AUDIT_GENERATED_(E2)
  6
Continuous
 62
     7
100
AcDbLine
 10
62.35
 20
139.755358972
 30
0.0
 11
62.75
 21
139.755358972
 31
0.0
  0
LINE
  5
1E0
330
199
100
AcDbEntity
  8
$DDT_AUDIT_GENERATED_(E2)
  6
Continuous
 62
     7
100
AcDbLine
 10
62.75
 20
175.755358972
 30
0.0
 11
62.35
 21
175.755358972
 31
0.0
  0
LINE
  5
1E1
330
199
100
AcDbEntity
  8
$DDT_AUDIT_GENERATED_(E2)
  6
Continuous
 62
     7
100
AcDbLine
 10
62.75
 20
175.755358972
 30
0.0
 11
62.75
 21
139.755358972
 31
0.0
  0
LINE
  5
1E2
330
199
100
AcDbEntity
  8
$DDT_AUDIT_GENERATED_(EA)
  6
Continuous
 62
     7
100
AcDbLine
 10
248.47
 20
142.3809120802
 30
0.0
 11
247.75
 21
142.3809120802
 31
0.0
  0
LINE
  5
1E3
330
199
100
AcDbEntity
  8
$DDT_AUDIT_GENERATED_(EA)
  6
Continuous
 62
     7
100
AcDbLine
 10
248.47
 20
141.2429050409
 30
0.0
 11
247.75
 21
141.2429050409
 31
0.0
  0
LINE
  5
1E4
330
199
100
AcDbEntity
  8
$DDT_AUDIT_GENERATED_(EA)
  6
Continuous
 62
     7
100
AcDbLine
 10
248.47
 20
143.7429050409
 30
0.0
 11
247.75
 21
143.7429050409
 31
0.0
  0
LINE
  5
1E5
330
199
100
AcDbEntity
  8
$DDT_AUDIT_GENERATED_(EA)
  6
Continuous
 62
     7
100
AcDbLine
 10
247.75
 20
139.955358972
 30
0.0
 11
248.47
 21
139.955358972
 31
0.0
  0
LINE
  5
1E6
330
199
100
AcDbEntity
  8
$DDT_AUDIT_GENERATED_(EA)
  6
Continuous
 62
     7
100
AcDbLine
 10
248.47
 20
175.555358972
 30
0.0
 11
247.75
 21
175.555358972
 31
0.0
  0
LINE
  5
1E7
330
199
100
AcDbEntity
  8
$DDT_AUDIT_GENERATED_(D4)
  6
Continuous
 62
     7
100
AcDbLine
 10
243.1626587733
 20
120.65
 30
0.0
 11
245.2499999996
 21
120.65
 31
0.0
  0
LINE
  5
1E8
330
199
100
AcDbEntity
  8
$DDT_AUDIT_GENERATED_(D4)
  6
Continuous
 62
     7
100
AcDbLine
 10
244.7499999996
 20
124.15
 30
0.0
 11
215.7499999996
 21
124.15
 31
0.0
  0
LINE
  5
1E9
330
199
100
AcDbEntity
  8
$DDT_AUDIT_GENERATED_(D4)
  6
Continuous
 62
     7
100
AcDbLine
 10
244.7499999996
 20
107.15
 30
0.0
 11
215.7499999996
 21
107.15
 31
0.0
  0
LINE
  5
1EA
330
199
100
AcDbEntity
  8
$DDT_AUDIT_GENERATED_(D4)
  6
Continuous
 62
     7
100
AcDbLine
 10
243.1626587733
 20
110.65
 30
0.0
 11
245.2499999996
 21
110.65
 31
0.0
  0
LINE
  5
1EB
330
199
100
AcDbEntity
  8
$DDT_AUDIT_GENERATED_(D4)
  6
Continuous
 62
     7
100
AcDbLine
 10
215.2499999996
 20
110.65
 30
0.0
 11
217.337341226
 21
110.65
 31
0.0
  0
LINE
  5
1EC
330
199
100
AcDbEntity
  8
$DDT_AUDIT_GENERATED_(D4)
  6
Continuous
 62
     7
100
AcDbLine
 10
228.1626587733
 20
110.65
 30
0.0
 11
232.337341226
 21
110.65
 31
0.0
  0
ARC
  5
1ED
330
199
100
AcDbEntity
  8
$DDT_AUDIT_GENERATED_(D4)
  6
Continuous
 62
     7
100
AcDbCircle
 10
237.7499999996
 20
114.4285595192
 30
0.0
 40
6.60108983728862
100
AcDbArc
 50
214.9187681795
 51
325.0812318204
  0
ARC
  5
1EE
330
199
100
AcDbEntity
  8
$DDT_AUDIT_GENERATED_(D4)
  6
Continuous
 62
     7
100
AcDbCircle
 10
222.7499999996
 20
114.4285595192
 30
0.0
 40
6.601089837288623
100
AcDbArc
 50
214.9187681796
 51
325.0812318204
  0
LINE
  5
1EF
330
199
100
AcDbEntity
  8
$DDT_AUDIT_GENERATED_(D4)
  6
Continuous
 62
     7
100
AcDbLine
 10
215.2499999996
 20
110.65
 30
0.0
 11
215.2499999996
 21
107.8542712709
 31
0.0
  0
LINE
  5
1F0
330
199
100
AcDbEntity
  8
$DDT_AUDIT_GENERATED_(D4)
  6
Continuous
 62
     7
100
AcDbLine
 10
245.2499999996
 20
110.65
 30
0.0
 11
245.2499999996
 21
107.8542712709
 31
0.0
  0
LINE
  5
1F1
330
199
100
AcDbEntity
  8
$DDT_AUDIT_GENERATED_(D4)
  6
Continuous
 62
     7
100
AcDbLine
 10
215.2499999996
 20
120.65
 30
0.0
 11
217.337341226
 21
120.65
 31
0.0
  0
LINE
  5
1F2
330
199
100
AcDbEntity
  8
$DDT_AUDIT_GENERATED_(D4)
  6
Continuous
 62
     7
100
AcDbLine
 10
228.1626587733
 20
120.65
 30
0.0
 11
232.337341226
 21
120.65
 31
0.0
  0
LINE
  5
1F3
330
199
100
AcDbEntity
  8
$DDT_AUDIT_GENERATED_(D4)
  6
Continuous
 62
     7
100
AcDbLine
 10
245.2499999996
 20
110.65
 30
0.0
 11
245.2499999996
 21
120.65
 31
0.0
  0
LINE
  5
1F4
330
199
100
AcDbEntity
  8
$DDT_AUDIT_GENERATED_(D4)
  6
Continuous
 62
     7
100
AcDbLine
 10
245.2499999996
 20
120.65
 30
0.0
 11
245.2499999996
 21
123.4457287291
 31
0.0
  0
LINE
  5
1F5
330
199
100
AcDbEntity
  8
$DDT_AUDIT_GENERATED_(D4)
  6
Continuous
 62
     7
100
AcDbLine
 10
215.2499999996
 20
120.65
 30
0.0
 11
215.2499999996
 21
123.4457287291
 31
0.0
  0
LINE
  5
1F6
330
199
100
AcDbEntity
  8
$DDT_AUDIT_GENERATED_(D4)
  6
Continuous
 62
     7
100
AcDbLine
 10
215.2499999996
 20
120.65
 30
0.0
 11
215.2499999996
 21
110.65
 31
0.0
  0
LINE
  5
1F7
330
199
100
AcDbEntity
  8
$DDT_AUDIT_GENERATED_(D4)
  6
Continuous
 62
     7
100
AcDbLine
 10
217.337341226
 20
110.65
 30
0.0
 11
217.337341226
 21
120.65
 31
0.0
  0
ARC
  5
1F8
330
199
100
AcDbEntity
  8
$DDT_AUDIT_GENERATED_(D4)
  6
Continuous
 62
     7
100
AcDbCircle
 10
222.7499999996
 20
116.8714404808
 30
0.0
 40
6.601089837288619
100
AcDbArc
 50
34.9187681796
 51
145.0812318204
  0
LINE
  5
1F9
330
199
100
AcDbEntity
  8
$DDT_AUDIT_GENERATED_(D4)
  6
Continuous
 62
     7
100
AcDbLine
 10
228.1626587733
 20
120.65
 30
0.0
 11
228.1626587733
 21
110.65
 31
0.0
  0
LINE
  5
1FA
330
199
100
AcDbEntity
  8
$DDT_AUDIT_GENERATED_(D4)
  6
Continuous
 62
     7
100
AcDbLine
 10
232.337341226
 20
110.65
 30
0.0
 11
232.337341226
 21
120.65
 31
0.0
  0
ARC
  5
1FB
330
199
100
AcDbEntity
  8
$DDT_AUDIT_GENERATED_(D4)
  6
Continuous
 62
     7
100
AcDbCircle
 10
237.7499999996
 20
116.8714404808
 30
0.0
 40
6.601089837288614
100
AcDbArc
 50
34.9187681796
 51
145.0812318205
  0
LINE
  5
1FC
330
199
100
AcDbEntity
  8
$DDT_AUDIT_GENERATED_(D4)
  6
Continuous
 62
     7
100
AcDbLine
 10
243.1626587733
 20
120.65
 30
0.0
 11
243.1626587733
 21
110.65
 31
0.0
  0
ARC
  5
1FD
330
199
100
AcDbEntity
  8
$DDT_AUDIT_GENERATED_(D4)
  6
Continuous
 62
     7
100
AcDbCircle
 10
223.6464023961
 20
118.0142988018
 30
0.0
 40
9.999999999999995
100
AcDbArc
 50
142.1519040322
 51
147.1013871375
  0
ARC
  5
1FE
330
199
100
AcDbEntity
  8
$DDT_AUDIT_GENERATED_(D4)
  6
Continuous
 62
     7
100
AcDbCircle
 10
236.8535976032
 20
118.0142988018
 30
0.0
 40
9.999999999999996
100
AcDbArc
 50
32.8988872264
 51
37.8480959678
  0
ARC
  5
1FF
330
199
100
AcDbEntity
  8
$DDT_AUDIT_GENERATED_(D4)
  6
Continuous
 62
     7
100
AcDbCircle
 10
223.6464023961
 20
113.2857011982
 30
0.0
 40
9.999999999999996
100
AcDbArc
 50
212.8988872264
 51
217.8480959678
  0
ARC
  5
200
330
199
100
AcDbEntity
  8
$DDT_AUDIT_GENERATED_(D4)
  6
Continuous
 62
     7
100
AcDbCircle
 10
236.8535976032
 20
113.2857011982
 30
0.0
 40
10.0
100
AcDbArc
 50
322.1519040322
 51
327.1013871375
  0
LINE
  5
201
330
199
100
AcDbEntity
  8
$DDT_AUDIT_GENERATED_(FD)
  6
Continuous
 62
     7
100
AcDbLine
 10
248.47
 20
138.255358972
 30
0.0
 11
248.47
 21
177.255358972
 31
0.0
  0
LINE
  5
202
330
199
100
AcDbEntity
  8
$DDT_AUDIT_GENERATED_(FD)
  6
Continuous
 62
     7
100
AcDbLine
 10
304.47
 20
176.755358972
 30
0.0
 11
304.47
 21
138.755358972
 31
0.0
  0
LINE
  5
203
330
199
100
AcDbEntity
  8
$DDT_AUDIT_GENERATED_(FD)
  6
Continuous
 62
     7
100
AcDbLine
 10
295.97
 20
136.255358972
 30
0.0
 11
256.97
 21
136.255358972
 31
0.0
  0
LINE
  5
204
330
199
100
AcDbEntity
  8
$DDT_AUDIT_GENERATED_(FD)
  6
Continuous
 62
     7
100
AcDbLine
 10
256.97
 20
136.255358972
 30
0.0
 11
255.47
 21
136.255358972
 31
0.0
  0
LINE
  5
205
330
199
100
AcDbEntity
  8
$DDT_AUDIT_GENERATED_(FD)
  6
Continuous
 62
     7
100
AcDbLine
 10
295.97
 20
136.255358972
 30
0.0
 11
297.47
 21
136.255358972
 31
0.0
  0
ARC
  5
206
330
199
100
AcDbEntity
  8
$DDT_AUDIT_GENERATED_(FD)
  6
Continuous
 62
     7
100
AcDbCircle
 10
295.9590086847
 20
116.7118412255
 30
0.0
 40
21.19279869488803
100
AcDbArc
 50
83.1954280616
 51
89.9702844342
  0
ARC
  5
207
330
199
100
AcDbEntity
  8
$DDT_AUDIT_GENERATED_(FD)
  6
Continuous
 62
     7
100
AcDbCircle
 10
256.9809913153
 20
116.7118412255
 30
0.0
 40
21.19279869488632
100
AcDbArc
 50
90.0297155658
 51
96.7958442827
  0
ARC
  5
208
330
199
100
AcDbEntity
  8
$DDT_AUDIT_GENERATED_(FD)
  6
Continuous
 62
     7
100
AcDbCircle
 10
288.9695162623
 20
177.2562072339
 30
0.0
 40
0.4992111600635671
100
AcDbArc
 50
89.9437413879
 51
112.885140812
  0
ARC
  5
209
330
199
100
AcDbEntity
  8
$DDT_AUDIT_GENERATED_(FD)
  6
Continuous
 62
     7
100
AcDbCircle
 10
267.970536544
 20
177.2561019253
 30
0.0
 40
0.499316653899907
100
AcDbArc
 50
67.1132168074
 51
90.0547160035
  0
ARC
  5
20A
330
199
100
AcDbEntity
  8
$DDT_AUDIT_GENERATED_(FD)
  6
Continuous
 62
     7
100
AcDbCircle
 10
278.4700371713
 20
193.7679746719
 30
0.0
 40
19.07496897899549
100
AcDbArc
 50
237.3029934762
 51
302.697059371
  0
LINE
  5
20B
330
199
100
AcDbEntity
  8
$DDT_AUDIT_GENERATED_(FD)
  6
Continuous
 62
     7
100
AcDbLine
 10
298.4624898725
 20
137.755358972
 30
0.0
 11
303.47
 21
137.755358972
 31
0.0
  0
LINE
  5
20C
330
199
100
AcDbEntity
  8
$DDT_AUDIT_GENERATED_(FD)
  6
Continuous
 62
     7
100
AcDbLine
 10
248.97
 20
137.755358972
 30
0.0
 11
254.4775101275
 21
137.755358972
 31
0.0
  0
LINE
  5
20D
330
199
100
AcDbEntity
  8
$DDT_AUDIT_GENERATED_(FD)
  6
Continuous
 62
     7
100
AcDbLine
 10
250.778795363
 20
177.755358972
 30
0.0
 11
248.97
 21
177.755358972
 31
0.0
  0
LINE
  5
20E
330
199
100
AcDbEntity
  8
$DDT_AUDIT_GENERATED_(FD)
  6
Continuous
 62
     7
100
AcDbLine
 10
267.9707448171
 20
177.755358972
 30
0.0
 11
254.1643348843
 21
177.755358972
 31
0.0
  0
LINE
  5
20F
330
199
100
AcDbEntity
  8
$DDT_AUDIT_GENERATED_(FD)
  6
Continuous
 62
     7
100
AcDbLine
 10
303.47
 20
177.755358972
 30
0.0
 11
288.9693222404
 21
177.755358972
 31
0.0
  0
ARC
  5
210
330
199
100
AcDbEntity
  8
$DDT_AUDIT_GENERATED_(FD)
  6
Continuous
 62
     7
100
AcDbCircle
 10
252.4882446775
 20
197.7826844031
 30
0.0
 40
20.10002486441892
100
AcDbArc
 50
265.3527260708
 51
269.9524544734
  0
ARC
  5
211
330
199
100
AcDbEntity
  8
$DDT_AUDIT_GENERATED_(FD)
  6
Continuous
 62
     7
100
AcDbCircle
 10
250.7786194321
 20
177.2551794584
 30
0.0
 40
0.5001795137202869
100
AcDbArc
 50
80.6530330114
 51
89.9985068307
  0
ARC
  5
212
330
199
100
AcDbEntity
  8
$DDT_AUDIT_GENERATED_(FD)
  6
Continuous
 62
     7
100
AcDbCircle
 10
254.164510881
 20
177.2551794745
 30
0.0
 40
0.5001794976385305
100
AcDbArc
 50
90.0014931726
 51
99.3469671408
  0
ARC
  5
213
330
199
100
AcDbEntity
  8
$DDT_AUDIT_GENERATED_(FD)
  6
Continuous
 62
     7
100
AcDbCircle
 10
252.4549301416
 20
197.7886237277
 30
0.0
 40
20.10596415004136
100
AcDbArc
 50
270.0474046529
 51
274.6430765504
  0
ARC
  5
214
330
199
100
AcDbEntity
  8
$DDT_AUDIT_GENERATED_(FD)
  6
Continuous
 62
     7
100
AcDbCircle
 10
248.97
 20
138.255358972
 30
0.0
 40
0.5000000000000004
100
AcDbArc
 50
180.0
 51
270.0
  0
ARC
  5
215
330
199
100
AcDbEntity
  8
$DDT_AUDIT_GENERATED_(FD)
  6
Continuous
 62
     7
100
AcDbCircle
 10
248.97
 20
177.255358972
 30
0.0
 40
0.4999999999998443
100
AcDbArc
 50
90.0
 51
180.0
  0
ARC
  5
216
330
199
100
AcDbEntity
  8
$DDT_AUDIT_GENERATED_(FD)
  6
Continuous
 62
     7
100
AcDbCircle
 10
303.47
 20
176.755358972
 30
0.0
 40
0.9999999999997511
100
AcDbArc
 50
0.0
 51
90.0
  0
ARC
  5
217
330
199
100
AcDbEntity
  8
$DDT_AUDIT_GENERATED_(FD)
  6
Continuous
 62
     7
100
AcDbCircle
 10
303.47
 20
138.755358972
 30
0.0
 40
0.9999999999994978
100
AcDbArc
 50
270.0
 51
0.0
  0
LINE
  5
218
330
199
100
AcDbEntity
  8
$DDT_AUDIT_GENERATED_(FD)
  6
Continuous
 62
     7
100
AcDbLine
 10
297.97
 20
136.755358972
 30
0.0
 11
297.97
 21
137.2591535596
 31
0.0
  0
LINE
  5
219
330
199
100
AcDbEntity
  8
$DDT_AUDIT_GENERATED_(FD)
  6
Continuous
 62
     7
100
AcDbLine
 10
254.97
 20
137.2591535596
 30
0.0
 11
254.97
 21
136.755358972
 31
0.0
  0
ARC
  5
21A
330
199
100
AcDbEntity
  8
$DDT_AUDIT_GENERATED_(FD)
  6
Continuous
 62
     7
100
AcDbCircle
 10
255.47
 20
136.755358972
 30
0.0
 40
0.5000000000000004
100
AcDbArc
 50
180.0
 51
270.0
  0
ARC
  5
21B
330
199
100
AcDbEntity
  8
$DDT_AUDIT_GENERATED_(FD)
  6
Continuous
 62
     7
100
AcDbCircle
 10
297.47
 20
136.755358972
 30
0.0
 40
0.499999999999997
100
AcDbArc
 50
270.0
 51
0.0
  0
ARC
  5
21C
330
199
100
AcDbEntity
  8
$DDT_AUDIT_GENERATED_(FD)
  6
Continuous
 62
     7
100
AcDbCircle
 10
298.4619158953
 20
137.2669440676
 30
0.0
 40
0.4864645029153375
100
AcDbArc
 50
97.1555895871
 51
181.1049935428
  0
ARC
  5
21D
330
199
100
AcDbEntity
  8
$DDT_AUDIT_GENERATED_(FD)
  6
Continuous
 62
     7
100
AcDbCircle
 10
254.4771785159
 20
137.264308011
 30
0.0
 40
0.4889874747618158
100
AcDbArc
 50
359.0657104009
 51
82.7772280555
  0
ELLIPSE
  5
21E
330
199
100
AcDbEntity
  8
$DDT_AUDIT_GENERATED_(16B)
  6
Continuous
 62
     7
100
AcDbEllipse
 10
278.5700000262
 20
167.817291782
 30
0.0
 11
-9.47464695387154
 21
62.12843890435619
 31
0.0
210
0.0
220
0.0
230
1.0
 40
0.0111638026
 41
1.455677535860053
 42
1.456851812233322
  0
LINE
  5
21F
330
199
100
AcDbEntity
  8
$DDT_AUDIT_GENERATED_(16B)
  6
Continuous
 62
     7
100
AcDbLine
 10
287.5622679915
 20
177.795358972
 30
0.0
 11
269.57
 21
177.795358972
 31
0.0
  0
ARC
  5
220
330
199
100
AcDbEntity
  8
$DDT_AUDIT_GENERATED_(16B)
  6
Continuous
 62
     7
100
AcDbCircle
 10
269.5635857698
 20
177.3033055839
 30
0.0
 40
0.4879572414335193
100
AcDbArc
 50
91.9570429398
 51
180.9967104777
  0
ARC
  5
221
330
199
100
AcDbEntity
  8
$DDT_AUDIT_GENERATED_(16B)
  6
Continuous
 62
     7
100
AcDbCircle
 10
287.5701357812
 20
177.2967453711
 30
0.0
 40
0.496141590686989
100
AcDbArc
 50
359.370646771
 51
90.8203132087
  0
LINE
  5
222
330
199
100
AcDbEntity
  8
$DDT_AUDIT_GENERATED_(16B)
  6
Continuous
 62
     7
100
AcDbLine
 10
269.07
 20
177.295358972
 30
0.0
 11
269.07
 21
177.2448524831
 31
0.0
  0
LINE
  5
223
330
199
100
AcDbEntity
  8
$DDT_AUDIT_GENERATED_(10A)
  6
Continuous
 62
     7
100
AcDbLine
 10
66.2499999996
 20
106.35
 30
0.0
 11
94.2499999996
 21
106.35
 31
0.0
  0
LINE
  5
224
330
199
100
AcDbEntity
  8
$DDT_AUDIT_GENERATED_(10A)
  6
Continuous
 62
     7
100
AcDbLine
 10
94.2499999996
 20
106.35
 30
0.0
 11
94.2499999996
 21
107.15
 31
0.0
  0
LINE
  5
225
330
199
100
AcDbEntity
  8
$DDT_AUDIT_GENERATED_(10A)
  6
Continuous
 62
     7
100
AcDbLine
 10
66.2499999996
 20
107.15
 30
0.0
 11
66.2499999996
 21
106.35
 31
0.0
  0
LINE
  5
226
330
199
100
AcDbEntity
  8
$DDT_AUDIT_GENERATED_(10E)
  6
Continuous
 62
     7
100
AcDbLine
 10
216.2499999996
 20
106.35
 30
0.0
 11
244.2499999996
 21
106.35
 31
0.0
  0
LINE
  5
227
330
199
100
AcDbEntity
  8
$DDT_AUDIT_GENERATED_(10E)
  6
Continuous
 62
     7
100
AcDbLine
 10
244.2499999996
 20
106.35
 30
0.0
 11
244.2499999996
 21
107.15
 31
0.0
  0
LINE
  5
228
330
199
100
AcDbEntity
  8
$DDT_AUDIT_GENERATED_(10E)
  6
Continuous
 62
     7
100
AcDbLine
 10
216.2499999996
 20
107.15
 30
0.0
 11
216.2499999996
 21
106.35
 31
0.0
  0
LINE
  5
229
330
199
100
AcDbEntity
  8
$DDT_AUDIT_GENERATED_(FD)
  6
Continuous
 62
     7
100
AcDbLine
 10
62.35
 20
138.255358972
 30
0.0
 11
62.35
 21
177.255358972
 31
0.0
  0
LINE
  5
22A
330
199
100
AcDbEntity
  8
$DDT_AUDIT_GENERATED_(FD)
  6
Continuous
 62
     7
100
AcDbLine
 10
6.35
 20
138.755358972
 30
0.0
 11
6.35
 21
176.755358972
 31
0.0
  0
LINE
  5
22B
330
199
100
AcDbEntity
  8
$DDT_AUDIT_GENERATED_(FD)
  6
Continuous
 62
     7
100
AcDbLine
 10
53.85
 20
136.255358972
 30
0.0
 11
55.35
 21
136.255358972
 31
0.0
  0
LINE
  5
22C
330
199
100
AcDbEntity
  8
$DDT_AUDIT_GENERATED_(FD)
  6
Continuous
 62
     7
100
AcDbLine
 10
53.85
 20
136.255358972
 30
0.0
 11
14.85
 21
136.255358972
 31
0.0
  0
LINE
  5
22D
330
199
100
AcDbEntity
  8
$DDT_AUDIT_GENERATED_(FD)
  6
Continuous
 62
     7
100
AcDbLine
 10
14.85
 20
136.255358972
 30
0.0
 11
13.35
 21
136.255358972
 31
0.0
  0
ARC
  5
22E
330
199
100
AcDbEntity
  8
$DDT_AUDIT_GENERATED_(FD)
  6
Continuous
 62
     7
100
AcDbCircle
 10
14.8609913153
 20
116.7118412255
 30
0.0
 40
21.19279869488794
100
AcDbArc
 50
90.0297155658
 51
96.7958442827
  0
ARC
  5
22F
330
199
100
AcDbEntity
  8
$DDT_AUDIT_GENERATED_(FD)
  6
Continuous
 62
     7
100
AcDbCircle
 10
53.8390086847
 20
116.7118412255
 30
0.0
 40
21.19279869488657
100
AcDbArc
 50
83.1954280616
 51
89.9702844342
  0
ARC
  5
230
330
199
100
AcDbEntity
  8
$DDT_AUDIT_GENERATED_(FD)
  6
Continuous
 62
     7
100
AcDbCircle
 10
42.849463456
 20
177.2561019253
 30
0.0
 40
0.4993166538998193
100
AcDbArc
 50
89.9452839965
 51
112.8867831926
  0
ARC
  5
231
330
199
100
AcDbEntity
  8
$DDT_AUDIT_GENERATED_(FD)
  6
Continuous
 62
     7
100
AcDbCircle
 10
32.3499672916
 20
193.7584139292
 30
0.0
 40
19.06733195193246
100
AcDbArc
 50
237.280342098
 51
302.7196675418
  0
ARC
  5
232
330
199
100
AcDbEntity
  8
$DDT_AUDIT_GENERATED_(FD)
  6
Continuous
 62
     7
100
AcDbCircle
 10
21.8504837377
 20
177.2562072339
 30
0.0
 40
0.4992111600641922
100
AcDbArc
 50
67.114859188
 51
90.0562586121
  0
LINE
  5
233
330
199
100
AcDbEntity
  8
$DDT_AUDIT_GENERATED_(FD)
  6
Continuous
 62
     7
100
AcDbLine
 10
21.8506777596
 20
177.755358972
 30
0.0
 11
7.35
 21
177.755358972
 31
0.0
  0
LINE
  5
234
330
199
100
AcDbEntity
  8
$DDT_AUDIT_GENERATED_(FD)
  6
Continuous
 62
     7
100
AcDbLine
 10
56.6556651157
 20
177.755358972
 30
0.0
 11
42.8492551829
 21
177.755358972
 31
0.0
  0
LINE
  5
235
330
199
100
AcDbEntity
  8
$DDT_AUDIT_GENERATED_(FD)
  6
Continuous
 62
     7
100
AcDbLine
 10
61.85
 20
177.755358972
 30
0.0
 11
60.041204637
 21
177.755358972
 31
0.0
  0
LINE
  5
236
330
199
100
AcDbEntity
  8
$DDT_AUDIT_GENERATED_(FD)
  6
Continuous
 62
     7
100
AcDbLine
 10
56.3424898725
 20
137.755358972
 30
0.0
 11
61.85
 21
137.755358972
 31
0.0
  0
LINE
  5
237
330
199
100
AcDbEntity
  8
$DDT_AUDIT_GENERATED_(FD)
  6
Continuous
 62
     7
100
AcDbLine
 10
7.35
 20
137.755358972
 30
0.0
 11
12.3575101275
 21
137.755358972
 31
0.0
  0
ARC
  5
238
330
199
100
AcDbEntity
  8
$DDT_AUDIT_GENERATED_(FD)
  6
Continuous
 62
     7
100
AcDbCircle
 10
60.0413805679
 20
177.2551794584
 30
0.0
 40
0.5001795137235157
100
AcDbArc
 50
90.0014931693
 51
99.3469669885
  0
ARC
  5
239
330
199
100
AcDbEntity
  8
$DDT_AUDIT_GENERATED_(FD)
  6
Continuous
 62
     7
100
AcDbCircle
 10
58.3317999821
 20
197.7886042984
 30
0.0
 40
20.10594477676799
100
AcDbArc
 50
270.0474042613
 51
274.6430804318
  0
ARC
  5
23A
330
199
100
AcDbEntity
  8
$DDT_AUDIT_GENERATED_(FD)
  6
Continuous
 62
     7
100
AcDbCircle
 10
58.3651142084
 20
197.7826649429
 30
0.0
 40
20.10000546022875
100
AcDbArc
 50
265.3527221817
 51
269.9524548725
  0
ARC
  5
23B
330
199
100
AcDbEntity
  8
$DDT_AUDIT_GENERATED_(FD)
  6
Continuous
 62
     7
100
AcDbCircle
 10
56.655489119
 20
177.2551794745
 30
0.0
 40
0.5001794976388734
100
AcDbArc
 50
80.6530328592
 51
89.9985068274
  0
ARC
  5
23C
330
199
100
AcDbEntity
  8
$DDT_AUDIT_GENERATED_(FD)
  6
Continuous
 62
     7
100
AcDbCircle
 10
61.85
 20
177.255358972
 30
0.0
 40
0.5000000000000004
100
AcDbArc
 50
0.0
 51
90.0
  0
ARC
  5
23D
330
199
100
AcDbEntity
  8
$DDT_AUDIT_GENERATED_(FD)
  6
Continuous
 62
     7
100
AcDbCircle
 10
61.85
 20
138.255358972
 30
0.0
 40
0.5000000000001565
100
AcDbArc
 50
270.0
 51
0.0
  0
ARC
  5
23E
330
199
100
AcDbEntity
  8
$DDT_AUDIT_GENERATED_(FD)
  6
Continuous
 62
     7
100
AcDbCircle
 10
7.35
 20
138.755358972
 30
0.0
 40
0.9999999999997511
100
AcDbArc
 50
180.0
 51
270.0
  0
ARC
  5
23F
330
199
100
AcDbEntity
  8
$DDT_AUDIT_GENERATED_(FD)
  6
Continuous
 62
     7
100
AcDbCircle
 10
7.35
 20
176.755358972
 30
0.0
 40
0.9999999999994944
100
AcDbArc
 50
90.0
 51
180.0
  0
LINE
  5
240
330
199
100
AcDbEntity
  8
$DDT_AUDIT_GENERATED_(FD)
  6
Continuous
 62
     7
100
AcDbLine
 10
12.85
 20
137.2591535596
 30
0.0
 11
12.85
 21
136.755358972
 31
0.0
  0
LINE
  5
241
330
199
100
AcDbEntity
  8
$DDT_AUDIT_GENERATED_(FD)
  6
Continuous
 62
     7
100
AcDbLine
 10
55.85
 20
136.755358972
 30
0.0
 11
55.85
 21
137.2591535596
 31
0.0
  0
ARC
  5
242
330
199
100
AcDbEntity
  8
$DDT_AUDIT_GENERATED_(FD)
  6
Continuous
 62
     7
100
AcDbCircle
 10
55.35
 20
136.755358972
 30
0.0
 40
0.499999999999997
100
AcDbArc
 50
270.0
 51
0.0
  0
ARC
  5
243
330
199
100
AcDbEntity
  8
$DDT_AUDIT_GENERATED_(FD)
  6
Continuous
 62
     7
100
AcDbCircle
 10
13.35
 20
136.755358972
 30
0.0
 40
0.5000000000000004
100
AcDbArc
 50
180.0
 51
270.0
  0
ARC
  5
244
330
199
100
AcDbEntity
  8
$DDT_AUDIT_GENERATED_(FD)
  6
Continuous
 62
     7
100
AcDbCircle
 10
12.357178516
 20
137.264308011
 30
0.0
 40
0.4889874747066512
100
AcDbArc
 50
359.0657103991
 51
82.7772280592
  0
ARC
  5
245
330
199
100
AcDbEntity
  8
$DDT_AUDIT_GENERATED_(FD)
  6
Continuous
 62
     7
100
AcDbCircle
 10
56.3419158953
 20
137.2669440676
 30
0.0
 40
0.4864645028748555
100
AcDbArc
 50
97.1555895845
 51
181.1049935466
  0
ARC
  5
246
330
199
100
AcDbEntity
  8
$DDT_AUDIT_GENERATED_(16B)
  6
Continuous
 62
     7
100
AcDbCircle
 10
32.2499997649
 20
194.6376842189
 30
0.0
 40
19.09617563685455
100
AcDbArc
 50
241.8813806703
 51
241.8827222834
  0
LINE
  5
247
330
199
100
AcDbEntity
  8
$DDT_AUDIT_GENERATED_(16B)
  6
Continuous
 62
     7
100
AcDbLine
 10
41.25
 20
177.795358972
 30
0.0
 11
23.2577320085
 21
177.795358972
 31
0.0
  0
ARC
  5
248
330
199
100
AcDbEntity
  8
$DDT_AUDIT_GENERATED_(16B)
  6
Continuous
 62
     7
100
AcDbCircle
 10
23.2486062367
 20
177.295432748
 30
0.0
 40
0.4962473222064777
100
AcDbArc
 50
89.0341113058
 51
180.5003460922
  0
ARC
  5
249
330
199
100
AcDbEntity
  8
$DDT_AUDIT_GENERATED_(16B)
  6
Continuous
 62
     7
100
AcDbCircle
 10
41.2510752827
 20
177.2968821378
 30
0.0
 40
0.496025881148368
100
AcDbArc
 50
359.8066622837
 51
90.4497017828
  0
LINE
  5
24A
330
199
100
AcDbEntity
  8
$DDT_AUDIT_GENERATED_(16B)
  6
Continuous
 62
     7
100
AcDbLine
 10
41.75
 20
177.244921693
 30
0.0
 11
41.75
 21
177.295358972
 31
0.0
  0
ENDBLK
  5
24C
330
199
100
AcDbEntity
  8
0
100
AcDbBlockEnd
  0
ENDSEC
  0
SECTION
  2
ENTITIES
  0
INSERT
  5
5F
330
1F
100
AcDbEntity
  8
Default
100
AcDbBlockReference
  2
SEANNOT_GROUP
 10
0.0
 20
0.0
 30
0.0
  0
INSERT
  5
6A
330
1F
100
AcDbEntity
  8
Default
100
AcDbBlockReference
  2
SEANNOT_GROUP1
 10
0.0
 20
0.0
 30
0.0
  0
INSERT
  5
74
330
1F
100
AcDbEntity
  8
Default
100
AcDbBlockReference
  2
SEANNOT_GROUP2
 10
0.0
 20
0.0
 30
0.0
  0
INSERT
  5
7A
330
1F
100
AcDbEntity
  8
Default
100
AcDbBlockReference
  2
SEANNOT_GROUP3
 10
0.0
 20
0.0
 30
0.0
  0
INSERT
  5
80
330
1F
100
AcDbEntity
  8
Default
100
AcDbBlockReference
  2
SEANNOT_GROUP4
 10
0.0
 20
0.0
 30
0.0
  0
INSERT
  5
8A
330
1F
100
AcDbEntity
  8
Default
100
AcDbBlockReference
  2
SEANNOT_GROUP5
 10
0.0
 20
0.0
 30
0.0
  0
INSERT
  5
90
330
1F
100
AcDbEntity
  8
Default
100
AcDbBlockReference
  2
SEANNOT_GROUP6
 10
0.0
 20
0.0
 30
0.0
  0
INSERT
  5
96
330
1F
100
AcDbEntity
  8
Default
100
AcDbBlockReference
  2
SEANNOT_GROUP7
 10
0.0
 20
0.0
 30
0.0
  0
INSERT
  5
9C
330
1F
100
AcDbEntity
  8
Default
100
AcDbBlockReference
  2
SEANNOT_GROUP8
 10
0.0
 20
0.0
 30
0.0
  0
INSERT
  5
A2
330
1F
100
AcDbEntity
  8
Default
100
AcDbBlockReference
  2
SEANNOT_GROUP9
 10
0.0
 20
0.0
 30
0.0
  0
INSERT
  5
A8
330
1F
100
AcDbEntity
  8
Default
100
AcDbBlockReference
  2
SEANNOT_GROUP10
 10
0.0
 20
0.0
 30
0.0
  0
INSERT
  5
AE
330
1F
100
AcDbEntity
  8
Default
100
AcDbBlockReference
  2
SEANNOT_GROUP11
 10
0.0
 20
0.0
 30
0.0
  0
INSERT
  5
B4
330
1F
100
AcDbEntity
  8
Default
100
AcDbBlockReference
  2
SE
 10
0.0
 20
0.0
 30
0.0
  0
INSERT
  5
121
330
1F
100
AcDbEntity
  8
Default
100
AcDbBlockReference
  2
SE1
 10
0.0
 20
0.0
 30
0.0
  0
INSERT
  5
19A
330
1F
100
AcDbEntity
  8
Default
100
AcDbBlockReference
  2
SE2
 10
0.0
 20
0.0
 30
0.0
  0
TEXT
  5
24E
330
1F
100
AcDbEntity
  8
Default
  6
Continuous
 62
     7
100
AcDbText
 10
5.9362635081
 20
53.4225120485
 30
0.0
 40
10.0
  1
Grohe AG^J
  7
SEACAD_seiso_ttf
 11
5.9362635081
 21
63.4225120485
 31
0.0
100
AcDbText
 73
     3
  0
TEXT
  5
24F
330
1F
100
AcDbEntity
  8
Default
  6
Continuous
 62
     7
100
AcDbText
 10
5.9362635081
 20
37.0588756849
 30
0.0
 40
10.0
  1
 
  7
SEACAD_seiso_ttf
 11
5.9362635081
 21
47.0588756849
 31
0.0
100
AcDbText
 73
     3
  0
TEXT
  5
250
330
1F
100
AcDbEntity
  8
Default
  6
Continuous
 62
     7
100
AcDbText
 10
5.9362635081
 20
20.6952393213
 30
0.0
 40
10.0
  1
ecn:
  7
SEACAD_seiso_ttf
 11
5.9362635081
 21
30.6952393213
 31
0.0
100
AcDbText
 73
     3
  0
TEXT
  5
251
330
1F
100
AcDbEntity
  8
Default
  6
Continuous
 62
     7
100
AcDbText
 10
5.9362635081
 20
4.3316029576
 30
0.0
 40
10.0
  1
unit: mm
  7
SEACAD_seiso_ttf
 11
5.9362635081
 21
14.3316029576
 31
0.0
100
AcDbText
 73
     3
  0
LINE
  5
252
330
1F
100
AcDbEntity
  8
Default
  6
Continuous
 62
     7
100
AcDbLine
 10
0.0
 20
0.0
 30
0.0
 11
100.0
 21
0.0
 31
0.0
  0
LINE
  5
253
330
1F
100
AcDbEntity
  8
Default
  6
Continuous
 62
     7
100
AcDbLine
 10
0.0
 20
0.0
 30
0.0
 11
0.0
 21
100.0
 31
0.0
  0
TEXT
  5
254
330
1F
100
AcDbEntity
  8
Default
  6
Continuous
 62
     7
100
AcDbText
 10
24.3923665681
 20
-18.2375342018
 30
0.0
 40
10.0
  1
100 mm
  7
SEACAD_seiso_ttf
 11
24.3923665681
 21
-8.2375342018
 31
0.0
100
AcDbText
 73
     3
  0
TEXT
  5
255
330
1F
100
AcDbEntity
  8
Default
  6
Continuous
 62
     7
100
AcDbText
 10
-7.6150308803
 20
24.6231930421
 30
0.0
 40
10.0
  1
100 mm
 50
90.0
  7
SEACAD_seiso_ttf
 11
-17.6150308803
 21
24.6231930421
 31
0.0
100
AcDbText
 73
     3
  0
TEXT
  5
256
330
1F
100
AcDbEntity
  8
Default
  6
Continuous
 62
     7
100
AcDbText
 10
28.4878128572
 20
20.0907663715
 30
0.0
 40
10.0
  1
231726
  7
SEACAD_seiso_ttf
 11
28.4878128572
 21
30.0907663715
 31
0.0
100
AcDbText
 73
     3
  0
TEXT
  5
257
330
1F
100
AcDbEntity
  8
Default
  6
Continuous
 62
     7
100
AcDbText
 10
5.9012241913
 20
36.7242780188
 30
0.0
 40
10.0
  1
34268002
  7
SEACAD_seiso_ttf
 11
5.9012241913
 21
46.7242780188
 31
0.0
100
AcDbText
 73
     3
  0
ENDSEC
  0
SECTION
  2
OBJECTS
  0
DICTIONARY
  5
C
330
0
100
AcDbDictionary
281
     1
  3
ACAD_GROUP
350
D
  3
ACAD_LAYOUT
350
1A
  3
ACAD_MLEADERSTYLE
350
25B
  3
ACAD_MLINESTYLE
350
17
  3
ACAD_PLOTSETTINGS
350
19
  3
ACAD_PLOTSTYLENAME
350
E
  3
ACAD_SCALELIST
350
3B
  3
ACAD_TABLESTYLE
350
25A
  3
ACAD_VISUALSTYLE
350
2A
  3
AcDbVariableDictionary
350
258
  0
DICTIONARY
  5
D
102
{ACAD_REACTORS
330
C
102
}
330
C
100
AcDbDictionary
281
     1
  0
DICTIONARY
  5
1A
102
{ACAD_REACTORS
330
C
102
}
330
C
100
AcDbDictionary
281
     1
  3
Layout1
350
1E
  3
Model
350
22
  0
DICTIONARY
  5
25B
102
{ACAD_REACTORS
330
C
102
}
330
C
100
AcDbDictionary
281
     1
  0
DICTIONARY
  5
17
102
{ACAD_REACTORS
330
C
102
}
330
C
100
AcDbDictionary
281
     1
  3
Standard
350
18
  0
DICTIONARY
  5
19
102
{ACAD_REACTORS
330
C
102
}
330
C
100
AcDbDictionary
281
     1
  0
ACDBDICTIONARYWDFLT
  5
E
102
{ACAD_REACTORS
330
C
102
}
330
C
100
AcDbDictionary
281
     1
  3
Normal
350
F
100
AcDbDictionaryWithDefault
340
F
  0
DICTIONARY
  5
3B
102
{ACAD_REACTORS
330
C
102
}
330
C
100
AcDbDictionary
281
     1
  3
A0
350
3C
  3
A1
350
3D
  3
A2
350
3E
  3
A3
350
3F
  3
A4
350
40
  3
A5
350
41
  3
A6
350
42
  3
A7
350
43
  3
A8
350
44
  3
A9
350
45
  3
B0
350
46
  3
B1
350
47
  3
B2
350
48
  3
B3
350
49
  3
B4
350
4A
  3
B5
350
4B
  3
B6
350
4C
  3
B7
350
4D
  3
B8
350
4E
  3
B9
350
4F
  3
C0
350
50
  3
C1
350
51
  3
C2
350
52
  3
C3
350
53
  3
C4
350
54
  3
C5
350
55
  3
C6
350
56
  3
C7
350
57
  3
C8
350
58
  3
C9
350
59
  3
D0
350
5A
  3
D1
350
5B
  3
D2
350
5C
  0
DICTIONARY
  5
25A
102
{ACAD_REACTORS
330
C
102
}
330
C
100
AcDbDictionary
281
     1
  0
DICTIONARY
  5
2A
102
{ACAD_REACTORS
330
C
102
}
330
C
100
AcDbDictionary
281
     1
  3
2dWireframe
350
2F
  3
3D Hidden
350
31
  3
3dWireframe
350
30
  3
Basic
350
32
  3
Brighten
350
36
  3
ColorChange
350
3A
  3
Conceptual
350
34
  3
Dim
350
35
  3
Facepattern
350
39
  3
Flat
350
2B
  3
FlatWithEdges
350
2C
  3
Gouraud
350
2D
  3
GouraudWithEdges
350
2E
  3
Linepattern
350
38
  3
Realistic
350
33
  3
Thicken
350
37
  0
DICTIONARY
  5
258
102
{ACAD_REACTORS
330
C
102
}
330
C
100
AcDbDictionary
281
     1
  3
CANNOSCALE
350
259
  3
PSOLHEIGHT
350
25D
  3
PSOLWIDTH
350
25C
  0
LAYOUT
  5
1E
102
{ACAD_REACTORS
330
1A
102
}
330
1A
100
AcDbPlotSettings
  1

  2
none_device
  4

  6

 40
0.0
 41
0.0
 42
0.0
 43
0.0
 44
0.0
 45
0.0
 46
0.0
 47
0.0
 48
0.0
 49
0.0
140
0.0
141
0.0
142
1.0
143
1.0
 70
   688
 72
     0
 73
     0
 74
     5
  7

 75
    16
147
1.0
148
0.0
149
0.0
100
AcDbLayout
  1
Layout1
 70
     1
 71
     1
 10
0.0
 20
0.0
 11
3000.0
 21
4500.0
 12
0.0
 22
0.0
 32
0.0
 14
0.0
 24
0.0
 34
0.0
 15
3000.0
 25
4500.0
 35
0.0
146
0.0
 13
0.0
 23
0.0
 33
0.0
 16
1.0
 26
0.0
 36
0.0
 17
0.0
 27
1.0
 37
0.0
 76
     0
330
1B
  0
LAYOUT
  5
22
102
{ACAD_REACTORS
330
1A
102
}
330
1A
100
AcDbPlotSettings
  1

  2
none_device
  4

  6

 40
0.0
 41
0.0
 42
0.0
 43
0.0
 44
0.0
 45
0.0
 46
0.0
 47
0.0
 48
0.0
 49
0.0
140
0.0
141
0.0
142
1.0
143
1.0
 70
  1712
 72
     0
 73
     0
 74
     0
  7

 75
     0
147
1.0
148
0.0
149
0.0
100
AcDbLayout
  1
Model
 70
     1
 71
     0
 10
0.0
 20
0.0
 11
3000.0
 21
4500.0
 12
0.0
 22
0.0
 32
0.0
 14
0.0
 24
0.0
 34
0.0
 15
3000.0
 25
4500.0
 35
0.0
146
0.0
 13
0.0
 23
0.0
 33
0.0
 16
1.0
 26
0.0
 36
0.0
 17
0.0
 27
1.0
 37
0.0
 76
     0
330
1F
331
29
  0
MLINESTYLE
  5
18
102
{ACAD_REACTORS
330
17
102
}
330
17
100
AcDbMlineStyle
  2
Standard
 70
     0
  3

 62
   256
 51
90.0
 52
90.0
 71
     2
 49
0.5
 62
   256
  6
BYLAYER
 49
-0.5
 62
   256
  6
BYLAYER
  0
ACDBPLACEHOLDER
  5
F
102
{ACAD_REACTORS
330
E
102
}
330
E
  0
SCALE
  5
3C
102
{ACAD_REACTORS
330
3B
102
}
330
3B
100
AcDbScale
 70
     0
300
1:1
140
1.0
141
1.0
290
     1
  0
SCALE
  5
3D
102
{ACAD_REACTORS
330
3B
102
}
330
3B
100
AcDbScale
 70
     0
300
1:2
140
1.0
141
2.0
290
     0
  0
SCALE
  5
3E
102
{ACAD_REACTORS
330
3B
102
}
330
3B
100
AcDbScale
 70
     0
300
1:4
140
1.0
141
4.0
290
     0
  0
SCALE
  5
3F
102
{ACAD_REACTORS
330
3B
102
}
330
3B
100
AcDbScale
 70
     0
300
1:5
140
1.0
141
5.0
290
     0
  0
SCALE
  5
40
102
{ACAD_REACTORS
330
3B
102
}
330
3B
100
AcDbScale
 70
     0
300
1:8
140
1.0
141
8.0
290
     0
  0
SCALE
  5
41
102
{ACAD_REACTORS
330
3B
102
}
330
3B
100
AcDbScale
 70
     0
300
1:10
140
1.0
141
10.0
290
     0
  0
SCALE
  5
42
102
{ACAD_REACTORS
330
3B
102
}
330
3B
100
AcDbScale
 70
     0
300
1:16
140
1.0
141
16.0
290
     0
  0
SCALE
  5
43
102
{ACAD_REACTORS
330
3B
102
}
330
3B
100
AcDbScale
 70
     0
300
1:20
140
1.0
141
20.0
290
     0
  0
SCALE
  5
44
102
{ACAD_REACTORS
330
3B
102
}
330
3B
100
AcDbScale
 70
     0
300
1:30
140
1.0
141
30.0
290
     0
  0
SCALE
  5
45
102
{ACAD_REACTORS
330
3B
102
}
330
3B
100
AcDbScale
 70
     0
300
1:40
140
1.0
141
40.0
290
     0
  0
SCALE
  5
46
102
{ACAD_REACTORS
330
3B
102
}
330
3B
100
AcDbScale
 70
     0
300
1:50
140
1.0
141
50.0
290
     0
  0
SCALE
  5
47
102
{ACAD_REACTORS
330
3B
102
}
330
3B
100
AcDbScale
 70
     0
300
1:100
140
1.0
141
100.0
290
     0
  0
SCALE
  5
48
102
{ACAD_REACTORS
330
3B
102
}
330
3B
100
AcDbScale
 70
     0
300
2:1
140
2.0
141
1.0
290
     0
  0
SCALE
  5
49
102
{ACAD_REACTORS
330
3B
102
}
330
3B
100
AcDbScale
 70
     0
300
4:1
140
4.0
141
1.0
290
     0
  0
SCALE
  5
4A
102
{ACAD_REACTORS
330
3B
102
}
330
3B
100
AcDbScale
 70
     0
300
8:1
140
8.0
141
1.0
290
     0
  0
SCALE
  5
4B
102
{ACAD_REACTORS
330
3B
102
}
330
3B
100
AcDbScale
 70
     0
300
10:1
140
10.0
141
1.0
290
     0
  0
SCALE
  5
4C
102
{ACAD_REACTORS
330
3B
102
}
330
3B
100
AcDbScale
 70
     0
300
100:1
140
100.0
141
1.0
290
     0
  0
SCALE
  5
4D
102
{ACAD_REACTORS
330
3B
102
}
330
3B
100
AcDbScale
 70
     0
300
1/128" = 1'-0"
140
0.0078125
141
12.0
290
     0
  0
SCALE
  5
4E
102
{ACAD_REACTORS
330
3B
102
}
330
3B
100
AcDbScale
 70
     0
300
1/64" = 1'-0"
140
0.015625
141
12.0
290
     0
  0
SCALE
  5
4F
102
{ACAD_REACTORS
330
3B
102
}
330
3B
100
AcDbScale
 70
     0
300
1/32" = 1'-0"
140
0.03125
141
12.0
290
     0
  0
SCALE
  5
50
102
{ACAD_REACTORS
330
3B
102
}
330
3B
100
AcDbScale
 70
     0
300
1/16" = 1'-0"
140
0.0625
141
12.0
290
     0
  0
SCALE
  5
51
102
{ACAD_REACTORS
330
3B
102
}
330
3B
100
AcDbScale
 70
     0
300
3/32" = 1'-0"
140
0.09375
141
12.0
290
     0
  0
SCALE
  5
52
102
{ACAD_REACTORS
330
3B
102
}
330
3B
100
AcDbScale
 70
     0
300
1/8" = 1'-0"
140
0.125
141
12.0
290
     0
  0
SCALE
  5
53
102
{ACAD_REACTORS
330
3B
102
}
330
3B
100
AcDbScale
 70
     0
300
3/16" = 1'-0"
140
0.1875
141
12.0
290
     0
  0
SCALE
  5
54
102
{ACAD_REACTORS
330
3B
102
}
330
3B
100
AcDbScale
 70
     0
300
1/4" = 1'-0"
140
0.25
141
12.0
290
     0
  0
SCALE
  5
55
102
{ACAD_REACTORS
330
3B
102
}
330
3B
100
AcDbScale
 70
     0
300
3/8" = 1'-0"
140
0.375
141
12.0
290
     0
  0
SCALE
  5
56
102
{ACAD_REACTORS
330
3B
102
}
330
3B
100
AcDbScale
 70
     0
300
1/2" = 1'-0"
140
0.5
141
12.0
290
     0
  0
SCALE
  5
57
102
{ACAD_REACTORS
330
3B
102
}
330
3B
100
AcDbScale
 70
     0
300
3/4" = 1'-0"
140
0.75
141
12.0
290
     0
  0
SCALE
  5
58
102
{ACAD_REACTORS
330
3B
102
}
330
3B
100
AcDbScale
 70
     0
300
1" = 1'-0"
140
1.0
141
12.0
290
     0
  0
SCALE
  5
59
102
{ACAD_REACTORS
330
3B
102
}
330
3B
100
AcDbScale
 70
     0
300
1-1/2" = 1'-0"
140
1.5
141
12.0
290
     0
  0
SCALE
  5
5A
102
{ACAD_REACTORS
330
3B
102
}
330
3B
100
AcDbScale
 70
     0
300
3" = 1'-0"
140
3.0
141
12.0
290
     0
  0
SCALE
  5
5B
102
{ACAD_REACTORS
330
3B
102
}
330
3B
100
AcDbScale
 70
     0
300
6" = 1'-0"
140
6.0
141
12.0
290
     0
  0
SCALE
  5
5C
102
{ACAD_REACTORS
330
3B
102
}
330
3B
100
AcDbScale
 70
     0
300
1'-0" = 1'-0"
140
12.0
141
12.0
290
     0
  0
VISUALSTYLE
  5
2F
102
{ACAD_REACTORS
330
2A
102
}
330
2A
100
AcDbVisualStyle
  2
2dWireframe
 70
     4
 71
     0
 72
     2
 73
     0
 90
        0
 40
-0.6
 41
-30.0
 62
     5
 63
     7
 74
     1
 91
        4
 64
     7
 65
   257
 75
     1
175
     1
 42
1.0
 92
        0
 66
   257
 43
1.0
 76
     1
 77
     6
 78
     2
 67
     7
 79
     5
170
     0
171
     0
290
     0
174
     0
 93
        1
 44
0.0
173
     0
291
     0
 45
0.0
1001
ACAD
1000
AcDbSavedByObjectVersion
1070
     0
  0
VISUALSTYLE
  5
31
102
{ACAD_REACTORS
330
2A
102
}
330
2A
100
AcDbVisualStyle
  2
3D Hidden
 70
     6
 71
     1
 72
     2
 73
     2
 90
        0
 40
-0.6
 41
-30.0
 62
     5
 63
     7
 74
     2
 91
        2
 64
     7
 65
   257
 75
     2
175
     1
 42
40.0
 92
        0
 66
   257
 43
1.0
 76
     1
 77
     6
 78
     2
 67
     7
 79
     3
170
     0
171
     0
290
     0
174
     0
 93
        1
 44
0.0
173
     0
291
     0
 45
0.0
1001
ACAD
1000
AcDbSavedByObjectVersion
1070
     0
  0
VISUALSTYLE
  5
30
102
{ACAD_REACTORS
330
2A
102
}
330
2A
100
AcDbVisualStyle
  2
3dWireframe
 70
     5
 71
     0
 72
     2
 73
     0
 90
        0
 40
-0.6
 41
-30.0
 62
     5
 63
     7
 74
     1
 91
        4
 64
     7
 65
   257
 75
     1
175
     1
 42
1.0
 92
        0
 66
   257
 43
1.0
 76
     1
 77
     6
 78
     2
 67
     7
 79
     5
170
     0
171
     0
290
     0
174
     0
 93
        1
 44
0.0
173
     0
291
     0
 45
0.0
1001
ACAD
1000
AcDbSavedByObjectVersion
1070
     0
  0
VISUALSTYLE
  5
32
102
{ACAD_REACTORS
330
2A
102
}
330
2A
100
AcDbVisualStyle
  2
Basic
 70
     7
 71
     1
 72
     0
 73
     1
 90
        0
 40
-0.6
 41
-30.0
 62
     5
 63
     7
 74
     0
 91
        4
 64
     7
 65
   257
 75
     1
175
     1
 42
1.0
 92
        8
 66
     7
 43
1.0
 76
     1
 77
     6
 78
     2
 67
     7
 79
     5
170
     0
171
     0
290
     0
174
     0
 93
        1
 44
0.0
173
     0
291
     1
 45
0.0
1001
ACAD
1000
AcDbSavedByObjectVersion
1070
     0
  0
VISUALSTYLE
  5
36
102
{ACAD_REACTORS
330
2A
102
}
330
2A
100
AcDbVisualStyle
  2
Brighten
 70
    12
 71
     2
 72
     2
 73
     0
 90
        0
 40
-0.6
 41
-30.0
 62
     5
 63
     7
 74
     1
 91
        4
 64
     7
 65
   257
 75
     1
175
     1
 42
1.0
 92
        8
 66
     7
 43
1.0
 76
     1
 77
     6
 78
     2
 67
     7
 79
     5
170
     0
171
     0
290
     0
174
     0
 93
        1
 44
50.0
173
     0
291
     1
 45
0.0
1001
ACAD
1000
AcDbSavedByObjectVersion
1070
     0
  0
VISUALSTYLE
  5
3A
102
{ACAD_REACTORS
330
2A
102
}
330
2A
100
AcDbVisualStyle
  2
ColorChange
 70
    16
 71
     2
 72
     2
 73
     3
 90
        0
 40
-0.6
 41
-30.0
 62
     5
 63
     8
 74
     1
 91
        4
 64
     7
 65
   257
 75
     1
175
     1
 42
1.0
 92
        8
 66
     8
 43
1.0
 76
     1
 77
     6
 78
     2
 67
     7
 79
     5
170
     0
171
     0
290
     0
174
     0
 93
        1
 44
0.0
173
     0
291
     1
 45
0.0
1001
ACAD
1000
AcDbSavedByObjectVersion
1070
     0
  0
VISUALSTYLE
  5
34
102
{ACAD_REACTORS
330
2A
102
}
330
2A
100
AcDbVisualStyle
  2
Conceptual
 70
     9
 71
     3
 72
     2
 73
     0
 90
        0
 40
-0.6
 41
-30.0
 62
     5
 63
     7
 74
     2
 91
        2
 64
     7
 65
   257
 75
     1
175
     1
 42
40.0
 92
        8
 66
     7
 43
1.0
 76
     1
 77
     6
 78
     2
 67
     7
 79
     3
170
     0
171
     0
290
     0
174
     0
 93
        1
 44
0.0
173
     0
291
     0
 45
0.0
1001
ACAD
1000
AcDbSavedByObjectVersion
1070
     0
  0
VISUALSTYLE
  5
35
102
{ACAD_REACTORS
330
2A
102
}
330
2A
100
AcDbVisualStyle
  2
Dim
 70
    11
 71
     2
 72
     2
 73
     0
 90
        0
 40
-0.6
 41
-30.0
 62
     5
 63
     7
 74
     1
 91
        4
 64
     7
 65
   257
 75
     1
175
     1
 42
1.0
 92
        8
 66
     7
 43
1.0
 76
     1
 77
     6
 78
     2
 67
     7
 79
     5
170
     0
171
     0
290
     0
174
     0
 93
        1
 44
-50.0
173
     0
291
     1
 45
0.0
1001
ACAD
1000
AcDbSavedByObjectVersion
1070
     0
  0
VISUALSTYLE
  5
39
102
{ACAD_REACTORS
330
2A
102
}
330
2A
100
AcDbVisualStyle
  2
Facepattern
 70
    15
 71
     2
 72
     2
 73
     0
 90
        0
 40
-0.6
 41
-30.0
 62
     5
 63
     7
 74
     1
 91
        4
 64
     7
 65
   257
 75
     1
175
     1
 42
1.0
 92
        8
 66
     7
 43
1.0
 76
     1
 77
     6
 78
     2
 67
     7
 79
     5
170
     0
171
     0
290
     0
174
     0
 93
        1
 44
0.0
173
     0
291
     1
 45
0.0
1001
ACAD
1000
AcDbSavedByObjectVersion
1070
     0
  0
VISUALSTYLE
  5
2B
102
{ACAD_REACTORS
330
2A
102
}
330
2A
100
AcDbVisualStyle
  2
Flat
 70
     0
 71
     2
 72
     1
 73
     1
 90
        2
 40
-0.6
 41
30.0
 62
     5
 63
     7
 74
     0
 91
        4
 64
     7
 65
   257
 75
     1
175
     1
 42
1.0
 92
        8
 66
     7
 43
1.0
 76
     1
 77
     6
 78
     2
 67
     7
 79
     5
170
     0
171
     0
290
     0
174
     0
 93
       13
 44
0.0
173
     0
291
     1
 45
0.0
1001
ACAD
1000
AcDbSavedByObjectVersion
1070
     0
  0
VISUALSTYLE
  5
2C
102
{ACAD_REACTORS
330
2A
102
}
330
2A
100
AcDbVisualStyle
  2
FlatWithEdges
 70
     1
 71
     2
 72
     1
 73
     1
 90
        2
 40
-0.6
 41
30.0
 62
     5
 63
     7
 74
     1
 91
        4
 64
     7
 65
   257
 75
     1
175
     1
 42
1.0
 92
        0
 66
   257
 43
1.0
 76
     1
 77
     6
 78
     2
 67
     7
 79
     5
170
     0
171
     0
290
     0
174
     0
 93
       13
 44
0.0
173
     0
291
     1
 45
0.0
1001
ACAD
1000
AcDbSavedByObjectVersion
1070
     0
  0
VISUALSTYLE
  5
2D
102
{ACAD_REACTORS
330
2A
102
}
330
2A
100
AcDbVisualStyle
  2
Gouraud
 70
     2
 71
     2
 72
     2
 73
     1
 90
        2
 40
-0.6
 41
30.0
 62
     5
 63
     7
 74
     0
 91
        4
 64
     7
 65
   257
 75
     1
175
     1
 42
1.0
 92
        0
 66
     7
 43
1.0
 76
     1
 77
     6
 78
     2
 67
     7
 79
     5
170
     0
171
     0
290
     0
174
     0
 93
       13
 44
0.0
173
     0
291
     1
 45
0.0
1001
ACAD
1000
AcDbSavedByObjectVersion
1070
     0
  0
VISUALSTYLE
  5
2E
102
{ACAD_REACTORS
330
2A
102
}
330
2A
100
AcDbVisualStyle
  2
GouraudWithEdges
 70
     3
 71
     2
 72
     2
 73
     1
 90
        2
 40
-0.6
 41
30.0
 62
     5
 63
     7
 74
     1
 91
        4
 64
     7
 65
   257
 75
     1
175
     1
 42
1.0
 92
        0
 66
   257
 43
1.0
 76
     1
 77
     6
 78
     2
 67
     7
 79
     5
170
     0
171
     0
290
     0
174
     0
 93
       13
 44
0.0
173
     0
291
     1
 45
0.0
1001
ACAD
1000
AcDbSavedByObjectVersion
1070
     0
  0
VISUALSTYLE
  5
38
102
{ACAD_REACTORS
330
2A
102
}
330
2A
100
AcDbVisualStyle
  2
Linepattern
 70
    14
 71
     2
 72
     2
 73
     0
 90
        0
 40
-0.6
 41
-30.0
 62
     5
 63
     7
 74
     1
 91
        4
 64
     7
 65
   257
 75
     7
175
     7
 42
1.0
 92
        8
 66
     7
 43
1.0
 76
     1
 77
     6
 78
     2
 67
     7
 79
     5
170
     0
171
     0
290
     0
174
     0
 93
        1
 44
0.0
173
     0
291
     1
 45
0.0
1001
ACAD
1000
AcDbSavedByObjectVersion
1070
     0
  0
VISUALSTYLE
  5
33
102
{ACAD_REACTORS
330
2A
102
}
330
2A
100
AcDbVisualStyle
  2
Realistic
 70
     8
 71
     2
 72
     2
 73
     0
 90
        0
 40
-0.6
 41
-30.0
 62
     5
 63
     7
 74
     1
 91
        0
 64
     7
 65
   257
 75
     1
175
     1
 42
1.0
 92
        8
 66
     8
 43
1.0
 76
     1
 77
     6
 78
     2
 67
     7
 79
     5
170
     0
171
     0
290
     0
174
     0
 93
       13
 44
0.0
173
     0
291
     0
 45
0.0
1001
ACAD
1000
AcDbSavedByObjectVersion
1070
     0
  0
VISUALSTYLE
  5
37
102
{ACAD_REACTORS
330
2A
102
}
330
2A
100
AcDbVisualStyle
  2
Thicken
 70
    13
 71
     2
 72
     2
 73
     0
 90
        0
 40
-0.6
 41
-30.0
 62
     5
 63
     7
 74
     1
 91
        4
 64
     7
 65
   257
 75
     1
175
     1
 42
1.0
 92
       12
 66
     7
 43
1.0
 76
     1
 77
     6
 78
     2
 67
     7
 79
     5
170
     0
171
     0
290
     0
174
     0
 93
        1
 44
0.0
173
     0
291
     1
 45
0.0
1001
ACAD
1000
AcDbSavedByObjectVersion
1070
     0
  0
DICTIONARYVAR
  5
259
102
{ACAD_REACTORS
330
258
102
}
330
258
100
DictionaryVariables
280
     0
  1
1:1
  0
DICTIONARYVAR
  5
25D
102
{ACAD_REACTORS
330
258
102
}
330
258
100
DictionaryVariables
280
     0
  1
80.000000
  0
DICTIONARYVAR
  5
25C
102
{ACAD_REACTORS
330
258
102
}
330
258
100
DictionaryVariables
280
     0
  1
5.000000
  0
ENDSEC
  0
EOF
