  0
SECTION
  2
HEADER
  9
$ACADVER
  1
AC1018
  9
$ACADMAINTVER
 70
     2
  9
$DWGCODEPAGE
  3
ANSI_1252
  9
$TITLE
  1

  9
$SUBJECT
  1

  9
$AUTHOR
  1

  9
$KEYWORDS
  1

  9
$COMMENTS
  1

  9
$LASTSAVEDBY
  1

  9
$REVISIONNUMBER
  1

  9
$CUSTOMPROPERTYTAG
  1
AmdtFileType
  9
$CUSTOMPROPERTY
  1
84
  9
$INSBASE
 10
0.0
 20
0.0
 30
0.0
  9
$EXTMIN
 10
-600.6952065382884
 20
-177.6348599646976
 30
0.0
  9
$EXTMAX
 10
0.7032616375911207
 20
178.7886847613952
 30
0.0
  9
$LIMMIN
 10
0.0
 20
0.0
  9
$LIMMAX
 10
420.0
 20
297.0
  9
$ORTHOMODE
 70
     1
  9
$REGENMODE
 70
     1
  9
$FILLMODE
 70
     1
  9
$QTEXTMODE
 70
     0
  9
$MIRRTEXT
 70
     1
  9
$LTSCALE
 40
1.0
  9
$ATTMODE
 70
     1
  9
$TEXTSIZE
 40
2.5
  9
$TRACEWID
 40
1.0
  9
$TEXTSTYLE
  7
STANDARD
  9
$CLAYER
  8
0
  9
$CELTYPE
  6
ByLayer
  9
$CECOLOR
 62
   256
  9
$CELTSCALE
 40
1.0
  9
$DISPSILH
 70
     0
  9
$DIMSCALE
 40
1.0
  9
$DIMASZ
 40
2.5
  9
$DIMEXO
 40
1.0
  9
$DIMDLI
 40
10.0
  9
$DIMRND
 40
0.0
  9
$DIMDLE
 40
0.0
  9
$DIMEXE
 40
1.0
  9
$DIMTP
 40
0.1
  9
$DIMTM
 40
0.1
  9
$DIMTXT
 40
3.5
  9
$DIMCEN
 40
0.0
  9
$DIMTSZ
 40
0.0
  9
$DIMTOL
 70
     0
  9
$DIMLIM
 70
     0
  9
$DIMTIH
 70
     0
  9
$DIMTOH
 70
     0
  9
$DIMSE1
 70
     0
  9
$DIMSE2
 70
     0
  9
$DIMTAD
 70
     1
  9
$DIMZIN
 70
     8
  9
$DIMBLK
  1

  9
$DIMASO
 70
     1
  9
$DIMSHO
 70
     1
  9
$DIMPOST
  1

  9
$DIMAPOST
  1
"
  9
$DIMALT
 70
     0
  9
$DIMALTD
 70
     2
  9
$DIMALTF
 40
0.0393701
  9
$DIMLFAC
 40
1.0
  9
$DIMTOFL
 70
     1
  9
$DIMTVP
 40
0.0
  9
$DIMTIX
 70
     0
  9
$DIMSOXD
 70
     0
  9
$DIMSAH
 70
     0
  9
$DIMBLK1
  1

  9
$DIMBLK2
  1

  9
$DIMSTYLE
  2
AM_DIN
  9
$DIMCLRD
 70
   256
  9
$DIMCLRE
 70
   256
  9
$DIMCLRT
 70
     2
  9
$DIMTFAC
 40
0.71
  9
$DIMGAP
 40
1.5
  9
$DIMJUST
 70
     0
  9
$DIMSD1
 70
     0
  9
$DIMSD2
 70
     0
  9
$DIMTOLJ
 70
     0
  9
$DIMTZIN
 70
     8
  9
$DIMALTZ
 70
     0
  9
$DIMALTTZ
 70
     0
  9
$DIMUPT
 70
     0
  9
$DIMDEC
 70
     2
  9
$DIMTDEC
 70
     3
  9
$DIMALTU
 70
     2
  9
$DIMALTTD
 70
     4
  9
$DIMTXSTY
  7
STANDARD
  9
$DIMAUNIT
 70
     0
  9
$DIMADEC
 70
     0
  9
$DIMALTRND
 40
0.0
  9
$DIMAZIN
 70
     2
  9
$DIMDSEP
 70
    46
  9
$DIMATFIT
 70
     3
  9
$DIMFRAC
 70
     0
  9
$DIMLDRBLK
  1

  9
$DIMLUNIT
 70
     2
  9
$DIMLWD
 70
    -1
  9
$DIMLWE
 70
    -1
  9
$DIMTMOVE
 70
     0
  9
$LUNITS
 70
     2
  9
$LUPREC
 70
     2
  9
$SKETCHINC
 40
1.0
  9
$FILLETRAD
 40
10.0
  9
$AUNITS
 70
     0
  9
$AUPREC
 70
     0
  9
$MENU
  1
.
  9
$ELEVATION
 40
0.0
  9
$PELEVATION
 40
0.0
  9
$THICKNESS
 40
0.0
  9
$LIMCHECK
 70
     0
  9
$CHAMFERA
 40
2.5
  9
$CHAMFERB
 40
2.5
  9
$CHAMFERC
 40
20.0
  9
$CHAMFERD
 40
0.0
  9
$SKPOLY
 70
     0
  9
$TDCREATE
 40
2453918.221006574
  9
$TDUCREATE
 40
2453918.179339908
  9
$TDUPDATE
 40
2454064.609628531
  9
$TDUUPDATE
 40
2454064.567961864
  9
$TDINDWG
 40
0.2908705787
  9
$TDUSRTIMER
 40
0.2908664236
  9
$USRTIMER
 70
     1
  9
$ANGBASE
 50
0.0
  9
$ANGDIR
 70
     0
  9
$PDMODE
 70
     0
  9
$PDSIZE
 40
0.0
  9
$PLINEWID
 40
0.0
  9
$SPLFRAME
 70
     0
  9
$SPLINETYPE
 70
     6
  9
$SPLINESEGS
 70
     8
  9
$HANDSEED
  5
5CDF
  9
$SURFTAB1
 70
     6
  9
$SURFTAB2
 70
     6
  9
$SURFTYPE
 70
     6
  9
$SURFU
 70
     6
  9
$SURFV
 70
     6
  9
$UCSBASE
  2

  9
$UCSNAME
  2

  9
$UCSORG
 10
0.0
 20
0.0
 30
0.0
  9
$UCSXDIR
 10
1.0
 20
0.0
 30
0.0
  9
$UCSYDIR
 10
0.0
 20
1.0
 30
0.0
  9
$UCSORTHOREF
  2

  9
$UCSORTHOVIEW
 70
     0
  9
$UCSORGTOP
 10
0.0
 20
0.0
 30
0.0
  9
$UCSORGBOTTOM
 10
0.0
 20
0.0
 30
0.0
  9
$UCSORGLEFT
 10
0.0
 20
0.0
 30
0.0
  9
$UCSORGRIGHT
 10
0.0
 20
0.0
 30
0.0
  9
$UCSORGFRONT
 10
0.0
 20
0.0
 30
0.0
  9
$UCSORGBACK
 10
0.0
 20
0.0
 30
0.0
  9
$PUCSBASE
  2

  9
$PUCSNAME
  2

  9
$PUCSORG
 10
0.0
 20
0.0
 30
0.0
  9
$PUCSXDIR
 10
1.0
 20
0.0
 30
0.0
  9
$PUCSYDIR
 10
0.0
 20
1.0
 30
0.0
  9
$PUCSORTHOREF
  2

  9
$PUCSORTHOVIEW
 70
     0
  9
$PUCSORGTOP
 10
0.0
 20
0.0
 30
0.0
  9
$PUCSORGBOTTOM
 10
0.0
 20
0.0
 30
0.0
  9
$PUCSORGLEFT
 10
0.0
 20
0.0
 30
0.0
  9
$PUCSORGRIGHT
 10
0.0
 20
0.0
 30
0.0
  9
$PUCSORGFRONT
 10
0.0
 20
0.0
 30
0.0
  9
$PUCSORGBACK
 10
0.0
 20
0.0
 30
0.0
  9
$USERI1
 70
     0
  9
$USERI2
 70
     0
  9
$USERI3
 70
     0
  9
$USERI4
 70
     0
  9
$USERI5
 70
     0
  9
$USERR1
 40
0.0
  9
$USERR2
 40
0.0
  9
$USERR3
 40
0.0
  9
$USERR4
 40
0.0
  9
$USERR5
 40
0.0
  9
$WORLDVIEW
 70
     1
  9
$SHADEDGE
 70
     3
  9
$SHADEDIF
 70
    70
  9
$TILEMODE
 70
     1
  9
$MAXACTVP
 70
    64
  9
$PINSBASE
 10
0.0
 20
0.0
 30
0.0
  9
$PLIMCHECK
 70
     0
  9
$PEXTMIN
 10
1.000000000000000E+20
 20
1.000000000000000E+20
 30
1.000000000000000E+20
  9
$PEXTMAX
 10
-1.000000000000000E+20
 20
-1.000000000000000E+20
 30
-1.000000000000000E+20
  9
$PLIMMIN
 10
0.0
 20
0.0
  9
$PLIMMAX
 10
420.0
 20
297.0
  9
$UNITMODE
 70
     0
  9
$VISRETAIN
 70
     1
  9
$PLINEGEN
 70
     0
  9
$PSLTSCALE
 70
     1
  9
$TREEDEPTH
 70
  3020
  9
$CMLSTYLE
  2
Standard
  9
$CMLJUST
 70
     0
  9
$CMLSCALE
 40
20.0
  9
$PROXYGRAPHICS
 70
     1
  9
$MEASUREMENT
 70
     1
  9
$CELWEIGHT
370
    -1
  9
$ENDCAPS
280
     0
  9
$JOINSTYLE
280
     0
  9
$LWDISPLAY
290
     0
  9
$INSUNITS
 70
     4
  9
$HYPERLINKBASE
  1

  9
$STYLESHEET
  1

  9
$XEDIT
290
     1
  9
$CEPSNTYPE
380
     0
  9
$PSTYLEMODE
290
     1
  9
$FINGERPRINTGUID
  2
{E66C8CC1-E66B-408F-9010-06FD783B68A0}
  9
$VERSIONGUID
  2
{762F7C51-FCDA-457B-A2E5-80D71A157CE4}
  9
$EXTNAMES
290
     1
  9
$PSVPSCALE
 40
0.0
  9
$OLESTARTUP
290
     0
  9
$SORTENTS
280
   127
  9
$INDEXCTL
280
     1
  9
$HIDETEXT
280
     1
  9
$XCLIPFRAME
290
     0
  9
$HALOGAP
280
     0
  9
$OBSCOLOR
 70
   257
  9
$OBSLTYPE
280
     0
  9
$INTERSECTIONDISPLAY
280
     0
  9
$INTERSECTIONCOLOR
 70
   257
  9
$DIMASSOC
280
     2
  9
$PROJECTNAME
  1

  0
ENDSEC
  0
SECTION
  2
CLASSES
  0
CLASS
  1
ACDBDICTIONARYWDFLT
  2
AcDbDictionaryWithDefault
  3
ObjectDBX Classes
 90
        0
 91
        1
280
     0
281
     0
  0
CLASS
  1
ACME_DOCUMENT
  2
AcMeDbDoc
  3
AcMeServices
 90
        0
 91
        2
280
     0
281
     0
  0
CLASS
  1
ACMESCOPE
  2
AcMeScope
  3
AcMeServices
 90
        0
 91
        1
280
     0
281
     0
  0
CLASS
  1
ACMECOMMANDHISTORY
  2
AcMeCommandHistory
  3
AcMeServices
 90
        0
 91
        1
280
     0
281
     0
  0
CLASS
  1
ACIMSYSVARMAN
  2
AcImSysVarManager
  3
AcMeServices
 90
        0
 91
        6
280
     0
281
     0
  0
CLASS
  1
ACIMREALSYSVAR
  2
AcImRealSysVar
  3
AcMeServices
 90
        0
 91
       16
280
     0
281
     0
  0
CLASS
  1
ACIMINTSYSVAR
  2
AcImIntSysVar
  3
AcMeServices
 90
        0
 91
       45
280
     0
281
     0
  0
CLASS
  1
ACMEDRAWINGMAN
  2
AcMeDrawingMan
  3
AcMeServices
 90
        0
 91
        1
280
     0
281
     0
  0
CLASS
  1
ACMEVIEW
  2
AcMeView
  3
AcMeServices
 90
        0
 91
        1
280
     0
281
     0
  0
CLASS
  1
ACDBENTITYCACHE
  2
AcMeEntityCache
  3
AcMeServices
 90
        0
 91
        1
280
     0
281
     0
  0
CLASS
  1
GSMANAGER
  2
AcMeGSManager
  3
AcMeServices
 90
        0
 91
        1
280
     0
281
     0
  0
CLASS
  1
AMDTINTERNALREACTOR
  2
AmdtInternalReactor
  3
AcMeServices
 90
        0
 91
        2
280
     0
281
     0
  0
CLASS
  1
ACMESTATEMGR
  2
AcMeStateMgr
  3
AcMeServices
 90
        0
 91
        1
280
     0
281
     0
  0
CLASS
  1
ACGREFMASTER
  2
AcGrefMaster
  3
AcAttribServices
 90
        0
 91
        1
280
     0
281
     0
  0
CLASS
  1
ACME_DATABASE
  2
AcMeDbDatabase
  3
AcMeServices
 90
        0
 91
        1
280
     0
281
     0
  0
CLASS
  1
ACRFINSADJUSTERMGR
  2
AcRfInsAdjusterMgr
  3
AcMeServices
 90
        0
 91
        1
280
     0
281
     0
  0
CLASS
  1
ACGREFACADMASTER
  2
AcGrefacadMaster
  3
AcGrefServices
 90
        0
 91
        1
280
     0
281
     0
  0
CLASS
  1
AMIMASTER
  2
AmiMaster
  3
AmiServices
 90
        0
 91
        1
280
     0
281
     0
  0
CLASS
  1
AMGSETTINGSOBJ
  2
AmgSettingsObj
  3
"AcadM|Product Description: AutoCAD Mechanical 2000|Company: Autodesk"
 90
        0
 91
        2
280
     0
281
     0
  0
CLASS
  1
ACMDATADICTIONARY
  2
AcmDataDictionary
  3
"AcmSymBB|Product Description: AutoCAD Mechanical 2004 DX|Company: Autodesk"
 90
        0
 91
        1
280
     0
281
     0
  0
CLASS
  1
ACMDATAENTRYBLOCK
  2
AcmDataEntryBlock
  3
"AcmSymBB|Product Description: AutoCAD Mechanical 2004 DX|Company: Autodesk"
 90
        0
 91
        1
280
     0
281
     0
  0
CLASS
  1
ACIMSTRSYSVAR
  2
AcImStrSysVar
  3
AcMeServices
 90
        0
 91
       11
280
     0
281
     0
  0
CLASS
  1
ACMSTANDARDDIN
  2
AcmStandardDIN
  3
"Amdt_StdImp|Product Description: AutoCAD Mechanical 2004 DX|Company: Autodesk"
 90
        0
 91
        1
280
     0
281
     0
  0
CLASS
  1
AMGOBJPROPCFG
  2
AmgObjPropCfg
  3
"AmgLay|Product Description: AutoCAD Mechanical 2000|Company: Autodesk"
 90
        1
 91
        1
280
     0
281
     0
  0
CLASS
  1
AMDTEDGESTANDARDDIN
  2
AmdtEdgeStdDIN
  3
"Amdt_StdImp|Product Description: AutoCAD Mechanical 2004 DX|Company: Autodesk"
 90
        0
 91
        1
280
     0
281
     0
  0
CLASS
  1
ACMSURFSTANDARDDIN
  2
AcmSurfTextStdDIN
  3
"Amdt_StdImp|Product Description: AutoCAD Mechanical 2004 DX|Company: Autodesk"
 90
        0
 91
        1
280
     0
281
     0
  0
CLASS
  1
ACMFCFSTANDARDDIN
  2
AcmFCFStdDIN
  3
"Amdt_StdImp|Product Description: AutoCAD Mechanical 2004 DX|Company: Autodesk"
 90
        0
 91
        1
280
     0
281
     0
  0
CLASS
  1
ACMWELDSTANDARDDIN
  2
AcmWeldingStdDIN
  3
"Amdt_StdImp|Product Description: AutoCAD Mechanical 2004 DX|Company: Autodesk"
 90
        0
 91
        1
280
     0
281
     0
  0
CLASS
  1
ACMIDSTANDARDDIN
  2
AcmIdStdDIN
  3
"Amdt_StdImp|Product Description: AutoCAD Mechanical 2004 DX|Company: Autodesk"
 90
        0
 91
        1
280
     0
281
     0
  0
CLASS
  1
ACMDATUMSTANDARDDIN
  2
AcmDatumStdDIN
  3
"Amdt_StdImp|Product Description: AutoCAD Mechanical 2004 DX|Company: Autodesk"
 90
        0
 91
        1
280
     0
281
     0
  0
CLASS
  1
ACMBOMSTANDARDDIN
  2
AcmBOMStdDIN
  3
"Amdt_StdImp|Product Description: AutoCAD Mechanical 2004 DX|Company: Autodesk"
 90
        0
 91
        1
280
     0
281
     0
  0
CLASS
  1
ACMDETAILSTANDARDDIN
  2
AmdtDetailSymStdDIN
  3
"Amdt_StdImp|Product Description: AutoCAD Mechanical 2004 DX|Company: Autodesk"
 90
        0
 91
        1
280
     0
281
     0
  0
CLASS
  1
ACMSECTIONSTANDARDDIN
  2
AmdtSectionSymStdDIN
  3
"Amdt_StdImp|Product Description: AutoCAD Mechanical 2004 DX|Company: Autodesk"
 90
        0
 91
        1
280
     0
281
     0
  0
CLASS
  1
ACMCENTERLINESTANDARDDIN
  2
AmdtCenterLineStdDIN
  3
"Amdt_StdImp|Product Description: AutoCAD Mechanical 2004 DX|Company: Autodesk"
 90
        0
 91
        1
280
     0
281
     0
  0
CLASS
  1
ACMNOTESTANDARDDIN
  2
AmdtNoteStdDIN
  3
"Amdt_StdImp|Product Description: AutoCAD Mechanical 2004 DX|Company: Autodesk"
 90
        0
 91
        1
280
     0
281
     0
  0
CLASS
  1
ACAMGLAYSTD
  2
AcAmgLayStd
  3
"AcAmgLayStd|Product Description: AutoCAD Mechanical 2000|Company: Autodesk"
 90
        0
 91
        2
280
     0
281
     0
  0
CLASS
  1
ACAMGDIMSTD
  2
AcAmgDimStd
  3
"AcAmgDimStd|Product Description: AutoCAD Mechanical 2000|Company: Autodesk"
 90
        0
 91
        2
280
     0
281
     0
  0
CLASS
  1
ACAMGHOLECHARTSTDDIN
  2
AcAmgHoleChartStdDIN
  3
ACMSYMBB_MODULE_NAME
 90
        0
 91
        1
280
     0
281
     0
  0
CLASS
  1
ACAMGTITLESTD
  2
AcAmgTitleStd
  3
"TITLEAPP"
 90
        0
 91
        2
280
     0
281
     0
  0
CLASS
  1
LAYER_INDEX
  2
AcDbLayerIndex
  3
ObjectDBX Classes
 90
        0
 91
        1
280
     0
281
     0
  0
CLASS
  1
IDBUFFER
  2
AcDbIdBuffer
  3
ObjectDBX Classes
 90
        0
 91
        1
280
     0
281
     0
  0
CLASS
  1
DICTIONARYVAR
  2
AcDbDictionaryVar
  3
ObjectDBX Classes
 90
        0
 91
        3
280
     0
281
     0
  0
CLASS
  1
ACAMGFILTERDAT
  2
AcAmgFilterDat
  3
"AcadM|Product Description: AutoCAD Mechanical 2000|Company: Autodesk"
 90
        0
 91
        6
280
     0
281
     0
  0
CLASS
  1
ACMSTANDARDANSI
  2
AcmStandardANSI
  3
"Amdt_StdImp|Product Description: AutoCAD Mechanical 2004 DX|Company: Autodesk"
 90
        0
 91
        1
280
     0
281
     0
  0
CLASS
  1
ACMSURFSTANDARDANSI
  2
AcmSurfTextStdANSI
  3
"Amdt_StdImp|Product Description: AutoCAD Mechanical 2004 DX|Company: Autodesk"
 90
        0
 91
        1
280
     0
281
     0
  0
CLASS
  1
ACMFCFSTANDARDANSI
  2
AcmFCFStdANSI
  3
"Amdt_StdImp|Product Description: AutoCAD Mechanical 2004 DX|Company: Autodesk"
 90
        0
 91
        1
280
     0
281
     0
  0
CLASS
  1
ACMWELDSTANDARDANSI
  2
AcmWeldingStdANSI
  3
"Amdt_StdImp|Product Description: AutoCAD Mechanical 2004 DX|Company: Autodesk"
 90
        0
 91
        1
280
     0
281
     0
  0
CLASS
  1
ACMIDSTANDARDANSI
  2
AcmIdStdANSI
  3
"Amdt_StdImp|Product Description: AutoCAD Mechanical 2004 DX|Company: Autodesk"
 90
        0
 91
        1
280
     0
281
     0
  0
CLASS
  1
ACMDATUMSTANDARDANSI
  2
AcmDatumStdANSI
  3
"Amdt_StdImp|Product Description: AutoCAD Mechanical 2004 DX|Company: Autodesk"
 90
        0
 91
        1
280
     0
281
     0
  0
CLASS
  1
ACMBOMSTANDARDANSI
  2
AcmBOMStdANSI
  3
"Amdt_StdImp|Product Description: AutoCAD Mechanical 2004 DX|Company: Autodesk"
 90
        0
 91
        1
280
     0
281
     0
  0
CLASS
  1
ACMDETAILSTANDARDANSI
  2
AmdtDetailSymStdANSI
  3
"Amdt_StdImp|Product Description: AutoCAD Mechanical 2004 DX|Company: Autodesk"
 90
        0
 91
        1
280
     0
281
     0
  0
CLASS
  1
ACMSECTIONSTANDARDANSI
  2
AmdtSectionSymStdANSI
  3
"Amdt_StdImp|Product Description: AutoCAD Mechanical 2004 DX|Company: Autodesk"
 90
        0
 91
        1
280
     0
281
     0
  0
CLASS
  1
ACMCENTERLINESTANDARDANSI
  2
AmdtCenterLineStdANSI
  3
"Amdt_StdImp|Product Description: AutoCAD Mechanical 2004 DX|Company: Autodesk"
 90
        0
 91
        1
280
     0
281
     0
  0
CLASS
  1
ACMNOTESTANDARDANSI
  2
AmdtNoteStdANSI
  3
"Amdt_StdImp|Product Description: AutoCAD Mechanical 2004 DX|Company: Autodesk"
 90
        0
 91
        1
280
     0
281
     0
  0
CLASS
  1
ACAMGHOLECHARTSTDANSI
  2
AcAmgHoleChartStdANSI
  3
ACMSYMBB_MODULE_NAME
 90
        0
 91
        1
280
     0
281
     0
  0
CLASS
  1
AMDTFORMULAUPDATEDISPATCHER
  2
AmdtFormulaUpdateDispatcher
  3
AcMeServices
 90
        0
 91
        1
280
     0
281
     0
  0
CLASS
  1
DIMASSOC
  2
AcDbDimAssoc
  3
"AcDbDimAssoc|Product Desc:     AcDim ARX App For Dimension|Company:          Autodesk, Inc.|WEB Address:      www.autodesk.com"
 90
        0
 91
        0
280
     0
281
     0
  0
CLASS
  1
AM_DRAWING_MGR
  2
AcDmDwgMgr
  3
AcMechDwgViewMgmt
 90
        0
 91
        1
280
     0
281
     0
  0
CLASS
  1
AM_DWG_DOCUMENT
  2
AcDmDwgDocument
  3
AcMechDwgViewMgmt
 90
        0
 91
        1
280
     0
281
     0
  0
CLASS
  1
AM_DWG_SHEET
  2
AcDmSheet
  3
AcMechDwgViewMgmt
 90
        0
 91
        2
280
     0
281
     0
  0
CLASS
  1
AM_VIEWDIMPARMAP
  2
AcDmViewDimParMap
  3
AcMechDwgViewMgmt
 90
        0
 91
        2
280
     0
281
     0
  0
CLASS
  1
AM_DWGMGR_NAME
  2
AcDmDwgMgrName
  3
AcMechDwgViewMgmt
 90
        0
 91
        1
280
     0
281
     0
  0
CLASS
  1
AMDTMENUSTATEMGR
  2
AmdtMenuStateMgr
  3
McadcomServices
 90
        0
 91
        1
280
     0
281
     0
  0
CLASS
  1
AMDTMCOMMENUSTATE
  2
AmdtMcomMenuState
  3
McadcomServices
 90
        0
 91
        1
280
     0
281
     0
  0
CLASS
  1
ASAPP
  2
AcAsAppObject
  3
AutoSurfServices
 90
        0
 91
        1
280
     0
281
     0
  0
CLASS
  1
IM_STATIC_MAN
  2
AcImStaticVarManager
  3
AcMeServices
 90
        0
 91
        1
280
     0
281
     0
  0
CLASS
  1
ACIMDBLSTATICVAR
  2
AcImDblStaticVar
  3
AcMeServices
 90
        0
 91
       20
280
     0
281
     0
  0
CLASS
  1
ACIMSTRSTATICVAR
  2
AcImStrStaticVar
  3
AcMeServices
 90
        0
 91
       12
280
     0
281
     0
  0
CLASS
  1
ACIMINTSTATICVAR
  2
AcImIntStaticVar
  3
AcMeServices
 90
        0
 91
       17
280
     0
281
     0
  0
CLASS
  1
ACASGREFMASTER
  2
AcAsGrefMaster
  3
AutoSurfResolverServices
 90
        0
 91
        1
280
     0
281
     0
  0
CLASS
  1
ACADGREFMODULE
  2
AcAdGrefModule
  3
AdGrefServices
 90
        0
 91
        1
280
     0
281
     0
  0
CLASS
  1
AMDTMAPISURFMOUDULE
  2
AmdtMApiSurfModule
  3
MApiSurfServices
 90
        0
 91
        1
280
     0
281
     0
  0
CLASS
  1
MAPIAMMOUDLE
  2
MApiAmModule
  3
MApiAmServices
 90
        0
 91
        1
280
     0
281
     0
  0
CLASS
  1
AMDTADMENUSTATE
  2
AmdtAdMenuState
  3
DesignerServices
 90
        0
 91
        1
280
     0
281
     0
  0
CLASS
  1
ADAPPL
  2
AcAdAppl
  3
DesignerServices
 90
        0
 91
        1
280
     0
281
     0
  0
CLASS
  1
DEPMGR
  2
AcAdDepMgr
  3
DesignerServices
 90
        0
 91
        1
280
     0
281
     0
  0
CLASS
  1
PARAMMGR
  2
AcAdParamMgr
  3
DesignerServices
 90
        0
 91
        1
280
     0
281
     0
  0
CLASS
  1
PARAMSCOPE
  2
AcAdParamScope
  3
DesignerServices
 90
        0
 91
        1
280
     0
281
     0
  0
CLASS
  1
NAMEDAPPL
  2
AcAdNamedAppl
  3
DesignerServices
 90
        0
 91
        1
280
     0
281
     0
  0
CLASS
  1
AMDTDMMENUSTATE
  2
AmdtDmMenuState
  3
AcMechDwgViewMgmt
 90
        0
 91
        1
280
     0
281
     0
  0
CLASS
  1
MAPIADMODULE
  2
MApiAdModule
  3
MApiAdServices
 90
        0
 91
        1
280
     0
281
     0
  0
CLASS
  1
AMDTAMMENUSTATE
  2
AmdtAmMenuState
  3
DesignerAssemblies
 90
        0
 91
        1
280
     0
281
     0
  0
CLASS
  1
ACAMPROJECT
  2
AcAmProject
  3
DesignerAssemblies
 90
        0
 91
        1
280
     0
281
     0
  0
CLASS
  1
ACAMGRCOMPDEF
  2
AcAmGrCompDef
  3
DesignerAssemblies
 90
        0
 91
        1
280
     0
281
     0
  0
CLASS
  1
ACCMCONTEXT
  2
AcCmContext
  3
DesignerAssemblies
 90
        0
 91
        1
280
     0
281
     0
  0
CLASS
  1
ACAMCOMPDEF
  2
AcAmCompDef
  3
DesignerAssemblies
 90
        0
 91
        1
280
     0
281
     0
  0
CLASS
  1
ACAMCOMPDEFMGR
  2
AcAmCompDefMgr
  3
DesignerAssemblies
 90
        0
 91
        1
280
     0
281
     0
  0
CLASS
  1
AMCONTEXTMGR
  2
AcAmContextMgr
  3
DesignerAssemblies
 90
        0
 91
        1
280
     0
281
     0
  0
CLASS
  1
ACAMCONTEXTMODELER
  2
AcAmContextModeler
  3
DesignerAssemblies
 90
        0
 91
        1
280
     0
281
     0
  0
CLASS
  1
ACMTHREADLINESTANDARDDIN
  2
AmdtThreadLineStdDIN
  3
"Amdt_StdImp|Product Description: AutoCAD Mechanical 2004 DX|Company: Autodesk"
 90
        0
 91
        1
280
     0
281
     0
  0
CLASS
  1
ACMTHREADLINESTANDARDANSI
  2
AmdtThreadLineStdANSI
  3
"Amdt_StdImp|Product Description: AutoCAD Mechanical 2004 DX|Company: Autodesk"
 90
        0
 91
        1
280
     0
281
     0
  0
CLASS
  1
CATALOGSTATE
  2
AcAmCatalogState
  3
DesignerAssemblies
 90
        0
 91
        1
280
     0
281
     0
  0
CLASS
  1
ACAMGRCOMPDEFSET
  2
AcAmGrCompDefSet
  3
DesignerAssemblies
 90
        0
 91
        1
280
     0
281
     0
  0
CLASS
  1
AMDTBROWSERDBTAB
  2
AmdtBrowserDbTab
  3
McadcomServices
 90
        0
 91
        1
280
     0
281
     0
  0
CLASS
  1
CBROWSERAPPOBJECT
  2
CBrowserAppObject
  3
McadcomServices
 90
        0
 91
        3
280
     0
281
     0
  0
CLASS
  1
DM_PLACEHOLDER
  2
AcDmSelsetPlaceholder
  3
AcMechDwgViewMgmt
 90
        0
 91
        1
280
     0
281
     0
  0
ENDSEC
  0
SECTION
  2
TABLES
  0
TABLE
  2
VPORT
  5
8
330
0
100
AcDbSymbolTable
 70
     4
  0
VPORT
  5
5CDE
330
8
100
AcDbSymbolTableRecord
100
AcDbViewportTableRecord
  2
*Active
 70
     0
 10
0.0
 20
0.0
 11
1.0
 21
1.0
 12
0.0
 22
0.0
 13
0.0
 23
0.0
 14
2.5
 24
2.5
 15
10.0
 25
10.0
 16
0.0
 26
0.0
 36
1.0
 17
-279.7628995368269
 27
0.5742922185479529
 37
0.0
 40
360.4497183613663
 41
1.853846153846154
 42
50.0
 43
0.0
 44
0.0
 50
0.0
 51
0.0
 71
     0
 72
   100
 73
     1
 74
     3
 75
     0
 76
     0
 77
     0
 78
     0
281
     0
 65
     0
110
0.0
120
0.0
130
0.0
111
1.0
121
0.0
131
0.0
112
0.0
122
1.0
132
0.0
 79
     0
146
0.0
  0
ENDTAB
  0
TABLE
  2
LTYPE
  5
5
330
0
100
AcDbSymbolTable
 70
    18
  0
LTYPE
  5
14
330
5
100
AcDbSymbolTableRecord
100
AcDbLinetypeTableRecord
  2
ByBlock
 70
     0
  3

 72
    65
 73
     0
 40
0.0
  0
LTYPE
  5
15
330
5
100
AcDbSymbolTableRecord
100
AcDbLinetypeTableRecord
  2
ByLayer
 70
     0
  3

 72
    65
 73
     0
 40
0.0
  0
LTYPE
  5
16
330
5
100
AcDbSymbolTableRecord
100
AcDbLinetypeTableRecord
  2
Continuous
 70
     0
  3
Solid line
 72
    65
 73
     0
 40
0.0
  0
LTYPE
  5
50
330
5
100
AcDbSymbolTableRecord
100
AcDbLinetypeTableRecord
  2
Amconstr
 70
     0
  3
_______________________
 72
    65
 73
     2
 40
9999.0
 49
9999.0
 74
     0
 49
0.0
 74
     0
  0
LTYPE
  5
55
330
5
100
AcDbSymbolTableRecord
100
AcDbLinetypeTableRecord
  2
Amzigzag
 70
     0
  3
/\/-/\/-/\/-/\/-/\/-/\/
 72
    65
 73
     2
 40
11.0001
 49
0.0001
 74
     4
 75
   135
340
54
 46
0.04
 50
0.0
 44
0.0
 45
0.0
 49
-11.0
 74
     0
  0
LTYPE
  5
56
330
5
100
AcDbSymbolTableRecord
100
AcDbLinetypeTableRecord
  2
AM_DIN_F_W050
 70
     0
  3
__ __ __ __ __ __ __ __ __ __ __ __ __ __ __
 72
    65
 73
     2
 40
6.25
 49
4.75
 74
     0
 49
-1.5
 74
     0
  0
LTYPE
  5
57
330
5
100
AcDbSymbolTableRecord
100
AcDbLinetypeTableRecord
  2
AM_DIN_G_W050
 70
     0
  3
____ . ____ . ____ . ____ . ____ . ____ . ____
 72
    65
 73
     4
 40
13.75
 49
9.75
 74
     0
 49
-1.5
 74
     0
 49
1.0
 74
     0
 49
-1.5
 74
     0
  0
LTYPE
  5
58
330
5
100
AcDbSymbolTableRecord
100
AcDbLinetypeTableRecord
  2
AM_DIN_K_W050
 70
     0
  3
_____ . . _____ . . _____ . . ____ .. ____
 72
    65
 73
     6
 40
16.25
 49
9.75
 74
     0
 49
-1.5
 74
     0
 49
1.0
 74
     0
 49
-1.5
 74
     0
 49
1.0
 74
     0
 49
-1.5
 74
     0
  0
LTYPE
  5
59
330
5
100
AcDbSymbolTableRecord
100
AcDbLinetypeTableRecord
  2
AM_DIN_G_W050x2
 70
     0
  3
__ . __ . __ . __ . __ . __
 72
    65
 73
     4
 40
6.875
 49
4.75
 74
     0
 49
-0.875
 74
     0
 49
0.375
 74
     0
 49
-0.875
 74
     0
  0
LTYPE
  5
5A
330
5
100
AcDbSymbolTableRecord
100
AcDbLinetypeTableRecord
  2
AM_DIN_F_W050x2
 70
     0
  3
 _ _ _ _ _ _ _ _ _ _ _ _
 72
    65
 73
     2
 40
3.125
 49
2.25
 74
     0
 49
-0.875
 74
     0
  0
LTYPE
  5
68
330
5
100
AcDbSymbolTableRecord
100
AcDbLinetypeTableRecord
  2
ACDINWELD
 70
     0
  3
_ _ _ _ _
 72
    65
 73
     2
 40
2.0
 49
2.0
 74
     0
 49
-1.0
 74
     0
  0
LTYPE
  5
69
330
5
100
AcDbSymbolTableRecord
100
AcDbLinetypeTableRecord
  2
ACDINTGB
 70
     0
  3
__ . . __ . .
 72
    65
 73
     6
 40
9.0
 49
4.0
 74
     0
 49
-1.0
 74
     0
 49
1.0
 74
     0
 49
-1.0
 74
     0
 49
1.0
 74
     0
 49
-1.0
 74
     0
  0
LTYPE
  5
6A
330
5
100
AcDbSymbolTableRecord
100
AcDbLinetypeTableRecord
  2
ACDINTGL
 70
     0
  3
_ _ _ _ _
 72
    65
 73
     2
 40
3.0
 49
2.0
 74
     0
 49
-1.0
 74
     0
  0
LTYPE
  5
6C
330
5
100
AcDbSymbolTableRecord
100
AcDbLinetypeTableRecord
  2
CENTER
 70
     0
  3
__ . __
 72
    65
 73
     4
 40
7.0
 49
4.0
 74
     0
 49
-1.0
 74
     0
 49
1.0
 74
     0
 49
-1.0
 74
     0
  0
LTYPE
  5
33D
330
5
100
AcDbSymbolTableRecord
100
AcDbLinetypeTableRecord
  2
PHANTOM2
 70
     0
  3
Phantom (.5x) ___ _ _ ___ _ _ ___ _ _ ___ _ _
 72
    65
 73
     6
 40
1.25
 49
0.625
 74
     0
 49
-0.125
 74
     0
 49
0.125
 74
     0
 49
-0.125
 74
     0
 49
0.125
 74
     0
 49
-0.125
 74
     0
  0
LTYPE
  5
341
330
5
100
AcDbSymbolTableRecord
100
AcDbLinetypeTableRecord
  2
ACANSTGB
 70
     0
  3
__ . . __ . .
 72
    65
 73
     6
 40
0.35433070866
 49
0.15748031496
 74
     0
 49
-0.03937007874
 74
     0
 49
0.03937007874
 74
     0
 49
-0.03937007874
 74
     0
 49
0.03937007874
 74
     0
 49
-0.03937007874
 74
     0
  0
LTYPE
  5
342
330
5
100
AcDbSymbolTableRecord
100
AcDbLinetypeTableRecord
  2
ACANSTGL
 70
     0
  3
_ _ _ _ _
 72
    65
 73
     2
 40
0.11811023622
 49
0.07874015748
 74
     0
 49
-0.03937007874
 74
     0
  0
LTYPE
  5
5C3B
330
5
100
AcDbSymbolTableRecord
100
AcDbLinetypeTableRecord
  2
HIDDEN
 70
     0
  3
Verdeckt
 72
    65
 73
     2
 40
9.525
 49
6.349999999999999
 74
     0
 49
-3.174999999999999
 74
     0
  0
LTYPE
  5
5C9A
330
5
100
AcDbSymbolTableRecord
100
AcDbLinetypeTableRecord
  2
ASULTYPE
 70
     0
  3
Ausgezogene Linie
 72
    65
 73
     2
 40
3.0
 49
2.5
 74
     0
 49
0.5
 74
     0
  0
LTYPE
  5
5C9B
330
5
100
AcDbSymbolTableRecord
100
AcDbLinetypeTableRecord
  2
ASVLTYPE
 70
     0
  3
__ __ __ __ __ __ __ __ __ __ __ __ __ __ __ __ __ __ __ __ __
 72
    65
 73
     2
 40
0.75
 49
0.5
 74
     0
 49
-0.25
 74
     0
  0
ENDTAB
  0
TABLE
  2
LAYER
  5
2
330
0
100
AcDbSymbolTable
 70
     1
  0
LAYER
  5
10
330
2
100
AcDbSymbolTableRecord
100
AcDbLayerTableRecord
  2
0
 70
     0
 62
     7
  6
Continuous
370
    -3
390
F
  0
ENDTAB
  0
TABLE
  2
STYLE
  5
3
330
0
100
AcDbSymbolTable
 70
     6
  0
STYLE
  5
11
330
3
100
AcDbSymbolTableRecord
100
AcDbTextStyleTableRecord
  2
STANDARD
 70
     0
 40
0.0
 41
1.0
 50
0.0
 71
     0
 42
2.5
  3
ISOCP.SHX
  4

  0
STYLE
  5
54
330
3
100
AcDbSymbolTableRecord
100
AcDbTextStyleTableRecord
  2

 70
     1
 40
0.0
 41
1.0
 50
0.0
 71
     0
 42
2.5
  3
ltypeshp.shx
  4

  0
STYLE
  5
5B
330
3
100
AcDbSymbolTableRecord
100
AcDbTextStyleTableRecord
  2
ACDINTS
 70
     0
 40
1.0
 41
1.0
 50
0.0
 71
     0
 42
2.5
  3
isocp.shx
  4

  0
STYLE
  5
67
330
3
100
AcDbSymbolTableRecord
100
AcDbTextStyleTableRecord
  2
ACDINGDT
 70
     0
 40
0.0
 41
1.0
 50
0.0
 71
     0
 42
2.5
  3
amgdt.shx
  4

  0
STYLE
  5
343
330
3
100
AcDbSymbolTableRecord
100
AcDbTextStyleTableRecord
  2
ACANSTS
 70
     0
 40
1.0
 41
1.0
 50
0.0
 71
     0
 42
0.2
  3
romans.shx
  4

  0
STYLE
  5
344
330
3
100
AcDbSymbolTableRecord
100
AcDbTextStyleTableRecord
  2
ACANSGDT
 70
     0
 40
0.0
 41
1.0
 50
0.0
 71
     0
 42
0.2
  3
amgdtans.shx
  4

  0
ENDTAB
  0
TABLE
  2
VIEW
  5
6
330
0
100
AcDbSymbolTable
 70
     0
  0
ENDTAB
  0
TABLE
  2
UCS
  5
7
330
0
100
AcDbSymbolTable
 70
     0
  0
ENDTAB
  0
TABLE
  2
APPID
  5
9
330
0
100
AcDbSymbolTable
 70
    14
  0
APPID
  5
12
330
9
100
AcDbSymbolTableRecord
100
AcDbRegAppTableRecord
  2
ACAD
 70
     0
  0
APPID
  5
2C
330
9
100
AcDbSymbolTableRecord
100
AcDbRegAppTableRecord
  2
MCAD_NO_VIS
 70
     0
  0
APPID
  5
2D
330
9
100
AcDbSymbolTableRecord
100
AcDbRegAppTableRecord
  2
ACAD_TEMP_GRAPHIC
 70
     0
  0
APPID
  5
3E
330
9
100
AcDbSymbolTableRecord
100
AcDbRegAppTableRecord
  2
ACATTRIBSERVICES
 70
     0
  0
APPID
  5
5B6B
330
9
100
AcDbSymbolTableRecord
100
AcDbRegAppTableRecord
  2
DCO15
 70
     0
  0
APPID
  5
5C25
330
9
100
AcDbSymbolTableRecord
100
AcDbRegAppTableRecord
  2
GENIUS_GENDIM_13
 70
     0
  0
APPID
  5
5C26
330
9
100
AcDbSymbolTableRecord
100
AcDbRegAppTableRecord
  2
GENIUS_GENDTOL_13
 70
     0
  0
APPID
  5
5C27
330
9
100
AcDbSymbolTableRecord
100
AcDbRegAppTableRecord
  2
GENIUS_GE3DTOL_13
 70
     0
  0
APPID
  5
5C50
330
9
100
AcDbSymbolTableRecord
100
AcDbRegAppTableRecord
  2
AD_DRAW
 70
     0
  0
APPID
  5
5C9C
330
9
100
AcDbSymbolTableRecord
100
AcDbRegAppTableRecord
  2
ASURF_PCURVE_APPNAME
 70
     0
  0
APPID
  5
5CA1
330
9
100
AcDbSymbolTableRecord
100
AcDbRegAppTableRecord
  2
AMG_3D2D_5.0
 70
     0
  0
APPID
  5
5CD0
330
9
100
AcDbSymbolTableRecord
100
AcDbRegAppTableRecord
  2
DESIGNERASSEMBLIES
 70
     0
  0
APPID
  5
5CD6
330
9
100
AcDbSymbolTableRecord
100
AcDbRegAppTableRecord
  2
ACADM_DIM_EDIT
 70
     0
  0
APPID
  5
5CD7
330
9
100
AcDbSymbolTableRecord
100
AcDbRegAppTableRecord
  2
AMDT_DM_ADJ
 70
     0
  0
ENDTAB
  0
TABLE
  2
DIMSTYLE
  5
A
330
0
100
AcDbSymbolTable
 70
    14
100
AcDbDimStyleTable
 71
     1
340
6F
  0
DIMSTYLE
105
6F
330
A
100
AcDbSymbolTableRecord
100
AcDbDimStyleTableRecord
  2
AM_DIN
 70
     0
  4
"
 41
2.5
 42
1.0
 43
10.0
 44
1.0
 47
0.1
 48
0.1
 73
     0
 74
     0
 77
     1
 78
     8
 79
     2
140
3.5
141
0.0
143
0.0393701
146
0.71
147
1.5
172
     1
176
   256
177
   256
178
     2
271
     2
272
     3
274
     4
283
     0
284
     8
340
11
371
    -1
372
    -1
  0
DIMSTYLE
105
70
330
A
100
AcDbSymbolTableRecord
100
AcDbDimStyleTableRecord
  2
AM_DIN$3
 70
     0
  4
"
 41
2.5
 42
1.0
 43
10.0
 44
1.0
 47
0.1
 48
0.1
 73
     0
 77
     1
 78
     8
 79
     2
140
3.5
141
0.0
143
0.0393701
146
0.71
147
1.5
176
   256
177
   256
178
     2
271
     2
272
     3
274
     4
283
     0
284
     8
288
     1
289
     0
340
11
371
    -1
372
    -1
  0
DIMSTYLE
105
71
330
A
100
AcDbSymbolTableRecord
100
AcDbDimStyleTableRecord
  2
AM_DIN$4
 70
     0
  4
"
 41
2.5
 42
1.0
 43
10.0
 44
1.0
 47
0.1
 48
0.1
 73
     0
 77
     1
 78
     8
 79
     2
140
3.5
141
0.0
143
0.0393701
146
0.71
147
1.5
176
   256
177
   256
178
     2
271
     2
272
     3
274
     4
283
     0
284
     8
288
     1
289
     0
340
11
371
    -1
372
    -1
  0
DIMSTYLE
105
72
330
A
100
AcDbSymbolTableRecord
100
AcDbDimStyleTableRecord
  2
AM_DIN$6
 70
     0
  4
"
 41
2.5
 42
1.0
 43
10.0
 44
1.0
 47
0.1
 48
0.1
 73
     0
 74
     0
 78
     8
 79
     2
140
3.5
141
0.0
143
0.0393701
146
0.71
147
1.5
172
     1
176
   256
177
   256
178
     2
271
     2
272
     3
274
     4
283
     0
284
     8
340
11
371
    -1
372
    -1
  0
DIMSTYLE
105
73
330
A
100
AcDbSymbolTableRecord
100
AcDbDimStyleTableRecord
  2
AM_DIN$7
 70
     0
  4
"
 41
2.5
 42
1.0
 43
10.0
 44
1.0
 47
0.1
 48
0.1
 73
     0
 74
     0
 77
     1
 78
     8
 79
     2
140
5.0
141
0.0
143
0.0393701
146
0.71
147
1.5
172
     1
176
   256
177
   256
178
     2
271
     2
272
     3
274
     4
283
     0
284
     8
340
11
371
    -1
372
    -1
  0
DIMSTYLE
105
74
330
A
100
AcDbSymbolTableRecord
100
AcDbDimStyleTableRecord
  2
AM_DIN$SF
 70
     0
  4
"
 41
2.5
 42
1.0
 43
10.0
 44
1.0
 47
0.1
 48
0.1
 73
     0
 74
     0
 75
     1
 76
     1
 77
     1
 78
     8
 79
     2
140
3.5
141
0.0
143
0.0393701
146
0.71
147
1.5
172
     1
176
   256
177
   256
178
     2
271
     2
272
     3
274
     4
283
     0
284
     8
340
11
371
    -1
372
    -1
  0
DIMSTYLE
105
79
330
A
100
AcDbSymbolTableRecord
100
AcDbDimStyleTableRecord
  2
AM_DIN$SH
 70
     0
  4
"
 41
2.5
 42
1.0
 43
10.0
 44
1.0
 47
0.1
 48
0.1
 73
     0
 74
     0
 75
     1
 76
     1
 77
     1
 78
     8
 79
     2
140
3.5
141
0.0
143
0.0393701
144
2.0
146
0.71
147
1.5
172
     1
173
     1
176
   256
177
   256
178
     2
271
     2
272
     3
274
     4
283
     0
284
     8
340
11
343
75
371
    -1
372
    -1
  0
DIMSTYLE
105
92
330
A
100
AcDbSymbolTableRecord
100
AcDbDimStyleTableRecord
  2
STANDARD
 70
     0
279
     2
340
11
  0
DIMSTYLE
105
345
330
A
100
AcDbSymbolTableRecord
100
AcDbDimStyleTableRecord
  2
AM_ANSI
 70
     0
  4
mm
 41
0.1
 42
0.05
 43
0.5
 44
0.1
 47
0.1
 48
0.1
 78
     7
 79
     2
140
0.12
141
0.0
146
0.71
147
0.06
176
   256
177
   256
178
     2
274
     4
284
     7
340
11
371
    -1
372
    -1
  0
DIMSTYLE
105
346
330
A
100
AcDbSymbolTableRecord
100
AcDbDimStyleTableRecord
  2
AM_ANSI$3
 70
     0
  4
mm
 41
0.1
 42
0.05
 43
0.5
 44
0.1
 47
0.1
 48
0.1
 78
     7
 79
     2
140
0.12
141
0.0
146
0.71
147
0.06
176
   256
177
   256
178
     2
274
     4
284
     7
288
     1
289
     0
340
11
371
    -1
372
    -1
  0
DIMSTYLE
105
347
330
A
100
AcDbSymbolTableRecord
100
AcDbDimStyleTableRecord
  2
AM_ANSI$4
 70
     0
  4
mm
 41
0.1
 42
0.05
 43
0.5
 44
0.1
 47
0.1
 48
0.1
 78
     7
 79
     2
140
0.12
141
0.0
146
0.71
147
0.06
176
   256
177
   256
178
     2
274
     4
284
     7
288
     1
289
     0
340
11
371
    -1
372
    -1
  0
DIMSTYLE
105
348
330
A
100
AcDbSymbolTableRecord
100
AcDbDimStyleTableRecord
  2
AM_ANSI$7
 70
     0
  4
mm
 41
0.1
 42
0.05
 43
0.5
 44
0.1
 47
0.1
 48
0.1
 78
     7
 79
     2
140
0.24
141
0.0
146
0.71
147
0.06
176
   256
177
   256
178
     2
274
     4
284
     7
340
11
371
    -1
372
    -1
  0
DIMSTYLE
105
349
330
A
100
AcDbSymbolTableRecord
100
AcDbDimStyleTableRecord
  2
AM_ANSI$SF
 70
     0
  4
mm
 41
0.1
 42
0.05
 43
0.5
 44
0.1
 47
0.1
 48
0.1
 75
     1
 76
     1
 78
     7
 79
     2
140
0.12
141
0.0
146
0.71
147
0.06
176
   256
177
   256
178
     2
274
     4
284
     7
340
11
371
    -1
372
    -1
  0
DIMSTYLE
105
34A
330
A
100
AcDbSymbolTableRecord
100
AcDbDimStyleTableRecord
  2
AM_ANSI$SH
 70
     0
  4
mm
 41
0.1
 42
0.05
 43
0.5
 44
0.1
 47
0.1
 48
0.1
 75
     1
 76
     1
 78
     7
 79
     2
140
0.12
141
0.0
146
0.71
147
0.06
173
     1
176
   256
177
   256
178
     2
274
     4
284
     7
340
11
343
75
371
    -1
372
    -1
  0
ENDTAB
  0
TABLE
  2
BLOCK_RECORD
  5
1
330
0
100
AcDbSymbolTable
 70
     3
  0
BLOCK_RECORD
  5
1F
102
{ACAD_XDICTIONARY
360
81
102
}
330
1
100
AcDbSymbolTableRecord
100
AcDbBlockTableRecord
  2
*Model_Space
340
22
  0
BLOCK_RECORD
  5
1B
330
1
100
AcDbSymbolTableRecord
100
AcDbBlockTableRecord
  2
*Paper_Space
340
1E
  0
BLOCK_RECORD
  5
23
330
1
100
AcDbSymbolTableRecord
100
AcDbBlockTableRecord
  2
*Paper_Space0
340
26
  0
BLOCK_RECORD
  5
75
330
1
100
AcDbSymbolTableRecord
100
AcDbBlockTableRecord
  2
GENAXEH
340
0
  0
BLOCK_RECORD
  5
5CC7
330
1
100
AcDbSymbolTableRecord
100
AcDbBlockTableRecord
  2
*U2
340
0
  0
ENDTAB
  0
ENDSEC
  0
SECTION
  2
BLOCKS
  0
BLOCK
  5
20
330
1F
100
AcDbEntity
  8
0
100
AcDbBlockBegin
  2
*Model_Space
 70
     0
 10
0.0
 20
0.0
 30
0.0
  3
*Model_Space
  1

  0
ENDBLK
  5
21
330
1F
100
AcDbEntity
  8
0
100
AcDbBlockEnd
  0
BLOCK
  5
1C
330
1B
100
AcDbEntity
 67
     1
  8
0
100
AcDbBlockBegin
  2
*Paper_Space
 70
     0
 10
0.0
 20
0.0
 30
0.0
  3
*Paper_Space
  1

  0
ENDBLK
  5
1D
330
1B
100
AcDbEntity
 67
     1
  8
0
100
AcDbBlockEnd
  0
BLOCK
  5
24
330
23
100
AcDbEntity
  8
0
100
AcDbBlockBegin
  2
*Paper_Space0
 70
     0
 10
0.0
 20
0.0
 30
0.0
  3
*Paper_Space0
  1

  0
ENDBLK
  5
25
330
23
100
AcDbEntity
  8
0
100
AcDbBlockEnd
  0
BLOCK
  5
77
330
75
100
AcDbEntity
  8
0
100
AcDbBlockBegin
  2
GENAXEH
 70
     0
 10
0.0
 20
0.0
 30
0.0
  3
GENAXEH
  1

  0
LINE
  5
76
330
75
100
AcDbEntity
  8
0
100
AcDbLine
 10
-1.0
 20
0.0
 30
0.0
 11
1.0
 21
0.0
 31
0.0
  0
ENDBLK
  5
78
330
75
100
AcDbEntity
  8
0
100
AcDbBlockEnd
  0
BLOCK
  5
5CC8
330
5CC7
100
AcDbEntity
  8
0
100
AcDbBlockBegin
  2
*U2
 70
     1
 10
0.0
 20
0.0
 30
0.0
  3
*U2
  1

  0
ENDBLK
  5
5CC9
330
5CC7
100
AcDbEntity
  8
0
100
AcDbBlockEnd
  0
ENDSEC
  0
SECTION
  2
ENTITIES
  0
POLYLINE
  5
5253
330
1F
100
AcDbEntity
  8
0
100
AcDb2dPolyline
 66
     1
 10
0.0
 20
0.0
 30
0.0
  0
VERTEX
  5
5254
330
5253
100
AcDbEntity
  8
0
100
AcDbVertex
100
AcDb2dVertex
 10
-543.455077109582
 20
-80.12726802604403
 30
0.0
  0
VERTEX
  5
5255
330
5253
100
AcDbEntity
  8
0
100
AcDbVertex
100
AcDb2dVertex
 10
-543.213103109582
 20
-80.020243026044
 30
0.0
  0
VERTEX
  5
5256
330
5253
100
AcDbEntity
  8
0
100
AcDbVertex
100
AcDb2dVertex
 10
-542.498901109582
 20
-79.69967402604402
 30
0.0
  0
VERTEX
  5
5257
330
5253
100
AcDbEntity
  8
0
100
AcDbVertex
100
AcDb2dVertex
 10
-541.3300931095819
 20
-79.16633002604396
 30
0.0
  0
VERTEX
  5
5258
330
5253
100
AcDbEntity
  8
0
100
AcDbVertex
100
AcDb2dVertex
 10
-539.724258109582
 20
-78.42098002604399
 30
0.0
  0
VERTEX
  5
5259
330
5253
100
AcDbEntity
  8
0
100
AcDbVertex
100
AcDb2dVertex
 10
-537.6990121095821
 20
-77.46438002604401
 30
0.0
  0
VERTEX
  5
525A
330
5253
100
AcDbEntity
  8
0
100
AcDbVertex
100
AcDb2dVertex
 10
-535.271949109582
 20
-76.29730002604401
 30
0.0
  0
VERTEX
  5
525B
330
5253
100
AcDbEntity
  8
0
100
AcDbVertex
100
AcDb2dVertex
 10
-532.4606701095819
 20
-74.92051102604398
 30
0.0
  0
VERTEX
  5
525C
330
5253
100
AcDbEntity
  8
0
100
AcDbVertex
100
AcDb2dVertex
 10
-529.2827831095819
 20
-73.334768026044
 30
0.0
  0
VERTEX
  5
525D
330
5253
100
AcDbEntity
  8
0
100
AcDbVertex
100
AcDb2dVertex
 10
-525.755881109582
 20
-71.540842026044
 30
0.0
  0
VERTEX
  5
525E
330
5253
100
AcDbEntity
  8
0
100
AcDbVertex
100
AcDb2dVertex
 10
-521.897575109582
 20
-69.53949902604404
 30
0.0
  0
VERTEX
  5
525F
330
5253
100
AcDbEntity
  8
0
100
AcDbVertex
100
AcDb2dVertex
 10
-517.7254551095821
 20
-67.331503026044
 30
0.0
  0
VERTEX
  5
5260
330
5253
100
AcDbEntity
  8
0
100
AcDbVertex
100
AcDb2dVertex
 10
-513.257133109582
 20
-64.917620026044
 30
0.0
  0
VERTEX
  5
5261
330
5253
100
AcDbEntity
  8
0
100
AcDbVertex
100
AcDb2dVertex
 10
-508.510200109582
 20
-62.298612026044
 30
0.0
  0
VERTEX
  5
5262
330
5253
100
AcDbEntity
  8
0
100
AcDbVertex
100
AcDb2dVertex
 10
-503.502265109582
 20
-59.47525202604402
 30
0.0
  0
VERTEX
  5
5263
330
5253
100
AcDbEntity
  8
0
100
AcDbVertex
100
AcDb2dVertex
 10
-498.2509301095819
 20
-56.44829702604397
 30
0.0
  0
VERTEX
  5
5264
330
5253
100
AcDbEntity
  8
0
100
AcDbVertex
100
AcDb2dVertex
 10
-492.773788109582
 20
-53.21851502604397
 30
0.0
  0
VERTEX
  5
5265
330
5253
100
AcDbEntity
  8
0
100
AcDbVertex
100
AcDb2dVertex
 10
-487.088447109582
 20
-49.786676026044
 30
0.0
  0
VERTEX
  5
5266
330
5253
100
AcDbEntity
  8
0
100
AcDbVertex
100
AcDb2dVertex
 10
-481.212505109582
 20
-46.15354302604396
 30
0.0
  0
VERTEX
  5
5267
330
5253
100
AcDbEntity
  8
0
100
AcDbVertex
100
AcDb2dVertex
 10
-475.163566109582
 20
-42.31987902604402
 30
0.0
  0
VERTEX
  5
5268
330
5253
100
AcDbEntity
  8
0
100
AcDbVertex
100
AcDb2dVertex
 10
-468.9592281095819
 20
-38.28644702604402
 30
0.0
  0
SEQEND
  5
5269
330
5253
100
AcDbEntity
  8
0
  0
POLYLINE
  5
526A
330
1F
100
AcDbEntity
  8
0
100
AcDb2dPolyline
 66
     1
 10
0.0
 20
0.0
 30
0.0
  0
VERTEX
  5
526B
330
526A
100
AcDbEntity
  8
0
100
AcDbVertex
100
AcDb2dVertex
 10
-493.8752382843943
 20
-131.9226618793351
 30
0.0
  0
VERTEX
  5
526C
330
526A
100
AcDbEntity
  8
0
100
AcDbVertex
100
AcDb2dVertex
 10
-488.2409661643729
 20
-126.6651548793352
 30
0.0
  0
VERTEX
  5
526D
330
526A
100
AcDbEntity
  8
0
100
AcDbVertex
100
AcDb2dVertex
 10
-487.6752461643729
 20
-126.1292728793352
 30
0.0
  0
VERTEX
  5
526E
330
526A
100
AcDbEntity
  8
0
100
AcDbVertex
100
AcDb2dVertex
 10
-486.7651201643728
 20
-125.2520368793351
 30
0.0
  0
VERTEX
  5
526F
330
526A
100
AcDbEntity
  8
0
100
AcDbVertex
100
AcDb2dVertex
 10
-485.5373751643729
 20
-124.0464578793352
 30
0.0
  0
VERTEX
  5
5270
330
526A
100
AcDbEntity
  8
0
100
AcDbVertex
100
AcDb2dVertex
 10
-484.0187941643729
 20
-122.5255458793352
 30
0.0
  0
VERTEX
  5
5271
330
526A
100
AcDbEntity
  8
0
100
AcDbVertex
100
AcDb2dVertex
 10
-482.2361631643729
 20
-120.7023108793352
 30
0.0
  0
VERTEX
  5
5272
330
526A
100
AcDbEntity
  8
0
100
AcDbVertex
100
AcDb2dVertex
 10
-480.2162691643728
 20
-118.5897628793352
 30
0.0
  0
VERTEX
  5
5273
330
526A
100
AcDbEntity
  8
0
100
AcDbVertex
100
AcDb2dVertex
 10
-477.9859041643728
 20
-116.2009118793352
 30
0.0
  0
VERTEX
  5
5274
330
526A
100
AcDbEntity
  8
0
100
AcDbVertex
100
AcDb2dVertex
 10
-475.5718451643729
 20
-113.5487668793351
 30
0.0
  0
VERTEX
  5
5275
330
526A
100
AcDbEntity
  8
0
100
AcDbVertex
100
AcDb2dVertex
 10
-473.0008841643729
 20
-110.6463408793352
 30
0.0
  0
VERTEX
  5
5276
330
526A
100
AcDbEntity
  8
0
100
AcDbVertex
100
AcDb2dVertex
 10
-470.2998071643729
 20
-107.5066408793352
 30
0.0
  0
VERTEX
  5
5277
330
526A
100
AcDbEntity
  8
0
100
AcDbVertex
100
AcDb2dVertex
 10
-467.4953981643729
 20
-104.1426788793351
 30
0.0
  0
VERTEX
  5
5278
330
526A
100
AcDbEntity
  8
0
100
AcDbVertex
100
AcDb2dVertex
 10
-464.6144441643729
 20
-100.5674648793351
 30
0.0
  0
VERTEX
  5
5279
330
526A
100
AcDbEntity
  8
0
100
AcDbVertex
100
AcDb2dVertex
 10
-461.6837341643729
 20
-96.79400787933515
 30
0.0
  0
VERTEX
  5
527A
330
526A
100
AcDbEntity
  8
0
100
AcDbVertex
100
AcDb2dVertex
 10
-458.7300481643729
 20
-92.8353188793352
 30
0.0
  0
VERTEX
  5
527B
330
526A
100
AcDbEntity
  8
0
100
AcDbVertex
100
AcDb2dVertex
 10
-455.7801811643728
 20
-88.70440787933517
 30
0.0
  0
VERTEX
  5
527C
330
526A
100
AcDbEntity
  8
0
100
AcDbVertex
100
AcDb2dVertex
 10
-452.8609111643729
 20
-84.41428487933519
 30
0.0
  0
VERTEX
  5
527D
330
526A
100
AcDbEntity
  8
0
100
AcDbVertex
100
AcDb2dVertex
 10
-449.9990301643729
 20
-79.97795987933518
 30
0.0
  0
VERTEX
  5
527E
330
526A
100
AcDbEntity
  8
0
100
AcDbVertex
100
AcDb2dVertex
 10
-447.2213221643729
 20
-75.40844087933516
 30
0.0
  0
VERTEX
  5
527F
330
526A
100
AcDbEntity
  8
0
100
AcDbVertex
100
AcDb2dVertex
 10
-444.5545721643728
 20
-70.71874387933519
 30
0.0
  0
SEQEND
  5
5280
330
526A
100
AcDbEntity
  8
0
  0
POLYLINE
  5
5283
330
1F
100
AcDbEntity
  8
0
100
AcDb2dPolyline
 66
     1
 10
0.0
 20
0.0
 30
0.0
  0
VERTEX
  5
5284
330
5283
100
AcDbEntity
  8
0
100
AcDbVertex
100
AcDb2dVertex
 10
-542.9064789999999
 20
80.68689612066481
 30
0.0
  0
VERTEX
  5
5285
330
5283
100
AcDbEntity
  8
0
100
AcDbVertex
100
AcDb2dVertex
 10
-542.66449
 20
80.57987112066484
 30
0.0
  0
VERTEX
  5
5286
330
5283
100
AcDbEntity
  8
0
100
AcDbVertex
100
AcDb2dVertex
 10
-541.9502640000001
 20
80.2592841206648
 30
0.0
  0
VERTEX
  5
5287
330
5283
100
AcDbEntity
  8
0
100
AcDbVertex
100
AcDb2dVertex
 10
-540.7814029999999
 20
79.72592812066483
 30
0.0
  0
VERTEX
  5
5288
330
5283
100
AcDbEntity
  8
0
100
AcDbVertex
100
AcDb2dVertex
 10
-539.1754989999999
 20
78.98055112066481
 30
0.0
  0
VERTEX
  5
5289
330
5283
100
AcDbEntity
  8
0
100
AcDbVertex
100
AcDb2dVertex
 10
-537.150177
 20
78.02394712066484
 30
0.0
  0
VERTEX
  5
528A
330
5283
100
AcDbEntity
  8
0
100
AcDbVertex
100
AcDb2dVertex
 10
-534.7230299999999
 20
76.85684812066483
 30
0.0
  0
VERTEX
  5
528B
330
5283
100
AcDbEntity
  8
0
100
AcDbVertex
100
AcDb2dVertex
 10
-531.911652
 20
75.48004812066483
 30
0.0
  0
VERTEX
  5
528C
330
5283
100
AcDbEntity
  8
0
100
AcDbVertex
100
AcDb2dVertex
 10
-528.7336649999999
 20
73.89429412066482
 30
0.0
  0
VERTEX
  5
528D
330
5283
100
AcDbEntity
  8
0
100
AcDbVertex
100
AcDb2dVertex
 10
-525.2066649999999
 20
72.10037912066479
 30
0.0
  0
VERTEX
  5
528E
330
5283
100
AcDbEntity
  8
0
100
AcDbVertex
100
AcDb2dVertex
 10
-521.348251
 20
70.09905112066485
 30
0.0
  0
VERTEX
  5
528F
330
5283
100
AcDbEntity
  8
0
100
AcDbVertex
100
AcDb2dVertex
 10
-517.1760329999999
 20
67.89108912066478
 30
0.0
  0
VERTEX
  5
5290
330
5283
100
AcDbEntity
  8
0
100
AcDbVertex
100
AcDb2dVertex
 10
-512.707611
 20
65.47724012066481
 30
0.0
  0
VERTEX
  5
5291
330
5283
100
AcDbEntity
  8
0
100
AcDbVertex
100
AcDb2dVertex
 10
-507.960594
 20
62.85831312066483
 30
0.0
  0
VERTEX
  5
5292
330
5283
100
AcDbEntity
  8
0
100
AcDbVertex
100
AcDb2dVertex
 10
-502.952576
 20
60.03502512066484
 30
0.0
  0
VERTEX
  5
5293
330
5283
100
AcDbEntity
  8
0
100
AcDbVertex
100
AcDb2dVertex
 10
-497.701172
 20
57.00818512066485
 30
0.0
  0
VERTEX
  5
5294
330
5283
100
AcDbEntity
  8
0
100
AcDbVertex
100
AcDb2dVertex
 10
-492.223976
 20
53.77854012066484
 30
0.0
  0
VERTEX
  5
5295
330
5283
100
AcDbEntity
  8
0
100
AcDbVertex
100
AcDb2dVertex
 10
-486.5386009999999
 20
50.34685412066483
 30
0.0
  0
VERTEX
  5
5296
330
5283
100
AcDbEntity
  8
0
100
AcDbVertex
100
AcDb2dVertex
 10
-480.662647
 20
46.71391912066485
 30
0.0
  0
VERTEX
  5
5297
330
5283
100
AcDbEntity
  8
0
100
AcDbVertex
100
AcDb2dVertex
 10
-474.613712
 20
42.88046912066483
 30
0.0
  0
VERTEX
  5
5298
330
5283
100
AcDbEntity
  8
0
100
AcDbVertex
100
AcDb2dVertex
 10
-468.409409
 20
38.84729612066485
 30
0.0
  0
SEQEND
  5
5299
330
5283
100
AcDbEntity
  8
0
  0
LINE
  5
52DB
330
1F
100
AcDbEntity
  8
0
 62
     4
100
AcDbLine
 10
-70.0
 20
31.98602912066491
 30
0.0
 11
-70.0
 21
-27.52568987933512
 31
0.0
  0
LINE
  5
52DC
330
1F
100
AcDbEntity
  8
0
 62
     4
100
AcDbLine
 10
-210.0
 20
52.01105412066488
 30
0.0
 11
-210.0
 21
-50.39769787933517
 31
0.0
  0
LINE
  5
5375
330
1F
100
AcDbEntity
  8
0
100
AcDbLine
 10
-133.153076
 20
79.6048312655043
 30
0.0
 11
-133.153076
 21
-77.38058297009658
 31
0.0
  0
POLYLINE
  5
5377
330
1F
100
AcDbEntity
  8
0
100
AcDb2dPolyline
 66
     1
 10
0.0
 20
0.0
 30
0.0
  0
VERTEX
  5
5378
330
5377
100
AcDbEntity
  8
0
100
AcDbVertex
100
AcDb2dVertex
 10
-190.0009354874772
 20
-131.9226618793351
 30
0.0
  0
VERTEX
  5
5379
330
5377
100
AcDbEntity
  8
0
100
AcDbVertex
100
AcDb2dVertex
 10
-191.6810371643729
 20
-127.5768688793351
 30
0.0
  0
VERTEX
  5
537A
330
5377
100
AcDbEntity
  8
0
100
AcDbVertex
100
AcDb2dVertex
 10
-192.0058051643728
 20
-126.7429748793352
 30
0.0
  0
VERTEX
  5
537B
330
5377
100
AcDbEntity
  8
0
100
AcDbVertex
100
AcDb2dVertex
 10
-192.5265111643729
 20
-125.4176998793351
 30
0.0
  0
VERTEX
  5
537C
330
5377
100
AcDbEntity
  8
0
100
AcDbVertex
100
AcDb2dVertex
 10
-193.2263101643729
 20
-123.6538558793352
 30
0.0
  0
VERTEX
  5
537D
330
5377
100
AcDbEntity
  8
0
100
AcDbVertex
100
AcDb2dVertex
 10
-194.0883551643729
 20
-121.5042558793351
 30
0.0
  0
VERTEX
  5
537E
330
5377
100
AcDbEntity
  8
0
100
AcDbVertex
100
AcDb2dVertex
 10
-195.0958161643729
 20
-119.0217138793351
 30
0.0
  0
VERTEX
  5
537F
330
5377
100
AcDbEntity
  8
0
100
AcDbVertex
100
AcDb2dVertex
 10
-196.2318641643729
 20
-116.2590408793352
 30
0.0
  0
VERTEX
  5
5380
330
5377
100
AcDbEntity
  8
0
100
AcDbVertex
100
AcDb2dVertex
 10
-197.4796511643729
 20
-113.2690508793351
 30
0.0
  0
VERTEX
  5
5381
330
5377
100
AcDbEntity
  8
0
100
AcDbVertex
100
AcDb2dVertex
 10
-198.8223331643728
 20
-110.1045558793352
 30
0.0
  0
VERTEX
  5
5382
330
5377
100
AcDbEntity
  8
0
100
AcDbVertex
100
AcDb2dVertex
 10
-200.243079164373
 20
-106.8183678793351
 30
0.0
  0
VERTEX
  5
5383
330
5377
100
AcDbEntity
  8
0
100
AcDbVertex
100
AcDb2dVertex
 10
-201.7250581643728
 20
-103.4633008793351
 30
0.0
  0
VERTEX
  5
5384
330
5377
100
AcDbEntity
  8
0
100
AcDbVertex
100
AcDb2dVertex
 10
-203.2514101643729
 20
-100.0921658793352
 30
0.0
  0
VERTEX
  5
5385
330
5377
100
AcDbEntity
  8
0
100
AcDbVertex
100
AcDb2dVertex
 10
-204.8053201643729
 20
-96.75777687933521
 30
0.0
  0
VERTEX
  5
5386
330
5377
100
AcDbEntity
  8
0
100
AcDbVertex
100
AcDb2dVertex
 10
-206.369925164373
 20
-93.51294587933518
 30
0.0
  0
VERTEX
  5
5387
330
5377
100
AcDbEntity
  8
0
100
AcDbVertex
100
AcDb2dVertex
 10
-207.9284121643729
 20
-90.41048687933516
 30
0.0
  0
VERTEX
  5
5388
330
5377
100
AcDbEntity
  8
0
100
AcDbVertex
100
AcDb2dVertex
 10
-209.4639191643729
 20
-87.50321087933514
 30
0.0
  0
VERTEX
  5
5389
330
5377
100
AcDbEntity
  8
0
100
AcDbVertex
100
AcDb2dVertex
 10
-210.9596161643729
 20
-84.84393187933518
 30
0.0
  0
VERTEX
  5
538A
330
5377
100
AcDbEntity
  8
0
100
AcDbVertex
100
AcDb2dVertex
 10
-212.3986731643729
 20
-82.48545987933516
 30
0.0
  0
VERTEX
  5
538B
330
5377
100
AcDbEntity
  8
0
100
AcDbVertex
100
AcDb2dVertex
 10
-213.7642431643729
 20
-80.48061087933518
 30
0.0
  0
VERTEX
  5
538C
330
5377
100
AcDbEntity
  8
0
100
AcDbVertex
100
AcDb2dVertex
 10
-215.0394961643729
 20
-78.88219587933519
 30
0.0
  0
SEQEND
  5
538D
330
5377
100
AcDbEntity
  8
0
  0
LINE
  5
538E
330
1F
100
AcDbEntity
  8
0
100
AcDbLine
 10
-179.0722027264542
 20
-128.8768692537946
 30
0.0
 11
-135.9670479042426
 21
-84.33479034455604
 31
0.0
  0
LINE
  5
538F
330
1F
100
AcDbEntity
  8
0
 62
     4
100
AcDbLine
 10
-260.975036
 20
0.5773381206648765
 30
0.0
 11
-159.0249639999999
 21
0.5773381206648765
 31
0.0
  0
POLYLINE
  5
5390
330
1F
100
AcDbEntity
  8
0
100
AcDb2dPolyline
 66
     1
 10
0.0
 20
0.0
 30
0.0
  0
VERTEX
  5
5391
330
5390
100
AcDbEntity
  8
0
100
AcDbVertex
100
AcDb2dVertex
 10
-142.4090040547909
 20
-73.78148787933515
 30
0.0
  0
VERTEX
  5
5392
330
5390
100
AcDbEntity
  8
0
100
AcDbVertex
100
AcDb2dVertex
 10
-142.7059700547909
 20
-73.61783287933519
 30
0.0
  0
VERTEX
  5
5393
330
5390
100
AcDbEntity
  8
0
100
AcDbVertex
100
AcDb2dVertex
 10
-143.5600960547909
 20
-73.1457458793352
 30
0.0
  0
VERTEX
  5
5394
330
5390
100
AcDbEntity
  8
0
100
AcDbVertex
100
AcDb2dVertex
 10
-144.9163280547909
 20
-72.3935408793352
 30
0.0
  0
VERTEX
  5
5395
330
5390
100
AcDbEntity
  8
0
100
AcDbVertex
100
AcDb2dVertex
 10
-146.7194900547909
 20
-71.38953887933519
 30
0.0
  0
VERTEX
  5
5396
330
5390
100
AcDbEntity
  8
0
100
AcDbVertex
100
AcDb2dVertex
 10
-148.9145580547908
 20
-70.16205687933518
 30
0.0
  0
VERTEX
  5
5397
330
5390
100
AcDbEntity
  8
0
100
AcDbVertex
100
AcDb2dVertex
 10
-151.4463570547909
 20
-68.73940387933515
 30
0.0
  0
VERTEX
  5
5398
330
5390
100
AcDbEntity
  8
0
100
AcDbVertex
100
AcDb2dVertex
 10
-154.2598030547909
 20
-67.14990687933516
 30
0.0
  0
VERTEX
  5
5399
330
5390
100
AcDbEntity
  8
0
100
AcDbVertex
100
AcDb2dVertex
 10
-157.2998120547909
 20
-65.42187987933516
 30
0.0
  0
VERTEX
  5
539A
330
5390
100
AcDbEntity
  8
0
100
AcDbVertex
100
AcDb2dVertex
 10
-160.5112680547909
 20
-63.58363487933513
 30
0.0
  0
VERTEX
  5
539B
330
5390
100
AcDbEntity
  8
0
100
AcDbVertex
100
AcDb2dVertex
 10
-163.8390580547909
 20
-61.6634908793352
 30
0.0
  0
VERTEX
  5
539C
330
5390
100
AcDbEntity
  8
0
100
AcDbVertex
100
AcDb2dVertex
 10
-167.2280650547909
 20
-59.68976687933514
 30
0.0
  0
VERTEX
  5
539D
330
5390
100
AcDbEntity
  8
0
100
AcDbVertex
100
AcDb2dVertex
 10
-170.6232070547909
 20
-57.6907778793352
 30
0.0
  0
VERTEX
  5
539E
330
5390
100
AcDbEntity
  8
0
100
AcDbVertex
100
AcDb2dVertex
 10
-173.9693680547909
 20
-55.69484387933517
 30
0.0
  0
VERTEX
  5
539F
330
5390
100
AcDbEntity
  8
0
100
AcDbVertex
100
AcDb2dVertex
 10
-177.2114330547908
 20
-53.73027887933517
 30
0.0
  0
VERTEX
  5
53A0
330
5390
100
AcDbEntity
  8
0
100
AcDbVertex
100
AcDb2dVertex
 10
-180.2943190547909
 20
-51.82539487933519
 30
0.0
  0
VERTEX
  5
53A1
330
5390
100
AcDbEntity
  8
0
100
AcDbVertex
100
AcDb2dVertex
 10
-183.1628950547909
 20
-50.00851587933516
 30
0.0
  0
VERTEX
  5
53A2
330
5390
100
AcDbEntity
  8
0
100
AcDbVertex
100
AcDb2dVertex
 10
-185.7620770547909
 20
-48.30796187933515
 30
0.0
  0
VERTEX
  5
53A3
330
5390
100
AcDbEntity
  8
0
100
AcDbVertex
100
AcDb2dVertex
 10
-188.0367500547909
 20
-46.75203787933514
 30
0.0
  0
VERTEX
  5
53A4
330
5390
100
AcDbEntity
  8
0
100
AcDbVertex
100
AcDb2dVertex
 10
-189.9318000547908
 20
-45.36907287933519
 30
0.0
  0
VERTEX
  5
53A5
330
5390
100
AcDbEntity
  8
0
100
AcDbVertex
100
AcDb2dVertex
 10
-191.3921430547908
 20
-44.18737087933516
 30
0.0
  0
SEQEND
  5
53A6
330
5390
100
AcDbEntity
  8
0
  0
LINE
  5
53D0
330
1F
100
AcDbEntity
  8
0
 62
     4
100
AcDbLine
 10
-94.43847600000003
 20
-88.49767387933514
 30
0.0
 11
-49.91455000000008
 21
-88.49767387933514
 31
0.0
  0
LINE
  5
53D1
330
1F
100
AcDbEntity
  8
0
 62
     4
100
AcDbLine
 10
-70.0
 20
-63.05577987933521
 30
0.0
 11
-70.0
 21
-111.2613458793352
 31
0.0
  0
LINE
  5
53D2
330
1F
100
AcDbEntity
  8
0
 62
     4
100
AcDbLine
 10
-100.170288
 20
0.5773381206648765
 30
0.0
 11
-45.20202600000004
 21
0.5773381206648765
 31
0.0
  0
LINE
  5
53EA
330
1F
100
AcDbEntity
  8
0
100
AcDbLine
 10
-177.0739978499258
 20
129.9544570896582
 30
0.0
 11
-135.8932389022194
 21
86.48195023449769
 31
0.0
  0
POLYLINE
  5
53EB
330
1F
100
AcDbEntity
  8
0
100
AcDb2dPolyline
 66
     1
 10
0.0
 20
0.0
 30
0.0
  0
VERTEX
  5
53EC
330
53EB
100
AcDbEntity
  8
0
100
AcDbVertex
100
AcDb2dVertex
 10
-140.927124
 20
82.72791212066483
 30
0.0
  0
VERTEX
  5
53ED
330
53EB
100
AcDbEntity
  8
0
100
AcDbVertex
100
AcDb2dVertex
 10
-141.224091
 20
82.56424612066485
 30
0.0
  0
VERTEX
  5
53EE
330
53EB
100
AcDbEntity
  8
0
100
AcDbVertex
100
AcDb2dVertex
 10
-142.078247
 20
82.09215412066487
 30
0.0
  0
VERTEX
  5
53EF
330
53EB
100
AcDbEntity
  8
0
100
AcDbVertex
100
AcDb2dVertex
 10
-143.434479
 20
81.33992612066482
 30
0.0
  0
VERTEX
  5
53F0
330
53EB
100
AcDbEntity
  8
0
100
AcDbVertex
100
AcDb2dVertex
 10
-145.237701
 20
80.33589812066486
 30
0.0
  0
VERTEX
  5
53F1
330
53EB
100
AcDbEntity
  8
0
100
AcDbVertex
100
AcDb2dVertex
 10
-147.43277
 20
79.10839012066481
 30
0.0
  0
VERTEX
  5
53F2
330
53EB
100
AcDbEntity
  8
0
100
AcDbVertex
100
AcDb2dVertex
 10
-149.96463
 20
77.68569112066484
 30
0.0
  0
VERTEX
  5
53F3
330
53EB
100
AcDbEntity
  8
0
100
AcDbVertex
100
AcDb2dVertex
 10
-152.778137
 20
76.09616712066486
 30
0.0
  0
VERTEX
  5
53F4
330
53EB
100
AcDbEntity
  8
0
100
AcDbVertex
100
AcDb2dVertex
 10
-155.818207
 20
74.36809412066486
 30
0.0
  0
VERTEX
  5
53F5
330
53EB
100
AcDbEntity
  8
0
100
AcDbVertex
100
AcDb2dVertex
 10
-159.029694
 20
72.52979212066481
 30
0.0
  0
VERTEX
  5
53F6
330
53EB
100
AcDbEntity
  8
0
100
AcDbVertex
100
AcDb2dVertex
 10
-162.3575439999999
 20
70.6096101206648
 30
0.0
  0
VERTEX
  5
53F7
330
53EB
100
AcDbEntity
  8
0
100
AcDbVertex
100
AcDb2dVertex
 10
-165.746643
 20
68.63584012066485
 30
0.0
  0
VERTEX
  5
53F8
330
53EB
100
AcDbEntity
  8
0
100
AcDbVertex
100
AcDb2dVertex
 10
-169.141846
 20
66.63680112066481
 30
0.0
  0
VERTEX
  5
53F9
330
53EB
100
AcDbEntity
  8
0
100
AcDbVertex
100
AcDb2dVertex
 10
-172.4880829999999
 20
64.64083012066487
 30
0.0
  0
VERTEX
  5
53FA
330
53EB
100
AcDbEntity
  8
0
100
AcDbVertex
100
AcDb2dVertex
 10
-175.73024
 20
62.67623012066485
 30
0.0
  0
VERTEX
  5
53FB
330
53EB
100
AcDbEntity
  8
0
100
AcDbVertex
100
AcDb2dVertex
 10
-178.813202
 20
60.7713081206648
 30
0.0
  0
VERTEX
  5
53FC
330
53EB
100
AcDbEntity
  8
0
100
AcDbVertex
100
AcDb2dVertex
 10
-181.68187
 20
58.95439812066479
 30
0.0
  0
VERTEX
  5
53FD
330
53EB
100
AcDbEntity
  8
0
100
AcDbVertex
100
AcDb2dVertex
 10
-184.281143
 20
57.25380612066487
 30
0.0
  0
VERTEX
  5
53FE
330
53EB
100
AcDbEntity
  8
0
100
AcDbVertex
100
AcDb2dVertex
 10
-186.555908
 20
55.6978671206648
 30
0.0
  0
VERTEX
  5
53FF
330
53EB
100
AcDbEntity
  8
0
100
AcDbVertex
100
AcDb2dVertex
 10
-188.45105
 20
54.31488712066482
 30
0.0
  0
VERTEX
  5
5400
330
53EB
100
AcDbEntity
  8
0
100
AcDbVertex
100
AcDb2dVertex
 10
-189.911484
 20
53.13318512066484
 30
0.0
  0
SEQEND
  5
5401
330
53EB
100
AcDbEntity
  8
0
  0
LINE
  5
542B
330
1F
100
AcDbEntity
  8
0
 62
     4
100
AcDbLine
 10
-94.43847600000003
 20
84.61756012066485
 30
0.0
 11
-49.91455000000008
 21
84.61756012066485
 31
0.0
  0
LINE
  5
542C
330
1F
100
AcDbEntity
  8
0
 62
     4
100
AcDbLine
 10
-70.0
 20
110.0612861206648
 30
0.0
 11
-70.0
 21
61.85510912066479
 31
0.0
  0
CIRCLE
  5
54EF
330
1F
100
AcDbEntity
  8
0
100
AcDbCircle
 10
-210.0
 20
0.5773381206648765
 30
0.0
 40
26.0
  0
LWPOLYLINE
  5
5B1C
330
1F
100
AcDbEntity
  8
0
100
AcDbPolyline
 90
       16
 70
     1
 43
0.0
 10
0.0
 20
104.1016463877521
 42
0.1989123379116415
 10
-2.928931386375666
 20
111.1727133978587
 10
-66.90460861141571
 20
175.1484051307714
 42
0.1989123968476732
 10
-73.97567722503993
 20
178.0773381206649
 10
-523.7283916525655
 20
178.0773381206649
 42
0.2002056617052966
 10
-530.834550735893
 20
175.1131396444746
 10
-597.1061590833272
 20
108.1788195060876
 42
0.1976197128176035
 10
-599.9999999999999
 20
101.1430179822778
 10
-599.9999999999998
 20
-100.3419388630989
 42
0.1974839011652514
 10
-597.1098367230783
 20
-107.3740240283372
 10
-531.2572253552914
 20
-173.9547470445733
 42
0.2003416148927241
 10
-524.1473886322129
 20
-176.9226618793351
 10
-72.82103240873857
 20
-176.9226618793351
 42
0.1989123323863921
 10
-65.74996554896177
 20
-173.9937306432891
 10
-2.928933140223193
 20
-111.1727151517063
 42
0.1989124023729259
 10
0.0
 20
-104.1016463877523
  0
LINE
  5
5B32
330
1F
100
AcDbEntity
  8
0
100
AcDbLine
 10
-184.3338349477065
 20
133.0773381206649
 30
0.0
 11
-504.9575015184679
 21
133.0773381206649
 31
0.0
  0
LINE
  5
5B33
330
1F
100
AcDbEntity
  8
0
100
AcDbLine
 10
-512.0636606017952
 20
130.1131396444746
 30
0.0
 11
-552.1061590833272
 21
89.67021877174589
 31
0.0
  0
LINE
  5
5B34
330
1F
100
AcDbEntity
  8
0
100
AcDbLine
 10
-554.9999999999998
 20
82.63441724793613
 30
0.0
 11
-554.9999999999996
 21
-81.84709069141026
 31
0.0
  0
LINE
  5
5B35
330
1F
100
AcDbEntity
  8
0
100
AcDbLine
 10
-552.1098367230782
 20
-88.87917585664851
 30
0.0
 11
-512.4725228696835
 21
-128.9547470445733
 31
0.0
  0
LINE
  5
5B36
330
1F
100
AcDbEntity
  8
0
100
AcDbLine
 10
-505.362686146605
 20
-131.9226618793351
 30
0.0
 11
-186.2582308222116
 21
-131.9226618793351
 31
0.0
  0
ARC
  5
5B39
330
1F
100
AcDbEntity
  8
0
100
AcDbCircle
 10
-504.9575015184679
 20
123.0773381206649
 30
0.0
 40
10.0
100
AcDbArc
 50
90.0
 51
135.2850494404756
  0
ARC
  5
5B3A
330
1F
100
AcDbEntity
  8
0
100
AcDbCircle
 10
-544.9999999999999
 20
82.63441724793613
 30
0.0
 40
10.0
100
AcDbArc
 50
135.2850494404757
 51
180.0
  0
ARC
  5
5B3B
330
1F
100
AcDbEntity
  8
0
100
AcDbCircle
 10
-544.9999999999996
 20
-81.84709069141026
 30
0.0
 40
10.0
100
AcDbArc
 50
180.0
 51
224.6849939304772
  0
ARC
  5
5B3C
330
1F
100
AcDbEntity
  8
0
100
AcDbCircle
 10
-505.362686146605
 20
-121.9226618793351
 30
0.0
 40
10.0
100
AcDbArc
 50
224.6849939304771
 51
270.0
  0
ARC
  5
5B3D
330
1F
100
AcDbEntity
  8
0
100
AcDbCircle
 10
-186.2582308222116
 20
-121.9226618793351
 30
0.0
 40
10.0
100
AcDbArc
 50
270.0
 51
315.9392459665659
  0
ARC
  5
5B3E
330
1F
100
AcDbEntity
  8
0
100
AcDbCircle
 10
-143.153076
 20
-77.38058297009658
 30
0.0
 40
10.0
100
AcDbArc
 50
315.9392459665659
 51
0.0
  0
ARC
  5
5B3F
330
1F
100
AcDbEntity
  8
0
100
AcDbCircle
 10
-143.153076
 20
79.6048312655043
 30
0.0
 40
10.0
100
AcDbArc
 50
0.0
 51
43.44925748430635
  0
ARC
  5
5B40
330
1F
100
AcDbEntity
  8
0
100
AcDbCircle
 10
-184.3338349477065
 20
123.0773381206649
 30
0.0
 40
10.0
100
AcDbArc
 50
43.44925748430635
 51
90.0
  0
POLYLINE
  5
5B41
330
1F
100
AcDbEntity
  8
0
100
AcDb2dPolyline
 66
     1
 10
0.0
 20
0.0
 30
0.0
  0
VERTEX
  5
5B42
330
5B41
100
AcDbEntity
  8
0
100
AcDbVertex
100
AcDb2dVertex
 10
-193.421097040895
 20
133.0773381206649
 30
0.0
  0
VERTEX
  5
5B43
330
5B41
100
AcDbEntity
  8
0
100
AcDbVertex
100
AcDb2dVertex
 10
-193.608643
 20
132.6046361206648
 30
0.0
  0
VERTEX
  5
5B44
330
5B41
100
AcDbEntity
  8
0
100
AcDbVertex
100
AcDb2dVertex
 10
-194.470749
 20
130.4549171206648
 30
0.0
  0
VERTEX
  5
5B45
330
5B41
100
AcDbEntity
  8
0
100
AcDbVertex
100
AcDb2dVertex
 10
-195.478272
 20
127.9722351206648
 30
0.0
  0
VERTEX
  5
5B46
330
5B41
100
AcDbEntity
  8
0
100
AcDbVertex
100
AcDb2dVertex
 10
-196.61438
 20
125.2094181206648
 30
0.0
  0
VERTEX
  5
5B47
330
5B41
100
AcDbEntity
  8
0
100
AcDbVertex
100
AcDb2dVertex
 10
-197.862228
 20
122.2192601206648
 30
0.0
  0
VERTEX
  5
5B48
330
5B41
100
AcDbEntity
  8
0
100
AcDbVertex
100
AcDb2dVertex
 10
-199.205002
 20
119.0545871206648
 30
0.0
  0
VERTEX
  5
5B49
330
5B41
100
AcDbEntity
  8
0
100
AcDbVertex
100
AcDb2dVertex
 10
-200.625824
 20
115.7682251206648
 30
0.0
  0
VERTEX
  5
5B4A
330
5B41
100
AcDbEntity
  8
0
100
AcDbVertex
100
AcDb2dVertex
 10
-202.10788
 20
112.4129701206648
 30
0.0
  0
VERTEX
  5
5B4B
330
5B41
100
AcDbEntity
  8
0
100
AcDbVertex
100
AcDb2dVertex
 10
-203.634323
 20
109.0416481206648
 30
0.0
  0
VERTEX
  5
5B4C
330
5B41
100
AcDbEntity
  8
0
100
AcDbVertex
100
AcDb2dVertex
 10
-205.188309
 20
105.7070831206648
 30
0.0
  0
VERTEX
  5
5B4D
330
5B41
100
AcDbEntity
  8
0
100
AcDbVertex
100
AcDb2dVertex
 10
-206.752991
 20
102.4620581206648
 30
0.0
  0
VERTEX
  5
5B4E
330
5B41
100
AcDbEntity
  8
0
100
AcDbVertex
100
AcDb2dVertex
 10
-208.311554
 20
99.35942712066481
 30
0.0
  0
VERTEX
  5
5B4F
330
5B41
100
AcDbEntity
  8
0
100
AcDbVertex
100
AcDb2dVertex
 10
-209.847137
 20
96.45198712066486
 30
0.0
  0
VERTEX
  5
5B50
330
5B41
100
AcDbEntity
  8
0
100
AcDbVertex
100
AcDb2dVertex
 10
-211.342911
 20
93.79254812066482
 30
0.0
  0
VERTEX
  5
5B51
330
5B41
100
AcDbEntity
  8
0
100
AcDbVertex
100
AcDb2dVertex
 10
-212.782028
 20
91.43393612066484
 30
0.0
  0
VERTEX
  5
5B52
330
5B41
100
AcDbEntity
  8
0
100
AcDbVertex
100
AcDb2dVertex
 10
-214.147659
 20
89.42896212066477
 30
0.0
  0
VERTEX
  5
5B53
330
5B41
100
AcDbEntity
  8
0
100
AcDbVertex
100
AcDb2dVertex
 10
-215.422958
 20
87.83045112066487
 30
0.0
  0
SEQEND
  5
5B54
330
5B41
100
AcDbEntity
  8
0
  0
POLYLINE
  5
5B55
330
1F
100
AcDbEntity
  8
0
100
AcDb2dPolyline
 66
     1
 10
0.0
 20
0.0
 30
0.0
  0
VERTEX
  5
5B56
330
5B55
100
AcDbEntity
  8
0
100
AcDbVertex
100
AcDb2dVertex
 10
-486.0069837964466
 20
133.0773381206649
 30
0.0
  0
VERTEX
  5
5B57
330
5B55
100
AcDbEntity
  8
0
100
AcDbVertex
100
AcDb2dVertex
 10
-485.921326
 20
132.9932321206648
 30
0.0
  0
VERTEX
  5
5B58
330
5B55
100
AcDbEntity
  8
0
100
AcDbVertex
100
AcDb2dVertex
 10
-484.402683
 20
131.4723271206647
 30
0.0
  0
VERTEX
  5
5B59
330
5B55
100
AcDbEntity
  8
0
100
AcDbVertex
100
AcDb2dVertex
 10
-482.619988
 20
129.6491151206649
 30
0.0
  0
VERTEX
  5
5B5A
330
5B55
100
AcDbEntity
  8
0
100
AcDbVertex
100
AcDb2dVertex
 10
-480.600025
 20
127.5365971206648
 30
0.0
  0
VERTEX
  5
5B5B
330
5B55
100
AcDbEntity
  8
0
100
AcDbVertex
100
AcDb2dVertex
 10
-478.369583
 20
125.1477881206648
 30
0.0
  0
VERTEX
  5
5B5C
330
5B55
100
AcDbEntity
  8
0
100
AcDbVertex
100
AcDb2dVertex
 10
-475.955452
 20
122.4956881206648
 30
0.0
  0
VERTEX
  5
5B5D
330
5B55
100
AcDbEntity
  8
0
100
AcDbVertex
100
AcDb2dVertex
 10
-473.3844219999999
 20
119.5932991206648
 30
0.0
  0
VERTEX
  5
5B5E
330
5B55
100
AcDbEntity
  8
0
100
AcDbVertex
100
AcDb2dVertex
 10
-470.683277
 20
116.4536501206648
 30
0.0
  0
VERTEX
  5
5B5F
330
5B55
100
AcDbEntity
  8
0
100
AcDbVertex
100
AcDb2dVertex
 10
-467.878811
 20
113.0897431206648
 30
0.0
  0
VERTEX
  5
5B60
330
5B55
100
AcDbEntity
  8
0
100
AcDbVertex
100
AcDb2dVertex
 10
-464.997807
 20
109.5145791206648
 30
0.0
  0
VERTEX
  5
5B61
330
5B55
100
AcDbEntity
  8
0
100
AcDbVertex
100
AcDb2dVertex
 10
-462.0670589999999
 20
105.7411871206648
 30
0.0
  0
VERTEX
  5
5B62
330
5B55
100
AcDbEntity
  8
0
100
AcDbVertex
100
AcDb2dVertex
 10
-459.11335
 20
101.7825691206648
 30
0.0
  0
VERTEX
  5
5B63
330
5B55
100
AcDbEntity
  8
0
100
AcDbVertex
100
AcDb2dVertex
 10
-456.1634709999999
 20
97.65172512066477
 30
0.0
  0
VERTEX
  5
5B64
330
5B55
100
AcDbEntity
  8
0
100
AcDbVertex
100
AcDb2dVertex
 10
-453.2442109999999
 20
93.36167012066482
 30
0.0
  0
VERTEX
  5
5B65
330
5B55
100
AcDbEntity
  8
0
100
AcDbVertex
100
AcDb2dVertex
 10
-450.38236
 20
88.92543712066482
 30
0.0
  0
VERTEX
  5
5B66
330
5B55
100
AcDbEntity
  8
0
100
AcDbVertex
100
AcDb2dVertex
 10
-447.6047059999999
 20
84.35599412066483
 30
0.0
  0
VERTEX
  5
5B67
330
5B55
100
AcDbEntity
  8
0
100
AcDbVertex
100
AcDb2dVertex
 10
-444.938034
 20
79.66638812066481
 30
0.0
  0
SEQEND
  5
5B68
330
5B55
100
AcDbEntity
  8
0
  0
CIRCLE
  5
5BBB
330
1F
100
AcDbEntity
  8
0
100
AcDbCircle
 10
-210.0
 20
0.8066781206648556
 30
0.0
 40
37.5
  0
CIRCLE
  5
5BBC
330
1F
100
AcDbEntity
  8
0
100
AcDbCircle
 10
-70.0
 20
0.8066781206648554
 30
0.0
 40
17.5
  0
ENDSEC
  0
SECTION
  2
OBJECTS
  0
DICTIONARY
  5
C
330
0
100
AcDbDictionary
281
     1
  3
ACAD_COLOR
350
5C1D
  3
ACAD_GROUP
350
D
  3
ACAD_LAYOUT
350
1A
  3
ACAD_MATERIAL
350
5C1C
  3
ACAD_MLINESTYLE
350
17
  3
ACAD_PLOTSETTINGS
350
19
  3
ACAD_PLOTSTYLENAME
350
E
  3
AcDbVariableDictionary
350
86
  3
AcmDictionary
350
45
  3
AMG
350
41
  3
AMGSNAPSETTINGS
350
332
  3
ASE_INDEX_DICTIONARY
350
5B6A
  3
MAPISURF_MODULE
350
5C9F
  0
DICTIONARY
  5
81
330
1F
100
AcDbDictionary
280
     1
281
     1
  3
ACAD_INDEX
360
82
  0
DICTIONARY
  5
5C1D
102
{ACAD_REACTORS
330
C
102
}
330
C
100
AcDbDictionary
281
     1
  0
DICTIONARY
  5
D
102
{ACAD_REACTORS
330
C
102
}
330
C
100
AcDbDictionary
281
     1
  0
DICTIONARY
  5
1A
102
{ACAD_REACTORS
330
C
102
}
330
C
100
AcDbDictionary
281
     1
  3
Layout1
350
1E
  3
Layout2
350
26
  3
Model
350
22
  0
DICTIONARY
  5
5C1C
102
{ACAD_REACTORS
330
C
102
}
330
C
100
AcDbDictionary
281
     1
  0
DICTIONARY
  5
17
102
{ACAD_REACTORS
330
C
102
}
330
C
100
AcDbDictionary
281
     1
  3
Standard
350
18
  0
DICTIONARY
  5
19
102
{ACAD_REACTORS
330
C
102
}
330
C
100
AcDbDictionary
281
     1
  0
ACDBDICTIONARYWDFLT
  5
E
102
{ACAD_REACTORS
330
C
102
}
330
C
100
AcDbDictionary
281
     1
  3
Normal
350
F
100
AcDbDictionaryWithDefault
340
F
  0
DICTIONARY
  5
86
102
{ACAD_REACTORS
330
C
102
}
330
C
100
AcDbDictionary
281
     1
  3
DIMASSOC
350
89
  3
HIDETEXT
350
88
  3
INDEXCTL
350
87
  0
DICTIONARY
  5
45
102
{ACAD_REACTORS
330
C
102
}
330
C
100
AcDbDictionary
281
     1
  3
AcmBOMDATA
350
46
  3
AcmStdDictionary
350
4A
  0
DICTIONARY
  5
41
102
{ACAD_REACTORS
330
C
102
}
330
C
100
AcDbDictionary
281
     1
  3
AcMgSettings
350
42
  3
AMGLAYCFG
350
4C
  0
DICTIONARY
  5
332
102
{ACAD_REACTORS
330
C
102
}
330
C
100
AcDbDictionary
281
     1
  3
DIMENSION
350
337
  3
FEA
350
336
  3
HATCH (1)
350
333
  3
HATCH (2)
350
334
  3
SIMPLE WELD
350
338
  3
SYMBOLS
350
335
  0
DICTIONARY
  5
5B6A
102
{ACAD_REACTORS
330
C
102
}
330
C
100
AcDbDictionary
281
     1
  3
ASEBlockHierarchyIndexRecord
350
5B6C
1001
DCO15
1040
1576487513.781
  0
DICTIONARY
  5
82
102
{ACAD_REACTORS
330
81
102
}
330
81
100
AcDbDictionary
281
     1
  3
*A1
350
83
  0
LAYOUT
  5
1E
102
{ACAD_REACTORS
330
1A
102
}
330
1A
100
AcDbPlotSettings
  1

  2
Epson Stylus COLOR 440 ESC/P 2
  4

  6

 40
0.0
 41
0.0
 42
0.0
 43
0.0
 44
0.0
 45
0.0
 46
0.0
 47
0.0
 48
0.0
 49
0.0
140
0.0
141
0.0
142
1.0
143
1.0
 70
   688
 72
     0
 73
     0
 74
     5
  7

 75
    16
147
1.0
 76
     0
 77
     2
 78
   300
148
0.0
149
0.0
100
AcDbLayout
  1
Layout1
 70
     1
 71
     1
 10
0.0
 20
0.0
 11
420.0
 21
297.0
 12
0.0
 22
0.0
 32
0.0
 14
1.000000000000000E+20
 24
1.000000000000000E+20
 34
1.000000000000000E+20
 15
-1.000000000000000E+20
 25
-1.000000000000000E+20
 35
-1.000000000000000E+20
146
0.0
 13
0.0
 23
0.0
 33
0.0
 16
1.0
 26
0.0
 36
0.0
 17
0.0
 27
1.0
 37
0.0
 76
     0
330
1B
  0
LAYOUT
  5
26
102
{ACAD_REACTORS
330
1A
102
}
330
1A
100
AcDbPlotSettings
  1

  2
Epson Stylus COLOR 440 ESC/P 2
  4

  6

 40
0.0
 41
0.0
 42
0.0
 43
0.0
 44
0.0
 45
0.0
 46
0.0
 47
0.0
 48
0.0
 49
0.0
140
0.0
141
0.0
142
1.0
143
1.0
 70
   688
 72
     0
 73
     0
 74
     5
  7

 75
    16
147
1.0
 76
     0
 77
     2
 78
   300
148
0.0
149
0.0
100
AcDbLayout
  1
Layout2
 70
     1
 71
     2
 10
0.0
 20
0.0
 11
12.0
 21
9.0
 12
0.0
 22
0.0
 32
0.0
 14
0.0
 24
0.0
 34
0.0
 15
0.0
 25
0.0
 35
0.0
146
0.0
 13
0.0
 23
0.0
 33
0.0
 16
1.0
 26
0.0
 36
0.0
 17
0.0
 27
1.0
 37
0.0
 76
     0
330
23
  0
LAYOUT
  5
22
102
{ACAD_REACTORS
330
1A
102
}
330
1A
100
AcDbPlotSettings
  1

  2
Epson Stylus COLOR 440 ESC/P 2
  4

  6

 40
0.0
 41
0.0
 42
0.0
 43
0.0
 44
0.0
 45
0.0
 46
0.0
 47
0.0
 48
0.0
 49
0.0
140
0.0
141
0.0
142
1.0
143
1.0
 70
  1712
 72
     0
 73
     0
 74
     0
  7

 75
     0
147
1.0
 76
     0
 77
     2
 78
   300
148
0.0
149
0.0
100
AcDbLayout
  1
Model
 70
     1
 71
     0
 10
0.0
 20
0.0
 11
12.0
 21
9.0
 12
0.0
 22
0.0
 32
0.0
 14
0.0
 24
0.0
 34
0.0
 15
0.0
 25
0.0
 35
0.0
146
0.0
 13
0.0
 23
0.0
 33
0.0
 16
1.0
 26
0.0
 36
0.0
 17
0.0
 27
1.0
 37
0.0
 76
     0
330
1F
  0
MLINESTYLE
  5
18
102
{ACAD_REACTORS
330
17
102
}
330
17
100
AcDbMlineStyle
  2
STANDARD
 70
     0
  3

 62
   256
 51
90.0
 52
90.0
 71
     2
 49
0.5
 62
   256
  6
BYLAYER
 49
-0.5
 62
   256
  6
BYLAYER
  0
ACDBPLACEHOLDER
  5
F
102
{ACAD_REACTORS
330
E
102
}
330
E
  0
DICTIONARYVAR
  5
89
102
{ACAD_REACTORS
330
86
102
}
330
86
100
DictionaryVariables
280
     0
  1
2
  0
DICTIONARYVAR
  5
88
102
{ACAD_REACTORS
330
86
102
}
330
86
100
DictionaryVariables
280
     0
  1
1
  0
DICTIONARYVAR
  5
87
102
{ACAD_REACTORS
330
86
102
}
330
86
100
DictionaryVariables
280
     0
  1
1
  0
ACMDATADICTIONARY
  5
46
102
{ACAD_REACTORS
330
45
102
}
330
45
100
AcDbDictionary
281
     1
  3
*A1
350
47
100
AcmDataDictionary
  0
DICTIONARY
  5
4A
102
{ACAD_REACTORS
330
45
102
}
330
45
100
AcDbDictionary
281
     1
  3
ANSI
350
360
  3
DIN
350
4B
  0
DICTIONARY
  5
42
102
{ACAD_REACTORS
330
41
102
}
330
41
100
AcDbDictionary
281
     1
  3
DWGSETTINGS
350
43
  3
TRANSSETTINGS
350
44
  0
ACAMGFILTERDAT
  5
337
102
{ACAD_REACTORS
330
332
102
}
330
332
100
AcAmgFilterDat
 70
    15
  1
DIMENSION,AMDT_*_DIM
  2
*
  3
*
  4
*
  5
*
290
     1
  0
ACAMGFILTERDAT
  5
336
102
{ACAD_REACTORS
330
332
102
}
330
332
100
AcAmgFilterDat
 70
    15
  1
*
  2
AM_FEA-AM_*
  3
*
  4
*
  5
*
290
     1
  0
ACAMGFILTERDAT
  5
333
102
{ACAD_REACTORS
330
332
102
}
330
332
100
AcAmgFilterDat
 70
    15
  1
HATCH
  2
*
  3
*
  4
*
  5
*
290
     1
  0
ACAMGFILTERDAT
  5
334
102
{ACAD_REACTORS
330
332
102
}
330
332
100
AcAmgFilterDat
 70
    15
  1
LINE
  2
8,8N,*-8,*-8N,AM_8,AM_8N,*-AM_8,*-AM_8N
  3
*
  4
*
  5
INSERT,STDPART2D
290
     1
  0
ACAMGFILTERDAT
  5
338
102
{ACAD_REACTORS
330
332
102
}
330
332
100
AcAmgFilterDat
 70
    15
  1
ARC
  2
AM_5
  3
*
  4
2
  5
INSERT
290
     0
  0
ACAMGFILTERDAT
  5
335
102
{ACAD_REACTORS
330
332
102
}
330
332
100
AcAmgFilterDat
 70
    15
  1
ACMFCFRAME,ACMDATUMTARGET,ACMDATUMID,ACMWELDSYM,ACMSURFSYM,ACMFEATID,ACMPARTREF,ACMBALLOON,AMDTEDGESYM,AMGSCREWCALCTABLE
  2
*
  3
*
  4
*
  5
*
290
     1
  0
XRECORD
  5
5B6C
102
{ACAD_REACTORS
330
5B6A
102
}
330
5B6A
100
AcDbXrecord
280
     1
  0
LAYER_INDEX
  5
83
102
{ACAD_REACTORS
330
82
102
}
330
82
100
AcDbIndex
 40
2454064.609628531
100
AcDbLayerIndex
  8
0
360
84
 90
       36
  0
ACMDATAENTRYBLOCK
  5
47
102
{ACAD_REACTORS
330
46
102
}
330
46
100
AcmDataEntry
100
AcmDataEntryBlock
  0
IDBUFFER
  5
84
330
0
100
AcDbIdBuffer
330
5253
330
526A
330
5283
330
52DB
330
52DC
330
5375
330
5377
330
538E
330
538F
330
5390
330
53D0
330
53D1
330
53D2
330
53EA
330
53EB
330
542B
330
542C
330
54EF
330
5B1C
330
5B32
330
5B33
330
5B34
330
5B35
330
5B36
330
5B39
330
5B3A
330
5B3B
330
5B3C
330
5B3D
330
5B3E
330
5B3F
330
5B40
330
5B41
330
5B55
330
5BBB
330
5BBC
  0
ENDSEC
  0
EOF
