  0
SECTION
  2
HEADER
  9
$ACADVER
  1
AC1015
  9
$ACADMAINTVER
 70
     6
  9
$DWGCODEPAGE
  3
ANSI_1252
  9
$INSBASE
 10
0.0
 20
0.0
 30
0.0
  9
$EXTMIN
 10
0.0
 20
0.0
 30
0.0
  9
$EXTMAX
 10
3000.0
 20
4500.0
 30
0.0
  9
$LIMMIN
 10
0.0
 20
0.0
  9
$LIMMAX
 10
3000.0
 20
4500.0
  9
$ORTHOMODE
 70
     0
  9
$REGENMODE
 70
     1
  9
$FILLMODE
 70
     1
  9
$QTEXTMODE
 70
     0
  9
$MIRRTEXT
 70
     1
  9
$LTSCALE
 40
1.0
  9
$ATTMODE
 70
     1
  9
$TEXTSIZE
 40
2.5
  9
$TRACEWID
 40
1.0
  9
$TEXTSTYLE
  7
Standard
  9
$CLAYER
  8
0
  9
$CELTYPE
  6
ByLayer
  9
$CECOLOR
 62
   256
  9
$CELTSCALE
 40
1.0
  9
$DISPSILH
 70
     0
  9
$DIMSCALE
 40
1.0
  9
$DIMASZ
 40
2.5
  9
$DIMEXO
 40
0.625
  9
$DIMDLI
 40
3.75
  9
$DIMRND
 40
0.0
  9
$DIMDLE
 40
0.0
  9
$DIMEXE
 40
1.25
  9
$DIMTP
 40
0.0
  9
$DIMTM
 40
0.0
  9
$DIMTXT
 40
2.5
  9
$DIMCEN
 40
2.5
  9
$DIMTSZ
 40
0.0
  9
$DIMTOL
 70
     0
  9
$DIMLIM
 70
     0
  9
$DIMTIH
 70
     0
  9
$DIMTOH
 70
     0
  9
$DIMSE1
 70
     0
  9
$DIMSE2
 70
     0
  9
$DIMTAD
 70
     1
  9
$DIMZIN
 70
     8
  9
$DIMBLK
  1

  9
$DIMASO
 70
     1
  9
$DIMSHO
 70
     1
  9
$DIMPOST
  1

  9
$DIMAPOST
  1

  9
$DIMALT
 70
     0
  9
$DIMALTD
 70
     3
  9
$DIMALTF
 40
0.0393700787
  9
$DIMLFAC
 40
1.0
  9
$DIMTOFL
 70
     1
  9
$DIMTVP
 40
0.0
  9
$DIMTIX
 70
     0
  9
$DIMSOXD
 70
     0
  9
$DIMSAH
 70
     0
  9
$DIMBLK1
  1

  9
$DIMBLK2
  1

  9
$DIMSTYLE
  2
ISO-25
  9
$DIMCLRD
 70
     0
  9
$DIMCLRE
 70
     0
  9
$DIMCLRT
 70
     0
  9
$DIMTFAC
 40
1.0
  9
$DIMGAP
 40
0.625
  9
$DIMJUST
 70
     0
  9
$DIMSD1
 70
     0
  9
$DIMSD2
 70
     0
  9
$DIMTOLJ
 70
     0
  9
$DIMTZIN
 70
     8
  9
$DIMALTZ
 70
     0
  9
$DIMALTTZ
 70
     0
  9
$DIMUPT
 70
     0
  9
$DIMDEC
 70
     2
  9
$DIMTDEC
 70
     2
  9
$DIMALTU
 70
     2
  9
$DIMALTTD
 70
     3
  9
$DIMTXSTY
  7
Standard
  9
$DIMAUNIT
 70
     0
  9
$DIMADEC
 70
     0
  9
$DIMALTRND
 40
0.0
  9
$DIMAZIN
 70
     0
  9
$DIMDSEP
 70
    44
  9
$DIMATFIT
 70
     3
  9
$DIMFRAC
 70
     0
  9
$DIMLDRBLK
  1

  9
$DIMLUNIT
 70
     2
  9
$DIMLWD
 70
    -2
  9
$DIMLWE
 70
    -2
  9
$DIMTMOVE
 70
     0
  9
$LUNITS
 70
     2
  9
$LUPREC
 70
     4
  9
$SKETCHINC
 40
1.0
  9
$FILLETRAD
 40
10.0
  9
$AUNITS
 70
     0
  9
$AUPREC
 70
     0
  9
$MENU
  1
.
  9
$ELEVATION
 40
0.0
  9
$PELEVATION
 40
0.0
  9
$THICKNESS
 40
0.0
  9
$LIMCHECK
 70
     0
  9
$CHAMFERA
 40
10.0
  9
$CHAMFERB
 40
10.0
  9
$CHAMFERC
 40
20.0
  9
$CHAMFERD
 40
0.0
  9
$SKPOLY
 70
     0
  9
$TDCREATE
 40
2456181.364291887
  9
$TDUCREATE
 40
2456181.280958553
  9
$TDUPDATE
 40
2456181.364291898
  9
$TDUUPDATE
 40
2456181.280958565
  9
$TDINDWG
 40
0.0000000116
  9
$TDUSRTIMER
 40
0.0000000116
  9
$USRTIMER
 70
     1
  9
$ANGBASE
 50
0.0
  9
$ANGDIR
 70
     0
  9
$PDMODE
 70
     0
  9
$PDSIZE
 40
0.0
  9
$PLINEWID
 40
0.0
  9
$SPLFRAME
 70
     0
  9
$SPLINETYPE
 70
     6
  9
$SPLINESEGS
 70
     8
  9
$HANDSEED
  5
297
  9
$SURFTAB1
 70
     6
  9
$SURFTAB2
 70
     6
  9
$SURFTYPE
 70
     6
  9
$SURFU
 70
     6
  9
$SURFV
 70
     6
  9
$UCSBASE
  2

  9
$UCSNAME
  2

  9
$UCSORG
 10
0.0
 20
0.0
 30
0.0
  9
$UCSXDIR
 10
1.0
 20
0.0
 30
0.0
  9
$UCSYDIR
 10
0.0
 20
1.0
 30
0.0
  9
$UCSORTHOREF
  2

  9
$UCSORTHOVIEW
 70
     0
  9
$UCSORGTOP
 10
0.0
 20
0.0
 30
0.0
  9
$UCSORGBOTTOM
 10
0.0
 20
0.0
 30
0.0
  9
$UCSORGLEFT
 10
0.0
 20
0.0
 30
0.0
  9
$UCSORGRIGHT
 10
0.0
 20
0.0
 30
0.0
  9
$UCSORGFRONT
 10
0.0
 20
0.0
 30
0.0
  9
$UCSORGBACK
 10
0.0
 20
0.0
 30
0.0
  9
$PUCSBASE
  2

  9
$PUCSNAME
  2

  9
$PUCSORG
 10
0.0
 20
0.0
 30
0.0
  9
$PUCSXDIR
 10
1.0
 20
0.0
 30
0.0
  9
$PUCSYDIR
 10
0.0
 20
1.0
 30
0.0
  9
$PUCSORTHOREF
  2

  9
$PUCSORTHOVIEW
 70
     0
  9
$PUCSORGTOP
 10
0.0
 20
0.0
 30
0.0
  9
$PUCSORGBOTTOM
 10
0.0
 20
0.0
 30
0.0
  9
$PUCSORGLEFT
 10
0.0
 20
0.0
 30
0.0
  9
$PUCSORGRIGHT
 10
0.0
 20
0.0
 30
0.0
  9
$PUCSORGFRONT
 10
0.0
 20
0.0
 30
0.0
  9
$PUCSORGBACK
 10
0.0
 20
0.0
 30
0.0
  9
$USERI1
 70
     0
  9
$USERI2
 70
     0
  9
$USERI3
 70
     0
  9
$USERI4
 70
     0
  9
$USERI5
 70
     0
  9
$USERR1
 40
0.0
  9
$USERR2
 40
0.0
  9
$USERR3
 40
0.0
  9
$USERR4
 40
0.0
  9
$USERR5
 40
0.0
  9
$WORLDVIEW
 70
     1
  9
$SHADEDGE
 70
     3
  9
$SHADEDIF
 70
    70
  9
$TILEMODE
 70
     1
  9
$MAXACTVP
 70
    64
  9
$PINSBASE
 10
0.0
 20
0.0
 30
0.0
  9
$PLIMCHECK
 70
     0
  9
$PEXTMIN
 10
0.0
 20
0.0
 30
0.0
  9
$PEXTMAX
 10
3000.0
 20
4500.0
 30
0.0
  9
$PLIMMIN
 10
0.0
 20
0.0
  9
$PLIMMAX
 10
3000.0
 20
4500.0
  9
$UNITMODE
 70
     0
  9
$VISRETAIN
 70
     1
  9
$PLINEGEN
 70
     0
  9
$PSLTSCALE
 70
     1
  9
$TREEDEPTH
 70
  3020
  9
$CMLSTYLE
  2
Standard
  9
$CMLJUST
 70
     0
  9
$CMLSCALE
 40
20.0
  9
$PROXYGRAPHICS
 70
     1
  9
$MEASUREMENT
 70
     1
  9
$CELWEIGHT
370
    -1
  9
$ENDCAPS
280
     0
  9
$JOINSTYLE
280
     0
  9
$LWDISPLAY
290
     0
  9
$INSUNITS
 70
     4
  9
$HYPERLINKBASE
  1

  9
$STYLESHEET
  1

  9
$XEDIT
290
     1
  9
$CEPSNTYPE
380
     0
  9
$PSTYLEMODE
290
     1
  9
$FINGERPRINTGUID
  2
{78FE17B6-6F87-4487-BBBB-03C6E4D07D0D}
  9
$VERSIONGUID
  2
{FAEB1C32-E019-11D5-929B-00C0DF256EC4}
  9
$EXTNAMES
290
     1
  9
$PSVPSCALE
 40
0.0
  9
$OLESTARTUP
290
     0
  0
ENDSEC
  0
SECTION
  2
CLASSES
  0
CLASS
  1
ACDBDICTIONARYWDFLT
  2
AcDbDictionaryWithDefault
  3
ObjectDBX Classes
 90
        0
280
     0
281
     0
  0
CLASS
  1
VISUALSTYLE
  2
AcDbVisualStyle
  3
ObjectDBX Classes
 90
     4095
280
     0
281
     0
  0
CLASS
  1
SCALE
  2
AcDbScale
  3
ObjectDBX Classes
 90
     1153
280
     0
281
     0
  0
CLASS
  1
DICTIONARYVAR
  2
AcDbDictionaryVar
  3
ObjectDBX Classes
 90
        0
280
     0
281
     0
  0
CLASS
  1
ACDBPLACEHOLDER
  2
AcDbPlaceHolder
  3
ObjectDBX Classes
 90
        0
280
     0
281
     0
  0
CLASS
  1
LAYOUT
  2
AcDbLayout
  3
ObjectDBX Classes
 90
        0
280
     0
281
     0
  0
ENDSEC
  0
SECTION
  2
TABLES
  0
TABLE
  2
VPORT
  5
8
330
0
100
AcDbSymbolTable
 70
     1
  0
VPORT
  5
29
330
8
100
AcDbSymbolTableRecord
100
AcDbViewportTableRecord
  2
*Active
 70
     0
 10
0.0
 20
0.0
 11
1.0
 21
1.0
 12
344.1869158879
 22
148.5
 13
0.0
 23
0.0
 14
10.0
 24
10.0
 15
10.0
 25
10.0
 16
0.0
 26
0.0
 36
1.0
 17
0.0
 27
0.0
 37
0.0
 40
297.0
 41
1.9729729729
 42
50.0
 43
0.0
 44
0.0
 50
0.0
 51
0.0
 71
     0
 72
   100
 73
     1
 74
     3
 75
     0
 76
     0
 77
     0
 78
     0
281
     0
 65
     1
110
0.0
120
0.0
130
0.0
111
1.0
121
0.0
131
0.0
112
0.0
122
1.0
132
0.0
 79
     0
146
0.0
  0
ENDTAB
  0
TABLE
  2
LTYPE
  5
5
330
0
100
AcDbSymbolTable
 70
     2
  0
LTYPE
  5
14
330
5
100
AcDbSymbolTableRecord
100
AcDbLinetypeTableRecord
  2
ByBlock
 70
     0
  3

 72
    65
 73
     0
 40
0.0
  0
LTYPE
  5
15
330
5
100
AcDbSymbolTableRecord
100
AcDbLinetypeTableRecord
  2
ByLayer
 70
     0
  3

 72
    65
 73
     0
 40
0.0
  0
LTYPE
  5
16
330
5
100
AcDbSymbolTableRecord
100
AcDbLinetypeTableRecord
  2
Continuous
 70
     0
  3
Solid line
 72
    65
 73
     0
 40
0.0
  0
LTYPE
  5
60
330
5
100
AcDbSymbolTableRecord
100
AcDbLinetypeTableRecord
  2
CENTER2
 70
     0
  3
Center (.5x) ___ _ ___ _ ___ _ ___ _ ___ _ ___
 72
    65
 73
     4
 40
28.575
 49
19.05
 74
     4
 75
     0
340
0
 46
0.0
 50
0.0
 44
0.0
 45
0.0
 49
-3.175
 74
     4
 75
     0
340
0
 46
0.0
 50
0.0
 44
0.0
 45
0.0
 49
3.175
 74
     4
 75
     0
340
0
 46
0.0
 50
0.0
 44
0.0
 45
0.0
 49
-3.175
 74
     4
 75
     0
340
0
 46
0.0
 50
0.0
 44
0.0
 45
0.0
  0
ENDTAB
  0
TABLE
  2
LAYER
  5
2
330
0
100
AcDbSymbolTable
 70
    16
  0
LAYER
  5
10
330
2
100
AcDbSymbolTableRecord
100
AcDbLayerTableRecord
  2
0
 70
     0
 62
     7
  6
Continuous
370
    -3
390
F
  0
LAYER
  5
5D
330
2
100
AcDbSymbolTableRecord
100
AcDbLayerTableRecord
  2
Default
 70
     0
 62
     7
  6
Continuous
370
    -3
390
F
  0
LAYER
  5
9B
330
2
100
AcDbSymbolTableRecord
100
AcDbLayerTableRecord
  2
$DDT_AUDIT_GENERATED_(9B)
 70
     0
 62
     7
  6
Continuous
370
    -3
390
F
  0
LAYER
  5
EE
330
2
100
AcDbSymbolTableRecord
100
AcDbLayerTableRecord
  2
$DDT_AUDIT_GENERATED_(EE)
 70
     0
 62
     7
  6
Continuous
370
    -3
390
F
  0
LAYER
  5
FD
330
2
100
AcDbSymbolTableRecord
100
AcDbLayerTableRecord
  2
$DDT_AUDIT_GENERATED_(FD)
 70
     0
 62
     7
  6
Continuous
370
    -3
390
F
  0
LAYER
  5
108
330
2
100
AcDbSymbolTableRecord
100
AcDbLayerTableRecord
  2
$DDT_AUDIT_GENERATED_(108)
 70
     0
 62
     7
  6
Continuous
370
    -3
390
F
  0
LAYER
  5
11C
330
2
100
AcDbSymbolTableRecord
100
AcDbLayerTableRecord
  2
$DDT_AUDIT_GENERATED_(11C)
 70
     0
 62
     7
  6
Continuous
370
    -3
390
F
  0
LAYER
  5
12F
330
2
100
AcDbSymbolTableRecord
100
AcDbLayerTableRecord
  2
$DDT_AUDIT_GENERATED_(12F)
 70
     0
 62
     7
  6
Continuous
370
    -3
390
F
  0
LAYER
  5
145
330
2
100
AcDbSymbolTableRecord
100
AcDbLayerTableRecord
  2
$DDT_AUDIT_GENERATED_(145)
 70
     0
 62
     7
  6
Continuous
370
    -3
390
F
  0
LAYER
  5
160
330
2
100
AcDbSymbolTableRecord
100
AcDbLayerTableRecord
  2
404221031_BEFEST
 70
     0
 62
     7
  6
Continuous
370
    -3
390
F
  0
LAYER
  5
167
330
2
100
AcDbSymbolTableRecord
100
AcDbLayerTableRecord
  2
$DDT_AUDIT_GENERATED_(167)
 70
     0
 62
     7
  6
Continuous
370
    -3
390
F
  0
LAYER
  5
16D
330
2
100
AcDbSymbolTableRecord
100
AcDbLayerTableRecord
  2
$DDT_AUDIT_GENERATED_(16D)
 70
     0
 62
     7
  6
Continuous
370
    -3
390
F
  0
LAYER
  5
172
330
2
100
AcDbSymbolTableRecord
100
AcDbLayerTableRecord
  2
$DDT_AUDIT_GENERATED_(172)
 70
     0
 62
     7
  6
Continuous
370
    -3
390
F
  0
LAYER
  5
177
330
2
100
AcDbSymbolTableRecord
100
AcDbLayerTableRecord
  2
$DDT_AUDIT_GENERATED_(177)
 70
     0
 62
     7
  6
Continuous
370
    -3
390
F
  0
LAYER
  5
187
330
2
100
AcDbSymbolTableRecord
100
AcDbLayerTableRecord
  2
DV2_Default
 70
     0
 62
     7
  6
Continuous
370
    -3
390
F
  0
LAYER
  5
1F1
330
2
100
AcDbSymbolTableRecord
100
AcDbLayerTableRecord
  2
DV3_Default
 70
     0
 62
     7
  6
Continuous
370
    -3
390
F
  0
ENDTAB
  0
TABLE
  2
STYLE
  5
3
330
0
100
AcDbSymbolTable
 70
     2
  0
STYLE
  5
11
330
3
100
AcDbSymbolTableRecord
100
AcDbTextStyleTableRecord
  2
Standard
 70
     0
 40
0.0
 41
1.0
 50
0.0
 71
     0
 42
2.5
  3
txt
  4

  0
STYLE
  5
286
330
3
100
AcDbSymbolTableRecord
100
AcDbTextStyleTableRecord
  2
SEACAD_seiso_ttf
 70
     0
 40
0.0
 41
1.0
 50
0.0
 71
     0
 42
0.2
  3
seiso.ttf
  4

  0
ENDTAB
  0
TABLE
  2
VIEW
  5
6
330
0
100
AcDbSymbolTable
 70
     0
  0
ENDTAB
  0
TABLE
  2
UCS
  5
7
330
0
100
AcDbSymbolTable
 70
     0
  0
ENDTAB
  0
TABLE
  2
APPID
  5
9
330
0
100
AcDbSymbolTable
 70
     1
  0
APPID
  5
12
330
9
100
AcDbSymbolTableRecord
100
AcDbRegAppTableRecord
  2
ACAD
 70
     0
  0
ENDTAB
  0
TABLE
  2
DIMSTYLE
  5
A
330
0
100
AcDbSymbolTable
 70
     1
100
AcDbDimStyleTable
  0
DIMSTYLE
105
27
330
A
100
AcDbSymbolTableRecord
100
AcDbDimStyleTableRecord
  2
ISO-25
 70
     0
 41
2.5
 42
0.625
 43
3.75
 44
1.25
 73
     0
 74
     0
 77
     1
 78
     8
140
2.5
141
2.5
143
0.0393700787
147
0.625
171
     3
172
     1
271
     2
272
     2
274
     3
278
    44
283
     0
284
     8
340
11
  0
ENDTAB
  0
TABLE
  2
BLOCK_RECORD
  5
1
330
0
100
AcDbSymbolTable
 70
    12
  0
BLOCK_RECORD
  5
1F
330
1
100
AcDbSymbolTableRecord
100
AcDbBlockTableRecord
  2
*Model_Space
340
22
  0
BLOCK_RECORD
  5
1B
330
1
100
AcDbSymbolTableRecord
100
AcDbBlockTableRecord
  2
*Paper_Space
340
1E
  0
BLOCK_RECORD
  5
5E
330
1
100
AcDbSymbolTableRecord
100
AcDbBlockTableRecord
  2
SEANNOT_GROUP
340
0
102
{BLKREFS
331
5F
102
}
  0
BLOCK_RECORD
  5
69
330
1
100
AcDbSymbolTableRecord
100
AcDbBlockTableRecord
  2
SEANNOT_GROUP1
340
0
102
{BLKREFS
331
6A
102
}
  0
BLOCK_RECORD
  5
73
330
1
100
AcDbSymbolTableRecord
100
AcDbBlockTableRecord
  2
SEANNOT_GROUP2
340
0
102
{BLKREFS
331
74
102
}
  0
BLOCK_RECORD
  5
79
330
1
100
AcDbSymbolTableRecord
100
AcDbBlockTableRecord
  2
SEANNOT_GROUP3
340
0
102
{BLKREFS
331
7A
102
}
  0
BLOCK_RECORD
  5
7F
330
1
100
AcDbSymbolTableRecord
100
AcDbBlockTableRecord
  2
SEANNOT_GROUP4
340
0
102
{BLKREFS
331
80
102
}
  0
BLOCK_RECORD
  5
85
330
1
100
AcDbSymbolTableRecord
100
AcDbBlockTableRecord
  2
SEANNOT_GROUP5
340
0
102
{BLKREFS
331
86
102
}
  0
BLOCK_RECORD
  5
8B
330
1
100
AcDbSymbolTableRecord
100
AcDbBlockTableRecord
  2
SEANNOT_GROUP6
340
0
102
{BLKREFS
331
8C
102
}
  0
BLOCK_RECORD
  5
93
330
1
100
AcDbSymbolTableRecord
100
AcDbBlockTableRecord
  2
SEANNOT_GROUP7
340
0
102
{BLKREFS
331
94
102
}
  0
BLOCK_RECORD
  5
99
330
1
100
AcDbSymbolTableRecord
100
AcDbBlockTableRecord
  2
SE
340
0
102
{BLKREFS
331
9A
102
}
  0
BLOCK_RECORD
  5
185
330
1
100
AcDbSymbolTableRecord
100
AcDbBlockTableRecord
  2
SE1
340
0
102
{BLKREFS
331
186
102
}
  0
BLOCK_RECORD
  5
1EF
330
1
100
AcDbSymbolTableRecord
100
AcDbBlockTableRecord
  2
SE2
340
0
102
{BLKREFS
331
1F0
102
}
  0
ENDTAB
  0
ENDSEC
  0
SECTION
  2
BLOCKS
  0
BLOCK
  5
20
330
1F
100
AcDbEntity
  8
0
100
AcDbBlockBegin
  2
*Model_Space
 70
     0
 10
0.0
 20
0.0
 30
0.0
  3
*Model_Space
  1

  0
ENDBLK
  5
21
330
1F
100
AcDbEntity
  8
0
100
AcDbBlockEnd
  0
BLOCK
  5
1C
330
1B
100
AcDbEntity
 67
     1
  8
0
100
AcDbBlockBegin
  2
*Paper_Space
 70
     0
 10
0.0
 20
0.0
 30
0.0
  3
*Paper_Space
  1

  0
ENDBLK
  5
1D
330
1B
100
AcDbEntity
 67
     1
  8
0
100
AcDbBlockEnd
  0
BLOCK
  5
67
330
5E
100
AcDbEntity
  8
0
100
AcDbBlockBegin
  2
SEANNOT_GROUP
 70
     0
 10
0.0
 20
0.0
 30
0.0
  3
SEANNOT_GROUP
  1

  0
LINE
  5
61
330
5E
100
AcDbEntity
  8
Default
  6
CENTER2
 62
     7
100
AcDbLine
 10
386.2884581096
 20
475.3918555219
 30
0.0
 11
346.2884590037
 21
475.3918555219
 31
0.0
  0
LINE
  5
62
330
5E
100
AcDbEntity
  8
Default
  6
CENTER2
 62
     7
100
AcDbLine
 10
366.2884585566
 20
495.3918550749
 30
0.0
 11
366.2884585566
 21
455.3918559689
 31
0.0
  0
LINE
  5
63
330
5E
100
AcDbEntity
  8
Default
  6
CENTER2
 62
     7
100
AcDbLine
 10
391.2884579979
 20
475.3918555219
 30
0.0
 11
403.9846231142
 21
475.3918555219
 31
0.0
  0
LINE
  5
64
330
5E
100
AcDbEntity
  8
Default
  6
CENTER2
 62
     7
100
AcDbLine
 10
366.2884585566
 20
500.3918549631
 30
0.0
 11
366.2884585566
 21
513.0880200795
 31
0.0
  0
LINE
  5
65
330
5E
100
AcDbEntity
  8
Default
  6
CENTER2
 62
     7
100
AcDbLine
 10
341.2884591154
 20
475.3918555219
 30
0.0
 11
328.592293999
 21
475.3918555219
 31
0.0
  0
LINE
  5
66
330
5E
100
AcDbEntity
  8
Default
  6
CENTER2
 62
     7
100
AcDbLine
 10
366.2884585566
 20
450.3918560807
 30
0.0
 11
366.2884585566
 21
437.6956909643
 31
0.0
  0
ENDBLK
  5
68
330
5E
100
AcDbEntity
  8
0
100
AcDbBlockEnd
  0
BLOCK
  5
71
330
69
100
AcDbEntity
  8
0
100
AcDbBlockBegin
  2
SEANNOT_GROUP1
 70
     0
 10
0.0
 20
0.0
 30
0.0
  3
SEANNOT_GROUP1
  1

  0
LINE
  5
6B
330
69
100
AcDbEntity
  8
Default
  6
CENTER2
 62
     7
100
AcDbLine
 10
236.2884581096
 20
475.3918555219
 30
0.0
 11
196.2884590037
 21
475.3918555219
 31
0.0
  0
LINE
  5
6C
330
69
100
AcDbEntity
  8
Default
  6
CENTER2
 62
     7
100
AcDbLine
 10
216.2884585566
 20
495.3918550749
 30
0.0
 11
216.2884585566
 21
455.3918559689
 31
0.0
  0
LINE
  5
6D
330
69
100
AcDbEntity
  8
Default
  6
CENTER2
 62
     7
100
AcDbLine
 10
241.2884579979
 20
475.3918555219
 30
0.0
 11
254.7882872191
 21
475.3918555219
 31
0.0
  0
LINE
  5
6E
330
69
100
AcDbEntity
  8
Default
  6
CENTER2
 62
     7
100
AcDbLine
 10
216.2884585566
 20
500.3918549631
 30
0.0
 11
216.2884585566
 21
513.8916841844
 31
0.0
  0
LINE
  5
6F
330
69
100
AcDbEntity
  8
Default
  6
CENTER2
 62
     7
100
AcDbLine
 10
191.2884591154
 20
475.3918555219
 30
0.0
 11
177.7886298942
 21
475.3918555219
 31
0.0
  0
LINE
  5
70
330
69
100
AcDbEntity
  8
Default
  6
CENTER2
 62
     7
100
AcDbLine
 10
216.2884585566
 20
450.3918560807
 30
0.0
 11
216.2884585566
 21
436.8920268594
 31
0.0
  0
ENDBLK
  5
72
330
69
100
AcDbEntity
  8
0
100
AcDbBlockEnd
  0
BLOCK
  5
77
330
73
100
AcDbEntity
  8
0
100
AcDbBlockBegin
  2
SEANNOT_GROUP2
 70
     0
 10
0.0
 20
0.0
 30
0.0
  3
SEANNOT_GROUP2
  1

  0
LINE
  5
75
330
73
100
AcDbEntity
  8
Default
  6
CENTER2
 62
     7
100
AcDbLine
 10
710.1827511076
 20
448.7918555219
 30
0.0
 11
670.1827520017
 21
448.7918555219
 31
0.0
  0
LINE
  5
76
330
73
100
AcDbEntity
  8
Default
  6
CENTER2
 62
     7
100
AcDbLine
 10
690.1827515547
 20
468.7918550749
 30
0.0
 11
690.1827515547
 21
428.7918559689
 31
0.0
  0
ENDBLK
  5
78
330
73
100
AcDbEntity
  8
0
100
AcDbBlockEnd
  0
BLOCK
  5
7D
330
79
100
AcDbEntity
  8
0
100
AcDbBlockBegin
  2
SEANNOT_GROUP3
 70
     0
 10
0.0
 20
0.0
 30
0.0
  3
SEANNOT_GROUP3
  1

  0
LINE
  5
7B
330
79
100
AcDbEntity
  8
Default
  6
CENTER2
 62
     7
100
AcDbLine
 10
369.0384581096
 20
448.7918555219
 30
0.0
 11
329.0384590037
 21
448.7918555219
 31
0.0
  0
LINE
  5
7C
330
79
100
AcDbEntity
  8
Default
  6
CENTER2
 62
     7
100
AcDbLine
 10
349.0384585566
 20
468.7918550749
 30
0.0
 11
349.0384585566
 21
428.7918559689
 31
0.0
  0
ENDBLK
  5
7E
330
79
100
AcDbEntity
  8
0
100
AcDbBlockEnd
  0
BLOCK
  5
83
330
7F
100
AcDbEntity
  8
0
100
AcDbBlockBegin
  2
SEANNOT_GROUP4
 70
     0
 10
0.0
 20
0.0
 30
0.0
  3
SEANNOT_GROUP4
  1

  0
LINE
  5
81
330
7F
100
AcDbEntity
  8
Default
  6
CENTER2
 62
     7
100
AcDbLine
 10
236.2884581096
 20
296.95
 30
0.0
 11
196.2884590037
 21
296.95
 31
0.0
  0
LINE
  5
82
330
7F
100
AcDbEntity
  8
Default
  6
CENTER2
 62
     7
100
AcDbLine
 10
216.2884585566
 20
316.9499995529
 30
0.0
 11
216.2884585566
 21
276.950000447
 31
0.0
  0
ENDBLK
  5
84
330
7F
100
AcDbEntity
  8
0
100
AcDbBlockEnd
  0
BLOCK
  5
89
330
85
100
AcDbEntity
  8
0
100
AcDbBlockBegin
  2
SEANNOT_GROUP5
 70
     0
 10
0.0
 20
0.0
 30
0.0
  3
SEANNOT_GROUP5
  1

  0
LINE
  5
87
330
85
100
AcDbEntity
  8
Default
  6
CENTER2
 62
     7
100
AcDbLine
 10
386.2884581096
 20
296.95
 30
0.0
 11
346.2884590037
 21
296.95
 31
0.0
  0
LINE
  5
88
330
85
100
AcDbEntity
  8
Default
  6
CENTER2
 62
     7
100
AcDbLine
 10
366.2884585566
 20
316.9499995529
 30
0.0
 11
366.2884585566
 21
276.950000447
 31
0.0
  0
ENDBLK
  5
8A
330
85
100
AcDbEntity
  8
0
100
AcDbBlockEnd
  0
BLOCK
  5
8F
330
8B
100
AcDbEntity
  8
0
100
AcDbBlockBegin
  2
SEANNOT_GROUP6
 70
     0
 10
0.0
 20
0.0
 30
0.0
  3
SEANNOT_GROUP6
  1

  0
LINE
  5
8D
330
8B
100
AcDbEntity
  8
Default
  6
CENTER2
 62
     7
100
AcDbLine
 10
625.6811322199
 20
475.3918555219
 30
0.0
 11
585.681133114
 21
475.3918555219
 31
0.0
  0
LINE
  5
8E
330
8B
100
AcDbEntity
  8
Default
  6
CENTER2
 62
     7
100
AcDbLine
 10
605.6811326669
 20
495.3918550749
 30
0.0
 11
605.6811326669
 21
455.3918559689
 31
0.0
  0
ENDBLK
  5
90
330
8B
100
AcDbEntity
  8
0
100
AcDbBlockEnd
  0
BLOCK
  5
97
330
93
100
AcDbEntity
  8
0
100
AcDbBlockBegin
  2
SEANNOT_GROUP7
 70
     0
 10
0.0
 20
0.0
 30
0.0
  3
SEANNOT_GROUP7
  1

  0
LINE
  5
95
330
93
100
AcDbEntity
  8
Default
  6
CENTER2
 62
     7
100
AcDbLine
 10
369.0384581096
 20
212.4483811122
 30
0.0
 11
329.0384590037
 21
212.4483811122
 31
0.0
  0
LINE
  5
96
330
93
100
AcDbEntity
  8
Default
  6
CENTER2
 62
     7
100
AcDbLine
 10
349.0384585566
 20
232.4483806652
 30
0.0
 11
349.0384585566
 21
192.4483815592
 31
0.0
  0
ENDBLK
  5
98
330
93
100
AcDbEntity
  8
0
100
AcDbBlockEnd
  0
BLOCK
  5
183
330
99
100
AcDbEntity
  8
0
100
AcDbBlockBegin
  2
SE
 70
     0
 10
0.0
 20
0.0
 30
0.0
  3
SE
  1

  0
LINE
  5
9C
330
99
100
AcDbEntity
  8
$DDT_AUDIT_GENERATED_(9B)
  6
Continuous
 62
     7
100
AcDbLine
 10
246.7884585566
 20
485.7881705259
 30
0.0
 11
291.2884585566
 21
485.7881705259
 31
0.0
  0
ARC
  5
9D
330
99
100
AcDbEntity
  8
$DDT_AUDIT_GENERATED_(9B)
  6
Continuous
 62
     7
100
AcDbCircle
 10
251.5838942913
 20
495.0547437559
 30
0.0
 40
13.67579379239748
100
AcDbArc
 50
188.2715902004
 51
199.6861777753
  0
ARC
  5
9E
330
99
100
AcDbEntity
  8
$DDT_AUDIT_GENERATED_(9B)
  6
Continuous
 62
     7
100
AcDbCircle
 10
244.6998831573
 20
492.6585633534
 30
0.0
 40
6.387253128270959
100
AcDbArc
 50
200.2502041953
 51
224.8471230878
  0
ARC
  5
9F
330
99
100
AcDbEntity
  8
$DDT_AUDIT_GENERATED_(9B)
  6
Continuous
 62
     7
100
AcDbCircle
 10
245.2134426853
 20
493.316678734
 30
0.0
 40
7.216232340959117
100
AcDbArc
 50
225.6762837422
 51
247.3300377066
  0
ARC
  5
A0
330
99
100
AcDbEntity
  8
$DDT_AUDIT_GENERATED_(9B)
  6
Continuous
 62
     7
100
AcDbCircle
 10
343.3570686921
 20
422.2750627852
 30
0.0
 40
119.712150283431
100
AcDbArc
 50
143.9865029131
 51
147.4650268277
  0
ARC
  5
A1
330
99
100
AcDbEntity
  8
$DDT_AUDIT_GENERATED_(9B)
  6
Continuous
 62
     7
100
AcDbCircle
 10
246.5983566318
 20
496.4883283182
 30
0.0
 40
10.6767621384309
100
AcDbArc
 50
247.032248019
 51
261.6350040766
  0
ARC
  5
A2
330
99
100
AcDbEntity
  8
$DDT_AUDIT_GENERATED_(9B)
  6
Continuous
 62
     7
100
AcDbCircle
 10
246.8170064557
 20
497.313612443
 30
0.0
 40
11.52547727283774
100
AcDbArc
 50
261.1564556406
 51
269.8580817293
  0
LINE
  5
A3
330
99
100
AcDbEntity
  8
$DDT_AUDIT_GENERATED_(9B)
  6
Continuous
 62
     7
100
AcDbLine
 10
238.0501176238
 20
493.0881152681
 30
0.0
 11
237.9987256446
 21
493.3850368639
 31
0.0
  0
LINE
  5
A4
330
99
100
AcDbEntity
  8
$DDT_AUDIT_GENERATED_(9B)
  6
Continuous
 62
     7
100
AcDbLine
 10
237.9987256446
 20
493.3850368639
 30
0.0
 11
237.7031251119
 21
495.2449241645
 31
0.0
  0
LINE
  5
A5
330
99
100
AcDbEntity
  8
$DDT_AUDIT_GENERATED_(9B)
  6
Continuous
 62
     7
100
AcDbLine
 10
237.3565750476
 20
497.6434600744
 30
0.0
 11
237.069163727
 21
499.7710835172
 31
0.0
  0
LINE
  5
A6
330
99
100
AcDbEntity
  8
$DDT_AUDIT_GENERATED_(9B)
  6
Continuous
 62
     7
100
AcDbLine
 10
236.5683138878
 20
503.6239859918
 30
0.0
 11
236.4480465405
 21
504.5166123183
 31
0.0
  0
ARC
  5
A7
330
99
100
AcDbEntity
  8
$DDT_AUDIT_GENERATED_(9B)
  6
Continuous
 62
     7
100
AcDbCircle
 10
105.034011289
 20
486.7224638391
 30
0.0
 40
132.6132737744421
100
AcDbArc
 50
7.7112492859
 51
8.7836478181
  0
ARC
  5
A8
330
99
100
AcDbEntity
  8
$DDT_AUDIT_GENERATED_(9B)
  6
Continuous
 62
     7
100
AcDbCircle
 10
162.5254159169
 20
495.6529862038
 30
0.0
 40
74.43241814429568
100
AcDbArc
 50
8.7477536081
 51
10.4199286068
  0
LINE
  5
A9
330
99
100
AcDbEntity
  8
$DDT_AUDIT_GENERATED_(9B)
  6
Continuous
 62
     7
100
AcDbLine
 10
235.7303095788
 20
509.1149266155
 30
0.0
 11
235.6138331564
 21
509.7165794502
 31
0.0
  0
LINE
  5
AA
330
99
100
AcDbEntity
  8
$DDT_AUDIT_GENERATED_(9B)
  6
Continuous
 62
     7
100
AcDbLine
 10
235.1128582688
 20
511.7390319955
 30
0.0
 11
234.8222789554
 21
512.4836029026
 31
0.0
  0
LINE
  5
AB
330
99
100
AcDbEntity
  8
$DDT_AUDIT_GENERATED_(9B)
  6
Continuous
 62
     7
100
AcDbLine
 10
234.5273724905
 20
512.9745721854
 30
0.0
 11
234.3518344846
 21
513.1634892138
 31
0.0
  0
LINE
  5
AC
330
99
100
AcDbEntity
  8
$DDT_AUDIT_GENERATED_(9B)
  6
Continuous
 62
     7
100
AcDbLine
 10
234.1822243501
 20
513.2849174757
 30
0.0
 11
234.0198291915
 21
513.3537291289
 31
0.0
  0
LINE
  5
AD
330
99
100
AcDbEntity
  8
$DDT_AUDIT_GENERATED_(9B)
  6
Continuous
 62
     7
100
AcDbLine
 10
161.2884585566
 20
513.3881705259
 30
0.0
 11
233.7884585567
 21
513.3881705259
 31
0.0
  0
SPLINE
  5
AE
330
99
100
AcDbEntity
  8
$DDT_AUDIT_GENERATED_(9B)
  6
Continuous
 62
     7
100
AcDbSpline
210
0.0
220
0.0
230
1.0
 70
     8
 71
     3
 72
    35
 73
    31
 74
     0
 42
0.0000000187630668
 43
0.0000000001
 40
0.0
 40
0.0
 40
0.0
 40
0.0
 40
0.007661539292731
 40
0.007661539292731
 40
0.007661539292731
 40
0.0193738140695958
 40
0.0193738140695958
 40
0.0193738140695958
 40
0.0347185357003981
 40
0.0347185357003981
 40
0.0347185357003981
 40
0.0690891966084175
 40
0.0690891966084175
 40
0.0690891966084175
 40
0.3482115284506827
 40
0.3482115284506827
 40
0.3482115284506827
 40
0.5994729764759853
 40
0.5994729764759853
 40
0.5994729764759853
 40
0.7467302759663886
 40
0.7467302759663886
 40
0.7467302759663886
 40
0.8597774818062272
 40
0.8597774818062272
 40
0.8597774818062272
 40
0.9428332910671956
 40
0.9428332910671956
 40
0.9428332910671956
 40
1.0
 40
1.0
 40
1.0
 40
1.0
 10
234.3518682732899
 20
513.1634899256434
 30
0.0
 10
234.3551008061804
 20
513.1634899709178
 30
0.0
 10
234.3583903342318
 20
513.1635451627126
 30
0.0
 10
234.3615597863048
 20
513.1636529136019
 30
0.0
 10
234.3664290941755
 20
513.1638184539671
 30
0.0
 10
234.3711080256632
 20
513.1641124301302
 30
0.0
 10
234.3753354978788
 20
513.164480713755
 30
0.0
 10
234.380880609806
 20
513.1649637858643
 30
0.0
 10
234.3858236354133
 20
513.1655792688226
 30
0.0
 10
234.3902451391057
 20
513.1662408437315
 30
0.0
 10
234.4001088120423
 20
513.1677167123447
 30
0.0
 10
234.4078368522437
 20
513.1694436070909
 30
0.0
 10
234.4146567316003
 20
513.1711882903516
 30
0.0
 10
234.4688604415821
 20
513.1850548560963
 30
0.0
 10
234.4886161371656
 20
513.2003742913837
 30
0.0
 10
234.5018871187913
 20
513.2143056757964
 30
0.0
 10
234.513839093229
 20
513.2268524153728
 30
0.0
 10
234.5149898515428
 20
513.2390668493555
 30
0.0
 10
234.4954404130838
 20
513.2501273810427
 30
0.0
 10
234.4839460196379
 20
513.2566305910044
 30
0.0
 10
234.4647202810438
 20
513.262857312981
 30
0.0
 10
234.4347719162702
 20
513.2682544185849
 30
0.0
 10
234.4117973942464
 20
513.2723947421885
 30
0.0
 10
234.3816575894735
 20
513.2761494760246
 30
0.0
 10
234.345063410143
 20
513.2790207156781
 30
0.0
 10
234.3180743346905
 20
513.2811383230427
 30
0.0
 10
234.2867475751051
 20
513.2828332699445
 30
0.0
 10
234.2535022712277
 20
513.283841969361
 30
0.0
 10
234.2306153506717
 20
513.2845363839314
 30
0.0
 10
234.2062949615844
 20
513.2849218118698
 30
0.0
 10
234.1822243501692
 20
513.2849174756458
 30
0.0
  0
ARC
  5
AF
330
99
100
AcDbEntity
  8
$DDT_AUDIT_GENERATED_(9B)
  6
Continuous
 62
     7
100
AcDbCircle
 10
235.3747962537
 20
491.3385333358
 30
0.0
 40
22.05685338407991
100
AcDbArc
 50
88.0437221885
 51
93.5219349913
  0
ARC
  5
B0
330
99
100
AcDbEntity
  8
$DDT_AUDIT_GENERATED_(9B)
  6
Continuous
 62
     7
100
AcDbCircle
 10
206.6863583242
 20
491.9919621148
 30
0.0
 40
31.1866028124191
100
AcDbArc
 50
5.987135088
 51
10.4405587243
  0
ARC
  5
B1
330
99
100
AcDbEntity
  8
$DDT_AUDIT_GENERATED_(9B)
  6
Continuous
 62
     7
100
AcDbCircle
 10
211.7330658496
 20
498.4362173789
 30
0.0
 40
25.37134511981138
100
AcDbArc
 50
3.0159291938
 51
11.7986924845
  0
ARC
  5
B2
330
99
100
AcDbEntity
  8
$DDT_AUDIT_GENERATED_(9B)
  6
Continuous
 62
     7
100
AcDbCircle
 10
231.9829368634
 20
509.8901261313
 30
0.0
 40
3.635192412261524
100
AcDbArc
 50
357.2637955822
 51
30.5714526882
  0
SPLINE
  5
B3
330
99
100
AcDbEntity
  8
$DDT_AUDIT_GENERATED_(9B)
  6
Continuous
 62
     7
100
AcDbSpline
210
0.0
220
0.0
230
1.0
 70
     8
 71
     3
 72
    59
 73
    55
 74
     0
 42
0.0000000157404883
 43
0.0000000001
 40
0.0
 40
0.0
 40
0.0
 40
0.0
 40
0.0003785238560736
 40
0.0003785238560736
 40
0.0003785238560736
 40
0.0010418396268264
 40
0.0010418396268264
 40
0.0010418396268264
 40
0.0019977119343206
 40
0.0019977119343206
 40
0.0019977119343206
 40
0.0032472011617735
 40
0.0032472011617735
 40
0.0032472011617735
 40
0.0057906407125168
 40
0.0057906407125168
 40
0.0057906407125168
 40
0.0084558953908945
 40
0.0084558953908945
 40
0.0084558953908945
 40
0.0122759276777786
 40
0.0122759276777786
 40
0.0122759276777786
 40
0.0178260515166899
 40
0.0178260515166899
 40
0.0178260515166899
 40
0.026053388791224
 40
0.026053388791224
 40
0.026053388791224
 40
0.0383233946750491
 40
0.0383233946750491
 40
0.0383233946750491
 40
0.0755621045046957
 40
0.0755621045046957
 40
0.0755621045046957
 40
0.471287870639259
 40
0.471287870639259
 40
0.471287870639259
 40
0.8681157642433479
 40
0.8681157642433479
 40
0.8681157642433479
 40
0.9675362338384024
 40
0.9675362338384024
 40
0.9675362338384024
 40
0.9931286633364497
 40
0.9931286633364497
 40
0.9931286633364497
 40
0.9953103788286866
 40
0.9953103788286866
 40
0.9953103788286866
 40
0.9986314178344189
 40
0.9986314178344189
 40
0.9986314178344189
 40
1.0
 40
1.0
 40
1.0
 40
1.0
 10
234.8222812838004
 20
512.4836679423763
 30
0.0
 10
234.8225654940149
 20
512.4837355905404
 30
0.0
 10
234.8228429297721
 20
512.48374433002
 30
0.0
 10
234.8231127090949
 20
512.4837606366783
 30
0.0
 10
234.8235860896274
 20
512.4837892498964
 30
0.0
 10
234.8240442664444
 20
512.4838421705697
 30
0.0
 10
234.8244592160155
 20
512.483910407463
 30
0.0
 10
234.8250560635097
 20
512.4840085567844
 30
0.0
 10
234.8255833453578
 20
512.4841394809583
 30
0.0
 10
234.8260446788565
 20
512.4842817038655
 30
0.0
 10
234.8266493646442
 20
512.4844681203534
 30
0.0
 10
234.8271589665791
 20
512.484677782857
 30
0.0
 10
234.8276092727806
 20
512.484894016467
 30
0.0
 10
234.8285244629576
 20
512.485333483823
 30
0.0
 10
234.8292178392604
 20
512.4858068811884
 30
0.0
 10
234.829817022063
 20
512.4862845116387
 30
0.0
 10
234.8304460901423
 20
512.4867859647323
 30
0.0
 10
234.8309666180249
 20
512.4872974415364
 30
0.0
 10
234.8314280010718
 20
512.4878117367724
 30
0.0
 10
234.8320893440829
 20
512.4885489237197
 30
0.0
 10
234.8326285638717
 20
512.4892938932584
 30
0.0
 10
234.8331015634006
 20
512.4900407639308
 30
0.0
 10
234.8337888066098
 20
512.4911259273748
 30
0.0
 10
234.8343347923305
 20
512.4922168412645
 30
0.0
 10
234.8348043860817
 20
512.4933085383798
 30
0.0
 10
234.8355005032829
 20
512.4949268502471
 30
0.0
 10
234.8360266298114
 20
512.4965484962158
 30
0.0
 10
234.8364615267084
 20
512.4981691388982
 30
0.0
 10
234.8371101209234
 20
512.5005861243392
 30
0.0
 10
234.8375527367078
 20
512.5030024348531
 30
0.0
 10
234.8378851547527
 20
512.5054143947873
 30
0.0
 10
234.8388937764315
 20
512.5127327552536
 30
0.0
 10
234.8389479499206
 20
512.5200157056714
 30
0.0
 10
234.8386920549653
 20
512.5272493013189
 30
0.0
 10
234.8359778116791
 20
512.6039750749874
 30
0.0
 10
234.8095899196069
 20
512.6755740186995
 30
0.0
 10
234.7772184537996
 20
512.7417908196429
 30
0.0
 10
234.744772258173
 20
512.8081604826656
 30
0.0
 10
234.7052739164434
 20
512.8695323656226
 30
0.0
 10
234.6354614007444
 20
512.9245373236073
 30
0.0
 10
234.6179457153132
 20
512.9383378510853
 30
0.0
 10
234.5998086472746
 20
512.9519381689943
 30
0.0
 10
234.5700395079934
 20
512.9643464026456
 30
0.0
 10
234.5623833563753
 20
512.9675376040186
 30
0.0
 10
234.5544320246511
 20
512.9708788297717
 30
0.0
 10
234.5408842945915
 20
512.9732640694687
 30
0.0
 10
234.5396903084302
 20
512.9734742849937
 30
0.0
 10
234.5384321510451
 20
512.9736733575094
 30
0.0
 10
234.5370960409271
 20
512.9738517401628
 30
0.0
 10
234.5350847107636
 20
512.9741202707328
 30
0.0
 10
234.5328321003982
 20
512.9743500277569
 30
0.0
 10
234.5304270394836
 20
512.9744621496809
 30
0.0
 10
234.5294306648607
 20
512.9745085998306
 30
0.0
 10
234.528396998769
 20
512.9745341881123
 30
0.0
 10
234.5273708727065
 20
512.9745534709515
 30
0.0
  0
LINE
  5
B4
330
99
100
AcDbEntity
  8
$DDT_AUDIT_GENERATED_(9B)
  6
Continuous
 62
     7
100
AcDbLine
 10
160.7884585566
 20
512.8881705259
 30
0.0
 11
160.7884585566
 21
466.6889170357
 31
0.0
  0
LINE
  5
B5
330
99
100
AcDbEntity
  8
$DDT_AUDIT_GENERATED_(9B)
  6
Continuous
 62
     7
100
AcDbLine
 10
160.7884585566
 20
466.6889170357
 30
0.0
 11
160.7884585566
 21
454.6438369585
 31
0.0
  0
ARC
  5
B6
330
99
100
AcDbEntity
  8
$DDT_AUDIT_GENERATED_(9B)
  6
Continuous
 62
     7
100
AcDbCircle
 10
161.2884585566
 20
512.8881705259
 30
0.0
 40
0.5000000000000004
100
AcDbArc
 50
90.0
 51
180.0
  0
LINE
  5
B7
330
99
100
AcDbEntity
  8
$DDT_AUDIT_GENERATED_(9B)
  6
Continuous
 62
     7
100
AcDbLine
 10
160.7884585566
 20
454.6438369585
 30
0.0
 11
160.7884585566
 21
454.6267998716
 31
0.0
  0
LINE
  5
B8
330
99
100
AcDbEntity
  8
$DDT_AUDIT_GENERATED_(9B)
  6
Continuous
 62
     7
100
AcDbLine
 10
246.7884585566
 20
492.5881705259
 30
0.0
 11
335.7884585566
 21
492.5881705259
 31
0.0
  0
ARC
  5
B9
330
99
100
AcDbEntity
  8
$DDT_AUDIT_GENERATED_(9B)
  6
Continuous
 62
     7
100
AcDbCircle
 10
246.7884585566
 20
493.0881705259
 30
0.0
 40
0.4999999999999935
100
AcDbArc
 50
180.0
 51
270.0
  0
LINE
  5
BA
330
99
100
AcDbEntity
  8
$DDT_AUDIT_GENERATED_(9B)
  6
Continuous
 62
     7
100
AcDbLine
 10
246.7884585566
 20
513.3881705259
 30
0.0
 11
335.7884585566
 21
513.3881705259
 31
0.0
  0
LINE
  5
BB
330
99
100
AcDbEntity
  8
$DDT_AUDIT_GENERATED_(9B)
  6
Continuous
 62
     7
100
AcDbLine
 10
246.2884585566
 20
512.8881705259
 30
0.0
 11
246.2884585566
 21
493.0881705259
 31
0.0
  0
LINE
  5
BC
330
99
100
AcDbEntity
  8
$DDT_AUDIT_GENERATED_(9B)
  6
Continuous
 62
     7
100
AcDbLine
 10
234.0843877146
 20
513.3881705259
 30
0.0
 11
233.7884585567
 21
513.3881705259
 31
0.0
  0
LINE
  5
BD
330
99
100
AcDbEntity
  8
$DDT_AUDIT_GENERATED_(9B)
  6
Continuous
 62
     7
100
AcDbLine
 10
246.7884585566
 20
513.3881705259
 30
0.0
 11
246.2884585566
 21
513.3881705259
 31
0.0
  0
SPLINE
  5
BE
330
99
100
AcDbEntity
  8
$DDT_AUDIT_GENERATED_(9B)
  6
Continuous
 62
     7
100
AcDbSpline
210
0.0
220
0.0
230
1.0
 70
     8
 71
     3
 72
    10
 73
     6
 74
     0
 42
0.0000000006544418
 43
0.0000000001
 40
0.0
 40
0.0
 40
0.0
 40
0.0
 40
0.2500000000000001
 40
0.2500000000000001
 40
0.4764193630032524
 40
0.4764193630032524
 40
0.4764193630032524
 40
0.4764193630032524
 10
234.8816445690783
 20
513.3881030533196
 30
0.0
 10
236.3416623486816
 20
513.3880772437664
 30
0.0
 10
237.7752110645145
 20
513.3880541348407
 30
0.0
 10
240.2212558108835
 20
513.3872456710891
 30
0.0
 10
241.2683070951325
 20
513.3867019193281
 30
0.0
 10
242.1614231108614
 20
513.3841792704662
 30
0.0
  0
SPLINE
  5
BF
330
99
100
AcDbEntity
  8
$DDT_AUDIT_GENERATED_(9B)
  6
Continuous
 62
     7
100
AcDbSpline
210
0.0
220
0.0
230
1.0
 70
     8
 71
     3
 72
    12
 73
     8
 74
     0
 42
0.0000000013878673
 43
0.0000000001
 40
0.4764193630032524
 40
0.4764193630032524
 40
0.4764193630032524
 40
0.4764193630032524
 40
0.5000000000000001
 40
0.5000000000000001
 40
0.75
 40
0.75
 40
1.0
 40
1.0
 40
1.0
 40
1.0
 10
242.1614231108614
 20
513.3841792704662
 30
0.0
 10
242.2544374373904
 20
513.3839165470565
 30
0.0
 10
242.34578212688
 20
513.3836323598202
 30
0.0
 10
243.385680266278
 20
513.3800623771273
 30
0.0
 10
244.1492127166541
 20
513.375350939009
 30
0.0
 10
245.2980961247047
 20
513.3358910535386
 30
0.0
 10
245.6766687224835
 20
513.2972009686115
 30
0.0
 10
245.9169804567751
 20
513.2129911546319
 30
0.0
  0
LINE
  5
C0
330
99
100
AcDbEntity
  8
$DDT_AUDIT_GENERATED_(9B)
  6
Continuous
 62
     7
100
AcDbLine
 10
246.2884585566
 20
513.3881705259
 30
0.0
 11
234.0843877146
 21
513.3881705259
 31
0.0
  0
ARC
  5
C1
330
99
100
AcDbEntity
  8
$DDT_AUDIT_GENERATED_(9B)
  6
Continuous
 62
     7
100
AcDbCircle
 10
246.7884585566
 20
512.8881705259
 30
0.0
 40
0.5000000000000004
100
AcDbArc
 50
90.0
 51
180.0
  0
SPLINE
  5
C2
330
99
100
AcDbEntity
  8
$DDT_AUDIT_GENERATED_(9B)
  6
Continuous
 62
     7
100
AcDbSpline
210
0.0
220
0.0
230
1.0
 70
     8
 71
     3
 72
     8
 73
     4
 74
     0
 42
0.000000012543009
 43
0.0000000001
 40
0.0
 40
0.0
 40
0.0
 40
0.0
 40
1.0
 40
1.0
 40
1.0
 40
1.0
 10
234.8816445690783
 20
513.3881030533196
 30
0.0
 10
234.6168241209877
 20
513.3881742303824
 30
0.0
 10
234.3507497158826
 20
513.3881705258908
 30
0.0
 10
234.0843877145742
 20
513.3881705258908
 30
0.0
  0
ARC
  5
C3
330
99
100
AcDbEntity
  8
$DDT_AUDIT_GENERATED_(9B)
  6
Continuous
 62
     7
100
AcDbCircle
 10
335.7884585566
 20
512.8881705259
 30
0.0
 40
0.5000000000000004
100
AcDbArc
 50
0.0
 51
90.0
  0
ARC
  5
C4
330
99
100
AcDbEntity
  8
$DDT_AUDIT_GENERATED_(9B)
  6
Continuous
 62
     7
100
AcDbCircle
 10
335.7884585566
 20
493.0881705259
 30
0.0
 40
0.4999999999999935
100
AcDbArc
 50
270.0
 51
0.0
  0
SPLINE
  5
C5
330
99
100
AcDbEntity
  8
$DDT_AUDIT_GENERATED_(9B)
  6
Continuous
 62
     7
100
AcDbSpline
210
0.0
220
0.0
230
1.0
 70
     8
 71
     3
 72
     8
 73
     4
 74
     0
 42
0.000000012543009
 43
0.0000000001
 40
0.0
 40
0.0
 40
0.0
 40
0.0
 40
1.0
 40
1.0
 40
1.0
 40
1.0
 10
347.6952725442143
 20
513.3881030533196
 30
0.0
 10
347.9600929923047
 20
513.3881742303824
 30
0.0
 10
348.2261673974087
 20
513.3881705258913
 30
0.0
 10
348.4925293987184
 20
513.3881705258908
 30
0.0
  0
SPLINE
  5
C6
330
99
100
AcDbEntity
  8
$DDT_AUDIT_GENERATED_(9B)
  6
Continuous
 62
     7
100
AcDbSpline
210
0.0
220
0.0
230
1.0
 70
     8
 71
     3
 72
    10
 73
     6
 74
     0
 42
0.000000000653849
 43
0.0000000001
 40
0.0
 40
0.0
 40
0.0
 40
0.0
 40
0.2500000000000001
 40
0.2500000000000001
 40
0.4745026500524985
 40
0.4745026500524985
 40
0.4745026500524985
 40
0.4745026500524985
 10
347.6952725442143
 20
513.3881030533196
 30
0.0
 10
346.2352547646111
 20
513.3880772437664
 30
0.0
 10
344.8017060487781
 20
513.3880541348407
 30
0.0
 10
342.3655021401407
 20
513.3872489236708
 30
0.0
 10
341.3263455443654
 20
513.3867111139641
 30
0.0
 10
340.4382086184373
 20
513.3842429112458
 30
0.0
  0
SPLINE
  5
C7
330
99
100
AcDbEntity
  8
$DDT_AUDIT_GENERATED_(9B)
  6
Continuous
 62
     7
100
AcDbSpline
210
0.0
220
0.0
230
1.0
 70
     8
 71
     3
 72
    12
 73
     8
 74
     0
 42
0.0000000013846112
 43
0.0000000001
 40
0.4745026500524985
 40
0.4745026500524985
 40
0.4745026500524985
 40
0.4745026500524985
 40
0.5000000000000001
 40
0.5000000000000001
 40
0.75
 40
0.75
 40
1.0
 40
1.0
 40
1.0
 40
1.0
 10
340.4382086184373
 20
513.3842429112458
 30
0.0
 10
340.3373405975191
 20
513.3839625910427
 30
0.0
 10
340.2384205394151
 20
513.3836573712103
 30
0.0
 10
339.1912368470147
 20
513.3800623771273
 30
0.0
 10
338.4277043966385
 20
513.375350939009
 30
0.0
 10
337.278820988588
 20
513.3358910535386
 30
0.0
 10
336.9002483908091
 20
513.2972009686115
 30
0.0
 10
336.6599366565175
 20
513.2129911546319
 30
0.0
  0
LINE
  5
C8
330
99
100
AcDbEntity
  8
$DDT_AUDIT_GENERATED_(9B)
  6
Continuous
 62
     7
100
AcDbLine
 10
344.5267994895
 20
493.0881152681
 30
0.0
 11
344.5781914686
 21
493.3850368639
 31
0.0
  0
LINE
  5
C9
330
99
100
AcDbEntity
  8
$DDT_AUDIT_GENERATED_(9B)
  6
Continuous
 62
     7
100
AcDbLine
 10
344.5781914686
 20
493.3850368639
 30
0.0
 11
344.8737920014
 21
495.2449241645
 31
0.0
  0
ARC
  5
CA
330
99
100
AcDbEntity
  8
$DDT_AUDIT_GENERATED_(9B)
  6
Continuous
 62
     7
100
AcDbCircle
 10
375.8905587891
 20
491.9919621148
 30
0.0
 40
31.1866028124191
100
AcDbArc
 50
169.5594412757
 51
174.012864912
  0
LINE
  5
CB
330
99
100
AcDbEntity
  8
$DDT_AUDIT_GENERATED_(9B)
  6
Continuous
 62
     7
100
AcDbLine
 10
345.2203420657
 20
497.6434600744
 30
0.0
 11
345.5077533863
 21
499.7710835172
 31
0.0
  0
ARC
  5
CC
330
99
100
AcDbEntity
  8
$DDT_AUDIT_GENERATED_(9B)
  6
Continuous
 62
     7
100
AcDbCircle
 10
370.8438512637
 20
498.4362173789
 30
0.0
 40
25.37134511981139
100
AcDbArc
 50
168.2013075155
 51
176.9840708062
  0
LINE
  5
CD
330
99
100
AcDbEntity
  8
$DDT_AUDIT_GENERATED_(9B)
  6
Continuous
 62
     7
100
AcDbLine
 10
346.0086032255
 20
503.6239859918
 30
0.0
 11
346.1288705728
 21
504.5166123183
 31
0.0
  0
ARC
  5
CE
330
99
100
AcDbEntity
  8
$DDT_AUDIT_GENERATED_(9B)
  6
Continuous
 62
     7
100
AcDbCircle
 10
485.4068379292
 20
485.5826054988
 30
0.0
 40
140.5590580687919
100
AcDbArc
 50
171.2466642642
 51
172.2584386318
  0
ARC
  5
CF
330
99
100
AcDbEntity
  8
$DDT_AUDIT_GENERATED_(9B)
  6
Continuous
 62
     7
100
AcDbCircle
 10
399.8950006946
 20
499.056356078
 30
0.0
 40
53.99361233440152
100
AcDbArc
 50
169.2635410069
 51
171.5687767781
  0
LINE
  5
D0
330
99
100
AcDbEntity
  8
$DDT_AUDIT_GENERATED_(9B)
  6
Continuous
 62
     7
100
AcDbLine
 10
346.8466075345
 20
509.1149266155
 30
0.0
 11
346.9630839569
 21
509.7165794502
 31
0.0
  0
ARC
  5
D1
330
99
100
AcDbEntity
  8
$DDT_AUDIT_GENERATED_(9B)
  6
Continuous
 62
     7
100
AcDbCircle
 10
350.5939802499
 20
509.8901261313
 30
0.0
 40
3.635192412261524
100
AcDbArc
 50
149.4285473118
 51
182.7362044178
  0
LINE
  5
D2
330
99
100
AcDbEntity
  8
$DDT_AUDIT_GENERATED_(9B)
  6
Continuous
 62
     7
100
AcDbLine
 10
347.4640588445
 20
511.7390319955
 30
0.0
 11
347.7546381579
 21
512.4836029026
 31
0.0
  0
SPLINE
  5
D3
330
99
100
AcDbEntity
  8
$DDT_AUDIT_GENERATED_(9B)
  6
Continuous
 62
     7
100
AcDbSpline
210
0.0
220
0.0
230
1.0
 70
     8
 71
     3
 72
    59
 73
    55
 74
     0
 42
0.0000000157404883
 43
0.0000000001
 40
0.0
 40
0.0
 40
0.0
 40
0.0
 40
0.0003785238560736
 40
0.0003785238560736
 40
0.0003785238560736
 40
0.0010418396268264
 40
0.0010418396268264
 40
0.0010418396268264
 40
0.0019977119343206
 40
0.0019977119343206
 40
0.0019977119343206
 40
0.0032472011617735
 40
0.0032472011617735
 40
0.0032472011617735
 40
0.0057906407125168
 40
0.0057906407125168
 40
0.0057906407125168
 40
0.0084558953908945
 40
0.0084558953908945
 40
0.0084558953908945
 40
0.0122759276777786
 40
0.0122759276777786
 40
0.0122759276777786
 40
0.0178260515166899
 40
0.0178260515166899
 40
0.0178260515166899
 40
0.026053388791224
 40
0.026053388791224
 40
0.026053388791224
 40
0.0383233946750491
 40
0.0383233946750491
 40
0.0383233946750491
 40
0.0755621045046957
 40
0.0755621045046957
 40
0.0755621045046957
 40
0.471287870639259
 40
0.471287870639259
 40
0.471287870639259
 40
0.8681157642433479
 40
0.8681157642433479
 40
0.8681157642433479
 40
0.9675362338384024
 40
0.9675362338384024
 40
0.9675362338384024
 40
0.9931286633364497
 40
0.9931286633364497
 40
0.9931286633364497
 40
0.9953103788286866
 40
0.9953103788286866
 40
0.9953103788286866
 40
0.9986314178344189
 40
0.9986314178344189
 40
0.9986314178344189
 40
1.0
 40
1.0
 40
1.0
 40
1.0
 10
347.7546358294923
 20
512.4836679423763
 30
0.0
 10
347.7543516192778
 20
512.4837355905404
 30
0.0
 10
347.7540741835205
 20
512.48374433002
 30
0.0
 10
347.7538044041978
 20
512.4837606366783
 30
0.0
 10
347.7533310236652
 20
512.4837892498964
 30
0.0
 10
347.7528728468483
 20
512.4838421705697
 30
0.0
 10
347.7524578972771
 20
512.483910407463
 30
0.0
 10
347.751861049783
 20
512.4840085567844
 30
0.0
 10
347.7513337679349
 20
512.4841394809583
 30
0.0
 10
347.7508724344361
 20
512.4842817038655
 30
0.0
 10
347.7502677486485
 20
512.4844681203534
 30
0.0
 10
347.7497581467135
 20
512.484677782857
 30
0.0
 10
347.7493078405121
 20
512.484894016467
 30
0.0
 10
347.748392650335
 20
512.485333483823
 30
0.0
 10
347.7476992740322
 20
512.4858068811884
 30
0.0
 10
347.7471000912296
 20
512.4862845116387
 30
0.0
 10
347.7464710231504
 20
512.4867859647323
 30
0.0
 10
347.7459504952677
 20
512.4872974415364
 30
0.0
 10
347.7454891122208
 20
512.4878117367724
 30
0.0
 10
347.7448277692098
 20
512.4885489237197
 30
0.0
 10
347.744288549421
 20
512.4892938932584
 30
0.0
 10
347.743815549892
 20
512.4900407639308
 30
0.0
 10
347.7431283066828
 20
512.4911259273748
 30
0.0
 10
347.7425823209621
 20
512.4922168412645
 30
0.0
 10
347.742112727211
 20
512.4933085383798
 30
0.0
 10
347.7414166100097
 20
512.4949268502471
 30
0.0
 10
347.7408904834812
 20
512.4965484962158
 30
0.0
 10
347.7404555865842
 20
512.4981691388982
 30
0.0
 10
347.7398069923692
 20
512.5005861243392
 30
0.0
 10
347.7393643765848
 20
512.5030024348531
 30
0.0
 10
347.73903195854
 20
512.5054143947873
 30
0.0
 10
347.7380233368611
 20
512.5127327552536
 30
0.0
 10
347.7379691633721
 20
512.5200157056714
 30
0.0
 10
347.7382250583273
 20
512.5272493013189
 30
0.0
 10
347.7409393016135
 20
512.6039750749874
 30
0.0
 10
347.7673271936857
 20
512.6755740186995
 30
0.0
 10
347.799698659493
 20
512.7417908196429
 30
0.0
 10
347.8321448551197
 20
512.8081604826656
 30
0.0
 10
347.8716431968493
 20
512.8695323656226
 30
0.0
 10
347.9414557125482
 20
512.9245373236073
 30
0.0
 10
347.9589713979794
 20
512.9383378510853
 30
0.0
 10
347.977108466018
 20
512.9519381689943
 30
0.0
 10
348.0068776052992
 20
512.9643464026456
 30
0.0
 10
348.0145337569173
 20
512.9675376040186
 30
0.0
 10
348.0224850886416
 20
512.9708788297717
 30
0.0
 10
348.0360328187011
 20
512.9732640694687
 30
0.0
 10
348.0372268048624
 20
512.9734742849937
 30
0.0
 10
348.0384849622475
 20
512.9736733575094
 30
0.0
 10
348.0398210723656
 20
512.9738517401628
 30
0.0
 10
348.0418324025291
 20
512.9741202707328
 30
0.0
 10
348.0440850128945
 20
512.9743500277569
 30
0.0
 10
348.0464900738091
 20
512.9744621496809
 30
0.0
 10
348.047486448432
 20
512.9745085998306
 30
0.0
 10
348.0485201145236
 20
512.9745341881123
 30
0.0
 10
348.0495462405862
 20
512.9745534709515
 30
0.0
  0
LINE
  5
D4
330
99
100
AcDbEntity
  8
$DDT_AUDIT_GENERATED_(9B)
  6
Continuous
 62
     7
100
AcDbLine
 10
348.0495446228
 20
512.9745721854
 30
0.0
 11
348.2250826287
 21
513.1634892138
 31
0.0
  0
SPLINE
  5
D5
330
99
100
AcDbEntity
  8
$DDT_AUDIT_GENERATED_(9B)
  6
Continuous
 62
     7
100
AcDbSpline
210
0.0
220
0.0
230
1.0
 70
     8
 71
     3
 72
    35
 73
    31
 74
     0
 42
0.0000000187630668
 43
0.0000000001
 40
0.0
 40
0.0
 40
0.0
 40
0.0
 40
0.007661539292731
 40
0.007661539292731
 40
0.007661539292731
 40
0.0193738140695958
 40
0.0193738140695958
 40
0.0193738140695958
 40
0.0347185357003981
 40
0.0347185357003981
 40
0.0347185357003981
 40
0.0690891966084175
 40
0.0690891966084175
 40
0.0690891966084175
 40
0.3482115284506827
 40
0.3482115284506827
 40
0.3482115284506827
 40
0.5994729764759853
 40
0.5994729764759853
 40
0.5994729764759853
 40
0.7467302759663886
 40
0.7467302759663886
 40
0.7467302759663886
 40
0.8597774818062272
 40
0.8597774818062272
 40
0.8597774818062272
 40
0.9428332910671956
 40
0.9428332910671956
 40
0.9428332910671956
 40
1.0
 40
1.0
 40
1.0
 40
1.0
 10
348.2250488400027
 20
513.1634899256434
 30
0.0
 10
348.2218163071122
 20
513.1634899709178
 30
0.0
 10
348.2185267790609
 20
513.1635451627126
 30
0.0
 10
348.2153573269879
 20
513.1636529136019
 30
0.0
 10
348.2104880191172
 20
513.1638184539671
 30
0.0
 10
348.2058090876295
 20
513.1641124301302
 30
0.0
 10
348.2015816154138
 20
513.164480713755
 30
0.0
 10
348.1960365034867
 20
513.1649637858643
 30
0.0
 10
348.1910934778793
 20
513.1655792688226
 30
0.0
 10
348.1866719741869
 20
513.1662408437315
 30
0.0
 10
348.1768083012504
 20
513.1677167123447
 30
0.0
 10
348.169080261049
 20
513.1694436070909
 30
0.0
 10
348.1622603816924
 20
513.1711882903516
 30
0.0
 10
348.1080566717106
 20
513.1850548560963
 30
0.0
 10
348.088300976127
 20
513.2003742913837
 30
0.0
 10
348.0750299945013
 20
513.2143056757964
 30
0.0
 10
348.0630780200637
 20
513.2268524153728
 30
0.0
 10
348.0619272617499
 20
513.2390668493555
 30
0.0
 10
348.0814767002088
 20
513.2501273810427
 30
0.0
 10
348.0929710936547
 20
513.2566305910044
 30
0.0
 10
348.1121968322489
 20
513.262857312981
 30
0.0
 10
348.1421451970224
 20
513.2682544185849
 30
0.0
 10
348.1651197190462
 20
513.2723947421885
 30
0.0
 10
348.1952595238192
 20
513.2761494760246
 30
0.0
 10
348.2318537031496
 20
513.2790207156781
 30
0.0
 10
348.2588427786021
 20
513.2811383230427
 30
0.0
 10
348.2901695381876
 20
513.2828332699445
 30
0.0
 10
348.3234148420649
 20
513.283841969361
 30
0.0
 10
348.3463017626209
 20
513.2845363839314
 30
0.0
 10
348.3706221517083
 20
513.2849218118698
 30
0.0
 10
348.3946927631234
 20
513.2849174756458
 30
0.0
  0
LINE
  5
D6
330
99
100
AcDbEntity
  8
$DDT_AUDIT_GENERATED_(9B)
  6
Continuous
 62
     7
100
AcDbLine
 10
348.3946927632
 20
513.2849174757
 30
0.0
 11
348.5570879218
 21
513.3537291289
 31
0.0
  0
ARC
  5
D7
330
99
100
AcDbEntity
  8
$DDT_AUDIT_GENERATED_(9B)
  6
Continuous
 62
     7
100
AcDbCircle
 10
347.2021122147
 20
491.3385338678
 30
0.0
 40
22.05685338407991
100
AcDbArc
 50
86.4780425098
 51
91.9562554772
  0
LINE
  5
D8
330
99
100
AcDbEntity
  8
$DDT_AUDIT_GENERATED_(9B)
  6
Continuous
 62
     7
100
AcDbLine
 10
336.2884585566
 20
513.3881705259
 30
0.0
 11
348.4925293987
 21
513.3881705259
 31
0.0
  0
ARC
  5
D9
330
99
100
AcDbEntity
  8
$DDT_AUDIT_GENERATED_(9B)
  6
Continuous
 62
     7
100
AcDbCircle
 10
239.2198484212
 20
422.2750627852
 30
0.0
 40
119.7121502834276
100
AcDbArc
 50
32.5349731723
 51
36.0134970869
  0
LINE
  5
DA
330
99
100
AcDbEntity
  8
$DDT_AUDIT_GENERATED_(9B)
  6
Continuous
 62
     7
100
AcDbLine
 10
335.7884585566
 20
513.3881705259
 30
0.0
 11
336.2884585566
 21
513.3881705259
 31
0.0
  0
LINE
  5
DB
330
99
100
AcDbEntity
  8
$DDT_AUDIT_GENERATED_(9B)
  6
Continuous
 62
     7
100
AcDbLine
 10
348.4925293987
 20
513.3881705259
 30
0.0
 11
348.7884585566
 21
513.3881705259
 31
0.0
  0
LINE
  5
DC
330
99
100
AcDbEntity
  8
$DDT_AUDIT_GENERATED_(9B)
  6
Continuous
 62
     7
100
AcDbLine
 10
335.7884585566
 20
485.7881705259
 30
0.0
 11
291.2884585566
 21
485.7881705259
 31
0.0
  0
LINE
  5
DD
330
99
100
AcDbEntity
  8
$DDT_AUDIT_GENERATED_(9B)
  6
Continuous
 62
     7
100
AcDbLine
 10
421.2884585566
 20
513.3881705259
 30
0.0
 11
348.7884585566
 21
513.3881705259
 31
0.0
  0
ARC
  5
DE
330
99
100
AcDbEntity
  8
$DDT_AUDIT_GENERATED_(9B)
  6
Continuous
 62
     7
100
AcDbCircle
 10
331.113432787
 20
495.0247693105
 30
0.0
 40
13.55232975098829
100
AcDbArc
 50
340.261652767
 51
351.7805792573
  0
ARC
  5
DF
330
99
100
AcDbEntity
  8
$DDT_AUDIT_GENERATED_(9B)
  6
Continuous
 62
     7
100
AcDbCircle
 10
337.884741578
 20
492.6536438484
 30
0.0
 40
6.378319469858436
100
AcDbArc
 50
315.1353812334
 51
339.7672914835
  0
ARC
  5
E0
330
99
100
AcDbEntity
  8
$DDT_AUDIT_GENERATED_(9B)
  6
Continuous
 62
     7
100
AcDbCircle
 10
337.3547155639
 20
493.3299135204
 30
0.0
 40
7.231821087837982
100
AcDbArc
 50
292.6935813389
 51
314.3000972122
  0
ARC
  5
E1
330
99
100
AcDbEntity
  8
$DDT_AUDIT_GENERATED_(9B)
  6
Continuous
 62
     7
100
AcDbCircle
 10
335.9878182721
 20
496.4553183239
 30
0.0
 40
10.64275740572967
100
AcDbArc
 50
278.3415395292
 51
292.9912083752
  0
ARC
  5
E2
330
99
100
AcDbEntity
  8
$DDT_AUDIT_GENERATED_(9B)
  6
Continuous
 62
     7
100
AcDbCircle
 10
335.7422458824
 20
497.5384293248
 30
0.0
 40
11.75034967361678
100
AcDbArc
 50
270.2253378062
 51
278.7601248239
  0
LINE
  5
E3
330
99
100
AcDbEntity
  8
$DDT_AUDIT_GENERATED_(9B)
  6
Continuous
 62
     7
100
AcDbLine
 10
421.7884585566
 20
512.8881705259
 30
0.0
 11
421.7884585566
 21
466.6889170357
 31
0.0
  0
LINE
  5
E4
330
99
100
AcDbEntity
  8
$DDT_AUDIT_GENERATED_(9B)
  6
Continuous
 62
     7
100
AcDbLine
 10
421.7884585566
 20
466.6889170357
 30
0.0
 11
421.7884585566
 21
454.6438369585
 31
0.0
  0
ARC
  5
E5
330
99
100
AcDbEntity
  8
$DDT_AUDIT_GENERATED_(9B)
  6
Continuous
 62
     7
100
AcDbCircle
 10
421.2884585566
 20
512.8881705259
 30
0.0
 40
0.5000000000000004
100
AcDbArc
 50
0.0
 51
90.0
  0
LINE
  5
E6
330
99
100
AcDbEntity
  8
$DDT_AUDIT_GENERATED_(9B)
  6
Continuous
 62
     7
100
AcDbLine
 10
421.7884585566
 20
454.6438369585
 30
0.0
 11
421.7884585566
 21
454.6267998716
 31
0.0
  0
LINE
  5
E7
330
99
100
AcDbEntity
  8
$DDT_AUDIT_GENERATED_(9B)
  6
Continuous
 62
     7
100
AcDbLine
 10
336.2884585566
 20
512.8881705259
 30
0.0
 11
336.2884585566
 21
493.0881705259
 31
0.0
  0
ELLIPSE
  5
E8
330
99
100
AcDbEntity
  8
$DDT_AUDIT_GENERATED_(9B)
  6
Continuous
 62
     7
100
AcDbEllipse
 10
349.0384585566
 20
462.5323570325
 30
0.0
 11
-9.250000000000009
 21
3.469446951953614E-15
 31
0.0
210
0.0
220
0.0
230
1.0
 40
0.2679491924
 41
2.908570527953005
 42
6.283185307179586
  0
ELLIPSE
  5
E9
330
99
100
AcDbEntity
  8
$DDT_AUDIT_GENERATED_(9B)
  6
Continuous
 62
     7
100
AcDbEllipse
 10
349.0384585566
 20
462.5323570325
 30
0.0
 11
-9.250000000000009
 21
3.469446951953614E-15
 31
0.0
210
0.0
220
0.0
230
1.0
 40
0.2679491924
 41
0.0000000000000014
 42
0.2330221256367618
  0
ARC
  5
EA
330
99
100
AcDbEntity
  8
$DDT_AUDIT_GENERATED_(9B)
  6
Continuous
 62
     7
100
AcDbCircle
 10
161.2884585566
 20
454.6267998716
 30
0.0
 40
0.5000000000000004
100
AcDbArc
 50
180.0
 51
270.0
  0
LINE
  5
EB
330
99
100
AcDbEntity
  8
$DDT_AUDIT_GENERATED_(9B)
  6
Continuous
 62
     7
100
AcDbLine
 10
161.2884585566
 20
454.1267998716
 30
0.0
 11
338.5584585566
 21
454.1267998716
 31
0.0
  0
LINE
  5
EC
330
99
100
AcDbEntity
  8
$DDT_AUDIT_GENERATED_(9B)
  6
Continuous
 62
     7
100
AcDbLine
 10
359.5184585566
 20
454.1267998716
 30
0.0
 11
421.2884585566
 21
454.1267998716
 31
0.0
  0
ARC
  5
ED
330
99
100
AcDbEntity
  8
$DDT_AUDIT_GENERATED_(9B)
  6
Continuous
 62
     7
100
AcDbCircle
 10
421.2884585566
 20
454.6267998716
 30
0.0
 40
0.5000000000000004
100
AcDbArc
 50
270.0
 51
0.0
  0
LINE
  5
EF
330
99
100
AcDbEntity
  8
$DDT_AUDIT_GENERATED_(EE)
  6
Continuous
 62
     7
100
AcDbLine
 10
340.0384585566
 20
457.6918555219
 30
0.0
 11
358.0384585566
 21
457.6918555219
 31
0.0
  0
LINE
  5
F0
330
99
100
AcDbEntity
  8
$DDT_AUDIT_GENERATED_(EE)
  6
Continuous
 62
     7
100
AcDbLine
 10
338.5584585566
 20
456.2118555219
 30
0.0
 11
359.5184585566
 21
456.2118555219
 31
0.0
  0
LINE
  5
F1
330
99
100
AcDbEntity
  8
$DDT_AUDIT_GENERATED_(EE)
  6
Continuous
 62
     7
100
AcDbLine
 10
339.7584585566
 20
448.7918555219
 30
0.0
 11
358.3184585566
 21
448.7918555219
 31
0.0
  0
LINE
  5
F2
330
99
100
AcDbEntity
  8
$DDT_AUDIT_GENERATED_(EE)
  6
Continuous
 62
     7
100
AcDbLine
 10
338.5584585566
 20
449.9918555219
 30
0.0
 11
359.5184585566
 21
449.9918555219
 31
0.0
  0
LINE
  5
F3
330
99
100
AcDbEntity
  8
$DDT_AUDIT_GENERATED_(EE)
  6
Continuous
 62
     7
100
AcDbLine
 10
338.5584585566
 20
456.2118555219
 30
0.0
 11
338.5584585566
 21
449.9918555219
 31
0.0
  0
LINE
  5
F4
330
99
100
AcDbEntity
  8
$DDT_AUDIT_GENERATED_(EE)
  6
Continuous
 62
     7
100
AcDbLine
 10
359.5184585566
 20
449.9918555219
 30
0.0
 11
359.5184585566
 21
456.2118555219
 31
0.0
  0
LINE
  5
F5
330
99
100
AcDbEntity
  8
$DDT_AUDIT_GENERATED_(EE)
  6
Continuous
 62
     7
100
AcDbLine
 10
340.0384585566
 20
463.1046967584
 30
0.0
 11
340.0384585566
 21
457.6918555219
 31
0.0
  0
LINE
  5
F6
330
99
100
AcDbEntity
  8
$DDT_AUDIT_GENERATED_(EE)
  6
Continuous
 62
     7
100
AcDbLine
 10
358.0384585566
 20
457.6918555219
 30
0.0
 11
358.0384585566
 21
463.1046967584
 31
0.0
  0
LINE
  5
F7
330
99
100
AcDbEntity
  8
$DDT_AUDIT_GENERATED_(EE)
  6
Continuous
 62
     7
100
AcDbLine
 10
359.5184585566
 20
456.2118555219
 30
0.0
 11
358.0384585566
 21
457.6918555219
 31
0.0
  0
LINE
  5
F8
330
99
100
AcDbEntity
  8
$DDT_AUDIT_GENERATED_(EE)
  6
Continuous
 62
     7
100
AcDbLine
 10
340.0384585566
 20
457.6918555219
 30
0.0
 11
338.5584585566
 21
456.2118555219
 31
0.0
  0
LINE
  5
F9
330
99
100
AcDbEntity
  8
$DDT_AUDIT_GENERATED_(EE)
  6
Continuous
 62
     7
100
AcDbLine
 10
338.5584585566
 20
449.9918555219
 30
0.0
 11
339.7584585566
 21
448.7918555219
 31
0.0
  0
LINE
  5
FA
330
99
100
AcDbEntity
  8
$DDT_AUDIT_GENERATED_(EE)
  6
Continuous
 62
     7
100
AcDbLine
 10
358.3184585566
 20
448.7918555219
 30
0.0
 11
359.5184585566
 21
449.9918555219
 31
0.0
  0
LINE
  5
FB
330
99
100
AcDbEntity
  8
$DDT_AUDIT_GENERATED_(EE)
  6
Continuous
 62
     7
100
AcDbLine
 10
358.3534585566
 20
457.3768555219
 30
0.0
 11
358.3534585566
 21
448.8268555219
 31
0.0
  0
LINE
  5
FC
330
99
100
AcDbEntity
  8
$DDT_AUDIT_GENERATED_(EE)
  6
Continuous
 62
     7
100
AcDbLine
 10
339.7234585566
 20
457.3768555219
 30
0.0
 11
339.7234585566
 21
448.8268555219
 31
0.0
  0
ARC
  5
FE
330
99
100
AcDbEntity
  8
$DDT_AUDIT_GENERATED_(FD)
  6
Continuous
 62
     7
100
AcDbCircle
 10
216.2884585566
 20
475.3918555219
 30
0.0
 40
32.74579726603427
100
AcDbArc
 50
220.4962299317
 51
319.5037700683
  0
ARC
  5
FF
330
99
100
AcDbEntity
  8
$DDT_AUDIT_GENERATED_(FD)
  6
Continuous
 62
     7
100
AcDbCircle
 10
216.2884585566
 20
475.3918555219
 30
0.0
 40
34.19616455759845
100
AcDbArc
 50
218.4517227428
 51
321.5482772572
  0
ARC
  5
100
330
99
100
AcDbEntity
  8
$DDT_AUDIT_GENERATED_(FD)
  6
Continuous
 62
     7
100
AcDbCircle
 10
216.2884585566
 20
475.3918555219
 30
0.0
 40
34.99982866248779
100
AcDbArc
 50
217.4144370908
 51
322.5855629092
  0
ARC
  5
101
330
99
100
AcDbEntity
  8
$DDT_AUDIT_GENERATED_(FD)
  6
Continuous
 62
     7
100
AcDbCircle
 10
216.2884585566
 20
475.3918555219
 30
0.0
 40
35.0
100
AcDbArc
 50
217.4142225334
 51
322.5857774666
  0
ARC
  5
102
330
99
100
AcDbEntity
  8
$DDT_AUDIT_GENERATED_(FD)
  6
Continuous
 62
     7
100
AcDbCircle
 10
366.2884585566
 20
475.3918555219
 30
0.0
 40
32.74579726603427
100
AcDbArc
 50
234.323026868
 51
319.5037700683
  0
ARC
  5
103
330
99
100
AcDbEntity
  8
$DDT_AUDIT_GENERATED_(FD)
  6
Continuous
 62
     7
100
AcDbCircle
 10
366.2884585566
 20
475.3918555219
 30
0.0
 40
34.19616455759845
100
AcDbArc
 50
231.0655115491
 51
321.5482772572
  0
ARC
  5
104
330
99
100
AcDbEntity
  8
$DDT_AUDIT_GENERATED_(FD)
  6
Continuous
 62
     7
100
AcDbCircle
 10
366.2884585566
 20
475.3918555219
 30
0.0
 40
34.99982866248779
100
AcDbArc
 50
217.4144370908
 51
217.6000047449
  0
ARC
  5
105
330
99
100
AcDbEntity
  8
$DDT_AUDIT_GENERATED_(FD)
  6
Continuous
 62
     7
100
AcDbCircle
 10
366.2884585566
 20
475.3918555219
 30
0.0
 40
34.99982866248779
100
AcDbArc
 50
229.4645258799
 51
322.5855629092
  0
ARC
  5
106
330
99
100
AcDbEntity
  8
$DDT_AUDIT_GENERATED_(FD)
  6
Continuous
 62
     7
100
AcDbCircle
 10
366.2884585566
 20
475.3918555219
 30
0.0
 40
35.0
100
AcDbArc
 50
217.4142225334
 51
217.6003689584
  0
ARC
  5
107
330
99
100
AcDbEntity
  8
$DDT_AUDIT_GENERATED_(FD)
  6
Continuous
 62
     7
100
AcDbCircle
 10
366.2884585566
 20
475.3918555219
 30
0.0
 40
35.0
100
AcDbArc
 50
229.4641978887
 51
322.5857774666
  0
SPLINE
  5
109
330
99
100
AcDbEntity
  8
$DDT_AUDIT_GENERATED_(108)
  6
Continuous
 62
     7
100
AcDbSpline
210
0.0
220
0.0
230
1.0
 70
     8
 71
     3
 72
    22
 73
    18
 74
     0
 42
0.0000000003985452
 43
0.0000000001
 40
0.3053280290749533
 40
0.3053280290749533
 40
0.3053280290749533
 40
0.3053280290749533
 40
0.3128927343692382
 40
0.3754054701616813
 40
0.4172018838628963
 40
0.4379165888113513
 40
0.4700205944148069
 40
0.5005391946207248
 40
0.5629343641629236
 40
0.6253225136517531
 40
0.687799509258543
 40
0.7501269742196249
 40
0.8125177679285059
 40
0.8749245993511596
 40
0.9372354966867126
 40
0.9662133226917919
 40
1.0
 40
1.0
 40
1.0
 40
1.0
 10
427.5689133128303
 20
513.3931054830551
 30
0.0
 10
427.5688327132094
 20
513.3933930755669
 30
0.0
 10
427.5679733745459
 20
513.3960270683064
 30
0.0
 10
427.5648549643809
 20
513.399068011166
 30
0.0
 10
427.5718457683806
 20
513.4015485780392
 30
0.0
 10
427.5708267201951
 20
513.4028895019645
 30
0.0
 10
427.7158466171475
 20
513.4038354524675
 30
0.0
 10
428.2753856357372
 20
513.4048141875578
 30
0.0
 10
429.6107036784775
 20
513.4053813203697
 30
0.0
 10
431.9838986834575
 20
513.4055417415606
 30
0.0
 10
434.8699160955162
 20
513.4055516284908
 30
0.0
 10
437.9184226951521
 20
513.4055528396349
 30
0.0
 10
440.7624780357893
 20
513.4055360258525
 30
0.0
 10
443.1018973429701
 20
513.4053588335422
 30
0.0
 10
444.3682347496201
 20
513.4047383647033
 30
0.0
 10
444.8484263163923
 20
513.4037237979485
 30
0.0
 10
444.9368701039648
 20
513.4029358678977
 30
0.0
 10
444.984480163041
 20
513.4025117164373
 30
0.0
  0
ARC
  5
10A
330
99
100
AcDbEntity
  8
$DDT_AUDIT_GENERATED_(108)
  6
Continuous
 62
     7
100
AcDbCircle
 10
436.2102007434
 20
537.4273593699
 30
0.0
 40
25.59018979942839
100
AcDbArc
 50
250.3381211702
 51
290.1059781231
  0
SPLINE
  5
10B
330
99
100
AcDbEntity
  8
$DDT_AUDIT_GENERATED_(108)
  6
Continuous
 62
     7
100
AcDbSpline
210
0.0
220
0.0
230
1.0
 70
     8
 71
     3
 72
    10
 73
     6
 74
     0
 42
0.0000000007423422
 43
0.0000000001
 40
0.0
 40
0.0
 40
0.0
 40
0.0
 40
0.0625
 40
0.0625
 40
0.1070941456085789
 40
0.1070941456085789
 40
0.1070941456085789
 40
0.1070941456085789
 10
444.6390071299104
 20
513.2632889691398
 30
0.0
 10
444.578725822392
 20
513.2654192749206
 30
0.0
 10
444.4446891049583
 20
513.2652692705694
 30
0.0
 10
443.9079236227597
 20
513.2654139716577
 30
0.0
 10
443.5896847775302
 20
513.2656596631313
 30
0.0
 10
443.1963930094796
 20
513.2659063815565
 30
0.0
  0
SPLINE
  5
10C
330
99
100
AcDbEntity
  8
$DDT_AUDIT_GENERATED_(108)
  6
Continuous
 62
     7
100
AcDbSpline
210
0.0
220
0.0
230
1.0
 70
     8
 71
     3
 72
    14
 73
    10
 74
     0
 42
0.0000000019028715
 43
0.0000000001
 40
0.4552712413539078
 40
0.4552712413539078
 40
0.4552712413539078
 40
0.4552712413539078
 40
0.4999999999999997
 40
0.4999999999999997
 40
0.5624999999999998
 40
0.5624999999999998
 40
0.6249999999999998
 40
0.6249999999999998
 40
0.7437674587919914
 40
0.7437674587919914
 40
0.7437674587919914
 40
0.7437674587919914
 10
429.3863384284709
 20
513.265991901766
 30
0.0
 10
428.9912557525853
 20
513.2658297273109
 30
0.0
 10
428.6673479022685
 20
513.2655992577569
 30
0.0
 10
428.0956632643931
 20
513.2648102938623
 30
0.0
 10
427.9488572350959
 20
513.2645000679353
 30
0.0
 10
427.8980854760973
 20
513.2631686146032
 30
0.0
 10
427.914604200572
 20
513.2611003802018
 30
0.0
 10
427.915344300862
 20
513.2538805784255
 30
0.0
 10
427.9144157490782
 20
513.251646752935
 30
0.0
 10
427.9129243667047
 20
513.2513862484726
 30
0.0
  0
LINE
  5
10D
330
99
100
AcDbEntity
  8
$DDT_AUDIT_GENERATED_(108)
  6
Continuous
 62
     7
100
AcDbLine
 10
422.7884554176
 20
512.6054354508
 30
0.0
 11
422.7884554176
 21
508.4247784772
 31
0.0
  0
LINE
  5
10E
330
99
100
AcDbEntity
  8
$DDT_AUDIT_GENERATED_(108)
  6
Continuous
 62
     7
100
AcDbLine
 10
422.7884554176
 20
508.4234072656
 30
0.0
 11
422.7884554176
 21
466.1942250765
 31
0.0
  0
ARC
  5
10F
330
99
100
AcDbEntity
  8
$DDT_AUDIT_GENERATED_(108)
  6
Continuous
 62
     7
100
AcDbCircle
 10
423.5884554176
 20
512.6054354521
 30
0.0
 40
0.7999999999999952
100
AcDbArc
 50
90.0000000005
 51
180.0000000973
  0
LINE
  5
110
330
99
100
AcDbEntity
  8
$DDT_AUDIT_GENERATED_(108)
  6
Continuous
 62
     7
100
AcDbLine
 10
449.7884585566
 20
508.8143420603
 30
0.0
 11
449.7884585566
 21
512.3938281
 31
0.0
  0
LINE
  5
111
330
99
100
AcDbEntity
  8
$DDT_AUDIT_GENERATED_(108)
  6
Continuous
 62
     7
100
AcDbLine
 10
449.7884585566
 20
508.8141789925
 30
0.0
 11
449.7884585566
 21
508.8143420603
 31
0.0
  0
LINE
  5
112
330
99
100
AcDbEntity
  8
$DDT_AUDIT_GENERATED_(108)
  6
Continuous
 62
     7
100
AcDbLine
 10
449.7884585566
 20
466.3942250765
 30
0.0
 11
449.7884585566
 21
508.8141789925
 31
0.0
  0
ARC
  5
113
330
99
100
AcDbEntity
  8
$DDT_AUDIT_GENERATED_(108)
  6
Continuous
 62
     7
100
AcDbCircle
 10
448.7884585566
 20
512.4054354521
 30
0.0
 40
1.000000000087296
100
AcDbArc
 50
0.0
 51
90.0000000005
  0
LINE
  5
114
330
99
100
AcDbEntity
  8
$DDT_AUDIT_GENERATED_(108)
  6
Continuous
 62
     7
100
AcDbLine
 10
427.5655436691
 20
513.3909743263
 30
0.0
 11
423.5884554177
 21
513.3909743263
 31
0.0
  0
LINE
  5
115
330
99
100
AcDbEntity
  8
$DDT_AUDIT_GENERATED_(108)
  6
Continuous
 62
     7
100
AcDbLine
 10
448.7884585567
 20
513.3909743265
 30
0.0
 11
444.9973024096
 21
513.3909743265
 31
0.0
  0
ARC
  5
116
330
99
100
AcDbEntity
  8
$DDT_AUDIT_GENERATED_(108)
  6
Continuous
 62
     7
100
AcDbCircle
 10
436.2553922985
 20
537.4119277674
 30
0.0
 40
25.56489767914854
100
AcDbArc
 50
250.4806256441
 51
289.4965291905
  0
LINE
  5
117
330
99
100
AcDbEntity
  8
$DDT_AUDIT_GENERATED_(108)
  6
Continuous
 62
     7
100
AcDbLine
 10
423.5884554176
 20
465.3942250765
 30
0.0
 11
448.7884585566
 21
465.3942250765
 31
0.0
  0
ARC
  5
118
330
99
100
AcDbEntity
  8
$DDT_AUDIT_GENERATED_(108)
  6
Continuous
 62
     7
100
AcDbCircle
 10
423.5884554176
 20
466.1942250765
 30
0.0
 40
0.7999999999999952
100
AcDbArc
 50
180.0
 51
270.0
  0
ARC
  5
119
330
99
100
AcDbEntity
  8
$DDT_AUDIT_GENERATED_(108)
  6
Continuous
 62
     7
100
AcDbCircle
 10
448.7884585566
 20
512.3938253192
 30
0.0
 40
0.9999999999845662
100
AcDbArc
 50
0.0014270497
 51
89.9930736212
  0
ARC
  5
11A
330
99
100
AcDbEntity
  8
$DDT_AUDIT_GENERATED_(108)
  6
Continuous
 62
     7
100
AcDbCircle
 10
448.7884585569
 20
512.3994589711
 30
0.0
 40
1.00000000000545
100
AcDbArc
 50
359.5213021751
 51
89.9935716004
  0
ARC
  5
11B
330
99
100
AcDbEntity
  8
$DDT_AUDIT_GENERATED_(108)
  6
Continuous
 62
     7
100
AcDbCircle
 10
448.7884585566
 20
466.3942250765
 30
0.0
 40
1.000000000000001
100
AcDbArc
 50
270.0
 51
0.0
  0
SPLINE
  5
11D
330
99
100
AcDbEntity
  8
$DDT_AUDIT_GENERATED_(11C)
  6
Continuous
 62
     7
100
AcDbSpline
210
0.0
220
0.0
230
1.0
 70
     8
 71
     3
 72
    14
 73
    10
 74
     0
 42
0.0000000005528895
 43
0.0000000001
 40
0.0
 40
0.0
 40
0.0
 40
0.0
 40
0.0149978684079506
 40
0.030179239719032
 40
0.0615730436590666
 40
0.0929637989314517
 40
0.1244280475154518
 40
0.155672945069236
 40
0.1730696204720131
 40
0.1730696204720131
 40
0.1730696204720131
 40
0.1730696204720131
 10
439.9917201913124
 20
512.7199461522049
 30
0.0
 10
440.1652305804507
 20
512.7478402672784
 30
0.0
 10
440.5017356604191
 20
512.8059582633482
 30
0.0
 10
441.1376951290683
 20
512.9279728468925
 30
0.0
 10
441.8391981284218
 20
513.0791088292203
 30
0.0
 10
442.4704862662061
 20
513.2276923545269
 30
0.0
 10
442.8771052386935
 20
513.3161545994532
 30
0.0
 10
443.0078459618343
 20
513.3368806281651
 30
0.0
 10
442.9823972723729
 20
513.348884958034
 30
0.0
 10
442.9600600931425
 20
513.3529966105718
 30
0.0
  0
SPLINE
  5
11E
330
99
100
AcDbEntity
  8
$DDT_AUDIT_GENERATED_(11C)
  6
Continuous
 62
     7
100
AcDbSpline
210
0.0
220
0.0
230
1.0
 70
     8
 71
     3
 72
    10
 73
     6
 74
     0
 42
0.0000000004239454
 43
0.0000000001
 40
0.1730696204720131
 40
0.1730696204720131
 40
0.1730696204720131
 40
0.1730696204720131
 40
0.2180624641190157
 40
0.2804579164191746
 40
0.3420401779463467
 40
0.3420401779463467
 40
0.3420401779463467
 40
0.3420401779463467
 10
442.9600600931425
 20
513.3529966105718
 30
0.0
 10
442.9022896749817
 20
513.3636305354731
 30
0.0
 10
442.5531006464757
 20
513.3861106035288
 30
0.0
 10
441.2371922844704
 20
513.3939338198484
 30
0.0
 10
439.7724846283996
 20
513.3946044433811
 30
0.0
 10
438.9761088767738
 20
513.3946482435359
 30
0.0
  0
SPLINE
  5
11F
330
99
100
AcDbEntity
  8
$DDT_AUDIT_GENERATED_(11C)
  6
Continuous
 62
     7
100
AcDbSpline
210
0.0
220
0.0
230
1.0
 70
     8
 71
     3
 72
    10
 73
     6
 74
     0
 42
0.0000000004214475
 43
0.0000000001
 40
0.4722109698190159
 40
0.4722109698190159
 40
0.4722109698190159
 40
0.4722109698190159
 40
0.5302483391630152
 40
0.592638868412611
 40
0.6406764426471978
 40
0.6406764426471978
 40
0.6406764426471978
 40
0.6406764426471978
 10
433.6159680845549
 20
513.3946404442762
 30
0.0
 10
432.864699970115
 20
513.3946007521273
 30
0.0
 10
431.4312730773535
 20
513.393982395938
 30
0.0
 10
430.0689384822175
 20
513.387134532955
 30
0.0
 10
429.6858844745232
 20
513.3647602615371
 30
0.0
 10
429.620243610193
 20
513.3537858103838
 30
0.0
  0
SPLINE
  5
120
330
99
100
AcDbEntity
  8
$DDT_AUDIT_GENERATED_(11C)
  6
Continuous
 62
     7
100
AcDbSpline
210
0.0
220
0.0
230
1.0
 70
     8
 71
     3
 72
    15
 73
    11
 74
     0
 42
0.0000000003392475
 43
0.0000000001
 40
0.6406764426471978
 40
0.6406764426471978
 40
0.6406764426471978
 40
0.6406764426471978
 40
0.655256902454259
 40
0.6865549832804707
 40
0.7180561236413692
 40
0.7493868762504969
 40
0.7808068041364498
 40
0.8540309046287528
 40
0.9268951826775177
 40
1.0
 40
1.0
 40
1.0
 40
1.0
 10
429.620243610193
 20
513.3537858103838
 30
0.0
 10
429.6003201648625
 20
513.3504548232036
 30
0.0
 10
429.566905187687
 20
513.3396137666856
 30
0.0
 10
429.6680126977238
 20
513.320420033406
 30
0.0
 10
430.0467759481058
 20
513.2420789412107
 30
0.0
 10
430.6533448931215
 20
513.0985356677861
 30
0.0
 10
431.837766876673
 20
512.839194643928
 30
0.0
 10
433.9837662448104
 20
512.4697554314589
 30
0.0
 10
437.159285416985
 20
512.3593768732052
 30
0.0
 10
439.1459703182986
 20
512.5839805515365
 30
0.0
 10
439.9917201913124
 20
512.7199461522049
 30
0.0
  0
LINE
  5
121
330
99
100
AcDbEntity
  8
$DDT_AUDIT_GENERATED_(11C)
  6
Continuous
 62
     7
100
AcDbLine
 10
438.975211806
 20
513.3946500932
 30
0.0
 11
433.6197243523
 21
513.3946500932
 31
0.0
  0
ARC
  5
122
330
99
100
AcDbEntity
  8
$DDT_AUDIT_GENERATED_(11C)
  6
Continuous
 62
     7
100
AcDbCircle
 10
429.600468953
 20
513.0383398049
 30
0.0
 40
0.3124930182257968
100
AcDbArc
 50
96.1655707243
 51
172.9975253304
  0
SPLINE
  5
123
330
99
100
AcDbEntity
  8
$DDT_AUDIT_GENERATED_(11C)
  6
Continuous
 62
     7
100
AcDbSpline
210
0.0
220
0.0
230
1.0
 70
     8
 71
     3
 72
    14
 73
    10
 74
     0
 42
0.000000022160387
 43
0.0000000001
 40
0.0
 40
0.0
 40
0.0
 40
0.0
 40
0.0672691211484007
 40
0.2265219253367635
 40
0.3597512750873947
 40
0.4855271708685829
 40
0.6241787657316135
 40
0.8113838919339171
 40
1.0
 40
1.0
 40
1.0
 40
1.0
 10
443.2826643554599
 20
513.0413212204538
 30
0.0
 10
443.2844343901625
 20
513.0592497147319
 30
0.0
 10
443.2891045356887
 20
513.1109814057381
 30
0.0
 10
443.2522253694442
 20
513.1969484328308
 30
0.0
 10
443.1932372331236
 20
513.2684798003561
 30
0.0
 10
443.1339308401145
 20
513.3098002166913
 30
0.0
 10
443.0843404899528
 20
513.3319537529353
 30
0.0
 10
443.0463455981022
 20
513.343135624797
 30
0.0
 10
443.0281405073871
 20
513.3468132524191
 30
0.0
 10
443.0180143949419
 20
513.348487790204
 30
0.0
  0
LINE
  5
124
330
99
100
AcDbEntity
  8
$DDT_AUDIT_GENERATED_(11C)
  6
Continuous
 62
     7
100
AcDbLine
 10
443.2884585566
 20
512.8863521263
 30
0.0
 11
443.2884585566
 21
513.0422583599
 31
0.0
  0
LINE
  5
125
330
99
100
AcDbEntity
  8
$DDT_AUDIT_GENERATED_(11C)
  6
Continuous
 62
     7
100
AcDbLine
 10
429.2884585566
 20
513.0429748523
 30
0.0
 11
429.2884585566
 21
512.883580935
 31
0.0
  0
SPLINE
  5
126
330
99
100
AcDbEntity
  8
$DDT_AUDIT_GENERATED_(11C)
  6
Continuous
 62
     7
100
AcDbSpline
210
0.0
220
0.0
230
1.0
 70
     8
 71
     3
 72
    14
 73
    10
 74
     0
 42
0.0000000005528895
 43
0.0000000001
 40
0.0
 40
0.0
 40
0.0
 40
0.0
 40
0.0149978684079506
 40
0.030179239719032
 40
0.0615730436590666
 40
0.0929637989314517
 40
0.1244280475154518
 40
0.155672945069236
 40
0.173069620472013
 40
0.173069620472013
 40
0.173069620472013
 40
0.173069620472013
 10
149.7917201913125
 20
512.719946152206
 30
0.0
 10
149.9652305804507
 20
512.7478402672797
 30
0.0
 10
150.3017356604192
 20
512.8059582633493
 30
0.0
 10
150.9376951290684
 20
512.9279728468935
 30
0.0
 10
151.6391981284219
 20
513.0791088292211
 30
0.0
 10
152.2704862662062
 20
513.2276923545274
 30
0.0
 10
152.6771052386936
 20
513.3161545994535
 30
0.0
 10
152.8078459618343
 20
513.3368806281651
 30
0.0
 10
152.7823972723729
 20
513.3488849580339
 30
0.0
 10
152.7600600931425
 20
513.3529966105716
 30
0.0
  0
SPLINE
  5
127
330
99
100
AcDbEntity
  8
$DDT_AUDIT_GENERATED_(11C)
  6
Continuous
 62
     7
100
AcDbSpline
210
0.0
220
0.0
230
1.0
 70
     8
 71
     3
 72
    10
 73
     6
 74
     0
 42
0.0000000004239454
 43
0.0000000001
 40
0.173069620472013
 40
0.173069620472013
 40
0.173069620472013
 40
0.173069620472013
 40
0.2180624641190157
 40
0.2804579164191746
 40
0.3420401779463456
 40
0.3420401779463456
 40
0.3420401779463456
 40
0.3420401779463456
 10
152.7600600931425
 20
513.3529966105716
 30
0.0
 10
152.7022896749817
 20
513.3636305354729
 30
0.0
 10
152.3531006464758
 20
513.3861106035282
 30
0.0
 10
151.0371922844704
 20
513.3939338198472
 30
0.0
 10
149.5724846283996
 20
513.3946044433798
 30
0.0
 10
148.7761088767738
 20
513.3946482435347
 30
0.0
  0
SPLINE
  5
128
330
99
100
AcDbEntity
  8
$DDT_AUDIT_GENERATED_(11C)
  6
Continuous
 62
     7
100
AcDbSpline
210
0.0
220
0.0
230
1.0
 70
     8
 71
     3
 72
    10
 73
     6
 74
     0
 42
0.0000000004214475
 43
0.0000000001
 40
0.4722109698190159
 40
0.4722109698190159
 40
0.4722109698190159
 40
0.4722109698190159
 40
0.5302483391630152
 40
0.592638868412611
 40
0.6406764426471978
 40
0.6406764426471978
 40
0.6406764426471978
 40
0.6406764426471978
 10
143.415968084555
 20
513.3946404442748
 30
0.0
 10
142.6646999701151
 20
513.3946007521259
 30
0.0
 10
141.2312730773535
 20
513.3939823959371
 30
0.0
 10
139.8689384822176
 20
513.3871345329543
 30
0.0
 10
139.4858844745233
 20
513.3647602615368
 30
0.0
 10
139.4202436101931
 20
513.3537858103836
 30
0.0
  0
SPLINE
  5
129
330
99
100
AcDbEntity
  8
$DDT_AUDIT_GENERATED_(11C)
  6
Continuous
 62
     7
100
AcDbSpline
210
0.0
220
0.0
230
1.0
 70
     8
 71
     3
 72
    15
 73
    11
 74
     0
 42
0.0000000003392475
 43
0.0000000001
 40
0.6406764426471978
 40
0.6406764426471978
 40
0.6406764426471978
 40
0.6406764426471978
 40
0.655256902454259
 40
0.6865549832804707
 40
0.7180561236413692
 40
0.7493868762504969
 40
0.7808068041364498
 40
0.8540309046287528
 40
0.9268951826775177
 40
1.0
 40
1.0
 40
1.0
 40
1.0
 10
139.4202436101931
 20
513.3537858103836
 30
0.0
 10
139.4003201648626
 20
513.3504548232034
 30
0.0
 10
139.3669051876871
 20
513.3396137666856
 30
0.0
 10
139.4680126977239
 20
513.3204200334063
 30
0.0
 10
139.8467759481059
 20
513.242078941211
 30
0.0
 10
140.4533448931216
 20
513.0985356677868
 30
0.0
 10
141.637766876673
 20
512.839194643929
 30
0.0
 10
143.7837662448104
 20
512.4697554314604
 30
0.0
 10
146.959285416985
 20
512.3593768732067
 30
0.0
 10
148.9459703182986
 20
512.5839805515376
 30
0.0
 10
149.7917201913125
 20
512.719946152206
 30
0.0
  0
LINE
  5
12A
330
99
100
AcDbEntity
  8
$DDT_AUDIT_GENERATED_(11C)
  6
Continuous
 62
     7
100
AcDbLine
 10
148.775211806
 20
513.3946500932
 30
0.0
 11
143.4197243523
 21
513.3946500932
 31
0.0
  0
ARC
  5
12B
330
99
100
AcDbEntity
  8
$DDT_AUDIT_GENERATED_(11C)
  6
Continuous
 62
     7
100
AcDbCircle
 10
139.400468953
 20
513.0383398049
 30
0.0
 40
0.3124930182255035
100
AcDbArc
 50
96.1655707243
 51
172.9975253304
  0
SPLINE
  5
12C
330
99
100
AcDbEntity
  8
$DDT_AUDIT_GENERATED_(11C)
  6
Continuous
 62
     7
100
AcDbSpline
210
0.0
220
0.0
230
1.0
 70
     8
 71
     3
 72
    14
 73
    10
 74
     0
 42
0.000000022160387
 43
0.0000000001
 40
0.0
 40
0.0
 40
0.0
 40
0.0
 40
0.0672691211484009
 40
0.2265219253367588
 40
0.3597512750873896
 40
0.485527170868593
 40
0.6241787657316209
 40
0.8113838919339208
 40
1.0
 40
1.0
 40
1.0
 40
1.0
 10
153.0826643554599
 20
513.0413212204538
 30
0.0
 10
153.0844343901626
 20
513.0592497147319
 30
0.0
 10
153.0891045356887
 20
513.1109814057381
 30
0.0
 10
153.0522253694442
 20
513.1969484328308
 30
0.0
 10
152.9932372331236
 20
513.2684798003561
 30
0.0
 10
152.9339308401146
 20
513.3098002166913
 30
0.0
 10
152.8843404899528
 20
513.3319537529353
 30
0.0
 10
152.8463455981023
 20
513.3431356247969
 30
0.0
 10
152.8281405073871
 20
513.346813252419
 30
0.0
 10
152.818014394942
 20
513.3484877902039
 30
0.0
  0
LINE
  5
12D
330
99
100
AcDbEntity
  8
$DDT_AUDIT_GENERATED_(11C)
  6
Continuous
 62
     7
100
AcDbLine
 10
153.0884585566
 20
512.8833130546
 30
0.0
 11
153.0884585566
 21
513.0422583599
 31
0.0
  0
LINE
  5
12E
330
99
100
AcDbEntity
  8
$DDT_AUDIT_GENERATED_(11C)
  6
Continuous
 62
     7
100
AcDbLine
 10
139.0884585566
 20
513.0429748523
 30
0.0
 11
139.0884585566
 21
512.8871874556
 31
0.0
  0
SPLINE
  5
130
330
99
100
AcDbEntity
  8
$DDT_AUDIT_GENERATED_(12F)
  6
Continuous
 62
     7
100
AcDbSpline
210
0.0
220
0.0
230
1.0
 70
    12
 71
     3
 72
    22
 73
    18
 74
     0
 42
0.0000000003978493
 43
0.0000000001
 40
0.3049612562129509
 40
0.3049612562129509
 40
0.3049612562129509
 40
0.3049612562129509
 40
0.375
 40
0.375
 40
0.4375
 40
0.4375
 40
0.5
 40
0.5
 40
0.625
 40
0.625
 40
0.75
 40
0.75
 40
0.875
 40
0.875
 40
0.9375
 40
0.9375
 40
1.0
 40
1.0
 40
1.0
 40
1.0
 10
154.8091912382912
 20
513.3927006533117
 30
0.0
 41
1.0
 10
154.8099547783641
 20
513.3951688928829
 30
0.0
 41
1.0
 10
154.8105964206329
 20
513.3979831678038
 30
0.0
 41
1.0
 10
154.8085225160737
 20
513.4008285976665
 30
0.0
 41
1.0
 10
154.8309074644177
 20
513.4018828391421
 30
0.0
 41
1.0
 10
154.7525789509758
 20
513.4035274855722
 30
0.0
 41
1.0
 10
154.5673969595427
 20
513.4041199449917
 30
0.0
 41
1.0
 10
153.4738330064258
 20
513.4053283629447
 30
0.0
 41
1.0
 10
152.0597127687008
 20
513.4054598903858
 30
0.0
 41
1.0
 10
148.5574967883858
 20
513.40557331907
 30
0.0
 41
1.0
 10
146.4486573600308
 20
513.4055547715172
 30
0.0
 41
1.0
 10
142.5380775921008
 20
513.4055449082322
 30
0.0
 41
1.0
 10
140.6918505243078
 20
513.405566082507
 30
0.0
 41
1.0
 10
138.7645240144278
 20
513.405110319928
 30
0.0
 41
1.0
 10
138.2458415197338
 20
513.4048612289569
 30
0.0
 41
1.0
 10
137.5965245341228
 20
513.4039997455491
 30
0.0
 41
1.0
 10
137.4551635065798
 20
513.4033686670956
 30
0.0
 41
1.0
 10
137.3924369502518
 20
513.402511716433
 30
0.0
 41
1.0
  0
ARC
  5
131
330
99
100
AcDbEntity
  8
$DDT_AUDIT_GENERATED_(12F)
  6
Continuous
 62
     7
100
AcDbCircle
 10
146.1590199359
 20
537.5097755486
 30
0.0
 40
25.67039845301414
100
AcDbArc
 50
249.9753071559
 51
289.6161616963
  0
SPLINE
  5
132
330
99
100
AcDbEntity
  8
$DDT_AUDIT_GENERATED_(12F)
  6
Continuous
 62
     7
100
AcDbSpline
210
0.0
220
0.0
230
1.0
 70
    12
 71
     3
 72
    10
 73
     6
 74
     0
 42
0.0000000007438112
 43
0.0000000001
 40
0.0
 40
0.0
 40
0.0
 40
0.0
 40
0.0625
 40
0.0625
 40
0.1075441759917988
 40
0.1075441759917988
 40
0.1075441759917988
 40
0.1075441759917988
 10
137.7379099833824
 20
513.2632889691356
 30
0.0
 41
1.0
 10
137.8004026272448
 20
513.2633704446008
 30
0.0
 41
1.0
 10
137.9395081539698
 20
513.2635331375593
 30
0.0
 41
1.0
 10
138.4713782918892
 20
513.2659808497643
 30
0.0
 41
1.0
 10
138.791430345325
 20
513.2664506270709
 30
0.0
 41
1.0
 10
139.1837570828906
 20
513.2665466780139
 30
0.0
 41
1.0
  0
SPLINE
  5
133
330
99
100
AcDbEntity
  8
$DDT_AUDIT_GENERATED_(12F)
  6
Continuous
 62
     7
100
AcDbSpline
210
0.0
220
0.0
230
1.0
 70
    12
 71
     3
 72
    14
 73
    10
 74
     0
 42
0.00000000188623
 43
0.0000000001
 40
0.4590076657630715
 40
0.4590076657630715
 40
0.4590076657630715
 40
0.4590076657630715
 40
0.5
 40
0.5
 40
0.5625
 40
0.5625
 40
0.625
 40
0.625
 40
0.7471870449381434
 40
0.7471870449381434
 40
0.7471870449381434
 40
0.7471870449381434
 10
152.9922484738768
 20
513.2657636286544
 30
0.0
 41
1.0
 10
153.3511037394477
 20
513.2654985819468
 30
0.0
 41
1.0
 10
153.6509366217055
 20
513.265119870411
 30
0.0
 41
1.0
 10
154.2293969952248
 20
513.2638484943305
 30
0.0
 41
1.0
 10
154.4081148133507
 20
513.264785405559
 30
0.0
 41
1.0
 10
154.4846228603998
 20
513.2631866127704
 30
0.0
 41
1.0
 10
154.4622336571008
 20
513.2614996997235
 30
0.0
 41
1.0
 10
154.4644724435184
 20
513.2569093040815
 30
0.0
 41
1.0
 10
154.4619631615584
 20
513.2511317761305
 30
0.0
 41
1.0
 10
154.4621544796342
 20
513.249591557566
 30
0.0
 41
1.0
  0
LINE
  5
134
330
99
100
AcDbEntity
  8
$DDT_AUDIT_GENERATED_(12F)
  6
Continuous
 62
     7
100
AcDbLine
 10
159.5884616957
 20
512.6054354508
 30
0.0
 11
159.5884616957
 21
508.4247784772
 31
0.0
  0
LINE
  5
135
330
99
100
AcDbEntity
  8
$DDT_AUDIT_GENERATED_(12F)
  6
Continuous
 62
     7
100
AcDbLine
 10
159.5884616957
 20
508.4234072656
 30
0.0
 11
159.5884616957
 21
466.1942250765
 31
0.0
  0
ARC
  5
136
330
99
100
AcDbEntity
  8
$DDT_AUDIT_GENERATED_(12F)
  6
Continuous
 62
     7
100
AcDbCircle
 10
158.7884616957
 20
512.6054354521
 30
0.0
 40
0.7999999999999952
100
AcDbArc
 50
0.0
 51
89.9999999995
  0
LINE
  5
137
330
99
100
AcDbEntity
  8
$DDT_AUDIT_GENERATED_(12F)
  6
Continuous
 62
     7
100
AcDbLine
 10
132.5884585566
 20
508.8143420603
 30
0.0
 11
132.5884585566
 21
512.3938281
 31
0.0
  0
LINE
  5
138
330
99
100
AcDbEntity
  8
$DDT_AUDIT_GENERATED_(12F)
  6
Continuous
 62
     7
100
AcDbLine
 10
132.5884585566
 20
508.8141789925
 30
0.0
 11
132.5884585566
 21
508.8143420603
 31
0.0
  0
LINE
  5
139
330
99
100
AcDbEntity
  8
$DDT_AUDIT_GENERATED_(12F)
  6
Continuous
 62
     7
100
AcDbLine
 10
132.5884585566
 20
466.3942250765
 30
0.0
 11
132.5884585566
 21
508.8141789925
 31
0.0
  0
ARC
  5
13A
330
99
100
AcDbEntity
  8
$DDT_AUDIT_GENERATED_(12F)
  6
Continuous
 62
     7
100
AcDbCircle
 10
133.5884585566
 20
512.4054354521
 30
0.0
 40
1.000000000087299
100
AcDbArc
 50
89.9999999995
 51
180.0
  0
LINE
  5
13B
330
99
100
AcDbEntity
  8
$DDT_AUDIT_GENERATED_(12F)
  6
Continuous
 62
     7
100
AcDbLine
 10
137.4007021111
 20
513.3909743265
 30
0.0
 11
133.5884585567
 21
513.3909743265
 31
0.0
  0
LINE
  5
13C
330
99
100
AcDbEntity
  8
$DDT_AUDIT_GENERATED_(12F)
  6
Continuous
 62
     7
100
AcDbLine
 10
158.7884616956
 20
513.3909743263
 30
0.0
 11
154.8113734441
 21
513.3909743263
 31
0.0
  0
ARC
  5
13D
330
99
100
AcDbEntity
  8
$DDT_AUDIT_GENERATED_(12F)
  6
Continuous
 62
     7
100
AcDbCircle
 10
146.1275014043
 20
537.2952845508
 30
0.0
 40
25.45298302051361
100
AcDbArc
 50
250.1401462757
 51
289.5944250267
  0
ARC
  5
13E
330
99
100
AcDbEntity
  8
$DDT_AUDIT_GENERATED_(12F)
  6
Continuous
 62
     7
100
AcDbCircle
 10
137.3894962398
 20
512.8722894282
 30
0.0
 40
0.5215565352721072
100
AcDbArc
 50
47.8219880074
 51
64.4640353307
  0
ARC
  5
13F
330
99
100
AcDbEntity
  8
$DDT_AUDIT_GENERATED_(12F)
  6
Continuous
 62
     7
100
AcDbCircle
 10
137.3894962398
 20
512.8722894282
 30
0.0
 40
0.5215565352721072
100
AcDbArc
 50
81.5865403726
 51
90.4575085703
  0
LINE
  5
140
330
99
100
AcDbEntity
  8
$DDT_AUDIT_GENERATED_(12F)
  6
Continuous
 62
     7
100
AcDbLine
 10
133.5884585566
 20
465.3942250765
 30
0.0
 11
158.7884616957
 21
465.3942250765
 31
0.0
  0
ARC
  5
141
330
99
100
AcDbEntity
  8
$DDT_AUDIT_GENERATED_(12F)
  6
Continuous
 62
     7
100
AcDbCircle
 10
158.7884616957
 20
466.1942250765
 30
0.0
 40
0.7999999999999986
100
AcDbArc
 50
270.0
 51
0.0
  0
ARC
  5
142
330
99
100
AcDbEntity
  8
$DDT_AUDIT_GENERATED_(12F)
  6
Continuous
 62
     7
100
AcDbCircle
 10
133.5884585566
 20
512.3938253192
 30
0.0
 40
0.9999999999999768
100
AcDbArc
 50
90.0527028313
 51
179.9985729502
  0
ARC
  5
143
330
99
100
AcDbEntity
  8
$DDT_AUDIT_GENERATED_(12F)
  6
Continuous
 62
     7
100
AcDbCircle
 10
133.5884585569
 20
512.3994589711
 30
0.0
 40
0.9999988482187153
100
AcDbArc
 50
89.9935716033
 51
180.4786978245
  0
ARC
  5
144
330
99
100
AcDbEntity
  8
$DDT_AUDIT_GENERATED_(12F)
  6
Continuous
 62
     7
100
AcDbCircle
 10
133.5884585566
 20
466.3942250765
 30
0.0
 40
1.000000000000001
100
AcDbArc
 50
180.0
 51
270.0
  0
LINE
  5
146
330
99
100
AcDbEntity
  8
$DDT_AUDIT_GENERATED_(145)
  6
Continuous
 62
     7
100
AcDbLine
 10
175.2884585566
 20
452.824131852
 30
0.0
 11
175.2884585566
 21
454.1267998716
 31
0.0
  0
LINE
  5
147
330
99
100
AcDbEntity
  8
$DDT_AUDIT_GENERATED_(145)
  6
Continuous
 62
     7
100
AcDbLine
 10
175.2884585566
 20
441.6410618074
 30
0.0
 11
175.2884585566
 21
452.824131852
 31
0.0
  0
LINE
  5
148
330
99
100
AcDbEntity
  8
$DDT_AUDIT_GENERATED_(145)
  6
Continuous
 62
     7
100
AcDbLine
 10
175.2884585566
 20
441.6410618074
 30
0.0
 11
175.2884585566
 21
441.5752066905
 31
0.0
  0
LINE
  5
149
330
99
100
AcDbEntity
  8
$DDT_AUDIT_GENERATED_(145)
  6
Continuous
 62
     7
100
AcDbLine
 10
160.7884585566
 20
512.8881705259
 30
0.0
 11
160.7884585566
 21
513.0881705259
 31
0.0
  0
LINE
  5
14A
330
99
100
AcDbEntity
  8
$DDT_AUDIT_GENERATED_(145)
  6
Continuous
 62
     7
100
AcDbLine
 10
161.0884585566
 20
513.3881705259
 30
0.0
 11
161.2884585566
 21
513.3881705259
 31
0.0
  0
ARC
  5
14B
330
99
100
AcDbEntity
  8
$DDT_AUDIT_GENERATED_(145)
  6
Continuous
 62
     7
100
AcDbCircle
 10
161.0884585566
 20
513.0881705259
 30
0.0
 40
0.3000000000000017
100
AcDbArc
 50
90.0
 51
180.0
  0
LINE
  5
14C
330
99
100
AcDbEntity
  8
$DDT_AUDIT_GENERATED_(145)
  6
Continuous
 62
     7
100
AcDbLine
 10
421.7884585566
 20
512.8881705259
 30
0.0
 11
421.7884585566
 21
513.0881705259
 31
0.0
  0
LINE
  5
14D
330
99
100
AcDbEntity
  8
$DDT_AUDIT_GENERATED_(145)
  6
Continuous
 62
     7
100
AcDbLine
 10
407.2884585566
 20
452.824131852
 30
0.0
 11
407.2884585566
 21
454.1267998716
 31
0.0
  0
LINE
  5
14E
330
99
100
AcDbEntity
  8
$DDT_AUDIT_GENERATED_(145)
  6
Continuous
 62
     7
100
AcDbLine
 10
407.2884585566
 20
441.6410618074
 30
0.0
 11
407.2884585566
 21
452.824131852
 31
0.0
  0
LINE
  5
14F
330
99
100
AcDbEntity
  8
$DDT_AUDIT_GENERATED_(145)
  6
Continuous
 62
     7
100
AcDbLine
 10
407.2884585566
 20
441.6410618074
 30
0.0
 11
407.2884585566
 21
441.5752066905
 31
0.0
  0
ARC
  5
150
330
99
100
AcDbEntity
  8
$DDT_AUDIT_GENERATED_(145)
  6
Continuous
 62
     7
100
AcDbCircle
 10
421.4884585566
 20
513.0881705259
 30
0.0
 40
0.3000000000000017
100
AcDbArc
 50
0.0
 51
90.0
  0
LINE
  5
151
330
99
100
AcDbEntity
  8
$DDT_AUDIT_GENERATED_(145)
  6
Continuous
 62
     7
100
AcDbLine
 10
421.4884585566
 20
513.3881705259
 30
0.0
 11
421.2884585566
 21
513.3881705259
 31
0.0
  0
LINE
  5
152
330
99
100
AcDbEntity
  8
$DDT_AUDIT_GENERATED_(145)
  6
Continuous
 62
     7
100
AcDbLine
 10
404.2884585566
 20
441.8333141466
 30
0.0
 11
404.2884585566
 21
453.0163841912
 31
0.0
  0
LINE
  5
153
330
99
100
AcDbEntity
  8
$DDT_AUDIT_GENERATED_(145)
  6
Continuous
 62
     7
100
AcDbLine
 10
404.2884585566
 20
453.0163841912
 30
0.0
 11
404.2884585566
 21
454.1267998716
 31
0.0
  0
LINE
  5
154
330
99
100
AcDbEntity
  8
$DDT_AUDIT_GENERATED_(145)
  6
Continuous
 62
     7
100
AcDbLine
 10
404.2884585566
 20
441.8333141466
 30
0.0
 11
404.2884585566
 21
441.7752066905
 31
0.0
  0
LINE
  5
155
330
99
100
AcDbEntity
  8
$DDT_AUDIT_GENERATED_(145)
  6
Continuous
 62
     7
100
AcDbLine
 10
404.7884585566
 20
452.5357533432
 30
0.0
 11
406.9884585566
 21
452.5357533432
 31
0.0
  0
LINE
  5
156
330
99
100
AcDbEntity
  8
$DDT_AUDIT_GENERATED_(145)
  6
Continuous
 62
     7
100
AcDbLine
 10
178.2884585566
 20
441.7752066905
 30
0.0
 11
178.2884585566
 21
441.8333141466
 31
0.0
  0
LINE
  5
157
330
99
100
AcDbEntity
  8
$DDT_AUDIT_GENERATED_(145)
  6
Continuous
 62
     7
100
AcDbLine
 10
178.2884585566
 20
453.0163841912
 30
0.0
 11
178.2884585566
 21
441.8333141466
 31
0.0
  0
LINE
  5
158
330
99
100
AcDbEntity
  8
$DDT_AUDIT_GENERATED_(145)
  6
Continuous
 62
     7
100
AcDbLine
 10
178.2884585566
 20
454.1267998716
 30
0.0
 11
178.2884585566
 21
453.0163841912
 31
0.0
  0
LINE
  5
159
330
99
100
AcDbEntity
  8
$DDT_AUDIT_GENERATED_(145)
  6
Continuous
 62
     7
100
AcDbLine
 10
177.7884585566
 20
452.5357533432
 30
0.0
 11
175.5884585566
 21
452.5357533432
 31
0.0
  0
LINE
  5
15A
330
99
100
AcDbEntity
  8
$DDT_AUDIT_GENERATED_(145)
  6
Continuous
 62
     7
100
AcDbLine
 10
175.5884585566
 20
441.2752066905
 30
0.0
 11
177.7884585566
 21
441.2752066905
 31
0.0
  0
ARC
  5
15B
330
99
100
AcDbEntity
  8
$DDT_AUDIT_GENERATED_(145)
  6
Continuous
 62
     7
100
AcDbCircle
 10
175.5884585566
 20
441.5752066905
 30
0.0
 40
0.2999999999999947
100
AcDbArc
 50
180.0
 51
270.0
  0
LINE
  5
15C
330
99
100
AcDbEntity
  8
$DDT_AUDIT_GENERATED_(145)
  6
Continuous
 62
     7
100
AcDbLine
 10
404.7884585566
 20
441.2752066905
 30
0.0
 11
406.9884585566
 21
441.2752066905
 31
0.0
  0
ARC
  5
15D
330
99
100
AcDbEntity
  8
$DDT_AUDIT_GENERATED_(145)
  6
Continuous
 62
     7
100
AcDbCircle
 10
406.9884585566
 20
441.5752066905
 30
0.0
 40
0.3000000000000017
100
AcDbArc
 50
270.0
 51
0.0
  0
ARC
  5
15E
330
99
100
AcDbEntity
  8
$DDT_AUDIT_GENERATED_(145)
  6
Continuous
 62
     7
100
AcDbCircle
 10
404.7884585566
 20
441.7752066905
 30
0.0
 40
0.5000000000000004
100
AcDbArc
 50
180.0
 51
270.0
  0
ARC
  5
15F
330
99
100
AcDbEntity
  8
$DDT_AUDIT_GENERATED_(145)
  6
Continuous
 62
     7
100
AcDbCircle
 10
177.7884585566
 20
441.7752066905
 30
0.0
 40
0.5000000000000004
100
AcDbArc
 50
270.0
 51
0.0
  0
ARC
  5
161
330
99
100
AcDbEntity
  8
404221031_BEFEST
  6
Continuous
 62
     7
100
AcDbCircle
 10
363.5384585567
 20
475.352645712
 30
0.0
 40
22.25
100
AcDbArc
 50
259.5909699852
 51
270.0
  0
LINE
  5
162
330
99
100
AcDbEntity
  8
404221031_BEFEST
  6
Continuous
 62
     7
100
AcDbLine
 10
369.0384585566
 20
453.102645712
 30
0.0
 11
363.5384585567
 21
453.102645712
 31
0.0
  0
ARC
  5
163
330
99
100
AcDbEntity
  8
404221031_BEFEST
  6
Continuous
 62
     7
100
AcDbCircle
 10
369.0384585566
 20
475.352645712
 30
0.0
 40
22.25000000000002
100
AcDbArc
 50
270.0
 51
287.4516055207
  0
ARC
  5
164
330
99
100
AcDbEntity
  8
404221031_BEFEST
  6
Continuous
 62
     7
100
AcDbCircle
 10
219.0384585566
 20
475.352645712
 30
0.0
 40
22.25000000000001
100
AcDbArc
 50
270.0
 51
287.4516055207
  0
LINE
  5
165
330
99
100
AcDbEntity
  8
404221031_BEFEST
  6
Continuous
 62
     7
100
AcDbLine
 10
219.0384585566
 20
453.102645712
 30
0.0
 11
213.5384585567
 21
453.102645712
 31
0.0
  0
ARC
  5
166
330
99
100
AcDbEntity
  8
404221031_BEFEST
  6
Continuous
 62
     7
100
AcDbCircle
 10
213.5384585567
 20
475.352645712
 30
0.0
 40
22.25
100
AcDbArc
 50
252.5483944793
 51
270.0
  0
LINE
  5
168
330
99
100
AcDbEntity
  8
$DDT_AUDIT_GENERATED_(167)
  6
Continuous
 62
     7
100
AcDbLine
 10
253.2384585566
 20
488.2918555219
 30
0.0
 11
257.1884585566
 21
488.2918555219
 31
0.0
  0
LINE
  5
169
330
99
100
AcDbEntity
  8
$DDT_AUDIT_GENERATED_(167)
  6
Continuous
 62
     7
100
AcDbLine
 10
329.3384585566
 20
488.2918555219
 30
0.0
 11
325.3884585566
 21
488.2918555219
 31
0.0
  0
LINE
  5
16A
330
99
100
AcDbEntity
  8
$DDT_AUDIT_GENERATED_(167)
  6
Continuous
 62
     7
100
AcDbLine
 10
325.3884585566
 20
488.2918555219
 30
0.0
 11
257.1884585566
 21
488.2918555219
 31
0.0
  0
ARC
  5
16B
330
99
100
AcDbEntity
  8
$DDT_AUDIT_GENERATED_(167)
  6
Continuous
 62
     7
100
AcDbCircle
 10
329.3384585566
 20
488.5918555219
 30
0.0
 40
0.2999999999999999
100
AcDbArc
 50
270.0
 51
0.0
  0
ARC
  5
16C
330
99
100
AcDbEntity
  8
$DDT_AUDIT_GENERATED_(167)
  6
Continuous
 62
     7
100
AcDbCircle
 10
253.2384585566
 20
488.5918555219
 30
0.0
 40
0.3000000000000017
100
AcDbArc
 50
180.0
 51
270.0
  0
LINE
  5
16E
330
99
100
AcDbEntity
  8
$DDT_AUDIT_GENERATED_(16D)
  6
Continuous
 62
     7
100
AcDbLine
 10
159.8832228347
 20
469.274815197
 30
0.0
 11
160.7884585566
 21
469.2906161453
 31
0.0
  0
LINE
  5
16F
330
99
100
AcDbEntity
  8
$DDT_AUDIT_GENERATED_(16D)
  6
Continuous
 62
     7
100
AcDbLine
 10
160.7884585566
 20
509.4930948985
 30
0.0
 11
159.8832228347
 21
509.5088958468
 31
0.0
  0
ARC
  5
170
330
99
100
AcDbEntity
  8
$DDT_AUDIT_GENERATED_(16D)
  6
Continuous
 62
     7
100
AcDbCircle
 10
159.8884585566
 20
468.9748608885
 30
0.0
 40
0.2999999999999947
100
AcDbArc
 50
91.0
 51
180.0
  0
ARC
  5
171
330
99
100
AcDbEntity
  8
$DDT_AUDIT_GENERATED_(16D)
  6
Continuous
 62
     7
100
AcDbCircle
 10
159.8884585566
 20
509.8088501553
 30
0.0
 40
0.2999999999999978
100
AcDbArc
 50
180.0
 51
269.0
  0
LINE
  5
173
330
99
100
AcDbEntity
  8
$DDT_AUDIT_GENERATED_(172)
  6
Continuous
 62
     7
100
AcDbLine
 10
422.4936942786
 20
509.5088958468
 30
0.0
 11
421.7884585566
 21
509.4965859115
 31
0.0
  0
LINE
  5
174
330
99
100
AcDbEntity
  8
$DDT_AUDIT_GENERATED_(172)
  6
Continuous
 62
     7
100
AcDbLine
 10
421.7884585566
 20
469.2871251323
 30
0.0
 11
422.4936942786
 21
469.274815197
 31
0.0
  0
ARC
  5
175
330
99
100
AcDbEntity
  8
$DDT_AUDIT_GENERATED_(172)
  6
Continuous
 62
     7
100
AcDbCircle
 10
422.4884585566
 20
509.8088501553
 30
0.0
 40
0.2999999999999947
100
AcDbArc
 50
271.0
 51
0.0
  0
ARC
  5
176
330
99
100
AcDbEntity
  8
$DDT_AUDIT_GENERATED_(172)
  6
Continuous
 62
     7
100
AcDbCircle
 10
422.4884585566
 20
468.9748608885
 30
0.0
 40
0.2999999999999978
100
AcDbArc
 50
0.0
 51
89.0
  0
LINE
  5
178
330
99
100
AcDbEntity
  8
$DDT_AUDIT_GENERATED_(177)
  6
Continuous
 62
     7
100
AcDbLine
 10
257.1884585566
 20
488.8881705259
 30
0.0
 11
257.1884585566
 21
492.0881705259
 31
0.0
  0
LINE
  5
179
330
99
100
AcDbEntity
  8
$DDT_AUDIT_GENERATED_(177)
  6
Continuous
 62
     7
100
AcDbLine
 10
325.3884585566
 20
488.5881705259
 30
0.0
 11
331.5884585566
 21
488.5881705259
 31
0.0
  0
LINE
  5
17A
330
99
100
AcDbEntity
  8
$DDT_AUDIT_GENERATED_(177)
  6
Continuous
 62
     7
100
AcDbLine
 10
325.3884585566
 20
488.5881705259
 30
0.0
 11
257.1884585566
 21
488.5881705259
 31
0.0
  0
LINE
  5
17B
330
99
100
AcDbEntity
  8
$DDT_AUDIT_GENERATED_(177)
  6
Continuous
 62
     7
100
AcDbLine
 10
257.1884585566
 20
488.5881705259
 30
0.0
 11
250.9884585566
 21
488.5881705259
 31
0.0
  0
LINE
  5
17C
330
99
100
AcDbEntity
  8
$DDT_AUDIT_GENERATED_(177)
  6
Continuous
 62
     7
100
AcDbLine
 10
325.3884585566
 20
488.8881705259
 30
0.0
 11
325.3884585566
 21
492.0881705259
 31
0.0
  0
LINE
  5
17D
330
99
100
AcDbEntity
  8
$DDT_AUDIT_GENERATED_(177)
  6
Continuous
 62
     7
100
AcDbLine
 10
331.8884585566
 20
488.8881705259
 30
0.0
 11
331.8884585566
 21
492.0881705259
 31
0.0
  0
LINE
  5
17E
330
99
100
AcDbEntity
  8
$DDT_AUDIT_GENERATED_(177)
  6
Continuous
 62
     7
100
AcDbLine
 10
250.6884585566
 20
492.0881705259
 30
0.0
 11
250.6884585566
 21
488.8881705259
 31
0.0
  0
ARC
  5
17F
330
99
100
AcDbEntity
  8
$DDT_AUDIT_GENERATED_(177)
  6
Continuous
 62
     7
100
AcDbCircle
 10
332.3884585566
 20
492.0881705259
 30
0.0
 40
0.5000000000000004
100
AcDbArc
 50
90.0
 51
180.0
  0
ARC
  5
180
330
99
100
AcDbEntity
  8
$DDT_AUDIT_GENERATED_(177)
  6
Continuous
 62
     7
100
AcDbCircle
 10
250.1884585566
 20
492.0881705259
 30
0.0
 40
0.5
100
AcDbArc
 50
0.0
 51
90.0
  0
ARC
  5
181
330
99
100
AcDbEntity
  8
$DDT_AUDIT_GENERATED_(177)
  6
Continuous
 62
     7
100
AcDbCircle
 10
331.5884585566
 20
488.8881705259
 30
0.0
 40
0.2999999999999999
100
AcDbArc
 50
270.0
 51
0.0
  0
ARC
  5
182
330
99
100
AcDbEntity
  8
$DDT_AUDIT_GENERATED_(177)
  6
Continuous
 62
     7
100
AcDbCircle
 10
250.9884585566
 20
488.8881705259
 30
0.0
 40
0.2999999999999947
100
AcDbArc
 50
180.0
 51
270.0
  0
ENDBLK
  5
184
330
99
100
AcDbEntity
  8
0
100
AcDbBlockEnd
  0
BLOCK
  5
1ED
330
185
100
AcDbEntity
  8
0
100
AcDbBlockBegin
  2
SE1
 70
     0
 10
0.0
 20
0.0
 30
0.0
  3
SE1
  1

  0
ARC
  5
188
330
185
100
AcDbEntity
  8
DV2_Default
  6
Continuous
 62
     7
100
AcDbCircle
 10
729.3284260695
 20
484.5773153525
 30
0.0
 40
8.010869529999901
100
AcDbArc
 50
89.8915262928
 51
171.306334797
  0
SPLINE
  5
189
330
185
100
AcDbEntity
  8
DV2_Default
  6
Continuous
 62
     7
100
AcDbSpline
210
0.0
220
0.0
230
1.0
 70
     8
 71
     3
 72
    11
 73
     7
 74
     0
 42
0.0000000011724678
 43
0.0000000001
 40
0.0
 40
0.0
 40
0.0
 40
0.0
 40
0.25
 40
0.5
 40
0.75
 40
1.0
 40
1.0
 40
1.0
 40
1.0
 10
721.6575893672829
 20
490.4478047414526
 30
0.0
 10
721.644166678768
 20
490.7420194450693
 30
0.0
 10
722.018969488541
 20
491.3107976708004
 30
0.0
 10
723.6303822719012
 20
492.0656071544948
 30
0.0
 10
726.167892560837
 20
492.6263672028153
 30
0.0
 10
728.2599880003279
 20
492.8772679267554
 30
0.0
 10
729.3271381355397
 20
492.9217955852363
 30
0.0
  0
SPLINE
  5
18A
330
185
100
AcDbEntity
  8
DV2_Default
  6
Continuous
 62
     7
100
AcDbSpline
210
0.0
220
0.0
230
1.0
 70
     8
 71
     3
 72
    11
 73
     7
 74
     0
 42
0.0000000010171252
 43
0.0000000001
 40
0.0
 40
0.0
 40
0.0
 40
0.0
 40
0.25
 40
0.5
 40
0.75
 40
1.0
 40
1.0
 40
1.0
 40
1.0
 10
721.6492575848896
 20
488.1541602860165
 30
0.0
 10
721.6779032234609
 20
488.7181870807945
 30
0.0
 10
722.0835006801028
 20
489.8167283070603
 30
0.0
 10
723.6627439824713
 20
491.3013101630045
 30
0.0
 10
726.1833909919496
 20
492.3895173041386
 30
0.0
 10
728.2813344403353
 20
492.7522154378251
 30
0.0
 10
729.334882970556
 20
492.7745811274557
 30
0.0
  0
SPLINE
  5
18B
330
185
100
AcDbEntity
  8
DV2_Default
  6
Continuous
 62
     7
100
AcDbSpline
210
0.0
220
0.0
230
1.0
 70
     8
 71
     3
 72
    11
 73
     7
 74
     0
 42
0.0000000009173768
 43
0.0000000001
 40
0.0
 40
0.0
 40
0.0
 40
0.0
 40
0.25
 40
0.5
 40
0.75
 40
1.0
 40
1.0
 40
1.0
 40
1.0
 10
721.5252895800177
 20
486.6579705079459
 30
0.0
 10
721.6129730275577
 20
487.42500350072
 30
0.0
 10
722.1034503781818
 20
488.9038946402682
 30
0.0
 10
723.7305409688926
 20
490.8717799221037
 30
0.0
 10
726.2340086456418
 20
492.2864885909769
 30
0.0
 10
728.3046272252682
 20
492.6704412451745
 30
0.0
 10
729.3402258728652
 20
492.6629119120165
 30
0.0
  0
ARC
  5
18C
330
185
100
AcDbEntity
  8
DV2_Default
  6
Continuous
 62
     7
100
AcDbCircle
 10
729.2426730253
 20
484.6905194982
 30
0.0
 40
7.909657791326547
100
AcDbArc
 50
89.2726052018
 51
171.0198788664
  0
ARC
  5
18D
330
185
100
AcDbEntity
  8
DV2_Default
  6
Continuous
 62
     7
100
AcDbCircle
 10
697.6811326669
 20
489.3881705259
 30
0.0
 40
24.00000000000002
100
AcDbArc
 50
285.0000316161
 51
16.3326219425
  0
ARC
  5
18E
330
185
100
AcDbEntity
  8
DV2_Default
  6
Continuous
 62
     7
100
AcDbCircle
 10
697.6811326669
 20
489.3881705259
 30
0.0
 40
24.00000000000002
100
AcDbArc
 50
83.8977720951
 51
90.0
  0
ARC
  5
18F
330
185
100
AcDbEntity
  8
DV2_Default
  6
Continuous
 62
     7
100
AcDbCircle
 10
697.6811326669
 20
489.3881705259
 30
0.0
 40
24.00000000001914
100
AcDbArc
 50
86.9300989514
 51
89.8641387077
  0
LINE
  5
190
330
185
100
AcDbEntity
  8
DV2_Default
  6
Continuous
 62
     7
100
AcDbLine
 10
658.939951712
 20
454.1608740454
 30
0.0
 11
703.8928025414
 21
466.2059541226
 31
0.0
  0
LINE
  5
191
330
185
100
AcDbEntity
  8
DV2_Default
  6
Continuous
 62
     7
100
AcDbLine
 10
697.6811326669
 20
513.3881705259
 30
0.0
 11
689.0800398218
 21
513.3881705259
 31
0.0
  0
LINE
  5
192
330
185
100
AcDbEntity
  8
DV2_Default
  6
Continuous
 62
     7
100
AcDbLine
 10
677.9329982844
 20
513.3881705259
 30
0.0
 11
672.5042771442
 21
513.3881705259
 31
0.0
  0
LINE
  5
193
330
185
100
AcDbEntity
  8
DV2_Default
  6
Continuous
 62
     7
100
AcDbLine
 10
657.6811326669
 20
512.3881705259
 30
0.0
 11
657.6811326669
 21
455.1267998716
 31
0.0
  0
ARC
  5
194
330
185
100
AcDbEntity
  8
DV2_Default
  6
Continuous
 62
     7
100
AcDbCircle
 10
658.6811326669
 20
455.1267998716
 30
0.0
 40
1.000000000000001
100
AcDbArc
 50
180.0
 51
285.0
  0
ARC
  5
195
330
185
100
AcDbEntity
  8
DV2_Default
  6
Continuous
 62
     7
100
AcDbCircle
 10
658.6811326669
 20
512.3881705259
 30
0.0
 40
1.000000000000001
100
AcDbArc
 50
175.9958281848
 51
180.0
  0
LINE
  5
196
330
185
100
AcDbEntity
  8
DV2_Default
  6
Continuous
 62
     7
100
AcDbLine
 10
729.3435924257
 20
492.5881705259
 30
0.0
 11
785.8811326669
 21
492.5881705259
 31
0.0
  0
ARC
  5
197
330
185
100
AcDbEntity
  8
DV2_Default
  6
Continuous
 62
     7
100
AcDbCircle
 10
785.8811326669
 20
502.9881705259
 30
0.0
 40
10.4
100
AcDbArc
 50
269.9999999999
 51
90.0
  0
SPLINE
  5
198
330
185
100
AcDbEntity
  8
DV2_Default
  6
Continuous
 62
     7
100
AcDbSpline
210
0.0
220
0.0
230
1.0
 70
     8
 71
     2
 72
    12
 73
     9
 74
     0
 42
0.000000000377059
 43
0.0000000001
 40
0.0
 40
0.0
 40
0.0
 40
0.2018109132485394
 40
0.2018109132485394
 40
0.4678739421656929
 40
0.4678739421656929
 40
0.7339369710828465
 40
0.7339369710828465
 40
1.0
 40
1.0
 40
1.0
 10
714.303066648838
 20
512.8881701678422
 30
0.0
 10
716.8097736776543
 20
512.0123486216103
 30
0.0
 10
719.0598623497602
 20
510.5607425238349
 30
0.0
 10
722.0279127561369
 20
508.6459557326241
 30
0.0
 10
724.2657063246066
 20
505.9151284650528
 30
0.0
 10
726.5044506351554
 20
503.1831409866246
 30
0.0
 10
727.7980547836329
 20
499.8980647428031
 30
0.0
 10
729.0917861360538
 20
496.6126654676639
 30
0.0
 10
729.3172263434201
 20
493.088170525891
 30
0.0
  0
LINE
  5
199
330
185
100
AcDbEntity
  8
DV2_Default
  6
Continuous
 62
     7
100
AcDbLine
 10
714.3018119028
 20
513.3881705259
 30
0.0
 11
709.6955741037
 21
513.3881705259
 31
0.0
  0
LINE
  5
19A
330
185
100
AcDbEntity
  8
DV2_Default
  6
Continuous
 62
     7
100
AcDbLine
 10
785.8811326669
 20
513.3881705259
 30
0.0
 11
714.3043217372
 21
513.3881705259
 31
0.0
  0
LINE
  5
19B
330
185
100
AcDbEntity
  8
DV2_Default
  6
Continuous
 62
     7
100
AcDbLine
 10
709.6955741037
 20
513.3881705259
 30
0.0
 11
697.6811326669
 21
513.3881705259
 31
0.0
  0
LINE
  5
19C
330
185
100
AcDbEntity
  8
DV2_Default
  6
Continuous
 62
     7
100
AcDbLine
 10
721.4296152786
 20
485.9028122035
 30
0.0
 11
721.4452477204
 21
485.9918971549
 31
0.0
  0
LINE
  5
19D
330
185
100
AcDbEntity
  8
DV2_Default
  6
Continuous
 62
     7
100
AcDbLine
 10
681.1827515547
 20
457.6918555219
 30
0.0
 11
699.1827515547
 21
457.6918555219
 31
0.0
  0
LINE
  5
19E
330
185
100
AcDbEntity
  8
DV2_Default
  6
Continuous
 62
     7
100
AcDbLine
 10
700.6627515547
 20
456.2118555219
 30
0.0
 11
679.7027515547
 21
456.2118555219
 31
0.0
  0
LINE
  5
19F
330
185
100
AcDbEntity
  8
DV2_Default
  6
Continuous
 62
     7
100
AcDbLine
 10
699.4627515547
 20
448.7918555219
 30
0.0
 11
680.9027515547
 21
448.7918555219
 31
0.0
  0
LINE
  5
1A0
330
185
100
AcDbEntity
  8
DV2_Default
  6
Continuous
 62
     7
100
AcDbLine
 10
700.6627515547
 20
449.9918555219
 30
0.0
 11
679.7027515547
 21
449.9918555219
 31
0.0
  0
LINE
  5
1A1
330
185
100
AcDbEntity
  8
DV2_Default
  6
Continuous
 62
     7
100
AcDbLine
 10
679.7027515547
 20
456.2118555219
 30
0.0
 11
679.7027515547
 21
449.9918555219
 31
0.0
  0
LINE
  5
1A2
330
185
100
AcDbEntity
  8
DV2_Default
  6
Continuous
 62
     7
100
AcDbLine
 10
700.6627515547
 20
449.9918555219
 30
0.0
 11
700.6627515547
 21
456.2118555219
 31
0.0
  0
LINE
  5
1A3
330
185
100
AcDbEntity
  8
DV2_Default
  6
Continuous
 62
     7
100
AcDbLine
 10
681.1827515547
 20
460.1208143006
 30
0.0
 11
681.1827515547
 21
457.6918555219
 31
0.0
  0
LINE
  5
1A4
330
185
100
AcDbEntity
  8
DV2_Default
  6
Continuous
 62
     7
100
AcDbLine
 10
699.1827515547
 20
457.6918555219
 30
0.0
 11
699.1827515547
 21
464.9438997644
 31
0.0
  0
LINE
  5
1A5
330
185
100
AcDbEntity
  8
DV2_Default
  6
Continuous
 62
     7
100
AcDbLine
 10
700.6627515547
 20
456.2118555219
 30
0.0
 11
699.1827515547
 21
457.6918555219
 31
0.0
  0
LINE
  5
1A6
330
185
100
AcDbEntity
  8
DV2_Default
  6
Continuous
 62
     7
100
AcDbLine
 10
681.1827515547
 20
457.6918555219
 30
0.0
 11
679.7027515547
 21
456.2118555219
 31
0.0
  0
LINE
  5
1A7
330
185
100
AcDbEntity
  8
DV2_Default
  6
Continuous
 62
     7
100
AcDbLine
 10
679.7027515547
 20
449.9918555219
 30
0.0
 11
680.9027515547
 21
448.7918555219
 31
0.0
  0
LINE
  5
1A8
330
185
100
AcDbEntity
  8
DV2_Default
  6
Continuous
 62
     7
100
AcDbLine
 10
699.4627515547
 20
448.7918555219
 30
0.0
 11
700.6627515547
 21
449.9918555219
 31
0.0
  0
LINE
  5
1A9
330
185
100
AcDbEntity
  8
DV2_Default
  6
Continuous
 62
     7
100
AcDbLine
 10
699.4977515547
 20
457.3768555219
 30
0.0
 11
699.4977515547
 21
448.8268555219
 31
0.0
  0
LINE
  5
1AA
330
185
100
AcDbEntity
  8
DV2_Default
  6
Continuous
 62
     7
100
AcDbLine
 10
680.8677515547
 20
457.3768555219
 30
0.0
 11
680.8677515547
 21
448.8268555219
 31
0.0
  0
LINE
  5
1AB
330
185
100
AcDbEntity
  8
DV2_Default
  6
Continuous
 62
     7
100
AcDbLine
 10
605.6811326669
 20
440.8918555219
 30
0.0
 11
605.6811326669
 21
509.8918555219
 31
0.0
  0
ARC
  5
1AC
330
185
100
AcDbEntity
  8
DV2_Default
  6
Continuous
 62
     7
100
AcDbCircle
 10
636.8456496767
 20
442.6951769518
 30
0.0
 40
1.499999999999999
100
AcDbArc
 50
271.5
 51
358.1234685545
  0
LINE
  5
1AD
330
185
100
AcDbEntity
  8
DV2_Default
  6
Continuous
 62
     7
100
AcDbLine
 10
606.1942211411
 20
440.3920268594
 30
0.0
 11
636.8849150991
 21
441.1956909643
 31
0.0
  0
LINE
  5
1AE
330
185
100
AcDbEntity
  8
DV2_Default
  6
Continuous
 62
     7
100
AcDbLine
 10
614.6811326669
 20
510.1694465848
 30
0.0
 11
606.1942211411
 21
510.3916841844
 31
0.0
  0
ARC
  5
1AF
330
185
100
AcDbEntity
  8
DV2_Default
  6
Continuous
 62
     7
100
AcDbCircle
 10
606.1811326669
 20
509.8918555219
 30
0.0
 40
0.500000000000002
100
AcDbArc
 50
88.5
 51
180.0
  0
ARC
  5
1B0
330
185
100
AcDbEntity
  8
DV2_Default
  6
Continuous
 62
     7
100
AcDbCircle
 10
606.1811326669
 20
440.8918555219
 30
0.0
 40
0.5000000000000004
100
AcDbArc
 50
180.0
 51
271.5
  0
ARC
  5
1B1
330
185
100
AcDbEntity
  8
DV2_Default
  6
Continuous
 62
     7
100
AcDbCircle
 10
-361.1188673331
 20
475.3918555219
 30
0.0
 40
1000.0
100
AcDbArc
 50
358.1234685545
 51
358.3987485112
  0
ARC
  5
1B2
330
185
100
AcDbEntity
  8
DV2_Default
  6
Continuous
 62
     7
100
AcDbCircle
 10
677.102490507
 20
-1992.0423290097
 30
0.0
 40
2505.461260489031
100
AcDbArc
 50
90.1159883165
 51
90.1839774682
  0
SPLINE
  5
1B3
330
185
100
AcDbEntity
  8
DV2_Default
  6
Continuous
 62
     7
100
AcDbSpline
210
0.0
220
0.0
230
1.0
 70
     8
 71
     3
 72
     9
 73
     5
 74
     0
 42
0.0000000271159644
 43
0.0000000001
 40
0.0
 40
0.0
 40
0.0
 40
0.0
 40
0.0395639272174161
 40
1.0
 40
1.0
 40
1.0
 40
1.0
 10
706.102126425685
 20
511.8711683601798
 30
0.0
 10
706.1099105083734
 20
511.8682495452445
 30
0.0
 10
706.2996706720033
 20
511.797031230364
 30
0.0
 10
706.3107664392321
 20
511.7921037600715
 30
0.0
 10
706.1746036955896
 20
511.8438053697992
 30
0.0
  0
SPLINE
  5
1B4
330
185
100
AcDbEntity
  8
DV2_Default
  6
Continuous
 62
     7
100
AcDbSpline
210
0.0
220
0.0
230
1.0
 70
     8
 71
     3
 72
     8
 73
     4
 74
     0
 42
0.0000000019390086
 43
0.0000000001
 40
0.0
 40
0.0
 40
0.0
 40
0.0
 40
1.0
 40
1.0
 40
1.0
 40
1.0
 10
677.932994159023
 20
513.3921007678912
 30
0.0
 10
676.213882155944
 20
513.3944529888989
 30
0.0
 10
674.4948032138399
 20
513.3972284192062
 30
0.0
 10
672.7757249817015
 20
513.3996368297478
 30
0.0
  0
SPLINE
  5
1B5
330
185
100
AcDbEntity
  8
DV2_Default
  6
Continuous
 62
     7
100
AcDbSpline
210
0.0
220
0.0
230
1.0
 70
     8
 71
     3
 72
     8
 73
     4
 74
     0
 42
0.0000000017018625
 43
0.0000000001
 40
0.0
 40
0.0
 40
0.0
 40
0.0
 40
1.0
 40
1.0
 40
1.0
 40
1.0
 10
671.5586645689643
 20
513.4012702125726
 30
0.0
 10
669.6000518349279
 20
513.4037667011283
 30
0.0
 10
667.6414301121622
 20
513.4055446877979
 30
0.0
 10
665.68275155468
 20
513.4054354520174
 30
0.0
  0
SPLINE
  5
1B6
330
185
100
AcDbEntity
  8
DV2_Default
  6
Continuous
 62
     7
100
AcDbSpline
210
0.0
220
0.0
230
1.0
 70
     8
 71
     3
 72
     9
 73
     5
 74
     0
 42
0.0000001470083182
 43
0.0000000001
 40
0.0
 40
0.0
 40
0.0
 40
0.0
 40
0.2236922463730501
 40
1.0
 40
1.0
 40
1.0
 40
1.0
 10
706.2386158075097
 20
511.8204597430097
 30
0.0
 10
706.2384909899758
 20
511.820406207155
 30
0.0
 10
706.2329110367283
 20
511.8220755970107
 30
0.0
 10
706.2036117107798
 20
511.8330045888766
 30
0.0
 10
706.1747497828513
 20
511.8437345721925
 30
0.0
  0
LINE
  5
1B7
330
185
100
AcDbEntity
  8
DV2_Default
  6
Continuous
 62
     7
100
AcDbLine
 10
689.1031245232
 20
510.1918555219
 30
0.0
 11
689.6422291836
 21
510.1918555219
 31
0.0
  0
LINE
  5
1B8
330
185
100
AcDbEntity
  8
DV2_Default
  6
Continuous
 62
     7
100
AcDbLine
 10
682.9433485817
 20
506.3918555219
 30
0.0
 11
683.2504960137
 21
506.3918555219
 31
0.0
  0
LINE
  5
1B9
330
185
100
AcDbEntity
  8
DV2_Default
  6
Continuous
 62
     7
100
AcDbLine
 10
684.8765030798
 20
507.8918555219
 30
0.0
 11
685.2312456217
 21
507.8918555219
 31
0.0
  0
ARC
  5
1BA
330
185
100
AcDbEntity
  8
DV2_Default
  6
Continuous
 62
     7
100
AcDbCircle
 10
704.3827514298
 20
512.1307566445
 30
0.0
 40
0.300000124870164
100
AcDbArc
 50
51.9585489033
 51
73.607962664
  0
ARC
  5
1BB
330
185
100
AcDbEntity
  8
DV2_Default
  6
Continuous
 62
     7
100
AcDbCircle
 10
677.7427827386
 20
-1745.267617448
 30
0.0
 40
2258.69043116632
100
AcDbArc
 50
90.1230612376
 51
90.1315685688
  0
SPLINE
  5
1BC
330
185
100
AcDbEntity
  8
DV2_Default
  6
Continuous
 62
     7
100
AcDbSpline
210
0.0
220
0.0
230
1.0
 70
    12
 71
     3
 72
    10
 73
     6
 74
     0
 42
0.0000000017174234
 43
0.0000000001
 40
0.0
 40
0.0
 40
0.0
 40
0.0
 40
0.5000250130672743
 40
0.5000250130672743
 40
1.0
 40
1.0
 40
1.0
 40
1.0
 10
677.5694081485873
 20
513.402511716433
 30
0.0
 41
1.0
 10
678.5379941641562
 20
513.4016773002073
 30
0.0
 41
1.0
 10
679.5087976350632
 20
513.4006206654208
 30
0.0
 41
1.0
 10
681.4505263944634
 20
513.397954721768
 30
0.0
 41
1.0
 10
682.4213286610976
 20
513.3963459408279
 30
0.0
 41
1.0
 10
683.3920779762506
 20
513.3944065325304
 30
0.0
 41
1.0
  0
SPLINE
  5
1BD
330
185
100
AcDbEntity
  8
DV2_Default
  6
Continuous
 62
     7
100
AcDbSpline
210
0.0
220
0.0
230
1.0
 70
    12
 71
     3
 72
    10
 73
     6
 74
     0
 42
0.000000007144325
 43
0.0000000001
 40
0.0
 40
0.0
 40
0.0
 40
0.0
 40
0.0007119889776875
 40
0.0007119889776875
 40
1.0
 40
1.0
 40
1.0
 40
1.0
 10
697.957999397094
 20
513.3371920928099
 30
0.0
 41
1.0
 10
697.9583320494514
 20
513.3371847678542
 30
0.0
 41
1.0
 10
697.9586647018264
 20
513.3371774419937
 30
0.0
 41
1.0
 10
698.4258803510479
 20
513.3268868821207
 30
0.0
 41
1.0
 10
698.8944362237787
 20
513.3191919985461
 30
0.0
 41
1.0
 10
699.3569620314169
 20
513.2961604447381
 30
0.0
 41
1.0
  0
SPLINE
  5
1BE
330
185
100
AcDbEntity
  8
DV2_Default
  6
Continuous
 62
     7
100
AcDbSpline
210
0.0
220
0.0
230
1.0
 70
    12
 71
     3
 72
    10
 73
     6
 74
     0
 42
0.0000000099682417
 43
0.0000000001
 40
0.0
 40
0.0
 40
0.0
 40
0.0
 40
0.628924625857354
 40
0.628924625857354
 40
1.0
 40
1.0
 40
1.0
 40
1.0
 10
706.0317191633864
 20
511.9021611491209
 30
0.0
 41
1.0
 10
706.2755696020615
 20
511.8122920578147
 30
0.0
 41
1.0
 10
706.3311476229055
 20
511.7843118831739
 30
0.0
 41
1.0
 10
706.0822322555215
 20
511.8788862067809
 30
0.0
 41
1.0
 10
705.9197708367393
 20
511.9417833420219
 30
0.0
 41
1.0
 10
705.6932732943425
 20
512.0229159699676
 30
0.0
 41
1.0
  0
SPLINE
  5
1BF
330
185
100
AcDbEntity
  8
DV2_Default
  6
Continuous
 62
     7
100
AcDbSpline
210
0.0
220
0.0
230
1.0
 70
    12
 71
     3
 72
     8
 73
     4
 74
     0
 42
0.0000001950222322
 43
0.0000000001
 40
0.0
 40
0.0
 40
0.0
 40
0.0
 40
1.0
 40
1.0
 40
1.0
 40
1.0
 10
704.9667827655065
 20
512.2678501868194
 30
0.0
 41
1.0
 10
704.9506231694501
 20
512.2729756791841
 30
0.0
 41
1.0
 10
704.93432478305
 20
512.2781247040703
 30
0.0
 41
1.0
 10
704.9178883010896
 20
512.2832961643705
 30
0.0
 41
1.0
  0
ARC
  5
1C0
330
185
100
AcDbEntity
  8
DV2_Default
  6
Continuous
 62
     7
100
AcDbCircle
 10
697.6806420101
 20
489.3932656585
 30
0.0
 40
23.99904058203987
100
AcDbArc
 50
179.700914941
 51
55.1184010067
  0
LINE
  5
1C1
330
185
100
AcDbEntity
  8
DV2_Default
  6
Continuous
 62
     7
100
AcDbLine
 10
673.6819283974
 20
489.518540538
 30
0.0
 11
673.7162496666
 21
492.7453825997
 31
0.0
  0
SPLINE
  5
1C2
330
185
100
AcDbEntity
  8
DV2_Default
  6
Continuous
 62
     7
100
AcDbSpline
210
0.0
220
0.0
230
1.0
 70
     8
 71
     3
 72
    22
 73
    18
 74
     0
 42
0.0000000004115571
 43
0.0000000001
 40
0.0
 40
0.0
 40
0.0
 40
0.0
 40
0.0625000000000001
 40
0.0625000000000001
 40
0.1250000000000001
 40
0.1250000000000001
 40
0.2500000000000003
 40
0.2500000000000003
 40
0.3750000000000004
 40
0.3750000000000004
 40
0.5000000000000006
 40
0.5000000000000006
 40
0.6250000000000007
 40
0.6250000000000007
 40
0.7500000000000007
 40
0.7500000000000007
 40
1.0
 40
1.0
 40
1.0
 40
1.0
 10
673.7162496665788
 20
492.7453825997292
 30
0.0
 10
673.7275927852825
 20
493.25338068907
 30
0.0
 10
673.7385498827024
 20
493.7613859394244
 30
0.0
 10
673.7550635043584
 20
494.7774966252292
 30
0.0
 10
673.7684385758
 20
495.2869419226116
 30
0.0
 10
673.692772018477
 20
496.7984377878395
 30
0.0
 10
673.5089366790921
 20
497.7876805683704
 30
0.0
 10
672.8734059107461
 20
499.7278157856147
 30
0.0
 10
672.4345720549478
 20
500.6312689672436
 30
0.0
 10
671.3244065617813
 20
502.3102501466071
 30
0.0
 10
670.6454045769663
 20
503.0872572463456
 30
0.0
 10
669.1285857417604
 20
504.4102611174814
 30
0.0
 10
668.2659659229655
 20
504.9698586455372
 30
0.0
 10
666.4604835632299
 20
505.8752705290135
 30
0.0
 10
665.5192128381386
 20
506.230425679712
 30
0.0
 10
662.6402090543793
 20
507.1561545988361
 30
0.0
 10
660.6576750073457
 20
507.5985056067711
 30
0.0
 10
658.6829211460237
 20
508.0393445600208
 30
0.0
  0
SPLINE
  5
1C3
330
185
100
AcDbEntity
  8
DV2_Default
  6
Continuous
 62
     7
100
AcDbSpline
210
0.0
220
0.0
230
1.0
 70
     8
 71
     3
 72
    18
 73
    14
 74
     0
 42
0.0000000002144267
 43
0.0000000001
 40
0.0
 40
0.0
 40
0.0
 40
0.0
 40
0.5
 40
0.5
 40
0.625
 40
0.625
 40
0.6875
 40
0.6875
 40
0.75
 40
0.75
 40
0.875
 40
0.875
 40
1.0
 40
1.0
 40
1.0
 40
1.0
 10
665.6827515546747
 20
513.4054354522121
 30
0.0
 10
673.456346055118
 20
513.4058689866896
 30
0.0
 10
681.2298632665414
 20
513.3768681245484
 30
0.0
 10
690.9469625893611
 20
513.3940526267788
 30
0.0
 10
692.8903849421473
 20
513.3982161318789
 30
0.0
 10
695.80541674267
 20
513.3747548327688
 30
0.0
 10
696.7772265165121
 20
513.3619796346973
 30
0.0
 10
698.7201624997853
 20
513.3213855179768
 30
0.0
 10
699.6912248932559
 20
513.2986611162819
 30
0.0
 10
702.5623079940865
 20
512.9785117794063
 30
0.0
 10
704.4432312417009
 20
512.5097693063672
 30
0.0
 10
708.0872276590804
 20
511.1085690682053
 30
0.0
 10
709.7977982514419
 20
510.1935282871632
 30
0.0
 10
711.4061976067852
 20
509.0818605978052
 30
0.0
  0
LINE
  5
1C4
330
185
100
AcDbEntity
  8
DV2_Default
  6
Continuous
 62
     7
100
AcDbLine
 10
658.682921146
 20
508.03934456
 30
0.0
 11
658.4643167086
 21
508.0881452502
 31
0.0
  0
LINE
  5
1C5
330
185
100
AcDbEntity
  8
DV2_Default
  6
Continuous
 62
     7
100
AcDbLine
 10
658.6821912463
 20
513.4054354521
 30
0.0
 11
665.6827515547
 21
513.4054354522
 31
0.0
  0
ARC
  5
1C6
330
185
100
AcDbEntity
  8
DV2_Default
  6
Continuous
 62
     7
100
AcDbCircle
 10
658.6821912463
 20
509.0641220357
 30
0.0
 40
0.9999999999999907
100
AcDbArc
 50
180.0
 51
257.4157750306
  0
ARC
  5
1C7
330
185
100
AcDbEntity
  8
DV2_Default
  6
Continuous
 62
     7
100
AcDbCircle
 10
658.6821912463
 20
512.4054354521
 30
0.0
 40
1.000000000000001
100
AcDbArc
 50
90.0
 51
180.0
  0
LINE
  5
1C8
330
185
100
AcDbEntity
  8
DV2_Default
  6
Continuous
 62
     7
100
AcDbLine
 10
657.6821912463
 20
509.0641220357
 30
0.0
 11
657.6821912463
 21
512.4054354521
 31
0.0
  0
CIRCLE
  5
1C9
330
185
100
AcDbEntity
  8
DV2_Default
  6
Continuous
 62
     7
100
AcDbCircle
 10
697.6827515547
 20
489.3918555219
 30
0.0
 40
22.5
  0
LINE
  5
1CA
330
185
100
AcDbEntity
  8
DV2_Default
  6
Continuous
 62
     7
100
AcDbLine
 10
689.1651165745
 20
510.2173181661
 30
0.0
 11
689.708411102
 21
510.2173181661
 31
0.0
  0
LINE
  5
1CB
330
185
100
AcDbEntity
  8
DV2_Default
  6
Continuous
 62
     7
100
AcDbLine
 10
690.2876518258
 20
510.6418555219
 30
0.0
 11
690.9205403778
 21
510.6418555219
 31
0.0
  0
LINE
  5
1CC
330
185
100
AcDbEntity
  8
DV2_Default
  6
Continuous
 62
     7
100
AcDbLine
 10
682.3971234818
 20
505.6288372123
 30
0.0
 11
682.1480268191
 21
505.6682902479
 31
0.0
  0
LINE
  5
1CD
330
185
100
AcDbEntity
  8
DV2_Default
  6
Continuous
 62
     7
100
AcDbLine
 10
657.1811326669
 20
509.3881705259
 30
0.0
 11
615.1811326669
 21
509.3881705259
 31
0.0
  0
LINE
  5
1CE
330
185
100
AcDbEntity
  8
DV2_Default
  6
Continuous
 62
     7
100
AcDbLine
 10
657.3811326669
 20
509.3881705259
 30
0.0
 11
657.1811326669
 21
509.3881705259
 31
0.0
  0
LINE
  5
1CF
330
185
100
AcDbEntity
  8
DV2_Default
  6
Continuous
 62
     7
100
AcDbLine
 10
615.1811326669
 20
509.3881705259
 30
0.0
 11
614.9811326669
 21
509.3881705259
 31
0.0
  0
LINE
  5
1D0
330
185
100
AcDbEntity
  8
DV2_Default
  6
Continuous
 62
     7
100
AcDbLine
 10
614.6811326669
 20
509.6881705259
 30
0.0
 11
614.6811326669
 21
513.0881705259
 31
0.0
  0
LINE
  5
1D1
330
185
100
AcDbEntity
  8
DV2_Default
  6
Continuous
 62
     7
100
AcDbLine
 10
614.6811326669
 20
443.2752066905
 30
0.0
 11
614.6811326669
 21
509.0881705259
 31
0.0
  0
LINE
  5
1D2
330
185
100
AcDbEntity
  8
DV2_Default
  6
Continuous
 62
     7
100
AcDbLine
 10
614.6811326669
 20
509.0881705259
 30
0.0
 11
614.6811326669
 21
509.6881705259
 31
0.0
  0
ARC
  5
1D3
330
185
100
AcDbEntity
  8
DV2_Default
  6
Continuous
 62
     7
100
AcDbCircle
 10
616.6811326669
 20
443.2752066905
 30
0.0
 40
1.999999999999993
100
AcDbArc
 50
180.0
 51
286.0
  0
LINE
  5
1D4
330
185
100
AcDbEntity
  8
DV2_Default
  6
Continuous
 62
     7
100
AcDbLine
 10
656.2324073786
 20
452.5357533432
 30
0.0
 11
617.2324073786
 21
441.3526832986
 31
0.0
  0
ARC
  5
1D5
330
185
100
AcDbEntity
  8
DV2_Default
  6
Continuous
 62
     7
100
AcDbCircle
 10
655.6811326669
 20
454.4582767351
 30
0.0
 40
1.999999999999995
100
AcDbArc
 50
286.0
 51
0.0
  0
LINE
  5
1D6
330
185
100
AcDbEntity
  8
DV2_Default
  6
Continuous
 62
     7
100
AcDbLine
 10
657.6811326669
 20
513.0881705259
 30
0.0
 11
657.6811326669
 21
509.6881705259
 31
0.0
  0
LINE
  5
1D7
330
185
100
AcDbEntity
  8
DV2_Default
  6
Continuous
 62
     7
100
AcDbLine
 10
657.6811326669
 20
455.1267998716
 30
0.0
 11
657.6811326669
 21
454.4582767351
 31
0.0
  0
LINE
  5
1D8
330
185
100
AcDbEntity
  8
DV2_Default
  6
Continuous
 62
     7
100
AcDbLine
 10
614.9811326669
 20
513.3881705259
 30
0.0
 11
615.1811326669
 21
513.3881705259
 31
0.0
  0
LINE
  5
1D9
330
185
100
AcDbEntity
  8
DV2_Default
  6
Continuous
 62
     7
100
AcDbLine
 10
615.1811326669
 20
513.3881705259
 30
0.0
 11
657.1811326669
 21
513.3881705259
 31
0.0
  0
LINE
  5
1DA
330
185
100
AcDbEntity
  8
DV2_Default
  6
Continuous
 62
     7
100
AcDbLine
 10
657.1811326669
 20
513.3881705259
 30
0.0
 11
657.3811326669
 21
513.3881705259
 31
0.0
  0
ARC
  5
1DB
330
185
100
AcDbEntity
  8
DV2_Default
  6
Continuous
 62
     7
100
AcDbCircle
 10
657.3811326669
 20
509.6881705259
 30
0.0
 40
0.3000000000000017
100
AcDbArc
 50
270.0
 51
0.0
  0
ARC
  5
1DC
330
185
100
AcDbEntity
  8
DV2_Default
  6
Continuous
 62
     7
100
AcDbCircle
 10
614.9811326669
 20
509.6881705259
 30
0.0
 40
0.2999999999999947
100
AcDbArc
 50
180.0
 51
270.0
  0
ARC
  5
1DD
330
185
100
AcDbEntity
  8
DV2_Default
  6
Continuous
 62
     7
100
AcDbCircle
 10
614.9811326669
 20
513.0881705259
 30
0.0
 40
0.3000000000000017
100
AcDbArc
 50
90.0
 51
180.0
  0
ARC
  5
1DE
330
185
100
AcDbEntity
  8
DV2_Default
  6
Continuous
 62
     7
100
AcDbCircle
 10
657.3811326669
 20
513.0881705259
 30
0.0
 40
0.3000000000000017
100
AcDbArc
 50
0.0
 51
90.0
  0
LINE
  5
1DF
330
185
100
AcDbEntity
  8
DV2_Default
  6
Continuous
 62
     7
100
AcDbLine
 10
781.6327520072
 20
488.2918555219
 30
0.0
 11
773.7327520072
 21
488.2918555219
 31
0.0
  0
ARC
  5
1E0
330
185
100
AcDbEntity
  8
DV2_Default
  6
Continuous
 62
     7
100
AcDbCircle
 10
773.7327520072
 20
488.5918555219
 30
0.0
 40
0.2999999999999947
100
AcDbArc
 50
180.0
 51
270.0
  0
ARC
  5
1E1
330
185
100
AcDbEntity
  8
DV2_Default
  6
Continuous
 62
     7
100
AcDbCircle
 10
781.6327520072
 20
488.5918555219
 30
0.0
 40
0.2999999999999947
100
AcDbArc
 50
270.0
 51
0.0
  0
ARC
  5
1E2
330
185
100
AcDbEntity
  8
DV2_Default
  6
Continuous
 62
     7
100
AcDbCircle
 10
697.6827515547
 20
489.3918555219
 30
0.0
 40
22.29999999999999
100
AcDbArc
 50
236.8678986682
 51
223.132101436
  0
ARC
  5
1E3
330
185
100
AcDbEntity
  8
DV2_Default
  6
Continuous
 62
     7
100
AcDbCircle
 10
685.6035274327
 20
470.8850366539
 30
0.0
 40
0.1999999999999977
100
AcDbArc
 50
230.0000000521
 51
236.8678986682
  0
LINE
  5
1E4
330
185
100
AcDbEntity
  8
DV2_Default
  6
Continuous
 62
     7
100
AcDbLine
 10
681.426070612
 20
474.1292576673
 30
0.0
 11
685.4749699109
 21
470.7318277652
 31
0.0
  0
ARC
  5
1E5
330
185
100
AcDbEntity
  8
DV2_Default
  6
Continuous
 62
     7
100
AcDbCircle
 10
681.5546281338
 20
474.282466556
 30
0.0
 40
0.1999999999999909
100
AcDbArc
 50
223.132101436
 51
230.0000000521
  0
ARC
  5
1E6
330
185
100
AcDbEntity
  8
DV2_Default
  6
Continuous
 62
     7
100
AcDbCircle
 10
770.6843704424
 20
492.0881705259
 30
0.0
 40
0.5
100
AcDbArc
 50
0.0
 51
90.0
  0
ARC
  5
1E7
330
185
100
AcDbEntity
  8
DV2_Default
  6
Continuous
 62
     7
100
AcDbCircle
 10
784.6843704424
 20
492.0881705259
 30
0.0
 40
0.5000000000000004
100
AcDbArc
 50
90.0
 51
180.0
  0
LINE
  5
1E8
330
185
100
AcDbEntity
  8
DV2_Default
  6
Continuous
 62
     7
100
AcDbLine
 10
784.1843704424
 20
488.8881705259
 30
0.0
 11
784.1843704424
 21
492.0881705259
 31
0.0
  0
LINE
  5
1E9
330
185
100
AcDbEntity
  8
DV2_Default
  6
Continuous
 62
     7
100
AcDbLine
 10
771.1843704424
 20
488.8881705259
 30
0.0
 11
771.1843704424
 21
492.0881705259
 31
0.0
  0
LINE
  5
1EA
330
185
100
AcDbEntity
  8
DV2_Default
  6
Continuous
 62
     7
100
AcDbLine
 10
783.8843704424
 20
488.5881705259
 30
0.0
 11
771.4843704424
 21
488.5881705259
 31
0.0
  0
ARC
  5
1EB
330
185
100
AcDbEntity
  8
DV2_Default
  6
Continuous
 62
     7
100
AcDbCircle
 10
771.4843704424
 20
488.8881705259
 30
0.0
 40
0.2999999999999947
100
AcDbArc
 50
180.0
 51
270.0
  0
ARC
  5
1EC
330
185
100
AcDbEntity
  8
DV2_Default
  6
Continuous
 62
     7
100
AcDbCircle
 10
783.8843704424
 20
488.8881705259
 30
0.0
 40
0.2999999999999999
100
AcDbArc
 50
270.0
 51
0.0
  0
ENDBLK
  5
1EE
330
185
100
AcDbEntity
  8
0
100
AcDbBlockEnd
  0
BLOCK
  5
284
330
1EF
100
AcDbEntity
  8
0
100
AcDbBlockBegin
  2
SE2
 70
     0
 10
0.0
 20
0.0
 30
0.0
  3
SE2
  1

  0
ARC
  5
1F2
330
1EF
100
AcDbEntity
  8
DV3_Default
  6
Continuous
 62
     7
100
AcDbCircle
 10
238.7382981505
 20
173.3952009931
 30
0.0
 40
7.578405190732674
100
AcDbArc
 50
78.9785970521
 51
90.2334103211
  0
ARC
  5
1F3
330
1EF
100
AcDbEntity
  8
DV3_Default
  6
Continuous
 62
     7
100
AcDbCircle
 10
238.2109434454
 20
173.1593841413
 30
0.0
 40
8.07899297422355
100
AcDbArc
 50
1.0959297514
 51
9.3257307543
  0
ARC
  5
1F4
330
1EF
100
AcDbEntity
  8
DV3_Default
  6
Continuous
 62
     7
100
AcDbCircle
 10
238.2109434454
 20
173.1593841413
 30
0.0
 40
8.07899297422355
100
AcDbArc
 50
9.3257307543
 51
91.1388785237
  0
LINE
  5
1F5
330
1EF
100
AcDbEntity
  8
DV3_Default
  6
Continuous
 62
     7
100
AcDbLine
 10
237.3565750476
 20
182.4144681786
 30
0.0
 11
237.069163727
 21
183.312183155
 31
0.0
  0
LINE
  5
1F6
330
1EF
100
AcDbEntity
  8
DV3_Default
  6
Continuous
 62
     7
100
AcDbLine
 10
236.5683138878
 20
185.6279515055
 30
0.0
 11
236.4480465405
 21
186.3185682532
 31
0.0
  0
LINE
  5
1F7
330
1EF
100
AcDbEntity
  8
DV3_Default
  6
Continuous
 62
     7
100
AcDbLine
 10
236.4480465405
 20
186.3185682532
 30
0.0
 11
236.0920382864
 21
188.6168068772
 31
0.0
  0
LINE
  5
1F8
330
1EF
100
AcDbEntity
  8
DV3_Default
  6
Continuous
 62
     7
100
AcDbLine
 10
236.0920382864
 20
188.6168068772
 30
0.0
 11
235.7303095788
 21
191.280504977
 31
0.0
  0
LINE
  5
1F9
330
1EF
100
AcDbEntity
  8
DV3_Default
  6
Continuous
 62
     7
100
AcDbLine
 10
235.7303095788
 20
191.280504977
 30
0.0
 11
235.6138331564
 21
192.1924222281
 31
0.0
  0
LINE
  5
1FA
330
1EF
100
AcDbEntity
  8
DV3_Default
  6
Continuous
 62
     7
100
AcDbLine
 10
235.1128582688
 20
196.2070604733
 30
0.0
 11
234.8222789554
 21
198.42305559
 31
0.0
  0
LINE
  5
1FB
330
1EF
100
AcDbEntity
  8
DV3_Default
  6
Continuous
 62
     7
100
AcDbLine
 10
234.5273724905
 20
200.5135986703
 30
0.0
 11
234.3518344846
 21
201.6736878521
 31
0.0
  0
LINE
  5
1FC
330
1EF
100
AcDbEntity
  8
DV3_Default
  6
Continuous
 62
     7
100
AcDbLine
 10
161.2884585566
 20
204.95
 30
0.0
 11
233.7884585567
 21
204.95
 31
0.0
  0
ARC
  5
1FD
330
1EF
100
AcDbEntity
  8
DV3_Default
  6
Continuous
 62
     7
100
AcDbCircle
 10
222.6473655814
 20
181.4047653184
 30
0.0
 40
14.5474945927726
100
AcDbArc
 50
7.5341421019
 51
16.8761308534
  0
ARC
  5
1FE
330
1EF
100
AcDbEntity
  8
DV3_Default
  6
Continuous
 62
     7
100
AcDbCircle
 10
219.2788267633
 20
192.1918347468
 30
0.0
 40
16.33515807570845
100
AcDbArc
 50
0.0021233316
 51
14.2292601963
  0
ARC
  5
1FF
330
1EF
100
AcDbEntity
  8
DV3_Default
  6
Continuous
 62
     7
100
AcDbCircle
 10
229.6785232815
 20
198.7634588142
 30
0.0
 40
5.154994095524112
100
AcDbArc
 50
356.2163572195
 51
19.8454670566
  0
LINE
  5
200
330
1EF
100
AcDbEntity
  8
DV3_Default
  6
Continuous
 62
     7
100
AcDbLine
 10
160.7884585566
 20
243.95
 30
0.0
 11
160.7884585566
 21
204.95
 31
0.0
  0
LINE
  5
201
330
1EF
100
AcDbEntity
  8
DV3_Default
  6
Continuous
 62
     7
100
AcDbLine
 10
160.7884585566
 20
204.95
 30
0.0
 11
160.7884585566
 21
181.45
 31
0.0
  0
ARC
  5
202
330
1EF
100
AcDbEntity
  8
DV3_Default
  6
Continuous
 62
     7
100
AcDbCircle
 10
161.2884585566
 20
244.45
 30
0.0
 40
0.5000000000000004
100
AcDbArc
 50
90.0
 51
180.0
  0
LINE
  5
203
330
1EF
100
AcDbEntity
  8
DV3_Default
  6
Continuous
 62
     7
100
AcDbLine
 10
160.7884585566
 20
243.95
 30
0.0
 11
160.7884585566
 21
244.45
 31
0.0
  0
LINE
  5
204
330
1EF
100
AcDbEntity
  8
DV3_Default
  6
Continuous
 62
     7
100
AcDbLine
 10
246.7884585566
 20
116.75
 30
0.0
 11
335.7884585566
 21
116.75
 31
0.0
  0
LINE
  5
205
330
1EF
100
AcDbEntity
  8
DV3_Default
  6
Continuous
 62
     7
100
AcDbLine
 10
246.2884585566
 20
188.3268109296
 30
0.0
 11
246.2884585566
 21
116.75
 31
0.0
  0
LINE
  5
206
330
1EF
100
AcDbEntity
  8
DV3_Default
  6
Continuous
 62
     7
100
AcDbLine
 10
246.2884585566
 20
106.85
 30
0.0
 11
246.2884585566
 21
116.75
 31
0.0
  0
SPLINE
  5
207
330
1EF
100
AcDbEntity
  8
DV3_Default
  6
Continuous
 62
     7
100
AcDbSpline
210
0.0
220
0.0
230
1.0
 70
     8
 71
     3
 72
    24
 73
    20
 74
     0
 42
0.0000000005676229
 43
0.0000000001
 40
0.0
 40
0.0
 40
0.0
 40
0.0
 40
0.125
 40
0.125
 40
0.2499999999999999
 40
0.2499999999999999
 40
0.3749999999999999
 40
0.3749999999999999
 40
0.4374999999999999
 40
0.4374999999999999
 40
0.4999999999999999
 40
0.4999999999999999
 40
0.6249999999999999
 40
0.6249999999999999
 40
0.7499999999999998
 40
0.7499999999999998
 40
0.8749999999999999
 40
0.8749999999999999
 40
1.0
 40
1.0
 40
1.0
 40
1.0
 10
234.8816445690783
 20
204.8930906082657
 30
0.0
 10
235.6116534588801
 20
204.8215543013445
 30
0.0
 10
236.3371652492199
 20
204.6757427316293
 30
0.0
 10
237.7365008009635
 20
204.2409111682365
 30
0.0
 10
238.416989331814
 20
203.9498265601802
 30
0.0
 10
239.7005458664128
 20
203.2433705816739
 30
0.0
 10
240.3102171829116
 20
202.8246544992099
 30
0.0
 10
241.1556923869001
 20
202.1229274891406
 30
0.0
 10
241.4266063130866
 20
201.8765490861719
 30
0.0
 10
241.9475268516357
 20
201.3598992755873
 30
0.0
 10
242.1978470477825
 20
201.0891311858982
 30
0.0
 10
242.9105469788798
 20
200.2513846697395
 30
0.0
 10
243.3379954063248
 20
199.6562820094415
 30
0.0
 10
244.1036215435668
 20
198.4002502767425
 30
0.0
 10
244.4364335686667
 20
197.7480583340194
 30
0.0
 10
245.0108752726921
 20
196.399648987511
 30
0.0
 10
245.2516826628557
 20
195.7029604665035
 30
0.0
 10
245.6439610087192
 20
194.2939002106392
 30
0.0
 10
245.7968245896294
 20
193.5784784673307
 30
0.0
 10
245.9169804567751
 20
192.8549633991452
 30
0.0
  0
ARC
  5
208
330
1EF
100
AcDbEntity
  8
DV3_Default
  6
Continuous
 62
     7
100
AcDbCircle
 10
217.7762329295
 20
188.2670375836
 30
0.0
 40
28.51229094064273
100
AcDbArc
 50
0.1226374409
 51
9.2597464418
  0
ARC
  5
209
330
1EF
100
AcDbEntity
  8
DV3_Default
  6
Continuous
 62
     7
100
AcDbCircle
 10
233.7626777742
 20
194.8301582064
 30
0.0
 40
10.12495408449194
100
AcDbArc
 50
83.6549534256
 51
88.17917942
  0
ARC
  5
20A
330
1EF
100
AcDbEntity
  8
DV3_Default
  6
Continuous
 62
     7
100
AcDbCircle
 10
348.814239339
 20
194.8301582068
 30
0.0
 40
10.12495408407812
100
AcDbArc
 50
91.8208205799
 51
96.3450465745
  0
SPLINE
  5
20B
330
1EF
100
AcDbEntity
  8
DV3_Default
  6
Continuous
 62
     7
100
AcDbSpline
210
0.0
220
0.0
230
1.0
 70
     8
 71
     3
 72
    24
 73
    20
 74
     0
 42
0.0000000005676229
 43
0.0000000001
 40
0.0
 40
0.0
 40
0.0
 40
0.0
 40
0.125
 40
0.125
 40
0.2499999999999999
 40
0.2499999999999999
 40
0.3749999999999999
 40
0.3749999999999999
 40
0.4374999999999999
 40
0.4374999999999999
 40
0.4999999999999999
 40
0.4999999999999999
 40
0.6249999999999999
 40
0.6249999999999999
 40
0.7499999999999998
 40
0.7499999999999998
 40
0.8749999999999999
 40
0.8749999999999999
 40
1.0
 40
1.0
 40
1.0
 40
1.0
 10
347.6952725442143
 20
204.8930906082657
 30
0.0
 10
346.9652636544126
 20
204.8215543013444
 30
0.0
 10
346.2397518640727
 20
204.6757427316293
 30
0.0
 10
344.8404163123291
 20
204.2409111682365
 30
0.0
 10
344.1599277814787
 20
203.9498265601802
 30
0.0
 10
342.8763712468798
 20
203.2433705816739
 30
0.0
 10
342.266699930381
 20
202.8246544992099
 30
0.0
 10
341.4212247263926
 20
202.1229274891405
 30
0.0
 10
341.1503108002061
 20
201.8765490861719
 30
0.0
 10
340.629390261657
 20
201.3598992755873
 30
0.0
 10
340.3790700655102
 20
201.0891311858982
 30
0.0
 10
339.6663701344129
 20
200.2513846697394
 30
0.0
 10
339.2389217069679
 20
199.6562820094415
 30
0.0
 10
338.4732955697258
 20
198.4002502767424
 30
0.0
 10
338.1404835446259
 20
197.7480583340194
 30
0.0
 10
337.5660418406006
 20
196.399648987511
 30
0.0
 10
337.3252344504369
 20
195.7029604665035
 30
0.0
 10
336.9329561045735
 20
194.2939002106391
 30
0.0
 10
336.7800925236633
 20
193.5784784673307
 30
0.0
 10
336.6599366565175
 20
192.8549633991452
 30
0.0
  0
ARC
  5
20C
330
1EF
100
AcDbEntity
  8
DV3_Default
  6
Continuous
 62
     7
100
AcDbCircle
 10
364.8006841838
 20
188.2670375836
 30
0.0
 40
28.5122909406427
100
AcDbArc
 50
170.7402535582
 51
179.8773625591
  0
ARC
  5
20D
330
1EF
100
AcDbEntity
  8
DV3_Default
  6
Continuous
 62
     7
100
AcDbCircle
 10
344.3641579468
 20
173.1612721022
 30
0.0
 40
8.07714168786337
100
AcDbArc
 50
171.6236739024
 51
178.9172138366
  0
ARC
  5
20E
330
1EF
100
AcDbEntity
  8
DV3_Default
  6
Continuous
 62
     7
100
AcDbCircle
 10
344.3641579468
 20
173.1612721022
 30
0.0
 40
8.07714168786337
100
AcDbArc
 50
88.8479778883
 51
171.6236739024
  0
LINE
  5
20F
330
1EF
100
AcDbEntity
  8
DV3_Default
  6
Continuous
 62
     7
100
AcDbLine
 10
345.2203420657
 20
182.4144681786
 30
0.0
 11
345.5077533863
 21
183.312183155
 31
0.0
  0
ARC
  5
210
330
1EF
100
AcDbEntity
  8
DV3_Default
  6
Continuous
 62
     7
100
AcDbCircle
 10
359.9295515319
 20
181.4047653184
 30
0.0
 40
14.5474945927726
100
AcDbArc
 50
163.1238691466
 51
172.4658578981
  0
LINE
  5
211
330
1EF
100
AcDbEntity
  8
DV3_Default
  6
Continuous
 62
     7
100
AcDbLine
 10
346.0086032255
 20
185.6279515055
 30
0.0
 11
346.1288705728
 21
186.3185682532
 31
0.0
  0
LINE
  5
212
330
1EF
100
AcDbEntity
  8
DV3_Default
  6
Continuous
 62
     7
100
AcDbLine
 10
346.1288705728
 20
186.3185682532
 30
0.0
 11
346.4848788269
 21
188.6168068772
 31
0.0
  0
LINE
  5
213
330
1EF
100
AcDbEntity
  8
DV3_Default
  6
Continuous
 62
     7
100
AcDbLine
 10
346.4848788269
 20
188.6168068772
 30
0.0
 11
346.8466075345
 21
191.280504977
 31
0.0
  0
LINE
  5
214
330
1EF
100
AcDbEntity
  8
DV3_Default
  6
Continuous
 62
     7
100
AcDbLine
 10
346.8466075345
 20
191.280504977
 30
0.0
 11
346.9630839569
 21
192.1924222281
 31
0.0
  0
ARC
  5
215
330
1EF
100
AcDbEntity
  8
DV3_Default
  6
Continuous
 62
     7
100
AcDbCircle
 10
363.29809035
 20
192.1918347468
 30
0.0
 40
16.33515807570845
100
AcDbArc
 50
165.7707398037
 51
179.9978766684
  0
LINE
  5
216
330
1EF
100
AcDbEntity
  8
DV3_Default
  6
Continuous
 62
     7
100
AcDbLine
 10
347.4640588445
 20
196.2070604733
 30
0.0
 11
347.7546381579
 21
198.42305559
 31
0.0
  0
ARC
  5
217
330
1EF
100
AcDbEntity
  8
DV3_Default
  6
Continuous
 62
     7
100
AcDbCircle
 10
352.8983938318
 20
198.7634588142
 30
0.0
 40
5.154994095524112
100
AcDbArc
 50
160.1545329434
 51
183.7836427805
  0
LINE
  5
218
330
1EF
100
AcDbEntity
  8
DV3_Default
  6
Continuous
 62
     7
100
AcDbLine
 10
348.0495446228
 20
200.5135986703
 30
0.0
 11
348.2250826287
 21
201.6736878521
 31
0.0
  0
ARC
  5
219
330
1EF
100
AcDbEntity
  8
DV3_Default
  6
Continuous
 62
     7
100
AcDbCircle
 10
343.8386189628
 20
173.3952009931
 30
0.0
 40
7.578405190732688
100
AcDbArc
 50
89.7665896789
 51
114.1479506477
  0
LINE
  5
21A
330
1EF
100
AcDbEntity
  8
DV3_Default
  6
Continuous
 62
     7
100
AcDbLine
 10
421.2884585566
 20
204.95
 30
0.0
 11
348.7884585566
 21
204.95
 31
0.0
  0
LINE
  5
21B
330
1EF
100
AcDbEntity
  8
DV3_Default
  6
Continuous
 62
     7
100
AcDbLine
 10
421.7884585566
 20
243.95
 30
0.0
 11
421.7884585566
 21
204.95
 31
0.0
  0
LINE
  5
21C
330
1EF
100
AcDbEntity
  8
DV3_Default
  6
Continuous
 62
     7
100
AcDbLine
 10
421.7884585566
 20
204.95
 30
0.0
 11
421.7884585566
 21
181.45
 31
0.0
  0
ARC
  5
21D
330
1EF
100
AcDbEntity
  8
DV3_Default
  6
Continuous
 62
     7
100
AcDbCircle
 10
421.2884585566
 20
244.45
 30
0.0
 40
0.5000000000000004
100
AcDbArc
 50
0.0
 51
90.0
  0
LINE
  5
21E
330
1EF
100
AcDbEntity
  8
DV3_Default
  6
Continuous
 62
     7
100
AcDbLine
 10
421.7884585566
 20
243.95
 30
0.0
 11
421.7884585566
 21
244.45
 31
0.0
  0
LINE
  5
21F
330
1EF
100
AcDbEntity
  8
DV3_Default
  6
Continuous
 62
     7
100
AcDbLine
 10
336.2884585566
 20
188.3268109296
 30
0.0
 11
336.2884585566
 21
116.75
 31
0.0
  0
LINE
  5
220
330
1EF
100
AcDbEntity
  8
DV3_Default
  6
Continuous
 62
     7
100
AcDbLine
 10
336.2884585566
 20
106.85
 30
0.0
 11
336.2884585566
 21
116.75
 31
0.0
  0
ARC
  5
221
330
1EF
100
AcDbEntity
  8
DV3_Default
  6
Continuous
 62
     7
100
AcDbCircle
 10
238.5780058929
 20
173.2918169085
 30
0.0
 40
7.715070351394024
100
AcDbArc
 50
55.4812764513
 51
79.3056386383
  0
ARC
  5
222
330
1EF
100
AcDbEntity
  8
DV3_Default
  6
Continuous
 62
     7
100
AcDbCircle
 10
238.5780058929
 20
173.2918169085
 30
0.0
 40
7.715070351394024
100
AcDbArc
 50
8.7849327778
 51
11.2367541697
  0
LINE
  5
223
330
1EF
100
AcDbEntity
  8
DV3_Default
  6
Continuous
 62
     7
100
AcDbLine
 10
239.2150264927
 20
180.9505979431
 30
0.0
 11
240.0464396982
 21
180.8665695366
 31
0.0
  0
LINE
  5
224
330
1EF
100
AcDbEntity
  8
DV3_Default
  6
Continuous
 62
     7
100
AcDbLine
 10
343.3432306867
 20
180.95
 30
0.0
 11
421.2884585566
 21
180.95
 31
0.0
  0
LINE
  5
225
330
1EF
100
AcDbEntity
  8
DV3_Default
  6
Continuous
 62
     7
100
AcDbLine
 10
161.2884585566
 20
180.95
 30
0.0
 11
239.2336864266
 21
180.95
 31
0.0
  0
ARC
  5
226
330
1EF
100
AcDbEntity
  8
DV3_Default
  6
Continuous
 62
     7
100
AcDbCircle
 10
161.2884585566
 20
181.45
 30
0.0
 40
0.5000000000000004
100
AcDbArc
 50
180.0
 51
270.0
  0
LINE
  5
227
330
1EF
100
AcDbEntity
  8
DV3_Default
  6
Continuous
 62
     7
100
AcDbLine
 10
246.7884585566
 20
106.35
 30
0.0
 11
335.7884585566
 21
106.35
 31
0.0
  0
ARC
  5
228
330
1EF
100
AcDbEntity
  8
DV3_Default
  6
Continuous
 62
     7
100
AcDbCircle
 10
246.7884585566
 20
106.85
 30
0.0
 40
0.5000000000000004
100
AcDbArc
 50
180.0
 51
270.0
  0
ARC
  5
229
330
1EF
100
AcDbEntity
  8
DV3_Default
  6
Continuous
 62
     7
100
AcDbCircle
 10
335.7884585566
 20
106.85
 30
0.0
 40
0.4999999999999866
100
AcDbArc
 50
270.0
 51
0.0
  0
LINE
  5
22A
330
1EF
100
AcDbEntity
  8
DV3_Default
  6
Continuous
 62
     7
100
AcDbLine
 10
342.5304774151
 20
180.8665695366
 30
0.0
 11
343.3618906206
 21
180.9505979431
 31
0.0
  0
ARC
  5
22B
330
1EF
100
AcDbEntity
  8
DV3_Default
  6
Continuous
 62
     7
100
AcDbCircle
 10
344.0008256072
 20
173.2919383969
 30
0.0
 40
7.715306460585735
100
AcDbArc
 50
168.4296736598
 51
172.1987095129
  0
ARC
  5
22C
330
1EF
100
AcDbEntity
  8
DV3_Default
  6
Continuous
 62
     7
100
AcDbCircle
 10
344.0008256072
 20
173.2919383969
 30
0.0
 40
7.715306460585735
100
AcDbArc
 50
100.7084985655
 51
135.3590207501
  0
ARC
  5
22D
330
1EF
100
AcDbEntity
  8
DV3_Default
  6
Continuous
 62
     7
100
AcDbCircle
 10
421.2884585566
 20
181.45
 30
0.0
 40
0.5000000000000004
100
AcDbArc
 50
270.0
 51
0.0
  0
LINE
  5
22E
330
1EF
100
AcDbEntity
  8
DV3_Default
  6
Continuous
 62
     7
100
AcDbLine
 10
250.7884585566
 20
296.95
 30
0.0
 11
181.7884585566
 21
296.95
 31
0.0
  0
LINE
  5
22F
330
1EF
100
AcDbEntity
  8
DV3_Default
  6
Continuous
 62
     7
100
AcDbLine
 10
181.2886298942
 20
296.4369115258
 30
0.0
 11
181.5108674937
 21
287.95
 31
0.0
  0
LINE
  5
230
330
1EF
100
AcDbEntity
  8
DV3_Default
  6
Continuous
 62
     7
100
AcDbLine
 10
251.0660496196
 20
287.95
 30
0.0
 11
251.2882872191
 21
296.4369115258
 31
0.0
  0
ARC
  5
231
330
1EF
100
AcDbEntity
  8
DV3_Default
  6
Continuous
 62
     7
100
AcDbCircle
 10
250.7884585566
 20
296.45
 30
0.0
 40
0.500000000000002
100
AcDbArc
 50
358.5
 51
90.0
  0
ARC
  5
232
330
1EF
100
AcDbEntity
  8
DV3_Default
  6
Continuous
 62
     7
100
AcDbCircle
 10
181.7884585566
 20
296.45
 30
0.0
 40
0.5000000000000004
100
AcDbArc
 50
90.0
 51
181.5
  0
LINE
  5
233
330
1EF
100
AcDbEntity
  8
DV3_Default
  6
Continuous
 62
     7
100
AcDbLine
 10
331.7884585566
 20
296.95
 30
0.0
 11
400.7884585566
 21
296.95
 31
0.0
  0
LINE
  5
234
330
1EF
100
AcDbEntity
  8
DV3_Default
  6
Continuous
 62
     7
100
AcDbLine
 10
331.2886298942
 20
296.4369115258
 30
0.0
 11
331.5108674937
 21
287.95
 31
0.0
  0
LINE
  5
235
330
1EF
100
AcDbEntity
  8
DV3_Default
  6
Continuous
 62
     7
100
AcDbLine
 10
401.0660496196
 20
287.95
 30
0.0
 11
401.2882872191
 21
296.4369115258
 31
0.0
  0
ARC
  5
236
330
1EF
100
AcDbEntity
  8
DV3_Default
  6
Continuous
 62
     7
100
AcDbCircle
 10
400.7884585566
 20
296.45
 30
0.0
 40
0.500000000000002
100
AcDbArc
 50
358.5
 51
90.0
  0
ARC
  5
237
330
1EF
100
AcDbEntity
  8
DV3_Default
  6
Continuous
 62
     7
100
AcDbCircle
 10
331.7884585566
 20
296.45
 30
0.0
 40
0.5000000000000004
100
AcDbArc
 50
90.0
 51
181.5
  0
SPLINE
  5
238
330
1EF
100
AcDbEntity
  8
DV3_Default
  6
Continuous
 62
     7
100
AcDbSpline
210
0.0
220
0.0
230
1.0
 70
     8
 71
     3
 72
    27
 73
    23
 74
     0
 42
0.0000000002069658
 43
0.0000000001
 40
0.0
 40
0.0
 40
0.0
 40
0.0
 40
0.014704473287844
 40
0.0313735468713219
 40
0.0627030321099948
 40
0.1253168145350395
 40
0.2503659781492712
 40
0.3128927343692382
 40
0.3754054701616813
 40
0.4172018838628963
 40
0.4379165888113513
 40
0.4700205944148069
 40
0.5005391946207248
 40
0.5629343641629236
 40
0.6253225136517531
 40
0.687799509258543
 40
0.7501269742196249
 40
0.8125177679285059
 40
0.8749245993511596
 40
0.9372354966867126
 40
0.9662133226917919
 40
1.0
 40
1.0
 40
1.0
 40
1.0
 10
427.5999006504071
 20
204.3259858133164
 30
0.0
 10
427.580293979226
 20
204.5598424239805
 30
0.0
 10
427.5384610753711
 20
205.0588002025016
 30
0.0
 10
427.5172488772795
 20
206.0597240201974
 30
0.0
 10
427.5512956163695
 20
207.824725181127
 30
0.0
 10
427.5630202805518
 20
211.3200292328731
 30
0.0
 10
427.5695100120718
 20
215.3131022440347
 30
0.0
 10
427.5695054055876
 20
219.3046068922008
 30
0.0
 10
427.5648549643809
 20
221.9673959637989
 30
0.0
 10
427.5718457683806
 20
223.9627604286515
 30
0.0
 10
427.5708267201951
 20
225.4729743155804
 30
0.0
 10
427.7158466171475
 20
226.8014792025147
 30
0.0
 10
428.2753856357372
 20
228.7264259725698
 30
0.0
 10
429.6107036784775
 20
230.879679385696
 30
0.0
 10
431.9838986834575
 20
232.7919281620894
 30
0.0
 10
434.8699160955162
 20
233.7645427838834
 30
0.0
 10
437.9184226951521
 20
233.7544742014155
 30
0.0
 10
440.7624780357893
 20
232.658371072727
 30
0.0
 10
443.1018973429701
 20
230.7199751778196
 30
0.0
 10
444.3682347496201
 20
228.5451869222472
 30
0.0
 10
444.8484263163923
 20
226.5984922665637
 30
0.0
 10
444.9368701039648
 20
225.599493975631
 30
0.0
 10
444.984480163041
 20
225.0617245182896
 30
0.0
  0
SPLINE
  5
239
330
1EF
100
AcDbEntity
  8
DV3_Default
  6
Continuous
 62
     7
100
AcDbSpline
210
0.0
220
0.0
230
1.0
 70
     8
 71
     3
 72
    28
 73
    24
 74
     0
 42
0.0000000002134565
 43
0.0000000001
 40
0.0
 40
0.0
 40
0.0
 40
0.0
 40
0.0221879429056326
 40
0.0637137241632779
 40
0.1245853587561565
 40
0.1901804740379872
 40
0.249132650433556
 40
0.3114478452901174
 40
0.3738175126126019
 40
0.4082645781989548
 40
0.4362619940552773
 40
0.4697346998378335
 40
0.4990336271283962
 40
0.5417268814285349
 40
0.5829487868592139
 40
0.6247912049635298
 40
0.6876963865419559
 40
0.7488884753535708
 40
0.8107927343881668
 40
0.8735121474808856
 40
0.9156065488110464
 40
0.9570195078138813
 40
1.0
 40
1.0
 40
1.0
 40
1.0
 10
444.984480163041
 20
225.0617245182896
 30
0.0
 10
444.9944078879183
 20
224.7161486472199
 30
0.0
 10
445.0229158179727
 20
223.7238112403516
 30
0.0
 10
445.012110551158
 20
221.7824340126509
 30
0.0
 10
444.9947463174922
 20
219.1652025180592
 30
0.0
 10
444.9715481741912
 20
216.2763046508709
 30
0.0
 10
444.973005878225
 20
213.3648513316882
 30
0.0
 10
444.9948271443521
 20
210.5037259616174
 30
0.0
 10
445.0176707703819
 20
208.0245254510412
 30
0.0
 10
445.0047186403054
 20
206.0796513381964
 30
0.0
 10
444.9553295401395
 20
204.5866568197993
 30
0.0
 10
444.7996188830668
 20
203.1755971631194
 30
0.0
 10
444.3322280795614
 20
201.5970342857534
 30
0.0
 10
443.4959623833896
 20
200.0461732486555
 30
0.0
 10
442.2208930012978
 20
198.5783996567543
 30
0.0
 10
440.3800275238829
 20
197.277228959389
 30
0.0
 10
437.9359573738041
 20
196.3419781177971
 30
0.0
 10
434.9772698056129
 20
196.3095854260926
 30
0.0
 10
432.1732028767917
 20
197.1740774477693
 30
0.0
 10
430.112737307527
 20
198.7677647622431
 30
0.0
 10
428.741706472513
 20
200.5593470467422
 30
0.0
 10
427.9106543233989
 20
202.3579941822042
 30
0.0
 10
427.7047599761053
 20
203.6619155438744
 30
0.0
 10
427.5999006504071
 20
204.3259858133164
 30
0.0
  0
ARC
  5
23A
330
1EF
100
AcDbEntity
  8
DV3_Default
  6
Continuous
 62
     7
100
AcDbCircle
 10
436.2526645578
 20
225.0540634192
 30
0.0
 40
5.460559083752888
100
AcDbArc
 50
89.6645231951
 51
180.4288102342
  0
ARC
  5
23B
330
1EF
100
AcDbEntity
  8
DV3_Default
  6
Continuous
 62
     7
100
AcDbCircle
 10
436.2836285244
 20
225.0211359084
 30
0.0
 40
5.493393085013912
100
AcDbArc
 50
359.9172037346
 51
89.9894826674
  0
ARC
  5
23C
330
1EF
100
AcDbEntity
  8
DV3_Default
  6
Continuous
 62
     7
100
AcDbCircle
 10
-475.2083634816
 20
217.200451263
 30
0.0
 40
917.0186611823023
100
AcDbArc
 50
359.5580045925
 51
0.4881501602
  0
SPLINE
  5
23D
330
1EF
100
AcDbEntity
  8
DV3_Default
  6
Continuous
 62
     7
100
AcDbSpline
210
0.0
220
0.0
230
1.0
 70
     8
 71
     3
 72
    31
 73
    27
 74
     0
 42
0.0000000002193005
 43
0.0000000001
 40
0.0
 40
0.0
 40
0.0
 40
0.0
 40
0.016254868486832
 40
0.0318364503111189
 40
0.047137761364974
 40
0.0625750649354777
 40
0.0937899586566961
 40
0.1251456801128063
 40
0.1875689616655782
 40
0.2497646059575178
 40
0.3122715804126128
 40
0.3746550029240794
 40
0.4367056063342813
 40
0.4987411927344944
 40
0.5295714337732504
 40
0.5606998734636072
 40
0.5921446669212906
 40
0.6237675100915023
 40
0.6865194940081522
 40
0.749174972541211
 40
0.7909839559822619
 40
0.8327758084215171
 40
0.8745769388298946
 40
0.9164129641400064
 40
0.9582919164863698
 40
1.0
 40
1.0
 40
1.0
 40
1.0
 10
427.94423033011
 20
204.3646668915524
 30
0.0
 10
427.9759915362406
 20
204.1204107167374
 30
0.0
 10
428.0381983797852
 20
203.6420156082822
 30
0.0
 10
428.2062149270316
 20
202.9479731365263
 30
0.0
 10
428.4214561049482
 20
202.2819776563285
 30
0.0
 10
428.7790630686667
 20
201.4189444222637
 30
0.0
 10
429.3527934862992
 20
200.3915595024708
 30
0.0
 10
430.535242926323
 20
198.9366763528015
 30
0.0
 10
432.4644701165414
 20
197.5576830806464
 30
0.0
 10
435.2134511800784
 20
196.7149997898531
 30
0.0
 10
438.1059247100392
 20
196.8707617758398
 30
0.0
 10
440.7692138385956
 20
197.9230839200605
 30
0.0
 10
442.892497984909
 20
199.7837657499068
 30
0.0
 10
444.0860296331396
 20
201.8338366090943
 30
0.0
 10
444.5491712126923
 20
203.663340841718
 30
0.0
 10
444.6313323928613
 20
205.0798981150242
 30
0.0
 10
444.6684302485352
 20
206.5056512918666
 30
0.0
 10
444.6634014293176
 20
208.4122558949099
 30
0.0
 10
444.644269597436
 20
210.7911061149941
 30
0.0
 10
444.6286969566725
 20
213.3245685616877
 30
0.0
 10
444.6251635206921
 20
215.5404471025575
 30
0.0
 10
444.6297718288636
 20
217.4403732073246
 30
0.0
 10
444.6435843910583
 20
219.34068917541
 30
0.0
 10
444.6584434818502
 20
221.2421898752489
 30
0.0
 10
444.7042464431305
 20
223.1424458367496
 30
0.0
 10
444.66072391136
 20
224.4083831967372
 30
0.0
 10
444.6390071299104
 20
225.0400579605346
 30
0.0
  0
SPLINE
  5
23E
330
1EF
100
AcDbEntity
  8
DV3_Default
  6
Continuous
 62
     7
100
AcDbSpline
210
0.0
220
0.0
230
1.0
 70
     8
 71
     3
 72
    28
 73
    24
 74
     0
 42
0.0000000002114702
 43
0.0000000001
 40
0.0
 40
0.0
 40
0.0
 40
0.0
 40
0.0625
 40
0.0625
 40
0.1250000000000001
 40
0.1250000000000001
 40
0.2499999999999999
 40
0.2499999999999999
 40
0.3749999999999998
 40
0.3749999999999998
 40
0.4999999999999997
 40
0.4999999999999997
 40
0.5624999999999998
 40
0.5624999999999998
 40
0.6249999999999998
 40
0.6249999999999998
 40
0.7499999999999999
 40
0.7499999999999999
 40
0.8749999999999999
 40
0.8749999999999999
 40
0.9375
 40
0.9375
 40
1.0
 40
1.0
 40
1.0
 40
1.0
 10
444.6390071299104
 20
225.0400579605346
 30
0.0
 10
444.578725822392
 20
226.0172875352118
 30
0.0
 10
444.4446891049583
 20
226.9829377664959
 30
0.0
 10
443.8181778713746
 20
228.8023034841212
 30
0.0
 10
443.3188476092978
 20
229.6565461271155
 30
0.0
 10
441.4251375534656
 20
231.8828925696372
 30
0.0
 10
439.6377995477239
 20
232.9087517245221
 30
0.0
 10
435.8309402059614
 20
233.5899918017977
 30
0.0
 10
433.8083080861577
 20
233.221579273409
 30
0.0
 10
430.4290105392495
 20
231.3121479687935
 30
0.0
 10
429.0953099166072
 20
229.7361252642983
 30
0.0
 10
428.0956632643931
 20
227.0067122743807
 30
0.0
 10
427.9488572350959
 20
226.0389883748345
 30
0.0
 10
427.8980854760973
 20
224.0796797134115
 30
0.0
 10
427.914604200572
 20
223.0920152199645
 30
0.0
 10
427.9153697478208
 20
220.1334404418111
 30
0.0
 10
427.9143144017075
 20
218.1587939874829
 30
0.0
 10
427.9110556997293
 20
214.2122875668881
 30
0.0
 10
427.9150596482746
 20
212.240298565127
 30
0.0
 10
427.9140725474383
 20
209.2824461794981
 30
0.0
 10
427.9096385103506
 20
208.296131031116
 30
0.0
 10
427.8739509546957
 20
206.3203708695611
 30
0.0
 10
427.838308375306
 20
205.3301940000599
 30
0.0
 10
427.94423033011
 20
204.3646668915524
 30
0.0
  0
LINE
  5
23F
330
1EF
100
AcDbEntity
  8
DV3_Default
  6
Continuous
 62
     7
100
AcDbLine
 10
422.7884554176
 20
236.9483811122
 30
0.0
 11
422.7884554176
 21
191.6812746793
 31
0.0
  0
LINE
  5
240
330
1EF
100
AcDbEntity
  8
DV3_Default
  6
Continuous
 62
     7
100
AcDbLine
 10
422.7884554176
 20
243.9489414206
 30
0.0
 11
422.7884554176
 21
236.9483811122
 31
0.0
  0
LINE
  5
241
330
1EF
100
AcDbEntity
  8
DV3_Default
  6
Continuous
 62
     7
100
AcDbLine
 10
422.7884554176
 20
244.1489414206
 30
0.0
 11
422.7884554176
 21
243.9489414206
 31
0.0
  0
LINE
  5
242
330
1EF
100
AcDbEntity
  8
DV3_Default
  6
Continuous
 62
     7
100
AcDbLine
 10
422.7884554176
 20
181.7514500748
 30
0.0
 11
422.7884554176
 21
191.6821375433
 31
0.0
  0
ARC
  5
243
330
1EF
100
AcDbEntity
  8
DV3_Default
  6
Continuous
 62
     7
100
AcDbCircle
 10
423.5884554176
 20
244.1489414206
 30
0.0
 40
0.7999999999999952
100
AcDbArc
 50
90.0
 51
180.0
  0
LINE
  5
244
330
1EF
100
AcDbEntity
  8
DV3_Default
  6
Continuous
 62
     7
100
AcDbLine
 10
449.7884585566
 20
236.9483253421
 30
0.0
 11
449.7884585566
 21
243.9489414206
 31
0.0
  0
LINE
  5
245
330
1EF
100
AcDbEntity
  8
DV3_Default
  6
Continuous
 62
     7
100
AcDbLine
 10
449.7884585566
 20
192.630312353
 30
0.0
 11
449.7884585566
 21
236.9483253421
 31
0.0
  0
LINE
  5
246
330
1EF
100
AcDbEntity
  8
DV3_Default
  6
Continuous
 62
     7
100
AcDbLine
 10
449.7884585566
 20
192.6304260072
 30
0.0
 11
449.7884585566
 21
181.9514500748
 31
0.0
  0
LINE
  5
247
330
1EF
100
AcDbEntity
  8
DV3_Default
  6
Continuous
 62
     7
100
AcDbLine
 10
448.7884585566
 20
244.9489414206
 30
0.0
 11
423.5884554176
 21
244.9489414206
 31
0.0
  0
ARC
  5
248
330
1EF
100
AcDbEntity
  8
DV3_Default
  6
Continuous
 62
     7
100
AcDbCircle
 10
448.7884585566
 20
243.9489414206
 30
0.0
 40
1.000000000000001
100
AcDbArc
 50
0.0
 51
90.0
  0
ARC
  5
249
330
1EF
100
AcDbEntity
  8
DV3_Default
  6
Continuous
 62
     7
100
AcDbCircle
 10
436.288485679
 20
204.9484064581
 30
0.0
 40
7.350028673784545
100
AcDbArc
 50
183.6327608597
 51
43.3007643001
  0
ARC
  5
24A
330
1EF
100
AcDbEntity
  8
DV3_Default
  6
Continuous
 62
     7
100
AcDbCircle
 10
436.2891054692
 20
204.9483077906
 30
0.0
 40
7.350640968225305
100
AcDbArc
 50
136.9441584755
 51
183.631687223
  0
ARC
  5
24B
330
1EF
100
AcDbEntity
  8
DV3_Default
  6
Continuous
 62
     7
100
AcDbCircle
 10
436.2884585566
 20
204.9483811122
 30
0.0
 40
7.350000000000012
100
AcDbArc
 50
43.3007646406
 51
136.9411256484
  0
ARC
  5
24C
330
1EF
100
AcDbEntity
  8
DV3_Default
  6
Continuous
 62
     7
100
AcDbCircle
 10
1459.7260009426
 20
216.1544119643
 30
0.0
 40
1028.971877455185
100
AcDbArc
 50
179.5067141995
 51
180.3369833283
  0
LINE
  5
24D
330
1EF
100
AcDbEntity
  8
DV3_Default
  6
Continuous
 62
     7
100
AcDbLine
 10
441.783011927
 20
210.1263871668
 30
0.0
 11
441.6375690735
 21
209.989262372
 31
0.0
  0
SPLINE
  5
24E
330
1EF
100
AcDbEntity
  8
DV3_Default
  6
Continuous
 62
     7
100
AcDbSpline
210
0.0
220
0.0
230
1.0
 70
     8
 71
     3
 72
    10
 73
     6
 74
     0
 42
0.0000000491472611
 43
0.0000000001
 40
0.0
 40
0.0
 40
0.0
 40
0.0
 40
0.5
 40
0.5
 40
1.0
 40
1.0
 40
1.0
 40
1.0
 10
430.7719203654517
 20
210.1025810646416
 30
0.0
 10
430.8111014667746
 20
210.0660502146091
 30
0.0
 10
430.8499777997708
 20
210.0298457270589
 30
0.0
 10
430.9043288151511
 20
209.9792922998144
 30
0.0
 10
430.9194394719077
 20
209.9652837515269
 30
0.0
 10
430.918075424575
 20
209.9666699639397
 30
0.0
  0
LINE
  5
24F
330
1EF
100
AcDbEntity
  8
DV3_Default
  6
Continuous
 62
     7
100
AcDbLine
 10
423.5884554176
 20
180.9514500748
 30
0.0
 11
448.7884585566
 21
180.9514500748
 31
0.0
  0
ARC
  5
250
330
1EF
100
AcDbEntity
  8
DV3_Default
  6
Continuous
 62
     7
100
AcDbCircle
 10
423.5884554176
 20
181.7514500748
 30
0.0
 40
0.7999999999999952
100
AcDbArc
 50
180.0
 51
270.0
  0
ELLIPSE
  5
251
330
1EF
100
AcDbEntity
  8
DV3_Default
  6
Continuous
 62
     7
100
AcDbEllipse
 10
448.7884585566
 20
227.8762727222
 30
0.0
 11
-0.9999999999979747
 21
-3.283345817450822E-10
 31
0.0
210
0.0
220
0.0
230
1.0
 40
0.999974257
 41
3.139918469472411
 42
3.143881745301467
  0
ARC
  5
252
330
1EF
100
AcDbEntity
  8
DV3_Default
  6
Continuous
 62
     7
100
AcDbCircle
 10
448.7884585566
 20
181.9514500748
 30
0.0
 40
1.000000000000001
100
AcDbArc
 50
270.0
 51
0.0
  0
CIRCLE
  5
253
330
1EF
100
AcDbEntity
  8
DV3_Default
  6
Continuous
 62
     7
100
AcDbCircle
 10
436.2884585566
 20
204.9483811122
 30
0.0
 40
7.000000000000001
  0
LINE
  5
254
330
1EF
100
AcDbEntity
  8
DV3_Default
  6
Continuous
 62
     7
100
AcDbLine
 10
152.4207013796
 20
201.2675053174
 30
0.0
 11
152.129662213
 21
201.4515932538
 31
0.0
  0
CIRCLE
  5
255
330
1EF
100
AcDbEntity
  8
DV3_Default
  6
Continuous
 62
     7
100
AcDbCircle
 10
146.0884585566
 20
204.9483811122
 30
0.0
 40
7.000000000000038
  0
SPLINE
  5
256
330
1EF
100
AcDbEntity
  8
DV3_Default
  6
Continuous
 62
     7
100
AcDbSpline
210
0.0
220
0.0
230
1.0
 70
    12
 71
     3
 72
    28
 73
    24
 74
     0
 42
0.0000000002066395
 43
0.0000000001
 40
0.0
 40
0.0
 40
0.0
 40
0.0
 40
0.0625
 40
0.0625
 40
0.125
 40
0.125
 40
0.25
 40
0.25
 40
0.375
 40
0.375
 40
0.4375
 40
0.4375
 40
0.5
 40
0.5
 40
0.625
 40
0.625
 40
0.75
 40
0.75
 40
0.875
 40
0.875
 40
0.9375
 40
0.9375
 40
1.0
 40
1.0
 40
1.0
 40
1.0
 10
154.7770164628858
 20
204.3259858133215
 30
0.0
 41
1.0
 10
154.8793890752048
 20
205.3254499227046
 30
0.0
 41
1.0
 10
154.8515522435078
 20
206.3258014075178
 30
0.0
 41
1.0
 10
154.8242626894688
 20
208.3253523822771
 30
0.0
 41
1.0
 10
154.8198367241098
 20
209.3246515475901
 30
0.0
 41
1.0
 10
154.8137750340547
 20
212.3211789114685
 30
0.0
 41
1.0
 10
154.8080208037208
 20
214.3170088722979
 30
0.0
 41
1.0
 10
154.8078777593508
 20
218.304963106065
 30
0.0
 41
1.0
 10
154.8114564287827
 20
220.3020579756592
 30
0.0
 41
1.0
 10
154.8085225160737
 20
223.2959928538537
 30
0.0
 41
1.0
 10
154.8309074644177
 20
224.2954386771226
 30
0.0
 41
1.0
 10
154.7525789509758
 20
226.2865950493232
 30
0.0
 41
1.0
 10
154.5673969595427
 20
227.2922980941617
 30
0.0
 41
1.0
 10
153.4738330064258
 20
230.0761501172551
 30
0.0
 41
1.0
 10
152.0597127687008
 20
231.6810069305058
 30
0.0
 41
1.0
 10
148.5574967883858
 20
233.5883236757456
 30
0.0
 41
1.0
 10
146.4486573600308
 20
233.9452452933774
 30
0.0
 41
1.0
 10
142.5380775921008
 20
233.20215688782
 30
0.0
 41
1.0
 10
140.6918505243078
 20
232.1211669615352
 30
0.0
 41
1.0
 10
138.7645240144278
 20
229.8403496935645
 30
0.0
 41
1.0
 10
138.2458415197338
 20
228.9538490878056
 30
0.0
 41
1.0
 10
137.5965245341228
 20
227.0729048830707
 30
0.0
 41
1.0
 10
137.4551635065798
 20
226.0564706067772
 30
0.0
 41
1.0
 10
137.3924369502518
 20
225.0617245182949
 30
0.0
 41
1.0
  0
SPLINE
  5
257
330
1EF
100
AcDbEntity
  8
DV3_Default
  6
Continuous
 62
     7
100
AcDbSpline
210
0.0
220
0.0
230
1.0
 70
    12
 71
     3
 72
    30
 73
    26
 74
     0
 42
0.0000000002130143
 43
0.0000000001
 40
0.0
 40
0.0
 40
0.0
 40
0.0
 40
0.0625
 40
0.0625
 40
0.125
 40
0.125
 40
0.25
 40
0.25
 40
0.375
 40
0.375
 40
0.4375
 40
0.4375
 40
0.46875
 40
0.46875
 40
0.5
 40
0.5
 40
0.625
 40
0.625
 40
0.75
 40
0.75
 40
0.875
 40
0.875
 40
0.9375
 40
0.9375
 40
1.0
 40
1.0
 40
1.0
 40
1.0
 10
137.3924369502518
 20
225.0617245182949
 30
0.0
 41
1.0
 10
137.3313599898368
 20
224.0931385027259
 30
0.0
 41
1.0
 10
137.3396310124338
 20
223.122335031819
 30
0.0
 41
1.0
 10
137.3626697537558
 20
221.1805091352345
 30
0.0
 41
1.0
 10
137.3734728053058
 20
220.2096097341267
 30
0.0
 41
1.0
 10
137.4000137444988
 20
217.2970704288689
 30
0.0
 41
1.0
 10
137.4089161355408
 20
215.3581433039954
 30
0.0
 41
1.0
 10
137.3925950193577
 20
211.4763787264937
 30
0.0
 41
1.0
 10
137.3689653066018
 20
209.5336668189404
 30
0.0
 41
1.0
 10
137.3632800474437
 20
206.6172646942896
 30
0.0
 41
1.0
 10
137.3731660700458
 20
205.6447749063734
 30
0.0
 41
1.0
 10
137.4645330681697
 20
204.1858155158081
 30
0.0
 41
1.0
 10
137.5055467007718
 20
203.6976806567744
 30
0.0
 41
1.0
 10
137.6934964150788
 20
202.7351919957408
 30
0.0
 41
1.0
 10
137.8357944634458
 20
202.2678477218583
 30
0.0
 41
1.0
 10
138.7596354373058
 20
199.9919226994653
 30
0.0
 41
1.0
 10
140.0895671857078
 20
198.4632822476575
 30
0.0
 41
1.0
 10
143.4437349712327
 20
196.5762399030423
 30
0.0
 41
1.0
 10
145.4443630592228
 20
196.1761447737436
 30
0.0
 41
1.0
 10
149.2826179136767
 20
196.7369233228137
 30
0.0
 41
1.0
 10
151.0769538706317
 20
197.663238189178
 30
0.0
 41
1.0
 10
153.0722226936748
 20
199.7673669996741
 30
0.0
 41
1.0
 10
153.6164436091937
 20
200.5844673997173
 30
0.0
 41
1.0
 10
154.4314633824048
 20
202.3750486240034
 30
0.0
 41
1.0
 10
154.6777833284928
 20
203.3571725663335
 30
0.0
 41
1.0
 10
154.7770164628858
 20
204.3259858133215
 30
0.0
 41
1.0
  0
ARC
  5
258
330
1EF
100
AcDbEntity
  8
DV3_Default
  6
Continuous
 62
     7
100
AcDbCircle
 10
146.1242471215
 20
225.0540579941
 30
0.0
 40
5.46056447697941
100
AcDbArc
 50
359.5712471149
 51
90.3354194557
  0
ARC
  5
259
330
1EF
100
AcDbEntity
  8
DV3_Default
  6
Continuous
 62
     7
100
AcDbCircle
 10
146.0932917106
 20
225.0211327917
 30
0.0
 40
5.493396202269008
100
AcDbArc
 50
90.0105498864
 51
180.0827637116
  0
SPLINE
  5
25A
330
1EF
100
AcDbEntity
  8
DV3_Default
  6
Continuous
 62
     7
100
AcDbSpline
210
0.0
220
0.0
230
1.0
 70
     8
 71
     3
 72
    14
 73
    10
 74
     0
 42
0.000000000671701
 43
0.0000000001
 40
0.0
 40
0.0
 40
0.0
 40
0.0
 40
0.066029295614604
 40
0.066029295614604
 40
0.3436012359628325
 40
0.3436012359628325
 40
0.8795627421112805
 40
0.8795627421112805
 40
1.0
 40
1.0
 40
1.0
 40
1.0
 10
140.5999012395474
 20
225.0131975876636
 30
0.0
 10
140.5893006420976
 20
224.7393360679718
 30
0.0
 10
140.5770513849188
 20
224.4740926254333
 30
0.0
 10
140.5646060386076
 20
222.823707947182
 30
0.0
 10
140.5869954992873
 20
221.3247379931067
 30
0.0
 10
140.6061315966446
 20
217.2181620491207
 30
0.0
 10
140.6070438137839
 20
214.583567011162
 30
0.0
 10
140.5985451355203
 20
211.3345919752741
 30
0.0
 10
140.5962652969176
 20
210.7320494345983
 30
0.0
 10
140.5939051862898
 20
210.1263871667566
 30
0.0
  0
SPLINE
  5
25B
330
1EF
100
AcDbEntity
  8
DV3_Default
  6
Continuous
 62
     7
100
AcDbSpline
210
0.0
220
0.0
230
1.0
 70
    12
 71
     3
 72
    30
 73
    26
 74
     0
 42
0.0000000002188981
 43
0.0000000001
 40
0.0
 40
0.0
 40
0.0
 40
0.0
 40
0.0625
 40
0.0625
 40
0.125
 40
0.125
 40
0.25
 40
0.25
 40
0.375
 40
0.375
 40
0.5
 40
0.5
 40
0.53125
 40
0.53125
 40
0.5625
 40
0.5625
 40
0.625
 40
0.625
 40
0.75
 40
0.75
 40
0.875
 40
0.875
 40
0.9375
 40
0.9375
 40
1.0
 40
1.0
 40
1.0
 40
1.0
 10
154.4326867831828
 20
204.3646668915576
 30
0.0
 41
1.0
 10
154.3345848586808
 20
203.4269161393233
 30
0.0
 41
1.0
 10
154.0951871128038
 20
202.5017164381053
 30
0.0
 41
1.0
 10
153.3046701922308
 20
200.7945155408518
 30
0.0
 41
1.0
 10
152.7751893415598
 20
200.0187440289857
 30
0.0
 41
1.0
 10
150.8503137843518
 20
198.033107457635
 30
0.0
 41
1.0
 10
149.1244179398618
 20
197.1647651286913
 30
0.0
 41
1.0
 10
145.4803105659327
 20
196.6413144931963
 30
0.0
 41
1.0
 10
143.5687381231038
 20
197.0146089678784
 30
0.0
 41
1.0
 10
140.3574435720228
 20
198.7875049913856
 30
0.0
 41
1.0
 10
139.0648945027827
 20
200.2381100580138
 30
0.0
 41
1.0
 10
138.1693585817848
 20
202.3961521239621
 30
0.0
 41
1.0
 10
138.0316181447307
 20
202.8380520377089
 30
0.0
 41
1.0
 10
137.8496939194508
 20
203.745757465023
 30
0.0
 41
1.0
 10
137.8094335182587
 20
204.2178115609765
 30
0.0
 41
1.0
 10
137.7201795354778
 20
205.6550625394973
 30
0.0
 41
1.0
 10
137.7099550791478
 20
206.6212590142886
 30
0.0
 41
1.0
 10
137.7159272222447
 20
209.5273324494235
 30
0.0
 41
1.0
 10
137.7389097316478
 20
211.4734501201489
 30
0.0
 41
1.0
 10
137.7545131930188
 20
215.3576674514005
 30
0.0
 41
1.0
 10
137.7466874763398
 20
217.299794874932
 30
0.0
 41
1.0
 10
137.7205565088337
 20
220.2134099427782
 30
0.0
 41
1.0
 10
137.7095866069548
 20
221.1856456085486
 30
0.0
 41
1.0
 10
137.6853998950668
 20
223.1258004930476
 30
0.0
 41
1.0
 10
137.6770976924888
 20
224.0880134288138
 30
0.0
 41
1.0
 10
137.7379099833824
 20
225.0400579605397
 30
0.0
 41
1.0
  0
SPLINE
  5
25C
330
1EF
100
AcDbEntity
  8
DV3_Default
  6
Continuous
 62
     7
100
AcDbSpline
210
0.0
220
0.0
230
1.0
 70
    12
 71
     3
 72
    28
 73
    24
 74
     0
 42
0.0000000002115377
 43
0.0000000001
 40
0.0
 40
0.0
 40
0.0
 40
0.0
 40
0.0625
 40
0.0625
 40
0.125
 40
0.125
 40
0.25
 40
0.25
 40
0.375
 40
0.375
 40
0.5
 40
0.5
 40
0.5625
 40
0.5625
 40
0.625
 40
0.625
 40
0.75
 40
0.75
 40
0.875
 40
0.875
 40
0.9375
 40
0.9375
 40
1.0
 40
1.0
 40
1.0
 40
1.0
 10
137.7379099833824
 20
225.0400579605397
 30
0.0
 41
1.0
 10
137.8004026272448
 20
226.0184092145018
 30
0.0
 41
1.0
 10
137.9395081539698
 20
227.0018309131347
 30
0.0
 41
1.0
 10
138.5577077601018
 20
228.7989781826587
 30
0.0
 41
1.0
 10
139.0540972983928
 20
229.6481695160074
 30
0.0
 41
1.0
 10
140.9047305773708
 20
231.8363079058461
 30
0.0
 41
1.0
 10
142.6828886661318
 20
232.8770437450534
 30
0.0
 41
1.0
 10
146.4331257313348
 20
233.5900010465147
 30
0.0
 41
1.0
 10
148.4606544795398
 20
233.2459810836323
 30
0.0
 41
1.0
 10
151.8252069371578
 20
231.4149276152503
 30
0.0
 41
1.0
 10
153.1813839145018
 20
229.8741524926916
 30
0.0
 41
1.0
 10
154.2293969952248
 20
227.2031621132707
 30
0.0
 41
1.0
 10
154.4081148133507
 20
226.2498115734939
 30
0.0
 41
1.0
 10
154.4846228603998
 20
224.305276419875
 30
0.0
 41
1.0
 10
154.4622336571008
 20
223.2957269797056
 30
0.0
 41
1.0
 10
154.4645065423128
 20
220.3021337791212
 30
0.0
 41
1.0
 10
154.4618455106908
 20
218.3067086723658
 30
0.0
 41
1.0
 10
154.4624986265738
 20
214.3154634432471
 30
0.0
 41
1.0
 10
154.4667087734748
 20
212.3212058019397
 30
0.0
 41
1.0
 10
154.4717557549778
 20
209.3238353601374
 30
0.0
 41
1.0
 10
154.4761811616567
 20
208.3235650195937
 30
0.0
 41
1.0
 10
154.5055622005308
 20
206.320835429025
 30
0.0
 41
1.0
 10
154.5339396427238
 20
205.3325373175746
 30
0.0
 41
1.0
 10
154.4326867831828
 20
204.3646668915576
 30
0.0
 41
1.0
  0
LINE
  5
25D
330
1EF
100
AcDbEntity
  8
DV3_Default
  6
Continuous
 62
     7
100
AcDbLine
 10
159.5884616957
 20
236.9483811122
 30
0.0
 11
159.5884616957
 21
191.6812746793
 31
0.0
  0
LINE
  5
25E
330
1EF
100
AcDbEntity
  8
DV3_Default
  6
Continuous
 62
     7
100
AcDbLine
 10
159.5884616957
 20
243.9489414206
 30
0.0
 11
159.5884616957
 21
236.9483811122
 31
0.0
  0
LINE
  5
25F
330
1EF
100
AcDbEntity
  8
DV3_Default
  6
Continuous
 62
     7
100
AcDbLine
 10
159.5884616957
 20
244.1489414206
 30
0.0
 11
159.5884616957
 21
243.9489414206
 31
0.0
  0
LINE
  5
260
330
1EF
100
AcDbEntity
  8
DV3_Default
  6
Continuous
 62
     7
100
AcDbLine
 10
159.5884616957
 20
181.7514500748
 30
0.0
 11
159.5884616957
 21
191.6821375433
 31
0.0
  0
ARC
  5
261
330
1EF
100
AcDbEntity
  8
DV3_Default
  6
Continuous
 62
     7
100
AcDbCircle
 10
158.7884616957
 20
244.1489414206
 30
0.0
 40
0.7999999999999952
100
AcDbArc
 50
0.0
 51
90.0
  0
LINE
  5
262
330
1EF
100
AcDbEntity
  8
DV3_Default
  6
Continuous
 62
     7
100
AcDbLine
 10
132.5884585566
 20
236.9483253421
 30
0.0
 11
132.5884585566
 21
243.9489414206
 31
0.0
  0
LINE
  5
263
330
1EF
100
AcDbEntity
  8
DV3_Default
  6
Continuous
 62
     7
100
AcDbLine
 10
132.5884585566
 20
192.630312353
 30
0.0
 11
132.5884585566
 21
236.9483253421
 31
0.0
  0
LINE
  5
264
330
1EF
100
AcDbEntity
  8
DV3_Default
  6
Continuous
 62
     7
100
AcDbLine
 10
132.5884585566
 20
192.6304260072
 30
0.0
 11
132.5884585566
 21
181.9514500748
 31
0.0
  0
LINE
  5
265
330
1EF
100
AcDbEntity
  8
DV3_Default
  6
Continuous
 62
     7
100
AcDbLine
 10
133.5884585566
 20
244.9489414206
 30
0.0
 11
158.7884616957
 21
244.9489414206
 31
0.0
  0
ARC
  5
266
330
1EF
100
AcDbEntity
  8
DV3_Default
  6
Continuous
 62
     7
100
AcDbCircle
 10
133.5884585566
 20
243.9489414206
 30
0.0
 40
1.000000000000001
100
AcDbArc
 50
90.0
 51
180.0
  0
ARC
  5
267
330
1EF
100
AcDbEntity
  8
DV3_Default
  6
Continuous
 62
     7
100
AcDbCircle
 10
146.0884314343
 20
204.9484064581
 30
0.0
 40
7.350028673784588
100
AcDbArc
 50
136.6992356999
 51
356.3672391403
  0
ARC
  5
268
330
1EF
100
AcDbEntity
  8
DV3_Default
  6
Continuous
 62
     7
100
AcDbCircle
 10
146.0878116441
 20
204.9483077906
 30
0.0
 40
7.350640968225203
100
AcDbArc
 50
356.368312777
 51
43.0558415245
  0
ARC
  5
269
330
1EF
100
AcDbEntity
  8
DV3_Default
  6
Continuous
 62
     7
100
AcDbCircle
 10
146.0884585566
 20
204.9483811122
 30
0.0
 40
7.350000000000001
100
AcDbArc
 50
43.0588743516
 51
136.6992353594
  0
ARC
  5
26A
330
1EF
100
AcDbEntity
  8
DV3_Default
  6
Continuous
 62
     7
100
AcDbCircle
 10
-877.707403425
 20
216.1539232174
 30
0.0
 40
1029.330187982151
100
AcDbArc
 50
359.6631611829
 51
0.4931412893
  0
LINE
  5
26B
330
1EF
100
AcDbEntity
  8
DV3_Default
  6
Continuous
 62
     7
100
AcDbLine
 10
140.5939051863
 20
210.1263871668
 30
0.0
 11
140.7393480398
 21
209.989262372
 31
0.0
  0
SPLINE
  5
26C
330
1EF
100
AcDbEntity
  8
DV3_Default
  6
Continuous
 62
     7
100
AcDbSpline
210
0.0
220
0.0
230
1.0
 70
     8
 71
     3
 72
    10
 73
     6
 74
     0
 42
0.0000000500297639
 43
0.0000000001
 40
0.0
 40
0.0
 40
0.0
 40
0.0
 40
0.5
 40
0.5
 40
1.0
 40
1.0
 40
1.0
 40
1.0
 10
151.6049967478411
 20
210.1025810646466
 30
0.0
 10
151.5667804661863
 20
210.0668204199119
 30
0.0
 10
151.5287866088016
 20
210.0313943811981
 30
0.0
 10
151.4746545120607
 20
209.9810747975466
 30
0.0
 10
151.4588482135117
 20
209.9664898148893
 30
0.0
 10
151.4588416887178
 20
209.9666699639446
 30
0.0
  0
LINE
  5
26D
330
1EF
100
AcDbEntity
  8
DV3_Default
  6
Continuous
 62
     7
100
AcDbLine
 10
151.3884585566
 20
200.2579653524
 30
0.0
 11
151.3884585566
 21
200.3956122519
 31
0.0
  0
LINE
  5
26E
330
1EF
100
AcDbEntity
  8
DV3_Default
  6
Continuous
 62
     7
100
AcDbLine
 10
133.5884585566
 20
180.9514500748
 30
0.0
 11
158.7884616957
 21
180.9514500748
 31
0.0
  0
ARC
  5
26F
330
1EF
100
AcDbEntity
  8
DV3_Default
  6
Continuous
 62
     7
100
AcDbCircle
 10
158.7884616957
 20
181.7514500748
 30
0.0
 40
0.7999999999999986
100
AcDbArc
 50
270.0
 51
0.0
  0
ELLIPSE
  5
270
330
1EF
100
AcDbEntity
  8
DV3_Default
  6
Continuous
 62
     7
100
AcDbEllipse
 10
133.5884585566
 20
227.8762727222
 30
0.0
 11
0.9999999999996123
 21
9.739431483524186E-11
 31
0.0
210
0.0
220
0.0
230
1.0
 40
0.999974257
 41
3.139303560712164
 42
3.143266837308891
  0
ARC
  5
271
330
1EF
100
AcDbEntity
  8
DV3_Default
  6
Continuous
 62
     7
100
AcDbCircle
 10
133.5884585566
 20
181.9514500748
 30
0.0
 40
1.000000000000001
100
AcDbArc
 50
180.0
 51
270.0
  0
ARC
  5
272
330
1EF
100
AcDbEntity
  8
DV3_Default
  6
Continuous
 62
     7
100
AcDbCircle
 10
161.2884585566
 20
287.45
 30
0.0
 40
0.5000000000000004
100
AcDbArc
 50
90.0
 51
180.0
  0
LINE
  5
273
330
1EF
100
AcDbEntity
  8
DV3_Default
  6
Continuous
 62
     7
100
AcDbLine
 10
161.2884585566
 20
287.95
 30
0.0
 11
421.2884585566
 21
287.95
 31
0.0
  0
LINE
  5
274
330
1EF
100
AcDbEntity
  8
DV3_Default
  6
Continuous
 62
     7
100
AcDbLine
 10
421.2884585566
 20
244.95
 30
0.0
 11
161.2884585566
 21
244.95
 31
0.0
  0
ARC
  5
275
330
1EF
100
AcDbEntity
  8
DV3_Default
  6
Continuous
 62
     7
100
AcDbCircle
 10
161.2884585566
 20
245.45
 30
0.0
 40
0.5000000000000004
100
AcDbArc
 50
180.0
 51
270.0
  0
LINE
  5
276
330
1EF
100
AcDbEntity
  8
DV3_Default
  6
Continuous
 62
     7
100
AcDbLine
 10
160.7884585566
 20
245.45
 30
0.0
 11
160.7884585566
 21
287.45
 31
0.0
  0
ARC
  5
277
330
1EF
100
AcDbEntity
  8
DV3_Default
  6
Continuous
 62
     7
100
AcDbCircle
 10
421.2884585566
 20
287.45
 30
0.0
 40
0.5000000000000004
100
AcDbArc
 50
0.0
 51
90.0
  0
LINE
  5
278
330
1EF
100
AcDbEntity
  8
DV3_Default
  6
Continuous
 62
     7
100
AcDbLine
 10
421.7884585566
 20
245.45
 30
0.0
 11
421.7884585566
 21
287.45
 31
0.0
  0
ARC
  5
279
330
1EF
100
AcDbEntity
  8
DV3_Default
  6
Continuous
 62
     7
100
AcDbCircle
 10
421.2884585566
 20
245.45
 30
0.0
 40
0.5000000000000004
100
AcDbArc
 50
270.0
 51
0.0
  0
LINE
  5
27A
330
1EF
100
AcDbEntity
  8
DV3_Default
  6
Continuous
 62
     7
100
AcDbLine
 10
159.8832228347
 20
184.8313407873
 30
0.0
 11
160.7884585566
 21
184.8471417356
 31
0.0
  0
LINE
  5
27B
330
1EF
100
AcDbEntity
  8
DV3_Default
  6
Continuous
 62
     7
100
AcDbLine
 10
160.7884585566
 20
225.0496204888
 30
0.0
 11
159.8832228347
 21
225.0654214371
 31
0.0
  0
ARC
  5
27C
330
1EF
100
AcDbEntity
  8
DV3_Default
  6
Continuous
 62
     7
100
AcDbCircle
 10
159.8884585566
 20
184.5313864788
 30
0.0
 40
0.2999999999999947
100
AcDbArc
 50
91.0
 51
180.0
  0
ARC
  5
27D
330
1EF
100
AcDbEntity
  8
DV3_Default
  6
Continuous
 62
     7
100
AcDbCircle
 10
159.8884585566
 20
225.3653757456
 30
0.0
 40
0.2999999999999978
100
AcDbArc
 50
180.0
 51
269.0
  0
ARC
  5
27E
330
1EF
100
AcDbEntity
  8
DV3_Default
  6
Continuous
 62
     7
100
AcDbCircle
 10
132.7884585566
 20
227.0483811122
 30
0.0
 40
0.1999999999999988
100
AcDbArc
 50
90.0
 51
180.0
  0
LINE
  5
27F
330
1EF
100
AcDbEntity
  8
DV3_Default
  6
Continuous
 62
     7
100
AcDbLine
 10
422.4936942786
 20
225.0654214371
 30
0.0
 11
421.7884585566
 21
225.0531115018
 31
0.0
  0
LINE
  5
280
330
1EF
100
AcDbEntity
  8
DV3_Default
  6
Continuous
 62
     7
100
AcDbLine
 10
421.7884585566
 20
184.8436507226
 30
0.0
 11
422.4936942786
 21
184.8313407873
 31
0.0
  0
ARC
  5
281
330
1EF
100
AcDbEntity
  8
DV3_Default
  6
Continuous
 62
     7
100
AcDbCircle
 10
422.4884585566
 20
225.3653757456
 30
0.0
 40
0.2999999999999947
100
AcDbArc
 50
271.0
 51
0.0
  0
ARC
  5
282
330
1EF
100
AcDbEntity
  8
DV3_Default
  6
Continuous
 62
     7
100
AcDbCircle
 10
422.4884585566
 20
184.5313864788
 30
0.0
 40
0.2999999999999978
100
AcDbArc
 50
0.0
 51
89.0
  0
ARC
  5
283
330
1EF
100
AcDbEntity
  8
DV3_Default
  6
Continuous
 62
     7
100
AcDbCircle
 10
449.5884585566
 20
227.0483811122
 30
0.0
 40
0.199999999999978
100
AcDbArc
 50
0.0
 51
90.0
  0
ENDBLK
  5
285
330
1EF
100
AcDbEntity
  8
0
100
AcDbBlockEnd
  0
ENDSEC
  0
SECTION
  2
ENTITIES
  0
INSERT
  5
5F
330
1F
100
AcDbEntity
  8
Default
100
AcDbBlockReference
  2
SEANNOT_GROUP
 10
0.0
 20
0.0
 30
0.0
  0
INSERT
  5
6A
330
1F
100
AcDbEntity
  8
Default
100
AcDbBlockReference
  2
SEANNOT_GROUP1
 10
0.0
 20
0.0
 30
0.0
  0
INSERT
  5
74
330
1F
100
AcDbEntity
  8
Default
100
AcDbBlockReference
  2
SEANNOT_GROUP2
 10
0.0
 20
0.0
 30
0.0
  0
INSERT
  5
7A
330
1F
100
AcDbEntity
  8
Default
100
AcDbBlockReference
  2
SEANNOT_GROUP3
 10
0.0
 20
0.0
 30
0.0
  0
INSERT
  5
80
330
1F
100
AcDbEntity
  8
Default
100
AcDbBlockReference
  2
SEANNOT_GROUP4
 10
0.0
 20
0.0
 30
0.0
  0
INSERT
  5
86
330
1F
100
AcDbEntity
  8
Default
100
AcDbBlockReference
  2
SEANNOT_GROUP5
 10
0.0
 20
0.0
 30
0.0
  0
INSERT
  5
8C
330
1F
100
AcDbEntity
  8
Default
100
AcDbBlockReference
  2
SEANNOT_GROUP6
 10
0.0
 20
0.0
 30
0.0
  0
LINE
  5
91
330
1F
100
AcDbEntity
  8
Default
  6
Continuous
 62
     7
100
AcDbLine
 10
349.0384585566
 20
212.4483811122
 30
0.0
 11
349.0384585566
 21
207.129421107
 31
0.0
  0
LINE
  5
92
330
1F
100
AcDbEntity
  8
Default
  6
Continuous
 62
     7
100
AcDbLine
 10
349.0384585566
 20
212.4483811122
 30
0.0
 11
343.6352800817
 21
212.4483811122
 31
0.0
  0
INSERT
  5
94
330
1F
100
AcDbEntity
  8
Default
100
AcDbBlockReference
  2
SEANNOT_GROUP7
 10
0.0
 20
0.0
 30
0.0
  0
INSERT
  5
9A
330
1F
100
AcDbEntity
  8
Default
100
AcDbBlockReference
  2
SE
 10
0.0
 20
0.0
 30
0.0
  0
INSERT
  5
186
330
1F
100
AcDbEntity
  8
Default
100
AcDbBlockReference
  2
SE1
 10
0.0
 20
0.0
 30
0.0
  0
INSERT
  5
1F0
330
1F
100
AcDbEntity
  8
Default
100
AcDbBlockReference
  2
SE2
 10
0.0
 20
0.0
 30
0.0
  0
TEXT
  5
287
330
1F
100
AcDbEntity
  8
Default
  6
Continuous
 62
     7
100
AcDbText
 10
5.9362635081
 20
53.4225120485
 30
0.0
 40
10.0
  1
Grohe AG^J
  7
SEACAD_seiso_ttf
 11
5.9362635081
 21
63.4225120485
 31
0.0
100
AcDbText
 73
     3
  0
TEXT
  5
288
330
1F
100
AcDbEntity
  8
Default
  6
Continuous
 62
     7
100
AcDbText
 10
5.9362635081
 20
37.0588756849
 30
0.0
 40
10.0
  1
 
  7
SEACAD_seiso_ttf
 11
5.9362635081
 21
47.0588756849
 31
0.0
100
AcDbText
 73
     3
  0
TEXT
  5
289
330
1F
100
AcDbEntity
  8
Default
  6
Continuous
 62
     7
100
AcDbText
 10
5.9362635081
 20
20.6952393213
 30
0.0
 40
10.0
  1
ecn:
  7
SEACAD_seiso_ttf
 11
5.9362635081
 21
30.6952393213
 31
0.0
100
AcDbText
 73
     3
  0
TEXT
  5
28A
330
1F
100
AcDbEntity
  8
Default
  6
Continuous
 62
     7
100
AcDbText
 10
5.9362635081
 20
4.3316029576
 30
0.0
 40
10.0
  1
unit: mm
  7
SEACAD_seiso_ttf
 11
5.9362635081
 21
14.3316029576
 31
0.0
100
AcDbText
 73
     3
  0
LINE
  5
28B
330
1F
100
AcDbEntity
  8
Default
  6
Continuous
 62
     7
100
AcDbLine
 10
0.0
 20
0.0
 30
0.0
 11
100.0
 21
0.0
 31
0.0
  0
LINE
  5
28C
330
1F
100
AcDbEntity
  8
Default
  6
Continuous
 62
     7
100
AcDbLine
 10
0.0
 20
0.0
 30
0.0
 11
0.0
 21
100.0
 31
0.0
  0
TEXT
  5
28D
330
1F
100
AcDbEntity
  8
Default
  6
Continuous
 62
     7
100
AcDbText
 10
24.3923665681
 20
-18.2375342018
 30
0.0
 40
10.0
  1
100 mm
  7
SEACAD_seiso_ttf
 11
24.3923665681
 21
-8.2375342018
 31
0.0
100
AcDbText
 73
     3
  0
TEXT
  5
28E
330
1F
100
AcDbEntity
  8
Default
  6
Continuous
 62
     7
100
AcDbText
 10
-7.6150308803
 20
24.6231930421
 30
0.0
 40
10.0
  1
100 mm
 50
90.0
  7
SEACAD_seiso_ttf
 11
-17.6150308803
 21
24.6231930421
 31
0.0
100
AcDbText
 73
     3
  0
TEXT
  5
28F
330
1F
100
AcDbEntity
  8
Default
  6
Continuous
 62
     7
100
AcDbText
 10
28.4878128572
 20
20.0907663715
 30
0.0
 40
10.0
  1
224515
  7
SEACAD_seiso_ttf
 11
28.4878128572
 21
30.0907663715
 31
0.0
100
AcDbText
 73
     3
  0
TEXT
  5
290
330
1F
100
AcDbEntity
  8
Default
  6
Continuous
 62
     7
100
AcDbText
 10
5.9012241913
 20
36.7242780188
 30
0.0
 40
10.0
  1
34464001
  7
SEACAD_seiso_ttf
 11
5.9012241913
 21
46.7242780188
 31
0.0
100
AcDbText
 73
     3
  0
ENDSEC
  0
SECTION
  2
OBJECTS
  0
DICTIONARY
  5
C
330
0
100
AcDbDictionary
281
     1
  3
ACAD_GROUP
350
D
  3
ACAD_LAYOUT
350
1A
  3
ACAD_MLEADERSTYLE
350
294
  3
ACAD_MLINESTYLE
350
17
  3
ACAD_PLOTSETTINGS
350
19
  3
ACAD_PLOTSTYLENAME
350
E
  3
ACAD_SCALELIST
350
3B
  3
ACAD_TABLESTYLE
350
293
  3
ACAD_VISUALSTYLE
350
2A
  3
AcDbVariableDictionary
350
291
  0
DICTIONARY
  5
D
102
{ACAD_REACTORS
330
C
102
}
330
C
100
AcDbDictionary
281
     1
  0
DICTIONARY
  5
1A
102
{ACAD_REACTORS
330
C
102
}
330
C
100
AcDbDictionary
281
     1
  3
Layout1
350
1E
  3
Model
350
22
  0
DICTIONARY
  5
294
102
{ACAD_REACTORS
330
C
102
}
330
C
100
AcDbDictionary
281
     1
  0
DICTIONARY
  5
17
102
{ACAD_REACTORS
330
C
102
}
330
C
100
AcDbDictionary
281
     1
  3
Standard
350
18
  0
DICTIONARY
  5
19
102
{ACAD_REACTORS
330
C
102
}
330
C
100
AcDbDictionary
281
     1
  0
ACDBDICTIONARYWDFLT
  5
E
102
{ACAD_REACTORS
330
C
102
}
330
C
100
AcDbDictionary
281
     1
  3
Normal
350
F
100
AcDbDictionaryWithDefault
340
F
  0
DICTIONARY
  5
3B
102
{ACAD_REACTORS
330
C
102
}
330
C
100
AcDbDictionary
281
     1
  3
A0
350
3C
  3
A1
350
3D
  3
A2
350
3E
  3
A3
350
3F
  3
A4
350
40
  3
A5
350
41
  3
A6
350
42
  3
A7
350
43
  3
A8
350
44
  3
A9
350
45
  3
B0
350
46
  3
B1
350
47
  3
B2
350
48
  3
B3
350
49
  3
B4
350
4A
  3
B5
350
4B
  3
B6
350
4C
  3
B7
350
4D
  3
B8
350
4E
  3
B9
350
4F
  3
C0
350
50
  3
C1
350
51
  3
C2
350
52
  3
C3
350
53
  3
C4
350
54
  3
C5
350
55
  3
C6
350
56
  3
C7
350
57
  3
C8
350
58
  3
C9
350
59
  3
D0
350
5A
  3
D1
350
5B
  3
D2
350
5C
  0
DICTIONARY
  5
293
102
{ACAD_REACTORS
330
C
102
}
330
C
100
AcDbDictionary
281
     1
  0
DICTIONARY
  5
2A
102
{ACAD_REACTORS
330
C
102
}
330
C
100
AcDbDictionary
281
     1
  3
2dWireframe
350
2F
  3
3D Hidden
350
31
  3
3dWireframe
350
30
  3
Basic
350
32
  3
Brighten
350
36
  3
ColorChange
350
3A
  3
Conceptual
350
34
  3
Dim
350
35
  3
Facepattern
350
39
  3
Flat
350
2B
  3
FlatWithEdges
350
2C
  3
Gouraud
350
2D
  3
GouraudWithEdges
350
2E
  3
Linepattern
350
38
  3
Realistic
350
33
  3
Thicken
350
37
  0
DICTIONARY
  5
291
102
{ACAD_REACTORS
330
C
102
}
330
C
100
AcDbDictionary
281
     1
  3
CANNOSCALE
350
292
  3
PSOLHEIGHT
350
296
  3
PSOLWIDTH
350
295
  0
LAYOUT
  5
1E
102
{ACAD_REACTORS
330
1A
102
}
330
1A
100
AcDbPlotSettings
  1

  2
none_device
  4

  6

 40
0.0
 41
0.0
 42
0.0
 43
0.0
 44
0.0
 45
0.0
 46
0.0
 47
0.0
 48
0.0
 49
0.0
140
0.0
141
0.0
142
1.0
143
1.0
 70
   688
 72
     0
 73
     0
 74
     5
  7

 75
    16
147
1.0
148
0.0
149
0.0
100
AcDbLayout
  1
Layout1
 70
     1
 71
     1
 10
0.0
 20
0.0
 11
3000.0
 21
4500.0
 12
0.0
 22
0.0
 32
0.0
 14
0.0
 24
0.0
 34
0.0
 15
3000.0
 25
4500.0
 35
0.0
146
0.0
 13
0.0
 23
0.0
 33
0.0
 16
1.0
 26
0.0
 36
0.0
 17
0.0
 27
1.0
 37
0.0
 76
     0
330
1B
  0
LAYOUT
  5
22
102
{ACAD_REACTORS
330
1A
102
}
330
1A
100
AcDbPlotSettings
  1

  2
none_device
  4

  6

 40
0.0
 41
0.0
 42
0.0
 43
0.0
 44
0.0
 45
0.0
 46
0.0
 47
0.0
 48
0.0
 49
0.0
140
0.0
141
0.0
142
1.0
143
1.0
 70
  1712
 72
     0
 73
     0
 74
     0
  7

 75
     0
147
1.0
148
0.0
149
0.0
100
AcDbLayout
  1
Model
 70
     1
 71
     0
 10
0.0
 20
0.0
 11
3000.0
 21
4500.0
 12
0.0
 22
0.0
 32
0.0
 14
0.0
 24
0.0
 34
0.0
 15
3000.0
 25
4500.0
 35
0.0
146
0.0
 13
0.0
 23
0.0
 33
0.0
 16
1.0
 26
0.0
 36
0.0
 17
0.0
 27
1.0
 37
0.0
 76
     0
330
1F
331
29
  0
MLINESTYLE
  5
18
102
{ACAD_REACTORS
330
17
102
}
330
17
100
AcDbMlineStyle
  2
Standard
 70
     0
  3

 62
   256
 51
90.0
 52
90.0
 71
     2
 49
0.5
 62
   256
  6
BYLAYER
 49
-0.5
 62
   256
  6
BYLAYER
  0
ACDBPLACEHOLDER
  5
F
102
{ACAD_REACTORS
330
E
102
}
330
E
  0
SCALE
  5
3C
102
{ACAD_REACTORS
330
3B
102
}
330
3B
100
AcDbScale
 70
     0
300
1:1
140
1.0
141
1.0
290
     1
  0
SCALE
  5
3D
102
{ACAD_REACTORS
330
3B
102
}
330
3B
100
AcDbScale
 70
     0
300
1:2
140
1.0
141
2.0
290
     0
  0
SCALE
  5
3E
102
{ACAD_REACTORS
330
3B
102
}
330
3B
100
AcDbScale
 70
     0
300
1:4
140
1.0
141
4.0
290
     0
  0
SCALE
  5
3F
102
{ACAD_REACTORS
330
3B
102
}
330
3B
100
AcDbScale
 70
     0
300
1:5
140
1.0
141
5.0
290
     0
  0
SCALE
  5
40
102
{ACAD_REACTORS
330
3B
102
}
330
3B
100
AcDbScale
 70
     0
300
1:8
140
1.0
141
8.0
290
     0
  0
SCALE
  5
41
102
{ACAD_REACTORS
330
3B
102
}
330
3B
100
AcDbScale
 70
     0
300
1:10
140
1.0
141
10.0
290
     0
  0
SCALE
  5
42
102
{ACAD_REACTORS
330
3B
102
}
330
3B
100
AcDbScale
 70
     0
300
1:16
140
1.0
141
16.0
290
     0
  0
SCALE
  5
43
102
{ACAD_REACTORS
330
3B
102
}
330
3B
100
AcDbScale
 70
     0
300
1:20
140
1.0
141
20.0
290
     0
  0
SCALE
  5
44
102
{ACAD_REACTORS
330
3B
102
}
330
3B
100
AcDbScale
 70
     0
300
1:30
140
1.0
141
30.0
290
     0
  0
SCALE
  5
45
102
{ACAD_REACTORS
330
3B
102
}
330
3B
100
AcDbScale
 70
     0
300
1:40
140
1.0
141
40.0
290
     0
  0
SCALE
  5
46
102
{ACAD_REACTORS
330
3B
102
}
330
3B
100
AcDbScale
 70
     0
300
1:50
140
1.0
141
50.0
290
     0
  0
SCALE
  5
47
102
{ACAD_REACTORS
330
3B
102
}
330
3B
100
AcDbScale
 70
     0
300
1:100
140
1.0
141
100.0
290
     0
  0
SCALE
  5
48
102
{ACAD_REACTORS
330
3B
102
}
330
3B
100
AcDbScale
 70
     0
300
2:1
140
2.0
141
1.0
290
     0
  0
SCALE
  5
49
102
{ACAD_REACTORS
330
3B
102
}
330
3B
100
AcDbScale
 70
     0
300
4:1
140
4.0
141
1.0
290
     0
  0
SCALE
  5
4A
102
{ACAD_REACTORS
330
3B
102
}
330
3B
100
AcDbScale
 70
     0
300
8:1
140
8.0
141
1.0
290
     0
  0
SCALE
  5
4B
102
{ACAD_REACTORS
330
3B
102
}
330
3B
100
AcDbScale
 70
     0
300
10:1
140
10.0
141
1.0
290
     0
  0
SCALE
  5
4C
102
{ACAD_REACTORS
330
3B
102
}
330
3B
100
AcDbScale
 70
     0
300
100:1
140
100.0
141
1.0
290
     0
  0
SCALE
  5
4D
102
{ACAD_REACTORS
330
3B
102
}
330
3B
100
AcDbScale
 70
     0
300
1/128" = 1'-0"
140
0.0078125
141
12.0
290
     0
  0
SCALE
  5
4E
102
{ACAD_REACTORS
330
3B
102
}
330
3B
100
AcDbScale
 70
     0
300
1/64" = 1'-0"
140
0.015625
141
12.0
290
     0
  0
SCALE
  5
4F
102
{ACAD_REACTORS
330
3B
102
}
330
3B
100
AcDbScale
 70
     0
300
1/32" = 1'-0"
140
0.03125
141
12.0
290
     0
  0
SCALE
  5
50
102
{ACAD_REACTORS
330
3B
102
}
330
3B
100
AcDbScale
 70
     0
300
1/16" = 1'-0"
140
0.0625
141
12.0
290
     0
  0
SCALE
  5
51
102
{ACAD_REACTORS
330
3B
102
}
330
3B
100
AcDbScale
 70
     0
300
3/32" = 1'-0"
140
0.09375
141
12.0
290
     0
  0
SCALE
  5
52
102
{ACAD_REACTORS
330
3B
102
}
330
3B
100
AcDbScale
 70
     0
300
1/8" = 1'-0"
140
0.125
141
12.0
290
     0
  0
SCALE
  5
53
102
{ACAD_REACTORS
330
3B
102
}
330
3B
100
AcDbScale
 70
     0
300
3/16" = 1'-0"
140
0.1875
141
12.0
290
     0
  0
SCALE
  5
54
102
{ACAD_REACTORS
330
3B
102
}
330
3B
100
AcDbScale
 70
     0
300
1/4" = 1'-0"
140
0.25
141
12.0
290
     0
  0
SCALE
  5
55
102
{ACAD_REACTORS
330
3B
102
}
330
3B
100
AcDbScale
 70
     0
300
3/8" = 1'-0"
140
0.375
141
12.0
290
     0
  0
SCALE
  5
56
102
{ACAD_REACTORS
330
3B
102
}
330
3B
100
AcDbScale
 70
     0
300
1/2" = 1'-0"
140
0.5
141
12.0
290
     0
  0
SCALE
  5
57
102
{ACAD_REACTORS
330
3B
102
}
330
3B
100
AcDbScale
 70
     0
300
3/4" = 1'-0"
140
0.75
141
12.0
290
     0
  0
SCALE
  5
58
102
{ACAD_REACTORS
330
3B
102
}
330
3B
100
AcDbScale
 70
     0
300
1" = 1'-0"
140
1.0
141
12.0
290
     0
  0
SCALE
  5
59
102
{ACAD_REACTORS
330
3B
102
}
330
3B
100
AcDbScale
 70
     0
300
1-1/2" = 1'-0"
140
1.5
141
12.0
290
     0
  0
SCALE
  5
5A
102
{ACAD_REACTORS
330
3B
102
}
330
3B
100
AcDbScale
 70
     0
300
3" = 1'-0"
140
3.0
141
12.0
290
     0
  0
SCALE
  5
5B
102
{ACAD_REACTORS
330
3B
102
}
330
3B
100
AcDbScale
 70
     0
300
6" = 1'-0"
140
6.0
141
12.0
290
     0
  0
SCALE
  5
5C
102
{ACAD_REACTORS
330
3B
102
}
330
3B
100
AcDbScale
 70
     0
300
1'-0" = 1'-0"
140
12.0
141
12.0
290
     0
  0
VISUALSTYLE
  5
2F
102
{ACAD_REACTORS
330
2A
102
}
330
2A
100
AcDbVisualStyle
  2
2dWireframe
 70
     4
 71
     0
 72
     2
 73
     0
 90
        0
 40
-0.6
 41
-30.0
 62
     5
 63
     7
 74
     1
 91
        4
 64
     7
 65
   257
 75
     1
175
     1
 42
1.0
 92
        0
 66
   257
 43
1.0
 76
     1
 77
     6
 78
     2
 67
     7
 79
     5
170
     0
171
     0
290
     0
174
     0
 93
        1
 44
0.0
173
     0
291
     0
 45
0.0
1001
ACAD
1000
AcDbSavedByObjectVersion
1070
     0
  0
VISUALSTYLE
  5
31
102
{ACAD_REACTORS
330
2A
102
}
330
2A
100
AcDbVisualStyle
  2
3D Hidden
 70
     6
 71
     1
 72
     2
 73
     2
 90
        0
 40
-0.6
 41
-30.0
 62
     5
 63
     7
 74
     2
 91
        2
 64
     7
 65
   257
 75
     2
175
     1
 42
40.0
 92
        0
 66
   257
 43
1.0
 76
     1
 77
     6
 78
     2
 67
     7
 79
     3
170
     0
171
     0
290
     0
174
     0
 93
        1
 44
0.0
173
     0
291
     0
 45
0.0
1001
ACAD
1000
AcDbSavedByObjectVersion
1070
     0
  0
VISUALSTYLE
  5
30
102
{ACAD_REACTORS
330
2A
102
}
330
2A
100
AcDbVisualStyle
  2
3dWireframe
 70
     5
 71
     0
 72
     2
 73
     0
 90
        0
 40
-0.6
 41
-30.0
 62
     5
 63
     7
 74
     1
 91
        4
 64
     7
 65
   257
 75
     1
175
     1
 42
1.0
 92
        0
 66
   257
 43
1.0
 76
     1
 77
     6
 78
     2
 67
     7
 79
     5
170
     0
171
     0
290
     0
174
     0
 93
        1
 44
0.0
173
     0
291
     0
 45
0.0
1001
ACAD
1000
AcDbSavedByObjectVersion
1070
     0
  0
VISUALSTYLE
  5
32
102
{ACAD_REACTORS
330
2A
102
}
330
2A
100
AcDbVisualStyle
  2
Basic
 70
     7
 71
     1
 72
     0
 73
     1
 90
        0
 40
-0.6
 41
-30.0
 62
     5
 63
     7
 74
     0
 91
        4
 64
     7
 65
   257
 75
     1
175
     1
 42
1.0
 92
        8
 66
     7
 43
1.0
 76
     1
 77
     6
 78
     2
 67
     7
 79
     5
170
     0
171
     0
290
     0
174
     0
 93
        1
 44
0.0
173
     0
291
     1
 45
0.0
1001
ACAD
1000
AcDbSavedByObjectVersion
1070
     0
  0
VISUALSTYLE
  5
36
102
{ACAD_REACTORS
330
2A
102
}
330
2A
100
AcDbVisualStyle
  2
Brighten
 70
    12
 71
     2
 72
     2
 73
     0
 90
        0
 40
-0.6
 41
-30.0
 62
     5
 63
     7
 74
     1
 91
        4
 64
     7
 65
   257
 75
     1
175
     1
 42
1.0
 92
        8
 66
     7
 43
1.0
 76
     1
 77
     6
 78
     2
 67
     7
 79
     5
170
     0
171
     0
290
     0
174
     0
 93
        1
 44
50.0
173
     0
291
     1
 45
0.0
1001
ACAD
1000
AcDbSavedByObjectVersion
1070
     0
  0
VISUALSTYLE
  5
3A
102
{ACAD_REACTORS
330
2A
102
}
330
2A
100
AcDbVisualStyle
  2
ColorChange
 70
    16
 71
     2
 72
     2
 73
     3
 90
        0
 40
-0.6
 41
-30.0
 62
     5
 63
     8
 74
     1
 91
        4
 64
     7
 65
   257
 75
     1
175
     1
 42
1.0
 92
        8
 66
     8
 43
1.0
 76
     1
 77
     6
 78
     2
 67
     7
 79
     5
170
     0
171
     0
290
     0
174
     0
 93
        1
 44
0.0
173
     0
291
     1
 45
0.0
1001
ACAD
1000
AcDbSavedByObjectVersion
1070
     0
  0
VISUALSTYLE
  5
34
102
{ACAD_REACTORS
330
2A
102
}
330
2A
100
AcDbVisualStyle
  2
Conceptual
 70
     9
 71
     3
 72
     2
 73
     0
 90
        0
 40
-0.6
 41
-30.0
 62
     5
 63
     7
 74
     2
 91
        2
 64
     7
 65
   257
 75
     1
175
     1
 42
40.0
 92
        8
 66
     7
 43
1.0
 76
     1
 77
     6
 78
     2
 67
     7
 79
     3
170
     0
171
     0
290
     0
174
     0
 93
        1
 44
0.0
173
     0
291
     0
 45
0.0
1001
ACAD
1000
AcDbSavedByObjectVersion
1070
     0
  0
VISUALSTYLE
  5
35
102
{ACAD_REACTORS
330
2A
102
}
330
2A
100
AcDbVisualStyle
  2
Dim
 70
    11
 71
     2
 72
     2
 73
     0
 90
        0
 40
-0.6
 41
-30.0
 62
     5
 63
     7
 74
     1
 91
        4
 64
     7
 65
   257
 75
     1
175
     1
 42
1.0
 92
        8
 66
     7
 43
1.0
 76
     1
 77
     6
 78
     2
 67
     7
 79
     5
170
     0
171
     0
290
     0
174
     0
 93
        1
 44
-50.0
173
     0
291
     1
 45
0.0
1001
ACAD
1000
AcDbSavedByObjectVersion
1070
     0
  0
VISUALSTYLE
  5
39
102
{ACAD_REACTORS
330
2A
102
}
330
2A
100
AcDbVisualStyle
  2
Facepattern
 70
    15
 71
     2
 72
     2
 73
     0
 90
        0
 40
-0.6
 41
-30.0
 62
     5
 63
     7
 74
     1
 91
        4
 64
     7
 65
   257
 75
     1
175
     1
 42
1.0
 92
        8
 66
     7
 43
1.0
 76
     1
 77
     6
 78
     2
 67
     7
 79
     5
170
     0
171
     0
290
     0
174
     0
 93
        1
 44
0.0
173
     0
291
     1
 45
0.0
1001
ACAD
1000
AcDbSavedByObjectVersion
1070
     0
  0
VISUALSTYLE
  5
2B
102
{ACAD_REACTORS
330
2A
102
}
330
2A
100
AcDbVisualStyle
  2
Flat
 70
     0
 71
     2
 72
     1
 73
     1
 90
        2
 40
-0.6
 41
30.0
 62
     5
 63
     7
 74
     0
 91
        4
 64
     7
 65
   257
 75
     1
175
     1
 42
1.0
 92
        8
 66
     7
 43
1.0
 76
     1
 77
     6
 78
     2
 67
     7
 79
     5
170
     0
171
     0
290
     0
174
     0
 93
       13
 44
0.0
173
     0
291
     1
 45
0.0
1001
ACAD
1000
AcDbSavedByObjectVersion
1070
     0
  0
VISUALSTYLE
  5
2C
102
{ACAD_REACTORS
330
2A
102
}
330
2A
100
AcDbVisualStyle
  2
FlatWithEdges
 70
     1
 71
     2
 72
     1
 73
     1
 90
        2
 40
-0.6
 41
30.0
 62
     5
 63
     7
 74
     1
 91
        4
 64
     7
 65
   257
 75
     1
175
     1
 42
1.0
 92
        0
 66
   257
 43
1.0
 76
     1
 77
     6
 78
     2
 67
     7
 79
     5
170
     0
171
     0
290
     0
174
     0
 93
       13
 44
0.0
173
     0
291
     1
 45
0.0
1001
ACAD
1000
AcDbSavedByObjectVersion
1070
     0
  0
VISUALSTYLE
  5
2D
102
{ACAD_REACTORS
330
2A
102
}
330
2A
100
AcDbVisualStyle
  2
Gouraud
 70
     2
 71
     2
 72
     2
 73
     1
 90
        2
 40
-0.6
 41
30.0
 62
     5
 63
     7
 74
     0
 91
        4
 64
     7
 65
   257
 75
     1
175
     1
 42
1.0
 92
        0
 66
     7
 43
1.0
 76
     1
 77
     6
 78
     2
 67
     7
 79
     5
170
     0
171
     0
290
     0
174
     0
 93
       13
 44
0.0
173
     0
291
     1
 45
0.0
1001
ACAD
1000
AcDbSavedByObjectVersion
1070
     0
  0
VISUALSTYLE
  5
2E
102
{ACAD_REACTORS
330
2A
102
}
330
2A
100
AcDbVisualStyle
  2
GouraudWithEdges
 70
     3
 71
     2
 72
     2
 73
     1
 90
        2
 40
-0.6
 41
30.0
 62
     5
 63
     7
 74
     1
 91
        4
 64
     7
 65
   257
 75
     1
175
     1
 42
1.0
 92
        0
 66
   257
 43
1.0
 76
     1
 77
     6
 78
     2
 67
     7
 79
     5
170
     0
171
     0
290
     0
174
     0
 93
       13
 44
0.0
173
     0
291
     1
 45
0.0
1001
ACAD
1000
AcDbSavedByObjectVersion
1070
     0
  0
VISUALSTYLE
  5
38
102
{ACAD_REACTORS
330
2A
102
}
330
2A
100
AcDbVisualStyle
  2
Linepattern
 70
    14
 71
     2
 72
     2
 73
     0
 90
        0
 40
-0.6
 41
-30.0
 62
     5
 63
     7
 74
     1
 91
        4
 64
     7
 65
   257
 75
     7
175
     7
 42
1.0
 92
        8
 66
     7
 43
1.0
 76
     1
 77
     6
 78
     2
 67
     7
 79
     5
170
     0
171
     0
290
     0
174
     0
 93
        1
 44
0.0
173
     0
291
     1
 45
0.0
1001
ACAD
1000
AcDbSavedByObjectVersion
1070
     0
  0
VISUALSTYLE
  5
33
102
{ACAD_REACTORS
330
2A
102
}
330
2A
100
AcDbVisualStyle
  2
Realistic
 70
     8
 71
     2
 72
     2
 73
     0
 90
        0
 40
-0.6
 41
-30.0
 62
     5
 63
     7
 74
     1
 91
        0
 64
     7
 65
   257
 75
     1
175
     1
 42
1.0
 92
        8
 66
     8
 43
1.0
 76
     1
 77
     6
 78
     2
 67
     7
 79
     5
170
     0
171
     0
290
     0
174
     0
 93
       13
 44
0.0
173
     0
291
     0
 45
0.0
1001
ACAD
1000
AcDbSavedByObjectVersion
1070
     0
  0
VISUALSTYLE
  5
37
102
{ACAD_REACTORS
330
2A
102
}
330
2A
100
AcDbVisualStyle
  2
Thicken
 70
    13
 71
     2
 72
     2
 73
     0
 90
        0
 40
-0.6
 41
-30.0
 62
     5
 63
     7
 74
     1
 91
        4
 64
     7
 65
   257
 75
     1
175
     1
 42
1.0
 92
       12
 66
     7
 43
1.0
 76
     1
 77
     6
 78
     2
 67
     7
 79
     5
170
     0
171
     0
290
     0
174
     0
 93
        1
 44
0.0
173
     0
291
     1
 45
0.0
1001
ACAD
1000
AcDbSavedByObjectVersion
1070
     0
  0
DICTIONARYVAR
  5
292
102
{ACAD_REACTORS
330
291
102
}
330
291
100
DictionaryVariables
280
     0
  1
1:1
  0
DICTIONARYVAR
  5
296
102
{ACAD_REACTORS
330
291
102
}
330
291
100
DictionaryVariables
280
     0
  1
80.000000
  0
DICTIONARYVAR
  5
295
102
{ACAD_REACTORS
330
291
102
}
330
291
100
DictionaryVariables
280
     0
  1
5.000000
  0
ENDSEC
  0
EOF
