  0
SECTION
  2
HEADER
  9
$ACADVER
  1
AC1018
  9
$ACADMAINTVER
 70
     2
  9
$DWGCODEPAGE
  3
ANSI_1252
  9
$TITLE
  1

  9
$SUBJECT
  1

  9
$AUTHOR
  1

  9
$KEYWORDS
  1

  9
$COMMENTS
  1

  9
$LASTSAVEDBY
  1

  9
$REVISIONNUMBER
  1

  9
$CUSTOMPROPERTYTAG
  1
AmdtFileType
  9
$CUSTOMPROPERTY
  1
84
  9
$INSBASE
 10
0.0
 20
0.0
 30
0.0
  9
$EXTMIN
 10
-580.7014833193237
 20
-180.2164736215731
 30
0.0
  9
$EXTMAX
 10
0.6825080791087128
 20
181.2339809419383
 30
0.0
  9
$LIMMIN
 10
0.0
 20
0.0
  9
$LIMMAX
 10
420.0
 20
297.0
  9
$ORTHOMODE
 70
     1
  9
$REGENMODE
 70
     1
  9
$FILLMODE
 70
     1
  9
$QTEXTMODE
 70
     0
  9
$MIRRTEXT
 70
     1
  9
$LTSCALE
 40
1.0
  9
$ATTMODE
 70
     1
  9
$TEXTSIZE
 40
2.5
  9
$TRACEWID
 40
1.0
  9
$TEXTSTYLE
  7
STANDARD
  9
$CLAYER
  8
0
  9
$CELTYPE
  6
ByLayer
  9
$CECOLOR
 62
   256
  9
$CELTSCALE
 40
1.0
  9
$DISPSILH
 70
     0
  9
$DIMSCALE
 40
1.0
  9
$DIMASZ
 40
2.5
  9
$DIMEXO
 40
1.0
  9
$DIMDLI
 40
10.0
  9
$DIMRND
 40
0.0
  9
$DIMDLE
 40
0.0
  9
$DIMEXE
 40
1.0
  9
$DIMTP
 40
0.1
  9
$DIMTM
 40
0.1
  9
$DIMTXT
 40
3.5
  9
$DIMCEN
 40
0.0
  9
$DIMTSZ
 40
0.0
  9
$DIMTOL
 70
     0
  9
$DIMLIM
 70
     0
  9
$DIMTIH
 70
     0
  9
$DIMTOH
 70
     0
  9
$DIMSE1
 70
     0
  9
$DIMSE2
 70
     0
  9
$DIMTAD
 70
     1
  9
$DIMZIN
 70
     8
  9
$DIMBLK
  1

  9
$DIMASO
 70
     1
  9
$DIMSHO
 70
     1
  9
$DIMPOST
  1

  9
$DIMAPOST
  1
"
  9
$DIMALT
 70
     0
  9
$DIMALTD
 70
     2
  9
$DIMALTF
 40
0.0393701
  9
$DIMLFAC
 40
1.0
  9
$DIMTOFL
 70
     1
  9
$DIMTVP
 40
0.0
  9
$DIMTIX
 70
     0
  9
$DIMSOXD
 70
     0
  9
$DIMSAH
 70
     0
  9
$DIMBLK1
  1

  9
$DIMBLK2
  1

  9
$DIMSTYLE
  2
AM_DIN
  9
$DIMCLRD
 70
   256
  9
$DIMCLRE
 70
   256
  9
$DIMCLRT
 70
     2
  9
$DIMTFAC
 40
0.71
  9
$DIMGAP
 40
1.5
  9
$DIMJUST
 70
     0
  9
$DIMSD1
 70
     0
  9
$DIMSD2
 70
     0
  9
$DIMTOLJ
 70
     0
  9
$DIMTZIN
 70
     8
  9
$DIMALTZ
 70
     0
  9
$DIMALTTZ
 70
     0
  9
$DIMUPT
 70
     0
  9
$DIMDEC
 70
     2
  9
$DIMTDEC
 70
     3
  9
$DIMALTU
 70
     2
  9
$DIMALTTD
 70
     4
  9
$DIMTXSTY
  7
STANDARD
  9
$DIMAUNIT
 70
     0
  9
$DIMADEC
 70
     0
  9
$DIMALTRND
 40
0.0
  9
$DIMAZIN
 70
     2
  9
$DIMDSEP
 70
    46
  9
$DIMATFIT
 70
     3
  9
$DIMFRAC
 70
     0
  9
$DIMLDRBLK
  1

  9
$DIMLUNIT
 70
     2
  9
$DIMLWD
 70
    -1
  9
$DIMLWE
 70
    -1
  9
$DIMTMOVE
 70
     0
  9
$LUNITS
 70
     2
  9
$LUPREC
 70
     2
  9
$SKETCHINC
 40
1.0
  9
$FILLETRAD
 40
10.0
  9
$AUNITS
 70
     0
  9
$AUPREC
 70
     0
  9
$MENU
  1
.
  9
$ELEVATION
 40
0.0
  9
$PELEVATION
 40
0.0
  9
$THICKNESS
 40
0.0
  9
$LIMCHECK
 70
     0
  9
$CHAMFERA
 40
2.5
  9
$CHAMFERB
 40
2.5
  9
$CHAMFERC
 40
20.0
  9
$CHAMFERD
 40
0.0
  9
$SKPOLY
 70
     0
  9
$TDCREATE
 40
2453918.221006574
  9
$TDUCREATE
 40
2453918.179339908
  9
$TDUPDATE
 40
2454064.608997917
  9
$TDUUPDATE
 40
2454064.567331250
  9
$TDINDWG
 40
0.2647819097
  9
$TDUSRTIMER
 40
0.2647777546
  9
$USRTIMER
 70
     1
  9
$ANGBASE
 50
0.0
  9
$ANGDIR
 70
     0
  9
$PDMODE
 70
     0
  9
$PDSIZE
 40
0.0
  9
$PLINEWID
 40
0.0
  9
$SPLFRAME
 70
     0
  9
$SPLINETYPE
 70
     6
  9
$SPLINESEGS
 70
     8
  9
$HANDSEED
  5
4B2C
  9
$SURFTAB1
 70
     6
  9
$SURFTAB2
 70
     6
  9
$SURFTYPE
 70
     6
  9
$SURFU
 70
     6
  9
$SURFV
 70
     6
  9
$UCSBASE
  2

  9
$UCSNAME
  2

  9
$UCSORG
 10
0.0
 20
0.0
 30
0.0
  9
$UCSXDIR
 10
1.0
 20
0.0
 30
0.0
  9
$UCSYDIR
 10
0.0
 20
1.0
 30
0.0
  9
$UCSORTHOREF
  2

  9
$UCSORTHOVIEW
 70
     0
  9
$UCSORGTOP
 10
0.0
 20
0.0
 30
0.0
  9
$UCSORGBOTTOM
 10
0.0
 20
0.0
 30
0.0
  9
$UCSORGLEFT
 10
0.0
 20
0.0
 30
0.0
  9
$UCSORGRIGHT
 10
0.0
 20
0.0
 30
0.0
  9
$UCSORGFRONT
 10
0.0
 20
0.0
 30
0.0
  9
$UCSORGBACK
 10
0.0
 20
0.0
 30
0.0
  9
$PUCSBASE
  2

  9
$PUCSNAME
  2

  9
$PUCSORG
 10
0.0
 20
0.0
 30
0.0
  9
$PUCSXDIR
 10
1.0
 20
0.0
 30
0.0
  9
$PUCSYDIR
 10
0.0
 20
1.0
 30
0.0
  9
$PUCSORTHOREF
  2

  9
$PUCSORTHOVIEW
 70
     0
  9
$PUCSORGTOP
 10
0.0
 20
0.0
 30
0.0
  9
$PUCSORGBOTTOM
 10
0.0
 20
0.0
 30
0.0
  9
$PUCSORGLEFT
 10
0.0
 20
0.0
 30
0.0
  9
$PUCSORGRIGHT
 10
0.0
 20
0.0
 30
0.0
  9
$PUCSORGFRONT
 10
0.0
 20
0.0
 30
0.0
  9
$PUCSORGBACK
 10
0.0
 20
0.0
 30
0.0
  9
$USERI1
 70
     0
  9
$USERI2
 70
     0
  9
$USERI3
 70
     0
  9
$USERI4
 70
     0
  9
$USERI5
 70
     0
  9
$USERR1
 40
0.0
  9
$USERR2
 40
0.0
  9
$USERR3
 40
0.0
  9
$USERR4
 40
0.0
  9
$USERR5
 40
0.0
  9
$WORLDVIEW
 70
     1
  9
$SHADEDGE
 70
     3
  9
$SHADEDIF
 70
    70
  9
$TILEMODE
 70
     1
  9
$MAXACTVP
 70
    64
  9
$PINSBASE
 10
0.0
 20
0.0
 30
0.0
  9
$PLIMCHECK
 70
     0
  9
$PEXTMIN
 10
1.000000000000000E+20
 20
1.000000000000000E+20
 30
1.000000000000000E+20
  9
$PEXTMAX
 10
-1.000000000000000E+20
 20
-1.000000000000000E+20
 30
-1.000000000000000E+20
  9
$PLIMMIN
 10
0.0
 20
0.0
  9
$PLIMMAX
 10
420.0
 20
297.0
  9
$UNITMODE
 70
     0
  9
$VISRETAIN
 70
     1
  9
$PLINEGEN
 70
     0
  9
$PSLTSCALE
 70
     1
  9
$TREEDEPTH
 70
  3020
  9
$CMLSTYLE
  2
Standard
  9
$CMLJUST
 70
     0
  9
$CMLSCALE
 40
20.0
  9
$PROXYGRAPHICS
 70
     1
  9
$MEASUREMENT
 70
     1
  9
$CELWEIGHT
370
    -1
  9
$ENDCAPS
280
     0
  9
$JOINSTYLE
280
     0
  9
$LWDISPLAY
290
     0
  9
$INSUNITS
 70
     4
  9
$HYPERLINKBASE
  1

  9
$STYLESHEET
  1

  9
$XEDIT
290
     1
  9
$CEPSNTYPE
380
     0
  9
$PSTYLEMODE
290
     1
  9
$FINGERPRINTGUID
  2
{E66C8CC1-E66B-408F-9010-06FD783B68A0}
  9
$VERSIONGUID
  2
{00B779AF-7AAC-4685-9434-49BE5A656D16}
  9
$EXTNAMES
290
     1
  9
$PSVPSCALE
 40
0.0
  9
$OLESTARTUP
290
     0
  9
$SORTENTS
280
   127
  9
$INDEXCTL
280
     1
  9
$HIDETEXT
280
     1
  9
$XCLIPFRAME
290
     0
  9
$HALOGAP
280
     0
  9
$OBSCOLOR
 70
   257
  9
$OBSLTYPE
280
     0
  9
$INTERSECTIONDISPLAY
280
     0
  9
$INTERSECTIONCOLOR
 70
   257
  9
$DIMASSOC
280
     2
  9
$PROJECTNAME
  1

  0
ENDSEC
  0
SECTION
  2
CLASSES
  0
CLASS
  1
ACDBDICTIONARYWDFLT
  2
AcDbDictionaryWithDefault
  3
ObjectDBX Classes
 90
        0
 91
        1
280
     0
281
     0
  0
CLASS
  1
ACME_DOCUMENT
  2
AcMeDbDoc
  3
AcMeServices
 90
        0
 91
        2
280
     0
281
     0
  0
CLASS
  1
ACMESCOPE
  2
AcMeScope
  3
AcMeServices
 90
        0
 91
        1
280
     0
281
     0
  0
CLASS
  1
ACMECOMMANDHISTORY
  2
AcMeCommandHistory
  3
AcMeServices
 90
        0
 91
        1
280
     0
281
     0
  0
CLASS
  1
ACIMSYSVARMAN
  2
AcImSysVarManager
  3
AcMeServices
 90
        0
 91
        6
280
     0
281
     0
  0
CLASS
  1
ACIMREALSYSVAR
  2
AcImRealSysVar
  3
AcMeServices
 90
        0
 91
       16
280
     0
281
     0
  0
CLASS
  1
ACIMINTSYSVAR
  2
AcImIntSysVar
  3
AcMeServices
 90
        0
 91
       45
280
     0
281
     0
  0
CLASS
  1
ACMEDRAWINGMAN
  2
AcMeDrawingMan
  3
AcMeServices
 90
        0
 91
        1
280
     0
281
     0
  0
CLASS
  1
ACMEVIEW
  2
AcMeView
  3
AcMeServices
 90
        0
 91
        1
280
     0
281
     0
  0
CLASS
  1
ACDBENTITYCACHE
  2
AcMeEntityCache
  3
AcMeServices
 90
        0
 91
        1
280
     0
281
     0
  0
CLASS
  1
GSMANAGER
  2
AcMeGSManager
  3
AcMeServices
 90
        0
 91
        1
280
     0
281
     0
  0
CLASS
  1
AMDTINTERNALREACTOR
  2
AmdtInternalReactor
  3
AcMeServices
 90
        0
 91
        2
280
     0
281
     0
  0
CLASS
  1
ACMESTATEMGR
  2
AcMeStateMgr
  3
AcMeServices
 90
        0
 91
        1
280
     0
281
     0
  0
CLASS
  1
ACGREFMASTER
  2
AcGrefMaster
  3
AcAttribServices
 90
        0
 91
        1
280
     0
281
     0
  0
CLASS
  1
ACME_DATABASE
  2
AcMeDbDatabase
  3
AcMeServices
 90
        0
 91
        1
280
     0
281
     0
  0
CLASS
  1
ACRFINSADJUSTERMGR
  2
AcRfInsAdjusterMgr
  3
AcMeServices
 90
        0
 91
        1
280
     0
281
     0
  0
CLASS
  1
ACGREFACADMASTER
  2
AcGrefacadMaster
  3
AcGrefServices
 90
        0
 91
        1
280
     0
281
     0
  0
CLASS
  1
AMIMASTER
  2
AmiMaster
  3
AmiServices
 90
        0
 91
        1
280
     0
281
     0
  0
CLASS
  1
AMGSETTINGSOBJ
  2
AmgSettingsObj
  3
"AcadM|Product Description: AutoCAD Mechanical 2000|Company: Autodesk"
 90
        0
 91
        2
280
     0
281
     0
  0
CLASS
  1
ACMDATADICTIONARY
  2
AcmDataDictionary
  3
"AcmSymBB|Product Description: AutoCAD Mechanical 2004 DX|Company: Autodesk"
 90
        0
 91
        1
280
     0
281
     0
  0
CLASS
  1
ACMDATAENTRYBLOCK
  2
AcmDataEntryBlock
  3
"AcmSymBB|Product Description: AutoCAD Mechanical 2004 DX|Company: Autodesk"
 90
        0
 91
        1
280
     0
281
     0
  0
CLASS
  1
ACIMSTRSYSVAR
  2
AcImStrSysVar
  3
AcMeServices
 90
        0
 91
       11
280
     0
281
     0
  0
CLASS
  1
ACMSTANDARDDIN
  2
AcmStandardDIN
  3
"Amdt_StdImp|Product Description: AutoCAD Mechanical 2004 DX|Company: Autodesk"
 90
        0
 91
        1
280
     0
281
     0
  0
CLASS
  1
AMGOBJPROPCFG
  2
AmgObjPropCfg
  3
"AmgLay|Product Description: AutoCAD Mechanical 2000|Company: Autodesk"
 90
        1
 91
        1
280
     0
281
     0
  0
CLASS
  1
AMDTEDGESTANDARDDIN
  2
AmdtEdgeStdDIN
  3
"Amdt_StdImp|Product Description: AutoCAD Mechanical 2004 DX|Company: Autodesk"
 90
        0
 91
        1
280
     0
281
     0
  0
CLASS
  1
ACMSURFSTANDARDDIN
  2
AcmSurfTextStdDIN
  3
"Amdt_StdImp|Product Description: AutoCAD Mechanical 2004 DX|Company: Autodesk"
 90
        0
 91
        1
280
     0
281
     0
  0
CLASS
  1
ACMFCFSTANDARDDIN
  2
AcmFCFStdDIN
  3
"Amdt_StdImp|Product Description: AutoCAD Mechanical 2004 DX|Company: Autodesk"
 90
        0
 91
        1
280
     0
281
     0
  0
CLASS
  1
ACMWELDSTANDARDDIN
  2
AcmWeldingStdDIN
  3
"Amdt_StdImp|Product Description: AutoCAD Mechanical 2004 DX|Company: Autodesk"
 90
        0
 91
        1
280
     0
281
     0
  0
CLASS
  1
ACMIDSTANDARDDIN
  2
AcmIdStdDIN
  3
"Amdt_StdImp|Product Description: AutoCAD Mechanical 2004 DX|Company: Autodesk"
 90
        0
 91
        1
280
     0
281
     0
  0
CLASS
  1
ACMDATUMSTANDARDDIN
  2
AcmDatumStdDIN
  3
"Amdt_StdImp|Product Description: AutoCAD Mechanical 2004 DX|Company: Autodesk"
 90
        0
 91
        1
280
     0
281
     0
  0
CLASS
  1
ACMBOMSTANDARDDIN
  2
AcmBOMStdDIN
  3
"Amdt_StdImp|Product Description: AutoCAD Mechanical 2004 DX|Company: Autodesk"
 90
        0
 91
        1
280
     0
281
     0
  0
CLASS
  1
ACMDETAILSTANDARDDIN
  2
AmdtDetailSymStdDIN
  3
"Amdt_StdImp|Product Description: AutoCAD Mechanical 2004 DX|Company: Autodesk"
 90
        0
 91
        1
280
     0
281
     0
  0
CLASS
  1
ACMSECTIONSTANDARDDIN
  2
AmdtSectionSymStdDIN
  3
"Amdt_StdImp|Product Description: AutoCAD Mechanical 2004 DX|Company: Autodesk"
 90
        0
 91
        1
280
     0
281
     0
  0
CLASS
  1
ACMCENTERLINESTANDARDDIN
  2
AmdtCenterLineStdDIN
  3
"Amdt_StdImp|Product Description: AutoCAD Mechanical 2004 DX|Company: Autodesk"
 90
        0
 91
        1
280
     0
281
     0
  0
CLASS
  1
ACMNOTESTANDARDDIN
  2
AmdtNoteStdDIN
  3
"Amdt_StdImp|Product Description: AutoCAD Mechanical 2004 DX|Company: Autodesk"
 90
        0
 91
        1
280
     0
281
     0
  0
CLASS
  1
ACAMGLAYSTD
  2
AcAmgLayStd
  3
"AcAmgLayStd|Product Description: AutoCAD Mechanical 2000|Company: Autodesk"
 90
        0
 91
        2
280
     0
281
     0
  0
CLASS
  1
ACAMGDIMSTD
  2
AcAmgDimStd
  3
"AcAmgDimStd|Product Description: AutoCAD Mechanical 2000|Company: Autodesk"
 90
        0
 91
        2
280
     0
281
     0
  0
CLASS
  1
ACAMGHOLECHARTSTDDIN
  2
AcAmgHoleChartStdDIN
  3
ACMSYMBB_MODULE_NAME
 90
        0
 91
        1
280
     0
281
     0
  0
CLASS
  1
ACAMGTITLESTD
  2
AcAmgTitleStd
  3
"TITLEAPP"
 90
        0
 91
        2
280
     0
281
     0
  0
CLASS
  1
LAYER_INDEX
  2
AcDbLayerIndex
  3
ObjectDBX Classes
 90
        0
 91
        1
280
     0
281
     0
  0
CLASS
  1
IDBUFFER
  2
AcDbIdBuffer
  3
ObjectDBX Classes
 90
        0
 91
        1
280
     0
281
     0
  0
CLASS
  1
DICTIONARYVAR
  2
AcDbDictionaryVar
  3
ObjectDBX Classes
 90
        0
 91
        3
280
     0
281
     0
  0
CLASS
  1
ACAMGFILTERDAT
  2
AcAmgFilterDat
  3
"AcadM|Product Description: AutoCAD Mechanical 2000|Company: Autodesk"
 90
        0
 91
        6
280
     0
281
     0
  0
CLASS
  1
ACMSTANDARDANSI
  2
AcmStandardANSI
  3
"Amdt_StdImp|Product Description: AutoCAD Mechanical 2004 DX|Company: Autodesk"
 90
        0
 91
        1
280
     0
281
     0
  0
CLASS
  1
ACMSURFSTANDARDANSI
  2
AcmSurfTextStdANSI
  3
"Amdt_StdImp|Product Description: AutoCAD Mechanical 2004 DX|Company: Autodesk"
 90
        0
 91
        1
280
     0
281
     0
  0
CLASS
  1
ACMFCFSTANDARDANSI
  2
AcmFCFStdANSI
  3
"Amdt_StdImp|Product Description: AutoCAD Mechanical 2004 DX|Company: Autodesk"
 90
        0
 91
        1
280
     0
281
     0
  0
CLASS
  1
ACMWELDSTANDARDANSI
  2
AcmWeldingStdANSI
  3
"Amdt_StdImp|Product Description: AutoCAD Mechanical 2004 DX|Company: Autodesk"
 90
        0
 91
        1
280
     0
281
     0
  0
CLASS
  1
ACMIDSTANDARDANSI
  2
AcmIdStdANSI
  3
"Amdt_StdImp|Product Description: AutoCAD Mechanical 2004 DX|Company: Autodesk"
 90
        0
 91
        1
280
     0
281
     0
  0
CLASS
  1
ACMDATUMSTANDARDANSI
  2
AcmDatumStdANSI
  3
"Amdt_StdImp|Product Description: AutoCAD Mechanical 2004 DX|Company: Autodesk"
 90
        0
 91
        1
280
     0
281
     0
  0
CLASS
  1
ACMBOMSTANDARDANSI
  2
AcmBOMStdANSI
  3
"Amdt_StdImp|Product Description: AutoCAD Mechanical 2004 DX|Company: Autodesk"
 90
        0
 91
        1
280
     0
281
     0
  0
CLASS
  1
ACMDETAILSTANDARDANSI
  2
AmdtDetailSymStdANSI
  3
"Amdt_StdImp|Product Description: AutoCAD Mechanical 2004 DX|Company: Autodesk"
 90
        0
 91
        1
280
     0
281
     0
  0
CLASS
  1
ACMSECTIONSTANDARDANSI
  2
AmdtSectionSymStdANSI
  3
"Amdt_StdImp|Product Description: AutoCAD Mechanical 2004 DX|Company: Autodesk"
 90
        0
 91
        1
280
     0
281
     0
  0
CLASS
  1
ACMCENTERLINESTANDARDANSI
  2
AmdtCenterLineStdANSI
  3
"Amdt_StdImp|Product Description: AutoCAD Mechanical 2004 DX|Company: Autodesk"
 90
        0
 91
        1
280
     0
281
     0
  0
CLASS
  1
ACMNOTESTANDARDANSI
  2
AmdtNoteStdANSI
  3
"Amdt_StdImp|Product Description: AutoCAD Mechanical 2004 DX|Company: Autodesk"
 90
        0
 91
        1
280
     0
281
     0
  0
CLASS
  1
ACAMGHOLECHARTSTDANSI
  2
AcAmgHoleChartStdANSI
  3
ACMSYMBB_MODULE_NAME
 90
        0
 91
        1
280
     0
281
     0
  0
CLASS
  1
AMDTFORMULAUPDATEDISPATCHER
  2
AmdtFormulaUpdateDispatcher
  3
AcMeServices
 90
        0
 91
        1
280
     0
281
     0
  0
CLASS
  1
DIMASSOC
  2
AcDbDimAssoc
  3
"AcDbDimAssoc|Product Desc:     AcDim ARX App For Dimension|Company:          Autodesk, Inc.|WEB Address:      www.autodesk.com"
 90
        0
 91
        0
280
     0
281
     0
  0
CLASS
  1
AM_DRAWING_MGR
  2
AcDmDwgMgr
  3
AcMechDwgViewMgmt
 90
        0
 91
        1
280
     0
281
     0
  0
CLASS
  1
AM_DWG_DOCUMENT
  2
AcDmDwgDocument
  3
AcMechDwgViewMgmt
 90
        0
 91
        1
280
     0
281
     0
  0
CLASS
  1
AM_DWG_SHEET
  2
AcDmSheet
  3
AcMechDwgViewMgmt
 90
        0
 91
        2
280
     0
281
     0
  0
CLASS
  1
AM_VIEWDIMPARMAP
  2
AcDmViewDimParMap
  3
AcMechDwgViewMgmt
 90
        0
 91
        2
280
     0
281
     0
  0
CLASS
  1
AM_DWGMGR_NAME
  2
AcDmDwgMgrName
  3
AcMechDwgViewMgmt
 90
        0
 91
        1
280
     0
281
     0
  0
CLASS
  1
AMDTMENUSTATEMGR
  2
AmdtMenuStateMgr
  3
McadcomServices
 90
        0
 91
        1
280
     0
281
     0
  0
CLASS
  1
AMDTMCOMMENUSTATE
  2
AmdtMcomMenuState
  3
McadcomServices
 90
        0
 91
        1
280
     0
281
     0
  0
CLASS
  1
ASAPP
  2
AcAsAppObject
  3
AutoSurfServices
 90
        0
 91
        1
280
     0
281
     0
  0
CLASS
  1
IM_STATIC_MAN
  2
AcImStaticVarManager
  3
AcMeServices
 90
        0
 91
        1
280
     0
281
     0
  0
CLASS
  1
ACIMDBLSTATICVAR
  2
AcImDblStaticVar
  3
AcMeServices
 90
        0
 91
       20
280
     0
281
     0
  0
CLASS
  1
ACIMSTRSTATICVAR
  2
AcImStrStaticVar
  3
AcMeServices
 90
        0
 91
       12
280
     0
281
     0
  0
CLASS
  1
ACIMINTSTATICVAR
  2
AcImIntStaticVar
  3
AcMeServices
 90
        0
 91
       17
280
     0
281
     0
  0
CLASS
  1
ACASGREFMASTER
  2
AcAsGrefMaster
  3
AutoSurfResolverServices
 90
        0
 91
        1
280
     0
281
     0
  0
CLASS
  1
ACADGREFMODULE
  2
AcAdGrefModule
  3
AdGrefServices
 90
        0
 91
        1
280
     0
281
     0
  0
CLASS
  1
AMDTMAPISURFMOUDULE
  2
AmdtMApiSurfModule
  3
MApiSurfServices
 90
        0
 91
        1
280
     0
281
     0
  0
CLASS
  1
MAPIAMMOUDLE
  2
MApiAmModule
  3
MApiAmServices
 90
        0
 91
        1
280
     0
281
     0
  0
CLASS
  1
AMDTADMENUSTATE
  2
AmdtAdMenuState
  3
DesignerServices
 90
        0
 91
        1
280
     0
281
     0
  0
CLASS
  1
ADAPPL
  2
AcAdAppl
  3
DesignerServices
 90
        0
 91
        1
280
     0
281
     0
  0
CLASS
  1
DEPMGR
  2
AcAdDepMgr
  3
DesignerServices
 90
        0
 91
        1
280
     0
281
     0
  0
CLASS
  1
PARAMMGR
  2
AcAdParamMgr
  3
DesignerServices
 90
        0
 91
        1
280
     0
281
     0
  0
CLASS
  1
PARAMSCOPE
  2
AcAdParamScope
  3
DesignerServices
 90
        0
 91
        1
280
     0
281
     0
  0
CLASS
  1
NAMEDAPPL
  2
AcAdNamedAppl
  3
DesignerServices
 90
        0
 91
        1
280
     0
281
     0
  0
CLASS
  1
AMDTDMMENUSTATE
  2
AmdtDmMenuState
  3
AcMechDwgViewMgmt
 90
        0
 91
        1
280
     0
281
     0
  0
CLASS
  1
MAPIADMODULE
  2
MApiAdModule
  3
MApiAdServices
 90
        0
 91
        1
280
     0
281
     0
  0
CLASS
  1
AMDTAMMENUSTATE
  2
AmdtAmMenuState
  3
DesignerAssemblies
 90
        0
 91
        1
280
     0
281
     0
  0
CLASS
  1
ACAMPROJECT
  2
AcAmProject
  3
DesignerAssemblies
 90
        0
 91
        1
280
     0
281
     0
  0
CLASS
  1
ACAMGRCOMPDEF
  2
AcAmGrCompDef
  3
DesignerAssemblies
 90
        0
 91
        1
280
     0
281
     0
  0
CLASS
  1
ACCMCONTEXT
  2
AcCmContext
  3
DesignerAssemblies
 90
        0
 91
        1
280
     0
281
     0
  0
CLASS
  1
ACAMCOMPDEF
  2
AcAmCompDef
  3
DesignerAssemblies
 90
        0
 91
        1
280
     0
281
     0
  0
CLASS
  1
ACAMCOMPDEFMGR
  2
AcAmCompDefMgr
  3
DesignerAssemblies
 90
        0
 91
        1
280
     0
281
     0
  0
CLASS
  1
AMCONTEXTMGR
  2
AcAmContextMgr
  3
DesignerAssemblies
 90
        0
 91
        1
280
     0
281
     0
  0
CLASS
  1
ACAMCONTEXTMODELER
  2
AcAmContextModeler
  3
DesignerAssemblies
 90
        0
 91
        1
280
     0
281
     0
  0
CLASS
  1
ACMTHREADLINESTANDARDDIN
  2
AmdtThreadLineStdDIN
  3
"Amdt_StdImp|Product Description: AutoCAD Mechanical 2004 DX|Company: Autodesk"
 90
        0
 91
        1
280
     0
281
     0
  0
CLASS
  1
ACMTHREADLINESTANDARDANSI
  2
AmdtThreadLineStdANSI
  3
"Amdt_StdImp|Product Description: AutoCAD Mechanical 2004 DX|Company: Autodesk"
 90
        0
 91
        1
280
     0
281
     0
  0
CLASS
  1
CATALOGSTATE
  2
AcAmCatalogState
  3
DesignerAssemblies
 90
        0
 91
        1
280
     0
281
     0
  0
CLASS
  1
ACAMGRCOMPDEFSET
  2
AcAmGrCompDefSet
  3
DesignerAssemblies
 90
        0
 91
        1
280
     0
281
     0
  0
CLASS
  1
AMDTBROWSERDBTAB
  2
AmdtBrowserDbTab
  3
McadcomServices
 90
        0
 91
        1
280
     0
281
     0
  0
CLASS
  1
CBROWSERAPPOBJECT
  2
CBrowserAppObject
  3
McadcomServices
 90
        0
 91
        3
280
     0
281
     0
  0
CLASS
  1
DM_PLACEHOLDER
  2
AcDmSelsetPlaceholder
  3
AcMechDwgViewMgmt
 90
        0
 91
        1
280
     0
281
     0
  0
ENDSEC
  0
SECTION
  2
TABLES
  0
TABLE
  2
VPORT
  5
8
330
0
100
AcDbSymbolTable
 70
     4
  0
VPORT
  5
4B2B
330
8
100
AcDbSymbolTableRecord
100
AcDbViewportTableRecord
  2
*Active
 70
     0
 10
0.0
 20
0.0
 11
1.0
 21
1.0
 12
0.0
 22
0.0
 13
0.0
 23
0.0
 14
2.5
 24
2.5
 15
10.0
 25
10.0
 16
0.0
 26
0.0
 36
1.0
 17
-269.4949980124479
 27
0.5018874432006442
 37
0.0
 40
365.4895854447567
 41
1.853846153846154
 42
50.0
 43
0.0
 44
0.0
 50
0.0
 51
0.0
 71
     0
 72
   100
 73
     1
 74
     3
 75
     0
 76
     0
 77
     0
 78
     0
281
     0
 65
     0
110
0.0
120
0.0
130
0.0
111
1.0
121
0.0
131
0.0
112
0.0
122
1.0
132
0.0
 79
     0
146
0.0
  0
ENDTAB
  0
TABLE
  2
LTYPE
  5
5
330
0
100
AcDbSymbolTable
 70
    18
  0
LTYPE
  5
14
330
5
100
AcDbSymbolTableRecord
100
AcDbLinetypeTableRecord
  2
ByBlock
 70
     0
  3

 72
    65
 73
     0
 40
0.0
  0
LTYPE
  5
15
330
5
100
AcDbSymbolTableRecord
100
AcDbLinetypeTableRecord
  2
ByLayer
 70
     0
  3

 72
    65
 73
     0
 40
0.0
  0
LTYPE
  5
16
330
5
100
AcDbSymbolTableRecord
100
AcDbLinetypeTableRecord
  2
Continuous
 70
     0
  3
Solid line
 72
    65
 73
     0
 40
0.0
  0
LTYPE
  5
50
330
5
100
AcDbSymbolTableRecord
100
AcDbLinetypeTableRecord
  2
Amconstr
 70
     0
  3
_______________________
 72
    65
 73
     2
 40
9999.0
 49
9999.0
 74
     0
 49
0.0
 74
     0
  0
LTYPE
  5
55
330
5
100
AcDbSymbolTableRecord
100
AcDbLinetypeTableRecord
  2
Amzigzag
 70
     0
  3
/\/-/\/-/\/-/\/-/\/-/\/
 72
    65
 73
     2
 40
11.0001
 49
0.0001
 74
     4
 75
   135
340
54
 46
0.04
 50
0.0
 44
0.0
 45
0.0
 49
-11.0
 74
     0
  0
LTYPE
  5
56
330
5
100
AcDbSymbolTableRecord
100
AcDbLinetypeTableRecord
  2
AM_DIN_F_W050
 70
     0
  3
__ __ __ __ __ __ __ __ __ __ __ __ __ __ __
 72
    65
 73
     2
 40
6.25
 49
4.75
 74
     0
 49
-1.5
 74
     0
  0
LTYPE
  5
57
330
5
100
AcDbSymbolTableRecord
100
AcDbLinetypeTableRecord
  2
AM_DIN_G_W050
 70
     0
  3
____ . ____ . ____ . ____ . ____ . ____ . ____
 72
    65
 73
     4
 40
13.75
 49
9.75
 74
     0
 49
-1.5
 74
     0
 49
1.0
 74
     0
 49
-1.5
 74
     0
  0
LTYPE
  5
58
330
5
100
AcDbSymbolTableRecord
100
AcDbLinetypeTableRecord
  2
AM_DIN_K_W050
 70
     0
  3
_____ . . _____ . . _____ . . ____ .. ____
 72
    65
 73
     6
 40
16.25
 49
9.75
 74
     0
 49
-1.5
 74
     0
 49
1.0
 74
     0
 49
-1.5
 74
     0
 49
1.0
 74
     0
 49
-1.5
 74
     0
  0
LTYPE
  5
59
330
5
100
AcDbSymbolTableRecord
100
AcDbLinetypeTableRecord
  2
AM_DIN_G_W050x2
 70
     0
  3
__ . __ . __ . __ . __ . __
 72
    65
 73
     4
 40
6.875
 49
4.75
 74
     0
 49
-0.875
 74
     0
 49
0.375
 74
     0
 49
-0.875
 74
     0
  0
LTYPE
  5
5A
330
5
100
AcDbSymbolTableRecord
100
AcDbLinetypeTableRecord
  2
AM_DIN_F_W050x2
 70
     0
  3
 _ _ _ _ _ _ _ _ _ _ _ _
 72
    65
 73
     2
 40
3.125
 49
2.25
 74
     0
 49
-0.875
 74
     0
  0
LTYPE
  5
68
330
5
100
AcDbSymbolTableRecord
100
AcDbLinetypeTableRecord
  2
ACDINWELD
 70
     0
  3
_ _ _ _ _
 72
    65
 73
     2
 40
2.0
 49
2.0
 74
     0
 49
-1.0
 74
     0
  0
LTYPE
  5
69
330
5
100
AcDbSymbolTableRecord
100
AcDbLinetypeTableRecord
  2
ACDINTGB
 70
     0
  3
__ . . __ . .
 72
    65
 73
     6
 40
9.0
 49
4.0
 74
     0
 49
-1.0
 74
     0
 49
1.0
 74
     0
 49
-1.0
 74
     0
 49
1.0
 74
     0
 49
-1.0
 74
     0
  0
LTYPE
  5
6A
330
5
100
AcDbSymbolTableRecord
100
AcDbLinetypeTableRecord
  2
ACDINTGL
 70
     0
  3
_ _ _ _ _
 72
    65
 73
     2
 40
3.0
 49
2.0
 74
     0
 49
-1.0
 74
     0
  0
LTYPE
  5
6C
330
5
100
AcDbSymbolTableRecord
100
AcDbLinetypeTableRecord
  2
CENTER
 70
     0
  3
__ . __
 72
    65
 73
     4
 40
7.0
 49
4.0
 74
     0
 49
-1.0
 74
     0
 49
1.0
 74
     0
 49
-1.0
 74
     0
  0
LTYPE
  5
33D
330
5
100
AcDbSymbolTableRecord
100
AcDbLinetypeTableRecord
  2
PHANTOM2
 70
     0
  3
Phantom (.5x) ___ _ _ ___ _ _ ___ _ _ ___ _ _
 72
    65
 73
     6
 40
1.25
 49
0.625
 74
     0
 49
-0.125
 74
     0
 49
0.125
 74
     0
 49
-0.125
 74
     0
 49
0.125
 74
     0
 49
-0.125
 74
     0
  0
LTYPE
  5
341
330
5
100
AcDbSymbolTableRecord
100
AcDbLinetypeTableRecord
  2
ACANSTGB
 70
     0
  3
__ . . __ . .
 72
    65
 73
     6
 40
0.35433070866
 49
0.15748031496
 74
     0
 49
-0.03937007874
 74
     0
 49
0.03937007874
 74
     0
 49
-0.03937007874
 74
     0
 49
0.03937007874
 74
     0
 49
-0.03937007874
 74
     0
  0
LTYPE
  5
342
330
5
100
AcDbSymbolTableRecord
100
AcDbLinetypeTableRecord
  2
ACANSTGL
 70
     0
  3
_ _ _ _ _
 72
    65
 73
     2
 40
0.11811023622
 49
0.07874015748
 74
     0
 49
-0.03937007874
 74
     0
  0
LTYPE
  5
4A88
330
5
100
AcDbSymbolTableRecord
100
AcDbLinetypeTableRecord
  2
HIDDEN
 70
     0
  3
Verdeckt
 72
    65
 73
     2
 40
9.525
 49
6.349999999999999
 74
     0
 49
-3.174999999999999
 74
     0
  0
LTYPE
  5
4AE7
330
5
100
AcDbSymbolTableRecord
100
AcDbLinetypeTableRecord
  2
ASULTYPE
 70
     0
  3
Ausgezogene Linie
 72
    65
 73
     2
 40
3.0
 49
2.5
 74
     0
 49
0.5
 74
     0
  0
LTYPE
  5
4AE8
330
5
100
AcDbSymbolTableRecord
100
AcDbLinetypeTableRecord
  2
ASVLTYPE
 70
     0
  3
__ __ __ __ __ __ __ __ __ __ __ __ __ __ __ __ __ __ __ __ __
 72
    65
 73
     2
 40
0.75
 49
0.5
 74
     0
 49
-0.25
 74
     0
  0
ENDTAB
  0
TABLE
  2
LAYER
  5
2
330
0
100
AcDbSymbolTable
 70
     1
  0
LAYER
  5
10
330
2
100
AcDbSymbolTableRecord
100
AcDbLayerTableRecord
  2
0
 70
     0
 62
     7
  6
Continuous
370
    -3
390
F
  0
ENDTAB
  0
TABLE
  2
STYLE
  5
3
330
0
100
AcDbSymbolTable
 70
     6
  0
STYLE
  5
11
330
3
100
AcDbSymbolTableRecord
100
AcDbTextStyleTableRecord
  2
STANDARD
 70
     0
 40
0.0
 41
1.0
 50
0.0
 71
     0
 42
2.5
  3
ISOCP.SHX
  4

  0
STYLE
  5
54
330
3
100
AcDbSymbolTableRecord
100
AcDbTextStyleTableRecord
  2

 70
     1
 40
0.0
 41
1.0
 50
0.0
 71
     0
 42
2.5
  3
ltypeshp.shx
  4

  0
STYLE
  5
5B
330
3
100
AcDbSymbolTableRecord
100
AcDbTextStyleTableRecord
  2
ACDINTS
 70
     0
 40
1.0
 41
1.0
 50
0.0
 71
     0
 42
2.5
  3
isocp.shx
  4

  0
STYLE
  5
67
330
3
100
AcDbSymbolTableRecord
100
AcDbTextStyleTableRecord
  2
ACDINGDT
 70
     0
 40
0.0
 41
1.0
 50
0.0
 71
     0
 42
2.5
  3
amgdt.shx
  4

  0
STYLE
  5
343
330
3
100
AcDbSymbolTableRecord
100
AcDbTextStyleTableRecord
  2
ACANSTS
 70
     0
 40
1.0
 41
1.0
 50
0.0
 71
     0
 42
0.2
  3
romans.shx
  4

  0
STYLE
  5
344
330
3
100
AcDbSymbolTableRecord
100
AcDbTextStyleTableRecord
  2
ACANSGDT
 70
     0
 40
0.0
 41
1.0
 50
0.0
 71
     0
 42
0.2
  3
amgdtans.shx
  4

  0
ENDTAB
  0
TABLE
  2
VIEW
  5
6
330
0
100
AcDbSymbolTable
 70
     0
  0
ENDTAB
  0
TABLE
  2
UCS
  5
7
330
0
100
AcDbSymbolTable
 70
     0
  0
ENDTAB
  0
TABLE
  2
APPID
  5
9
330
0
100
AcDbSymbolTable
 70
    14
  0
APPID
  5
12
330
9
100
AcDbSymbolTableRecord
100
AcDbRegAppTableRecord
  2
ACAD
 70
     0
  0
APPID
  5
2C
330
9
100
AcDbSymbolTableRecord
100
AcDbRegAppTableRecord
  2
MCAD_NO_VIS
 70
     0
  0
APPID
  5
2D
330
9
100
AcDbSymbolTableRecord
100
AcDbRegAppTableRecord
  2
ACAD_TEMP_GRAPHIC
 70
     0
  0
APPID
  5
3E
330
9
100
AcDbSymbolTableRecord
100
AcDbRegAppTableRecord
  2
ACATTRIBSERVICES
 70
     0
  0
APPID
  5
496B
330
9
100
AcDbSymbolTableRecord
100
AcDbRegAppTableRecord
  2
DCO15
 70
     0
  0
APPID
  5
4A72
330
9
100
AcDbSymbolTableRecord
100
AcDbRegAppTableRecord
  2
GENIUS_GENDIM_13
 70
     0
  0
APPID
  5
4A73
330
9
100
AcDbSymbolTableRecord
100
AcDbRegAppTableRecord
  2
GENIUS_GENDTOL_13
 70
     0
  0
APPID
  5
4A74
330
9
100
AcDbSymbolTableRecord
100
AcDbRegAppTableRecord
  2
GENIUS_GE3DTOL_13
 70
     0
  0
APPID
  5
4A9D
330
9
100
AcDbSymbolTableRecord
100
AcDbRegAppTableRecord
  2
AD_DRAW
 70
     0
  0
APPID
  5
4AE9
330
9
100
AcDbSymbolTableRecord
100
AcDbRegAppTableRecord
  2
ASURF_PCURVE_APPNAME
 70
     0
  0
APPID
  5
4AEE
330
9
100
AcDbSymbolTableRecord
100
AcDbRegAppTableRecord
  2
AMG_3D2D_5.0
 70
     0
  0
APPID
  5
4B1D
330
9
100
AcDbSymbolTableRecord
100
AcDbRegAppTableRecord
  2
DESIGNERASSEMBLIES
 70
     0
  0
APPID
  5
4B23
330
9
100
AcDbSymbolTableRecord
100
AcDbRegAppTableRecord
  2
ACADM_DIM_EDIT
 70
     0
  0
APPID
  5
4B24
330
9
100
AcDbSymbolTableRecord
100
AcDbRegAppTableRecord
  2
AMDT_DM_ADJ
 70
     0
  0
ENDTAB
  0
TABLE
  2
DIMSTYLE
  5
A
330
0
100
AcDbSymbolTable
 70
    14
100
AcDbDimStyleTable
 71
     1
340
6F
  0
DIMSTYLE
105
6F
330
A
100
AcDbSymbolTableRecord
100
AcDbDimStyleTableRecord
  2
AM_DIN
 70
     0
  4
"
 41
2.5
 42
1.0
 43
10.0
 44
1.0
 47
0.1
 48
0.1
 73
     0
 74
     0
 77
     1
 78
     8
 79
     2
140
3.5
141
0.0
143
0.0393701
146
0.71
147
1.5
172
     1
176
   256
177
   256
178
     2
271
     2
272
     3
274
     4
283
     0
284
     8
340
11
371
    -1
372
    -1
  0
DIMSTYLE
105
70
330
A
100
AcDbSymbolTableRecord
100
AcDbDimStyleTableRecord
  2
AM_DIN$3
 70
     0
  4
"
 41
2.5
 42
1.0
 43
10.0
 44
1.0
 47
0.1
 48
0.1
 73
     0
 77
     1
 78
     8
 79
     2
140
3.5
141
0.0
143
0.0393701
146
0.71
147
1.5
176
   256
177
   256
178
     2
271
     2
272
     3
274
     4
283
     0
284
     8
288
     1
289
     0
340
11
371
    -1
372
    -1
  0
DIMSTYLE
105
71
330
A
100
AcDbSymbolTableRecord
100
AcDbDimStyleTableRecord
  2
AM_DIN$4
 70
     0
  4
"
 41
2.5
 42
1.0
 43
10.0
 44
1.0
 47
0.1
 48
0.1
 73
     0
 77
     1
 78
     8
 79
     2
140
3.5
141
0.0
143
0.0393701
146
0.71
147
1.5
176
   256
177
   256
178
     2
271
     2
272
     3
274
     4
283
     0
284
     8
288
     1
289
     0
340
11
371
    -1
372
    -1
  0
DIMSTYLE
105
72
330
A
100
AcDbSymbolTableRecord
100
AcDbDimStyleTableRecord
  2
AM_DIN$6
 70
     0
  4
"
 41
2.5
 42
1.0
 43
10.0
 44
1.0
 47
0.1
 48
0.1
 73
     0
 74
     0
 78
     8
 79
     2
140
3.5
141
0.0
143
0.0393701
146
0.71
147
1.5
172
     1
176
   256
177
   256
178
     2
271
     2
272
     3
274
     4
283
     0
284
     8
340
11
371
    -1
372
    -1
  0
DIMSTYLE
105
73
330
A
100
AcDbSymbolTableRecord
100
AcDbDimStyleTableRecord
  2
AM_DIN$7
 70
     0
  4
"
 41
2.5
 42
1.0
 43
10.0
 44
1.0
 47
0.1
 48
0.1
 73
     0
 74
     0
 77
     1
 78
     8
 79
     2
140
5.0
141
0.0
143
0.0393701
146
0.71
147
1.5
172
     1
176
   256
177
   256
178
     2
271
     2
272
     3
274
     4
283
     0
284
     8
340
11
371
    -1
372
    -1
  0
DIMSTYLE
105
74
330
A
100
AcDbSymbolTableRecord
100
AcDbDimStyleTableRecord
  2
AM_DIN$SF
 70
     0
  4
"
 41
2.5
 42
1.0
 43
10.0
 44
1.0
 47
0.1
 48
0.1
 73
     0
 74
     0
 75
     1
 76
     1
 77
     1
 78
     8
 79
     2
140
3.5
141
0.0
143
0.0393701
146
0.71
147
1.5
172
     1
176
   256
177
   256
178
     2
271
     2
272
     3
274
     4
283
     0
284
     8
340
11
371
    -1
372
    -1
  0
DIMSTYLE
105
79
330
A
100
AcDbSymbolTableRecord
100
AcDbDimStyleTableRecord
  2
AM_DIN$SH
 70
     0
  4
"
 41
2.5
 42
1.0
 43
10.0
 44
1.0
 47
0.1
 48
0.1
 73
     0
 74
     0
 75
     1
 76
     1
 77
     1
 78
     8
 79
     2
140
3.5
141
0.0
143
0.0393701
144
2.0
146
0.71
147
1.5
172
     1
173
     1
176
   256
177
   256
178
     2
271
     2
272
     3
274
     4
283
     0
284
     8
340
11
343
75
371
    -1
372
    -1
  0
DIMSTYLE
105
92
330
A
100
AcDbSymbolTableRecord
100
AcDbDimStyleTableRecord
  2
STANDARD
 70
     0
279
     2
340
11
  0
DIMSTYLE
105
345
330
A
100
AcDbSymbolTableRecord
100
AcDbDimStyleTableRecord
  2
AM_ANSI
 70
     0
  4
mm
 41
0.1
 42
0.05
 43
0.5
 44
0.1
 47
0.1
 48
0.1
 78
     7
 79
     2
140
0.12
141
0.0
146
0.71
147
0.06
176
   256
177
   256
178
     2
274
     4
284
     7
340
11
371
    -1
372
    -1
  0
DIMSTYLE
105
346
330
A
100
AcDbSymbolTableRecord
100
AcDbDimStyleTableRecord
  2
AM_ANSI$3
 70
     0
  4
mm
 41
0.1
 42
0.05
 43
0.5
 44
0.1
 47
0.1
 48
0.1
 78
     7
 79
     2
140
0.12
141
0.0
146
0.71
147
0.06
176
   256
177
   256
178
     2
274
     4
284
     7
288
     1
289
     0
340
11
371
    -1
372
    -1
  0
DIMSTYLE
105
347
330
A
100
AcDbSymbolTableRecord
100
AcDbDimStyleTableRecord
  2
AM_ANSI$4
 70
     0
  4
mm
 41
0.1
 42
0.05
 43
0.5
 44
0.1
 47
0.1
 48
0.1
 78
     7
 79
     2
140
0.12
141
0.0
146
0.71
147
0.06
176
   256
177
   256
178
     2
274
     4
284
     7
288
     1
289
     0
340
11
371
    -1
372
    -1
  0
DIMSTYLE
105
348
330
A
100
AcDbSymbolTableRecord
100
AcDbDimStyleTableRecord
  2
AM_ANSI$7
 70
     0
  4
mm
 41
0.1
 42
0.05
 43
0.5
 44
0.1
 47
0.1
 48
0.1
 78
     7
 79
     2
140
0.24
141
0.0
146
0.71
147
0.06
176
   256
177
   256
178
     2
274
     4
284
     7
340
11
371
    -1
372
    -1
  0
DIMSTYLE
105
349
330
A
100
AcDbSymbolTableRecord
100
AcDbDimStyleTableRecord
  2
AM_ANSI$SF
 70
     0
  4
mm
 41
0.1
 42
0.05
 43
0.5
 44
0.1
 47
0.1
 48
0.1
 75
     1
 76
     1
 78
     7
 79
     2
140
0.12
141
0.0
146
0.71
147
0.06
176
   256
177
   256
178
     2
274
     4
284
     7
340
11
371
    -1
372
    -1
  0
DIMSTYLE
105
34A
330
A
100
AcDbSymbolTableRecord
100
AcDbDimStyleTableRecord
  2
AM_ANSI$SH
 70
     0
  4
mm
 41
0.1
 42
0.05
 43
0.5
 44
0.1
 47
0.1
 48
0.1
 75
     1
 76
     1
 78
     7
 79
     2
140
0.12
141
0.0
146
0.71
147
0.06
173
     1
176
   256
177
   256
178
     2
274
     4
284
     7
340
11
343
75
371
    -1
372
    -1
  0
ENDTAB
  0
TABLE
  2
BLOCK_RECORD
  5
1
330
0
100
AcDbSymbolTable
 70
     3
  0
BLOCK_RECORD
  5
1F
102
{ACAD_XDICTIONARY
360
81
102
}
330
1
100
AcDbSymbolTableRecord
100
AcDbBlockTableRecord
  2
*Model_Space
340
22
  0
BLOCK_RECORD
  5
1B
330
1
100
AcDbSymbolTableRecord
100
AcDbBlockTableRecord
  2
*Paper_Space
340
1E
  0
BLOCK_RECORD
  5
23
330
1
100
AcDbSymbolTableRecord
100
AcDbBlockTableRecord
  2
*Paper_Space0
340
26
  0
BLOCK_RECORD
  5
75
330
1
100
AcDbSymbolTableRecord
100
AcDbBlockTableRecord
  2
GENAXEH
340
0
  0
BLOCK_RECORD
  5
4B14
330
1
100
AcDbSymbolTableRecord
100
AcDbBlockTableRecord
  2
*U2
340
0
  0
ENDTAB
  0
ENDSEC
  0
SECTION
  2
BLOCKS
  0
BLOCK
  5
20
330
1F
100
AcDbEntity
  8
0
100
AcDbBlockBegin
  2
*Model_Space
 70
     0
 10
0.0
 20
0.0
 30
0.0
  3
*Model_Space
  1

  0
ENDBLK
  5
21
330
1F
100
AcDbEntity
  8
0
100
AcDbBlockEnd
  0
BLOCK
  5
1C
330
1B
100
AcDbEntity
 67
     1
  8
0
100
AcDbBlockBegin
  2
*Paper_Space
 70
     0
 10
0.0
 20
0.0
 30
0.0
  3
*Paper_Space
  1

  0
ENDBLK
  5
1D
330
1B
100
AcDbEntity
 67
     1
  8
0
100
AcDbBlockEnd
  0
BLOCK
  5
24
330
23
100
AcDbEntity
  8
0
100
AcDbBlockBegin
  2
*Paper_Space0
 70
     0
 10
0.0
 20
0.0
 30
0.0
  3
*Paper_Space0
  1

  0
ENDBLK
  5
25
330
23
100
AcDbEntity
  8
0
100
AcDbBlockEnd
  0
BLOCK
  5
77
330
75
100
AcDbEntity
  8
0
100
AcDbBlockBegin
  2
GENAXEH
 70
     0
 10
0.0
 20
0.0
 30
0.0
  3
GENAXEH
  1

  0
LINE
  5
76
330
75
100
AcDbEntity
  8
0
100
AcDbLine
 10
-1.0
 20
0.0
 30
0.0
 11
1.0
 21
0.0
 31
0.0
  0
ENDBLK
  5
78
330
75
100
AcDbEntity
  8
0
100
AcDbBlockEnd
  0
BLOCK
  5
4B15
330
4B14
100
AcDbEntity
  8
0
100
AcDbBlockBegin
  2
*U2
 70
     1
 10
0.0
 20
0.0
 30
0.0
  3
*U2
  1

  0
ENDBLK
  5
4B16
330
4B14
100
AcDbEntity
  8
0
100
AcDbBlockEnd
  0
ENDSEC
  0
SECTION
  2
ENTITIES
  0
POLYLINE
  5
43F6
330
1F
100
AcDbEntity
  8
0
100
AcDb2dPolyline
 66
     1
 10
0.0
 20
0.0
 30
0.0
  0
VERTEX
  5
43F7
330
43F6
100
AcDbEntity
  8
0
100
AcDbVertex
100
AcDb2dVertex
 10
-487.6458739999999
 20
-125.927160447677
 30
0.0
  0
VERTEX
  5
43F8
330
43F6
100
AcDbEntity
  8
0
100
AcDbVertex
100
AcDb2dVertex
 10
-487.452851
 20
-125.747045447677
 30
0.0
  0
VERTEX
  5
43F9
330
43F6
100
AcDbEntity
  8
0
100
AcDbVertex
100
AcDb2dVertex
 10
-486.891488
 20
-125.215303447677
 30
0.0
  0
VERTEX
  5
43FA
330
43F6
100
AcDbEntity
  8
0
100
AcDbVertex
100
AcDb2dVertex
 10
-485.9883729999999
 20
-124.344850447677
 30
0.0
  0
VERTEX
  5
43FB
330
43F6
100
AcDbEntity
  8
0
100
AcDbVertex
100
AcDb2dVertex
 10
-484.770096
 20
-123.148595447677
 30
0.0
  0
VERTEX
  5
43FC
330
43F6
100
AcDbEntity
  8
0
100
AcDbVertex
100
AcDb2dVertex
 10
-483.2632219999999
 20
-121.639444447677
 30
0.0
  0
VERTEX
  5
43FD
330
43F6
100
AcDbEntity
  8
0
100
AcDbVertex
100
AcDb2dVertex
 10
-481.4943429999999
 20
-119.830312447677
 30
0.0
  0
VERTEX
  5
43FE
330
43F6
100
AcDbEntity
  8
0
100
AcDbVertex
100
AcDb2dVertex
 10
-479.4900399999999
 20
-117.734109447677
 30
0.0
  0
VERTEX
  5
43FF
330
43F6
100
AcDbEntity
  8
0
100
AcDbVertex
100
AcDb2dVertex
 10
-477.2768899999999
 20
-115.363748447677
 30
0.0
  0
VERTEX
  5
4400
330
43F6
100
AcDbEntity
  8
0
100
AcDbVertex
100
AcDb2dVertex
 10
-474.8814739999999
 20
-112.732133447677
 30
0.0
  0
VERTEX
  5
4401
330
43F6
100
AcDbEntity
  8
0
100
AcDbVertex
100
AcDb2dVertex
 10
-472.33038
 20
-109.852178447677
 30
0.0
  0
VERTEX
  5
4402
330
43F6
100
AcDbEntity
  8
0
100
AcDbVertex
100
AcDb2dVertex
 10
-469.6501809999999
 20
-106.736791447677
 30
0.0
  0
VERTEX
  5
4403
330
43F6
100
AcDbEntity
  8
0
100
AcDbVertex
100
AcDb2dVertex
 10
-466.8674629999999
 20
-103.398893447677
 30
0.0
  0
VERTEX
  5
4404
330
43F6
100
AcDbEntity
  8
0
100
AcDbVertex
100
AcDb2dVertex
 10
-464.0088089999998
 20
-99.85138544767705
 30
0.0
  0
VERTEX
  5
4405
330
43F6
100
AcDbEntity
  8
0
100
AcDbVertex
100
AcDb2dVertex
 10
-461.1007959999999
 20
-96.10717544767704
 30
0.0
  0
VERTEX
  5
4406
330
43F6
100
AcDbEntity
  8
0
100
AcDbVertex
100
AcDb2dVertex
 10
-458.1700099999999
 20
-92.17918244767702
 30
0.0
  0
VERTEX
  5
4407
330
43F6
100
AcDbEntity
  8
0
100
AcDbVertex
100
AcDb2dVertex
 10
-455.243027
 20
-88.08031244767704
 30
0.0
  0
VERTEX
  5
4408
330
43F6
100
AcDbEntity
  8
0
100
AcDbVertex
100
AcDb2dVertex
 10
-452.3464319999999
 20
-83.82347644767703
 30
0.0
  0
VERTEX
  5
4409
330
43F6
100
AcDbEntity
  8
0
100
AcDbVertex
100
AcDb2dVertex
 10
-449.5068039999999
 20
-79.42158344767699
 30
0.0
  0
VERTEX
  5
440A
330
43F6
100
AcDbEntity
  8
0
100
AcDbVertex
100
AcDb2dVertex
 10
-446.7507269999999
 20
-74.88754844767703
 30
0.0
  0
VERTEX
  5
440B
330
43F6
100
AcDbEntity
  8
0
100
AcDbVertex
100
AcDb2dVertex
 10
-444.1047809999999
 20
-70.23427344767703
 30
0.0
  0
SEQEND
  5
440C
330
43F6
100
AcDbEntity
  8
0
  0
POLYLINE
  5
4426
330
1F
100
AcDbEntity
  8
0
100
AcDb2dPolyline
 66
     1
 10
0.0
 20
0.0
 30
0.0
  0
VERTEX
  5
4427
330
4426
100
AcDbEntity
  8
0
100
AcDbVertex
100
AcDb2dVertex
 10
-485.2498709999999
 20
134.6763705523229
 30
0.0
  0
VERTEX
  5
4428
330
4426
100
AcDbEntity
  8
0
100
AcDbVertex
100
AcDb2dVertex
 10
-485.0568469999999
 20
134.4962555523229
 30
0.0
  0
VERTEX
  5
4429
330
4426
100
AcDbEntity
  8
0
100
AcDbVertex
100
AcDb2dVertex
 10
-484.4954989999999
 20
133.964578552323
 30
0.0
  0
VERTEX
  5
442A
330
4426
100
AcDbEntity
  8
0
100
AcDbVertex
100
AcDb2dVertex
 10
-483.5924079999999
 20
133.0941565523229
 30
0.0
  0
VERTEX
  5
442B
330
4426
100
AcDbEntity
  8
0
100
AcDbVertex
100
AcDb2dVertex
 10
-482.3741499999999
 20
131.897989552323
 30
0.0
  0
VERTEX
  5
442C
330
4426
100
AcDbEntity
  8
0
100
AcDbVertex
100
AcDb2dVertex
 10
-480.867306
 20
130.3889255523229
 30
0.0
  0
VERTEX
  5
442D
330
4426
100
AcDbEntity
  8
0
100
AcDbVertex
100
AcDb2dVertex
 10
-479.0984579999999
 20
128.5799045523229
 30
0.0
  0
VERTEX
  5
442E
330
4426
100
AcDbEntity
  8
0
100
AcDbVertex
100
AcDb2dVertex
 10
-477.0941819999999
 20
126.4838355523229
 30
0.0
  0
VERTEX
  5
442F
330
4426
100
AcDbEntity
  8
0
100
AcDbVertex
100
AcDb2dVertex
 10
-474.8810619999999
 20
124.113626552323
 30
0.0
  0
VERTEX
  5
4430
330
4426
100
AcDbEntity
  8
0
100
AcDbVertex
100
AcDb2dVertex
 10
-472.485676
 20
121.4821565523229
 30
0.0
  0
VERTEX
  5
4431
330
4426
100
AcDbEntity
  8
0
100
AcDbVertex
100
AcDb2dVertex
 10
-469.9346049999999
 20
118.602334552323
 30
0.0
  0
VERTEX
  5
4432
330
4426
100
AcDbEntity
  8
0
100
AcDbVertex
100
AcDb2dVertex
 10
-467.2544289999999
 20
115.4871005523229
 30
0.0
  0
VERTEX
  5
4433
330
4426
100
AcDbEntity
  8
0
100
AcDbVertex
100
AcDb2dVertex
 10
-464.471726
 20
112.149362552323
 30
0.0
  0
VERTEX
  5
4434
330
4426
100
AcDbEntity
  8
0
100
AcDbVertex
100
AcDb2dVertex
 10
-461.6130799999999
 20
108.6020295523229
 30
0.0
  0
VERTEX
  5
4435
330
4426
100
AcDbEntity
  8
0
100
AcDbVertex
100
AcDb2dVertex
 10
-458.705063
 20
104.857980552323
 30
0.0
  0
VERTEX
  5
4436
330
4426
100
AcDbEntity
  8
0
100
AcDbVertex
100
AcDb2dVertex
 10
-455.7742659999998
 20
100.9301245523229
 30
0.0
  0
VERTEX
  5
4437
330
4426
100
AcDbEntity
  8
0
100
AcDbVertex
100
AcDb2dVertex
 10
-452.8472599999999
 20
96.83139955232299
 30
0.0
  0
VERTEX
  5
4438
330
4426
100
AcDbEntity
  8
0
100
AcDbVertex
100
AcDb2dVertex
 10
-449.9506269999999
 20
92.57471655232297
 30
0.0
  0
VERTEX
  5
4439
330
4426
100
AcDbEntity
  8
0
100
AcDbVertex
100
AcDb2dVertex
 10
-447.1109469999999
 20
88.17295255232295
 30
0.0
  0
VERTEX
  5
443A
330
4426
100
AcDbEntity
  8
0
100
AcDbVertex
100
AcDb2dVertex
 10
-444.3548019999999
 20
83.63901755232296
 30
0.0
  0
VERTEX
  5
443B
330
4426
100
AcDbEntity
  8
0
100
AcDbVertex
100
AcDb2dVertex
 10
-441.7087709999999
 20
78.98584955232298
 30
0.0
  0
SEQEND
  5
443C
330
4426
100
AcDbEntity
  8
0
  0
LINE
  5
448B
330
1F
100
AcDbEntity
  8
0
 62
     4
100
AcDbLine
 10
-80.0
 20
26.50976355232297
 30
0.0
 11
-80.0
 21
-25.49023644767704
 31
0.0
  0
LINE
  5
448C
330
1F
100
AcDbEntity
  8
0
 62
     4
100
AcDbLine
 10
-215.0
 20
57.21561955232295
 30
0.0
 11
-215.0
 21
-55.68992844767706
 31
0.0
  0
LINE
  5
4526
330
1F
100
AcDbEntity
  8
0
100
AcDbLine
 10
-144.440094
 20
78.9459634351499
 30
0.0
 11
-144.4400939999998
 21
-76.91162994964173
 31
0.0
  0
LINE
  5
4528
330
1F
100
AcDbEntity
  8
0
 62
     4
100
AcDbLine
 10
-106.0
 20
0.5097635523229656
 30
0.0
 11
-54.0
 21
0.5097635523229656
 31
0.0
  0
POLYLINE
  5
452A
330
1F
100
AcDbEntity
  8
0
100
AcDb2dPolyline
 66
     1
 10
0.0
 20
0.0
 30
0.0
  0
VERTEX
  5
452B
330
452A
100
AcDbEntity
  8
0
100
AcDbVertex
100
AcDb2dVertex
 10
-205.1327209999999
 20
-126.940122447677
 30
0.0
  0
VERTEX
  5
452C
330
452A
100
AcDbEntity
  8
0
100
AcDbVertex
100
AcDb2dVertex
 10
-205.2438509999999
 20
-126.652669447677
 30
0.0
  0
VERTEX
  5
452D
330
452A
100
AcDbEntity
  8
0
100
AcDbVertex
100
AcDb2dVertex
 10
-205.566117
 20
-125.825239447677
 30
0.0
  0
VERTEX
  5
452E
330
452A
100
AcDbEntity
  8
0
100
AcDbVertex
100
AcDb2dVertex
 10
-206.082795
 20
-124.510236447677
 30
0.0
  0
VERTEX
  5
452F
330
452A
100
AcDbEntity
  8
0
100
AcDbVertex
100
AcDb2dVertex
 10
-206.7771759999999
 20
-122.760068447677
 30
0.0
  0
VERTEX
  5
4530
330
452A
100
AcDbEntity
  8
0
100
AcDbVertex
100
AcDb2dVertex
 10
-207.6325689999999
 20
-120.627126447677
 30
0.0
  0
VERTEX
  5
4531
330
452A
100
AcDbEntity
  8
0
100
AcDbVertex
100
AcDb2dVertex
 10
-208.6322479999999
 20
-118.163820447677
 30
0.0
  0
VERTEX
  5
4532
330
452A
100
AcDbEntity
  8
0
100
AcDbVertex
100
AcDb2dVertex
 10
-209.759507
 20
-115.422552447677
 30
0.0
  0
VERTEX
  5
4533
330
452A
100
AcDbEntity
  8
0
100
AcDbVertex
100
AcDb2dVertex
 10
-210.9976349999999
 20
-112.455720447677
 30
0.0
  0
VERTEX
  5
4534
330
452A
100
AcDbEntity
  8
0
100
AcDbVertex
100
AcDb2dVertex
 10
-212.3299409999999
 20
-109.315725447677
 30
0.0
  0
VERTEX
  5
4535
330
452A
100
AcDbEntity
  8
0
100
AcDbVertex
100
AcDb2dVertex
 10
-213.7396859999999
 20
-106.054975447677
 30
0.0
  0
VERTEX
  5
4536
330
452A
100
AcDbEntity
  8
0
100
AcDbVertex
100
AcDb2dVertex
 10
-215.2101749999999
 20
-102.725873447677
 30
0.0
  0
VERTEX
  5
4537
330
452A
100
AcDbEntity
  8
0
100
AcDbVertex
100
AcDb2dVertex
 10
-216.724717
 20
-99.38081144767705
 30
0.0
  0
VERTEX
  5
4538
330
452A
100
AcDbEntity
  8
0
100
AcDbVertex
100
AcDb2dVertex
 10
-218.2665709999999
 20
-96.07219544767701
 30
0.0
  0
VERTEX
  5
4539
330
452A
100
AcDbEntity
  8
0
100
AcDbVertex
100
AcDb2dVertex
 10
-219.819046
 20
-92.85243744767706
 30
0.0
  0
VERTEX
  5
453A
330
452A
100
AcDbEntity
  8
0
100
AcDbVertex
100
AcDb2dVertex
 10
-221.3654329999999
 20
-89.77392344767702
 30
0.0
  0
VERTEX
  5
453B
330
452A
100
AcDbEntity
  8
0
100
AcDbVertex
100
AcDb2dVertex
 10
-222.889008
 20
-86.88906644767701
 30
0.0
  0
VERTEX
  5
453C
330
452A
100
AcDbEntity
  8
0
100
AcDbVertex
100
AcDb2dVertex
 10
-224.3730779999999
 20
-84.25026544767707
 30
0.0
  0
VERTEX
  5
453D
330
452A
100
AcDbEntity
  8
0
100
AcDbVertex
100
AcDb2dVertex
 10
-225.800934
 20
-81.90992544767704
 30
0.0
  0
VERTEX
  5
453E
330
452A
100
AcDbEntity
  8
0
100
AcDbVertex
100
AcDb2dVertex
 10
-227.155854
 20
-79.92043844767704
 30
0.0
  0
VERTEX
  5
453F
330
452A
100
AcDbEntity
  8
0
100
AcDbVertex
100
AcDb2dVertex
 10
-228.4211429999999
 20
-78.33421844767702
 30
0.0
  0
SEQEND
  5
4540
330
452A
100
AcDbEntity
  8
0
  0
LINE
  5
4541
330
1F
100
AcDbEntity
  8
0
100
AcDbLine
 10
-192.2540477071483
 20
-131.3676090463631
 30
0.0
 11
-147.1804971696764
 21
-83.7890025483278
 31
0.0
  0
LINE
  5
4542
330
1F
100
AcDbEntity
  8
0
 62
     4
100
AcDbLine
 10
-271.199692
 20
0.5097635523229656
 30
0.0
 11
-158.800308
 21
0.5097635523229656
 31
0.0
  0
POLYLINE
  5
4543
330
1F
100
AcDbEntity
  8
0
100
AcDb2dPolyline
 66
     1
 10
0.0
 20
0.0
 30
0.0
  0
VERTEX
  5
4544
330
4543
100
AcDbEntity
  8
0
100
AcDbVertex
100
AcDb2dVertex
 10
-154.5024719999999
 20
-72.51359044767702
 30
0.0
  0
VERTEX
  5
4545
330
4543
100
AcDbEntity
  8
0
100
AcDbVertex
100
AcDb2dVertex
 10
-154.7971499999998
 20
-72.35121344767702
 30
0.0
  0
VERTEX
  5
4546
330
4543
100
AcDbEntity
  8
0
100
AcDbVertex
100
AcDb2dVertex
 10
-155.6446839999998
 20
-71.88281444767705
 30
0.0
  0
VERTEX
  5
4547
330
4543
100
AcDbEntity
  8
0
100
AcDbVertex
100
AcDb2dVertex
 10
-156.9903869999999
 20
-71.13648444767704
 30
0.0
  0
VERTEX
  5
4548
330
4543
100
AcDbEntity
  8
0
100
AcDbVertex
100
AcDb2dVertex
 10
-158.7796329999999
 20
-70.14032944767706
 30
0.0
  0
VERTEX
  5
4549
330
4543
100
AcDbEntity
  8
0
100
AcDbVertex
100
AcDb2dVertex
 10
-160.9577339999999
 20
-68.92243444767706
 30
0.0
  0
VERTEX
  5
454A
330
4543
100
AcDbEntity
  8
0
100
AcDbVertex
100
AcDb2dVertex
 10
-163.469971
 20
-67.51088944767701
 30
0.0
  0
VERTEX
  5
454B
330
4543
100
AcDbEntity
  8
0
100
AcDbVertex
100
AcDb2dVertex
 10
-166.2616889999999
 20
-65.93380944767705
 30
0.0
  0
VERTEX
  5
454C
330
4543
100
AcDbEntity
  8
0
100
AcDbVertex
100
AcDb2dVertex
 10
-169.2781989999998
 20
-64.21927144767704
 30
0.0
  0
VERTEX
  5
454D
330
4543
100
AcDbEntity
  8
0
100
AcDbVertex
100
AcDb2dVertex
 10
-172.4648439999999
 20
-62.39537244767706
 30
0.0
  0
VERTEX
  5
454E
330
4543
100
AcDbEntity
  8
0
100
AcDbVertex
100
AcDb2dVertex
 10
-175.766922
 20
-60.49022144767701
 30
0.0
  0
VERTEX
  5
454F
330
4543
100
AcDbEntity
  8
0
100
AcDbVertex
100
AcDb2dVertex
 10
-179.129776
 20
-58.53190044767706
 30
0.0
  0
VERTEX
  5
4550
330
4543
100
AcDbEntity
  8
0
100
AcDbVertex
100
AcDb2dVertex
 10
-182.4987029999999
 20
-56.54850244767704
 30
0.0
  0
VERTEX
  5
4551
330
4543
100
AcDbEntity
  8
0
100
AcDbVertex
100
AcDb2dVertex
 10
-185.819031
 20
-54.56813244767705
 30
0.0
  0
VERTEX
  5
4552
330
4543
100
AcDbEntity
  8
0
100
AcDbVertex
100
AcDb2dVertex
 10
-189.0361029999999
 20
-52.61888344767704
 30
0.0
  0
VERTEX
  5
4553
330
4543
100
AcDbEntity
  8
0
100
AcDbVertex
100
AcDb2dVertex
 10
-192.0952149999999
 20
-50.72884644767703
 30
0.0
  0
VERTEX
  5
4554
330
4543
100
AcDbEntity
  8
0
100
AcDbVertex
100
AcDb2dVertex
 10
-194.941697
 20
-48.92611944767708
 30
0.0
  0
VERTEX
  5
4555
330
4543
100
AcDbEntity
  8
0
100
AcDbVertex
100
AcDb2dVertex
 10
-197.5208739999999
 20
-47.23879444767703
 30
0.0
  0
VERTEX
  5
4556
330
4543
100
AcDbEntity
  8
0
100
AcDbVertex
100
AcDb2dVertex
 10
-199.7780459999999
 20
-45.6949794476771
 30
0.0
  0
VERTEX
  5
4557
330
4543
100
AcDbEntity
  8
0
100
AcDbVertex
100
AcDb2dVertex
 10
-201.6585699999999
 20
-44.32274144767705
 30
0.0
  0
VERTEX
  5
4558
330
4543
100
AcDbEntity
  8
0
100
AcDbVertex
100
AcDb2dVertex
 10
-203.107743
 20
-43.15020944767701
 30
0.0
  0
SEQEND
  5
4559
330
4543
100
AcDbEntity
  8
0
  0
POLYLINE
  5
455C
330
1F
100
AcDbEntity
  8
0
100
AcDb2dPolyline
 66
     1
 10
0.0
 20
0.0
 30
0.0
  0
VERTEX
  5
455D
330
455C
100
AcDbEntity
  8
0
100
AcDbVertex
100
AcDb2dVertex
 10
-202.735764
 20
135.692483552323
 30
0.0
  0
VERTEX
  5
455E
330
455C
100
AcDbEntity
  8
0
100
AcDbVertex
100
AcDb2dVertex
 10
-202.8469089999999
 20
135.4050085523229
 30
0.0
  0
VERTEX
  5
455F
330
455C
100
AcDbEntity
  8
0
100
AcDbVertex
100
AcDb2dVertex
 10
-203.169175
 20
134.5775545523229
 30
0.0
  0
VERTEX
  5
4560
330
455C
100
AcDbEntity
  8
0
100
AcDbVertex
100
AcDb2dVertex
 10
-203.685883
 20
133.2625215523229
 30
0.0
  0
VERTEX
  5
4561
330
455C
100
AcDbEntity
  8
0
100
AcDbVertex
100
AcDb2dVertex
 10
-204.3802949999999
 20
131.512308552323
 30
0.0
  0
VERTEX
  5
4562
330
455C
100
AcDbEntity
  8
0
100
AcDbVertex
100
AcDb2dVertex
 10
-205.235733
 20
129.379312552323
 30
0.0
  0
VERTEX
  5
4563
330
455C
100
AcDbEntity
  8
0
100
AcDbVertex
100
AcDb2dVertex
 10
-206.235459
 20
126.9159335523229
 30
0.0
  0
VERTEX
  5
4564
330
455C
100
AcDbEntity
  8
0
100
AcDbVertex
100
AcDb2dVertex
 10
-207.362793
 20
124.1746005523229
 30
0.0
  0
VERTEX
  5
4565
330
455C
100
AcDbEntity
  8
0
100
AcDbVertex
100
AcDb2dVertex
 10
-208.6009829999999
 20
121.2077125523229
 30
0.0
  0
VERTEX
  5
4566
330
455C
100
AcDbEntity
  8
0
100
AcDbVertex
100
AcDb2dVertex
 10
-209.933365
 20
118.0676665523229
 30
0.0
  0
VERTEX
  5
4567
330
455C
100
AcDbEntity
  8
0
100
AcDbVertex
100
AcDb2dVertex
 10
-211.3432009999999
 20
114.8068635523229
 30
0.0
  0
VERTEX
  5
4568
330
455C
100
AcDbEntity
  8
0
100
AcDbVertex
100
AcDb2dVertex
 10
-212.8137969999999
 20
111.4777315523229
 30
0.0
  0
VERTEX
  5
4569
330
455C
100
AcDbEntity
  8
0
100
AcDbVertex
100
AcDb2dVertex
 10
-214.328446
 20
108.1326695523229
 30
0.0
  0
VERTEX
  5
456A
330
455C
100
AcDbEntity
  8
0
100
AcDbVertex
100
AcDb2dVertex
 10
-215.870423
 20
104.8240755523229
 30
0.0
  0
VERTEX
  5
456B
330
455C
100
AcDbEntity
  8
0
100
AcDbVertex
100
AcDb2dVertex
 10
-217.42302
 20
101.604318552323
 30
0.0
  0
VERTEX
  5
456C
330
455C
100
AcDbEntity
  8
0
100
AcDbVertex
100
AcDb2dVertex
 10
-218.9695439999999
 20
98.52588855232296
 30
0.0
  0
VERTEX
  5
456D
330
455C
100
AcDbEntity
  8
0
100
AcDbVertex
100
AcDb2dVertex
 10
-220.493271
 20
95.641122552323
 30
0.0
  0
VERTEX
  5
456E
330
455C
100
AcDbEntity
  8
0
100
AcDbVertex
100
AcDb2dVertex
 10
-221.977494
 20
93.00245055232295
 30
0.0
  0
VERTEX
  5
456F
330
455C
100
AcDbEntity
  8
0
100
AcDbVertex
100
AcDb2dVertex
 10
-223.4055029999999
 20
90.66227155232297
 30
0.0
  0
VERTEX
  5
4570
330
455C
100
AcDbEntity
  8
0
100
AcDbVertex
100
AcDb2dVertex
 10
-224.7606049999999
 20
88.67301355232298
 30
0.0
  0
VERTEX
  5
4571
330
455C
100
AcDbEntity
  8
0
100
AcDbVertex
100
AcDb2dVertex
 10
-226.026078
 20
87.087045552323
 30
0.0
  0
SEQEND
  5
4572
330
455C
100
AcDbEntity
  8
0
  0
LINE
  5
4573
330
1F
100
AcDbEntity
  8
0
100
AcDbLine
 10
-191.2930391840611
 20
132.3871641582738
 30
0.0
 11
-147.1805237024364
 21
85.82336404110071
 31
0.0
  0
POLYLINE
  5
4574
330
1F
100
AcDbEntity
  8
0
100
AcDb2dPolyline
 66
     1
 10
0.0
 20
0.0
 30
0.0
  0
VERTEX
  5
4575
330
4574
100
AcDbEntity
  8
0
100
AcDbVertex
100
AcDb2dVertex
 10
-152.106446
 20
82.02411855232298
 30
0.0
  0
VERTEX
  5
4576
330
4574
100
AcDbEntity
  8
0
100
AcDbVertex
100
AcDb2dVertex
 10
-152.4011229999999
 20
81.86173455232301
 30
0.0
  0
VERTEX
  5
4577
330
4574
100
AcDbEntity
  8
0
100
AcDbVertex
100
AcDb2dVertex
 10
-153.248658
 20
81.39325955232299
 30
0.0
  0
VERTEX
  5
4578
330
4574
100
AcDbEntity
  8
0
100
AcDbVertex
100
AcDb2dVertex
 10
-154.5943609999999
 20
80.64682955232298
 30
0.0
  0
VERTEX
  5
4579
330
4574
100
AcDbEntity
  8
0
100
AcDbVertex
100
AcDb2dVertex
 10
-156.383606
 20
79.65053755232293
 30
0.0
  0
VERTEX
  5
457A
330
4574
100
AcDbEntity
  8
0
100
AcDbVertex
100
AcDb2dVertex
 10
-158.5617069999999
 20
78.43247455232301
 30
0.0
  0
VERTEX
  5
457B
330
4574
100
AcDbEntity
  8
0
100
AcDbVertex
100
AcDb2dVertex
 10
-161.073945
 20
77.02074655232298
 30
0.0
  0
VERTEX
  5
457C
330
4574
100
AcDbEntity
  8
0
100
AcDbVertex
100
AcDb2dVertex
 10
-163.8656619999999
 20
75.44344555232294
 30
0.0
  0
VERTEX
  5
457D
330
4574
100
AcDbEntity
  8
0
100
AcDbVertex
100
AcDb2dVertex
 10
-166.8821869999999
 20
73.72869255232297
 30
0.0
  0
VERTEX
  5
457E
330
4574
100
AcDbEntity
  8
0
100
AcDbVertex
100
AcDb2dVertex
 10
-170.068818
 20
71.90456555232299
 30
0.0
  0
VERTEX
  5
457F
330
4574
100
AcDbEntity
  8
0
100
AcDbVertex
100
AcDb2dVertex
 10
-173.3709109999999
 20
69.99917055232299
 30
0.0
  0
VERTEX
  5
4580
330
4574
100
AcDbEntity
  8
0
100
AcDbVertex
100
AcDb2dVertex
 10
-176.73375
 20
68.04061355232295
 30
0.0
  0
VERTEX
  5
4581
330
4574
100
AcDbEntity
  8
0
100
AcDbVertex
100
AcDb2dVertex
 10
-180.1026769999999
 20
66.05700155232296
 30
0.0
  0
VERTEX
  5
4582
330
4574
100
AcDbEntity
  8
0
100
AcDbVertex
100
AcDb2dVertex
 10
-183.4230199999999
 20
64.07641055232295
 30
0.0
  0
VERTEX
  5
4583
330
4574
100
AcDbEntity
  8
0
100
AcDbVertex
100
AcDb2dVertex
 10
-186.6400759999999
 20
62.12694755232297
 30
0.0
  0
VERTEX
  5
4584
330
4574
100
AcDbEntity
  8
0
100
AcDbVertex
100
AcDb2dVertex
 10
-189.6991889999999
 20
60.23671955232294
 30
0.0
  0
VERTEX
  5
4585
330
4574
100
AcDbEntity
  8
0
100
AcDbVertex
100
AcDb2dVertex
 10
-192.5456699999999
 20
58.433832552323
 30
0.0
  0
VERTEX
  5
4586
330
4574
100
AcDbEntity
  8
0
100
AcDbVertex
100
AcDb2dVertex
 10
-195.1248479999999
 20
56.746377552323
 30
0.0
  0
VERTEX
  5
4587
330
4574
100
AcDbEntity
  8
0
100
AcDbVertex
100
AcDb2dVertex
 10
-197.382035
 20
55.20244755232295
 30
0.0
  0
VERTEX
  5
4588
330
4574
100
AcDbEntity
  8
0
100
AcDbVertex
100
AcDb2dVertex
 10
-199.2625429999999
 20
53.83014855232295
 30
0.0
  0
VERTEX
  5
4589
330
4574
100
AcDbEntity
  8
0
100
AcDbVertex
100
AcDb2dVertex
 10
-200.711716
 20
52.65758755232297
 30
0.0
  0
SEQEND
  5
458A
330
4574
100
AcDbEntity
  8
0
  0
ARC
  5
45A3
330
1F
100
AcDbEntity
  8
0
100
AcDbCircle
 10
-154.4400939999998
 20
-76.91162994964173
 30
0.0
 40
10.0
100
AcDbArc
 50
316.5487407970288
 51
0.0
  0
ARC
  5
45A4
330
1F
100
AcDbEntity
  8
0
100
AcDbCircle
 10
-154.440094
 20
78.9459634351499
 30
0.0
 40
10.0
100
AcDbArc
 50
0.0000000000000509
 51
43.4514802484418
  0
LWPOLYLINE
  5
482E
330
1F
100
AcDbEntity
  8
0
100
AcDbPolyline
 90
       16
 70
     1
 43
0.0
 10
0.0
 20
100.4885119632543
 42
0.1955730361294232
 10
-2.838605610064632
 20
107.4680843277909
 10
-71.08207411784133
 20
177.4893359168595
 42
0.2022559714440785
 10
-78.24346850777669
 20
180.5097635523231
 10
-500.7452660588125
 20
180.5097635523231
 42
0.19919738389
 10
-507.8240838566528
 20
177.5730728747993
 10
-577.0788177978403
 20
108.1662805589693
 42
0.1986273819529894
 10
-580.0
 20
101.1029712364931
 10
-580.0
 20
-101.1284222430945
 42
0.1969893561423302
 10
-577.1232136616252
 20
-108.1469567860625
 10
-509.7660098478972
 20
-176.5087709906451
 42
0.2008367948118709
 10
-502.642796186272
 20
-179.490236447677
 10
-77.0841575906677
 20
-179.490236447677
 42
0.2025768025158944
 10
-69.91416413755155
 20
-176.4609748506206
 10
-2.830006546883851
 20
-107.459250366198
 42
0.195253063753016
 10
0.0
 20
-100.4885119632545
  0
LINE
  5
4905
330
1F
100
AcDbEntity
  8
0
100
AcDbLine
 10
-198.5526094816248
 20
135.5097635523231
 30
0.0
 11
-482.0767419828165
 21
135.5097635523231
 31
0.0
  0
LINE
  5
4906
330
1F
100
AcDbEntity
  8
0
100
AcDbLine
 10
-489.1555597806569
 20
132.5730728747993
 30
0.0
 11
-532.0788177978402
 21
89.55557089078473
 31
0.0
  0
LINE
  5
4907
330
1F
100
AcDbEntity
  8
0
100
AcDbLine
 10
-534.9999999999998
 20
82.4922615683085
 30
0.0
 11
-535.0000000000001
 21
-82.6836337428273
 31
0.0
  0
LINE
  5
4908
330
1F
100
AcDbEntity
  8
0
100
AcDbLine
 10
-532.1232136616254
 20
-89.7021682857953
 30
0.0
 11
-490.9309794894469
 21
-131.508770990645
 31
0.0
  0
LINE
  5
4909
330
1F
100
AcDbEntity
  8
0
100
AcDbLine
 10
-483.8077658278217
 20
-134.490236447677
 30
0.0
 11
-199.5136445374717
 21
-134.490236447677
 31
0.0
  0
POLYLINE
  5
490C
330
1F
100
AcDbEntity
  8
0
100
AcDb2dPolyline
 66
     1
 10
0.0
 20
0.0
 30
0.0
  0
VERTEX
  5
490D
330
490C
100
AcDbEntity
  8
0
100
AcDbVertex
100
AcDb2dVertex
 10
-535.0
 20
78.20432056284357
 30
0.0
  0
VERTEX
  5
490E
330
490C
100
AcDbEntity
  8
0
100
AcDbVertex
100
AcDb2dVertex
 10
-533.2061769999999
 20
77.35700455232296
 30
0.0
  0
VERTEX
  5
490F
330
490C
100
AcDbEntity
  8
0
100
AcDbVertex
100
AcDb2dVertex
 10
-530.7978669999999
 20
76.19892355232298
 30
0.0
  0
VERTEX
  5
4910
330
490C
100
AcDbEntity
  8
0
100
AcDbVertex
100
AcDb2dVertex
 10
-528.0083239999998
 20
74.83274255232294
 30
0.0
  0
VERTEX
  5
4911
330
490C
100
AcDbEntity
  8
0
100
AcDbVertex
100
AcDb2dVertex
 10
-524.8550109999999
 20
73.25924155232297
 30
0.0
  0
VERTEX
  5
4912
330
490C
100
AcDbEntity
  8
0
100
AcDbVertex
100
AcDb2dVertex
 10
-521.3553849999999
 20
71.47918155232298
 30
0.0
  0
VERTEX
  5
4913
330
490C
100
AcDbEntity
  8
0
100
AcDbVertex
100
AcDb2dVertex
 10
-517.5269249999998
 20
69.49331055232301
 30
0.0
  0
VERTEX
  5
4914
330
490C
100
AcDbEntity
  8
0
100
AcDbVertex
100
AcDb2dVertex
 10
-513.3870929999999
 20
67.30242355232292
 30
0.0
  0
VERTEX
  5
4915
330
490C
100
AcDbEntity
  8
0
100
AcDbVertex
100
AcDb2dVertex
 10
-508.9533469999999
 20
64.90725155232297
 30
0.0
  0
VERTEX
  5
4916
330
490C
100
AcDbEntity
  8
0
100
AcDbVertex
100
AcDb2dVertex
 10
-504.243165
 20
62.30857255232297
 30
0.0
  0
VERTEX
  5
4917
330
490C
100
AcDbEntity
  8
0
100
AcDbVertex
100
AcDb2dVertex
 10
-499.2740099999999
 20
59.50715055232297
 30
0.0
  0
VERTEX
  5
4918
330
490C
100
AcDbEntity
  8
0
100
AcDbVertex
100
AcDb2dVertex
 10
-494.0633469999998
 20
56.50373255232295
 30
0.0
  0
VERTEX
  5
4919
330
490C
100
AcDbEntity
  8
0
100
AcDbVertex
100
AcDb2dVertex
 10
-488.6286469999999
 20
53.29911255232298
 30
0.0
  0
VERTEX
  5
491A
330
490C
100
AcDbEntity
  8
0
100
AcDbVertex
100
AcDb2dVertex
 10
-482.9873699999999
 20
49.89402155232295
 30
0.0
  0
VERTEX
  5
491B
330
490C
100
AcDbEntity
  8
0
100
AcDbVertex
100
AcDb2dVertex
 10
-477.1569869999999
 20
46.28923955232301
 30
0.0
  0
VERTEX
  5
491C
330
490C
100
AcDbEntity
  8
0
100
AcDbVertex
100
AcDb2dVertex
 10
-471.1549609999999
 20
42.48551355232291
 30
0.0
  0
VERTEX
  5
491D
330
490C
100
AcDbEntity
  8
0
100
AcDbVertex
100
AcDb2dVertex
 10
-464.9987609999999
 20
38.48363655232299
 30
0.0
  0
SEQEND
  5
491E
330
490C
100
AcDbEntity
  8
0
  0
POLYLINE
  5
491F
330
1F
100
AcDbEntity
  8
0
100
AcDb2dPolyline
 66
     1
 10
0.0
 20
0.0
 30
0.0
  0
VERTEX
  5
4920
330
491F
100
AcDbEntity
  8
0
100
AcDbVertex
100
AcDb2dVertex
 10
-535.0
 20
-68.31613763061652
 30
0.0
  0
VERTEX
  5
4921
330
491F
100
AcDbEntity
  8
0
100
AcDbVertex
100
AcDb2dVertex
 10
-533.1936879999999
 20
-67.44755344767702
 30
0.0
  0
VERTEX
  5
4922
330
491F
100
AcDbEntity
  8
0
100
AcDbVertex
100
AcDb2dVertex
 10
-530.4041749999998
 20
-66.08141944767703
 30
0.0
  0
VERTEX
  5
4923
330
491F
100
AcDbEntity
  8
0
100
AcDbVertex
100
AcDb2dVertex
 10
-527.2508929999998
 20
-64.50794744767705
 30
0.0
  0
VERTEX
  5
4924
330
491F
100
AcDbEntity
  8
0
100
AcDbVertex
100
AcDb2dVertex
 10
-523.7512969999999
 20
-62.727911447677
 30
0.0
  0
VERTEX
  5
4925
330
491F
100
AcDbEntity
  8
0
100
AcDbVertex
100
AcDb2dVertex
 10
-519.9228599999998
 20
-60.74205544767699
 30
0.0
  0
VERTEX
  5
4926
330
491F
100
AcDbEntity
  8
0
100
AcDbVertex
100
AcDb2dVertex
 10
-515.7830429999998
 20
-58.55115344767705
 30
0.0
  0
VERTEX
  5
4927
330
491F
100
AcDbEntity
  8
0
100
AcDbVertex
100
AcDb2dVertex
 10
-511.3493199999999
 20
-56.15595044767701
 30
0.0
  0
VERTEX
  5
4928
330
491F
100
AcDbEntity
  8
0
100
AcDbVertex
100
AcDb2dVertex
 10
-506.639145
 20
-53.55721044767699
 30
0.0
  0
VERTEX
  5
4929
330
491F
100
AcDbEntity
  8
0
100
AcDbVertex
100
AcDb2dVertex
 10
-501.669983
 20
-50.75569744767705
 30
0.0
  0
VERTEX
  5
492A
330
491F
100
AcDbEntity
  8
0
100
AcDbVertex
100
AcDb2dVertex
 10
-496.4593129999999
 20
-47.75216444767704
 30
0.0
  0
VERTEX
  5
492B
330
491F
100
AcDbEntity
  8
0
100
AcDbVertex
100
AcDb2dVertex
 10
-491.024582
 20
-44.54736944767705
 30
0.0
  0
VERTEX
  5
492C
330
491F
100
AcDbEntity
  8
0
100
AcDbVertex
100
AcDb2dVertex
 10
-485.3832709999998
 20
-41.14208044767702
 30
0.0
  0
VERTEX
  5
492D
330
491F
100
AcDbEntity
  8
0
100
AcDbVertex
100
AcDb2dVertex
 10
-479.5528379999999
 20
-37.53705444767701
 30
0.0
  0
VERTEX
  5
492E
330
491F
100
AcDbEntity
  8
0
100
AcDbVertex
100
AcDb2dVertex
 10
-473.5507439999999
 20
-33.73303744767702
 30
0.0
  0
VERTEX
  5
492F
330
491F
100
AcDbEntity
  8
0
100
AcDbVertex
100
AcDb2dVertex
 10
-467.3944589999999
 20
-29.73081044767702
 30
0.0
  0
SEQEND
  5
4930
330
491F
100
AcDbEntity
  8
0
  0
ARC
  5
4963
330
1F
100
AcDbEntity
  8
0
100
AcDbCircle
 10
-482.0767419828165
 20
125.5097635523231
 30
0.0
 40
10.0
100
AcDbArc
 50
90.0
 51
135.0628314129336
  0
ARC
  5
4964
330
1F
100
AcDbEntity
  8
0
100
AcDbCircle
 10
-524.9999999999999
 20
82.4922615683085
 30
0.0
 40
10.0
100
AcDbArc
 50
135.0628314129336
 51
180.0
  0
ARC
  5
4965
330
1F
100
AcDbEntity
  8
0
100
AcDbCircle
 10
-525.0
 20
-82.6836337428273
 30
0.0
 40
10.0
100
AcDbArc
 50
179.9999999999999
 51
224.5758966940732
  0
ARC
  5
4966
330
1F
100
AcDbEntity
  8
0
100
AcDbCircle
 10
-483.8077658278217
 20
-124.490236447677
 30
0.0
 40
10.0
100
AcDbArc
 50
224.5758966940732
 51
270.0
  0
ARC
  5
4967
330
1F
100
AcDbEntity
  8
0
100
AcDbCircle
 10
-199.5136445374717
 20
-124.490236447677
 30
0.0
 40
10.0
100
AcDbArc
 50
270.0
 51
316.5487407970289
  0
ARC
  5
4968
330
1F
100
AcDbEntity
  8
0
100
AcDbCircle
 10
-198.5526094816248
 20
125.5097635523231
 30
0.0
 40
10.0
100
AcDbArc
 50
43.45148024844166
 51
90.0
  0
CIRCLE
  5
497F
330
1F
100
AcDbEntity
  8
0
100
AcDbCircle
 10
-215.0
 20
0.5097635523229656
 30
0.0
 40
26.0
  0
CIRCLE
  5
49ED
330
1F
100
AcDbEntity
  8
0
100
AcDbCircle
 10
-80.0
 20
0.5097635523229656
 30
0.0
 40
17.5
  0
CIRCLE
  5
49EE
330
1F
100
AcDbEntity
  8
0
100
AcDbCircle
 10
-215.0
 20
0.5097635523229656
 30
0.0
 40
37.5
  0
LINE
  5
4A5D
330
1F
100
AcDbEntity
  8
0
100
AcDbLine
 10
-25.0
 20
94.38798288681475
 30
0.0
 11
-84.56994797043916
 21
155.5097635523231
 31
0.0
  0
LINE
  5
4A63
330
1F
100
AcDbEntity
  8
0
100
AcDbLine
 10
-83.42153073514356
 20
-154.490236447677
 30
0.0
 11
-25.00000000000005
 21
-94.39875564915547
 31
0.0
  0
LINE
  5
4A64
330
1F
100
AcDbEntity
  8
0
100
AcDbLine
 10
-25.00000000000005
 20
-94.39875564915547
 30
0.0
 11
-25.0
 21
94.38798288681475
 31
0.0
  0
ENDSEC
  0
SECTION
  2
OBJECTS
  0
DICTIONARY
  5
C
330
0
100
AcDbDictionary
281
     1
  3
ACAD_COLOR
350
4A6A
  3
ACAD_GROUP
350
D
  3
ACAD_LAYOUT
350
1A
  3
ACAD_MATERIAL
350
4A69
  3
ACAD_MLINESTYLE
350
17
  3
ACAD_PLOTSETTINGS
350
19
  3
ACAD_PLOTSTYLENAME
350
E
  3
AcDbVariableDictionary
350
86
  3
AcmDictionary
350
45
  3
AMG
350
41
  3
AMGSNAPSETTINGS
350
332
  3
ASE_INDEX_DICTIONARY
350
496A
  3
MAPISURF_MODULE
350
4AEC
  0
DICTIONARY
  5
81
330
1F
100
AcDbDictionary
280
     1
281
     1
  3
ACAD_INDEX
360
82
  0
DICTIONARY
  5
4A6A
102
{ACAD_REACTORS
330
C
102
}
330
C
100
AcDbDictionary
281
     1
  0
DICTIONARY
  5
D
102
{ACAD_REACTORS
330
C
102
}
330
C
100
AcDbDictionary
281
     1
  0
DICTIONARY
  5
1A
102
{ACAD_REACTORS
330
C
102
}
330
C
100
AcDbDictionary
281
     1
  3
Layout1
350
1E
  3
Layout2
350
26
  3
Model
350
22
  0
DICTIONARY
  5
4A69
102
{ACAD_REACTORS
330
C
102
}
330
C
100
AcDbDictionary
281
     1
  0
DICTIONARY
  5
17
102
{ACAD_REACTORS
330
C
102
}
330
C
100
AcDbDictionary
281
     1
  3
Standard
350
18
  0
DICTIONARY
  5
19
102
{ACAD_REACTORS
330
C
102
}
330
C
100
AcDbDictionary
281
     1
  0
ACDBDICTIONARYWDFLT
  5
E
102
{ACAD_REACTORS
330
C
102
}
330
C
100
AcDbDictionary
281
     1
  3
Normal
350
F
100
AcDbDictionaryWithDefault
340
F
  0
DICTIONARY
  5
86
102
{ACAD_REACTORS
330
C
102
}
330
C
100
AcDbDictionary
281
     1
  3
DIMASSOC
350
89
  3
HIDETEXT
350
88
  3
INDEXCTL
350
87
  0
DICTIONARY
  5
45
102
{ACAD_REACTORS
330
C
102
}
330
C
100
AcDbDictionary
281
     1
  3
AcmBOMDATA
350
46
  3
AcmStdDictionary
350
4A
  0
DICTIONARY
  5
41
102
{ACAD_REACTORS
330
C
102
}
330
C
100
AcDbDictionary
281
     1
  3
AcMgSettings
350
42
  3
AMGLAYCFG
350
4C
  0
DICTIONARY
  5
332
102
{ACAD_REACTORS
330
C
102
}
330
C
100
AcDbDictionary
281
     1
  3
DIMENSION
350
337
  3
FEA
350
336
  3
HATCH (1)
350
333
  3
HATCH (2)
350
334
  3
SIMPLE WELD
350
338
  3
SYMBOLS
350
335
  0
DICTIONARY
  5
496A
102
{ACAD_REACTORS
330
C
102
}
330
C
100
AcDbDictionary
281
     1
  3
ASEBlockHierarchyIndexRecord
350
496C
1001
DCO15
1040
1576487357.843
  0
DICTIONARY
  5
82
102
{ACAD_REACTORS
330
81
102
}
330
81
100
AcDbDictionary
281
     1
  3
*A1
350
83
  0
LAYOUT
  5
1E
102
{ACAD_REACTORS
330
1A
102
}
330
1A
100
AcDbPlotSettings
  1

  2
Epson Stylus COLOR 440 ESC/P 2
  4

  6

 40
0.0
 41
0.0
 42
0.0
 43
0.0
 44
0.0
 45
0.0
 46
0.0
 47
0.0
 48
0.0
 49
0.0
140
0.0
141
0.0
142
1.0
143
1.0
 70
   688
 72
     0
 73
     0
 74
     5
  7

 75
    16
147
1.0
 76
     0
 77
     2
 78
   300
148
0.0
149
0.0
100
AcDbLayout
  1
Layout1
 70
     1
 71
     1
 10
0.0
 20
0.0
 11
420.0
 21
297.0
 12
0.0
 22
0.0
 32
0.0
 14
1.000000000000000E+20
 24
1.000000000000000E+20
 34
1.000000000000000E+20
 15
-1.000000000000000E+20
 25
-1.000000000000000E+20
 35
-1.000000000000000E+20
146
0.0
 13
0.0
 23
0.0
 33
0.0
 16
1.0
 26
0.0
 36
0.0
 17
0.0
 27
1.0
 37
0.0
 76
     0
330
1B
  0
LAYOUT
  5
26
102
{ACAD_REACTORS
330
1A
102
}
330
1A
100
AcDbPlotSettings
  1

  2
Epson Stylus COLOR 440 ESC/P 2
  4

  6

 40
0.0
 41
0.0
 42
0.0
 43
0.0
 44
0.0
 45
0.0
 46
0.0
 47
0.0
 48
0.0
 49
0.0
140
0.0
141
0.0
142
1.0
143
1.0
 70
   688
 72
     0
 73
     0
 74
     5
  7

 75
    16
147
1.0
 76
     0
 77
     2
 78
   300
148
0.0
149
0.0
100
AcDbLayout
  1
Layout2
 70
     1
 71
     2
 10
0.0
 20
0.0
 11
12.0
 21
9.0
 12
0.0
 22
0.0
 32
0.0
 14
0.0
 24
0.0
 34
0.0
 15
0.0
 25
0.0
 35
0.0
146
0.0
 13
0.0
 23
0.0
 33
0.0
 16
1.0
 26
0.0
 36
0.0
 17
0.0
 27
1.0
 37
0.0
 76
     0
330
23
  0
LAYOUT
  5
22
102
{ACAD_REACTORS
330
1A
102
}
330
1A
100
AcDbPlotSettings
  1

  2
Epson Stylus COLOR 440 ESC/P 2
  4

  6

 40
0.0
 41
0.0
 42
0.0
 43
0.0
 44
0.0
 45
0.0
 46
0.0
 47
0.0
 48
0.0
 49
0.0
140
0.0
141
0.0
142
1.0
143
1.0
 70
  1712
 72
     0
 73
     0
 74
     0
  7

 75
     0
147
1.0
 76
     0
 77
     2
 78
   300
148
0.0
149
0.0
100
AcDbLayout
  1
Model
 70
     1
 71
     0
 10
0.0
 20
0.0
 11
12.0
 21
9.0
 12
0.0
 22
0.0
 32
0.0
 14
0.0
 24
0.0
 34
0.0
 15
0.0
 25
0.0
 35
0.0
146
0.0
 13
0.0
 23
0.0
 33
0.0
 16
1.0
 26
0.0
 36
0.0
 17
0.0
 27
1.0
 37
0.0
 76
     0
330
1F
  0
MLINESTYLE
  5
18
102
{ACAD_REACTORS
330
17
102
}
330
17
100
AcDbMlineStyle
  2
STANDARD
 70
     0
  3

 62
   256
 51
90.0
 52
90.0
 71
     2
 49
0.5
 62
   256
  6
BYLAYER
 49
-0.5
 62
   256
  6
BYLAYER
  0
ACDBPLACEHOLDER
  5
F
102
{ACAD_REACTORS
330
E
102
}
330
E
  0
DICTIONARYVAR
  5
89
102
{ACAD_REACTORS
330
86
102
}
330
86
100
DictionaryVariables
280
     0
  1
2
  0
DICTIONARYVAR
  5
88
102
{ACAD_REACTORS
330
86
102
}
330
86
100
DictionaryVariables
280
     0
  1
1
  0
DICTIONARYVAR
  5
87
102
{ACAD_REACTORS
330
86
102
}
330
86
100
DictionaryVariables
280
     0
  1
1
  0
ACMDATADICTIONARY
  5
46
102
{ACAD_REACTORS
330
45
102
}
330
45
100
AcDbDictionary
281
     1
  3
*A1
350
47
100
AcmDataDictionary
  0
DICTIONARY
  5
4A
102
{ACAD_REACTORS
330
45
102
}
330
45
100
AcDbDictionary
281
     1
  3
ANSI
350
360
  3
DIN
350
4B
  0
DICTIONARY
  5
42
102
{ACAD_REACTORS
330
41
102
}
330
41
100
AcDbDictionary
281
     1
  3
DWGSETTINGS
350
43
  3
TRANSSETTINGS
350
44
  0
ACAMGFILTERDAT
  5
337
102
{ACAD_REACTORS
330
332
102
}
330
332
100
AcAmgFilterDat
 70
    15
  1
DIMENSION,AMDT_*_DIM
  2
*
  3
*
  4
*
  5
*
290
     1
  0
ACAMGFILTERDAT
  5
336
102
{ACAD_REACTORS
330
332
102
}
330
332
100
AcAmgFilterDat
 70
    15
  1
*
  2
AM_FEA-AM_*
  3
*
  4
*
  5
*
290
     1
  0
ACAMGFILTERDAT
  5
333
102
{ACAD_REACTORS
330
332
102
}
330
332
100
AcAmgFilterDat
 70
    15
  1
HATCH
  2
*
  3
*
  4
*
  5
*
290
     1
  0
ACAMGFILTERDAT
  5
334
102
{ACAD_REACTORS
330
332
102
}
330
332
100
AcAmgFilterDat
 70
    15
  1
LINE
  2
8,8N,*-8,*-8N,AM_8,AM_8N,*-AM_8,*-AM_8N
  3
*
  4
*
  5
INSERT,STDPART2D
290
     1
  0
ACAMGFILTERDAT
  5
338
102
{ACAD_REACTORS
330
332
102
}
330
332
100
AcAmgFilterDat
 70
    15
  1
ARC
  2
AM_5
  3
*
  4
2
  5
INSERT
290
     0
  0
ACAMGFILTERDAT
  5
335
102
{ACAD_REACTORS
330
332
102
}
330
332
100
AcAmgFilterDat
 70
    15
  1
ACMFCFRAME,ACMDATUMTARGET,ACMDATUMID,ACMWELDSYM,ACMSURFSYM,ACMFEATID,ACMPARTREF,ACMBALLOON,AMDTEDGESYM,AMGSCREWCALCTABLE
  2
*
  3
*
  4
*
  5
*
290
     1
  0
XRECORD
  5
496C
102
{ACAD_REACTORS
330
496A
102
}
330
496A
100
AcDbXrecord
280
     1
  0
LAYER_INDEX
  5
83
102
{ACAD_REACTORS
330
82
102
}
330
82
100
AcDbIndex
 40
2454064.608997917
100
AcDbLayerIndex
  8
0
360
84
 90
       35
  0
ACMDATAENTRYBLOCK
  5
47
102
{ACAD_REACTORS
330
46
102
}
330
46
100
AcmDataEntry
100
AcmDataEntryBlock
  0
IDBUFFER
  5
84
330
0
100
AcDbIdBuffer
330
43F6
330
4426
330
448B
330
448C
330
4526
330
4528
330
452A
330
4541
330
4542
330
4543
330
455C
330
4573
330
4574
330
45A3
330
45A4
330
482E
330
4905
330
4906
330
4907
330
4908
330
4909
330
490C
330
491F
330
4963
330
4964
330
4965
330
4966
330
4967
330
4968
330
497F
330
49ED
330
49EE
330
4A5D
330
4A63
330
4A64
  0
ENDSEC
  0
EOF
