  0
SECTION
  2
HEADER
  9
$ACADVER
  1
AC1024
  9
$ACADMAINTVER
 70
     6
  9
$DWGCODEPAGE
  3
UNDEFINED
  9
$INSBASE
 10
0.0
 20
0.0
 30
0.0
  9
$EXTMIN
 10
1.000000000000000E+20
 20
1.000000000000000E+20
 30
1.000000000000000E+20
  9
$EXTMAX
 10
-1.000000000000000E+20
 20
-1.000000000000000E+20
 30
-1.000000000000000E+20
  9
$LIMMIN
 10
0.0
 20
0.0
  9
$LIMMAX
 10
12.0
 20
9.0
  9
$ORTHOMODE
 70
     0
  9
$REGENMODE
 70
     1
  9
$FILLMODE
 70
     1
  9
$QTEXTMODE
 70
     0
  9
$MIRRTEXT
 70
     1
  9
$LTSCALE
 40
1.0
  9
$ATTMODE
 70
     1
  9
$TEXTSIZE
 40
0.2
  9
$TRACEWID
 40
0.05
  9
$TEXTSTYLE
  7
Standard
  9
$CLAYER
  8
0
  9
$CELTYPE
  6
ByLayer
  9
$CECOLOR
 62
   256
  9
$CELTSCALE
 40
1.0
  9
$DISPSILH
 70
     0
  9
$DIMSCALE
 40
1.0
  9
$DIMASZ
 40
0.18
  9
$DIMEXO
 40
0.0625
  9
$DIMDLI
 40
0.38
  9
$DIMRND
 40
0.0
  9
$DIMDLE
 40
0.0
  9
$DIMEXE
 40
0.18
  9
$DIMTP
 40
0.0
  9
$DIMTM
 40
0.0
  9
$DIMTXT
 40
0.18
  9
$DIMCEN
 40
0.09
  9
$DIMTSZ
 40
0.0
  9
$DIMTOL
 70
     0
  9
$DIMLIM
 70
     0
  9
$DIMTIH
 70
     1
  9
$DIMTOH
 70
     1
  9
$DIMSE1
 70
     0
  9
$DIMSE2
 70
     0
  9
$DIMTAD
 70
     0
  9
$DIMZIN
 70
     0
  9
$DIMBLK
  1

  9
$DIMASO
 70
     1
  9
$DIMSHO
 70
     1
  9
$DIMPOST
  1

  9
$DIMAPOST
  1

  9
$DIMALT
 70
     0
  9
$DIMALTD
 70
     2
  9
$DIMALTF
 40
25.4
  9
$DIMLFAC
 40
1.0
  9
$DIMTOFL
 70
     0
  9
$DIMTVP
 40
0.0
  9
$DIMTIX
 70
     0
  9
$DIMSOXD
 70
     0
  9
$DIMSAH
 70
     0
  9
$DIMBLK1
  1

  9
$DIMBLK2
  1

  9
$DIMSTYLE
  2
Standard
  9
$DIMCLRD
 70
     0
  9
$DIMCLRE
 70
     0
  9
$DIMCLRT
 70
     0
  9
$DIMTFAC
 40
1.0
  9
$DIMGAP
 40
0.09
  9
$DIMJUST
 70
     0
  9
$DIMSD1
 70
     0
  9
$DIMSD2
 70
     0
  9
$DIMTOLJ
 70
     1
  9
$DIMTZIN
 70
     0
  9
$DIMALTZ
 70
     0
  9
$DIMALTTZ
 70
     0
  9
$DIMUPT
 70
     0
  9
$DIMDEC
 70
     4
  9
$DIMTDEC
 70
     4
  9
$DIMALTU
 70
     2
  9
$DIMALTTD
 70
     2
  9
$DIMTXSTY
  7
Standard
  9
$DIMAUNIT
 70
     0
  9
$DIMADEC
 70
     0
  9
$DIMALTRND
 40
0.0
  9
$DIMAZIN
 70
     0
  9
$DIMDSEP
 70
    46
  9
$DIMATFIT
 70
     3
  9
$DIMFRAC
 70
     0
  9
$DIMLDRBLK
  1

  9
$DIMLUNIT
 70
     2
  9
$DIMLWD
 70
    -2
  9
$DIMLWE
 70
    -2
  9
$DIMTMOVE
 70
     0
  9
$DIMFXL
 40
1.0
  9
$DIMFXLON
 70
     0
  9
$DIMJOGANG
 40
0.7853981633974483
  9
$DIMTFILL
 70
     0
  9
$DIMTFILLCLR
 70
     0
  9
$DIMARCSYM
 70
     0
  9
$DIMLTYPE
  6

  9
$DIMLTEX1
  6

  9
$DIMLTEX2
  6

  9
$DIMTXTDIRECTION
 70
     0
  9
$LUNITS
 70
     2
  9
$LUPREC
 70
     4
  9
$SKETCHINC
 40
0.1
  9
$FILLETRAD
 40
0.5
  9
$AUNITS
 70
     0
  9
$AUPREC
 70
     0
  9
$MENU
  1
.
  9
$ELEVATION
 40
0.0
  9
$PELEVATION
 40
0.0
  9
$THICKNESS
 40
0.0
  9
$LIMCHECK
 70
     0
  9
$CHAMFERA
 40
0.5
  9
$CHAMFERB
 40
0.5
  9
$CHAMFERC
 40
1.0
  9
$CHAMFERD
 40
0.0
  9
$SKPOLY
 70
     0
  9
$TDCREATE
 40
2458575.617650452
  9
$TDUCREATE
 40
2458575.575983796
  9
$TDUPDATE
 40
2458575.617650452
  9
$TDUUPDATE
 40
2458575.575983796
  9
$TDINDWG
 40
0.0000000116
  9
$TDUSRTIMER
 40
0.0000000116
  9
$USRTIMER
 70
     1
  9
$ANGBASE
 50
0.0
  9
$ANGDIR
 70
     0
  9
$PDMODE
 70
     0
  9
$PDSIZE
 40
0.0
  9
$PLINEWID
 40
0.0
  9
$SPLFRAME
 70
     0
  9
$SPLINETYPE
 70
     6
  9
$SPLINESEGS
 70
     8
  9
$HANDSEED
  5
206
  9
$SURFTAB1
 70
     6
  9
$SURFTAB2
 70
     6
  9
$SURFTYPE
 70
     6
  9
$SURFU
 70
     6
  9
$SURFV
 70
     6
  9
$UCSBASE
  2

  9
$UCSNAME
  2

  9
$UCSORG
 10
0.0
 20
0.0
 30
0.0
  9
$UCSXDIR
 10
1.0
 20
0.0
 30
0.0
  9
$UCSYDIR
 10
0.0
 20
1.0
 30
0.0
  9
$UCSORTHOREF
  2

  9
$UCSORTHOVIEW
 70
     0
  9
$UCSORGTOP
 10
0.0
 20
0.0
 30
0.0
  9
$UCSORGBOTTOM
 10
0.0
 20
0.0
 30
0.0
  9
$UCSORGLEFT
 10
0.0
 20
0.0
 30
0.0
  9
$UCSORGRIGHT
 10
0.0
 20
0.0
 30
0.0
  9
$UCSORGFRONT
 10
0.0
 20
0.0
 30
0.0
  9
$UCSORGBACK
 10
0.0
 20
0.0
 30
0.0
  9
$PUCSBASE
  2

  9
$PUCSNAME
  2

  9
$PUCSORG
 10
0.0
 20
0.0
 30
0.0
  9
$PUCSXDIR
 10
1.0
 20
0.0
 30
0.0
  9
$PUCSYDIR
 10
0.0
 20
1.0
 30
0.0
  9
$PUCSORTHOREF
  2

  9
$PUCSORTHOVIEW
 70
     0
  9
$PUCSORGTOP
 10
0.0
 20
0.0
 30
0.0
  9
$PUCSORGBOTTOM
 10
0.0
 20
0.0
 30
0.0
  9
$PUCSORGLEFT
 10
0.0
 20
0.0
 30
0.0
  9
$PUCSORGRIGHT
 10
0.0
 20
0.0
 30
0.0
  9
$PUCSORGFRONT
 10
0.0
 20
0.0
 30
0.0
  9
$PUCSORGBACK
 10
0.0
 20
0.0
 30
0.0
  9
$USERI1
 70
     0
  9
$USERI2
 70
     0
  9
$USERI3
 70
     0
  9
$USERI4
 70
     0
  9
$USERI5
 70
     0
  9
$USERR1
 40
0.0
  9
$USERR2
 40
0.0
  9
$USERR3
 40
0.0
  9
$USERR4
 40
0.0
  9
$USERR5
 40
0.0
  9
$WORLDVIEW
 70
     1
  9
$SHADEDGE
 70
     3
  9
$SHADEDIF
 70
    70
  9
$TILEMODE
 70
     1
  9
$MAXACTVP
 70
    64
  9
$PINSBASE
 10
0.0
 20
0.0
 30
0.0
  9
$PLIMCHECK
 70
     0
  9
$PEXTMIN
 10
1.000000000000000E+20
 20
1.000000000000000E+20
 30
1.000000000000000E+20
  9
$PEXTMAX
 10
-1.000000000000000E+20
 20
-1.000000000000000E+20
 30
-1.000000000000000E+20
  9
$PLIMMIN
 10
0.0
 20
0.0
  9
$PLIMMAX
 10
12.0
 20
9.0
  9
$UNITMODE
 70
     0
  9
$VISRETAIN
 70
     1
  9
$PLINEGEN
 70
     0
  9
$PSLTSCALE
 70
     1
  9
$TREEDEPTH
 70
  3020
  9
$CMLSTYLE
  2
Standard
  9
$CMLJUST
 70
     0
  9
$CMLSCALE
 40
1.0
  9
$PROXYGRAPHICS
 70
     1
  9
$MEASUREMENT
 70
     0
  9
$CELWEIGHT
370
    -1
  9
$ENDCAPS
280
     0
  9
$JOINSTYLE
280
     0
  9
$LWDISPLAY
290
     1
  9
$INSUNITS
 70
     1
  9
$HYPERLINKBASE
  1

  9
$STYLESHEET
  1

  9
$XEDIT
290
     1
  9
$CEPSNTYPE
380
     0
  9
$PSTYLEMODE
290
     1
  9
$FINGERPRINTGUID
  2
{CF6CFD11-3F32-EC4E-520D-0A58489F49E4}
  9
$VERSIONGUID
  2
{FAEB1C32-E019-11D5-929B-00C0DF256EC4}
  9
$EXTNAMES
290
     1
  9
$PSVPSCALE
 40
0.0
  9
$OLESTARTUP
290
     0
  9
$SORTENTS
280
   127
  9
$INDEXCTL
280
     0
  9
$HIDETEXT
280
     1
  9
$XCLIPFRAME
280
     2
  9
$HALOGAP
280
     0
  9
$OBSCOLOR
 70
   257
  9
$OBSLTYPE
280
     0
  9
$INTERSECTIONDISPLAY
280
     0
  9
$INTERSECTIONCOLOR
 70
   257
  9
$DIMASSOC
280
     2
  9
$PROJECTNAME
  1

  9
$CAMERADISPLAY
290
     0
  9
$LENSLENGTH
 40
50.0
  9
$CAMERAHEIGHT
 40
0.0
  9
$STEPSPERSEC
 40
2.0
  9
$STEPSIZE
 40
6.0
  9
$3DDWFPREC
 40
2.0
  9
$PSOLWIDTH
 40
0.25
  9
$PSOLHEIGHT
 40
4.0
  9
$LOFTANG1
 40
1.570796326794897
  9
$LOFTANG2
 40
1.570796326794897
  9
$LOFTMAG1
 40
0.0
  9
$LOFTMAG2
 40
0.0
  9
$LOFTPARAM
 70
     7
  9
$LOFTNORMALS
280
     1
  9
$LATITUDE
 40
37.795
  9
$LONGITUDE
 40
-122.394
  9
$NORTHDIRECTION
 40
0.0
  9
$TIMEZONE
 70
 -8000
  9
$LIGHTGLYPHDISPLAY
280
     1
  9
$TILEMODELIGHTSYNCH
280
     1
  9
$CMATERIAL
347
3C
  9
$SOLIDHIST
280
     1
  9
$SHOWHIST
280
     1
  9
$DWFFRAME
280
     2
  9
$DGNFRAME
280
     2
  9
$REALWORLDSCALE
290
     1
  9
$INTERFERECOLOR
 62
   256
  9
$CSHADOW
280
     0
  9
$SHADOWPLANELOCATION
 40
0.0
  0
ENDSEC
  0
SECTION
  2
CLASSES
  0
CLASS
  1
ACDBDICTIONARYWDFLT
  2
AcDbDictionaryWithDefault
  3
ObjectDBX Classes
 90
        0
 91
        4
280
     0
281
     0
  0
CLASS
  1
VISUALSTYLE
  2
AcDbVisualStyle
  3
ObjectDBX Classes
 90
     4095
 91
        4
280
     0
281
     0
  0
CLASS
  1
MATERIAL
  2
AcDbMaterial
  3
ObjectDBX Classes
 90
     1153
 91
        4
280
     0
281
     0
  0
CLASS
  1
SUN
  2
AcDbSun
  3
SCENEOE
 90
     1024
 91
        4
280
     0
281
     0
  0
ENDSEC
  0
SECTION
  2
TABLES
  0
TABLE
  2
VPORT
  5
8
330
0
100
AcDbSymbolTable
 70
     1
  0
VPORT
  5
29
330
8
100
AcDbSymbolTableRecord
100
AcDbViewportTableRecord
  2
*Active
 70
     0
 10
0.0
 20
0.0
 11
1.0
 21
1.0
 12
0.0
 22
0.0
 13
0.0
 23
0.0
 14
0.5
 24
0.5
 15
0.5
 25
0.5
 16
0.0
 26
0.0
 36
1.0
 17
105.0007777515277
 27
148.5000416295417
 37
0.0
 40
297.0000832590835
 41
0.7070757462376325
 42
50.0
 43
0.0
 44
0.0
 50
0.0
 51
0.0
 71
     0
 72
   100
 73
     1
 74
     3
 75
     0
 76
     0
 77
     0
 78
     0
281
     0
 65
     1
110
0.0
120
0.0
130
0.0
111
1.0
121
0.0
131
0.0
112
0.0
122
1.0
132
0.0
 79
     0
146
0.0
 60
     3
 61
     5
292
     1
282
     1
141
0.0
142
0.0
 63
   250
361
3F
  0
ENDTAB
  0
TABLE
  2
LTYPE
  5
5
330
0
100
AcDbSymbolTable
 70
     5
  0
LTYPE
  5
14
330
5
100
AcDbSymbolTableRecord
100
AcDbLinetypeTableRecord
  2
ByBlock
 70
     0
  3

 72
    65
 73
     0
 40
0.0
  0
LTYPE
  5
15
330
5
100
AcDbSymbolTableRecord
100
AcDbLinetypeTableRecord
  2
ByLayer
 70
     0
  3

 72
    65
 73
     0
 40
0.0
  0
LTYPE
  5
16
330
5
100
AcDbSymbolTableRecord
100
AcDbLinetypeTableRecord
  2
Continuous
 70
     0
  3
Solid line
 72
    65
 73
     0
 40
0.0
  0
LTYPE
  5
1CF
330
5
100
AcDbSymbolTableRecord
100
AcDbLinetypeTableRecord
  2
AI-Linetype-1
 70
     0
  3
Adobe Illustrator Linetype No. 1
 72
    65
 73
     2
 40
8.794639081875573
 49
4.397319540937787
 74
     0
 49
-4.397319540937787
 74
     0
  0
LTYPE
  5
1D8
330
5
100
AcDbSymbolTableRecord
100
AcDbLinetypeTableRecord
  2
AI-Linetype-2
 70
     0
  3
Adobe Illustrator Linetype No. 2
 72
    65
 73
     4
 40
39.57607167367176
 49
26.3841130508584
 74
     0
 49
-4.397319540937787
 74
     0
 49
4.397319540937787
 74
     0
 49
-4.397319540937787
 74
     0
  0
LTYPE
  5
1F1
330
5
100
AcDbSymbolTableRecord
100
AcDbLinetypeTableRecord
  2
AI-Linetype-3
 70
     0
  3
Adobe Illustrator Linetype No. 3
 72
    65
 73
     2
 40
8.776265014997502
 49
4.388132507498751
 74
     0
 49
-4.388132507498751
 74
     0
  0
LTYPE
  5
1FA
330
5
100
AcDbSymbolTableRecord
100
AcDbLinetypeTableRecord
  2
AI-Linetype-4
 70
     0
  3
Adobe Illustrator Linetype No. 4
 72
    65
 73
     4
 40
39.49338904559066
 49
26.3289915230944
 74
     0
 49
-4.388132507498751
 74
     0
 49
4.388132507498751
 74
     0
 49
-4.388132507498751
 74
     0
  0
ENDTAB
  0
TABLE
  2
LAYER
  5
2
330
0
100
AcDbSymbolTable
 70
     1
  0
LAYER
  5
10
330
2
100
AcDbSymbolTableRecord
100
AcDbLayerTableRecord
  2
0
 70
     0
 62
     7
  6
Continuous
370
    -3
390
F
347
3E
  0
ENDTAB
  0
TABLE
  2
STYLE
  5
3
330
0
100
AcDbSymbolTable
 70
     1
  0
STYLE
  5
11
330
3
100
AcDbSymbolTableRecord
100
AcDbTextStyleTableRecord
  2
Standard
 70
     0
 40
0.0
 41
1.0
 50
0.0
 71
     0
 42
0.2
  3
txt
  4

  0
ENDTAB
  0
TABLE
  2
VIEW
  5
6
330
0
100
AcDbSymbolTable
 70
     0
  0
ENDTAB
  0
TABLE
  2
UCS
  5
7
330
0
100
AcDbSymbolTable
 70
     0
  0
ENDTAB
  0
TABLE
  2
APPID
  5
9
330
0
100
AcDbSymbolTable
 70
     1
  0
APPID
  5
12
330
9
100
AcDbSymbolTableRecord
100
AcDbRegAppTableRecord
  2
ACAD
 70
     0
  0
ENDTAB
  0
TABLE
  2
DIMSTYLE
  5
A
330
0
100
AcDbSymbolTable
 70
     1
100
AcDbDimStyleTable
  0
DIMSTYLE
105
27
330
A
100
AcDbSymbolTableRecord
100
AcDbDimStyleTableRecord
  2
Standard
 70
     0
178
     0
340
11
  0
ENDTAB
  0
TABLE
  2
BLOCK_RECORD
  5
1
330
0
100
AcDbSymbolTable
 70
    49
  0
BLOCK_RECORD
  5
1F
330
1
100
AcDbSymbolTableRecord
100
AcDbBlockTableRecord
  2
*Model_Space
340
22
 70
     0
280
     1
281
     0
  0
BLOCK_RECORD
  5
1B
330
1
100
AcDbSymbolTableRecord
100
AcDbBlockTableRecord
  2
*Paper_Space
340
1E
 70
     0
280
     1
281
     0
  0
BLOCK_RECORD
  5
23
330
1
100
AcDbSymbolTableRecord
100
AcDbBlockTableRecord
  2
*Paper_Space0
340
26
 70
     0
280
     1
281
     0
  0
BLOCK_RECORD
  5
40
330
1
100
AcDbSymbolTableRecord
100
AcDbBlockTableRecord
  2
block 2
340
0
102
{BLKREFS
331
41
102
}
 70
     0
280
     1
281
     0
  0
BLOCK_RECORD
  5
5C
330
1
100
AcDbSymbolTableRecord
100
AcDbBlockTableRecord
  2
block 3
340
0
102
{BLKREFS
331
5D
102
}
 70
     0
280
     1
281
     0
  0
BLOCK_RECORD
  5
78
330
1
100
AcDbSymbolTableRecord
100
AcDbBlockTableRecord
  2
block 4
340
0
102
{BLKREFS
331
79
102
}
 70
     0
280
     1
281
     0
  0
BLOCK_RECORD
  5
94
330
1
100
AcDbSymbolTableRecord
100
AcDbBlockTableRecord
  2
block 5
340
0
102
{BLKREFS
331
95
102
}
 70
     0
280
     1
281
     0
  0
BLOCK_RECORD
  5
B0
330
1
100
AcDbSymbolTableRecord
100
AcDbBlockTableRecord
  2
block 6
340
0
102
{BLKREFS
331
B1
102
}
 70
     0
280
     1
281
     0
  0
BLOCK_RECORD
  5
B5
330
1
100
AcDbSymbolTableRecord
100
AcDbBlockTableRecord
  2
block 7
340
0
102
{BLKREFS
331
B6
102
}
 70
     0
280
     1
281
     0
  0
BLOCK_RECORD
  5
BA
330
1
100
AcDbSymbolTableRecord
100
AcDbBlockTableRecord
  2
block 8
340
0
102
{BLKREFS
331
BB
102
}
 70
     0
280
     1
281
     0
  0
BLOCK_RECORD
  5
BF
330
1
100
AcDbSymbolTableRecord
100
AcDbBlockTableRecord
  2
block 9
340
0
102
{BLKREFS
331
C0
102
}
 70
     0
280
     1
281
     0
  0
BLOCK_RECORD
  5
C4
330
1
100
AcDbSymbolTableRecord
100
AcDbBlockTableRecord
  2
block 10
340
0
102
{BLKREFS
331
C5
102
}
 70
     0
280
     1
281
     0
  0
BLOCK_RECORD
  5
C9
330
1
100
AcDbSymbolTableRecord
100
AcDbBlockTableRecord
  2
block 11
340
0
102
{BLKREFS
331
CA
102
}
 70
     0
280
     1
281
     0
  0
BLOCK_RECORD
  5
CE
330
1
100
AcDbSymbolTableRecord
100
AcDbBlockTableRecord
  2
block 12
340
0
102
{BLKREFS
331
CF
102
}
 70
     0
280
     1
281
     0
  0
BLOCK_RECORD
  5
D3
330
1
100
AcDbSymbolTableRecord
100
AcDbBlockTableRecord
  2
block 13
340
0
102
{BLKREFS
331
D4
102
}
 70
     0
280
     1
281
     0
  0
BLOCK_RECORD
  5
D8
330
1
100
AcDbSymbolTableRecord
100
AcDbBlockTableRecord
  2
block 14
340
0
102
{BLKREFS
331
D9
102
}
 70
     0
280
     1
281
     0
  0
BLOCK_RECORD
  5
DD
330
1
100
AcDbSymbolTableRecord
100
AcDbBlockTableRecord
  2
block 15
340
0
102
{BLKREFS
331
DE
102
}
 70
     0
280
     1
281
     0
  0
BLOCK_RECORD
  5
E2
330
1
100
AcDbSymbolTableRecord
100
AcDbBlockTableRecord
  2
block 16
340
0
102
{BLKREFS
331
E3
102
}
 70
     0
280
     1
281
     0
  0
BLOCK_RECORD
  5
E7
330
1
100
AcDbSymbolTableRecord
100
AcDbBlockTableRecord
  2
block 17
340
0
102
{BLKREFS
331
E8
102
}
 70
     0
280
     1
281
     0
  0
BLOCK_RECORD
  5
EC
330
1
100
AcDbSymbolTableRecord
100
AcDbBlockTableRecord
  2
block 18
340
0
102
{BLKREFS
331
ED
102
}
 70
     0
280
     1
281
     0
  0
BLOCK_RECORD
  5
F1
330
1
100
AcDbSymbolTableRecord
100
AcDbBlockTableRecord
  2
block 19
340
0
102
{BLKREFS
331
F2
102
}
 70
     0
280
     1
281
     0
  0
BLOCK_RECORD
  5
F6
330
1
100
AcDbSymbolTableRecord
100
AcDbBlockTableRecord
  2
block 20
340
0
102
{BLKREFS
331
F7
102
}
 70
     0
280
     1
281
     0
  0
BLOCK_RECORD
  5
FB
330
1
100
AcDbSymbolTableRecord
100
AcDbBlockTableRecord
  2
block 21
340
0
102
{BLKREFS
331
FC
102
}
 70
     0
280
     1
281
     0
  0
BLOCK_RECORD
  5
100
330
1
100
AcDbSymbolTableRecord
100
AcDbBlockTableRecord
  2
block 22
340
0
102
{BLKREFS
331
101
102
}
 70
     0
280
     1
281
     0
  0
BLOCK_RECORD
  5
11C
330
1
100
AcDbSymbolTableRecord
100
AcDbBlockTableRecord
  2
block 23
340
0
102
{BLKREFS
331
11D
102
}
 70
     0
280
     1
281
     0
  0
BLOCK_RECORD
  5
138
330
1
100
AcDbSymbolTableRecord
100
AcDbBlockTableRecord
  2
block 24
340
0
102
{BLKREFS
331
139
102
}
 70
     0
280
     1
281
     0
  0
BLOCK_RECORD
  5
154
330
1
100
AcDbSymbolTableRecord
100
AcDbBlockTableRecord
  2
block 25
340
0
102
{BLKREFS
331
155
102
}
 70
     0
280
     1
281
     0
  0
BLOCK_RECORD
  5
170
330
1
100
AcDbSymbolTableRecord
100
AcDbBlockTableRecord
  2
block 26
340
0
102
{BLKREFS
331
171
102
}
 70
     0
280
     1
281
     0
  0
BLOCK_RECORD
  5
175
330
1
100
AcDbSymbolTableRecord
100
AcDbBlockTableRecord
  2
block 27
340
0
102
{BLKREFS
331
176
102
}
 70
     0
280
     1
281
     0
  0
BLOCK_RECORD
  5
17A
330
1
100
AcDbSymbolTableRecord
100
AcDbBlockTableRecord
  2
block 28
340
0
102
{BLKREFS
331
17B
102
}
 70
     0
280
     1
281
     0
  0
BLOCK_RECORD
  5
17F
330
1
100
AcDbSymbolTableRecord
100
AcDbBlockTableRecord
  2
block 29
340
0
102
{BLKREFS
331
180
102
}
 70
     0
280
     1
281
     0
  0
BLOCK_RECORD
  5
184
330
1
100
AcDbSymbolTableRecord
100
AcDbBlockTableRecord
  2
block 30
340
0
102
{BLKREFS
331
185
102
}
 70
     0
280
     1
281
     0
  0
BLOCK_RECORD
  5
189
330
1
100
AcDbSymbolTableRecord
100
AcDbBlockTableRecord
  2
block 31
340
0
102
{BLKREFS
331
18A
102
}
 70
     0
280
     1
281
     0
  0
BLOCK_RECORD
  5
18E
330
1
100
AcDbSymbolTableRecord
100
AcDbBlockTableRecord
  2
block 32
340
0
102
{BLKREFS
331
18F
102
}
 70
     0
280
     1
281
     0
  0
BLOCK_RECORD
  5
193
330
1
100
AcDbSymbolTableRecord
100
AcDbBlockTableRecord
  2
block 33
340
0
102
{BLKREFS
331
194
102
}
 70
     0
280
     1
281
     0
  0
BLOCK_RECORD
  5
198
330
1
100
AcDbSymbolTableRecord
100
AcDbBlockTableRecord
  2
block 34
340
0
102
{BLKREFS
331
199
102
}
 70
     0
280
     1
281
     0
  0
BLOCK_RECORD
  5
19D
330
1
100
AcDbSymbolTableRecord
100
AcDbBlockTableRecord
  2
block 35
340
0
102
{BLKREFS
331
19E
102
}
 70
     0
280
     1
281
     0
  0
BLOCK_RECORD
  5
1A2
330
1
100
AcDbSymbolTableRecord
100
AcDbBlockTableRecord
  2
block 36
340
0
102
{BLKREFS
331
1A3
102
}
 70
     0
280
     1
281
     0
  0
BLOCK_RECORD
  5
1A7
330
1
100
AcDbSymbolTableRecord
100
AcDbBlockTableRecord
  2
block 37
340
0
102
{BLKREFS
331
1A8
102
}
 70
     0
280
     1
281
     0
  0
BLOCK_RECORD
  5
1AC
330
1
100
AcDbSymbolTableRecord
100
AcDbBlockTableRecord
  2
block 38
340
0
102
{BLKREFS
331
1AD
102
}
 70
     0
280
     1
281
     0
  0
BLOCK_RECORD
  5
1B1
330
1
100
AcDbSymbolTableRecord
100
AcDbBlockTableRecord
  2
block 39
340
0
102
{BLKREFS
331
1B2
102
}
 70
     0
280
     1
281
     0
  0
BLOCK_RECORD
  5
1B6
330
1
100
AcDbSymbolTableRecord
100
AcDbBlockTableRecord
  2
block 40
340
0
102
{BLKREFS
331
1B7
102
}
 70
     0
280
     1
281
     0
  0
BLOCK_RECORD
  5
1BB
330
1
100
AcDbSymbolTableRecord
100
AcDbBlockTableRecord
  2
block 41
340
0
102
{BLKREFS
331
1BC
102
}
 70
     0
280
     1
281
     0
  0
BLOCK_RECORD
  5
1C0
330
1
100
AcDbSymbolTableRecord
100
AcDbBlockTableRecord
  2
block 42
340
0
102
{BLKREFS
331
1C1
102
}
 70
     0
280
     1
281
     0
  0
BLOCK_RECORD
  5
1C8
330
1
100
AcDbSymbolTableRecord
100
AcDbBlockTableRecord
  2
block 43
340
0
102
{BLKREFS
331
1C9
102
}
 70
     0
280
     1
281
     0
  0
BLOCK_RECORD
  5
1D1
330
1
100
AcDbSymbolTableRecord
100
AcDbBlockTableRecord
  2
block 44
340
0
102
{BLKREFS
331
1D2
102
}
 70
     0
280
     1
281
     0
  0
BLOCK_RECORD
  5
1DA
330
1
100
AcDbSymbolTableRecord
100
AcDbBlockTableRecord
  2
block 45
340
0
102
{BLKREFS
331
1DB
102
}
 70
     0
280
     1
281
     0
  0
BLOCK_RECORD
  5
1E2
330
1
100
AcDbSymbolTableRecord
100
AcDbBlockTableRecord
  2
block 46
340
0
102
{BLKREFS
331
1E3
102
}
 70
     0
280
     1
281
     0
  0
BLOCK_RECORD
  5
1EA
330
1
100
AcDbSymbolTableRecord
100
AcDbBlockTableRecord
  2
block 47
340
0
102
{BLKREFS
331
1EB
102
}
 70
     0
280
     1
281
     0
  0
BLOCK_RECORD
  5
1F3
330
1
100
AcDbSymbolTableRecord
100
AcDbBlockTableRecord
  2
block 48
340
0
102
{BLKREFS
331
1F4
102
}
 70
     0
280
     1
281
     0
  0
BLOCK_RECORD
  5
1FC
330
1
100
AcDbSymbolTableRecord
100
AcDbBlockTableRecord
  2
block 49
340
0
102
{BLKREFS
331
1FD
102
}
 70
     0
280
     1
281
     0
  0
ENDTAB
  0
ENDSEC
  0
SECTION
  2
BLOCKS
  0
BLOCK
  5
20
330
1F
100
AcDbEntity
  8
0
100
AcDbBlockBegin
  2
*Model_Space
 70
     0
 10
0.0
 20
0.0
 30
0.0
  3
*Model_Space
  1

  0
ENDBLK
  5
21
330
1F
100
AcDbEntity
  8
0
100
AcDbBlockEnd
  0
BLOCK
  5
1C
330
1B
100
AcDbEntity
 67
     1
  8
0
100
AcDbBlockBegin
  2
*Paper_Space
 70
     0
 10
0.0
 20
0.0
 30
0.0
  3
*Paper_Space
  1

  0
ENDBLK
  5
1D
330
1B
100
AcDbEntity
 67
     1
  8
0
100
AcDbBlockEnd
  0
BLOCK
  5
24
330
23
100
AcDbEntity
  8
0
100
AcDbBlockBegin
  2
*Paper_Space0
 70
     0
 10
0.0
 20
0.0
 30
0.0
  3
*Paper_Space0
  1

  0
ENDBLK
  5
25
330
23
100
AcDbEntity
  8
0
100
AcDbBlockEnd
  0
BLOCK
  5
42
330
40
100
AcDbEntity
  8
0
100
AcDbBlockBegin
  2
block 2
 70
     0
 10
0.0
 20
0.0
 30
0.0
  3
block 2
  1

  0
POLYLINE
  5
44
330
40
100
AcDbEntity
  8
0
 62
   179
420
  1842203
370
    25
100
AcDb2dPolyline
 66
     1
 10
0.0
 20
0.0
 30
0.0
  0
VERTEX
  5
45
330
44
100
AcDbEntity
  8
0
 62
   179
420
  1842203
370
    25
100
AcDbVertex
100
AcDb2dVertex
 10
105.3041659254077
 20
348.4494443573318
 30
0.0
  0
VERTEX
  5
46
330
44
100
AcDbEntity
  8
0
 62
   179
420
  1842203
370
    25
100
AcDbVertex
100
AcDb2dVertex
 10
222.0626382765156
 20
348.2979731282588
 30
0.0
  0
VERTEX
  5
47
330
44
100
AcDbEntity
  8
0
 62
   179
420
  1842203
370
    25
100
AcDbVertex
100
AcDb2dVertex
 10
280.441629992465
 20
348.1086344674272
 30
0.0
  0
VERTEX
  5
48
330
44
100
AcDbEntity
  8
0
 62
   179
420
  1842203
370
    25
100
AcDbVertex
100
AcDb2dVertex
 10
309.631019949748
 20
347.9855644653258
 30
0.0
  0
VERTEX
  5
49
330
44
100
AcDbEntity
  8
0
 62
   179
420
  1842203
370
    25
100
AcDbVertex
100
AcDb2dVertex
 10
324.2256056773472
 20
347.910974300605
 30
0.0
  0
VERTEX
  5
4A
330
44
100
AcDbEntity
  8
0
 62
   179
420
  1842203
370
    25
100
AcDbVertex
100
AcDb2dVertex
 10
338.7773963260219
 20
347.0948581732662
 30
0.0
  0
VERTEX
  5
4B
330
44
100
AcDbEntity
  8
0
 62
   179
420
  1842203
370
    25
100
AcDbVertex
100
AcDb2dVertex
 10
345.9803367192426
 20
345.9261859358024
 30
0.0
  0
VERTEX
  5
4C
330
44
100
AcDbEntity
  8
0
 62
   179
420
  1842203
370
    25
100
AcDbVertex
100
AcDb2dVertex
 10
353.0270513462254
 20
344.1116048688797
 30
0.0
  0
VERTEX
  5
4D
330
44
100
AcDbEntity
  8
0
 62
   179
420
  1842203
370
    25
100
AcDbVertex
100
AcDb2dVertex
 10
359.8665891527061
 20
341.6140381359014
 30
0.0
  0
VERTEX
  5
4E
330
44
100
AcDbEntity
  8
0
 62
   179
420
  1842203
370
    25
100
AcDbVertex
100
AcDb2dVertex
 10
366.3803253063448
 20
338.4632001031032
 30
0.0
  0
VERTEX
  5
4F
330
44
100
AcDbEntity
  8
0
 62
   179
420
  1842203
370
    25
100
AcDbVertex
100
AcDb2dVertex
 10
372.5308203606044
 20
334.689671434501
 30
0.0
  0
VERTEX
  5
50
330
44
100
AcDbEntity
  8
0
 62
   179
420
  1842203
370
    25
100
AcDbVertex
100
AcDb2dVertex
 10
378.2761011859542
 20
330.3289874111343
 30
0.0
  0
VERTEX
  5
51
330
44
100
AcDbEntity
  8
0
 62
   179
420
  1842203
370
    25
100
AcDbVertex
100
AcDb2dVertex
 10
383.5741946528495
 20
325.41668331404
 30
0.0
  0
VERTEX
  5
52
330
44
100
AcDbEntity
  8
0
 62
   179
420
  1842203
370
    25
100
AcDbVertex
100
AcDb2dVertex
 10
388.3904855242641
 20
319.9786252812512
 30
0.0
  0
VERTEX
  5
53
330
44
100
AcDbEntity
  8
0
 62
   179
420
  1842203
370
    25
100
AcDbVertex
100
AcDb2dVertex
 10
392.6594519890658
 20
314.0707155807302
 30
0.0
  0
VERTEX
  5
54
330
44
100
AcDbEntity
  8
0
 62
   179
420
  1842203
370
    25
100
AcDbVertex
100
AcDb2dVertex
 10
396.3192953746446
 20
307.7524624172974
 30
0.0
  0
VERTEX
  5
55
330
44
100
AcDbEntity
  8
0
 62
   179
420
  1842203
370
    25
100
AcDbVertex
100
AcDb2dVertex
 10
399.3199797236429
 20
301.1025815677456
 30
0.0
  0
VERTEX
  5
56
330
44
100
AcDbEntity
  8
0
 62
   179
420
  1842203
370
    25
100
AcDbVertex
100
AcDb2dVertex
 10
401.6358712014202
 20
294.1888570313519
 30
0.0
  0
VERTEX
  5
57
330
44
100
AcDbEntity
  8
0
 62
   179
420
  1842203
370
    25
100
AcDbVertex
100
AcDb2dVertex
 10
403.2713607423776
 20
287.079902465699
 30
0.0
  0
VERTEX
  5
58
330
44
100
AcDbEntity
  8
0
 62
   179
420
  1842203
370
    25
100
AcDbVertex
100
AcDb2dVertex
 10
404.274274563057
 20
279.8536877740196
 30
0.0
  0
VERTEX
  5
59
330
44
100
AcDbEntity
  8
0
 62
   179
420
  1842203
370
    25
100
AcDbVertex
100
AcDb2dVertex
 10
404.8927318585347
 20
265.2775773434587
 30
0.0
  0
VERTEX
  5
5A
330
44
100
AcDbEntity
  8
0
 62
   179
420
  1842203
370
    25
100
AcDbVertex
100
AcDb2dVertex
 10
405.2343773761354
 20
148.5194444117231
 30
0.0
  0
SEQEND
  5
5B
330
44
100
AcDbEntity
  8
0
 62
   179
420
  1842203
370
    25
  0
ENDBLK
  5
43
330
40
100
AcDbEntity
  8
0
100
AcDbBlockEnd
  0
BLOCK
  5
5E
330
5C
100
AcDbEntity
  8
0
100
AcDbBlockBegin
  2
block 3
 70
     0
 10
0.0
 20
0.0
 30
0.0
  3
block 3
  1

  0
POLYLINE
  5
60
330
5C
100
AcDbEntity
  8
0
 62
   179
420
  1842203
370
    25
100
AcDb2dPolyline
 66
     1
 10
0.0
 20
0.0
 30
0.0
  0
VERTEX
  5
61
330
60
100
AcDbEntity
  8
0
 62
   179
420
  1842203
370
    25
100
AcDbVertex
100
AcDb2dVertex
 10
-194.6260473694039
 20
148.5194444093359
 30
0.0
  0
VERTEX
  5
62
330
60
100
AcDbEntity
  8
0
 62
   179
420
  1842203
370
    25
100
AcDbVertex
100
AcDb2dVertex
 10
-194.2850458357719
 20
265.1931375488086
 30
0.0
  0
VERTEX
  5
63
330
60
100
AcDbEntity
  8
0
 62
   179
420
  1842203
370
    25
100
AcDbVertex
100
AcDb2dVertex
 10
-193.6750526910946
 20
279.7599070850966
 30
0.0
  0
VERTEX
  5
64
330
60
100
AcDbEntity
  8
0
 62
   179
420
  1842203
370
    25
100
AcDbVertex
100
AcDb2dVertex
 10
-192.682511808283
 20
286.9765908403839
 30
0.0
  0
VERTEX
  5
65
330
60
100
AcDbEntity
  8
0
 62
   179
420
  1842203
370
    25
100
AcDbVertex
100
AcDb2dVertex
 10
-191.0574667613882
 20
294.0826732286264
 30
0.0
  0
VERTEX
  5
66
330
60
100
AcDbEntity
  8
0
 62
   179
420
  1842203
370
    25
100
AcDbVertex
100
AcDb2dVertex
 10
-188.755190889118
 20
300.9921651739236
 30
0.0
  0
VERTEX
  5
67
330
60
100
AcDbEntity
  8
0
 62
   179
420
  1842203
370
    25
100
AcDbVertex
100
AcDb2dVertex
 10
-185.7647975546014
 20
307.6479222521204
 30
0.0
  0
VERTEX
  5
68
330
60
100
AcDbEntity
  8
0
 62
   179
420
  1842203
370
    25
100
AcDbVertex
100
AcDb2dVertex
 10
-182.1199025518461
 20
313.9638742381984
 30
0.0
  0
VERTEX
  5
69
330
60
100
AcDbEntity
  8
0
 62
   179
420
  1842203
370
    25
100
AcDbVertex
100
AcDb2dVertex
 10
-177.8641152005677
 20
319.87619019126
 30
0.0
  0
VERTEX
  5
6A
330
60
100
AcDbEntity
  8
0
 62
   179
420
  1842203
370
    25
100
AcDbVertex
100
AcDb2dVertex
 10
-173.0511127966937
 20
325.3306209272675
 30
0.0
  0
VERTEX
  5
6B
330
60
100
AcDbEntity
  8
0
 62
   179
420
  1842203
370
    25
100
AcDbVertex
100
AcDb2dVertex
 10
-167.7004126299155
 20
330.3007914383646
 30
0.0
  0
VERTEX
  5
6C
330
60
100
AcDbEntity
  8
0
 62
   179
420
  1842203
370
    25
100
AcDbVertex
100
AcDb2dVertex
 10
-161.8812791662988
 20
334.7156488508073
 30
0.0
  0
VERTEX
  5
6D
330
60
100
AcDbEntity
  8
0
 62
   179
420
  1842203
370
    25
100
AcDbVertex
100
AcDb2dVertex
 10
-155.679370803113
 20
338.5145058084472
 30
0.0
  0
VERTEX
  5
6E
330
60
100
AcDbEntity
  8
0
 62
   179
420
  1842203
370
    25
100
AcDbVertex
100
AcDb2dVertex
 10
-149.1108659911442
 20
341.6760178413726
 30
0.0
  0
VERTEX
  5
6F
330
60
100
AcDbEntity
  8
0
 62
   179
420
  1842203
370
    25
100
AcDbVertex
100
AcDb2dVertex
 10
-142.2541560242798
 20
344.1640193183401
 30
0.0
  0
VERTEX
  5
70
330
60
100
AcDbEntity
  8
0
 62
   179
420
  1842203
370
    25
100
AcDbVertex
100
AcDb2dVertex
 10
-135.1950933863248
 20
345.9627623829119
 30
0.0
  0
VERTEX
  5
71
330
60
100
AcDbEntity
  8
0
 62
   179
420
  1842203
370
    25
100
AcDbVertex
100
AcDb2dVertex
 10
-128.0081116406751
 20
347.1139836482277
 30
0.0
  0
VERTEX
  5
72
330
60
100
AcDbEntity
  8
0
 62
   179
420
  1842203
370
    25
100
AcDbVertex
100
AcDb2dVertex
 10
-113.458675863076
 20
347.9103196808662
 30
0.0
  0
VERTEX
  5
73
330
60
100
AcDbEntity
  8
0
 62
   179
420
  1842203
370
    25
100
AcDbVertex
100
AcDb2dVertex
 10
-98.87463936924338
 20
347.9862364503575
 30
0.0
  0
VERTEX
  5
74
330
60
100
AcDbEntity
  8
0
 62
   179
420
  1842203
370
    25
100
AcDbVertex
100
AcDb2dVertex
 10
-69.70639797797777
 20
348.1091281747713
 30
0.0
  0
VERTEX
  5
75
330
60
100
AcDbEntity
  8
0
 62
   179
420
  1842203
370
    25
100
AcDbVertex
100
AcDb2dVertex
 10
-11.36970809518046
 20
348.2981925492235
 30
0.0
  0
VERTEX
  5
76
330
60
100
AcDbEntity
  8
0
 62
   179
420
  1842203
370
    25
100
AcDbVertex
100
AcDb2dVertex
 10
105.3041659254462
 20
348.4494142492069
 30
0.0
  0
SEQEND
  5
77
330
60
100
AcDbEntity
  8
0
 62
   179
420
  1842203
370
    25
  0
ENDBLK
  5
5F
330
5C
100
AcDbEntity
  8
0
100
AcDbBlockEnd
  0
BLOCK
  5
7A
330
78
100
AcDbEntity
  8
0
100
AcDbBlockBegin
  2
block 4
 70
     0
 10
0.0
 20
0.0
 30
0.0
  3
block 4
  1

  0
POLYLINE
  5
7C
330
78
100
AcDbEntity
  8
0
 62
   179
420
  1842203
370
    25
100
AcDb2dPolyline
 66
     1
 10
0.0
 20
0.0
 30
0.0
  0
VERTEX
  5
7D
330
7C
100
AcDbEntity
  8
0
 62
   179
420
  1842203
370
    25
100
AcDbVertex
100
AcDb2dVertex
 10
105.3041659253949
 20
-51.4105555427026
 30
0.0
  0
VERTEX
  5
7E
330
7C
100
AcDbEntity
  8
0
 62
   179
420
  1842203
370
    25
100
AcDbVertex
100
AcDb2dVertex
 10
-11.45430634466294
 20
-51.25908431380865
 30
0.0
  0
VERTEX
  5
7F
330
7C
100
AcDbEntity
  8
0
 62
   179
420
  1842203
370
    25
100
AcDbVertex
100
AcDb2dVertex
 10
-69.83329802022698
 20
-51.06974565342044
 30
0.0
  0
VERTEX
  5
80
330
7C
100
AcDbEntity
  8
0
 62
   179
420
  1842203
370
    25
100
AcDbVertex
100
AcDb2dVertex
 10
-99.02268795710744
 20
-50.94667565112328
 30
0.0
  0
VERTEX
  5
81
330
7C
100
AcDbEntity
  8
0
 62
   179
420
  1842203
370
    25
100
AcDbVertex
100
AcDb2dVertex
 10
-113.6172736745836
 20
-50.87208548742925
 30
0.0
  0
VERTEX
  5
82
330
7C
100
AcDbEntity
  8
0
 62
   179
420
  1842203
370
    25
100
AcDbVertex
100
AcDb2dVertex
 10
-128.1690643152118
 20
-50.05596937833786
 30
0.0
  0
VERTEX
  5
83
330
7C
100
AcDbEntity
  8
0
 62
   179
420
  1842203
370
    25
100
AcDbVertex
100
AcDb2dVertex
 10
-135.3720047043444
 20
-48.88729715557539
 30
0.0
  0
VERTEX
  5
84
330
7C
100
AcDbEntity
  8
0
 62
   179
420
  1842203
370
    25
100
AcDbVertex
100
AcDb2dVertex
 10
-142.4187193315205
 20
-47.07271610497681
 30
0.0
  0
VERTEX
  5
85
330
7C
100
AcDbEntity
  8
0
 62
   179
420
  1842203
370
    25
100
AcDbVertex
100
AcDb2dVertex
 10
-149.2582571393744
 20
-44.57514939016178
 30
0.0
  0
VERTEX
  5
86
330
7C
100
AcDbEntity
  8
0
 62
   179
420
  1842203
370
    25
100
AcDbVertex
100
AcDb2dVertex
 10
-155.7719932967086
 20
-41.42431137545699
 30
0.0
  0
VERTEX
  5
87
330
7C
100
AcDbEntity
  8
0
 62
   179
420
  1842203
370
    25
100
AcDbVertex
100
AcDb2dVertex
 10
-161.922488356635
 20
-37.65078272469015
 30
0.0
  0
VERTEX
  5
88
330
7C
100
AcDbEntity
  8
0
 62
   179
420
  1842203
370
    25
100
AcDbVertex
100
AcDb2dVertex
 10
-167.6677691893964
 20
-33.29009871901827
 30
0.0
  0
VERTEX
  5
89
330
7C
100
AcDbEntity
  8
0
 62
   179
420
  1842203
370
    25
100
AcDbVertex
100
AcDb2dVertex
 10
-172.9658626652557
 20
-28.37779463960284
 30
0.0
  0
VERTEX
  5
8A
330
7C
100
AcDbEntity
  8
0
 62
   179
420
  1842203
370
    25
100
AcDbVertex
100
AcDb2dVertex
 10
-177.7821535467545
 20
-22.93973662482071
 30
0.0
  0
VERTEX
  5
8B
330
7C
100
AcDbEntity
  8
0
 62
   179
420
  1842203
370
    25
100
AcDbVertex
100
AcDb2dVertex
 10
-182.0511200252726
 20
-17.03182694034218
 30
0.0
  0
VERTEX
  5
8C
330
7C
100
AcDbEntity
  8
0
 62
   179
420
  1842203
370
    25
100
AcDbVertex
100
AcDb2dVertex
 10
-185.710963426702
 20
-10.71357379231339
 30
0.0
  0
VERTEX
  5
8D
330
7C
100
AcDbEntity
  8
0
 62
   179
420
  1842203
370
    25
100
AcDbVertex
100
AcDb2dVertex
 10
-188.7116477935652
 20
-4.063692955646227
 30
0.0
  0
VERTEX
  5
8E
330
7C
100
AcDbEntity
  8
0
 62
   179
420
  1842203
370
    25
100
AcDbVertex
100
AcDb2dVertex
 10
-191.0275392906509
 20
2.850031568568031
 30
0.0
  0
VERTEX
  5
8F
330
7C
100
AcDbEntity
  8
0
 62
   179
420
  1842203
370
    25
100
AcDbVertex
100
AcDb2dVertex
 10
-192.6630288505127
 20
9.958986124636477
 30
0.0
  0
VERTEX
  5
90
330
7C
100
AcDbEntity
  8
0
 62
   179
420
  1842203
370
    25
100
AcDbVertex
100
AcDb2dVertex
 10
-193.665942689426
 20
17.18520080865398
 30
0.0
  0
VERTEX
  5
91
330
7C
100
AcDbEntity
  8
0
 62
   179
420
  1842203
370
    25
100
AcDbVertex
100
AcDb2dVertex
 10
-194.2844000061408
 20
31.76131122829959
 30
0.0
  0
VERTEX
  5
92
330
7C
100
AcDbEntity
  8
0
 62
   179
420
  1842203
370
    25
100
AcDbVertex
100
AcDb2dVertex
 10
-194.6260455254519
 20
148.5194440843597
 30
0.0
  0
SEQEND
  5
93
330
7C
100
AcDbEntity
  8
0
 62
   179
420
  1842203
370
    25
  0
ENDBLK
  5
7B
330
78
100
AcDbEntity
  8
0
100
AcDbBlockEnd
  0
BLOCK
  5
96
330
94
100
AcDbEntity
  8
0
100
AcDbBlockBegin
  2
block 5
 70
     0
 10
0.0
 20
0.0
 30
0.0
  3
block 5
  1

  0
POLYLINE
  5
98
330
94
100
AcDbEntity
  8
0
 62
   179
420
  1842203
370
    25
100
AcDb2dPolyline
 66
     1
 10
0.0
 20
0.0
 30
0.0
  0
VERTEX
  5
99
330
98
100
AcDbEntity
  8
0
 62
   179
420
  1842203
370
    25
100
AcDbVertex
100
AcDb2dVertex
 10
405.2343806500852
 20
148.5194444073146
 30
0.0
  0
VERTEX
  5
9A
330
98
100
AcDbEntity
  8
0
 62
   179
420
  1842203
370
    25
100
AcDbVertex
100
AcDb2dVertex
 10
404.8943057912504
 20
31.80360007096558
 30
0.0
  0
VERTEX
  5
9B
330
98
100
AcDbEntity
  8
0
 62
   179
420
  1842203
370
    25
100
AcDbVertex
100
AcDb2dVertex
 10
404.279607923668
 20
17.23236313929877
 30
0.0
  0
VERTEX
  5
9C
330
98
100
AcDbEntity
  8
0
 62
   179
420
  1842203
370
    25
100
AcDbVertex
100
AcDb2dVertex
 10
403.2810170716805
 20
10.00825574952524
 30
0.0
  0
VERTEX
  5
9D
330
98
100
AcDbEntity
  8
0
 62
   179
420
  1842203
370
    25
100
AcDbVertex
100
AcDb2dVertex
 10
401.6501915523381
 20
2.900722226830254
 30
0.0
  0
VERTEX
  5
9E
330
98
100
AcDbEntity
  8
0
 62
   179
420
  1842203
370
    25
100
AcDbVertex
100
AcDb2dVertex
 10
399.3413682365985
 20
-4.010394203734271
 30
0.0
  0
VERTEX
  5
9F
330
98
100
AcDbEntity
  8
0
 62
   179
420
  1842203
370
    25
100
AcDbVertex
100
AcDb2dVertex
 10
396.3438468351246
 20
-10.66612893934185
 30
0.0
  0
VERTEX
  5
A0
330
98
100
AcDbEntity
  8
0
 62
   179
420
  1842203
370
    25
100
AcDbVertex
100
AcDb2dVertex
 10
392.6945575214583
 20
-16.97635353659676
 30
0.0
  0
VERTEX
  5
A1
330
98
100
AcDbEntity
  8
0
 62
   179
420
  1842203
370
    25
100
AcDbVertex
100
AcDb2dVertex
 10
388.4299594170909
 20
-22.89041504009252
 30
0.0
  0
VERTEX
  5
A2
330
98
100
AcDbEntity
  8
0
 62
   179
420
  1842203
370
    25
100
AcDbVertex
100
AcDb2dVertex
 10
383.5993545791396
 20
-28.35151353055871
 30
0.0
  0
VERTEX
  5
A3
330
98
100
AcDbEntity
  8
0
 62
   179
420
  1842203
370
    25
100
AcDbVertex
100
AcDb2dVertex
 10
378.2824402541725
 20
-33.28406013975718
 30
0.0
  0
VERTEX
  5
A4
330
98
100
AcDbEntity
  8
0
 62
   179
420
  1842203
370
    25
100
AcDbVertex
100
AcDb2dVertex
 10
372.5173501326791
 20
-37.660009483148
 30
0.0
  0
VERTEX
  5
A5
330
98
100
AcDbEntity
  8
0
 62
   179
420
  1842203
370
    25
100
AcDbVertex
100
AcDb2dVertex
 10
366.3461984208922
 20
-41.44349403614127
 30
0.0
  0
VERTEX
  5
A6
330
98
100
AcDbEntity
  8
0
 62
   179
420
  1842203
370
    25
100
AcDbVertex
100
AcDb2dVertex
 10
359.8096333207256
 20
-44.59861266080663
 30
0.0
  0
VERTEX
  5
A7
330
98
100
AcDbEntity
  8
0
 62
   179
420
  1842203
370
    25
100
AcDbVertex
100
AcDb2dVertex
 10
352.9565795596097
 20
-47.09513464546546
 30
0.0
  0
VERTEX
  5
A8
330
98
100
AcDbEntity
  8
0
 62
   179
420
  1842203
370
    25
100
AcDbVertex
100
AcDb2dVertex
 10
345.8888601698995
 20
-48.9062770043951
 30
0.0
  0
VERTEX
  5
A9
330
98
100
AcDbEntity
  8
0
 62
   179
420
  1842203
370
    25
100
AcDbVertex
100
AcDb2dVertex
 10
338.7071197338347
 20
-50.06428537649401
 30
0.0
  0
VERTEX
  5
AA
330
98
100
AcDbEntity
  8
0
 62
   179
420
  1842203
370
    25
100
AcDbVertex
100
AcDb2dVertex
 10
324.1467080046892
 20
-50.87041729947597
 30
0.0
  0
VERTEX
  5
AB
330
98
100
AcDbEntity
  8
0
 62
   179
420
  1842203
370
    25
100
AcDbVertex
100
AcDb2dVertex
 10
309.5573590263953
 20
-50.94701005423151
 30
0.0
  0
VERTEX
  5
AC
330
98
100
AcDbEntity
  8
0
 62
   179
420
  1842203
370
    25
100
AcDbVertex
100
AcDb2dVertex
 10
280.3784926471124
 20
-51.06999133466183
 30
0.0
  0
VERTEX
  5
AD
330
98
100
AcDbEntity
  8
0
 62
   179
420
  1842203
370
    25
100
AcDbVertex
100
AcDb2dVertex
 10
222.0205461808574
 20
-51.25919350580875
 30
0.0
  0
VERTEX
  5
AE
330
98
100
AcDbEntity
  8
0
 62
   179
420
  1842203
370
    25
100
AcDbVertex
100
AcDb2dVertex
 10
105.3041659281413
 20
-51.41054215962637
 30
0.0
  0
SEQEND
  5
AF
330
98
100
AcDbEntity
  8
0
 62
   179
420
  1842203
370
    25
  0
ENDBLK
  5
97
330
94
100
AcDbEntity
  8
0
100
AcDbBlockEnd
  0
BLOCK
  5
B2
330
B0
100
AcDbEntity
  8
0
100
AcDbBlockBegin
  2
block 6
 70
     0
 10
0.0
 20
0.0
 30
0.0
  3
block 6
  1

  0
SPLINE
  5
B4
330
B0
100
AcDbEntity
  8
0
 62
   179
420
  1842203
370
    25
100
AcDbSpline
210
0.0
220
0.0
230
1.0
 70
     8
 71
     3
 72
    14
 73
    10
 74
     0
 42
0.0000000001
 43
0.0000000001
 12
1.0
 22
0.0
 32
0.0
 13
1.0
 23
0.0
 33
0.0
 40
0.0
 40
0.0
 40
0.0
 40
0.0
 40
1.0
 40
1.0
 40
1.0
 40
2.0
 40
2.0
 40
2.0
 40
3.0
 40
3.0
 40
3.0
 40
3.0
 10
392.6226125692077
 20
148.519444408059
 30
0.0
 10
392.6226180092049
 20
130.8814827870576
 30
0.0
 10
392.5997543993018
 20
112.9953040424902
 30
0.0
 10
392.5492882633313
 20
94.63720563071792
 30
0.0
 10
392.5240552104163
 20
85.45816190591725
 30
0.0
 10
392.4922034443188
 20
76.29145839682471
 30
0.0
 10
392.4526289350636
 20
67.0315640831666
 30
0.0
 10
392.4130539805956
 20
57.77156559468304
 30
0.0
 10
392.3675837746803
 20
48.42973398135554
 30
0.0
 10
392.2884992020095
 20
38.90779662270135
 30
0.0
  0
ENDBLK
  5
B3
330
B0
100
AcDbEntity
  8
0
100
AcDbBlockEnd
  0
BLOCK
  5
B7
330
B5
100
AcDbEntity
  8
0
100
AcDbBlockBegin
  2
block 7
 70
     0
 10
0.0
 20
0.0
 30
0.0
  3
block 7
  1

  0
SPLINE
  5
B9
330
B5
100
AcDbEntity
  8
0
 62
   179
420
  1842203
370
    25
100
AcDbSpline
210
0.0
220
0.0
230
1.0
 70
     8
 71
     3
 72
    53
 73
    49
 74
     0
 42
0.0000000001
 43
0.0000000001
 12
1.0
 22
0.0
 32
0.0
 13
1.0
 23
0.0
 33
0.0
 40
0.0
 40
0.0
 40
0.0
 40
0.0
 40
1.0
 40
1.0
 40
1.0
 40
2.0
 40
2.0
 40
2.0
 40
3.0
 40
3.0
 40
3.0
 40
4.0
 40
4.0
 40
4.0
 40
5.0
 40
5.0
 40
5.0
 40
6.0
 40
6.0
 40
6.0
 40
7.0
 40
7.0
 40
7.0
 40
8.0
 40
8.0
 40
8.0
 40
9.0
 40
9.0
 40
9.0
 40
10.0
 40
10.0
 40
10.0
 40
11.0
 40
11.0
 40
11.0
 40
12.0
 40
12.0
 40
12.0
 40
13.0
 40
13.0
 40
13.0
 40
14.0
 40
14.0
 40
14.0
 40
15.0
 40
15.0
 40
15.0
 40
16.0
 40
16.0
 40
16.0
 40
16.0
 10
-103.5133914779529
 20
-38.29861662196934
 30
0.0
 10
-104.7186986070507
 20
-38.29294274879845
 30
0.0
 10
-105.9239543970455
 20
-38.28109258054632
 30
0.0
 10
-107.1292143257841
 20
-38.26948687477265
 30
0.0
 10
-108.8958576067708
 20
-38.25247548856738
 30
0.0
 10
-110.6625097798825
 20
-38.23598933114506
 30
0.0
 10
-112.4290368870934
 20
-38.21118245331748
 30
0.0
 10
-113.9047563232174
 20
-38.19045931150496
 30
0.0
 10
-115.3803884811184
 20
-38.16392948944688
 30
0.0
 10
-116.8556105082907
 20
-38.11793702757416
 30
0.0
 10
-119.3928881988332
 20
-38.03883324163128
 30
0.0
 10
-121.9289526582688
 20
-37.90215591076056
 30
0.0
 10
-124.4555751095827
 20
-37.65806405914871
 30
0.0
 10
-126.8397638352652
 20
-37.42773243982259
 30
0.0
 10
-129.215545098672
 20
-37.10175553822855
 30
0.0
 10
-131.5682127499108
 20
-36.65184989843899
 30
0.0
 10
-133.9025189416221
 20
-36.20545555960873
 30
0.0
 10
-136.2140708949512
 20
-35.63705934450193
 30
0.0
 10
-138.4846911511453
 20
-34.93528520827012
 30
0.0
 10
-142.9778874696409
 20
-33.54658581799866
 30
0.0
 10
-147.3108029794396
 20
-31.63560363578749
 30
0.0
 10
-151.3587064701306
 20
-29.24256211507858
 30
0.0
 10
-155.6288643346769
 20
-26.71812814738664
 30
0.0
 10
-159.581853195975
 20
-23.65724564541841
 30
0.0
 10
-163.1102773673017
 20
-20.16849752116156
 30
0.0
 10
-166.6536312230965
 20
-16.66498759215694
 30
0.0
 10
-169.7688198994553
 20
-12.72998355807685
 30
0.0
 10
-172.3463273522317
 20
-8.467073488524562
 30
0.0
 10
-174.8109067772823
 20
-4.390933791265996
 30
0.0
 10
-176.7838875898886
 20
-0.0149916367563605
 30
0.0
 10
-178.2147080089832
 20
4.528650702190328
 30
0.0
 10
-178.8999365729592
 20
6.704628535314069
 30
0.0
 10
-179.4608201027614
 20
8.919068575218853
 30
0.0
 10
-179.9097780281026
 20
11.15580950088142
 30
0.0
 10
-180.3880629748156
 20
13.53865977271184
 30
0.0
 10
-180.7393222240404
 20
15.9468195845907
 30
0.0
 10
-180.9866611661409
 20
18.36464875033471
 30
0.0
 10
-181.2507205646004
 20
20.94592652910001
 30
0.0
 10
-181.3963344310542
 20
23.53822517370079
 30
0.0
 10
-181.481900564859
 20
26.13168215271692
 30
0.0
 10
-181.5285492088703
 20
27.54557391099004
 30
0.0
 10
-181.5573506219606
 20
28.95980994640433
 30
0.0
 10
-181.579299930084
 20
30.37422572806469
 30
0.0
 10
-181.5939979957611
 20
31.32137066479
 30
0.0
 10
-181.6056234849384
 20
32.26859620216358
 30
0.0
 10
-181.6170652664728
 20
33.21581886206626
 30
0.0
 10
-181.6399836731196
 20
35.11314875237965
 30
0.0
 10
-181.6621650097156
 20
37.01046709774316
 30
0.0
 10
-181.6801675833935
 20
38.90782623877723
 30
0.0
  0
ENDBLK
  5
B8
330
B5
100
AcDbEntity
  8
0
100
AcDbBlockEnd
  0
BLOCK
  5
BC
330
BA
100
AcDbEntity
  8
0
100
AcDbBlockBegin
  2
block 8
 70
     0
 10
0.0
 20
0.0
 30
0.0
  3
block 8
  1

  0
SPLINE
  5
BE
330
BA
100
AcDbEntity
  8
0
 62
   179
420
  1842203
370
    25
100
AcDbSpline
210
0.0
220
0.0
230
1.0
 70
     8
 71
     3
 72
    17
 73
    13
 74
     0
 42
0.0000000001
 43
0.0000000001
 12
1.0
 22
0.0
 32
0.0
 13
1.0
 23
0.0
 33
0.0
 40
0.0
 40
0.0
 40
0.0
 40
0.0
 40
1.0
 40
1.0
 40
1.0
 40
2.0
 40
2.0
 40
2.0
 40
3.0
 40
3.0
 40
3.0
 40
4.0
 40
4.0
 40
4.0
 40
4.0
 10
105.3041660365442
 20
335.8279163046332
 30
0.0
 10
114.7185792932121
 20
335.8280609427446
 30
0.0
 10
124.132991490324
 20
335.8254203048615
 30
0.0
 10
133.5474027087909
 20
335.8201169589543
 30
0.0
 10
142.0622407199493
 20
335.815320362518
 30
0.0
 10
150.5770779305484
 20
335.8083456049752
 30
0.0
 10
159.0919122879155
 20
335.7989290217417
 30
0.0
 10
176.5635033393708
 20
335.7796071319139
 30
0.0
 10
194.0350823778959
 20
335.7500044361233
 30
0.0
 10
211.5066363133844
 20
335.7092790593019
 30
0.0
 10
245.7118395696742
 20
335.6295483268772
 30
0.0
 10
279.9169466099079
 20
335.5071860793614
 30
0.0
 10
314.1218221934247
 20
335.3374962073403
 30
0.0
  0
ENDBLK
  5
BD
330
BA
100
AcDbEntity
  8
0
100
AcDbBlockEnd
  0
BLOCK
  5
C1
330
BF
100
AcDbEntity
  8
0
100
AcDbBlockBegin
  2
block 9
 70
     0
 10
0.0
 20
0.0
 30
0.0
  3
block 9
  1

  0
SPLINE
  5
C3
330
BF
100
AcDbEntity
  8
0
 62
   179
420
  1842203
370
    25
100
AcDbSpline
210
0.0
220
0.0
230
1.0
 70
     8
 71
     3
 72
    14
 73
    10
 74
     0
 42
0.0000000001
 43
0.0000000001
 12
1.0
 22
0.0
 32
0.0
 13
1.0
 23
0.0
 33
0.0
 40
0.0
 40
0.0
 40
0.0
 40
0.0
 40
1.0
 40
1.0
 40
1.0
 40
2.0
 40
2.0
 40
2.0
 40
3.0
 40
3.0
 40
3.0
 40
3.0
 10
-182.0142807192365
 20
148.5194443965437
 30
0.0
 10
-182.014286158839
 20
166.1574060212861
 30
0.0
 10
-181.9914225485246
 20
184.0435847698962
 30
0.0
 10
-181.9409564121277
 20
202.4016831859326
 30
0.0
 10
-181.9157233589981
 20
211.5807269128701
 30
0.0
 10
-181.8838715926885
 20
220.7474304240572
 30
0.0
 10
-181.8442970832214
 20
230.0073247400485
 30
0.0
 10
-181.8047221285388
 20
239.2673232308647
 30
0.0
 10
-181.7592519223701
 20
248.6091548465215
 30
0.0
 10
-181.6801673497442
 20
258.1310922077778
 30
0.0
  0
ENDBLK
  5
C2
330
BF
100
AcDbEntity
  8
0
100
AcDbBlockEnd
  0
BLOCK
  5
C6
330
C4
100
AcDbEntity
  8
0
100
AcDbBlockBegin
  2
block 10
 70
     0
 10
0.0
 20
0.0
 30
0.0
  3
block 10
  1

  0
SPLINE
  5
C8
330
C4
100
AcDbEntity
  8
0
 62
   179
420
  1842203
370
    25
100
AcDbSpline
210
0.0
220
0.0
230
1.0
 70
     8
 71
     3
 72
    17
 73
    13
 74
     0
 42
0.0000000001
 43
0.0000000001
 12
1.0
 22
0.0
 32
0.0
 13
1.0
 23
0.0
 33
0.0
 40
0.0
 40
0.0
 40
0.0
 40
0.0
 40
1.0
 40
1.0
 40
1.0
 40
2.0
 40
2.0
 40
2.0
 40
3.0
 40
3.0
 40
3.0
 40
4.0
 40
4.0
 40
4.0
 40
4.0
 10
-103.5133917656721
 20
335.337506337594
 30
0.0
 10
-95.12164262547056
 20
335.3796831813592
 30
0.0
 10
-86.72987425495282
 20
335.4180038498409
 30
0.0
 10
-78.33809538011829
 20
335.4538189863933
 30
0.0
 10
-69.64415294672456
 20
335.4909237218849
 30
0.0
 10
-60.9501992389309
 20
335.5253392431611
 30
0.0
 10
-52.25623479967437
 20
335.5568259142052
 30
0.0
 10
-35.13694216855553
 20
335.6188263444301
 30
0.0
 10
-18.01760792768844
 20
335.6694705734932
 30
0.0
 10
-0.8982493879246699
 20
335.7093440913452
 30
0.0
 10
34.50248976626099
 20
335.791797648313
 30
0.0
 10
69.90333282539851
 20
335.8281943728205
 30
0.0
 10
105.3041659809917
 20
335.8279163046332
 30
0.0
  0
ENDBLK
  5
C7
330
C4
100
AcDbEntity
  8
0
100
AcDbBlockEnd
  0
BLOCK
  5
CB
330
C9
100
AcDbEntity
  8
0
100
AcDbBlockBegin
  2
block 11
 70
     0
 10
0.0
 20
0.0
 30
0.0
  3
block 11
  1

  0
SPLINE
  5
CD
330
C9
100
AcDbEntity
  8
0
 62
   179
420
  1842203
370
    25
100
AcDbSpline
210
0.0
220
0.0
230
1.0
 70
     8
 71
     3
 72
    26
 73
    22
 74
     0
 42
0.0000000001
 43
0.0000000001
 12
1.0
 22
0.0
 32
0.0
 13
1.0
 23
0.0
 33
0.0
 40
0.0
 40
0.0
 40
0.0
 40
0.0
 40
1.0
 40
1.0
 40
1.0
 40
2.0
 40
2.0
 40
2.0
 40
3.0
 40
3.0
 40
3.0
 40
4.0
 40
4.0
 40
4.0
 40
5.0
 40
5.0
 40
5.0
 40
6.0
 40
6.0
 40
6.0
 40
7.0
 40
7.0
 40
7.0
 40
7.0
 10
385.5240002630441
 20
-3.753640718414698
 30
0.0
 10
386.2130752015344
 20
-2.339678520163596
 30
0.0
 10
386.8460862856668
 20
-0.8984973515108329
 30
0.0
 10
387.4217481273194
 20
0.5653092038217115
 30
0.0
 10
387.9364260934823
 20
1.87404451722908
 30
0.0
 10
388.4052620178783
 20
3.200865403810508
 30
0.0
 10
388.8272659202242
 20
4.542260398196352
 30
0.0
 10
389.7914990637735
 20
7.607202463847851
 30
0.0
 10
390.5112348966944
 20
10.74823200142628
 30
0.0
 10
391.0177532593343
 20
13.92104245093193
 30
0.0
 10
391.5297544368031
 20
17.12819702977529
 30
0.0
 10
391.8238972105316
 20
20.36782427013909
 30
0.0
 10
391.9875294004342
 20
23.61176252982886
 30
0.0
 10
392.0786855703028
 20
25.4188946547058
 30
0.0
 10
392.1293393749664
 20
27.22736465175871
 30
0.0
 10
392.1642347150404
 20
29.03641024702721
 30
0.0
 10
392.185209040523
 20
30.12376205516416
 30
0.0
 10
392.200490184411
 20
31.21132181408986
 30
0.0
 10
392.2145167987621
 20
32.29882096818229
 30
0.0
 10
392.2429317070755
 20
34.50186070235554
 30
0.0
 10
392.266198269751
 20
36.70465172606558
 30
0.0
 10
392.2884992020095
 20
38.90779662270135
 30
0.0
  0
ENDBLK
  5
CC
330
C9
100
AcDbEntity
  8
0
100
AcDbBlockEnd
  0
BLOCK
  5
D0
330
CE
100
AcDbEntity
  8
0
100
AcDbBlockBegin
  2
block 12
 70
     0
 10
0.0
 20
0.0
 30
0.0
  3
block 12
  1

  0
SPLINE
  5
D2
330
CE
100
AcDbEntity
  8
0
 62
   179
420
  1842203
370
    25
100
AcDbSpline
210
0.0
220
0.0
230
1.0
 70
     8
 71
     3
 72
    29
 73
    25
 74
     0
 42
0.0000000001
 43
0.0000000001
 12
1.0
 22
0.0
 32
0.0
 13
1.0
 23
0.0
 33
0.0
 40
0.0
 40
0.0
 40
0.0
 40
0.0
 40
1.0
 40
1.0
 40
1.0
 40
2.0
 40
2.0
 40
2.0
 40
3.0
 40
3.0
 40
3.0
 40
4.0
 40
4.0
 40
4.0
 40
5.0
 40
5.0
 40
5.0
 40
6.0
 40
6.0
 40
6.0
 40
7.0
 40
7.0
 40
7.0
 40
8.0
 40
8.0
 40
8.0
 40
8.0
 10
314.121343831461
 20
-38.29829417361347
 30
0.0
 10
316.2512112701126
 20
-38.28545449493089
 30
0.0
 10
318.3802400590892
 20
-38.26424684399031
 30
0.0
 10
320.5098948297089
 20
-38.24123354164372
 30
0.0
 10
321.8099845656139
 20
-38.22718461757177
 30
0.0
 10
323.110307588147
 20
-38.21246277548256
 30
0.0
 10
324.4101576147007
 20
-38.18970924611586
 30
0.0
 10
326.1596154867015
 20
-38.15908545086584
 30
0.0
 10
327.9082165617163
 20
-38.11391285224919
 30
0.0
 10
329.6561565071205
 20
-38.03376175556257
 30
0.0
 10
332.9813945484804
 20
-37.88128427688278
 30
0.0
 10
336.3042399403826
 20
-37.60221848194096
 30
0.0
 10
339.5939320552687
 20
-37.09677871534031
 30
0.0
 10
342.5941882579842
 20
-36.63580889145265
 30
0.0
 10
345.5668683737876
 20
-35.98654672121754
 30
0.0
 10
348.4769491460324
 20
-35.12145470304903
 30
0.0
 10
351.4793369843312
 20
-34.22892217298509
 30
0.0
 10
354.4150912227525
 20
-33.10665049695076
 30
0.0
 10
357.2426353745853
 20
-31.75960234139264
 30
0.0
 10
363.3551530392504
 20
-28.84758569234427
 30
0.0
 10
368.9619750645073
 20
-24.88512643558959
 30
0.0
 10
373.7722054195816
 20
-20.11891991508659
 30
0.0
 10
378.5658074597159
 20
-15.36918952510612
 30
0.0
 10
382.5683157295293
 20
-9.821259157574628
 30
0.0
 10
385.5240002630441
 20
-3.753640718414698
 30
0.0
  0
ENDBLK
  5
D1
330
CE
100
AcDbEntity
  8
0
100
AcDbBlockEnd
  0
BLOCK
  5
D5
330
D3
100
AcDbEntity
  8
0
100
AcDbBlockBegin
  2
block 13
 70
     0
 10
0.0
 20
0.0
 30
0.0
  3
block 13
  1

  0
SPLINE
  5
D7
330
D3
100
AcDbEntity
  8
0
 62
   179
420
  1842203
370
    25
100
AcDbSpline
210
0.0
220
0.0
230
1.0
 70
     8
 71
     3
 72
    17
 73
    13
 74
     0
 42
0.0000000001
 43
0.0000000001
 12
1.0
 22
0.0
 32
0.0
 13
1.0
 23
0.0
 33
0.0
 40
0.0
 40
0.0
 40
0.0
 40
0.0
 40
1.0
 40
1.0
 40
1.0
 40
2.0
 40
2.0
 40
2.0
 40
3.0
 40
3.0
 40
3.0
 40
4.0
 40
4.0
 40
4.0
 40
4.0
 10
314.121343831461
 20
-38.29829417361347
 30
0.0
 10
305.7296244668071
 20
-38.34048645426596
 30
0.0
 10
297.3378858572262
 20
-38.37882090612277
 30
0.0
 10
288.9461367385344
 20
-38.4146496797622
 30
0.0
 10
280.2522216858368
 20
-38.45176855808633
 30
0.0
 10
271.5582953536025
 20
-38.48619806304536
 30
0.0
 10
262.8643582842288
 20
-38.51769840968159
 30
0.0
 10
245.7451042054308
 20
-38.57972582412047
 30
0.0
 10
228.6258084948522
 20
-38.63039582248299
 30
0.0
 10
211.5064884691926
 20
-38.67029500017323
 30
0.0
 10
176.1057803025855
 20
-38.75280173193106
 30
0.0
 10
140.7049681615312
 20
-38.7892510365128
 30
0.0
 10
105.3041658698237
 20
-38.78902749000085
 30
0.0
  0
ENDBLK
  5
D6
330
D3
100
AcDbEntity
  8
0
100
AcDbBlockEnd
  0
BLOCK
  5
DA
330
D8
100
AcDbEntity
  8
0
100
AcDbBlockBegin
  2
block 14
 70
     0
 10
0.0
 20
0.0
 30
0.0
  3
block 14
  1

  0
SPLINE
  5
DC
330
D8
100
AcDbEntity
  8
0
 62
   179
420
  1842203
370
    25
100
AcDbSpline
210
0.0
220
0.0
230
1.0
 70
     8
 71
     3
 72
    17
 73
    13
 74
     0
 42
0.0000000001
 43
0.0000000001
 12
1.0
 22
0.0
 32
0.0
 13
1.0
 23
0.0
 33
0.0
 40
0.0
 40
0.0
 40
0.0
 40
0.0
 40
1.0
 40
1.0
 40
1.0
 40
2.0
 40
2.0
 40
2.0
 40
3.0
 40
3.0
 40
3.0
 40
4.0
 40
4.0
 40
4.0
 40
4.0
 10
105.3041658142263
 20
-38.78902749000085
 30
0.0
 10
95.88975607728555
 20
-38.78917247788049
 30
0.0
 10
86.47534739947136
 20
-38.78653225137275
 30
0.0
 10
77.06093970035984
 20
-38.78122928691774
 30
0.0
 10
68.5461072371773
 20
-38.77643303681089
 30
0.0
 10
60.03127557460637
 20
-38.76945860232185
 30
0.0
 10
51.51644676508714
 20
-38.76004235559018
 30
0.0
 10
34.04486380570706
 20
-38.74072115261269
 30
0.0
 10
16.57329285854157
 20
-38.71111919643032
 30
0.0
 10
-0.89825298586926
 20
-38.67039454807396
 30
0.0
 10
-35.10344044346909
 20
-38.5906652417227
 30
0.0
 10
-69.30853168608722
 20
-38.46830437745398
 30
0.0
 10
-103.5133914779529
 20
-38.29861662196934
 30
0.0
  0
ENDBLK
  5
DB
330
D8
100
AcDbEntity
  8
0
100
AcDbBlockEnd
  0
BLOCK
  5
DF
330
DD
100
AcDbEntity
  8
0
100
AcDbBlockBegin
  2
block 15
 70
     0
 10
0.0
 20
0.0
 30
0.0
  3
block 15
  1

  0
SPLINE
  5
E1
330
DD
100
AcDbEntity
  8
0
 62
   179
420
  1842203
370
    25
100
AcDbSpline
210
0.0
220
0.0
230
1.0
 70
     8
 71
     3
 72
    14
 73
    10
 74
     0
 42
0.0000000001
 43
0.0000000001
 12
1.0
 22
0.0
 32
0.0
 13
1.0
 23
0.0
 33
0.0
 40
0.0
 40
0.0
 40
0.0
 40
0.0
 40
1.0
 40
1.0
 40
1.0
 40
2.0
 40
2.0
 40
2.0
 40
3.0
 40
3.0
 40
3.0
 40
3.0
 10
392.2884297930005
 20
258.1310638729728
 30
0.0
 10
392.3658588536651
 20
248.8093449642732
 30
0.0
 10
392.4073782752539
 20
240.4271623447263
 30
0.0
 10
392.4475495072832
 20
231.1748591201529
 30
0.0
 10
392.4877207393183
 20
221.9225558955794
 30
0.0
 10
392.5204037154973
 20
212.6909051658951
 30
0.0
 10
392.5463108950715
 20
203.4609179698587
 30
0.0
 10
392.5981252418674
 20
185.0009479789828
 30
0.0
 10
392.6226045166035
 20
166.7198332593256
 30
0.0
 10
392.6226125692077
 20
148.519444408059
 30
0.0
  0
ENDBLK
  5
E0
330
DD
100
AcDbEntity
  8
0
100
AcDbBlockEnd
  0
BLOCK
  5
E4
330
E2
100
AcDbEntity
  8
0
100
AcDbBlockBegin
  2
block 16
 70
     0
 10
0.0
 20
0.0
 30
0.0
  3
block 16
  1

  0
SPLINE
  5
E6
330
E2
100
AcDbEntity
  8
0
 62
   179
420
  1842203
370
    25
100
AcDbSpline
210
0.0
220
0.0
230
1.0
 70
     8
 71
     3
 72
    29
 73
    25
 74
     0
 42
0.0000000001
 43
0.0000000001
 12
1.0
 22
0.0
 32
0.0
 13
1.0
 23
0.0
 33
0.0
 40
0.0
 40
0.0
 40
0.0
 40
0.0
 40
1.0
 40
1.0
 40
1.0
 40
2.0
 40
2.0
 40
2.0
 40
3.0
 40
3.0
 40
3.0
 40
4.0
 40
4.0
 40
4.0
 40
5.0
 40
5.0
 40
5.0
 40
6.0
 40
6.0
 40
6.0
 40
7.0
 40
7.0
 40
7.0
 40
8.0
 40
8.0
 40
8.0
 40
8.0
 10
314.1218221934247
 20
335.3374962073403
 30
0.0
 10
316.1343053125893
 20
335.3259427584427
 30
0.0
 10
318.146006943616
 20
335.3053297353034
 30
0.0
 10
320.158256233954
 20
335.284116302066
 30
0.0
 10
321.5232701601257
 20
335.2697261209267
 30
0.0
 10
322.8885360982105
 20
335.2550596539712
 30
0.0
 10
324.2533429269338
 20
335.2318235502997
 30
0.0
 10
326.1246783841842
 20
335.1999636974826
 30
0.0
 10
327.9951507097271
 20
335.1519928137475
 30
0.0
 10
329.8647155203946
 20
335.0632652277693
 30
0.0
 10
333.1967659069927
 20
334.9051296095333
 30
0.0
 10
336.5259336176504
 20
334.6175323506051
 30
0.0
 10
339.8209944771584
 20
334.1007524687881
 30
0.0
 10
342.956129659183
 20
333.6090544826419
 30
0.0
 10
346.0603883964318
 20
332.9098807442152
 30
0.0
 10
349.0931421993774
 20
331.9739529272497
 30
0.0
 10
352.091742217688
 20
331.0485651933784
 30
0.0
 10
355.0204387589183
 20
329.8917258336194
 30
0.0
 10
357.8382180681243
 20
328.5107604823961
 30
0.0
 10
363.6982408557636
 20
325.6388221440482
 30
0.0
 10
369.0785482206834
 20
321.7975421372991
 30
0.0
 10
373.7202322106529
 20
317.2091188267171
 30
0.0
 10
378.5365520796501
 20
312.4480634843212
 30
0.0
 10
382.5576240099631
 20
306.8825871170461
 30
0.0
 10
385.5237183399725
 20
300.7931292360422
 30
0.0
  0
ENDBLK
  5
E5
330
E2
100
AcDbEntity
  8
0
100
AcDbBlockEnd
  0
BLOCK
  5
E9
330
E7
100
AcDbEntity
  8
0
100
AcDbBlockBegin
  2
block 17
 70
     0
 10
0.0
 20
0.0
 30
0.0
  3
block 17
  1

  0
SPLINE
  5
EB
330
E7
100
AcDbEntity
  8
0
 62
   179
420
  1842203
370
    25
100
AcDbSpline
210
0.0
220
0.0
230
1.0
 70
     8
 71
     3
 72
    26
 73
    22
 74
     0
 42
0.0000000001
 43
0.0000000001
 12
1.0
 22
0.0
 32
0.0
 13
1.0
 23
0.0
 33
0.0
 40
0.0
 40
0.0
 40
0.0
 40
0.0
 40
1.0
 40
1.0
 40
1.0
 40
2.0
 40
2.0
 40
2.0
 40
3.0
 40
3.0
 40
3.0
 40
4.0
 40
4.0
 40
4.0
 40
5.0
 40
5.0
 40
5.0
 40
6.0
 40
6.0
 40
6.0
 40
7.0
 40
7.0
 40
7.0
 40
7.0
 10
385.5237183399725
 20
300.7931292360422
 30
0.0
 10
386.2128493554176
 20
299.3791294087679
 30
0.0
 10
386.8458804971265
 20
297.9378967437403
 30
0.0
 10
387.4215635656508
 20
296.4740376509776
 30
0.0
 10
387.9363178494411
 20
295.1651095617779
 30
0.0
 10
388.4052208117828
 20
293.8380910372094
 30
0.0
 10
388.8272789650923
 20
292.4964957925607
 30
0.0
 10
389.7936254304622
 20
289.4247725893664
 30
0.0
 10
390.5143977687229
 20
286.2766339757575
 30
0.0
 10
391.0211024074889
 20
283.0966627507578
 30
0.0
 10
391.5334139314248
 20
279.8815038994342
 30
0.0
 10
391.8268940590236
 20
276.6338040584341
 30
0.0
 10
391.9897743108752
 20
273.3818622650458
 30
0.0
 10
392.0802664405076
 20
271.5751660267462
 30
0.0
 10
392.130447203925
 20
269.7671604541515
 30
0.0
 10
392.1650500562131
 20
267.9585775295291
 30
0.0
 10
392.1858428115133
 20
266.8718052053899
 30
0.0
 10
392.2010107354152
 20
265.7848244124845
 30
0.0
 10
392.2149760355849
 20
264.6979069046025
 30
0.0
 10
392.2431014598999
 20
262.5089087641895
 30
0.0
 10
392.2663490460839
 20
260.3201673076064
 30
0.0
 10
392.2884297930005
 20
258.1310638729728
 30
0.0
  0
ENDBLK
  5
EA
330
E7
100
AcDbEntity
  8
0
100
AcDbBlockEnd
  0
BLOCK
  5
EE
330
EC
100
AcDbEntity
  8
0
100
AcDbBlockBegin
  2
block 18
 70
     0
 10
0.0
 20
0.0
 30
0.0
  3
block 18
  1

  0
SPLINE
  5
F0
330
EC
100
AcDbEntity
  8
0
 62
   179
420
  1842203
370
    25
100
AcDbSpline
210
0.0
220
0.0
230
1.0
 70
     8
 71
     3
 72
    59
 73
    55
 74
     0
 42
0.0000000001
 43
0.0000000001
 12
1.0
 22
0.0
 32
0.0
 13
1.0
 23
0.0
 33
0.0
 40
0.0
 40
0.0
 40
0.0
 40
0.0
 40
1.0
 40
1.0
 40
1.0
 40
2.0
 40
2.0
 40
2.0
 40
3.0
 40
3.0
 40
3.0
 40
4.0
 40
4.0
 40
4.0
 40
5.0
 40
5.0
 40
5.0
 40
6.0
 40
6.0
 40
6.0
 40
7.0
 40
7.0
 40
7.0
 40
8.0
 40
8.0
 40
8.0
 40
9.0
 40
9.0
 40
9.0
 40
10.0
 40
10.0
 40
10.0
 40
11.0
 40
11.0
 40
11.0
 40
12.0
 40
12.0
 40
12.0
 40
13.0
 40
13.0
 40
13.0
 40
14.0
 40
14.0
 40
14.0
 40
15.0
 40
15.0
 40
15.0
 40
16.0
 40
16.0
 40
16.0
 40
17.0
 40
17.0
 40
17.0
 40
18.0
 40
18.0
 40
18.0
 40
18.0
 10
-103.5133917656721
 20
335.337506337594
 30
0.0
 10
-104.5719080235421
 20
335.3326134792425
 30
0.0
 10
-105.6303826353596
 20
335.3225318402879
 30
0.0
 10
-106.6888582731599
 20
335.3125022374226
 30
0.0
 10
-108.408104604354
 20
335.2962114912698
 30
0.0
 10
-110.1273536423273
 20
335.2800580288485
 30
0.0
 10
-111.8465152404457
 20
335.257830459296
 30
0.0
 10
-113.3385129501845
 20
335.2385399615951
 30
0.0
 10
-114.8304448013472
 20
335.2146745243542
 30
0.0
 10
-116.3220394471238
 20
335.1725262916204
 30
0.0
 10
-118.8286198279507
 20
335.1016974417419
 30
0.0
 10
-121.3342479474607
 20
334.9792383401779
 30
0.0
 10
-123.8316909087782
 20
334.7552413465324
 30
0.0
 10
-126.1707789538677
 20
334.5454472899396
 30
0.0
 10
-128.5026869226498
 20
334.2465835054899
 30
0.0
 10
-130.8140534309901
 20
333.8306776342296
 30
0.0
 10
-133.198824438363
 20
333.4015634024571
 30
0.0
 10
-135.561728554152
 20
332.847854980798
 30
0.0
 10
-137.884101899334
 20
332.1567398378189
 30
0.0
 10
-140.357245302418
 20
331.4207570294686
 30
0.0
 10
-142.7844245396504
 20
330.52894729671
 30
0.0
 10
-145.1436251277835
 20
329.4834656647216
 30
0.0
 10
-147.2015798018077
 20
328.5714814010842
 30
0.0
 10
-149.2078078196418
 20
327.5425643416016
 30
0.0
 10
-151.1495042524216
 20
326.4040435220235
 30
0.0
 10
-155.5510514477382
 20
323.8231801926149
 30
0.0
 10
-159.6209941602506
 20
320.6791027697371
 30
0.0
 10
-163.2390205925862
 20
317.0808292098899
 30
0.0
 10
-166.7148469925741
 20
313.623979331203
 30
0.0
 10
-169.7735825342349
 20
309.7479344269676
 30
0.0
 10
-172.3156881234505
 20
305.5566504559823
 30
0.0
 10
-173.5536301164312
 20
303.5155997403114
 30
0.0
 10
-174.6690560553602
 20
301.3997917513407
 30
0.0
 10
-175.6525019241705
 20
299.2246270044478
 30
0.0
 10
-176.6431274014554
 20
297.0335825515639
 30
0.0
 10
-177.4998387437334
 20
294.782311513807
 30
0.0
 10
-178.2207608455052
 20
292.4884525327646
 30
0.0
 10
-178.9093091995207
 20
290.2976016463098
 30
0.0
 10
-179.4739899978067
 20
288.0679018465113
 30
0.0
 10
-179.924020718009
 20
285.8158770159576
 30
0.0
 10
-180.4072825397063
 20
283.3975585028826
 30
0.0
 10
-180.7583371921065
 20
280.9534961859657
 30
0.0
 10
-181.0041934240463
 20
278.4997033628816
 30
0.0
 10
-181.2535347390788
 20
276.0111273178173
 30
0.0
 10
-181.3946740592125
 20
273.5125429458841
 30
0.0
 10
-181.478568059767
 20
271.0127757248277
 30
0.0
 10
-181.5275464403634
 20
269.5533799451021
 30
0.0
 10
-181.5570134844855
 20
268.0935810063492
 30
0.0
 10
-181.579597328105
 20
266.6336010409688
 30
0.0
 10
-181.595847389091
 20
265.5830817461114
 30
0.0
 10
-181.6085337208816
 20
264.532468725977
 30
0.0
 10
-181.6210743580558
 20
263.4818634748859
 30
0.0
 10
-181.642364363942
 20
261.6982705305456
 30
0.0
 10
-181.6632344601674
 20
259.914699977538
 30
0.0
 10
-181.6801673497442
 20
258.1310922077778
 30
0.0
  0
ENDBLK
  5
EF
330
EC
100
AcDbEntity
  8
0
100
AcDbBlockEnd
  0
BLOCK
  5
F3
330
F1
100
AcDbEntity
  8
0
100
AcDbBlockBegin
  2
block 19
 70
     0
 10
0.0
 20
0.0
 30
0.0
  3
block 19
  1

  0
SPLINE
  5
F5
330
F1
100
AcDbEntity
  8
0
 62
   179
420
  1842203
370
    25
100
AcDbSpline
210
0.0
220
0.0
230
1.0
 70
     8
 71
     3
 72
    14
 73
    10
 74
     0
 42
0.0000000001
 43
0.0000000001
 12
1.0
 22
0.0
 32
0.0
 13
1.0
 23
0.0
 33
0.0
 40
0.0
 40
0.0
 40
0.0
 40
0.0
 40
1.0
 40
1.0
 40
1.0
 40
2.0
 40
2.0
 40
2.0
 40
3.0
 40
3.0
 40
3.0
 40
3.0
 10
-181.6801675833935
 20
38.90782623877723
 30
0.0
 10
-181.7563662287114
 20
48.08228591059089
 30
0.0
 10
-181.7968121876215
 20
55.99392672841941
 30
0.0
 10
-181.8416031282574
 20
66.40889544675954
 30
0.0
 10
-181.8863940688971
 20
76.82386416510033
 30
0.0
 10
-181.9143310130148
 20
85.04587569746762
 30
0.0
 10
-181.9395357546205
 20
94.12278681639788
 30
0.0
 10
-181.9899452258219
 20
112.2766047260549
 30
0.0
 10
-182.0142846542277
 20
130.5890015548852
 30
0.0
 10
-182.0142807192365
 20
148.5194443965437
 30
0.0
  0
ENDBLK
  5
F4
330
F1
100
AcDbEntity
  8
0
100
AcDbBlockEnd
  0
BLOCK
  5
F8
330
F6
100
AcDbEntity
  8
0
100
AcDbBlockBegin
  2
block 20
 70
     0
 10
0.0
 20
0.0
 30
0.0
  3
block 20
  1

  0
SPLINE
  5
FA
330
F6
100
AcDbEntity
  8
0
 62
   179
420
  1842203
370
    25
100
AcDbSpline
210
0.0
220
0.0
230
1.0
 70
    11
 71
     3
 72
    17
 73
    13
 74
     0
 42
0.0000000001
 43
0.0000000001
 12
1.0
 22
0.0
 32
0.0
 13
1.0
 23
0.0
 33
0.0
 40
0.0
 40
0.0
 40
0.0
 40
0.0
 40
1.0
 40
1.0
 40
1.0
 40
2.0
 40
2.0
 40
2.0
 40
3.0
 40
3.0
 40
3.0
 40
4.0
 40
4.0
 40
4.0
 40
4.0
 10
131.7518244168979
 20
147.7946315258916
 30
0.0
 10
131.7518244168979
 20
162.0358288940022
 30
0.0
 10
120.2085738740431
 20
173.5605620045365
 30
0.0
 10
105.9828794725266
 20
173.5605620045365
 30
0.0
 10
91.74857231179058
 20
173.5605620045365
 30
0.0
 10
80.19800092360012
 20
162.0358288940022
 30
0.0
 10
80.19800092360012
 20
147.7946315258916
 30
0.0
 10
80.19800092360012
 20
133.5499890540936
 30
0.0
 10
91.74857231179058
 20
122.0183657361844
 30
0.0
 10
105.9828794725266
 20
122.0183657361844
 30
0.0
 10
120.2085738740431
 20
122.0183657361844
 30
0.0
 10
131.7518244168979
 20
133.5499890540936
 30
0.0
 10
131.7518244168979
 20
147.7946315258916
 30
0.0
  0
ENDBLK
  5
F9
330
F6
100
AcDbEntity
  8
0
100
AcDbBlockEnd
  0
BLOCK
  5
FD
330
FB
100
AcDbEntity
  8
0
100
AcDbBlockBegin
  2
block 21
 70
     0
 10
0.0
 20
0.0
 30
0.0
  3
block 21
  1

  0
SPLINE
  5
FF
330
FB
100
AcDbEntity
  8
0
 62
   179
420
  1842203
370
    25
100
AcDbSpline
210
0.0
220
0.0
230
1.0
 70
    11
 71
     3
 72
    17
 73
    13
 74
     0
 42
0.0000000001
 43
0.0000000001
 12
1.0
 22
0.0
 32
0.0
 13
1.0
 23
0.0
 33
0.0
 40
0.0
 40
0.0
 40
0.0
 40
0.0
 40
1.0
 40
1.0
 40
1.0
 40
2.0
 40
2.0
 40
2.0
 40
3.0
 40
3.0
 40
3.0
 40
4.0
 40
4.0
 40
4.0
 40
4.0
 10
142.9333390725675
 20
147.7946315258916
 30
0.0
 10
142.9333390725675
 20
168.2128998056498
 30
0.0
 10
126.3908124412218
 20
184.7390621944798
 30
0.0
 10
105.9889084039793
 20
184.7390621944798
 30
0.0
 10
85.58700436673716
 20
184.7390621944798
 30
0.0
 10
69.03069732064166
 20
168.2128998056498
 30
0.0
 10
69.03069732064166
 20
147.7946315258916
 30
0.0
 10
69.03069732064166
 20
127.3755019702119
 30
0.0
 10
85.58700436673716
 20
110.8458944776944
 30
0.0
 10
105.9889084039793
 20
110.8458944776944
 30
0.0
 10
126.3908124412218
 20
110.8458944776944
 30
0.0
 10
142.9333390725675
 20
127.3755019702119
 30
0.0
 10
142.9333390725675
 20
147.7946315258916
 30
0.0
  0
ENDBLK
  5
FE
330
FB
100
AcDbEntity
  8
0
100
AcDbBlockEnd
  0
BLOCK
  5
102
330
100
100
AcDbEntity
  8
0
100
AcDbBlockBegin
  2
block 22
 70
     0
 10
0.0
 20
0.0
 30
0.0
  3
block 22
  1

  0
POLYLINE
  5
104
330
100
100
AcDbEntity
  8
0
 62
   179
420
  1842203
370
    25
100
AcDb2dPolyline
 66
     1
 10
0.0
 20
0.0
 30
0.0
  0
VERTEX
  5
105
330
104
100
AcDbEntity
  8
0
 62
   179
420
  1842203
370
    25
100
AcDbVertex
100
AcDb2dVertex
 10
105.3041659254077
 20
348.4494443573318
 30
0.0
  0
VERTEX
  5
106
330
104
100
AcDbEntity
  8
0
 62
   179
420
  1842203
370
    25
100
AcDbVertex
100
AcDb2dVertex
 10
222.0626382765156
 20
348.2979731282588
 30
0.0
  0
VERTEX
  5
107
330
104
100
AcDbEntity
  8
0
 62
   179
420
  1842203
370
    25
100
AcDbVertex
100
AcDb2dVertex
 10
280.441629992465
 20
348.1086344674272
 30
0.0
  0
VERTEX
  5
108
330
104
100
AcDbEntity
  8
0
 62
   179
420
  1842203
370
    25
100
AcDbVertex
100
AcDb2dVertex
 10
309.631019949748
 20
347.9855644653258
 30
0.0
  0
VERTEX
  5
109
330
104
100
AcDbEntity
  8
0
 62
   179
420
  1842203
370
    25
100
AcDbVertex
100
AcDb2dVertex
 10
324.2256056773472
 20
347.910974300605
 30
0.0
  0
VERTEX
  5
10A
330
104
100
AcDbEntity
  8
0
 62
   179
420
  1842203
370
    25
100
AcDbVertex
100
AcDb2dVertex
 10
338.7773963260219
 20
347.0948581732662
 30
0.0
  0
VERTEX
  5
10B
330
104
100
AcDbEntity
  8
0
 62
   179
420
  1842203
370
    25
100
AcDbVertex
100
AcDb2dVertex
 10
345.9803367192426
 20
345.9261859358024
 30
0.0
  0
VERTEX
  5
10C
330
104
100
AcDbEntity
  8
0
 62
   179
420
  1842203
370
    25
100
AcDbVertex
100
AcDb2dVertex
 10
353.0270513462254
 20
344.1116048688797
 30
0.0
  0
VERTEX
  5
10D
330
104
100
AcDbEntity
  8
0
 62
   179
420
  1842203
370
    25
100
AcDbVertex
100
AcDb2dVertex
 10
359.8665891527061
 20
341.6140381359014
 30
0.0
  0
VERTEX
  5
10E
330
104
100
AcDbEntity
  8
0
 62
   179
420
  1842203
370
    25
100
AcDbVertex
100
AcDb2dVertex
 10
366.3803253063448
 20
338.4632001031032
 30
0.0
  0
VERTEX
  5
10F
330
104
100
AcDbEntity
  8
0
 62
   179
420
  1842203
370
    25
100
AcDbVertex
100
AcDb2dVertex
 10
372.5308203606044
 20
334.689671434501
 30
0.0
  0
VERTEX
  5
110
330
104
100
AcDbEntity
  8
0
 62
   179
420
  1842203
370
    25
100
AcDbVertex
100
AcDb2dVertex
 10
378.2761011859542
 20
330.3289874111343
 30
0.0
  0
VERTEX
  5
111
330
104
100
AcDbEntity
  8
0
 62
   179
420
  1842203
370
    25
100
AcDbVertex
100
AcDb2dVertex
 10
383.5741946528495
 20
325.41668331404
 30
0.0
  0
VERTEX
  5
112
330
104
100
AcDbEntity
  8
0
 62
   179
420
  1842203
370
    25
100
AcDbVertex
100
AcDb2dVertex
 10
388.3904855242641
 20
319.9786252812512
 30
0.0
  0
VERTEX
  5
113
330
104
100
AcDbEntity
  8
0
 62
   179
420
  1842203
370
    25
100
AcDbVertex
100
AcDb2dVertex
 10
392.6594519890658
 20
314.0707155807302
 30
0.0
  0
VERTEX
  5
114
330
104
100
AcDbEntity
  8
0
 62
   179
420
  1842203
370
    25
100
AcDbVertex
100
AcDb2dVertex
 10
396.3192953746446
 20
307.7524624172974
 30
0.0
  0
VERTEX
  5
115
330
104
100
AcDbEntity
  8
0
 62
   179
420
  1842203
370
    25
100
AcDbVertex
100
AcDb2dVertex
 10
399.3199797236429
 20
301.1025815677456
 30
0.0
  0
VERTEX
  5
116
330
104
100
AcDbEntity
  8
0
 62
   179
420
  1842203
370
    25
100
AcDbVertex
100
AcDb2dVertex
 10
401.6358712014202
 20
294.1888570313519
 30
0.0
  0
VERTEX
  5
117
330
104
100
AcDbEntity
  8
0
 62
   179
420
  1842203
370
    25
100
AcDbVertex
100
AcDb2dVertex
 10
403.2713607423776
 20
287.079902465699
 30
0.0
  0
VERTEX
  5
118
330
104
100
AcDbEntity
  8
0
 62
   179
420
  1842203
370
    25
100
AcDbVertex
100
AcDb2dVertex
 10
404.274274563057
 20
279.8536877740196
 30
0.0
  0
VERTEX
  5
119
330
104
100
AcDbEntity
  8
0
 62
   179
420
  1842203
370
    25
100
AcDbVertex
100
AcDb2dVertex
 10
404.8927318585347
 20
265.2775773434587
 30
0.0
  0
VERTEX
  5
11A
330
104
100
AcDbEntity
  8
0
 62
   179
420
  1842203
370
    25
100
AcDbVertex
100
AcDb2dVertex
 10
405.2343773761354
 20
148.5194444117231
 30
0.0
  0
SEQEND
  5
11B
330
104
100
AcDbEntity
  8
0
 62
   179
420
  1842203
370
    25
  0
ENDBLK
  5
103
330
100
100
AcDbEntity
  8
0
100
AcDbBlockEnd
  0
BLOCK
  5
11E
330
11C
100
AcDbEntity
  8
0
100
AcDbBlockBegin
  2
block 23
 70
     0
 10
0.0
 20
0.0
 30
0.0
  3
block 23
  1

  0
POLYLINE
  5
120
330
11C
100
AcDbEntity
  8
0
 62
   179
420
  1842203
370
    25
100
AcDb2dPolyline
 66
     1
 10
0.0
 20
0.0
 30
0.0
  0
VERTEX
  5
121
330
120
100
AcDbEntity
  8
0
 62
   179
420
  1842203
370
    25
100
AcDbVertex
100
AcDb2dVertex
 10
-194.6260473694039
 20
148.5194444093359
 30
0.0
  0
VERTEX
  5
122
330
120
100
AcDbEntity
  8
0
 62
   179
420
  1842203
370
    25
100
AcDbVertex
100
AcDb2dVertex
 10
-194.2850458357719
 20
265.1931375488086
 30
0.0
  0
VERTEX
  5
123
330
120
100
AcDbEntity
  8
0
 62
   179
420
  1842203
370
    25
100
AcDbVertex
100
AcDb2dVertex
 10
-193.6750526910946
 20
279.7599070850966
 30
0.0
  0
VERTEX
  5
124
330
120
100
AcDbEntity
  8
0
 62
   179
420
  1842203
370
    25
100
AcDbVertex
100
AcDb2dVertex
 10
-192.682511808283
 20
286.9765908403839
 30
0.0
  0
VERTEX
  5
125
330
120
100
AcDbEntity
  8
0
 62
   179
420
  1842203
370
    25
100
AcDbVertex
100
AcDb2dVertex
 10
-191.0574667613882
 20
294.0826732286264
 30
0.0
  0
VERTEX
  5
126
330
120
100
AcDbEntity
  8
0
 62
   179
420
  1842203
370
    25
100
AcDbVertex
100
AcDb2dVertex
 10
-188.755190889118
 20
300.9921651739236
 30
0.0
  0
VERTEX
  5
127
330
120
100
AcDbEntity
  8
0
 62
   179
420
  1842203
370
    25
100
AcDbVertex
100
AcDb2dVertex
 10
-185.7647975546014
 20
307.6479222521204
 30
0.0
  0
VERTEX
  5
128
330
120
100
AcDbEntity
  8
0
 62
   179
420
  1842203
370
    25
100
AcDbVertex
100
AcDb2dVertex
 10
-182.1199025518461
 20
313.9638742381984
 30
0.0
  0
VERTEX
  5
129
330
120
100
AcDbEntity
  8
0
 62
   179
420
  1842203
370
    25
100
AcDbVertex
100
AcDb2dVertex
 10
-177.8641152005677
 20
319.87619019126
 30
0.0
  0
VERTEX
  5
12A
330
120
100
AcDbEntity
  8
0
 62
   179
420
  1842203
370
    25
100
AcDbVertex
100
AcDb2dVertex
 10
-173.0511127966937
 20
325.3306209272675
 30
0.0
  0
VERTEX
  5
12B
330
120
100
AcDbEntity
  8
0
 62
   179
420
  1842203
370
    25
100
AcDbVertex
100
AcDb2dVertex
 10
-167.7004126299155
 20
330.3007914383646
 30
0.0
  0
VERTEX
  5
12C
330
120
100
AcDbEntity
  8
0
 62
   179
420
  1842203
370
    25
100
AcDbVertex
100
AcDb2dVertex
 10
-161.8812791662988
 20
334.7156488508073
 30
0.0
  0
VERTEX
  5
12D
330
120
100
AcDbEntity
  8
0
 62
   179
420
  1842203
370
    25
100
AcDbVertex
100
AcDb2dVertex
 10
-155.679370803113
 20
338.5145058084472
 30
0.0
  0
VERTEX
  5
12E
330
120
100
AcDbEntity
  8
0
 62
   179
420
  1842203
370
    25
100
AcDbVertex
100
AcDb2dVertex
 10
-149.1108659911442
 20
341.6760178413726
 30
0.0
  0
VERTEX
  5
12F
330
120
100
AcDbEntity
  8
0
 62
   179
420
  1842203
370
    25
100
AcDbVertex
100
AcDb2dVertex
 10
-142.2541560242798
 20
344.1640193183401
 30
0.0
  0
VERTEX
  5
130
330
120
100
AcDbEntity
  8
0
 62
   179
420
  1842203
370
    25
100
AcDbVertex
100
AcDb2dVertex
 10
-135.1950933863248
 20
345.9627623829119
 30
0.0
  0
VERTEX
  5
131
330
120
100
AcDbEntity
  8
0
 62
   179
420
  1842203
370
    25
100
AcDbVertex
100
AcDb2dVertex
 10
-128.0081116406751
 20
347.1139836482277
 30
0.0
  0
VERTEX
  5
132
330
120
100
AcDbEntity
  8
0
 62
   179
420
  1842203
370
    25
100
AcDbVertex
100
AcDb2dVertex
 10
-113.458675863076
 20
347.9103196808662
 30
0.0
  0
VERTEX
  5
133
330
120
100
AcDbEntity
  8
0
 62
   179
420
  1842203
370
    25
100
AcDbVertex
100
AcDb2dVertex
 10
-98.87463936924338
 20
347.9862364503575
 30
0.0
  0
VERTEX
  5
134
330
120
100
AcDbEntity
  8
0
 62
   179
420
  1842203
370
    25
100
AcDbVertex
100
AcDb2dVertex
 10
-69.70639797797777
 20
348.1091281747713
 30
0.0
  0
VERTEX
  5
135
330
120
100
AcDbEntity
  8
0
 62
   179
420
  1842203
370
    25
100
AcDbVertex
100
AcDb2dVertex
 10
-11.36970809518046
 20
348.2981925492235
 30
0.0
  0
VERTEX
  5
136
330
120
100
AcDbEntity
  8
0
 62
   179
420
  1842203
370
    25
100
AcDbVertex
100
AcDb2dVertex
 10
105.3041659254462
 20
348.4494142492069
 30
0.0
  0
SEQEND
  5
137
330
120
100
AcDbEntity
  8
0
 62
   179
420
  1842203
370
    25
  0
ENDBLK
  5
11F
330
11C
100
AcDbEntity
  8
0
100
AcDbBlockEnd
  0
BLOCK
  5
13A
330
138
100
AcDbEntity
  8
0
100
AcDbBlockBegin
  2
block 24
 70
     0
 10
0.0
 20
0.0
 30
0.0
  3
block 24
  1

  0
POLYLINE
  5
13C
330
138
100
AcDbEntity
  8
0
 62
   179
420
  1842203
370
    25
100
AcDb2dPolyline
 66
     1
 10
0.0
 20
0.0
 30
0.0
  0
VERTEX
  5
13D
330
13C
100
AcDbEntity
  8
0
 62
   179
420
  1842203
370
    25
100
AcDbVertex
100
AcDb2dVertex
 10
105.3041659253949
 20
-51.4105555427026
 30
0.0
  0
VERTEX
  5
13E
330
13C
100
AcDbEntity
  8
0
 62
   179
420
  1842203
370
    25
100
AcDbVertex
100
AcDb2dVertex
 10
-11.45430634466294
 20
-51.25908431380865
 30
0.0
  0
VERTEX
  5
13F
330
13C
100
AcDbEntity
  8
0
 62
   179
420
  1842203
370
    25
100
AcDbVertex
100
AcDb2dVertex
 10
-69.83329802022698
 20
-51.06974565342044
 30
0.0
  0
VERTEX
  5
140
330
13C
100
AcDbEntity
  8
0
 62
   179
420
  1842203
370
    25
100
AcDbVertex
100
AcDb2dVertex
 10
-99.02268795710744
 20
-50.94667565112328
 30
0.0
  0
VERTEX
  5
141
330
13C
100
AcDbEntity
  8
0
 62
   179
420
  1842203
370
    25
100
AcDbVertex
100
AcDb2dVertex
 10
-113.6172736745836
 20
-50.87208548742925
 30
0.0
  0
VERTEX
  5
142
330
13C
100
AcDbEntity
  8
0
 62
   179
420
  1842203
370
    25
100
AcDbVertex
100
AcDb2dVertex
 10
-128.1690643152118
 20
-50.05596937833786
 30
0.0
  0
VERTEX
  5
143
330
13C
100
AcDbEntity
  8
0
 62
   179
420
  1842203
370
    25
100
AcDbVertex
100
AcDb2dVertex
 10
-135.3720047043444
 20
-48.88729715557539
 30
0.0
  0
VERTEX
  5
144
330
13C
100
AcDbEntity
  8
0
 62
   179
420
  1842203
370
    25
100
AcDbVertex
100
AcDb2dVertex
 10
-142.4187193315205
 20
-47.07271610497681
 30
0.0
  0
VERTEX
  5
145
330
13C
100
AcDbEntity
  8
0
 62
   179
420
  1842203
370
    25
100
AcDbVertex
100
AcDb2dVertex
 10
-149.2582571393744
 20
-44.57514939016178
 30
0.0
  0
VERTEX
  5
146
330
13C
100
AcDbEntity
  8
0
 62
   179
420
  1842203
370
    25
100
AcDbVertex
100
AcDb2dVertex
 10
-155.7719932967086
 20
-41.42431137545699
 30
0.0
  0
VERTEX
  5
147
330
13C
100
AcDbEntity
  8
0
 62
   179
420
  1842203
370
    25
100
AcDbVertex
100
AcDb2dVertex
 10
-161.922488356635
 20
-37.65078272469015
 30
0.0
  0
VERTEX
  5
148
330
13C
100
AcDbEntity
  8
0
 62
   179
420
  1842203
370
    25
100
AcDbVertex
100
AcDb2dVertex
 10
-167.6677691893964
 20
-33.29009871901827
 30
0.0
  0
VERTEX
  5
149
330
13C
100
AcDbEntity
  8
0
 62
   179
420
  1842203
370
    25
100
AcDbVertex
100
AcDb2dVertex
 10
-172.9658626652557
 20
-28.37779463960284
 30
0.0
  0
VERTEX
  5
14A
330
13C
100
AcDbEntity
  8
0
 62
   179
420
  1842203
370
    25
100
AcDbVertex
100
AcDb2dVertex
 10
-177.7821535467545
 20
-22.93973662482071
 30
0.0
  0
VERTEX
  5
14B
330
13C
100
AcDbEntity
  8
0
 62
   179
420
  1842203
370
    25
100
AcDbVertex
100
AcDb2dVertex
 10
-182.0511200252726
 20
-17.03182694034218
 30
0.0
  0
VERTEX
  5
14C
330
13C
100
AcDbEntity
  8
0
 62
   179
420
  1842203
370
    25
100
AcDbVertex
100
AcDb2dVertex
 10
-185.710963426702
 20
-10.71357379231339
 30
0.0
  0
VERTEX
  5
14D
330
13C
100
AcDbEntity
  8
0
 62
   179
420
  1842203
370
    25
100
AcDbVertex
100
AcDb2dVertex
 10
-188.7116477935652
 20
-4.063692955646227
 30
0.0
  0
VERTEX
  5
14E
330
13C
100
AcDbEntity
  8
0
 62
   179
420
  1842203
370
    25
100
AcDbVertex
100
AcDb2dVertex
 10
-191.0275392906509
 20
2.850031568568031
 30
0.0
  0
VERTEX
  5
14F
330
13C
100
AcDbEntity
  8
0
 62
   179
420
  1842203
370
    25
100
AcDbVertex
100
AcDb2dVertex
 10
-192.6630288505127
 20
9.958986124636477
 30
0.0
  0
VERTEX
  5
150
330
13C
100
AcDbEntity
  8
0
 62
   179
420
  1842203
370
    25
100
AcDbVertex
100
AcDb2dVertex
 10
-193.665942689426
 20
17.18520080865398
 30
0.0
  0
VERTEX
  5
151
330
13C
100
AcDbEntity
  8
0
 62
   179
420
  1842203
370
    25
100
AcDbVertex
100
AcDb2dVertex
 10
-194.2844000061408
 20
31.76131122829959
 30
0.0
  0
VERTEX
  5
152
330
13C
100
AcDbEntity
  8
0
 62
   179
420
  1842203
370
    25
100
AcDbVertex
100
AcDb2dVertex
 10
-194.6260455254519
 20
148.5194440843597
 30
0.0
  0
SEQEND
  5
153
330
13C
100
AcDbEntity
  8
0
 62
   179
420
  1842203
370
    25
  0
ENDBLK
  5
13B
330
138
100
AcDbEntity
  8
0
100
AcDbBlockEnd
  0
BLOCK
  5
156
330
154
100
AcDbEntity
  8
0
100
AcDbBlockBegin
  2
block 25
 70
     0
 10
0.0
 20
0.0
 30
0.0
  3
block 25
  1

  0
POLYLINE
  5
158
330
154
100
AcDbEntity
  8
0
 62
   179
420
  1842203
370
    25
100
AcDb2dPolyline
 66
     1
 10
0.0
 20
0.0
 30
0.0
  0
VERTEX
  5
159
330
158
100
AcDbEntity
  8
0
 62
   179
420
  1842203
370
    25
100
AcDbVertex
100
AcDb2dVertex
 10
405.2343806500852
 20
148.5194444073146
 30
0.0
  0
VERTEX
  5
15A
330
158
100
AcDbEntity
  8
0
 62
   179
420
  1842203
370
    25
100
AcDbVertex
100
AcDb2dVertex
 10
404.8943057912504
 20
31.80360007096558
 30
0.0
  0
VERTEX
  5
15B
330
158
100
AcDbEntity
  8
0
 62
   179
420
  1842203
370
    25
100
AcDbVertex
100
AcDb2dVertex
 10
404.279607923668
 20
17.23236313929877
 30
0.0
  0
VERTEX
  5
15C
330
158
100
AcDbEntity
  8
0
 62
   179
420
  1842203
370
    25
100
AcDbVertex
100
AcDb2dVertex
 10
403.2810170716805
 20
10.00825574952524
 30
0.0
  0
VERTEX
  5
15D
330
158
100
AcDbEntity
  8
0
 62
   179
420
  1842203
370
    25
100
AcDbVertex
100
AcDb2dVertex
 10
401.6501915523381
 20
2.900722226830254
 30
0.0
  0
VERTEX
  5
15E
330
158
100
AcDbEntity
  8
0
 62
   179
420
  1842203
370
    25
100
AcDbVertex
100
AcDb2dVertex
 10
399.3413682365985
 20
-4.010394203734271
 30
0.0
  0
VERTEX
  5
15F
330
158
100
AcDbEntity
  8
0
 62
   179
420
  1842203
370
    25
100
AcDbVertex
100
AcDb2dVertex
 10
396.3438468351246
 20
-10.66612893934185
 30
0.0
  0
VERTEX
  5
160
330
158
100
AcDbEntity
  8
0
 62
   179
420
  1842203
370
    25
100
AcDbVertex
100
AcDb2dVertex
 10
392.6945575214583
 20
-16.97635353659676
 30
0.0
  0
VERTEX
  5
161
330
158
100
AcDbEntity
  8
0
 62
   179
420
  1842203
370
    25
100
AcDbVertex
100
AcDb2dVertex
 10
388.4299594170909
 20
-22.89041504009252
 30
0.0
  0
VERTEX
  5
162
330
158
100
AcDbEntity
  8
0
 62
   179
420
  1842203
370
    25
100
AcDbVertex
100
AcDb2dVertex
 10
383.5993545791396
 20
-28.35151353055871
 30
0.0
  0
VERTEX
  5
163
330
158
100
AcDbEntity
  8
0
 62
   179
420
  1842203
370
    25
100
AcDbVertex
100
AcDb2dVertex
 10
378.2824402541725
 20
-33.28406013975718
 30
0.0
  0
VERTEX
  5
164
330
158
100
AcDbEntity
  8
0
 62
   179
420
  1842203
370
    25
100
AcDbVertex
100
AcDb2dVertex
 10
372.5173501326791
 20
-37.660009483148
 30
0.0
  0
VERTEX
  5
165
330
158
100
AcDbEntity
  8
0
 62
   179
420
  1842203
370
    25
100
AcDbVertex
100
AcDb2dVertex
 10
366.3461984208922
 20
-41.44349403614127
 30
0.0
  0
VERTEX
  5
166
330
158
100
AcDbEntity
  8
0
 62
   179
420
  1842203
370
    25
100
AcDbVertex
100
AcDb2dVertex
 10
359.8096333207256
 20
-44.59861266080663
 30
0.0
  0
VERTEX
  5
167
330
158
100
AcDbEntity
  8
0
 62
   179
420
  1842203
370
    25
100
AcDbVertex
100
AcDb2dVertex
 10
352.9565795596097
 20
-47.09513464546546
 30
0.0
  0
VERTEX
  5
168
330
158
100
AcDbEntity
  8
0
 62
   179
420
  1842203
370
    25
100
AcDbVertex
100
AcDb2dVertex
 10
345.8888601698995
 20
-48.9062770043951
 30
0.0
  0
VERTEX
  5
169
330
158
100
AcDbEntity
  8
0
 62
   179
420
  1842203
370
    25
100
AcDbVertex
100
AcDb2dVertex
 10
338.7071197338347
 20
-50.06428537649401
 30
0.0
  0
VERTEX
  5
16A
330
158
100
AcDbEntity
  8
0
 62
   179
420
  1842203
370
    25
100
AcDbVertex
100
AcDb2dVertex
 10
324.1467080046892
 20
-50.87041729947597
 30
0.0
  0
VERTEX
  5
16B
330
158
100
AcDbEntity
  8
0
 62
   179
420
  1842203
370
    25
100
AcDbVertex
100
AcDb2dVertex
 10
309.5573590263953
 20
-50.94701005423151
 30
0.0
  0
VERTEX
  5
16C
330
158
100
AcDbEntity
  8
0
 62
   179
420
  1842203
370
    25
100
AcDbVertex
100
AcDb2dVertex
 10
280.3784926471124
 20
-51.06999133466183
 30
0.0
  0
VERTEX
  5
16D
330
158
100
AcDbEntity
  8
0
 62
   179
420
  1842203
370
    25
100
AcDbVertex
100
AcDb2dVertex
 10
222.0205461808574
 20
-51.25919350580875
 30
0.0
  0
VERTEX
  5
16E
330
158
100
AcDbEntity
  8
0
 62
   179
420
  1842203
370
    25
100
AcDbVertex
100
AcDb2dVertex
 10
105.3041659281413
 20
-51.41054215962637
 30
0.0
  0
SEQEND
  5
16F
330
158
100
AcDbEntity
  8
0
 62
   179
420
  1842203
370
    25
  0
ENDBLK
  5
157
330
154
100
AcDbEntity
  8
0
100
AcDbBlockEnd
  0
BLOCK
  5
172
330
170
100
AcDbEntity
  8
0
100
AcDbBlockBegin
  2
block 26
 70
     0
 10
0.0
 20
0.0
 30
0.0
  3
block 26
  1

  0
SPLINE
  5
174
330
170
100
AcDbEntity
  8
0
 62
   179
420
  1842203
370
    25
100
AcDbSpline
210
0.0
220
0.0
230
1.0
 70
     8
 71
     3
 72
    14
 73
    10
 74
     0
 42
0.0000000001
 43
0.0000000001
 12
1.0
 22
0.0
 32
0.0
 13
1.0
 23
0.0
 33
0.0
 40
0.0
 40
0.0
 40
0.0
 40
0.0
 40
1.0
 40
1.0
 40
1.0
 40
2.0
 40
2.0
 40
2.0
 40
3.0
 40
3.0
 40
3.0
 40
3.0
 10
392.6226125692077
 20
148.519444408059
 30
0.0
 10
392.6226180092049
 20
130.8814827870576
 30
0.0
 10
392.5997543993018
 20
112.9953040424902
 30
0.0
 10
392.5492882633313
 20
94.63720563071792
 30
0.0
 10
392.5240552104163
 20
85.45816190591725
 30
0.0
 10
392.4922034443188
 20
76.29145839682471
 30
0.0
 10
392.4526289350636
 20
67.0315640831666
 30
0.0
 10
392.4130539805956
 20
57.77156559468304
 30
0.0
 10
392.3675837746803
 20
48.42973398135554
 30
0.0
 10
392.2884992020095
 20
38.90779662270135
 30
0.0
  0
ENDBLK
  5
173
330
170
100
AcDbEntity
  8
0
100
AcDbBlockEnd
  0
BLOCK
  5
177
330
175
100
AcDbEntity
  8
0
100
AcDbBlockBegin
  2
block 27
 70
     0
 10
0.0
 20
0.0
 30
0.0
  3
block 27
  1

  0
SPLINE
  5
179
330
175
100
AcDbEntity
  8
0
 62
   179
420
  1842203
370
    25
100
AcDbSpline
210
0.0
220
0.0
230
1.0
 70
     8
 71
     3
 72
    53
 73
    49
 74
     0
 42
0.0000000001
 43
0.0000000001
 12
1.0
 22
0.0
 32
0.0
 13
1.0
 23
0.0
 33
0.0
 40
0.0
 40
0.0
 40
0.0
 40
0.0
 40
1.0
 40
1.0
 40
1.0
 40
2.0
 40
2.0
 40
2.0
 40
3.0
 40
3.0
 40
3.0
 40
4.0
 40
4.0
 40
4.0
 40
5.0
 40
5.0
 40
5.0
 40
6.0
 40
6.0
 40
6.0
 40
7.0
 40
7.0
 40
7.0
 40
8.0
 40
8.0
 40
8.0
 40
9.0
 40
9.0
 40
9.0
 40
10.0
 40
10.0
 40
10.0
 40
11.0
 40
11.0
 40
11.0
 40
12.0
 40
12.0
 40
12.0
 40
13.0
 40
13.0
 40
13.0
 40
14.0
 40
14.0
 40
14.0
 40
15.0
 40
15.0
 40
15.0
 40
16.0
 40
16.0
 40
16.0
 40
16.0
 10
-103.5133914779529
 20
-38.29861662196934
 30
0.0
 10
-104.7186986070507
 20
-38.29294274879845
 30
0.0
 10
-105.9239543970455
 20
-38.28109258054632
 30
0.0
 10
-107.1292143257841
 20
-38.26948687477265
 30
0.0
 10
-108.8958576067708
 20
-38.25247548856738
 30
0.0
 10
-110.6625097798825
 20
-38.23598933114506
 30
0.0
 10
-112.4290368870934
 20
-38.21118245331748
 30
0.0
 10
-113.9047563232174
 20
-38.19045931150496
 30
0.0
 10
-115.3803884811184
 20
-38.16392948944688
 30
0.0
 10
-116.8556105082907
 20
-38.11793702757416
 30
0.0
 10
-119.3928881988332
 20
-38.03883324163128
 30
0.0
 10
-121.9289526582688
 20
-37.90215591076056
 30
0.0
 10
-124.4555751095827
 20
-37.65806405914871
 30
0.0
 10
-126.8397638352652
 20
-37.42773243982259
 30
0.0
 10
-129.215545098672
 20
-37.10175553822855
 30
0.0
 10
-131.5682127499108
 20
-36.65184989843899
 30
0.0
 10
-133.9025189416221
 20
-36.20545555960873
 30
0.0
 10
-136.2140708949512
 20
-35.63705934450193
 30
0.0
 10
-138.4846911511453
 20
-34.93528520827012
 30
0.0
 10
-142.9778874696409
 20
-33.54658581799866
 30
0.0
 10
-147.3108029794396
 20
-31.63560363578749
 30
0.0
 10
-151.3587064701306
 20
-29.24256211507858
 30
0.0
 10
-155.6288643346769
 20
-26.71812814738664
 30
0.0
 10
-159.581853195975
 20
-23.65724564541841
 30
0.0
 10
-163.1102773673017
 20
-20.16849752116156
 30
0.0
 10
-166.6536312230965
 20
-16.66498759215694
 30
0.0
 10
-169.7688198994553
 20
-12.72998355807685
 30
0.0
 10
-172.3463273522317
 20
-8.467073488524562
 30
0.0
 10
-174.8109067772823
 20
-4.390933791265996
 30
0.0
 10
-176.7838875898886
 20
-0.0149916367563605
 30
0.0
 10
-178.2147080089832
 20
4.528650702190328
 30
0.0
 10
-178.8999365729592
 20
6.704628535314069
 30
0.0
 10
-179.4608201027614
 20
8.919068575218853
 30
0.0
 10
-179.9097780281026
 20
11.15580950088142
 30
0.0
 10
-180.3880629748156
 20
13.53865977271184
 30
0.0
 10
-180.7393222240404
 20
15.9468195845907
 30
0.0
 10
-180.9866611661409
 20
18.36464875033471
 30
0.0
 10
-181.2507205646004
 20
20.94592652910001
 30
0.0
 10
-181.3963344310542
 20
23.53822517370079
 30
0.0
 10
-181.481900564859
 20
26.13168215271692
 30
0.0
 10
-181.5285492088703
 20
27.54557391099004
 30
0.0
 10
-181.5573506219606
 20
28.95980994640433
 30
0.0
 10
-181.579299930084
 20
30.37422572806469
 30
0.0
 10
-181.5939979957611
 20
31.32137066479
 30
0.0
 10
-181.6056234849384
 20
32.26859620216358
 30
0.0
 10
-181.6170652664728
 20
33.21581886206626
 30
0.0
 10
-181.6399836731196
 20
35.11314875237965
 30
0.0
 10
-181.6621650097156
 20
37.01046709774316
 30
0.0
 10
-181.6801675833935
 20
38.90782623877723
 30
0.0
  0
ENDBLK
  5
178
330
175
100
AcDbEntity
  8
0
100
AcDbBlockEnd
  0
BLOCK
  5
17C
330
17A
100
AcDbEntity
  8
0
100
AcDbBlockBegin
  2
block 28
 70
     0
 10
0.0
 20
0.0
 30
0.0
  3
block 28
  1

  0
SPLINE
  5
17E
330
17A
100
AcDbEntity
  8
0
 62
   179
420
  1842203
370
    25
100
AcDbSpline
210
0.0
220
0.0
230
1.0
 70
     8
 71
     3
 72
    17
 73
    13
 74
     0
 42
0.0000000001
 43
0.0000000001
 12
1.0
 22
0.0
 32
0.0
 13
1.0
 23
0.0
 33
0.0
 40
0.0
 40
0.0
 40
0.0
 40
0.0
 40
1.0
 40
1.0
 40
1.0
 40
2.0
 40
2.0
 40
2.0
 40
3.0
 40
3.0
 40
3.0
 40
4.0
 40
4.0
 40
4.0
 40
4.0
 10
105.3041660365442
 20
335.8279163046332
 30
0.0
 10
114.7185792932121
 20
335.8280609427446
 30
0.0
 10
124.132991490324
 20
335.8254203048615
 30
0.0
 10
133.5474027087909
 20
335.8201169589543
 30
0.0
 10
142.0622407199493
 20
335.815320362518
 30
0.0
 10
150.5770779305484
 20
335.8083456049752
 30
0.0
 10
159.0919122879155
 20
335.7989290217417
 30
0.0
 10
176.5635033393708
 20
335.7796071319139
 30
0.0
 10
194.0350823778959
 20
335.7500044361233
 30
0.0
 10
211.5066363133844
 20
335.7092790593019
 30
0.0
 10
245.7118395696742
 20
335.6295483268772
 30
0.0
 10
279.9169466099079
 20
335.5071860793614
 30
0.0
 10
314.1218221934247
 20
335.3374962073403
 30
0.0
  0
ENDBLK
  5
17D
330
17A
100
AcDbEntity
  8
0
100
AcDbBlockEnd
  0
BLOCK
  5
181
330
17F
100
AcDbEntity
  8
0
100
AcDbBlockBegin
  2
block 29
 70
     0
 10
0.0
 20
0.0
 30
0.0
  3
block 29
  1

  0
SPLINE
  5
183
330
17F
100
AcDbEntity
  8
0
 62
   179
420
  1842203
370
    25
100
AcDbSpline
210
0.0
220
0.0
230
1.0
 70
     8
 71
     3
 72
    14
 73
    10
 74
     0
 42
0.0000000001
 43
0.0000000001
 12
1.0
 22
0.0
 32
0.0
 13
1.0
 23
0.0
 33
0.0
 40
0.0
 40
0.0
 40
0.0
 40
0.0
 40
1.0
 40
1.0
 40
1.0
 40
2.0
 40
2.0
 40
2.0
 40
3.0
 40
3.0
 40
3.0
 40
3.0
 10
-182.0142807192365
 20
148.5194443965437
 30
0.0
 10
-182.014286158839
 20
166.1574060212861
 30
0.0
 10
-181.9914225485246
 20
184.0435847698962
 30
0.0
 10
-181.9409564121277
 20
202.4016831859326
 30
0.0
 10
-181.9157233589981
 20
211.5807269128701
 30
0.0
 10
-181.8838715926885
 20
220.7474304240572
 30
0.0
 10
-181.8442970832214
 20
230.0073247400485
 30
0.0
 10
-181.8047221285388
 20
239.2673232308647
 30
0.0
 10
-181.7592519223701
 20
248.6091548465215
 30
0.0
 10
-181.6801673497442
 20
258.1310922077778
 30
0.0
  0
ENDBLK
  5
182
330
17F
100
AcDbEntity
  8
0
100
AcDbBlockEnd
  0
BLOCK
  5
186
330
184
100
AcDbEntity
  8
0
100
AcDbBlockBegin
  2
block 30
 70
     0
 10
0.0
 20
0.0
 30
0.0
  3
block 30
  1

  0
SPLINE
  5
188
330
184
100
AcDbEntity
  8
0
 62
   179
420
  1842203
370
    25
100
AcDbSpline
210
0.0
220
0.0
230
1.0
 70
     8
 71
     3
 72
    17
 73
    13
 74
     0
 42
0.0000000001
 43
0.0000000001
 12
1.0
 22
0.0
 32
0.0
 13
1.0
 23
0.0
 33
0.0
 40
0.0
 40
0.0
 40
0.0
 40
0.0
 40
1.0
 40
1.0
 40
1.0
 40
2.0
 40
2.0
 40
2.0
 40
3.0
 40
3.0
 40
3.0
 40
4.0
 40
4.0
 40
4.0
 40
4.0
 10
-103.5133917656721
 20
335.337506337594
 30
0.0
 10
-95.12164262547056
 20
335.3796831813592
 30
0.0
 10
-86.72987425495282
 20
335.4180038498409
 30
0.0
 10
-78.33809538011829
 20
335.4538189863933
 30
0.0
 10
-69.64415294672456
 20
335.4909237218849
 30
0.0
 10
-60.9501992389309
 20
335.5253392431611
 30
0.0
 10
-52.25623479967437
 20
335.5568259142052
 30
0.0
 10
-35.13694216855553
 20
335.6188263444301
 30
0.0
 10
-18.01760792768844
 20
335.6694705734932
 30
0.0
 10
-0.8982493879246699
 20
335.7093440913452
 30
0.0
 10
34.50248976626099
 20
335.791797648313
 30
0.0
 10
69.90333282539851
 20
335.8281943728205
 30
0.0
 10
105.3041659809917
 20
335.8279163046332
 30
0.0
  0
ENDBLK
  5
187
330
184
100
AcDbEntity
  8
0
100
AcDbBlockEnd
  0
BLOCK
  5
18B
330
189
100
AcDbEntity
  8
0
100
AcDbBlockBegin
  2
block 31
 70
     0
 10
0.0
 20
0.0
 30
0.0
  3
block 31
  1

  0
SPLINE
  5
18D
330
189
100
AcDbEntity
  8
0
 62
   179
420
  1842203
370
    25
100
AcDbSpline
210
0.0
220
0.0
230
1.0
 70
     8
 71
     3
 72
    26
 73
    22
 74
     0
 42
0.0000000001
 43
0.0000000001
 12
1.0
 22
0.0
 32
0.0
 13
1.0
 23
0.0
 33
0.0
 40
0.0
 40
0.0
 40
0.0
 40
0.0
 40
1.0
 40
1.0
 40
1.0
 40
2.0
 40
2.0
 40
2.0
 40
3.0
 40
3.0
 40
3.0
 40
4.0
 40
4.0
 40
4.0
 40
5.0
 40
5.0
 40
5.0
 40
6.0
 40
6.0
 40
6.0
 40
7.0
 40
7.0
 40
7.0
 40
7.0
 10
385.5240002630441
 20
-3.753640718414698
 30
0.0
 10
386.2130752015344
 20
-2.339678520163596
 30
0.0
 10
386.8460862856668
 20
-0.8984973515108329
 30
0.0
 10
387.4217481273194
 20
0.5653092038217115
 30
0.0
 10
387.9364260934823
 20
1.87404451722908
 30
0.0
 10
388.4052620178783
 20
3.200865403810508
 30
0.0
 10
388.8272659202242
 20
4.542260398196352
 30
0.0
 10
389.7914990637735
 20
7.607202463847851
 30
0.0
 10
390.5112348966944
 20
10.74823200142628
 30
0.0
 10
391.0177532593343
 20
13.92104245093193
 30
0.0
 10
391.5297544368031
 20
17.12819702977529
 30
0.0
 10
391.8238972105316
 20
20.36782427013909
 30
0.0
 10
391.9875294004342
 20
23.61176252982886
 30
0.0
 10
392.0786855703028
 20
25.4188946547058
 30
0.0
 10
392.1293393749664
 20
27.22736465175871
 30
0.0
 10
392.1642347150404
 20
29.03641024702721
 30
0.0
 10
392.185209040523
 20
30.12376205516416
 30
0.0
 10
392.200490184411
 20
31.21132181408986
 30
0.0
 10
392.2145167987621
 20
32.29882096818229
 30
0.0
 10
392.2429317070755
 20
34.50186070235554
 30
0.0
 10
392.266198269751
 20
36.70465172606558
 30
0.0
 10
392.2884992020095
 20
38.90779662270135
 30
0.0
  0
ENDBLK
  5
18C
330
189
100
AcDbEntity
  8
0
100
AcDbBlockEnd
  0
BLOCK
  5
190
330
18E
100
AcDbEntity
  8
0
100
AcDbBlockBegin
  2
block 32
 70
     0
 10
0.0
 20
0.0
 30
0.0
  3
block 32
  1

  0
SPLINE
  5
192
330
18E
100
AcDbEntity
  8
0
 62
   179
420
  1842203
370
    25
100
AcDbSpline
210
0.0
220
0.0
230
1.0
 70
     8
 71
     3
 72
    29
 73
    25
 74
     0
 42
0.0000000001
 43
0.0000000001
 12
1.0
 22
0.0
 32
0.0
 13
1.0
 23
0.0
 33
0.0
 40
0.0
 40
0.0
 40
0.0
 40
0.0
 40
1.0
 40
1.0
 40
1.0
 40
2.0
 40
2.0
 40
2.0
 40
3.0
 40
3.0
 40
3.0
 40
4.0
 40
4.0
 40
4.0
 40
5.0
 40
5.0
 40
5.0
 40
6.0
 40
6.0
 40
6.0
 40
7.0
 40
7.0
 40
7.0
 40
8.0
 40
8.0
 40
8.0
 40
8.0
 10
314.121343831461
 20
-38.29829417361347
 30
0.0
 10
316.2512112701126
 20
-38.28545449493089
 30
0.0
 10
318.3802400590892
 20
-38.26424684399031
 30
0.0
 10
320.5098948297089
 20
-38.24123354164372
 30
0.0
 10
321.8099845656139
 20
-38.22718461757177
 30
0.0
 10
323.110307588147
 20
-38.21246277548256
 30
0.0
 10
324.4101576147007
 20
-38.18970924611586
 30
0.0
 10
326.1596154867015
 20
-38.15908545086584
 30
0.0
 10
327.9082165617163
 20
-38.11391285224919
 30
0.0
 10
329.6561565071205
 20
-38.03376175556257
 30
0.0
 10
332.9813945484804
 20
-37.88128427688278
 30
0.0
 10
336.3042399403826
 20
-37.60221848194096
 30
0.0
 10
339.5939320552687
 20
-37.09677871534031
 30
0.0
 10
342.5941882579842
 20
-36.63580889145265
 30
0.0
 10
345.5668683737876
 20
-35.98654672121754
 30
0.0
 10
348.4769491460324
 20
-35.12145470304903
 30
0.0
 10
351.4793369843312
 20
-34.22892217298509
 30
0.0
 10
354.4150912227525
 20
-33.10665049695076
 30
0.0
 10
357.2426353745853
 20
-31.75960234139264
 30
0.0
 10
363.3551530392504
 20
-28.84758569234427
 30
0.0
 10
368.9619750645073
 20
-24.88512643558959
 30
0.0
 10
373.7722054195816
 20
-20.11891991508659
 30
0.0
 10
378.5658074597159
 20
-15.36918952510612
 30
0.0
 10
382.5683157295293
 20
-9.821259157574628
 30
0.0
 10
385.5240002630441
 20
-3.753640718414698
 30
0.0
  0
ENDBLK
  5
191
330
18E
100
AcDbEntity
  8
0
100
AcDbBlockEnd
  0
BLOCK
  5
195
330
193
100
AcDbEntity
  8
0
100
AcDbBlockBegin
  2
block 33
 70
     0
 10
0.0
 20
0.0
 30
0.0
  3
block 33
  1

  0
SPLINE
  5
197
330
193
100
AcDbEntity
  8
0
 62
   179
420
  1842203
370
    25
100
AcDbSpline
210
0.0
220
0.0
230
1.0
 70
     8
 71
     3
 72
    17
 73
    13
 74
     0
 42
0.0000000001
 43
0.0000000001
 12
1.0
 22
0.0
 32
0.0
 13
1.0
 23
0.0
 33
0.0
 40
0.0
 40
0.0
 40
0.0
 40
0.0
 40
1.0
 40
1.0
 40
1.0
 40
2.0
 40
2.0
 40
2.0
 40
3.0
 40
3.0
 40
3.0
 40
4.0
 40
4.0
 40
4.0
 40
4.0
 10
314.121343831461
 20
-38.29829417361347
 30
0.0
 10
305.7296244668071
 20
-38.34048645426596
 30
0.0
 10
297.3378858572262
 20
-38.37882090612277
 30
0.0
 10
288.9461367385344
 20
-38.4146496797622
 30
0.0
 10
280.2522216858368
 20
-38.45176855808633
 30
0.0
 10
271.5582953536025
 20
-38.48619806304536
 30
0.0
 10
262.8643582842288
 20
-38.51769840968159
 30
0.0
 10
245.7451042054308
 20
-38.57972582412047
 30
0.0
 10
228.6258084948522
 20
-38.63039582248299
 30
0.0
 10
211.5064884691926
 20
-38.67029500017323
 30
0.0
 10
176.1057803025855
 20
-38.75280173193106
 30
0.0
 10
140.7049681615312
 20
-38.7892510365128
 30
0.0
 10
105.3041658698237
 20
-38.78902749000085
 30
0.0
  0
ENDBLK
  5
196
330
193
100
AcDbEntity
  8
0
100
AcDbBlockEnd
  0
BLOCK
  5
19A
330
198
100
AcDbEntity
  8
0
100
AcDbBlockBegin
  2
block 34
 70
     0
 10
0.0
 20
0.0
 30
0.0
  3
block 34
  1

  0
SPLINE
  5
19C
330
198
100
AcDbEntity
  8
0
 62
   179
420
  1842203
370
    25
100
AcDbSpline
210
0.0
220
0.0
230
1.0
 70
     8
 71
     3
 72
    17
 73
    13
 74
     0
 42
0.0000000001
 43
0.0000000001
 12
1.0
 22
0.0
 32
0.0
 13
1.0
 23
0.0
 33
0.0
 40
0.0
 40
0.0
 40
0.0
 40
0.0
 40
1.0
 40
1.0
 40
1.0
 40
2.0
 40
2.0
 40
2.0
 40
3.0
 40
3.0
 40
3.0
 40
4.0
 40
4.0
 40
4.0
 40
4.0
 10
105.3041658142263
 20
-38.78902749000085
 30
0.0
 10
95.88975607728555
 20
-38.78917247788049
 30
0.0
 10
86.47534739947136
 20
-38.78653225137275
 30
0.0
 10
77.06093970035984
 20
-38.78122928691774
 30
0.0
 10
68.5461072371773
 20
-38.77643303681089
 30
0.0
 10
60.03127557460637
 20
-38.76945860232185
 30
0.0
 10
51.51644676508714
 20
-38.76004235559018
 30
0.0
 10
34.04486380570706
 20
-38.74072115261269
 30
0.0
 10
16.57329285854157
 20
-38.71111919643032
 30
0.0
 10
-0.89825298586926
 20
-38.67039454807396
 30
0.0
 10
-35.10344044346909
 20
-38.5906652417227
 30
0.0
 10
-69.30853168608722
 20
-38.46830437745398
 30
0.0
 10
-103.5133914779529
 20
-38.29861662196934
 30
0.0
  0
ENDBLK
  5
19B
330
198
100
AcDbEntity
  8
0
100
AcDbBlockEnd
  0
BLOCK
  5
19F
330
19D
100
AcDbEntity
  8
0
100
AcDbBlockBegin
  2
block 35
 70
     0
 10
0.0
 20
0.0
 30
0.0
  3
block 35
  1

  0
SPLINE
  5
1A1
330
19D
100
AcDbEntity
  8
0
 62
   179
420
  1842203
370
    25
100
AcDbSpline
210
0.0
220
0.0
230
1.0
 70
     8
 71
     3
 72
    14
 73
    10
 74
     0
 42
0.0000000001
 43
0.0000000001
 12
1.0
 22
0.0
 32
0.0
 13
1.0
 23
0.0
 33
0.0
 40
0.0
 40
0.0
 40
0.0
 40
0.0
 40
1.0
 40
1.0
 40
1.0
 40
2.0
 40
2.0
 40
2.0
 40
3.0
 40
3.0
 40
3.0
 40
3.0
 10
392.2884297930005
 20
258.1310638729728
 30
0.0
 10
392.3658588536651
 20
248.8093449642732
 30
0.0
 10
392.4073782752539
 20
240.4271623447263
 30
0.0
 10
392.4475495072832
 20
231.1748591201529
 30
0.0
 10
392.4877207393183
 20
221.9225558955794
 30
0.0
 10
392.5204037154973
 20
212.6909051658951
 30
0.0
 10
392.5463108950715
 20
203.4609179698587
 30
0.0
 10
392.5981252418674
 20
185.0009479789828
 30
0.0
 10
392.6226045166035
 20
166.7198332593256
 30
0.0
 10
392.6226125692077
 20
148.519444408059
 30
0.0
  0
ENDBLK
  5
1A0
330
19D
100
AcDbEntity
  8
0
100
AcDbBlockEnd
  0
BLOCK
  5
1A4
330
1A2
100
AcDbEntity
  8
0
100
AcDbBlockBegin
  2
block 36
 70
     0
 10
0.0
 20
0.0
 30
0.0
  3
block 36
  1

  0
SPLINE
  5
1A6
330
1A2
100
AcDbEntity
  8
0
 62
   179
420
  1842203
370
    25
100
AcDbSpline
210
0.0
220
0.0
230
1.0
 70
     8
 71
     3
 72
    29
 73
    25
 74
     0
 42
0.0000000001
 43
0.0000000001
 12
1.0
 22
0.0
 32
0.0
 13
1.0
 23
0.0
 33
0.0
 40
0.0
 40
0.0
 40
0.0
 40
0.0
 40
1.0
 40
1.0
 40
1.0
 40
2.0
 40
2.0
 40
2.0
 40
3.0
 40
3.0
 40
3.0
 40
4.0
 40
4.0
 40
4.0
 40
5.0
 40
5.0
 40
5.0
 40
6.0
 40
6.0
 40
6.0
 40
7.0
 40
7.0
 40
7.0
 40
8.0
 40
8.0
 40
8.0
 40
8.0
 10
314.1218221934247
 20
335.3374962073403
 30
0.0
 10
316.1343053125893
 20
335.3259427584427
 30
0.0
 10
318.146006943616
 20
335.3053297353034
 30
0.0
 10
320.158256233954
 20
335.284116302066
 30
0.0
 10
321.5232701601257
 20
335.2697261209267
 30
0.0
 10
322.8885360982105
 20
335.2550596539712
 30
0.0
 10
324.2533429269338
 20
335.2318235502997
 30
0.0
 10
326.1246783841842
 20
335.1999636974826
 30
0.0
 10
327.9951507097271
 20
335.1519928137475
 30
0.0
 10
329.8647155203946
 20
335.0632652277693
 30
0.0
 10
333.1967659069927
 20
334.9051296095333
 30
0.0
 10
336.5259336176504
 20
334.6175323506051
 30
0.0
 10
339.8209944771584
 20
334.1007524687881
 30
0.0
 10
342.956129659183
 20
333.6090544826419
 30
0.0
 10
346.0603883964318
 20
332.9098807442152
 30
0.0
 10
349.0931421993774
 20
331.9739529272497
 30
0.0
 10
352.091742217688
 20
331.0485651933784
 30
0.0
 10
355.0204387589183
 20
329.8917258336194
 30
0.0
 10
357.8382180681243
 20
328.5107604823961
 30
0.0
 10
363.6982408557636
 20
325.6388221440482
 30
0.0
 10
369.0785482206834
 20
321.7975421372991
 30
0.0
 10
373.7202322106529
 20
317.2091188267171
 30
0.0
 10
378.5365520796501
 20
312.4480634843212
 30
0.0
 10
382.5576240099631
 20
306.8825871170461
 30
0.0
 10
385.5237183399725
 20
300.7931292360422
 30
0.0
  0
ENDBLK
  5
1A5
330
1A2
100
AcDbEntity
  8
0
100
AcDbBlockEnd
  0
BLOCK
  5
1A9
330
1A7
100
AcDbEntity
  8
0
100
AcDbBlockBegin
  2
block 37
 70
     0
 10
0.0
 20
0.0
 30
0.0
  3
block 37
  1

  0
SPLINE
  5
1AB
330
1A7
100
AcDbEntity
  8
0
 62
   179
420
  1842203
370
    25
100
AcDbSpline
210
0.0
220
0.0
230
1.0
 70
     8
 71
     3
 72
    26
 73
    22
 74
     0
 42
0.0000000001
 43
0.0000000001
 12
1.0
 22
0.0
 32
0.0
 13
1.0
 23
0.0
 33
0.0
 40
0.0
 40
0.0
 40
0.0
 40
0.0
 40
1.0
 40
1.0
 40
1.0
 40
2.0
 40
2.0
 40
2.0
 40
3.0
 40
3.0
 40
3.0
 40
4.0
 40
4.0
 40
4.0
 40
5.0
 40
5.0
 40
5.0
 40
6.0
 40
6.0
 40
6.0
 40
7.0
 40
7.0
 40
7.0
 40
7.0
 10
385.5237183399725
 20
300.7931292360422
 30
0.0
 10
386.2128493554176
 20
299.3791294087679
 30
0.0
 10
386.8458804971265
 20
297.9378967437403
 30
0.0
 10
387.4215635656508
 20
296.4740376509776
 30
0.0
 10
387.9363178494411
 20
295.1651095617779
 30
0.0
 10
388.4052208117828
 20
293.8380910372094
 30
0.0
 10
388.8272789650923
 20
292.4964957925607
 30
0.0
 10
389.7936254304622
 20
289.4247725893664
 30
0.0
 10
390.5143977687229
 20
286.2766339757575
 30
0.0
 10
391.0211024074889
 20
283.0966627507578
 30
0.0
 10
391.5334139314248
 20
279.8815038994342
 30
0.0
 10
391.8268940590236
 20
276.6338040584341
 30
0.0
 10
391.9897743108752
 20
273.3818622650458
 30
0.0
 10
392.0802664405076
 20
271.5751660267462
 30
0.0
 10
392.130447203925
 20
269.7671604541515
 30
0.0
 10
392.1650500562131
 20
267.9585775295291
 30
0.0
 10
392.1858428115133
 20
266.8718052053899
 30
0.0
 10
392.2010107354152
 20
265.7848244124845
 30
0.0
 10
392.2149760355849
 20
264.6979069046025
 30
0.0
 10
392.2431014598999
 20
262.5089087641895
 30
0.0
 10
392.2663490460839
 20
260.3201673076064
 30
0.0
 10
392.2884297930005
 20
258.1310638729728
 30
0.0
  0
ENDBLK
  5
1AA
330
1A7
100
AcDbEntity
  8
0
100
AcDbBlockEnd
  0
BLOCK
  5
1AE
330
1AC
100
AcDbEntity
  8
0
100
AcDbBlockBegin
  2
block 38
 70
     0
 10
0.0
 20
0.0
 30
0.0
  3
block 38
  1

  0
SPLINE
  5
1B0
330
1AC
100
AcDbEntity
  8
0
 62
   179
420
  1842203
370
    25
100
AcDbSpline
210
0.0
220
0.0
230
1.0
 70
     8
 71
     3
 72
    59
 73
    55
 74
     0
 42
0.0000000001
 43
0.0000000001
 12
1.0
 22
0.0
 32
0.0
 13
1.0
 23
0.0
 33
0.0
 40
0.0
 40
0.0
 40
0.0
 40
0.0
 40
1.0
 40
1.0
 40
1.0
 40
2.0
 40
2.0
 40
2.0
 40
3.0
 40
3.0
 40
3.0
 40
4.0
 40
4.0
 40
4.0
 40
5.0
 40
5.0
 40
5.0
 40
6.0
 40
6.0
 40
6.0
 40
7.0
 40
7.0
 40
7.0
 40
8.0
 40
8.0
 40
8.0
 40
9.0
 40
9.0
 40
9.0
 40
10.0
 40
10.0
 40
10.0
 40
11.0
 40
11.0
 40
11.0
 40
12.0
 40
12.0
 40
12.0
 40
13.0
 40
13.0
 40
13.0
 40
14.0
 40
14.0
 40
14.0
 40
15.0
 40
15.0
 40
15.0
 40
16.0
 40
16.0
 40
16.0
 40
17.0
 40
17.0
 40
17.0
 40
18.0
 40
18.0
 40
18.0
 40
18.0
 10
-103.5133917656721
 20
335.337506337594
 30
0.0
 10
-104.5719080235421
 20
335.3326134792425
 30
0.0
 10
-105.6303826353596
 20
335.3225318402879
 30
0.0
 10
-106.6888582731599
 20
335.3125022374226
 30
0.0
 10
-108.408104604354
 20
335.2962114912698
 30
0.0
 10
-110.1273536423273
 20
335.2800580288485
 30
0.0
 10
-111.8465152404457
 20
335.257830459296
 30
0.0
 10
-113.3385129501845
 20
335.2385399615951
 30
0.0
 10
-114.8304448013472
 20
335.2146745243542
 30
0.0
 10
-116.3220394471238
 20
335.1725262916204
 30
0.0
 10
-118.8286198279507
 20
335.1016974417419
 30
0.0
 10
-121.3342479474607
 20
334.9792383401779
 30
0.0
 10
-123.8316909087782
 20
334.7552413465324
 30
0.0
 10
-126.1707789538677
 20
334.5454472899396
 30
0.0
 10
-128.5026869226498
 20
334.2465835054899
 30
0.0
 10
-130.8140534309901
 20
333.8306776342296
 30
0.0
 10
-133.198824438363
 20
333.4015634024571
 30
0.0
 10
-135.561728554152
 20
332.847854980798
 30
0.0
 10
-137.884101899334
 20
332.1567398378189
 30
0.0
 10
-140.357245302418
 20
331.4207570294686
 30
0.0
 10
-142.7844245396504
 20
330.52894729671
 30
0.0
 10
-145.1436251277835
 20
329.4834656647216
 30
0.0
 10
-147.2015798018077
 20
328.5714814010842
 30
0.0
 10
-149.2078078196418
 20
327.5425643416016
 30
0.0
 10
-151.1495042524216
 20
326.4040435220235
 30
0.0
 10
-155.5510514477382
 20
323.8231801926149
 30
0.0
 10
-159.6209941602506
 20
320.6791027697371
 30
0.0
 10
-163.2390205925862
 20
317.0808292098899
 30
0.0
 10
-166.7148469925741
 20
313.623979331203
 30
0.0
 10
-169.7735825342349
 20
309.7479344269676
 30
0.0
 10
-172.3156881234505
 20
305.5566504559823
 30
0.0
 10
-173.5536301164312
 20
303.5155997403114
 30
0.0
 10
-174.6690560553602
 20
301.3997917513407
 30
0.0
 10
-175.6525019241705
 20
299.2246270044478
 30
0.0
 10
-176.6431274014554
 20
297.0335825515639
 30
0.0
 10
-177.4998387437334
 20
294.782311513807
 30
0.0
 10
-178.2207608455052
 20
292.4884525327646
 30
0.0
 10
-178.9093091995207
 20
290.2976016463098
 30
0.0
 10
-179.4739899978067
 20
288.0679018465113
 30
0.0
 10
-179.924020718009
 20
285.8158770159576
 30
0.0
 10
-180.4072825397063
 20
283.3975585028826
 30
0.0
 10
-180.7583371921065
 20
280.9534961859657
 30
0.0
 10
-181.0041934240463
 20
278.4997033628816
 30
0.0
 10
-181.2535347390788
 20
276.0111273178173
 30
0.0
 10
-181.3946740592125
 20
273.5125429458841
 30
0.0
 10
-181.478568059767
 20
271.0127757248277
 30
0.0
 10
-181.5275464403634
 20
269.5533799451021
 30
0.0
 10
-181.5570134844855
 20
268.0935810063492
 30
0.0
 10
-181.579597328105
 20
266.6336010409688
 30
0.0
 10
-181.595847389091
 20
265.5830817461114
 30
0.0
 10
-181.6085337208816
 20
264.532468725977
 30
0.0
 10
-181.6210743580558
 20
263.4818634748859
 30
0.0
 10
-181.642364363942
 20
261.6982705305456
 30
0.0
 10
-181.6632344601674
 20
259.914699977538
 30
0.0
 10
-181.6801673497442
 20
258.1310922077778
 30
0.0
  0
ENDBLK
  5
1AF
330
1AC
100
AcDbEntity
  8
0
100
AcDbBlockEnd
  0
BLOCK
  5
1B3
330
1B1
100
AcDbEntity
  8
0
100
AcDbBlockBegin
  2
block 39
 70
     0
 10
0.0
 20
0.0
 30
0.0
  3
block 39
  1

  0
SPLINE
  5
1B5
330
1B1
100
AcDbEntity
  8
0
 62
   179
420
  1842203
370
    25
100
AcDbSpline
210
0.0
220
0.0
230
1.0
 70
     8
 71
     3
 72
    14
 73
    10
 74
     0
 42
0.0000000001
 43
0.0000000001
 12
1.0
 22
0.0
 32
0.0
 13
1.0
 23
0.0
 33
0.0
 40
0.0
 40
0.0
 40
0.0
 40
0.0
 40
1.0
 40
1.0
 40
1.0
 40
2.0
 40
2.0
 40
2.0
 40
3.0
 40
3.0
 40
3.0
 40
3.0
 10
-181.6801675833935
 20
38.90782623877723
 30
0.0
 10
-181.7563662287114
 20
48.08228591059089
 30
0.0
 10
-181.7968121876215
 20
55.99392672841941
 30
0.0
 10
-181.8416031282574
 20
66.40889544675954
 30
0.0
 10
-181.8863940688971
 20
76.82386416510033
 30
0.0
 10
-181.9143310130148
 20
85.04587569746762
 30
0.0
 10
-181.9395357546205
 20
94.12278681639788
 30
0.0
 10
-181.9899452258219
 20
112.2766047260549
 30
0.0
 10
-182.0142846542277
 20
130.5890015548852
 30
0.0
 10
-182.0142807192365
 20
148.5194443965437
 30
0.0
  0
ENDBLK
  5
1B4
330
1B1
100
AcDbEntity
  8
0
100
AcDbBlockEnd
  0
BLOCK
  5
1B8
330
1B6
100
AcDbEntity
  8
0
100
AcDbBlockBegin
  2
block 40
 70
     0
 10
0.0
 20
0.0
 30
0.0
  3
block 40
  1

  0
SPLINE
  5
1BA
330
1B6
100
AcDbEntity
  8
0
 62
   179
420
  1842203
370
    25
100
AcDbSpline
210
0.0
220
0.0
230
1.0
 70
    11
 71
     3
 72
    17
 73
    13
 74
     0
 42
0.0000000001
 43
0.0000000001
 12
1.0
 22
0.0
 32
0.0
 13
1.0
 23
0.0
 33
0.0
 40
0.0
 40
0.0
 40
0.0
 40
0.0
 40
1.0
 40
1.0
 40
1.0
 40
2.0
 40
2.0
 40
2.0
 40
3.0
 40
3.0
 40
3.0
 40
4.0
 40
4.0
 40
4.0
 40
4.0
 10
131.7518244168979
 20
147.7946315258916
 30
0.0
 10
131.7518244168979
 20
162.0358288940022
 30
0.0
 10
120.2085738740431
 20
173.5605620045365
 30
0.0
 10
105.9828794725266
 20
173.5605620045365
 30
0.0
 10
91.74857231179058
 20
173.5605620045365
 30
0.0
 10
80.19800092360012
 20
162.0358288940022
 30
0.0
 10
80.19800092360012
 20
147.7946315258916
 30
0.0
 10
80.19800092360012
 20
133.5499890540936
 30
0.0
 10
91.74857231179058
 20
122.0183657361844
 30
0.0
 10
105.9828794725266
 20
122.0183657361844
 30
0.0
 10
120.2085738740431
 20
122.0183657361844
 30
0.0
 10
131.7518244168979
 20
133.5499890540936
 30
0.0
 10
131.7518244168979
 20
147.7946315258916
 30
0.0
  0
ENDBLK
  5
1B9
330
1B6
100
AcDbEntity
  8
0
100
AcDbBlockEnd
  0
BLOCK
  5
1BD
330
1BB
100
AcDbEntity
  8
0
100
AcDbBlockBegin
  2
block 41
 70
     0
 10
0.0
 20
0.0
 30
0.0
  3
block 41
  1

  0
SPLINE
  5
1BF
330
1BB
100
AcDbEntity
  8
0
 62
   179
420
  1842203
370
    25
100
AcDbSpline
210
0.0
220
0.0
230
1.0
 70
    11
 71
     3
 72
    17
 73
    13
 74
     0
 42
0.0000000001
 43
0.0000000001
 12
1.0
 22
0.0
 32
0.0
 13
1.0
 23
0.0
 33
0.0
 40
0.0
 40
0.0
 40
0.0
 40
0.0
 40
1.0
 40
1.0
 40
1.0
 40
2.0
 40
2.0
 40
2.0
 40
3.0
 40
3.0
 40
3.0
 40
4.0
 40
4.0
 40
4.0
 40
4.0
 10
142.9333390725675
 20
147.7946315258916
 30
0.0
 10
142.9333390725675
 20
168.2128998056498
 30
0.0
 10
126.3908124412218
 20
184.7390621944798
 30
0.0
 10
105.9889084039793
 20
184.7390621944798
 30
0.0
 10
85.58700436673716
 20
184.7390621944798
 30
0.0
 10
69.03069732064166
 20
168.2128998056498
 30
0.0
 10
69.03069732064166
 20
147.7946315258916
 30
0.0
 10
69.03069732064166
 20
127.3755019702119
 30
0.0
 10
85.58700436673716
 20
110.8458944776944
 30
0.0
 10
105.9889084039793
 20
110.8458944776944
 30
0.0
 10
126.3908124412218
 20
110.8458944776944
 30
0.0
 10
142.9333390725675
 20
127.3755019702119
 30
0.0
 10
142.9333390725675
 20
147.7946315258916
 30
0.0
  0
ENDBLK
  5
1BE
330
1BB
100
AcDbEntity
  8
0
100
AcDbBlockEnd
  0
BLOCK
  5
1C2
330
1C0
100
AcDbEntity
  8
0
100
AcDbBlockBegin
  2
block 42
 70
     0
 10
0.0
 20
0.0
 30
0.0
  3
block 42
  1

  0
POLYLINE
  5
1C4
330
1C0
100
AcDbEntity
  8
0
 62
     4
420
    65535
370
    25
100
AcDb2dPolyline
 66
     1
 10
0.0
 20
0.0
 30
0.0
  0
VERTEX
  5
1C5
330
1C4
100
AcDbEntity
  8
0
 62
     4
420
    65535
370
    25
100
AcDbVertex
100
AcDb2dVertex
 10
48.55988527384653
 20
147.7946351945877
 30
0.0
  0
VERTEX
  5
1C6
330
1C4
100
AcDbEntity
  8
0
 62
     4
420
    65535
370
    25
100
AcDbVertex
100
AcDb2dVertex
 10
59.80996838904887
 20
147.7946351945877
 30
0.0
  0
SEQEND
  5
1C7
330
1C4
100
AcDbEntity
  8
0
 62
     4
420
    65535
370
    25
  0
ENDBLK
  5
1C3
330
1C0
100
AcDbEntity
  8
0
100
AcDbBlockEnd
  0
BLOCK
  5
1CA
330
1C8
100
AcDbEntity
  8
0
100
AcDbBlockBegin
  2
block 43
 70
     0
 10
0.0
 20
0.0
 30
0.0
  3
block 43
  1

  0
POLYLINE
  5
1CC
330
1C8
100
AcDbEntity
  8
0
  6
AI-Linetype-1
 62
     4
420
    65535
370
    25
100
AcDb2dPolyline
 66
     1
 10
0.0
 20
0.0
 30
0.0
  0
VERTEX
  5
1CD
330
1CC
100
AcDbEntity
  8
0
  6
AI-Linetype-1
 62
     4
420
    65535
370
    25
100
AcDbVertex
100
AcDb2dVertex
 10
64.20728826642176
 20
147.7946351945877
 30
0.0
  0
VERTEX
  5
1CE
330
1CC
100
AcDbEntity
  8
0
  6
AI-Linetype-1
 62
     4
420
    65535
370
    25
100
AcDbVertex
100
AcDb2dVertex
 10
70.8032680824811
 20
147.7946351945877
 30
0.0
  0
SEQEND
  5
1D0
330
1CC
100
AcDbEntity
  8
0
  6
AI-Linetype-1
 62
     4
420
    65535
370
    25
  0
ENDBLK
  5
1CB
330
1C8
100
AcDbEntity
  8
0
100
AcDbBlockEnd
  0
BLOCK
  5
1D3
330
1D1
100
AcDbEntity
  8
0
100
AcDbBlockBegin
  2
block 44
 70
     0
 10
0.0
 20
0.0
 30
0.0
  3
block 44
  1

  0
POLYLINE
  5
1D5
330
1D1
100
AcDbEntity
  8
0
  6
AI-Linetype-2
 62
     4
420
    65535
370
    25
100
AcDb2dPolyline
 66
     1
 10
0.0
 20
0.0
 30
0.0
  0
VERTEX
  5
1D6
330
1D5
100
AcDbEntity
  8
0
  6
AI-Linetype-2
 62
     4
420
    65535
370
    25
100
AcDbVertex
100
AcDb2dVertex
 10
73.00192802116754
 20
147.7946351945877
 30
0.0
  0
VERTEX
  5
1D7
330
1D5
100
AcDbEntity
  8
0
  6
AI-Linetype-2
 62
     4
420
    65535
370
    25
100
AcDbVertex
100
AcDb2dVertex
 10
149.9554134484353
 20
147.7946351945877
 30
0.0
  0
SEQEND
  5
1D9
330
1D5
100
AcDbEntity
  8
0
  6
AI-Linetype-2
 62
     4
420
    65535
370
    25
  0
ENDBLK
  5
1D4
330
1D1
100
AcDbEntity
  8
0
100
AcDbBlockEnd
  0
BLOCK
  5
1DC
330
1DA
100
AcDbEntity
  8
0
100
AcDbBlockBegin
  2
block 45
 70
     0
 10
0.0
 20
0.0
 30
0.0
  3
block 45
  1

  0
POLYLINE
  5
1DE
330
1DA
100
AcDbEntity
  8
0
 62
     4
420
    65535
370
    25
100
AcDb2dPolyline
 66
     1
 10
0.0
 20
0.0
 30
0.0
  0
VERTEX
  5
1DF
330
1DE
100
AcDbEntity
  8
0
 62
     4
420
    65535
370
    25
100
AcDbVertex
100
AcDb2dVertex
 10
152.1540733871217
 20
147.7946351945877
 30
0.0
  0
VERTEX
  5
1E0
330
1DE
100
AcDbEntity
  8
0
 62
     4
420
    65535
370
    25
100
AcDbVertex
100
AcDb2dVertex
 10
163.4041511193624
 20
147.7946351945877
 30
0.0
  0
SEQEND
  5
1E1
330
1DE
100
AcDbEntity
  8
0
 62
     4
420
    65535
370
    25
  0
ENDBLK
  5
1DD
330
1DA
100
AcDbEntity
  8
0
100
AcDbBlockEnd
  0
BLOCK
  5
1E4
330
1E2
100
AcDbEntity
  8
0
100
AcDbBlockBegin
  2
block 46
 70
     0
 10
0.0
 20
0.0
 30
0.0
  3
block 46
  1

  0
POLYLINE
  5
1E6
330
1E2
100
AcDbEntity
  8
0
 62
     4
420
    65535
370
    25
100
AcDb2dPolyline
 66
     1
 10
0.0
 20
0.0
 30
0.0
  0
VERTEX
  5
1E7
330
1E6
100
AcDbEntity
  8
0
 62
     4
420
    65535
370
    25
100
AcDbVertex
100
AcDb2dVertex
 10
105.9820208880853
 20
204.4002777958605
 30
0.0
  0
VERTEX
  5
1E8
330
1E6
100
AcDbEntity
  8
0
 62
     4
420
    65535
370
    25
100
AcDbVertex
100
AcDb2dVertex
 10
105.9820208880853
 20
193.1502000636199
 30
0.0
  0
SEQEND
  5
1E9
330
1E6
100
AcDbEntity
  8
0
 62
     4
420
    65535
370
    25
  0
ENDBLK
  5
1E5
330
1E2
100
AcDbEntity
  8
0
100
AcDbBlockEnd
  0
BLOCK
  5
1EC
330
1EA
100
AcDbEntity
  8
0
100
AcDbBlockBegin
  2
block 47
 70
     0
 10
0.0
 20
0.0
 30
0.0
  3
block 47
  1

  0
POLYLINE
  5
1EE
330
1EA
100
AcDbEntity
  8
0
  6
AI-Linetype-3
 62
     4
420
    65535
370
    25
100
AcDb2dPolyline
 66
     1
 10
0.0
 20
0.0
 30
0.0
  0
VERTEX
  5
1EF
330
1EE
100
AcDbEntity
  8
0
  6
AI-Linetype-3
 62
     4
420
    65535
370
    25
100
AcDbVertex
100
AcDb2dVertex
 10
105.9820208880853
 20
188.7620635188999
 30
0.0
  0
VERTEX
  5
1F0
330
1EE
100
AcDbEntity
  8
0
  6
AI-Linetype-3
 62
     4
420
    65535
370
    25
100
AcDbVertex
100
AcDb2dVertex
 10
105.9820208880853
 20
182.1798640847815
 30
0.0
  0
SEQEND
  5
1F2
330
1EE
100
AcDbEntity
  8
0
  6
AI-Linetype-3
 62
     4
420
    65535
370
    25
  0
ENDBLK
  5
1ED
330
1EA
100
AcDbEntity
  8
0
100
AcDbBlockEnd
  0
BLOCK
  5
1F5
330
1F3
100
AcDbEntity
  8
0
100
AcDbBlockBegin
  2
block 48
 70
     0
 10
0.0
 20
0.0
 30
0.0
  3
block 48
  1

  0
POLYLINE
  5
1F7
330
1F3
100
AcDbEntity
  8
0
  6
AI-Linetype-4
 62
     4
420
    65535
370
    25
100
AcDb2dPolyline
 66
     1
 10
0.0
 20
0.0
 30
0.0
  0
VERTEX
  5
1F8
330
1F7
100
AcDbEntity
  8
0
  6
AI-Linetype-4
 62
     4
420
    65535
370
    25
100
AcDbVertex
100
AcDb2dVertex
 10
105.9820208880853
 20
179.9858011953832
 30
0.0
  0
VERTEX
  5
1F9
330
1F7
100
AcDbEntity
  8
0
  6
AI-Linetype-4
 62
     4
420
    65535
370
    25
100
AcDbVertex
100
AcDb2dVertex
 10
105.9820208880853
 20
103.1930833021194
 30
0.0
  0
SEQEND
  5
1FB
330
1F7
100
AcDbEntity
  8
0
  6
AI-Linetype-4
 62
     4
420
    65535
370
    25
  0
ENDBLK
  5
1F6
330
1F3
100
AcDbEntity
  8
0
100
AcDbBlockEnd
  0
BLOCK
  5
1FE
330
1FC
100
AcDbEntity
  8
0
100
AcDbBlockBegin
  2
block 49
 70
     0
 10
0.0
 20
0.0
 30
0.0
  3
block 49
  1

  0
POLYLINE
  5
200
330
1FC
100
AcDbEntity
  8
0
 62
     4
420
    65535
370
    25
100
AcDb2dPolyline
 66
     1
 10
0.0
 20
0.0
 30
0.0
  0
VERTEX
  5
201
330
200
100
AcDbEntity
  8
0
 62
     4
420
    65535
370
    25
100
AcDbVertex
100
AcDb2dVertex
 10
105.9820208880853
 20
100.9990204127211
 30
0.0
  0
VERTEX
  5
202
330
200
100
AcDbEntity
  8
0
 62
     4
420
    65535
370
    25
100
AcDbVertex
100
AcDb2dVertex
 10
105.9820208880853
 20
89.74893191455702
 30
0.0
  0
SEQEND
  5
203
330
200
100
AcDbEntity
  8
0
 62
     4
420
    65535
370
    25
  0
ENDBLK
  5
1FF
330
1FC
100
AcDbEntity
  8
0
100
AcDbBlockEnd
  0
ENDSEC
  0
SECTION
  2
ENTITIES
  0
INSERT
  5
41
330
1F
100
AcDbEntity
  8
0
100
AcDbBlockReference
  2
block 2
 10
0.0
 20
0.0
 30
0.0
  0
INSERT
  5
5D
330
1F
100
AcDbEntity
  8
0
100
AcDbBlockReference
  2
block 3
 10
0.0
 20
0.0
 30
0.0
  0
INSERT
  5
79
330
1F
100
AcDbEntity
  8
0
100
AcDbBlockReference
  2
block 4
 10
0.0
 20
0.0
 30
0.0
  0
INSERT
  5
95
330
1F
100
AcDbEntity
  8
0
100
AcDbBlockReference
  2
block 5
 10
0.0
 20
0.0
 30
0.0
  0
INSERT
  5
B1
330
1F
100
AcDbEntity
  8
0
100
AcDbBlockReference
  2
block 6
 10
0.0
 20
0.0
 30
0.0
  0
INSERT
  5
B6
330
1F
100
AcDbEntity
  8
0
100
AcDbBlockReference
  2
block 7
 10
0.0
 20
0.0
 30
0.0
  0
INSERT
  5
BB
330
1F
100
AcDbEntity
  8
0
100
AcDbBlockReference
  2
block 8
 10
0.0
 20
0.0
 30
0.0
  0
INSERT
  5
C0
330
1F
100
AcDbEntity
  8
0
100
AcDbBlockReference
  2
block 9
 10
0.0
 20
0.0
 30
0.0
  0
INSERT
  5
C5
330
1F
100
AcDbEntity
  8
0
100
AcDbBlockReference
  2
block 10
 10
0.0
 20
0.0
 30
0.0
  0
INSERT
  5
CA
330
1F
100
AcDbEntity
  8
0
100
AcDbBlockReference
  2
block 11
 10
0.0
 20
0.0
 30
0.0
  0
INSERT
  5
CF
330
1F
100
AcDbEntity
  8
0
100
AcDbBlockReference
  2
block 12
 10
0.0
 20
0.0
 30
0.0
  0
INSERT
  5
D4
330
1F
100
AcDbEntity
  8
0
100
AcDbBlockReference
  2
block 13
 10
0.0
 20
0.0
 30
0.0
  0
INSERT
  5
D9
330
1F
100
AcDbEntity
  8
0
100
AcDbBlockReference
  2
block 14
 10
0.0
 20
0.0
 30
0.0
  0
INSERT
  5
DE
330
1F
100
AcDbEntity
  8
0
100
AcDbBlockReference
  2
block 15
 10
0.0
 20
0.0
 30
0.0
  0
INSERT
  5
E3
330
1F
100
AcDbEntity
  8
0
100
AcDbBlockReference
  2
block 16
 10
0.0
 20
0.0
 30
0.0
  0
INSERT
  5
E8
330
1F
100
AcDbEntity
  8
0
100
AcDbBlockReference
  2
block 17
 10
0.0
 20
0.0
 30
0.0
  0
INSERT
  5
ED
330
1F
100
AcDbEntity
  8
0
100
AcDbBlockReference
  2
block 18
 10
0.0
 20
0.0
 30
0.0
  0
INSERT
  5
F2
330
1F
100
AcDbEntity
  8
0
100
AcDbBlockReference
  2
block 19
 10
0.0
 20
0.0
 30
0.0
  0
INSERT
  5
F7
330
1F
100
AcDbEntity
  8
0
100
AcDbBlockReference
  2
block 20
 10
0.0
 20
0.0
 30
0.0
  0
INSERT
  5
FC
330
1F
100
AcDbEntity
  8
0
100
AcDbBlockReference
  2
block 21
 10
0.0
 20
0.0
 30
0.0
  0
INSERT
  5
101
330
1F
100
AcDbEntity
  8
0
100
AcDbBlockReference
  2
block 22
 10
0.0
 20
0.0
 30
0.0
  0
INSERT
  5
11D
330
1F
100
AcDbEntity
  8
0
100
AcDbBlockReference
  2
block 23
 10
0.0
 20
0.0
 30
0.0
  0
INSERT
  5
139
330
1F
100
AcDbEntity
  8
0
100
AcDbBlockReference
  2
block 24
 10
0.0
 20
0.0
 30
0.0
  0
INSERT
  5
155
330
1F
100
AcDbEntity
  8
0
100
AcDbBlockReference
  2
block 25
 10
0.0
 20
0.0
 30
0.0
  0
INSERT
  5
171
330
1F
100
AcDbEntity
  8
0
100
AcDbBlockReference
  2
block 26
 10
0.0
 20
0.0
 30
0.0
  0
INSERT
  5
176
330
1F
100
AcDbEntity
  8
0
100
AcDbBlockReference
  2
block 27
 10
0.0
 20
0.0
 30
0.0
  0
INSERT
  5
17B
330
1F
100
AcDbEntity
  8
0
100
AcDbBlockReference
  2
block 28
 10
0.0
 20
0.0
 30
0.0
  0
INSERT
  5
180
330
1F
100
AcDbEntity
  8
0
100
AcDbBlockReference
  2
block 29
 10
0.0
 20
0.0
 30
0.0
  0
INSERT
  5
185
330
1F
100
AcDbEntity
  8
0
100
AcDbBlockReference
  2
block 30
 10
0.0
 20
0.0
 30
0.0
  0
INSERT
  5
18A
330
1F
100
AcDbEntity
  8
0
100
AcDbBlockReference
  2
block 31
 10
0.0
 20
0.0
 30
0.0
  0
INSERT
  5
18F
330
1F
100
AcDbEntity
  8
0
100
AcDbBlockReference
  2
block 32
 10
0.0
 20
0.0
 30
0.0
  0
INSERT
  5
194
330
1F
100
AcDbEntity
  8
0
100
AcDbBlockReference
  2
block 33
 10
0.0
 20
0.0
 30
0.0
  0
INSERT
  5
199
330
1F
100
AcDbEntity
  8
0
100
AcDbBlockReference
  2
block 34
 10
0.0
 20
0.0
 30
0.0
  0
INSERT
  5
19E
330
1F
100
AcDbEntity
  8
0
100
AcDbBlockReference
  2
block 35
 10
0.0
 20
0.0
 30
0.0
  0
INSERT
  5
1A3
330
1F
100
AcDbEntity
  8
0
100
AcDbBlockReference
  2
block 36
 10
0.0
 20
0.0
 30
0.0
  0
INSERT
  5
1A8
330
1F
100
AcDbEntity
  8
0
100
AcDbBlockReference
  2
block 37
 10
0.0
 20
0.0
 30
0.0
  0
INSERT
  5
1AD
330
1F
100
AcDbEntity
  8
0
100
AcDbBlockReference
  2
block 38
 10
0.0
 20
0.0
 30
0.0
  0
INSERT
  5
1B2
330
1F
100
AcDbEntity
  8
0
100
AcDbBlockReference
  2
block 39
 10
0.0
 20
0.0
 30
0.0
  0
INSERT
  5
1B7
330
1F
100
AcDbEntity
  8
0
100
AcDbBlockReference
  2
block 40
 10
0.0
 20
0.0
 30
0.0
  0
INSERT
  5
1BC
330
1F
100
AcDbEntity
  8
0
100
AcDbBlockReference
  2
block 41
 10
0.0
 20
0.0
 30
0.0
  0
INSERT
  5
1C1
330
1F
100
AcDbEntity
  8
0
100
AcDbBlockReference
  2
block 42
 10
0.0
 20
0.0
 30
0.0
  0
INSERT
  5
1C9
330
1F
100
AcDbEntity
  8
0
100
AcDbBlockReference
  2
block 43
 10
0.0
 20
0.0
 30
0.0
  0
INSERT
  5
1D2
330
1F
100
AcDbEntity
  8
0
100
AcDbBlockReference
  2
block 44
 10
0.0
 20
0.0
 30
0.0
  0
INSERT
  5
1DB
330
1F
100
AcDbEntity
  8
0
100
AcDbBlockReference
  2
block 45
 10
0.0
 20
0.0
 30
0.0
  0
INSERT
  5
1E3
330
1F
100
AcDbEntity
  8
0
100
AcDbBlockReference
  2
block 46
 10
0.0
 20
0.0
 30
0.0
  0
INSERT
  5
1EB
330
1F
100
AcDbEntity
  8
0
100
AcDbBlockReference
  2
block 47
 10
0.0
 20
0.0
 30
0.0
  0
INSERT
  5
1F4
330
1F
100
AcDbEntity
  8
0
100
AcDbBlockReference
  2
block 48
 10
0.0
 20
0.0
 30
0.0
  0
INSERT
  5
1FD
330
1F
100
AcDbEntity
  8
0
100
AcDbBlockReference
  2
block 49
 10
0.0
 20
0.0
 30
0.0
  0
ENDSEC
  0
SECTION
  2
OBJECTS
  0
DICTIONARY
  5
C
330
0
100
AcDbDictionary
281
     1
  3
ACAD_GROUP
350
D
  3
ACAD_LAYOUT
350
1A
  3
ACAD_MATERIAL
350
3B
  3
ACAD_MLEADERSTYLE
350
205
  3
ACAD_MLINESTYLE
350
17
  3
ACAD_PLOTSETTINGS
350
19
  3
ACAD_PLOTSTYLENAME
350
E
  3
ACAD_TABLESTYLE
350
204
  3
ACAD_VISUALSTYLE
350
2A
  0
SUN
  5
3F
330
29
100
AcDbSun
 90
        1
290
     0
 63
     7
421
 16777215
 40
1.0
291
     1
 91
  2455826
 92
 54000000
292
     0
 70
     2
 71
   256
280
     1
  0
DICTIONARY
  5
D
102
{ACAD_REACTORS
330
C
102
}
330
C
100
AcDbDictionary
281
     1
  0
DICTIONARY
  5
1A
102
{ACAD_REACTORS
330
C
102
}
330
C
100
AcDbDictionary
281
     1
  3
Layout1
350
1E
  3
Layout2
350
26
  3
Model
350
22
  0
DICTIONARY
  5
3B
102
{ACAD_REACTORS
330
C
102
}
330
C
100
AcDbDictionary
281
     1
  3
ByBlock
350
3D
  3
ByLayer
350
3C
  3
Global
350
3E
  0
DICTIONARY
  5
205
102
{ACAD_REACTORS
330
C
102
}
330
C
100
AcDbDictionary
281
     1
  0
DICTIONARY
  5
17
102
{ACAD_REACTORS
330
C
102
}
330
C
100
AcDbDictionary
281
     1
  3
Standard
350
18
  0
DICTIONARY
  5
19
102
{ACAD_REACTORS
330
C
102
}
330
C
100
AcDbDictionary
281
     1
  0
ACDBDICTIONARYWDFLT
  5
E
102
{ACAD_REACTORS
330
C
102
}
330
C
100
AcDbDictionary
281
     1
  3
Normal
350
F
100
AcDbDictionaryWithDefault
340
F
  0
DICTIONARY
  5
204
102
{ACAD_REACTORS
330
C
102
}
330
C
100
AcDbDictionary
281
     1
  0
DICTIONARY
  5
2A
102
{ACAD_REACTORS
330
C
102
}
330
C
100
AcDbDictionary
281
     1
  3
2dWireframe
350
2F
  3
3D Hidden
350
31
  3
3dWireframe
350
30
  3
Basic
350
32
  3
Brighten
350
36
  3
ColorChange
350
3A
  3
Conceptual
350
34
  3
Dim
350
35
  3
Facepattern
350
39
  3
Flat
350
2B
  3
FlatWithEdges
350
2C
  3
Gouraud
350
2D
  3
GouraudWithEdges
350
2E
  3
Linepattern
350
38
  3
Realistic
350
33
  3
Thicken
350
37
  0
LAYOUT
  5
1E
102
{ACAD_REACTORS
330
1A
102
}
330
1A
100
AcDbPlotSettings
  1

  2
none_device
  4

  6

 40
0.0
 41
0.0
 42
0.0
 43
0.0
 44
0.0
 45
0.0
 46
0.0
 47
0.0
 48
0.0
 49
0.0
140
0.0
141
0.0
142
1.0
143
1.0
 70
   688
 72
     0
 73
     0
 74
     5
  7

 75
    16
 76
     0
 77
     2
 78
   300
147
1.0
148
0.0
149
0.0
100
AcDbLayout
  1
Layout1
 70
     1
 71
     1
 10
0.0
 20
0.0
 11
12.0
 21
9.0
 12
0.0
 22
0.0
 32
0.0
 14
1.000000000000000E+20
 24
1.000000000000000E+20
 34
1.000000000000000E+20
 15
-1.000000000000000E+20
 25
-1.000000000000000E+20
 35
-1.000000000000000E+20
146
0.0
 13
0.0
 23
0.0
 33
0.0
 16
1.0
 26
0.0
 36
0.0
 17
0.0
 27
1.0
 37
0.0
 76
     0
330
1B
  0
LAYOUT
  5
26
102
{ACAD_REACTORS
330
1A
102
}
330
1A
100
AcDbPlotSettings
  1

  2
none_device
  4

  6

 40
0.0
 41
0.0
 42
0.0
 43
0.0
 44
0.0
 45
0.0
 46
0.0
 47
0.0
 48
0.0
 49
0.0
140
0.0
141
0.0
142
1.0
143
1.0
 70
   688
 72
     0
 73
     0
 74
     5
  7

 75
    16
 76
     0
 77
     2
 78
   300
147
1.0
148
0.0
149
0.0
100
AcDbLayout
  1
Layout2
 70
     1
 71
     2
 10
0.0
 20
0.0
 11
0.0
 21
0.0
 12
0.0
 22
0.0
 32
0.0
 14
0.0
 24
0.0
 34
0.0
 15
0.0
 25
0.0
 35
0.0
146
0.0
 13
0.0
 23
0.0
 33
0.0
 16
1.0
 26
0.0
 36
0.0
 17
0.0
 27
1.0
 37
0.0
 76
     0
330
23
  0
LAYOUT
  5
22
102
{ACAD_REACTORS
330
1A
102
}
330
1A
100
AcDbPlotSettings
  1

  2
none_device
  4

  6

 40
0.0
 41
0.0
 42
0.0
 43
0.0
 44
0.0
 45
0.0
 46
0.0
 47
0.0
 48
0.0
 49
0.0
140
0.0
141
0.0
142
1.0
143
1.0
 70
  1712
 72
     0
 73
     0
 74
     0
  7

 75
     0
 76
     0
 77
     2
 78
   300
147
1.0
148
0.0
149
0.0
100
AcDbLayout
  1
Model
 70
     1
 71
     0
 10
0.0
 20
0.0
 11
12.0
 21
9.0
 12
0.0
 22
0.0
 32
0.0
 14
1.000000000000000E+20
 24
1.000000000000000E+20
 34
1.000000000000000E+20
 15
-1.000000000000000E+20
 25
-1.000000000000000E+20
 35
-1.000000000000000E+20
146
0.0
 13
0.0
 23
0.0
 33
0.0
 16
1.0
 26
0.0
 36
0.0
 17
0.0
 27
1.0
 37
0.0
 76
     0
330
1F
331
29
  0
MATERIAL
  5
3D
102
{ACAD_REACTORS
330
3B
102
}
330
3B
100
AcDbMaterial
  1
ByBlock
 72
     1
 94
      127
  0
MATERIAL
  5
3C
102
{ACAD_REACTORS
330
3B
102
}
330
3B
100
AcDbMaterial
  1
ByLayer
 72
     1
 94
      127
  0
MATERIAL
  5
3E
102
{ACAD_REACTORS
330
3B
102
}
330
3B
100
AcDbMaterial
  1
Global
 72
     1
 94
      127
  0
MLINESTYLE
  5
18
102
{ACAD_REACTORS
330
17
102
}
330
17
100
AcDbMlineStyle
  2
Standard
 70
     0
  3

 62
   256
 51
90.0
 52
90.0
 71
     2
 49
0.5
 62
   256
  6
BYLAYER
 49
-0.5
 62
   256
  6
BYLAYER
  0
ACDBPLACEHOLDER
  5
F
102
{ACAD_REACTORS
330
E
102
}
330
E
  0
VISUALSTYLE
  5
2F
102
{ACAD_REACTORS
330
2A
102
}
330
2A
100
AcDbVisualStyle
  2
2dWireframe
 70
     4
177
     2
291
     0
 71
     0
176
     1
 72
     2
176
     1
 73
     0
176
     1
 90
        0
176
     1
 40
-0.6
176
     1
 41
-30.0
176
     1
 62
     5
 63
     7
421
 16777215
176
     1
 74
     1
176
     1
 91
        4
176
     1
 64
     7
176
     1
 65
   257
176
     1
 75
     1
176
     1
175
     1
176
     1
 42
1.0
176
     1
 92
        0
176
     1
 66
   257
176
     1
 43
1.0
176
     1
 76
     1
176
     1
 77
     6
176
     1
 78
     2
176
     1
 67
     7
176
     1
 79
     5
176
     1
170
     0
176
     1
171
     0
176
     1
290
     0
176
     1
 93
        1
176
     1
 44
0.0
176
     1
173
     0
176
     1
  0
VISUALSTYLE
  5
31
102
{ACAD_REACTORS
330
2A
102
}
330
2A
100
AcDbVisualStyle
  2
3D Hidden
 70
     6
177
     2
291
     0
 71
     1
176
     1
 72
     2
176
     1
 73
     2
176
     1
 90
        0
176
     1
 40
-0.6
176
     1
 41
-30.0
176
     1
 62
     5
 63
     7
421
 16777215
176
     1
 74
     2
176
     1
 91
        2
176
     1
 64
     7
176
     1
 65
   257
176
     1
 75
     2
176
     1
175
     1
176
     1
 42
40.0
176
     1
 92
        0
176
     1
 66
   257
176
     1
 43
1.0
176
     1
 76
     1
176
     1
 77
     6
176
     1
 78
     2
176
     1
 67
     7
176
     1
 79
     3
176
     1
170
     0
176
     1
171
     0
176
     1
290
     0
176
     1
 93
        1
176
     1
 44
0.0
176
     1
173
     0
176
     1
  0
VISUALSTYLE
  5
30
102
{ACAD_REACTORS
330
2A
102
}
330
2A
100
AcDbVisualStyle
  2
3dWireframe
 70
     5
177
     2
291
     0
 71
     0
176
     1
 72
     2
176
     1
 73
     0
176
     1
 90
        0
176
     1
 40
-0.6
176
     1
 41
-30.0
176
     1
 62
     5
 63
     7
421
 16777215
176
     1
 74
     1
176
     1
 91
        4
176
     1
 64
     7
176
     1
 65
   257
176
     1
 75
     1
176
     1
175
     1
176
     1
 42
1.0
176
     1
 92
        0
176
     1
 66
   257
176
     1
 43
1.0
176
     1
 76
     1
176
     1
 77
     6
176
     1
 78
     2
176
     1
 67
     7
176
     1
 79
     5
176
     1
170
     0
176
     1
171
     0
176
     1
290
     0
176
     1
 93
        1
176
     1
 44
0.0
176
     1
173
     0
176
     1
  0
VISUALSTYLE
  5
32
102
{ACAD_REACTORS
330
2A
102
}
330
2A
100
AcDbVisualStyle
  2
Basic
 70
     7
177
     2
291
     1
 71
     1
176
     1
 72
     0
176
     1
 73
     1
176
     1
 90
        0
176
     1
 40
-0.6
176
     1
 41
-30.0
176
     1
 62
     5
 63
     7
421
 16777215
176
     1
 74
     0
176
     1
 91
        4
176
     1
 64
     7
176
     1
 65
   257
176
     1
 75
     1
176
     1
175
     1
176
     1
 42
1.0
176
     1
 92
        8
176
     1
 66
     7
176
     1
 43
1.0
176
     1
 76
     1
176
     1
 77
     6
176
     1
 78
     2
176
     1
 67
     7
176
     1
 79
     5
176
     1
170
     0
176
     1
171
     0
176
     1
290
     0
176
     1
 93
        1
176
     1
 44
0.0
176
     1
173
     0
176
     1
  0
VISUALSTYLE
  5
36
102
{ACAD_REACTORS
330
2A
102
}
330
2A
100
AcDbVisualStyle
  2
Brighten
 70
    12
177
     2
291
     1
 71
     2
176
     1
 72
     2
176
     1
 73
     0
176
     1
 90
        0
176
     1
 40
-0.6
176
     1
 41
-30.0
176
     1
 62
     5
 63
     7
421
 16777215
176
     1
 74
     1
176
     1
 91
        4
176
     1
 64
     7
176
     1
 65
   257
176
     1
 75
     1
176
     1
175
     1
176
     1
 42
1.0
176
     1
 92
        8
176
     1
 66
     7
176
     1
 43
1.0
176
     1
 76
     1
176
     1
 77
     6
176
     1
 78
     2
176
     1
 67
     7
176
     1
 79
     5
176
     1
170
     0
176
     1
171
     0
176
     1
290
     0
176
     1
 93
        1
176
     1
 44
50.0
176
     1
173
     0
176
     1
  0
VISUALSTYLE
  5
3A
102
{ACAD_REACTORS
330
2A
102
}
330
2A
100
AcDbVisualStyle
  2
ColorChange
 70
    16
177
     2
291
     1
 71
     2
176
     1
 72
     2
176
     1
 73
     3
176
     1
 90
        0
176
     1
 40
-0.6
176
     1
 41
-30.0
176
     1
 62
     5
 63
     8
421
  8421504
176
     1
 74
     1
176
     1
 91
        4
176
     1
 64
     7
176
     1
 65
   257
176
     1
 75
     1
176
     1
175
     1
176
     1
 42
1.0
176
     1
 92
        8
176
     1
 66
     8
424
  8421504
176
     1
 43
1.0
176
     1
 76
     1
176
     1
 77
     6
176
     1
 78
     2
176
     1
 67
     7
176
     1
 79
     5
176
     1
170
     0
176
     1
171
     0
176
     1
290
     0
176
     1
 93
        1
176
     1
 44
0.0
176
     1
173
     0
176
     1
  0
VISUALSTYLE
  5
34
102
{ACAD_REACTORS
330
2A
102
}
330
2A
100
AcDbVisualStyle
  2
Conceptual
 70
     9
177
     2
291
     0
 71
     3
176
     1
 72
     2
176
     1
 73
     0
176
     1
 90
        0
176
     1
 40
-0.6
176
     1
 41
-30.0
176
     1
 62
     5
 63
     7
421
 16777215
176
     1
 74
     2
176
     1
 91
        2
176
     1
 64
     7
176
     1
 65
   257
176
     1
 75
     1
176
     1
175
     1
176
     1
 42
40.0
176
     1
 92
        8
176
     1
 66
     7
176
     1
 43
1.0
176
     1
 76
     1
176
     1
 77
     6
176
     1
 78
     2
176
     1
 67
     7
176
     1
 79
     3
176
     1
170
     0
176
     1
171
     0
176
     1
290
     0
176
     1
 93
        1
176
     1
 44
0.0
176
     1
173
     0
176
     1
  0
VISUALSTYLE
  5
35
102
{ACAD_REACTORS
330
2A
102
}
330
2A
100
AcDbVisualStyle
  2
Dim
 70
    11
177
     2
291
     1
 71
     2
176
     1
 72
     2
176
     1
 73
     0
176
     1
 90
        0
176
     1
 40
-0.6
176
     1
 41
-30.0
176
     1
 62
     5
 63
     7
421
 16777215
176
     1
 74
     1
176
     1
 91
        4
176
     1
 64
     7
176
     1
 65
   257
176
     1
 75
     1
176
     1
175
     1
176
     1
 42
1.0
176
     1
 92
        8
176
     1
 66
     7
176
     1
 43
1.0
176
     1
 76
     1
176
     1
 77
     6
176
     1
 78
     2
176
     1
 67
     7
176
     1
 79
     5
176
     1
170
     0
176
     1
171
     0
176
     1
290
     0
176
     1
 93
        1
176
     1
 44
-50.0
176
     1
173
     0
176
     1
  0
VISUALSTYLE
  5
39
102
{ACAD_REACTORS
330
2A
102
}
330
2A
100
AcDbVisualStyle
  2
Facepattern
 70
    15
177
     2
291
     1
 71
     2
176
     1
 72
     2
176
     1
 73
     0
176
     1
 90
        0
176
     1
 40
-0.6
176
     1
 41
-30.0
176
     1
 62
     5
 63
     7
421
 16777215
176
     1
 74
     1
176
     1
 91
        4
176
     1
 64
     7
176
     1
 65
   257
176
     1
 75
     1
176
     1
175
     1
176
     1
 42
1.0
176
     1
 92
        8
176
     1
 66
     7
176
     1
 43
1.0
176
     1
 76
     1
176
     1
 77
     6
176
     1
 78
     2
176
     1
 67
     7
176
     1
 79
     5
176
     1
170
     0
176
     1
171
     0
176
     1
290
     0
176
     1
 93
        1
176
     1
 44
0.0
176
     1
173
     0
176
     1
  0
VISUALSTYLE
  5
2B
102
{ACAD_REACTORS
330
2A
102
}
330
2A
100
AcDbVisualStyle
  2
Flat
 70
     0
177
     2
291
     1
 71
     2
176
     1
 72
     1
176
     1
 73
     1
176
     1
 90
        2
176
     1
 40
-0.6
176
     1
 41
30.0
176
     1
 62
     5
 63
     7
421
 16777215
176
     1
 74
     0
176
     1
 91
        4
176
     1
 64
     7
176
     1
 65
   257
176
     1
 75
     1
176
     1
175
     1
176
     1
 42
1.0
176
     1
 92
        8
176
     1
 66
     7
176
     1
 43
1.0
176
     1
 76
     1
176
     1
 77
     6
176
     1
 78
     2
176
     1
 67
     7
176
     1
 79
     5
176
     1
170
     0
176
     1
171
     0
176
     1
290
     0
176
     1
 93
       13
176
     1
 44
0.0
176
     1
173
     0
176
     1
  0
VISUALSTYLE
  5
2C
102
{ACAD_REACTORS
330
2A
102
}
330
2A
100
AcDbVisualStyle
  2
FlatWithEdges
 70
     1
177
     2
291
     1
 71
     2
176
     1
 72
     1
176
     1
 73
     1
176
     1
 90
        2
176
     1
 40
-0.6
176
     1
 41
30.0
176
     1
 62
     5
 63
     7
421
 16777215
176
     1
 74
     1
176
     1
 91
        4
176
     1
 64
     7
176
     1
 65
   257
176
     1
 75
     1
176
     1
175
     1
176
     1
 42
1.0
176
     1
 92
        0
176
     1
 66
   257
176
     1
 43
1.0
176
     1
 76
     1
176
     1
 77
     6
176
     1
 78
     2
176
     1
 67
     7
176
     1
 79
     5
176
     1
170
     0
176
     1
171
     0
176
     1
290
     0
176
     1
 93
       13
176
     1
 44
0.0
176
     1
173
     0
176
     1
  0
VISUALSTYLE
  5
2D
102
{ACAD_REACTORS
330
2A
102
}
330
2A
100
AcDbVisualStyle
  2
Gouraud
 70
     2
177
     2
291
     1
 71
     2
176
     1
 72
     2
176
     1
 73
     1
176
     1
 90
        2
176
     1
 40
-0.6
176
     1
 41
30.0
176
     1
 62
     5
 63
     7
421
 16777215
176
     1
 74
     0
176
     1
 91
        4
176
     1
 64
     7
176
     1
 65
   257
176
     1
 75
     1
176
     1
175
     1
176
     1
 42
1.0
176
     1
 92
        0
176
     1
 66
     7
176
     1
 43
1.0
176
     1
 76
     1
176
     1
 77
     6
176
     1
 78
     2
176
     1
 67
     7
176
     1
 79
     5
176
     1
170
     0
176
     1
171
     0
176
     1
290
     0
176
     1
 93
       13
176
     1
 44
0.0
176
     1
173
     0
176
     1
  0
VISUALSTYLE
  5
2E
102
{ACAD_REACTORS
330
2A
102
}
330
2A
100
AcDbVisualStyle
  2
GouraudWithEdges
 70
     3
177
     2
291
     1
 71
     2
176
     1
 72
     2
176
     1
 73
     1
176
     1
 90
        2
176
     1
 40
-0.6
176
     1
 41
30.0
176
     1
 62
     5
 63
     7
421
 16777215
176
     1
 74
     1
176
     1
 91
        4
176
     1
 64
     7
176
     1
 65
   257
176
     1
 75
     1
176
     1
175
     1
176
     1
 42
1.0
176
     1
 92
        0
176
     1
 66
   257
176
     1
 43
1.0
176
     1
 76
     1
176
     1
 77
     6
176
     1
 78
     2
176
     1
 67
     7
176
     1
 79
     5
176
     1
170
     0
176
     1
171
     0
176
     1
290
     0
176
     1
 93
       13
176
     1
 44
0.0
176
     1
173
     0
176
     1
  0
VISUALSTYLE
  5
38
102
{ACAD_REACTORS
330
2A
102
}
330
2A
100
AcDbVisualStyle
  2
Linepattern
 70
    14
177
     2
291
     1
 71
     2
176
     1
 72
     2
176
     1
 73
     0
176
     1
 90
        0
176
     1
 40
-0.6
176
     1
 41
-30.0
176
     1
 62
     5
 63
     7
421
 16777215
176
     1
 74
     1
176
     1
 91
        4
176
     1
 64
     7
176
     1
 65
   257
176
     1
 75
     7
176
     1
175
     7
176
     1
 42
1.0
176
     1
 92
        8
176
     1
 66
     7
176
     1
 43
1.0
176
     1
 76
     1
176
     1
 77
     6
176
     1
 78
     2
176
     1
 67
     7
176
     1
 79
     5
176
     1
170
     0
176
     1
171
     0
176
     1
290
     0
176
     1
 93
        1
176
     1
 44
0.0
176
     1
173
     0
176
     1
  0
VISUALSTYLE
  5
33
102
{ACAD_REACTORS
330
2A
102
}
330
2A
100
AcDbVisualStyle
  2
Realistic
 70
     8
177
     2
291
     0
 71
     2
176
     1
 72
     2
176
     1
 73
     0
176
     1
 90
        0
176
     1
 40
-0.6
176
     1
 41
-30.0
176
     1
 62
     5
 63
     7
421
 16777215
176
     1
 74
     1
176
     1
 91
        0
176
     1
 64
     7
176
     1
 65
   257
176
     1
 75
     1
176
     1
175
     1
176
     1
 42
1.0
176
     1
 92
        8
176
     1
 66
     8
424
  7895160
176
     1
 43
1.0
176
     1
 76
     1
176
     1
 77
     6
176
     1
 78
     2
176
     1
 67
     7
176
     1
 79
     5
176
     1
170
     0
176
     1
171
     0
176
     1
290
     0
176
     1
 93
       13
176
     1
 44
0.0
176
     1
173
     0
176
     1
  0
VISUALSTYLE
  5
37
102
{ACAD_REACTORS
330
2A
102
}
330
2A
100
AcDbVisualStyle
  2
Thicken
 70
    13
177
     2
291
     1
 71
     2
176
     1
 72
     2
176
     1
 73
     0
176
     1
 90
        0
176
     1
 40
-0.6
176
     1
 41
-30.0
176
     1
 62
     5
 63
     7
421
 16777215
176
     1
 74
     1
176
     1
 91
        4
176
     1
 64
     7
176
     1
 65
   257
176
     1
 75
     1
176
     1
175
     1
176
     1
 42
1.0
176
     1
 92
       12
176
     1
 66
     7
176
     1
 43
1.0
176
     1
 76
     1
176
     1
 77
     6
176
     1
 78
     2
176
     1
 67
     7
176
     1
 79
     5
176
     1
170
     0
176
     1
171
     0
176
     1
290
     0
176
     1
 93
        1
176
     1
 44
0.0
176
     1
173
     0
176
     1
  0
ENDSEC
  0
EOF
