  0
SECTION
  2
HEADER
  9
$ACADVER
  1
AC1015
  9
$ACADMAINTVER
 70
     6
  9
$DWGCODEPAGE
  3
ANSI_1252
  9
$INSBASE
 10
0.0
 20
0.0
 30
0.0
  9
$EXTMIN
 10
0.0
 20
0.0
 30
0.0
  9
$EXTMAX
 10
3000.0
 20
4500.0
 30
0.0
  9
$LIMMIN
 10
0.0
 20
0.0
  9
$LIMMAX
 10
3000.0
 20
4500.0
  9
$ORTHOMODE
 70
     0
  9
$REGENMODE
 70
     1
  9
$FILLMODE
 70
     1
  9
$QTEXTMODE
 70
     0
  9
$MIRRTEXT
 70
     1
  9
$LTSCALE
 40
1.0
  9
$ATTMODE
 70
     1
  9
$TEXTSIZE
 40
2.5
  9
$TRACEWID
 40
1.0
  9
$TEXTSTYLE
  7
Standard
  9
$CLAYER
  8
0
  9
$CELTYPE
  6
ByLayer
  9
$CECOLOR
 62
   256
  9
$CELTSCALE
 40
1.0
  9
$DISPSILH
 70
     0
  9
$DIMSCALE
 40
1.0
  9
$DIMASZ
 40
2.5
  9
$DIMEXO
 40
0.625
  9
$DIMDLI
 40
3.75
  9
$DIMRND
 40
0.0
  9
$DIMDLE
 40
0.0
  9
$DIMEXE
 40
1.25
  9
$DIMTP
 40
0.0
  9
$DIMTM
 40
0.0
  9
$DIMTXT
 40
2.5
  9
$DIMCEN
 40
2.5
  9
$DIMTSZ
 40
0.0
  9
$DIMTOL
 70
     0
  9
$DIMLIM
 70
     0
  9
$DIMTIH
 70
     0
  9
$DIMTOH
 70
     0
  9
$DIMSE1
 70
     0
  9
$DIMSE2
 70
     0
  9
$DIMTAD
 70
     1
  9
$DIMZIN
 70
     8
  9
$DIMBLK
  1

  9
$DIMASO
 70
     1
  9
$DIMSHO
 70
     1
  9
$DIMPOST
  1

  9
$DIMAPOST
  1

  9
$DIMALT
 70
     0
  9
$DIMALTD
 70
     3
  9
$DIMALTF
 40
0.0393700787
  9
$DIMLFAC
 40
1.0
  9
$DIMTOFL
 70
     1
  9
$DIMTVP
 40
0.0
  9
$DIMTIX
 70
     0
  9
$DIMSOXD
 70
     0
  9
$DIMSAH
 70
     0
  9
$DIMBLK1
  1

  9
$DIMBLK2
  1

  9
$DIMSTYLE
  2
ISO-25
  9
$DIMCLRD
 70
     0
  9
$DIMCLRE
 70
     0
  9
$DIMCLRT
 70
     0
  9
$DIMTFAC
 40
1.0
  9
$DIMGAP
 40
0.625
  9
$DIMJUST
 70
     0
  9
$DIMSD1
 70
     0
  9
$DIMSD2
 70
     0
  9
$DIMTOLJ
 70
     0
  9
$DIMTZIN
 70
     8
  9
$DIMALTZ
 70
     0
  9
$DIMALTTZ
 70
     0
  9
$DIMUPT
 70
     0
  9
$DIMDEC
 70
     2
  9
$DIMTDEC
 70
     2
  9
$DIMALTU
 70
     2
  9
$DIMALTTD
 70
     3
  9
$DIMTXSTY
  7
Standard
  9
$DIMAUNIT
 70
     0
  9
$DIMADEC
 70
     0
  9
$DIMALTRND
 40
0.0
  9
$DIMAZIN
 70
     0
  9
$DIMDSEP
 70
    44
  9
$DIMATFIT
 70
     3
  9
$DIMFRAC
 70
     0
  9
$DIMLDRBLK
  1

  9
$DIMLUNIT
 70
     2
  9
$DIMLWD
 70
    -2
  9
$DIMLWE
 70
    -2
  9
$DIMTMOVE
 70
     0
  9
$LUNITS
 70
     2
  9
$LUPREC
 70
     4
  9
$SKETCHINC
 40
1.0
  9
$FILLETRAD
 40
10.0
  9
$AUNITS
 70
     0
  9
$AUPREC
 70
     0
  9
$MENU
  1
.
  9
$ELEVATION
 40
0.0
  9
$PELEVATION
 40
0.0
  9
$THICKNESS
 40
0.0
  9
$LIMCHECK
 70
     0
  9
$CHAMFERA
 40
10.0
  9
$CHAMFERB
 40
10.0
  9
$CHAMFERC
 40
20.0
  9
$CHAMFERD
 40
0.0
  9
$SKPOLY
 70
     0
  9
$TDCREATE
 40
2456237.440675324
  9
$TDUCREATE
 40
2456237.399008657
  9
$TDUPDATE
 40
2456237.440675335
  9
$TDUUPDATE
 40
2456237.399008669
  9
$TDINDWG
 40
0.0000000116
  9
$TDUSRTIMER
 40
0.0000000116
  9
$USRTIMER
 70
     1
  9
$ANGBASE
 50
0.0
  9
$ANGDIR
 70
     0
  9
$PDMODE
 70
     0
  9
$PDSIZE
 40
0.0
  9
$PLINEWID
 40
0.0
  9
$SPLFRAME
 70
     0
  9
$SPLINETYPE
 70
     6
  9
$SPLINESEGS
 70
     8
  9
$HANDSEED
  5
11D
  9
$SURFTAB1
 70
     6
  9
$SURFTAB2
 70
     6
  9
$SURFTYPE
 70
     6
  9
$SURFU
 70
     6
  9
$SURFV
 70
     6
  9
$UCSBASE
  2

  9
$UCSNAME
  2

  9
$UCSORG
 10
0.0
 20
0.0
 30
0.0
  9
$UCSXDIR
 10
1.0
 20
0.0
 30
0.0
  9
$UCSYDIR
 10
0.0
 20
1.0
 30
0.0
  9
$UCSORTHOREF
  2

  9
$UCSORTHOVIEW
 70
     0
  9
$UCSORGTOP
 10
0.0
 20
0.0
 30
0.0
  9
$UCSORGBOTTOM
 10
0.0
 20
0.0
 30
0.0
  9
$UCSORGLEFT
 10
0.0
 20
0.0
 30
0.0
  9
$UCSORGRIGHT
 10
0.0
 20
0.0
 30
0.0
  9
$UCSORGFRONT
 10
0.0
 20
0.0
 30
0.0
  9
$UCSORGBACK
 10
0.0
 20
0.0
 30
0.0
  9
$PUCSBASE
  2

  9
$PUCSNAME
  2

  9
$PUCSORG
 10
0.0
 20
0.0
 30
0.0
  9
$PUCSXDIR
 10
1.0
 20
0.0
 30
0.0
  9
$PUCSYDIR
 10
0.0
 20
1.0
 30
0.0
  9
$PUCSORTHOREF
  2

  9
$PUCSORTHOVIEW
 70
     0
  9
$PUCSORGTOP
 10
0.0
 20
0.0
 30
0.0
  9
$PUCSORGBOTTOM
 10
0.0
 20
0.0
 30
0.0
  9
$PUCSORGLEFT
 10
0.0
 20
0.0
 30
0.0
  9
$PUCSORGRIGHT
 10
0.0
 20
0.0
 30
0.0
  9
$PUCSORGFRONT
 10
0.0
 20
0.0
 30
0.0
  9
$PUCSORGBACK
 10
0.0
 20
0.0
 30
0.0
  9
$USERI1
 70
     0
  9
$USERI2
 70
     0
  9
$USERI3
 70
     0
  9
$USERI4
 70
     0
  9
$USERI5
 70
     0
  9
$USERR1
 40
0.0
  9
$USERR2
 40
0.0
  9
$USERR3
 40
0.0
  9
$USERR4
 40
0.0
  9
$USERR5
 40
0.0
  9
$WORLDVIEW
 70
     1
  9
$SHADEDGE
 70
     3
  9
$SHADEDIF
 70
    70
  9
$TILEMODE
 70
     1
  9
$MAXACTVP
 70
    64
  9
$PINSBASE
 10
0.0
 20
0.0
 30
0.0
  9
$PLIMCHECK
 70
     0
  9
$PEXTMIN
 10
0.0
 20
0.0
 30
0.0
  9
$PEXTMAX
 10
3000.0
 20
4500.0
 30
0.0
  9
$PLIMMIN
 10
0.0
 20
0.0
  9
$PLIMMAX
 10
3000.0
 20
4500.0
  9
$UNITMODE
 70
     0
  9
$VISRETAIN
 70
     1
  9
$PLINEGEN
 70
     0
  9
$PSLTSCALE
 70
     1
  9
$TREEDEPTH
 70
  3020
  9
$CMLSTYLE
  2
Standard
  9
$CMLJUST
 70
     0
  9
$CMLSCALE
 40
20.0
  9
$PROXYGRAPHICS
 70
     1
  9
$MEASUREMENT
 70
     1
  9
$CELWEIGHT
370
    -1
  9
$ENDCAPS
280
     0
  9
$JOINSTYLE
280
     0
  9
$LWDISPLAY
290
     0
  9
$INSUNITS
 70
     4
  9
$HYPERLINKBASE
  1

  9
$STYLESHEET
  1

  9
$XEDIT
290
     1
  9
$CEPSNTYPE
380
     0
  9
$PSTYLEMODE
290
     1
  9
$FINGERPRINTGUID
  2
{07CF3F59-DF1A-45C4-AEB2-599831CCFBFC}
  9
$VERSIONGUID
  2
{FAEB1C32-E019-11D5-929B-00C0DF256EC4}
  9
$EXTNAMES
290
     1
  9
$PSVPSCALE
 40
0.0
  9
$OLESTARTUP
290
     0
  0
ENDSEC
  0
SECTION
  2
CLASSES
  0
CLASS
  1
ACDBDICTIONARYWDFLT
  2
AcDbDictionaryWithDefault
  3
ObjectDBX Classes
 90
        0
280
     0
281
     0
  0
CLASS
  1
VISUALSTYLE
  2
AcDbVisualStyle
  3
ObjectDBX Classes
 90
     4095
280
     0
281
     0
  0
CLASS
  1
SCALE
  2
AcDbScale
  3
ObjectDBX Classes
 90
     1153
280
     0
281
     0
  0
CLASS
  1
DICTIONARYVAR
  2
AcDbDictionaryVar
  3
ObjectDBX Classes
 90
        0
280
     0
281
     0
  0
CLASS
  1
ACDBPLACEHOLDER
  2
AcDbPlaceHolder
  3
ObjectDBX Classes
 90
        0
280
     0
281
     0
  0
CLASS
  1
LAYOUT
  2
AcDbLayout
  3
ObjectDBX Classes
 90
        0
280
     0
281
     0
  0
ENDSEC
  0
SECTION
  2
TABLES
  0
TABLE
  2
VPORT
  5
8
330
0
100
AcDbSymbolTable
 70
     1
  0
VPORT
  5
29
330
8
100
AcDbSymbolTableRecord
100
AcDbViewportTableRecord
  2
*Active
 70
     0
 10
0.0
 20
0.0
 11
1.0
 21
1.0
 12
344.1869158879
 22
148.5
 13
0.0
 23
0.0
 14
10.0
 24
10.0
 15
10.0
 25
10.0
 16
0.0
 26
0.0
 36
1.0
 17
0.0
 27
0.0
 37
0.0
 40
297.0
 41
1.9729729729
 42
50.0
 43
0.0
 44
0.0
 50
0.0
 51
0.0
 71
     0
 72
   100
 73
     1
 74
     3
 75
     0
 76
     0
 77
     0
 78
     0
281
     0
 65
     1
110
0.0
120
0.0
130
0.0
111
1.0
121
0.0
131
0.0
112
0.0
122
1.0
132
0.0
 79
     0
146
0.0
  0
ENDTAB
  0
TABLE
  2
LTYPE
  5
5
330
0
100
AcDbSymbolTable
 70
     2
  0
LTYPE
  5
14
330
5
100
AcDbSymbolTableRecord
100
AcDbLinetypeTableRecord
  2
ByBlock
 70
     0
  3

 72
    65
 73
     0
 40
0.0
  0
LTYPE
  5
15
330
5
100
AcDbSymbolTableRecord
100
AcDbLinetypeTableRecord
  2
ByLayer
 70
     0
  3

 72
    65
 73
     0
 40
0.0
  0
LTYPE
  5
16
330
5
100
AcDbSymbolTableRecord
100
AcDbLinetypeTableRecord
  2
Continuous
 70
     0
  3
Solid line
 72
    65
 73
     0
 40
0.0
  0
LTYPE
  5
60
330
5
100
AcDbSymbolTableRecord
100
AcDbLinetypeTableRecord
  2
CENTER2
 70
     0
  3
Center (.5x) ___ _ ___ _ ___ _ ___ _ ___ _ ___
 72
    65
 73
     4
 40
28.575
 49
19.05
 74
     4
 75
     0
340
0
 46
0.0
 50
0.0
 44
0.0
 45
0.0
 49
-3.175
 74
     4
 75
     0
340
0
 46
0.0
 50
0.0
 44
0.0
 45
0.0
 49
3.175
 74
     4
 75
     0
340
0
 46
0.0
 50
0.0
 44
0.0
 45
0.0
 49
-3.175
 74
     4
 75
     0
340
0
 46
0.0
 50
0.0
 44
0.0
 45
0.0
  0
ENDTAB
  0
TABLE
  2
LAYER
  5
2
330
0
100
AcDbSymbolTable
 70
     5
  0
LAYER
  5
10
330
2
100
AcDbSymbolTableRecord
100
AcDbLayerTableRecord
  2
0
 70
     0
 62
     7
  6
Continuous
370
    -3
390
F
  0
LAYER
  5
5D
330
2
100
AcDbSymbolTableRecord
100
AcDbLayerTableRecord
  2
Default
 70
     0
 62
     7
  6
Continuous
370
    -3
390
F
  0
LAYER
  5
70
330
2
100
AcDbSymbolTableRecord
100
AcDbLayerTableRecord
  2
DV1_Default
 70
     0
 62
     7
  6
Continuous
370
    -3
390
F
  0
LAYER
  5
B2
330
2
100
AcDbSymbolTableRecord
100
AcDbLayerTableRecord
  2
DV2_Default
 70
     0
 62
     7
  6
Continuous
370
    -3
390
F
  0
LAYER
  5
EF
330
2
100
AcDbSymbolTableRecord
100
AcDbLayerTableRecord
  2
DV3_Default
 70
     0
 62
     7
  6
Continuous
370
    -3
390
F
  0
ENDTAB
  0
TABLE
  2
STYLE
  5
3
330
0
100
AcDbSymbolTable
 70
     2
  0
STYLE
  5
11
330
3
100
AcDbSymbolTableRecord
100
AcDbTextStyleTableRecord
  2
Standard
 70
     0
 40
0.0
 41
1.0
 50
0.0
 71
     0
 42
2.5
  3
txt
  4

  0
STYLE
  5
10C
330
3
100
AcDbSymbolTableRecord
100
AcDbTextStyleTableRecord
  2
SEACAD_seiso_ttf
 70
     0
 40
0.0
 41
1.0
 50
0.0
 71
     0
 42
0.2
  3
seiso.ttf
  4

  0
ENDTAB
  0
TABLE
  2
VIEW
  5
6
330
0
100
AcDbSymbolTable
 70
     0
  0
ENDTAB
  0
TABLE
  2
UCS
  5
7
330
0
100
AcDbSymbolTable
 70
     0
  0
ENDTAB
  0
TABLE
  2
APPID
  5
9
330
0
100
AcDbSymbolTable
 70
     1
  0
APPID
  5
12
330
9
100
AcDbSymbolTableRecord
100
AcDbRegAppTableRecord
  2
ACAD
 70
     0
  0
ENDTAB
  0
TABLE
  2
DIMSTYLE
  5
A
330
0
100
AcDbSymbolTable
 70
     1
100
AcDbDimStyleTable
  0
DIMSTYLE
105
27
330
A
100
AcDbSymbolTableRecord
100
AcDbDimStyleTableRecord
  2
ISO-25
 70
     0
 41
2.5
 42
0.625
 43
3.75
 44
1.25
 73
     0
 74
     0
 77
     1
 78
     8
140
2.5
141
2.5
143
0.0393700787
147
0.625
171
     3
172
     1
271
     2
272
     2
274
     3
278
    44
283
     0
284
     8
340
11
  0
ENDTAB
  0
TABLE
  2
BLOCK_RECORD
  5
1
330
0
100
AcDbSymbolTable
 70
     7
  0
BLOCK_RECORD
  5
1F
330
1
100
AcDbSymbolTableRecord
100
AcDbBlockTableRecord
  2
*Model_Space
340
22
  0
BLOCK_RECORD
  5
1B
330
1
100
AcDbSymbolTableRecord
100
AcDbBlockTableRecord
  2
*Paper_Space
340
1E
  0
BLOCK_RECORD
  5
5E
330
1
100
AcDbSymbolTableRecord
100
AcDbBlockTableRecord
  2
SEANNOT_GROUP
340
0
102
{BLKREFS
331
5F
102
}
  0
BLOCK_RECORD
  5
64
330
1
100
AcDbSymbolTableRecord
100
AcDbBlockTableRecord
  2
SEANNOT_GROUP1
340
0
102
{BLKREFS
331
65
102
}
  0
BLOCK_RECORD
  5
69
330
1
100
AcDbSymbolTableRecord
100
AcDbBlockTableRecord
  2
SEANNOT_GROUP2
340
0
102
{BLKREFS
331
6A
102
}
  0
BLOCK_RECORD
  5
6E
330
1
100
AcDbSymbolTableRecord
100
AcDbBlockTableRecord
  2
SE
340
0
102
{BLKREFS
331
6F
102
}
  0
BLOCK_RECORD
  5
B0
330
1
100
AcDbSymbolTableRecord
100
AcDbBlockTableRecord
  2
SE1
340
0
102
{BLKREFS
331
B1
102
}
  0
BLOCK_RECORD
  5
ED
330
1
100
AcDbSymbolTableRecord
100
AcDbBlockTableRecord
  2
SE2
340
0
102
{BLKREFS
331
EE
102
}
  0
ENDTAB
  0
ENDSEC
  0
SECTION
  2
BLOCKS
  0
BLOCK
  5
20
330
1F
100
AcDbEntity
  8
0
100
AcDbBlockBegin
  2
*Model_Space
 70
     0
 10
0.0
 20
0.0
 30
0.0
  3
*Model_Space
  1

  0
ENDBLK
  5
21
330
1F
100
AcDbEntity
  8
0
100
AcDbBlockEnd
  0
BLOCK
  5
1C
330
1B
100
AcDbEntity
 67
     1
  8
0
100
AcDbBlockBegin
  2
*Paper_Space
 70
     0
 10
0.0
 20
0.0
 30
0.0
  3
*Paper_Space
  1

  0
ENDBLK
  5
1D
330
1B
100
AcDbEntity
 67
     1
  8
0
100
AcDbBlockEnd
  0
BLOCK
  5
62
330
5E
100
AcDbEntity
  8
0
100
AcDbBlockBegin
  2
SEANNOT_GROUP
 70
     0
 10
0.0
 20
0.0
 30
0.0
  3
SEANNOT_GROUP
  1

  0
LINE
  5
61
330
5E
100
AcDbEntity
  8
Default
  6
CENTER2
 62
     7
100
AcDbLine
 10
39.897740434
 20
335.9738531194
 30
0.0
 11
39.897740434
 21
392.0241155908
 31
0.0
  0
ENDBLK
  5
63
330
5E
100
AcDbEntity
  8
0
100
AcDbBlockEnd
  0
BLOCK
  5
67
330
64
100
AcDbEntity
  8
0
100
AcDbBlockBegin
  2
SEANNOT_GROUP1
 70
     0
 10
0.0
 20
0.0
 30
0.0
  3
SEANNOT_GROUP1
  1

  0
LINE
  5
66
330
64
100
AcDbEntity
  8
Default
  6
CENTER2
 62
     7
100
AcDbLine
 10
288.3152839006
 20
434.6720495498
 30
0.0
 11
292.8584302145
 21
424.9292408393
 31
0.0
  0
ENDBLK
  5
68
330
64
100
AcDbEntity
  8
0
100
AcDbBlockEnd
  0
BLOCK
  5
6C
330
69
100
AcDbEntity
  8
0
100
AcDbBlockBegin
  2
SEANNOT_GROUP2
 70
     0
 10
0.0
 20
0.0
 30
0.0
  3
SEANNOT_GROUP2
  1

  0
LINE
  5
6B
330
69
100
AcDbEntity
  8
Default
  6
CENTER2
 62
     7
100
AcDbLine
 10
39.897740434
 20
283.4217536404
 30
0.0
 11
39.897740434
 21
85.6853291473
 31
0.0
  0
ENDBLK
  5
6D
330
69
100
AcDbEntity
  8
0
100
AcDbBlockEnd
  0
BLOCK
  5
AE
330
6E
100
AcDbEntity
  8
0
100
AcDbBlockBegin
  2
SE
 70
     0
 10
0.0
 20
0.0
 30
0.0
  3
SE
  1

  0
ELLIPSE
  5
71
330
6E
100
AcDbEntity
  8
DV1_Default
  6
Continuous
 62
     7
100
AcDbEllipse
 10
39.8977404339
 20
508.1967632193
 30
0.0
 11
-33.43742943284307
 21
-5.181410855925605E-10
 31
0.0
210
0.0
220
0.0
230
1.0
 40
0.3329841223
 41
0.0958398812493429
 42
3.046826823996602
  0
ELLIPSE
  5
72
330
6E
100
AcDbEntity
  8
DV1_Default
  6
Continuous
 62
     7
100
AcDbEllipse
 10
39.8977404339
 20
508.1967632193
 30
0.0
 11
-33.43742943284307
 21
-5.181410855925605E-10
 31
0.0
210
0.0
220
0.0
230
1.0
 40
0.3329841223
 41
0.0947644867678335
 42
0.0958398812493429
  0
SPLINE
  5
73
330
6E
100
AcDbEntity
  8
DV1_Default
  6
Continuous
 62
     7
100
AcDbSpline
210
0.0
220
0.0
230
1.0
 70
     8
 71
     3
 72
     8
 73
     4
 74
     0
 42
0.0000006497583988
 43
0.0000000001
 40
0.0
 40
0.0
 40
0.0
 40
0.0
 40
1.0
 40
1.0
 40
1.0
 40
1.0
 10
69.16602251957252
 20
493.0620605498604
 30
0.0
 10
69.16745581139132
 20
493.0669900859029
 30
0.0
 10
69.16887557208535
 20
493.0719198132372
 30
0.0
 10
69.17028180511333
 20
493.0768497318143
 30
0.0
  0
SPLINE
  5
74
330
6E
100
AcDbEntity
  8
DV1_Default
  6
Continuous
 62
     7
100
AcDbSpline
210
0.0
220
0.0
230
1.0
 70
     8
 71
     3
 72
     8
 73
     4
 74
     0
 42
0.0000005970869592
 43
0.0000000001
 40
0.0
 40
0.0
 40
0.0
 40
0.0
 40
1.0
 40
1.0
 40
1.0
 40
1.0
 10
10.62561733341984
 20
493.0766942535527
 30
0.0
 10
10.62714891892708
 20
493.0713296325455
 30
0.0
 10
10.62869630241837
 20
493.0659657188866
 30
0.0
 10
10.63025947658674
 20
493.0606025197216
 30
0.0
  0
ARC
  5
75
330
6E
100
AcDbEntity
  8
DV1_Default
  6
Continuous
 62
     7
100
AcDbCircle
 10
39.8977404346
 20
462.98981012
 30
0.0
 40
60.50000000000001
100
AcDbArc
 50
63.9711567607
 51
90.0000000008
  0
ARC
  5
76
330
6E
100
AcDbEntity
  8
DV1_Default
  6
Continuous
 62
     7
100
AcDbCircle
 10
39.8977404346
 20
462.98981012
 30
0.0
 40
60.50000000000001
100
AcDbArc
 50
90.0000000008
 51
116.0288432411
  0
LINE
  5
77
330
6E
100
AcDbEntity
  8
DV1_Default
  6
Continuous
 62
     7
100
AcDbLine
 10
6.6103378834
 20
507.1432213194
 30
0.0
 11
10.6264951741
 21
493.0734881778
 31
0.0
  0
LINE
  5
78
330
6E
100
AcDbEntity
  8
DV1_Default
  6
Continuous
 62
     7
100
AcDbLine
 10
69.1682178975
 20
493.0707983699
 30
0.0
 11
73.1851429845
 21
507.1432213204
 31
0.0
  0
SPLINE
  5
79
330
6E
100
AcDbEntity
  8
DV1_Default
  6
Continuous
 62
     7
100
AcDbSpline
210
0.0
220
0.0
230
1.0
 70
     8
 71
     3
 72
    28
 73
    24
 74
     0
 42
0.0000000007387224
 43
0.0000000001
 40
0.0
 40
0.0
 40
0.0
 40
0.0
 40
0.0304204686733668
 40
0.0869923063497085
 40
0.1438771163820615
 40
0.201022218317652
 40
0.2583138119814222
 40
0.315460093664512
 40
0.3721186411758913
 40
0.4278633337476411
 40
0.482256685951228
 40
0.5349513243042244
 40
0.5857684141939206
 40
0.6347142035114244
 40
0.6819424521200829
 40
0.7276977601802953
 40
0.7722674240010938
 40
0.8159510735748161
 40
0.8590459512164298
 40
0.9018424600454269
 40
0.9445787597665198
 40
0.9874911952746583
 40
1.0
 40
1.0
 40
1.0
 40
1.0
 10
13.48622578226603
 20
517.4158268356482
 30
0.0
 10
13.32558401206082
 20
517.3394230152954
 30
0.0
 10
12.93618139739136
 20
517.1534889365835
 30
0.0
 10
12.27087903524756
 20
516.7988759172331
 30
0.0
 10
11.54055234637525
 20
516.3764225301795
 30
0.0
 10
10.84214499673313
 20
515.9298236979519
 30
0.0
 10
10.18493336815329
 20
515.4638322365848
 30
0.0
 10
9.57061970588105
 20
514.9772961092166
 30
0.0
 10
9.003746493474717
 20
514.4717926222378
 30
0.0
 10
8.48815307139001
 20
513.9492771307738
 30
0.0
 10
8.027272459728493
 20
513.412668869079
 30
0.0
 10
7.623301619800876
 20
512.8652339809671
 30
0.0
 10
7.276991150590613
 20
512.3100764032844
 30
0.0
 10
6.98783374621053
 20
511.7497568277718
 30
0.0
 10
6.754554025184947
 20
511.1862491030072
 30
0.0
 10
6.575586529942827
 20
510.621101901156
 30
0.0
 10
6.449403046294176
 20
510.0557490319113
 30
0.0
 10
6.374572246565922
 20
509.491406577471
 30
0.0
 10
6.350000000000001
 20
508.930062485587
 30
0.0
 10
6.374061212416612
 20
508.3711364591246
 30
0.0
 10
6.447622325806764
 20
507.8242367335215
 30
0.0
 10
6.534980240120232
 20
507.3955216058894
 30
0.0
 10
6.602492296508535
 20
507.1816572919365
 30
0.0
 10
6.620439471956799
 20
507.1251974922739
 30
0.0
  0
SPLINE
  5
7A
330
6E
100
AcDbEntity
  8
DV1_Default
  6
Continuous
 62
     7
100
AcDbSpline
210
0.0
220
0.0
230
1.0
 70
     8
 71
     3
 72
    29
 73
    25
 74
     0
 42
0.0000000007422566
 43
0.0000000001
 40
0.0
 40
0.0
 40
0.0
 40
0.0
 40
0.0032819592967621
 40
0.0481405047221797
 40
0.092077320455897
 40
0.1353914283296119
 40
0.1783751265811028
 40
0.2212779393221096
 40
0.2643272683218556
 40
0.3078056210345735
 40
0.3519932707148494
 40
0.397165786354625
 40
0.4435856052905277
 40
0.4914853206436376
 40
0.5410410323071193
 40
0.5923372190175439
 40
0.6453315283143793
 40
0.6998367881783951
 40
0.7555395224682752
 40
0.8120587359124559
 40
0.8690220266733926
 40
0.9261110592891596
 40
0.9830740192001921
 40
1.0
 40
1.0
 40
1.0
 40
1.0
 10
73.18352102281156
 20
507.1437305175452
 30
0.0
 10
73.1883615699975
 20
507.1584275101469
 30
0.0
 10
73.24939739454736
 20
507.3440492969249
 30
0.0
 10
73.333211438241
 20
507.7466402009863
 30
0.0
 10
73.4157872830175
 20
508.3047667361302
 30
0.0
 10
73.44514479037001
 20
508.8684621242951
 30
0.0
 10
73.42611909405467
 20
509.4261416327699
 30
0.0
 10
73.35879630215494
 20
509.9788089697503
 30
0.0
 10
73.24445542922012
 20
510.5244140497025
 30
0.0
 10
73.08382362408513
 20
511.0623483560164
 30
0.0
 10
72.87725703824103
 20
511.5924047329931
 30
0.0
 10
72.62455396522549
 20
512.1147937143838
 30
0.0
 10
72.32493164703826
 20
512.629946558757
 30
0.0
 10
71.97706701100489
 20
513.1383444646849
 30
0.0
 10
71.57930026819845
 20
513.6402576789601
 30
0.0
 10
71.130019131702
 20
514.1354731203209
 30
0.0
 10
70.62816435970117
 20
514.6231044201344
 30
0.0
 10
70.0737860767562
 20
515.1015258905213
 30
0.0
 10
69.4681213824379
 20
515.5687565612897
 30
0.0
 10
68.81422162809267
 20
516.0222112518866
 30
0.0
 10
68.1136790263314
 20
516.4615383495573
 30
0.0
 10
67.3768972589778
 20
516.8795513974804
 30
0.0
 10
66.76740696591699
 20
517.1998032357554
 30
0.0
 10
66.43335997080838
 20
517.3581205799193
 30
0.0
 10
66.34923372227196
 20
517.3976688514215
 30
0.0
  0
SPLINE
  5
7B
330
6E
100
AcDbEntity
  8
DV1_Default
  6
Continuous
 62
     7
100
AcDbSpline
210
0.0
220
0.0
230
1.0
 70
     8
 71
     3
 72
    44
 73
    40
 74
     0
 42
0.0000000003151386
 43
0.0000000001
 40
0.0
 40
0.0
 40
0.0
 40
0.0
 40
0.016203991944342
 40
0.0411342078473356
 40
0.0666663961257239
 40
0.0928962199045713
 40
0.1198318533101388
 40
0.1473929492364755
 40
0.1754345662872769
 40
0.2037891053051624
 40
0.2323059818519828
 40
0.2608702140469252
 40
0.2893965995162912
 40
0.317853808277167
 40
0.3462289814317502
 40
0.3745200317843063
 40
0.4027305985606723
 40
0.4308670124631017
 40
0.4589365758621491
 40
0.4869466417248671
 40
0.5149041561043977
 40
0.5428154605880354
 40
0.5706862355098183
 40
0.5985215158007317
 40
0.6263257413081524
 40
0.6541028206827981
 40
0.6818561977622379
 40
0.7095889149133422
 40
0.7373036708654308
 40
0.7650028722306165
 40
0.7926886787774988
 40
0.820363042948554
 40
0.848027744290699
 40
0.8756844195167369
 40
0.9033345888977713
 40
0.9309796796396225
 40
0.9586210468399585
 40
0.9862599925681563
 40
1.0
 40
1.0
 40
1.0
 40
1.0
 10
10.63664903762363
 20
493.056995991214
 30
0.0
 10
10.66527121150203
 20
492.9574391883613
 30
0.0
 10
10.72794143844196
 20
492.7435675552496
 30
0.0
 10
10.8904098206206
 20
492.3752489235882
 30
0.0
 10
11.11096544134545
 20
491.9761318803921
 30
0.0
 10
11.38348204523637
 20
491.5776596785489
 30
0.0
 10
11.70537511343865
 20
491.1841841573021
 30
0.0
 10
12.07799000029066
 20
490.7956702810031
 30
0.0
 10
12.50044276129453
 20
490.413916650593
 30
0.0
 10
12.97132304494487
 20
490.0404100005228
 30
0.0
 10
13.48857510961479
 20
489.6765127387671
 30
0.0
 10
14.04995292701882
 20
489.3232126095944
 30
0.0
 10
14.65338042211821
 20
488.9810798338844
 30
0.0
 10
15.2970841712281
 20
488.6503746279254
 30
0.0
 10
15.97966693574336
 20
488.3311468706179
 30
0.0
 10
16.69986899400091
 20
488.0234181332632
 30
0.0
 10
17.45650055936417
 20
487.7272251260731
 30
0.0
 10
18.24839132447957
 20
487.4426383753452
 30
0.0
 10
19.07435638752539
 20
487.169766661671
 30
0.0
 10
19.93317490723831
 20
486.9087541464989
 30
0.0
 10
20.82357766191442
 20
486.6597743522211
 30
0.0
 10
21.74424055018336
 20
486.4230232119638
 30
0.0
 10
22.69378194672399
 20
486.1987122806648
 30
0.0
 10
23.67076252232441
 20
485.9870625775547
 30
0.0
 10
24.67368661788696
 20
485.7882992117596
 30
0.0
 10
25.70100460905713
 20
485.6026467886863
 30
0.0
 10
26.75111582705501
 20
485.4303255301557
 30
0.0
 10
27.82237204404622
 20
485.2715480140292
 30
0.0
 10
28.91308047346804
 20
485.126516457875
 30
0.0
 10
30.02150955769294
 20
484.9954204065456
 30
0.0
 10
31.14588494037335
 20
484.8784349673541
 30
0.0
 10
32.28442237354369
 20
484.7757187327935
 30
0.0
 10
33.43522304620353
 20
484.6874143289522
 30
0.0
 10
34.59668218052325
 20
484.6136404103451
 30
0.0
 10
35.76598295509979
 20
484.55451662682
 30
0.0
 10
36.94473356879849
 20
484.5100665032993
 30
0.0
 10
38.11795305655703
 20
484.4805766423369
 30
0.0
 10
39.12893230462907
 20
484.4678221862217
 30
0.0
 10
39.68177062193208
 20
484.4666396141396
 30
0.0
 10
39.89774043423612
 20
484.4663033130976
 30
0.0
  0
SPLINE
  5
7C
330
6E
100
AcDbEntity
  8
DV1_Default
  6
Continuous
 62
     7
100
AcDbSpline
210
0.0
220
0.0
230
1.0
 70
     8
 71
     3
 72
    44
 73
    40
 74
     0
 42
0.0000000003151154
 43
0.0000000001
 40
0.0
 40
0.0
 40
0.0
 40
0.0
 40
0.0145480089788759
 40
0.0421814987030142
 40
0.0698173527477616
 40
0.0974554150156794
 40
0.1250969652123692
 40
0.1527433254919578
 40
0.1803958783723306
 40
0.2080560863538584
 40
0.2357255135753785
 40
0.2634058500672041
 40
0.2910989392201862
 40
0.3188068091512201
 40
0.3465317086982339
 40
0.3742761488016497
 40
0.4020429499881562
 40
0.4298352965020031
 40
0.4576567972154907
 40
0.4855115525962829
 40
0.5134042253705531
 40
0.5413401095010314
 40
0.5693251866652036
 40
0.5973661497909255
 40
0.6254703563457084
 40
0.6536456448847824
 40
0.681899898603852
 40
0.710240156968041
 40
0.7386709454441746
 40
0.7671913044394799
 40
0.7957897818858369
 40
0.8244365731604835
 40
0.853047089171502
 40
0.881502012079492
 40
0.9096386818148792
 40
0.9372687097493329
 40
0.964225741740043
 40
0.990421918078449
 40
1.0
 40
1.0
 40
1.0
 40
1.0
 10
39.89774043423612
 20
484.4663033130976
 30
0.0
 10
40.12643505467825
 20
484.4666804125233
 30
0.0
 10
40.68969185368079
 20
484.4679504431643
 30
0.0
 10
41.71195910794724
 20
484.481236697573
 30
0.0
 10
42.88507723418881
 20
484.5111492613392
 30
0.0
 10
44.06344353859432
 20
484.5560224260828
 30
0.0
 10
45.23228675272167
 20
484.6155568023658
 30
0.0
 10
46.39315151873915
 20
484.6897278250814
 30
0.0
 10
47.54323588383831
 20
484.7784114812546
 30
0.0
 10
48.68092826041553
 20
484.881485226435
 30
0.0
 10
49.80432829671557
 20
484.9988018908823
 30
0.0
 10
50.91164819818049
 20
485.1301978568731
 30
0.0
 10
52.00111002015298
 20
485.275492314303
 30
0.0
 10
53.07097807452634
 20
485.4344892164371
 30
0.0
 10
54.11955511294742
 20
485.6069788772144
 30
0.0
 10
55.14518820860182
 20
485.7927401024837
 30
0.0
 10
56.14627200251926
 20
485.9915427078501
 30
0.0
 10
57.1212525833003
 20
486.2031505787048
 30
0.0
 10
58.06863105844683
 20
486.4273253761386
 30
0.0
 10
58.98696696179599
 20
486.6638310409291
 30
0.0
 10
59.87488128190802
 20
486.9124392731031
 30
0.0
 10
60.73105888461529
 20
487.1729361953223
 30
0.0
 10
61.55424993519341
 20
487.4451304252976
 30
0.0
 10
62.34326970351164
 20
487.7288627671472
 30
0.0
 10
63.0969957765153
 20
488.0240176352461
 30
0.0
 10
63.81436117326808
 20
488.3305360727155
 30
0.0
 10
64.49434102692432
 20
488.6484296058003
 30
0.0
 10
65.13592955883558
 20
488.977793077145
 30
0.0
 10
65.73810226970035
 20
489.3188118475505
 30
0.0
 10
66.2997594364502
 20
489.6717563197702
 30
0.0
 10
66.81964071656878
 20
490.036944362212
 30
0.0
 10
67.29609524520808
 20
490.4145558541885
 30
0.0
 10
67.72703635567096
 20
490.8044409547335
 30
0.0
 10
68.11017666926459
 20
491.2060354554696
 30
0.0
 10
68.44260988392796
 20
491.6176700049672
 30
0.0
 10
68.72376721742963
 20
492.0385677997778
 30
0.0
 10
68.9464444678311
 20
492.4613818769197
 30
0.0
 10
69.09382093673105
 20
492.8114607124505
 30
0.0
 10
69.14328287918103
 20
492.9997447122382
 30
0.0
 10
69.1586260237967
 20
493.0589049415426
 30
0.0
  0
ELLIPSE
  5
7D
330
6E
100
AcDbEntity
  8
DV1_Default
  6
Continuous
 62
     7
100
AcDbEllipse
 10
39.8977404323
 20
436.3487189558
 30
0.0
 11
12.00000000000005
 21
7.258083023486961E-12
 31
0.0
210
0.0
220
0.0
230
1.0
 40
0.4226182618
 41
0.0000000000000035
 42
0.6829277021206354
  0
ELLIPSE
  5
7E
330
6E
100
AcDbEntity
  8
DV1_Default
  6
Continuous
 62
     7
100
AcDbEllipse
 10
39.8977404323
 20
436.3487189558
 30
0.0
 11
12.00000000000005
 21
7.258083023486961E-12
 31
0.0
210
0.0
220
0.0
230
1.0
 40
0.4226182618
 41
2.459144837574405
 42
3.330356003788519
  0
ELLIPSE
  5
7F
330
6E
100
AcDbEntity
  8
DV1_Default
  6
Continuous
 62
     7
100
AcDbEllipse
 10
39.8977404323
 20
436.3487189558
 30
0.0
 11
12.00000000000005
 21
7.258083023486961E-12
 31
0.0
210
0.0
220
0.0
230
1.0
 40
0.4226182618
 41
6.094421956980859
 42
6.283185307179586
  0
ELLIPSE
  5
80
330
6E
100
AcDbEntity
  8
DV1_Default
  6
Continuous
 62
     7
100
AcDbEllipse
 10
39.8977404323
 20
435.4424111688
 30
0.0
 11
11.00000000000004
 21
6.661338147750939E-12
 31
0.0
210
0.0
220
0.0
230
1.0
 40
0.4226182618
 41
0.3426238820662299
 42
2.798968771523558
  0
ELLIPSE
  5
81
330
6E
100
AcDbEntity
  8
DV1_Default
  6
Continuous
 62
     7
100
AcDbEllipse
 10
39.8977404323
 20
434.445472603
 30
0.0
 11
12.00000000000004
 21
7.258083023486960E-12
 31
0.0
210
0.0
220
0.0
230
1.0
 40
0.4226182618
 41
0.0
 42
3.141592653589786
  0
ELLIPSE
  5
82
330
6E
100
AcDbEntity
  8
DV1_Default
  6
Continuous
 62
     7
100
AcDbEllipse
 10
39.8977404323
 20
429.0076258809
 30
0.0
 11
12.00000000000013
 21
7.202571872255703E-12
 31
0.0
210
0.0
220
0.0
230
1.0
 40
0.4226182618
 41
0.4297754313044139
 42
2.71181722228514
  0
ELLIPSE
  5
83
330
6E
100
AcDbEntity
  8
DV1_Default
  6
Continuous
 62
     7
100
AcDbEllipse
 10
39.8977404323
 20
431.4999722952
 30
0.0
 11
-11.99999999999998
 21
-7.299716386910404E-12
 31
0.0
210
0.0
220
0.0
230
1.0
 40
0.4226182618
 41
2.711817222285132
 42
3.571368084894181
  0
ELLIPSE
  5
84
330
6E
100
AcDbEntity
  8
DV1_Default
  6
Continuous
 62
     7
100
AcDbEllipse
 10
39.8977404323
 20
428.1013180939
 30
0.0
 11
11.00000000000006
 21
6.633582572135310E-12
 31
0.0
210
0.0
220
0.0
230
1.0
 40
0.4226182618
 41
0.1289217030598072
 42
3.012670950529722
  0
LINE
  5
85
330
6E
100
AcDbEntity
  8
DV1_Default
  6
Continuous
 62
     7
100
AcDbLine
 10
50.806452547
 20
426.8945345721
 30
0.0
 11
50.806452547
 21
427.5036456164
 31
0.0
  0
LINE
  5
86
330
6E
100
AcDbEntity
  8
DV1_Default
  6
Continuous
 62
     7
100
AcDbLine
 10
50.806452547
 20
427.5036456164
 30
0.0
 11
50.806452547
 21
428.6989905714
 31
0.0
  0
LINE
  5
87
330
6E
100
AcDbEntity
  8
DV1_Default
  6
Continuous
 62
     7
100
AcDbLine
 10
50.806452547
 20
428.6989905714
 30
0.0
 11
50.806452547
 21
431.1207171897
 31
0.0
  0
LINE
  5
88
330
6E
100
AcDbEntity
  8
DV1_Default
  6
Continuous
 62
     7
100
AcDbLine
 10
50.806452547
 20
433.613063604
 30
0.0
 11
50.806452547
 21
431.1207171897
 31
0.0
  0
ELLIPSE
  5
89
330
6E
100
AcDbEntity
  8
DV1_Default
  6
Continuous
 62
     7
100
AcDbEllipse
 10
39.8977404323
 20
429.0076258809
 30
0.0
 11
-12.00000000000007
 21
-7.202571872255703E-12
 31
0.0
210
0.0
220
0.0
230
1.0
 40
0.4226182618
 41
0.4297754313044145
 42
0.485112246507637
  0
ELLIPSE
  5
8A
330
6E
100
AcDbEntity
  8
DV1_Default
  6
Continuous
 62
     7
100
AcDbEllipse
 10
39.8977404323
 20
429.0076258809
 30
0.0
 11
-12.00000000000007
 21
-7.202571872255703E-12
 31
0.0
210
0.0
220
0.0
230
1.0
 40
0.4226182618
 41
-3.626704900097419
 42
-3.57136808489445
  0
ELLIPSE
  5
8B
330
6E
100
AcDbEntity
  8
DV1_Default
  6
Continuous
 62
     7
100
AcDbEllipse
 10
39.8977404323
 20
431.4999722952
 30
0.0
 11
12.00000000000006
 21
7.313594174718219E-12
 31
0.0
210
0.0
220
0.0
230
1.0
 40
0.4226182618
 41
2.711817222285128
 42
3.571368084894178
  0
ELLIPSE
  5
8C
330
6E
100
AcDbEntity
  8
DV1_Default
  6
Continuous
 62
     7
100
AcDbEllipse
 10
39.8977404323
 20
428.1013180939
 30
0.0
 11
-11.00000000000005
 21
-6.647460359943125E-12
 31
0.0
210
0.0
220
0.0
230
1.0
 40
0.4226182618
 41
0.1289217030598038
 42
3.012670950529722
  0
LINE
  5
8D
330
6E
100
AcDbEntity
  8
DV1_Default
  6
Continuous
 62
     7
100
AcDbLine
 10
28.9890283177
 20
433.613063604
 30
0.0
 11
28.9890283177
 21
431.1207171897
 31
0.0
  0
LINE
  5
8E
330
6E
100
AcDbEntity
  8
DV1_Default
  6
Continuous
 62
     7
100
AcDbLine
 10
28.9890283177
 20
431.1207171897
 30
0.0
 11
28.9890283177
 21
428.6989905713
 31
0.0
  0
LINE
  5
8F
330
6E
100
AcDbEntity
  8
DV1_Default
  6
Continuous
 62
     7
100
AcDbLine
 10
28.9890283177
 20
428.6989905713
 30
0.0
 11
28.9890283177
 21
427.5036456164
 31
0.0
  0
LINE
  5
90
330
6E
100
AcDbEntity
  8
DV1_Default
  6
Continuous
 62
     7
100
AcDbLine
 10
28.9890283177
 20
427.5036456164
 30
0.0
 11
28.9890283177
 21
426.8945345721
 31
0.0
  0
LINE
  5
91
330
6E
100
AcDbEntity
  8
DV1_Default
  6
Continuous
 62
     7
100
AcDbLine
 10
51.8977404323
 20
436.3487189558
 30
0.0
 11
51.8977404323
 21
437.8778515469
 31
0.0
  0
LINE
  5
92
330
6E
100
AcDbEntity
  8
DV1_Default
  6
Continuous
 62
     7
100
AcDbLine
 10
27.8977404323
 20
437.8778515412
 30
0.0
 11
27.8977404323
 21
436.3487189558
 31
0.0
  0
LINE
  5
93
330
6E
100
AcDbEntity
  8
DV1_Default
  6
Continuous
 62
     7
100
AcDbLine
 10
51.8977404323
 20
431.4999722952
 30
0.0
 11
51.8977404323
 21
434.445472603
 31
0.0
  0
LINE
  5
94
330
6E
100
AcDbEntity
  8
DV1_Default
  6
Continuous
 62
     7
100
AcDbLine
 10
27.8977404323
 20
434.445472603
 30
0.0
 11
27.8977404323
 21
431.4999722952
 31
0.0
  0
LINE
  5
95
330
6E
100
AcDbEntity
  8
DV1_Default
  6
Continuous
 62
     7
100
AcDbLine
 10
29.282269073
 20
426.6427842975
 30
0.0
 11
30.1668916863
 21
425.9335466424
 31
0.0
  0
LINE
  5
96
330
6E
100
AcDbEntity
  8
DV1_Default
  6
Continuous
 62
     7
100
AcDbLine
 10
49.6285891784
 20
425.9335466424
 30
0.0
 11
50.5132117917
 21
426.6427842975
 31
0.0
  0
SPLINE
  5
97
330
6E
100
AcDbEntity
  8
DV1_Default
  6
Continuous
 62
     7
100
AcDbSpline
210
0.0
220
0.0
230
1.0
 70
     8
 71
     3
 72
    73
 73
    69
 74
     0
 42
0.0000000002752211
 43
0.0000000001
 40
0.0
 40
0.0
 40
0.0
 40
0.0
 40
0.0003285365958149
 40
0.0006570731916297
 40
0.0013141463832595
 40
0.0026282927665189
 40
0.0052565855330379
 40
0.0105131710660757
 40
0.0157697565991136
 40
0.0210263421321515
 40
0.0262829276651893
 40
0.0315395131982272
 40
0.0420526842643029
 40
0.0473092697973408
 40
0.0525658553303787
 40
0.0630790263964544
 40
0.0735921974625301
 40
0.0841053685286059
 40
0.0946185395946816
 40
0.1051317106607573
 40
0.1261580527929088
 40
0.1471843949250602
 40
0.1682107370572117
 40
0.1892370791893632
 40
0.1997502502554389
 40
0.2102634213215146
 40
0.2207765923875904
 40
0.2312897634536661
 40
0.2523161055858176
 40
0.2943687898501205
 40
0.3153951319822719
 40
0.3364214741144234
 40
0.3574478162465748
 40
0.3784741583787263
 40
0.3995005005108778
 40
0.4205268426430293
 40
0.4625795269073322
 40
0.5046322111716351
 40
0.546684895435938
 40
0.588737579700241
 40
0.6307902639645439
 40
0.6728429482288468
 40
0.7148956324931497
 40
0.7359219746253012
 40
0.7569483167574527
 40
0.7779746588896042
 40
0.7884878299556799
 40
0.7937444154887178
 40
0.7990010010217556
 40
0.8016292937882745
 40
0.8042575865547934
 40
0.8095141720878313
 40
0.8200273431539071
 40
0.8305405142199828
 40
0.8410536852860585
 40
0.86208002741821
 40
0.8831063695503615
 40
0.9041327116825129
 40
0.9146458827485887
 40
0.9251590538146645
 40
0.9356722248807401
 40
0.9461853959468158
 40
0.9566985670128916
 40
0.9672117380789673
 40
0.977724909145043
 40
0.9882380802111188
 40
0.9987512512771946
 40
0.9999999999999999
 40
0.9999999999999999
 40
0.9999999999999999
 40
0.9999999999999999
 10
39.8977404339557
 20
451.4376038492206
 30
0.0
 10
39.91281997101045
 20
451.4375366613698
 30
0.0
 10
39.94297740292304
 20
451.437447369306
 30
0.0
 10
40.0032938651772
 20
451.4372049460407
 30
0.0
 10
40.1088461198312
 20
451.436766747166
 30
0.0
 10
40.31994424894115
 20
451.4356938382345
 30
0.0
 10
40.74208280126756
 20
451.432608942356
 30
0.0
 10
41.34476481516828
 20
451.423638271944
 30
0.0
 10
42.06597115890525
 20
451.4037612413254
 30
0.0
 10
42.78410346099063
 20
451.3759256267758
 30
0.0
 10
43.49755880588511
 20
451.3393881212404
 30
0.0
 10
44.43911429893269
 20
451.2782087513275
 30
0.0
 10
45.36086880592686
 20
451.1970450757892
 30
0.0
 10
46.25200100177714
 20
451.097489551805
 30
0.0
 10
47.11859418068502
 20
450.9862013818477
 30
0.0
 10
48.15520548788207
 20
450.8302250373377
 30
0.0
 10
49.34334812482569
 20
450.6352522407864
 30
0.0
 10
50.473036630255
 20
450.4351191481105
 30
0.0
 10
51.54160780434861
 20
450.232466646325
 30
0.0
 10
52.87816350374547
 20
449.9611081699417
 30
0.0
 10
54.38319423213699
 20
449.6241426776366
 30
0.0
 10
55.93111131854123
 20
449.2353244349003
 30
0.0
 10
57.25308325238181
 20
448.8695126831791
 30
0.0
 10
58.19703525826167
 20
448.5874257729504
 30
0.0
 10
58.8766021765115
 20
448.3762392544991
 30
0.0
 10
59.35229131726219
 20
448.2251153047297
 30
0.0
 10
59.79780570536638
 20
448.0812817282332
 30
0.0
 10
60.35695110843764
 20
447.8991902350646
 30
0.0
 10
61.24997610782847
 20
447.6050086878745
 30
0.0
 10
62.10197449632334
 20
447.3198962294458
 30
0.0
 10
62.82058075811309
 20
447.0777699428625
 30
0.0
 10
63.30180609065174
 20
446.9155980656961
 30
0.0
 10
63.73083094653848
 20
446.7714811226742
 30
0.0
 10
64.11317585335435
 20
446.6440385655638
 30
0.0
 10
64.45437405324292
 20
446.5318870085691
 30
0.0
 10
64.85954153508399
 20
446.4014151280794
 30
0.0
 10
65.28225471216483
 20
446.2715860103158
 30
0.0
 10
65.68008612900314
 20
446.1625500464557
 30
0.0
 10
65.98650431571004
 20
446.0955924422165
 30
0.0
 10
66.22062741700495
 20
446.0628341078112
 30
0.0
 10
66.39808582168416
 20
446.057734779547
 30
0.0
 10
66.530696880593
 20
446.0753829410941
 30
0.0
 10
66.60973425939498
 20
446.1072866261416
 30
0.0
 10
66.65746219047921
 20
446.14296476166
 30
0.0
 10
66.686355211113
 20
446.1744384545042
 30
0.0
 10
66.70533765822121
 20
446.2011636400019
 30
0.0
 10
66.71642807131894
 20
446.2279974185905
 30
0.0
 10
66.72222894259968
 20
446.2473216342113
 30
0.0
 10
66.72563647074658
 20
446.2620078721908
 30
0.0
 10
66.72823500048783
 20
446.2758895294704
 30
0.0
 10
66.73074683906232
 20
446.2913939346926
 30
0.0
 10
66.7349105403008
 20
446.3233139034617
 30
0.0
 10
66.7401703415687
 20
446.3856062936826
 30
0.0
 10
66.74529934655324
 20
446.4967116182567
 30
0.0
 10
66.75046231411262
 20
446.6944981081747
 30
0.0
 10
66.75370486517593
 20
447.0291820533743
 30
0.0
 10
66.75313466034038
 20
447.5830244259495
 30
0.0
 10
66.74988055559132
 20
448.1939951083532
 30
0.0
 10
66.74603323947295
 20
448.7854112472915
 30
0.0
 10
66.74264725646765
 20
449.2829644912658
 30
0.0
 10
66.73874487167592
 20
449.8409746038942
 30
0.0
 10
66.73424882745205
 20
450.4673890381889
 30
0.0
 10
66.72922900293527
 20
451.1669464769275
 30
0.0
 10
66.72345074996359
 20
451.9469354113984
 30
0.0
 10
66.71653539615552
 20
452.8156425325934
 30
0.0
 10
66.70803219421818
 20
453.7805340979748
 30
0.0
 10
66.70079093400133
 20
454.5325439183642
 30
0.0
 10
66.69650289705802
 20
454.9505302172347
 30
0.0
 10
66.69604165487766
 20
454.9951418950341
 30
0.0
  0
SPLINE
  5
98
330
6E
100
AcDbEntity
  8
DV1_Default
  6
Continuous
 62
     7
100
AcDbSpline
210
0.0
220
0.0
230
1.0
 70
     8
 71
     3
 72
     9
 73
     5
 74
     0
 42
0.0000000475604716
 43
0.0000000001
 40
0.0
 40
0.0
 40
0.0
 40
0.0
 40
0.6823680953462741
 40
1.0
 40
1.0
 40
1.0
 40
1.0
 10
66.66870670492338
 20
457.14306376923
 30
0.0
 10
66.66793461637843
 20
457.1904218056314
 30
0.0
 10
66.66677687889708
 20
457.2600735472668
 30
0.0
 10
66.66557853904371
 20
457.330084258388
 30
0.0
 10
66.66490248306827
 20
457.3532863908828
 30
0.0
  0
LINE
  5
99
330
6E
100
AcDbEntity
  8
DV1_Default
  6
Continuous
 62
     7
100
AcDbLine
 10
39.897740434
 20
339.4738531194
 30
0.0
 11
67.9976407579
 21
339.4738531189
 31
0.0
  0
SPLINE
  5
9A
330
6E
100
AcDbEntity
  8
DV1_Default
  6
Continuous
 62
     7
100
AcDbSpline
210
0.0
220
0.0
230
1.0
 70
     8
 71
     3
 72
    38
 73
    34
 74
     0
 42
0.0000000004927333
 43
0.0000000001
 40
0.0
 40
0.0
 40
0.0
 40
0.0
 40
0.0254301423834495
 40
0.0508602847668991
 40
0.0762904271503486
 40
0.1017205695337985
 40
0.1271507119172481
 40
0.1525808543006976
 40
0.1780109966841472
 40
0.2034411390675971
 40
0.2288712814510466
 40
0.2543014238344962
 40
0.2797315662179457
 40
0.3051617086013956
 40
0.3305918509848452
 40
0.3560219933682947
 40
0.4068822781351942
 40
0.4577425629020933
 40
0.5086028476689927
 40
0.5594631324358917
 40
0.6103234172027913
 40
0.6611837019696903
 40
0.6866138443531402
 40
0.7120439867365898
 40
0.7374741291200393
 40
0.7629042715034888
 40
0.7883344138869387
 40
0.8137645562703884
 40
0.8391946986538379
 40
0.8646248410372874
 40
0.9154851258041868
 40
0.9663454105710859
 40
1.0
 40
1.0
 40
1.0
 40
1.0
 10
67.08017731812475
 20
420.1288429551716
 30
0.0
 10
67.0773353103158
 20
420.3815705255238
 30
0.0
 10
67.07179687670234
 20
420.8739895712416
 30
0.0
 10
67.06394286073485
 20
421.5720308206788
 30
0.0
 10
67.05655799255297
 20
422.2281295084569
 30
0.0
 10
67.04961783457634
 20
422.8444935020745
 30
0.0
 10
67.04309043769268
 20
423.4240011562918
 30
0.0
 10
67.03694570792766
 20
423.9693659599411
 30
0.0
 10
67.03115309320127
 20
424.4833426183993
 30
0.0
 10
67.02568215964416
 20
424.9686755329463
 30
0.0
 10
67.02050244593269
 20
425.4281116809088
 30
0.0
 10
67.01558349845477
 20
425.8643973956141
 30
0.0
 10
67.01089486154117
 20
426.2802791713829
 30
0.0
 10
67.00640607914553
 20
426.6785034622823
 30
0.0
 10
67.00208669382864
 20
427.0618167324251
 30
0.0
 10
66.9965129117254
 20
427.5566685120181
 30
0.0
 10
66.98981669854038
 20
428.151703959847
 30
0.0
 10
66.98197127492956
 20
428.8500603530895
 30
0.0
 10
66.97407231894724
 20
429.5546849553101
 30
0.0
 10
66.96587597792019
 20
430.2875529552601
 30
0.0
 10
66.95713837807192
 20
431.0706351738887
 30
0.0
 10
66.94920289237264
 20
431.7833399372057
 30
0.0
 10
66.94234009248547
 20
432.400559430367
 30
0.0
 10
66.93690480613007
 20
432.8897884491986
 30
0.0
 10
66.93115106508091
 20
433.4080540442813
 30
0.0
 10
66.92504898540273
 20
433.9580427073261
 30
0.0
 10
66.91861110593067
 20
434.538660246278
 30
0.0
 10
66.91184943563536
 20
435.1488591283791
 30
0.0
 10
66.90477610744337
 20
435.7875801559518
 30
0.0
 10
66.89494525398642
 20
436.6758587124042
 30
0.0
 10
66.88193806207768
 20
437.8522249481111
 30
0.0
 10
66.86715563633058
 20
439.1908553453806
 30
0.0
 10
66.85748644236293
 20
440.0674194060068
 30
0.0
 10
66.8535710421256
 20
440.4225318325175
 30
0.0
  0
SPLINE
  5
9B
330
6E
100
AcDbEntity
  8
DV1_Default
  6
Continuous
 62
     7
100
AcDbSpline
210
0.0
220
0.0
230
1.0
 70
     8
 71
     3
 72
    11
 73
     7
 74
     0
 42
0.00000000598745
 43
0.0000000001
 40
0.0
 40
0.0
 40
0.0
 40
0.0
 40
0.1423664515152418
 40
0.4438026825708372
 40
0.7452389136264246
 40
1.0
 40
1.0
 40
1.0
 40
1.0
 10
66.68640780179678
 20
455.682992676843
 30
0.0
 10
66.68554845584649
 20
455.7620111945267
 30
0.0
 10
66.68286886947445
 20
456.0084364345751
 30
0.0
 10
66.67836591370964
 20
456.4227158767583
 30
0.0
 10
66.67318000330607
 20
456.9001006963044
 30
0.0
 10
66.66981538750738
 20
457.2099948027055
 30
0.0
 10
66.66491710184785
 20
457.3529787480097
 30
0.0
  0
ARC
  5
9C
330
6E
100
AcDbEntity
  8
DV1_Default
  6
Continuous
 62
     7
100
AcDbCircle
 10
2078.2428281505
 20
505.9317998657
 30
0.0
 40
2012.164416638559
100
AcDbArc
 50
181.3620688697
 51
181.3833701194
  0
SPLINE
  5
9D
330
6E
100
AcDbEntity
  8
DV1_Default
  6
Continuous
 62
     7
100
AcDbSpline
210
0.0
220
0.0
230
1.0
 70
     8
 71
     3
 72
    27
 73
    23
 74
     0
 42
0.0000000003293298
 43
0.0000000001
 40
0.0
 40
0.0
 40
0.0
 40
0.0
 40
0.034863150832602
 40
0.0697921240083752
 40
0.1048319017437901
 40
0.1400255924043314
 40
0.1754154506278808
 40
0.2110438973042329
 40
0.2469545225555759
 40
0.2831926653071951
 40
0.3198023402166393
 40
0.3568243716504151
 40
0.4344628177805183
 40
0.5166913781223256
 40
0.5832327211066965
 40
0.6586472120068658
 40
0.6948288548093937
 40
0.7830222071586339
 40
0.8434843390182514
 40
0.8903807901360269
 40
0.9485891020754571
 40
1.0
 40
1.0
 40
1.0
 40
1.0
 10
39.89774043394112
 20
475.5605846459061
 30
0.0
 10
40.39928203730253
 20
475.5568507105169
 30
0.0
 10
41.40331216483724
 20
475.5493757900554
 30
0.0
 10
42.90465445554797
 20
475.4888904494004
 30
0.0
 10
44.39735094028087
 20
475.3921536023485
 30
0.0
 10
45.87670149531208
 20
475.2554291119112
 30
0.0
 10
47.33798829335019
 20
475.0794516239764
 30
0.0
 10
48.77647256230129
 20
474.8637119791536
 30
0.0
 10
50.18738090979327
 20
474.6080053696532
 30
0.0
 10
51.56587610356667
 20
474.312004858138
 30
0.0
 10
52.90791884129935
 20
473.9751317980024
 30
0.0
 10
54.6796102174293
 20
473.459982814571
 30
0.0
 10
56.82417303340312
 20
472.6884959855764
 30
0.0
 10
59.00795660405338
 20
471.6695674910977
 30
0.0
 10
60.89549571652872
 20
470.554231044025
 30
0.0
 10
62.19574865018865
 20
469.6203908257817
 30
0.0
 10
63.47152545376306
 20
468.5253719997086
 30
0.0
 10
64.47873376950558
 20
467.520984057313
 30
0.0
 10
65.310557317973
 20
466.4757393362634
 30
0.0
 10
65.86960528560874
 20
465.6325936070015
 30
0.0
 10
66.27710048197238
 20
464.9027061909566
 30
0.0
 10
66.42693467026889
 20
464.5177866806199
 30
0.0
 10
66.4972110335858
 20
464.3372693948255
 30
0.0
  0
SPLINE
  5
9E
330
6E
100
AcDbEntity
  8
DV1_Default
  6
Continuous
 62
     7
100
AcDbSpline
210
0.0
220
0.0
230
1.0
 70
     8
 71
     3
 72
    18
 73
    14
 74
     0
 42
0.0000000006568923
 43
0.0000000001
 40
0.0
 40
0.0
 40
0.0
 40
0.0
 40
0.1072937434946754
 40
0.1072937434946754
 40
0.2145874869893507
 40
0.2145874869893507
 40
0.4291749739787012
 40
0.4291749739787012
 40
0.643762460968052
 40
0.643762460968052
 40
0.8583499479574026
 40
0.8583499479574026
 40
1.0
 40
1.0
 40
1.0
 40
1.0
 10
39.89774043396194
 20
440.5891128474657
 30
0.0
 10
40.70240758943013
 20
440.5891055817689
 30
0.0
 10
41.51854831981613
 20
440.5655002840716
 30
0.0
 10
43.09278044967743
 20
440.4808636571884
 30
0.0
 10
43.85926502748181
 20
440.4201631359604
 30
0.0
 10
46.09532800347627
 20
440.1909519477228
 30
0.0
 10
47.44207404016681
 20
439.9878118912993
 30
0.0
 10
49.70587618090595
 20
439.4367889650053
 30
0.0
 10
50.60400234098572
 20
439.0929225936416
 30
0.0
 10
51.82590019563178
 20
438.2009936495845
 30
0.0
 10
52.14908595906878
 20
437.6437627335135
 30
0.0
 10
52.14684514147008
 20
436.5330424157475
 30
0.0
 10
52.00572148409815
 20
436.0450183663058
 30
0.0
 10
51.73210111202285
 20
435.5340949043851
 30
0.0
  0
ELLIPSE
  5
9F
330
6E
100
AcDbEntity
  8
DV1_Default
  6
Continuous
 62
     7
100
AcDbEllipse
 10
39.8977404323
 20
437.6175498576
 30
0.0
 11
12.25
 21
7.410738689372920E-12
 31
0.0
210
0.0
220
0.0
230
1.0
 40
0.4226182618
 41
3.210861205903706
 42
3.343968339156858
  0
ELLIPSE
  5
A0
330
6E
100
AcDbEntity
  8
DV1_Default
  6
Continuous
 62
     7
100
AcDbEllipse
 10
39.8977404323
 20
437.6175498576
 30
0.0
 11
12.25
 21
7.410738689372920E-12
 31
0.0
210
0.0
220
0.0
230
1.0
 40
0.4226182618
 41
6.080809621612497
 42
6.22188455612538
  0
SPLINE
  5
A1
330
6E
100
AcDbEntity
  8
DV1_Default
  6
Continuous
 62
     7
100
AcDbSpline
210
0.0
220
0.0
230
1.0
 70
     8
 71
     3
 72
    18
 73
    14
 74
     0
 42
0.0000000006569981
 43
0.0000000001
 40
0.0
 40
0.0
 40
0.0
 40
0.0
 40
0.1073147030809825
 40
0.1073147030809825
 40
0.214629406161965
 40
0.214629406161965
 40
0.4292588123239298
 40
0.4292588123239298
 40
0.6438882184858947
 40
0.6438882184858947
 40
0.8585176246478596
 40
0.8585176246478596
 40
0.9999999999999999
 40
0.9999999999999999
 40
0.9999999999999999
 40
0.9999999999999999
 10
39.89774043396194
 20
440.5891128474657
 30
0.0
 10
39.09307327849439
 20
440.5891055817679
 30
0.0
 10
38.27693254810841
 20
440.5655002840696
 30
0.0
 10
36.70270041824723
 20
440.4808636571846
 30
0.0
 10
35.93621584044291
 20
440.4201631359556
 30
0.0
 10
33.70015286444873
 20
440.1909519477153
 30
0.0
 10
32.35340682775843
 20
439.9878118912902
 30
0.0
 10
30.08960468701996
 20
439.4367889649935
 30
0.0
 10
29.19147852694061
 20
439.0929225936287
 30
0.0
 10
27.96958067229562
 20
438.2009936495701
 30
0.0
 10
27.64639490885931
 20
437.6437627334987
 30
0.0
 10
27.6486344979165
 20
436.5336513753763
 30
0.0
 10
27.78937048293869
 20
436.0463640701881
 30
0.0
 10
28.06224869406208
 20
435.5362081841066
 30
0.0
  0
LINE
  5
A2
330
6E
100
AcDbEntity
  8
DV1_Default
  6
Continuous
 62
     7
100
AcDbLine
 10
39.897740434
 20
339.4738531194
 30
0.0
 11
11.7978401101
 21
339.4738531189
 31
0.0
  0
SPLINE
  5
A3
330
6E
100
AcDbEntity
  8
DV1_Default
  6
Continuous
 62
     7
100
AcDbSpline
210
0.0
220
0.0
230
1.0
 70
     8
 71
     3
 72
    25
 73
    21
 74
     0
 42
0.0000000003292925
 43
0.0000000001
 40
0.0
 40
0.0
 40
0.0
 40
0.0
 40
0.125
 40
0.25
 40
0.3125
 40
0.375
 40
0.4375
 40
0.5
 40
0.5625
 40
0.625
 40
0.65625
 40
0.6875
 40
0.75
 40
0.8125
 40
0.84375
 40
0.875
 40
0.90625
 40
0.9375
 40
0.96875
 40
1.0
 40
1.0
 40
1.0
 40
1.0
 10
39.89774043394112
 20
475.5605846459061
 30
0.0
 10
38.09923819779251
 20
475.5605705012388
 30
0.0
 10
34.50318793851145
 20
475.3936671722421
 30
0.0
 10
30.25812171079921
 20
474.7782145096783
 30
0.0
 10
27.13714439184641
 20
474.0572470717768
 30
0.0
 10
24.95363772375322
 20
473.4093846647182
 30
0.0
 10
22.94333873636282
 20
472.6605520126176
 30
0.0
 10
21.11592234119243
 20
471.8258137005241
 30
0.0
 10
19.47922916192923
 20
470.914252433985
 30
0.0
 10
18.27309033295867
 20
470.1067926289208
 30
0.0
 10
17.40017516551382
 20
469.4439348255972
 30
0.0
 10
16.59241309889033
 20
468.7588473618768
 30
0.0
 10
15.69235311662295
 20
467.9107685965225
 30
0.0
 10
14.94801061807805
 20
467.0643182251995
 30
0.0
 10
14.44628212441795
 20
466.4055709376037
 30
0.0
 10
14.11704338415814
 20
465.9241550694839
 30
0.0
 10
13.83492522782062
 20
465.4650236942555
 30
0.0
 10
13.60122414210863
 20
465.0402002760159
 30
0.0
 10
13.41806946311896
 20
464.6569325577532
 30
0.0
 10
13.33184311503514
 20
464.436459764506
 30
0.0
 10
13.29826983431001
 20
464.3372693947933
 30
0.0
  0
SPLINE
  5
A4
330
6E
100
AcDbEntity
  8
DV1_Default
  6
Continuous
 62
     7
100
AcDbSpline
210
0.0
220
0.0
230
1.0
 70
     8
 71
     3
 72
    13
 73
     9
 74
     0
 42
0.0000000000866612
 43
0.0000000001
 40
0.0
 40
0.0
 40
0.0
 40
0.0
 40
0.1761878560041263
 40
0.3523757120082527
 40
0.5285635680123791
 40
0.7047514240165054
 40
0.8809392800206317
 40
0.9999999999999999
 40
0.9999999999999999
 40
0.9999999999999999
 40
0.9999999999999999
 10
11.79784011013681
 20
339.473853118902
 30
0.0
 10
11.87891073228706
 20
346.2502968778807
 30
0.0
 10
12.03510478114186
 20
359.8032528155819
 30
0.0
 10
12.26589222858177
 20
380.1327249156531
 30
0.0
 10
12.49476467811193
 20
400.4622181727873
 30
0.0
 10
12.72279025781723
 20
420.7917207231213
 30
0.0
 10
12.92617083914103
 20
438.9240111969256
 30
0.0
 10
13.05393925316721
 20
450.2797964656264
 30
0.0
 10
13.10367794939169
 20
454.8584201275755
 30
0.0
  0
SPLINE
  5
A5
330
6E
100
AcDbEntity
  8
DV1_Default
  6
Continuous
 62
     7
100
AcDbSpline
210
0.0
220
0.0
230
1.0
 70
     8
 71
     3
 72
     8
 73
     4
 74
     0
 42
0.0000000139245916
 43
0.0000000001
 40
0.0
 40
0.0
 40
0.0
 40
0.0
 40
0.9999999999999999
 40
0.9999999999999999
 40
0.9999999999999999
 40
0.9999999999999999
 10
13.12289469984865
 20
456.6359785497002
 30
0.0
 10
13.12546940043195
 20
456.8753514823891
 30
0.0
 10
13.12803856855962
 20
457.1147223674142
 30
0.0
 10
13.13060193996803
 20
457.3540911100746
 30
0.0
  0
ARC
  5
A6
330
6E
100
AcDbEntity
  8
DV1_Default
  6
Continuous
 62
     7
100
AcDbCircle
 10
-1934.7181100084
 20
505.0917460182
 30
0.0
 40
1948.433598646666
100
AcDbArc
 50
358.5960825823
 51
358.6234988305
  0
SPLINE
  5
A7
330
6E
100
AcDbEntity
  8
DV1_Default
  6
Continuous
 62
     7
100
AcDbSpline
210
0.0
220
0.0
230
1.0
 70
     8
 71
     3
 72
    34
 73
    30
 74
     0
 42
0.0000000002751104
 43
0.0000000001
 40
0.0
 40
0.0
 40
0.0
 40
0.0
 40
0.0110490262859254
 40
0.0215382028494061
 40
0.0314683443902752
 40
0.0408401874063836
 40
0.049654264455751
 40
0.0683058967813078
 40
0.0868811331036873
 40
0.1182058739660788
 40
0.1519933232191569
 40
0.2057824366915159
 40
0.2659987938593537
 40
0.3617749990177353
 40
0.4504899932303809
 40
0.5321648500277998
 40
0.6021611277517476
 40
0.6652743780819587
 40
0.7319439750401703
 40
0.7983855095711303
 40
0.8150239386136432
 40
0.8316604375020129
 40
0.8649308235055645
 40
0.8981937336526967
 40
0.9314518387554687
 40
0.9646855569736995
 40
0.9813060092269269
 40
0.9979280961061245
 40
1.0
 40
1.0
 40
1.0
 40
1.0
 10
39.8977404339557
 20
451.4376038492206
 30
0.0
 10
39.39070530860683
 20
451.4329087130646
 30
0.0
 10
38.40232646377152
 20
451.4237560867128
 30
0.0
 10
36.96530576739669
 20
451.3747013963095
 30
0.0
 10
35.62286404032568
 20
451.2981727683248
 30
0.0
 10
34.38747997141937
 20
451.193653865585
 30
0.0
 10
32.82984450801531
 20
451.016190459132
 30
0.0
 10
31.02614884956348
 20
450.7348195518653
 30
0.0
 10
28.54959194753955
 20
450.3022909407922
 30
0.0
 10
25.92746476175104
 20
449.7561150189422
 30
0.0
 10
22.98669848206385
 20
449.017273682661
 30
0.0
 10
20.39735567843522
 20
448.2203832762193
 30
0.0
 10
17.81848931081084
 20
447.3637313973744
 30
0.0
 10
15.89017802249393
 20
446.7093626768898
 30
0.0
 10
14.6144653911992
 20
446.2945947974687
 30
0.0
 10
13.90313577376899
 20
446.1057372100045
 30
0.0
 10
13.51036595721965
 20
446.054035101128
 30
0.0
 10
13.27353279180858
 20
446.0631348235917
 30
0.0
 10
13.1335841059201
 20
446.1432688068441
 30
0.0
 10
13.08055655128427
 20
446.1815423768334
 30
0.0
 10
13.05810811684294
 20
446.3363243010526
 30
0.0
 10
13.04633312948323
 20
446.5559772812012
 30
0.0
 10
13.04064085790112
 20
447.0545087876161
 30
0.0
 10
13.04417625548523
 20
448.0381868904058
 30
0.0
 10
13.05439361857735
 20
449.5089475862246
 30
0.0
 10
13.06680108954341
 20
451.2685430673511
 30
0.0
 10
13.08116401039283
 20
453.1052416697684
 30
0.0
 10
13.09193673624972
 20
454.2567752539759
 30
0.0
 10
13.09927102313653
 20
454.9186104948299
 30
0.0
 10
13.10010118122836
 20
454.9926050779763
 30
0.0
  0
SPLINE
  5
A8
330
6E
100
AcDbEntity
  8
DV1_Default
  6
Continuous
 62
     7
100
AcDbSpline
210
0.0
220
0.0
230
1.0
 70
     8
 71
     3
 72
     9
 73
     5
 74
     0
 42
0.0000000474919686
 43
0.0000000001
 40
0.0
 40
0.0
 40
0.0
 40
0.0
 40
0.0431933785914607
 40
1.0
 40
1.0
 40
1.0
 40
1.0
 10
13.12487347658196
 20
457.1428614264721
 30
0.0
 10
13.12490709575117
 20
457.1458648863132
 30
0.0
 10
13.12568546692786
 20
457.2154173974625
 30
0.0
 10
13.12646454438559
 20
457.2853712184386
 30
0.0
 10
13.13055364694781
 20
457.3532914831529
 30
0.0
  0
SPLINE
  5
A9
330
6E
100
AcDbEntity
  8
DV1_Default
  6
Continuous
 62
     7
100
AcDbSpline
210
0.0
220
0.0
230
1.0
 70
     8
 71
     3
 72
    50
 73
    46
 74
     0
 42
0.0000000006572502
 43
0.0000000001
 40
0.0
 40
0.0
 40
0.0
 40
0.0
 40
0.0154348970357767
 40
0.0396257861932057
 40
0.0664818959076643
 40
0.0962444465091922
 40
0.1294561793142555
 40
0.1628983170672827
 40
0.1937215243338112
 40
0.2258923584108559
 40
0.257172161858897
 40
0.2726436765588909
 40
0.2879995993893835
 40
0.3022633593983139
 40
0.315205674686838
 40
0.3274124438737228
 40
0.3393875126076588
 40
0.3449341589642703
 40
0.3503669189361379
 40
0.3620318598131922
 40
0.3763986652878086
 40
0.3982065466265857
 40
0.4199920137062731
 40
0.4392779681158016
 40
0.4559674144533022
 40
0.4699902932864246
 40
0.4862080904658584
 40
0.5045965695551023
 40
0.5253922735615774
 40
0.5570107576778118
 40
0.592522772784696
 40
0.6286806042087933
 40
0.6647755636450091
 40
0.699253659220298
 40
0.7335259908582622
 40
0.7649033095424119
 40
0.7924881493590996
 40
0.8171867282892944
 40
0.8412959094049218
 40
0.8581114529667766
 40
0.8770681464753944
 40
0.8981243213362743
 40
0.9318508206942666
 40
0.9669760102203635
 40
1.0
 40
1.0
 40
1.0
 40
1.0
 10
66.85745655687423
 20
439.6414315992553
 30
0.0
 10
66.85746947191085
 20
439.6412251030204
 30
0.0
 10
66.85745203476664
 20
439.6492498007442
 30
0.0
 10
66.85720720697742
 20
439.7066896120515
 30
0.0
 10
66.85684247080529
 20
439.8070185353112
 30
0.0
 10
66.85644168846581
 20
439.9429521944358
 30
0.0
 10
66.85607213157938
 20
440.1074801068645
 30
0.0
 10
66.8557724424584
 20
440.2882532000341
 30
0.0
 10
66.85552184062355
 20
440.4872695558963
 30
0.0
 10
66.85529556924982
 20
440.7016870721733
 30
0.0
 10
66.85501509866066
 20
440.9625047437318
 30
0.0
 10
66.85465943965205
 20
441.2130245142603
 30
0.0
 10
66.85432096340588
 20
441.405498021234
 30
0.0
 10
66.85377409334151
 20
441.6417355032171
 30
0.0
 10
66.85280737702779
 20
441.9386821001316
 30
0.0
 10
66.85120323018111
 20
442.2860199399292
 30
0.0
 10
66.84917784098036
 20
442.6035995298905
 30
0.0
 10
66.84714736410326
 20
442.8588934155878
 30
0.0
 10
66.8449428693253
 20
443.1048066769216
 30
0.0
 10
66.84179952939397
 20
443.4020867224713
 30
0.0
 10
66.83778159772166
 20
443.7272332939401
 30
0.0
 10
66.83406172033985
 20
443.9966570618409
 30
0.0
 10
66.829932015422
 20
444.278335894172
 30
0.0
 10
66.8260977912714
 20
444.5284284840565
 30
0.0
 10
66.82288865058982
 20
444.7330216346382
 30
0.0
 10
66.82010846005889
 20
444.9083230497003
 30
0.0
 10
66.81772264431577
 20
445.0581172967889
 30
0.0
 10
66.81497223660325
 20
445.2310463213394
 30
0.0
 10
66.81152550527158
 20
445.4488869861524
 30
0.0
 10
66.80722753882112
 20
445.7239588055529
 30
0.0
 10
66.80214287282327
 20
446.057246077275
 30
0.0
 10
66.79646594087602
 20
446.4426978982281
 30
0.0
 10
66.79050159894432
 20
446.8649830983518
 30
0.0
 10
66.78426799920572
 20
447.326261906775
 30
0.0
 10
66.7780047670948
 20
447.8094623769986
 30
0.0
 10
66.77150724074407
 20
448.3290286394237
 30
0.0
 10
66.7649502544846
 20
448.8684848727444
 30
0.0
 10
66.75822828696785
 20
449.4334439608298
 30
0.0
 10
66.75199672228506
 20
449.966021120218
 30
0.0
 10
66.74587463411449
 20
450.495279257226
 30
0.0
 10
66.73970964590004
 20
451.0329600670154
 30
0.0
 10
66.73142584914373
 20
451.7615518134627
 30
0.0
 10
66.72107607229061
 20
452.680574638639
 30
0.0
 10
66.70879302582583
 20
453.780720669224
 30
0.0
 10
66.70124826516566
 20
454.4626993153045
 30
0.0
 10
66.69691143089173
 20
454.8549430871752
 30
0.0
  0
ARC
  5
AA
330
6E
100
AcDbEntity
  8
DV1_Default
  6
Continuous
 62
     7
100
AcDbCircle
 10
-5905.0006760831
 20
408.563731586
 30
0.0
 40
5971.877269212181
100
AcDbArc
 50
0.4453055688
 51
0.7782154484
  0
LINE
  5
AB
330
6E
100
AcDbEntity
  8
DV1_Default
  6
Continuous
 62
     7
100
AcDbLine
 10
67.9977402975
 20
339.4738531188
 30
0.0
 11
67.0807890763
 21
420.0862403621
 31
0.0
  0
ARC
  5
AC
330
6E
100
AcDbEntity
  8
DV1_Default
  6
Continuous
 62
     7
100
AcDbCircle
 10
8615.6221502864
 20
377.9483937982
 30
0.0
 40
8602.867755864838
100
AcDbArc
 50
179.255878349
 51
179.4869766485
  0
SPLINE
  5
AD
330
6E
100
AcDbEntity
  8
DV1_Default
  6
Continuous
 62
     7
100
AcDbSpline
210
0.0
220
0.0
230
1.0
 70
     8
 71
     3
 72
    50
 73
    46
 74
     0
 42
0.0000000006572498
 43
0.0000000001
 40
0.0
 40
0.0
 40
0.0
 40
0.0
 40
0.0330235839145026
 40
0.0681483417516847
 40
0.1018744266106724
 40
0.1229303426909574
 40
0.1418868032216326
 40
0.1587021401203037
 40
0.1828110249338719
 40
0.2075093003182946
 40
0.235093801117043
 40
0.266470734173659
 40
0.3007426446043585
 40
0.335220316443534
 40
0.3739074960602981
 40
0.4126664444775272
 40
0.4501546081098653
 40
0.4828815313779171
 40
0.5051176889434912
 40
0.524292869107154
 40
0.5441090802379902
 40
0.5696982614602154
 40
0.586737352828831
 40
0.605511584778093
 40
0.6150513528334217
 40
0.6236082479978816
 40
0.6379748769043241
 40
0.6496396744191459
 40
0.6550723676223422
 40
0.6606189458106179
 40
0.6725938673708463
 40
0.6848004865364233
 40
0.697742642763769
 40
0.7120062274709532
 40
0.7273619615770073
 40
0.7428332861319393
 40
0.7741127051509036
 40
0.8062831438480988
 40
0.8376908293893743
 40
0.8718121147513059
 40
0.9054705699675484
 40
0.9355535252452618
 40
0.962164877558436
 40
0.985889108335334
 40
1.0
 40
1.0
 40
1.0
 40
1.0
 10
13.09856943701553
 20
454.8549430871429
 30
0.0
 10
13.0942326027421
 20
454.462699315272
 30
0.0
 10
13.08668784208247
 20
453.7807206691709
 30
0.0
 10
13.07440479562036
 20
452.6805746386822
 30
0.0
 10
13.06405501876411
 20
451.7615518132048
 30
0.0
 10
13.05577122201871
 20
451.0329600674625
 30
0.0
 10
13.04960623377606
 20
450.4952792556563
 30
0.0
 10
13.04348414571339
 20
449.9660211261419
 30
0.0
 10
13.03725258046326
 20
449.433443927065
 30
0.0
 10
13.03053061534969
 20
448.868485006875
 30
0.0
 10
13.02397361860727
 20
448.329028040912
 30
0.0
 10
13.01747613901009
 20
447.809465045792
 30
0.0
 10
13.01121271182886
 20
447.3262509431244
 30
0.0
 10
13.00482573765943
 20
446.8536194257377
 30
0.0
 10
12.99858258031467
 20
446.4123782216085
 30
0.0
 10
12.99257792609327
 20
446.0064843675553
 30
0.0
 10
12.98724048250913
 20
445.6584875539746
 30
0.0
 10
12.98273942130648
 20
445.3717079492129
 30
0.0
 10
12.9790881320642
 20
445.1416492633771
 30
0.0
 10
12.97611682903662
 20
444.9550878012323
 30
0.0
 10
12.97245619600415
 20
444.7247535571234
 30
0.0
 10
12.96833256291443
 20
444.4611786075419
 30
0.0
 10
12.96426004468697
 20
444.1914208972148
 30
0.0
 10
12.96130951555331
 20
443.9874890031059
 30
0.0
 10
12.95893647866659
 20
443.8156277528282
 30
0.0
 10
12.95657214360204
 20
443.6362544795886
 30
0.0
 10
12.95368510276283
 20
443.4023297498421
 30
0.0
 10
12.95053760908485
 20
443.1047815291688
 30
0.0
 10
12.94833357417729
 20
442.8588979580768
 30
0.0
 10
12.94630298242702
 20
442.6035966558782
 30
0.0
 10
12.94427765345702
 20
442.2860209546344
 30
0.0
 10
12.94267348638011
 20
441.9386818082158
 30
0.0
 10
12.9417067759567
 20
441.6417355935511
 30
0.0
 10
12.94115990411337
 20
441.4054979882567
 30
0.0
 10
12.94082142833672
 20
441.2130245461396
 30
0.0
 10
12.94046576945703
 20
440.9625046071843
 30
0.0
 10
12.94018529655195
 20
440.70168816508
 30
0.0
 10
12.93995763152915
 20
440.485935266581
 30
0.0
 10
12.93970352584008
 20
440.2845199618072
 30
0.0
 10
12.93939704997494
 20
440.1011055259272
 30
0.0
 10
12.93901815079372
 20
439.9347137688421
 30
0.0
 10
12.9386132611099
 20
439.7993928734575
 30
0.0
 10
12.93825057213823
 20
439.7010462372302
 30
0.0
 10
12.9380250894521
 20
439.6482506682424
 30
0.0
 10
12.93801218459646
 20
439.6411956797672
 30
0.0
 10
12.93802400178985
 20
439.6413801480339
 30
0.0
  0
ENDBLK
  5
AF
330
6E
100
AcDbEntity
  8
0
100
AcDbBlockEnd
  0
BLOCK
  5
EB
330
B0
100
AcDbEntity
  8
0
100
AcDbBlockBegin
  2
SE1
 70
     0
 10
0.0
 20
0.0
 30
0.0
  3
SE1
  1

  0
LINE
  5
B3
330
B0
100
AcDbEntity
  8
DV2_Default
  6
Continuous
 62
     7
100
AcDbLine
 10
225.2910776309
 20
497.0626301267
 30
0.0
 11
162.232604216
 21
519.3308963118
 31
0.0
  0
LINE
  5
B4
330
B0
100
AcDbEntity
  8
DV2_Default
  6
Continuous
 62
     7
100
AcDbLine
 10
215.8198057177
 20
484.5134873651
 30
0.0
 11
161.6399001454
 21
501.7741514163
 31
0.0
  0
ARC
  5
B5
330
B0
100
AcDbEntity
  8
DV2_Default
  6
Continuous
 62
     7
100
AcDbCircle
 10
177.7976031213
 20
462.98981012
 30
0.0
 40
60.50000000000001
100
AcDbArc
 50
38.4685437042
 51
80.0000000014
  0
ARC
  5
B6
330
B0
100
AcDbEntity
  8
DV2_Default
  6
Continuous
 62
     7
100
AcDbCircle
 10
177.7976031213
 20
462.98981012
 30
0.0
 40
60.50000000000001
100
AcDbArc
 50
80.0000000014
 51
102.6314562986
  0
LINE
  5
B7
330
B0
100
AcDbEntity
  8
DV2_Default
  6
Continuous
 62
     7
100
AcDbLine
 10
162.232604216
 20
519.3308963118
 30
0.0
 11
160.9461878426
 21
502.801016302
 31
0.0
  0
LINE
  5
B8
330
B0
100
AcDbEntity
  8
DV2_Default
  6
Continuous
 62
     7
100
AcDbLine
 10
216.9479745028
 20
484.9006164775
 30
0.0
 11
225.2910776309
 21
497.0626301267
 31
0.0
  0
ARC
  5
B9
330
B0
100
AcDbEntity
  8
DV2_Default
  6
Continuous
 62
     7
100
AcDbCircle
 10
222.8172171585
 20
498.7596906334
 30
0.0
 40
2.999999999999984
100
AcDbArc
 50
325.5500000014
 51
38.4685437042
  0
ARC
  5
BA
330
B0
100
AcDbEntity
  8
DV2_Default
  6
Continuous
 62
     7
100
AcDbCircle
 10
165.2235604838
 20
519.0981290375
 30
0.0
 40
3.000000000000007
100
AcDbArc
 50
102.6314562986
 51
175.5500000014
  0
ARC
  5
BB
330
B0
100
AcDbEntity
  8
DV2_Default
  6
Continuous
 62
     7
100
AcDbCircle
 10
161.943448773
 20
502.7269673643
 30
0.0
 40
0.9999999999999983
100
AcDbArc
 50
175.722175122
 51
252.3291328396
  0
ARC
  5
BC
330
B0
100
AcDbEntity
  8
DV2_Default
  6
Continuous
 62
     7
100
AcDbCircle
 10
216.1233543453
 20
485.4663033131
 30
0.0
 40
0.9999999999999993
100
AcDbArc
 50
252.3291328396
 51
325.5204570735
  0
LINE
  5
BD
330
B0
100
AcDbEntity
  8
DV2_Default
  6
Continuous
 62
     7
100
AcDbLine
 10
293.8116707164
 20
439.2763059645
 30
0.0
 11
280.9625485181
 21
433.2846618825
 31
0.0
  0
LINE
  5
BE
330
B0
100
AcDbEntity
  8
DV2_Default
  6
Continuous
 62
     7
100
AcDbLine
 10
297.9254440354
 20
440.0912120482
 30
0.0
 11
277.9866727208
 21
430.7936102894
 31
0.0
  0
LINE
  5
BF
330
B0
100
AcDbEntity
  8
DV2_Default
  6
Continuous
 62
     7
100
AcDbLine
 10
299.2966319103
 20
439.5168917442
 30
0.0
 11
277.5452450217
 21
429.3740534619
 31
0.0
  0
LINE
  5
C0
330
B0
100
AcDbEntity
  8
DV2_Default
  6
Continuous
 62
     7
100
AcDbLine
 10
301.8323414809
 20
434.079045022
 30
0.0
 11
295.4881869717
 21
431.1207171897
 31
0.0
  0
LINE
  5
C1
330
B0
100
AcDbEntity
  8
DV2_Default
  6
Continuous
 62
     7
100
AcDbLine
 10
301.3486519556
 20
432.7501189732
 30
0.0
 11
292.6609790625
 21
428.6989905713
 31
0.0
  0
LINE
  5
C2
330
B0
100
AcDbEntity
  8
DV2_Default
  6
Continuous
 62
     7
100
AcDbLine
 10
280.0809545923
 20
423.9362067397
 30
0.0
 11
286.4251091015
 21
426.8945345721
 31
0.0
  0
LINE
  5
C3
330
B0
100
AcDbEntity
  8
DV2_Default
  6
Continuous
 62
     7
100
AcDbLine
 10
294.3259867519
 20
433.613063604
 30
0.0
 11
285.2629088816
 21
429.3868809864
 31
0.0
  0
LINE
  5
C4
330
B0
100
AcDbEntity
  8
DV2_Default
  6
Continuous
 62
     7
100
AcDbLine
 10
281.4098806411
 20
423.4525172145
 30
0.0
 11
290.0975535343
 21
427.5036456164
 31
0.0
  0
LINE
  5
C5
330
B0
100
AcDbEntity
  8
DV2_Default
  6
Continuous
 62
     7
100
AcDbLine
 10
294.3259867519
 20
433.613063604
 30
0.0
 11
295.4881869717
 21
431.1207171897
 31
0.0
  0
SPLINE
  5
C6
330
B0
100
AcDbEntity
  8
DV2_Default
  6
Continuous
 62
     7
100
AcDbSpline
210
0.0
220
0.0
230
1.0
 70
     8
 71
     3
 72
    12
 73
     8
 74
     0
 42
0.0000000026771627
 43
0.0000000001
 40
0.0
 40
0.0
 40
0.0
 40
0.0
 40
0.5
 40
0.5
 40
0.75
 40
0.75
 40
1.0
 40
1.0
 40
1.0
 40
1.0
 10
295.4881869717215
 20
431.1207171896877
 30
0.0
 10
295.0733094478045
 20
430.6660518508578
 30
0.0
 10
294.6342164935194
 20
430.2300050864606
 30
0.0
 10
293.9248246874134
 20
429.6149570365703
 30
0.0
 10
293.6792578393284
 20
429.4162085158734
 30
0.0
 10
293.1788525199065
 20
429.0416067734742
 30
0.0
 10
292.9229396103113
 20
428.8647618207718
 30
0.0
 10
292.6609790624501
 20
428.6989905713382
 30
0.0
  0
LINE
  5
C7
330
B0
100
AcDbEntity
  8
DV2_Default
  6
Continuous
 62
     7
100
AcDbLine
 10
292.6609790625
 20
428.6989905713
 30
0.0
 11
290.0975535343
 21
427.5036456164
 31
0.0
  0
SPLINE
  5
C8
330
B0
100
AcDbEntity
  8
DV2_Default
  6
Continuous
 62
     7
100
AcDbSpline
210
0.0
220
0.0
230
1.0
 70
     8
 71
     3
 72
     8
 73
     4
 74
     0
 42
0.0000000026699894
 43
0.0000000001
 40
0.0
 40
0.0
 40
0.0
 40
0.0
 40
1.0
 40
1.0
 40
1.0
 40
1.0
 10
290.0975535342563
 20
427.5036456163548
 30
0.0
 10
288.9007872848918
 20
427.1223079381073
 30
0.0
 10
287.6706742870391
 20
426.9463066201585
 30
0.0
 10
286.4251091014589
 20
426.8945345720579
 30
0.0
  0
LINE
  5
C9
330
B0
100
AcDbEntity
  8
DV2_Default
  6
Continuous
 62
     7
100
AcDbLine
 10
285.2629088816
 20
429.3868809864
 30
0.0
 11
286.4251091015
 21
426.8945345721
 31
0.0
  0
LINE
  5
CA
330
B0
100
AcDbEntity
  8
DV2_Default
  6
Continuous
 62
     7
100
AcDbLine
 10
277.8527378227
 20
430.8423586056
 30
0.0
 11
277.9866727208
 21
430.7936102894
 31
0.0
  0
LINE
  5
CB
330
B0
100
AcDbEntity
  8
DV2_Default
  6
Continuous
 62
     7
100
AcDbLine
 10
297.9254440354
 20
440.0912120482
 30
0.0
 11
298.0043299778
 21
440.3079493938
 31
0.0
  0
LINE
  5
CC
330
B0
100
AcDbEntity
  8
DV2_Default
  6
Continuous
 62
     7
100
AcDbLine
 10
298.3903241233
 20
439.0942734824
 30
0.0
 11
297.9254440354
 21
440.0912120482
 31
0.0
  0
LINE
  5
CD
330
B0
100
AcDbEntity
  8
DV2_Default
  6
Continuous
 62
     7
100
AcDbLine
 10
277.9866727208
 20
430.7936102894
 30
0.0
 11
278.4515528087
 21
429.7966717236
 31
0.0
  0
LINE
  5
CE
330
B0
100
AcDbEntity
  8
DV2_Default
  6
Continuous
 62
     7
100
AcDbLine
 10
301.8323414809
 20
434.079045022
 30
0.0
 11
299.2966319103
 21
439.5168917442
 31
0.0
  0
LINE
  5
CF
330
B0
100
AcDbEntity
  8
DV2_Default
  6
Continuous
 62
     7
100
AcDbLine
 10
277.5452450217
 20
429.3740534619
 30
0.0
 11
280.0809545923
 21
423.9362067397
 31
0.0
  0
LINE
  5
D0
330
B0
100
AcDbEntity
  8
DV2_Default
  6
Continuous
 62
     7
100
AcDbLine
 10
280.0809545923
 20
423.9362067397
 30
0.0
 11
281.4098806411
 21
423.4525172145
 31
0.0
  0
LINE
  5
D1
330
B0
100
AcDbEntity
  8
DV2_Default
  6
Continuous
 62
     7
100
AcDbLine
 10
301.3486519556
 20
432.7501189732
 30
0.0
 11
301.8323414809
 21
434.079045022
 31
0.0
  0
SPLINE
  5
D2
330
B0
100
AcDbEntity
  8
DV2_Default
  6
Continuous
 62
     7
100
AcDbSpline
210
0.0
220
0.0
230
1.0
 70
     8
 71
     3
 72
    22
 73
    18
 74
     0
 42
0.0000000006736992
 43
0.0000000001
 40
0.0
 40
0.0
 40
0.0
 40
0.0
 40
0.0431714163873988
 40
0.1320459875441114
 40
0.220920558700824
 40
0.2653578442791804
 40
0.3097951298575367
 40
0.3986697010142493
 40
0.4431069865926056
 40
0.4875442721709619
 40
0.5319815577493182
 40
0.5764188433276745
 40
0.6652934144843871
 40
0.7541679856410997
 40
0.8430425567978123
 40
0.9319171279545249
 40
1.0
 40
1.0
 40
1.0
 40
1.0
 10
308.2583769649907
 20
451.4376038492206
 30
0.0
 10
308.2331046489851
 20
451.225973554689
 30
0.0
 10
308.1418605362143
 20
450.5809917354362
 30
0.0
 10
307.9123632753149
 20
449.5170737497097
 30
0.0
 10
307.5595516667487
 20
448.4826817675976
 30
0.0
 10
307.193659964141
 20
447.6907875361325
 30
0.0
 10
306.7681284644852
 20
446.9292664692652
 30
0.0
 10
306.2541471245792
 20
446.2230706955405
 30
0.0
 10
305.6791019218049
 20
445.5667415226016
 30
0.0
 10
305.2258671594572
 20
445.0941315004694
 30
0.0
 10
304.7558043619267
 20
444.6372902125825
 30
0.0
 10
304.1087031551463
 20
444.0478703823042
 30
0.0
 10
303.2666864645684
 20
443.3448199842124
 30
0.0
 10
302.2097732486909
 20
442.5500414395793
 30
0.0
 10
301.112108472869
 20
441.7995933450052
 30
0.0
 10
300.062870157169
 20
441.1499862111867
 30
0.0
 10
299.3741779305507
 20
440.7567155890094
 30
0.0
 10
299.0724914783457
 20
440.5891128474657
 30
0.0
  0
ARC
  5
D3
330
B0
100
AcDbEntity
  8
DV2_Default
  6
Continuous
 62
     7
100
AcDbCircle
 10
306.1902895699
 20
451.6201630402
 30
0.0
 40
2.076129411167375
100
AcDbArc
 50
354.9553251781
 51
73.3123760928
  0
LINE
  5
D4
330
B0
100
AcDbEntity
  8
DV2_Default
  6
Continuous
 62
     7
100
AcDbLine
 10
163.2289759132
 20
501.267902786
 30
0.0
 11
162.2016304111
 21
495.4415369408
 31
0.0
  0
LINE
  5
D5
330
B0
100
AcDbEntity
  8
DV2_Default
  6
Continuous
 62
     7
100
AcDbLine
 10
213.918706016
 20
485.1191407513
 30
0.0
 11
212.4080320882
 21
475.5605846459
 31
0.0
  0
SPLINE
  5
D6
330
B0
100
AcDbEntity
  8
DV2_Default
  6
Continuous
 62
     7
100
AcDbSpline
210
0.0
220
0.0
230
1.0
 70
     8
 71
     3
 72
    26
 73
    22
 74
     0
 42
0.0000000004351528
 43
0.0000000001
 40
0.0
 40
0.0
 40
0.0
 40
0.0
 40
0.03125
 40
0.0625
 40
0.09375
 40
0.125
 40
0.15625
 40
0.1875
 40
0.21875
 40
0.25
 40
0.28125
 40
0.3125
 40
0.375
 40
0.4375
 40
0.5
 40
0.5625
 40
0.625
 40
0.6875
 40
0.75
 40
0.875
 40
1.0
 40
1.0
 40
1.0
 40
1.0
 10
212.4080320882421
 20
475.5605846459061
 30
0.0
 10
212.3707244012792
 20
475.3245260150815
 30
0.0
 10
212.3091184724213
 20
474.8503399472568
 30
0.0
 10
212.2565834586341
 20
474.1350294277048
 30
0.0
 10
212.2447678686421
 20
473.4178624910496
 30
0.0
 10
212.2739500556822
 20
472.7012006805964
 30
0.0
 10
212.3444083729911
 20
471.9874055396508
 30
0.0
 10
212.4558449349742
 20
471.2788504773689
 30
0.0
 10
212.6079618560368
 20
470.5779089029072
 30
0.0
 10
212.7999664348243
 20
469.8868205885393
 30
0.0
 10
213.0310659699819
 20
469.2078253065387
 30
0.0
 10
213.3897727887967
 20
468.3212952073447
 30
0.0
 10
213.930071816157
 20
467.2533885404597
 30
0.0
 10
214.7143975038234
 20
466.0506756387944
 30
0.0
 10
215.6222443336258
 20
464.9379491832392
 30
0.0
 10
216.6411665928664
 20
463.926420521308
 30
0.0
 10
217.7583183943358
 20
463.0243657367675
 30
0.0
 10
218.9608538508251
 20
462.2400609133845
 30
0.0
 10
220.6606876513647
 20
461.3595834062941
 30
0.0
 10
222.9337202340673
 20
460.5843450848635
 30
0.0
 10
224.8377934298688
 20
460.3306118018284
 30
0.0
 10
225.7930946784238
 20
460.295283631932
 30
0.0
  0
SPLINE
  5
D7
330
B0
100
AcDbEntity
  8
DV2_Default
  6
Continuous
 62
     7
100
AcDbSpline
210
0.0
220
0.0
230
1.0
 70
     8
 71
     3
 72
    16
 73
    12
 74
     0
 42
0.0000000001236187
 43
0.0000000001
 40
0.0
 40
0.0
 40
0.0
 40
0.0
 40
0.1315767994209263
 40
0.3548650219946499
 40
0.4665091332815118
 40
0.5781532445683736
 40
0.6897973558552354
 40
0.8014414671420972
 40
0.8572635227855281
 40
0.9130855784289589
 40
1.0
 40
1.0
 40
1.0
 40
1.0
 10
225.7930946784238
 20
460.295283631932
 30
0.0
 10
229.3399783963827
 20
460.1641156775508
 30
0.0
 10
238.9042376744753
 20
459.7539229614341
 30
0.0
 10
251.4677546259664
 20
459.0147772324716
 30
0.0
 10
263.4802131620874
 20
458.1268663988463
 30
0.0
 10
272.4810707128128
 20
457.3708262195361
 30
0.0
 10
281.4720820220134
 20
456.5247453448852
 30
0.0
 10
288.9552530032767
 20
455.7446993355176
 30
0.0
 10
294.9355067773652
 20
455.0757085391036
 30
0.0
 10
300.24950722891
 20
454.4541697100224
 30
0.0
 10
304.0657543000921
 20
453.982893038086
 30
0.0
 10
306.3880118625044
 20
453.6868558637346
 30
0.0
  0
SPLINE
  5
D8
330
B0
100
AcDbEntity
  8
DV2_Default
  6
Continuous
 62
     7
100
AcDbSpline
210
0.0
220
0.0
230
1.0
 70
     8
 71
     3
 72
    15
 73
    11
 74
     0
 42
0.0000000686563168
 43
0.0000000001
 40
0.0
 40
0.0
 40
0.0
 40
0.0
 40
0.1301504101643313
 40
0.4201002734428892
 40
0.7100501367214421
 40
0.8550250683607236
 40
0.9275125341803618
 40
0.9637562670901785
 40
0.9818781335450892
 40
1.0
 40
1.0
 40
1.0
 40
1.0
 10
306.2519966700592
 20
453.634976406957
 30
0.0
 10
306.2647494844031
 20
453.6392878489399
 30
0.0
 10
306.3026067420286
 20
453.6524219372398
 30
0.0
 10
306.34970269759
 20
453.6701441630356
 30
0.0
 10
306.3762556761399
 20
453.681445094329
 30
0.0
 10
306.3850909143988
 20
453.685494011063
 30
0.0
 10
306.3872631473014
 20
453.6865160583773
 30
0.0
 10
306.3878120117166
 20
453.6867719598809
 30
0.0
 10
306.3879755661352
 20
453.6868444637522
 30
0.0
 10
306.3880079319612
 20
453.6868563647932
 30
0.0
 10
306.3880118625044
 20
453.6868558637346
 30
0.0
  0
SPLINE
  5
D9
330
B0
100
AcDbEntity
  8
DV2_Default
  6
Continuous
 62
     7
100
AcDbSpline
210
0.0
220
0.0
230
1.0
 70
     8
 71
     3
 72
    63
 73
    59
 74
     0
 42
0.0000000000754341
 43
0.0000000001
 40
0.0
 40
0.0
 40
0.0
 40
0.0
 40
0.0100810421306208
 40
0.0201822559864308
 40
0.0302834698422408
 40
0.0403846836980508
 40
0.0504858975538608
 40
0.0605871114096708
 40
0.0706883252654808
 40
0.0807895391212907
 40
0.0908907529771007
 40
0.1110931806887207
 40
0.1312956084003407
 40
0.1514980361119607
 40
0.1717004638235807
 40
0.1919028915352007
 40
0.2121053192468206
 40
0.2222065331026306
 40
0.2323077469584406
 40
0.2424089608142506
 40
0.2525101746700606
 40
0.2626113885258706
 40
0.2727126023816806
 40
0.2828138162374906
 40
0.2929150300933006
 40
0.3030162439491106
 40
0.3131174578049206
 40
0.3232186716607305
 40
0.3333198855165406
 40
0.3434210993723505
 40
0.3535223132281605
 40
0.3636235270839705
 40
0.3737247409397805
 40
0.3838259547955905
 40
0.3939271686514005
 40
0.4040283825072105
 40
0.4141295963630205
 40
0.4242308102188305
 40
0.4343320240746404
 40
0.4444332379304505
 40
0.4545344517862605
 40
0.4747368794978804
 40
0.4949393072095004
 40
0.5151417349211204
 40
0.5353441626327404
 40
0.5555465903443604
 40
0.5959514457676003
 40
0.6363563011908403
 40
0.6767611566140803
 40
0.7171660120373202
 40
0.7575708674605602
 40
0.7777732951721802
 40
0.7979757228838001
 40
0.8383805783070402
 40
0.8787854337302801
 40
0.9191902891535201
 40
0.95959514457676
 40
1.0
 40
1.0
 40
1.0
 40
1.0
 10
276.9383338988632
 20
430.0840281690886
 30
0.0
 10
276.4097503898117
 20
429.8546433786735
 30
0.0
 10
275.3400249425731
 20
429.3923216777108
 30
0.0
 10
273.6993262489087
 20
428.687931166526
 30
0.0
 10
272.0213042258069
 20
427.9709171654707
 30
0.0
 10
270.3055922793296
 20
427.2398971509237
 30
0.0
 10
268.5519110139327
 20
426.4932112908133
 30
0.0
 10
266.759095627401
 20
425.7289059022545
 30
0.0
 10
264.9264191933468
 20
424.9450605680569
 30
0.0
 10
263.0581109303011
 20
424.1416611255391
 30
0.0
 10
260.5248302625428
 20
423.0442488540924
 30
0.0
 10
257.2897692383318
 20
421.6237991212264
 30
0.0
 10
253.3348740113105
 20
419.834918708297
 30
0.0
 10
249.3423042210345
 20
417.9601970222441
 30
0.0
 10
245.3426244774766
 20
416.0088731102597
 30
0.0
 10
241.3667218363988
 20
413.9901464784887
 30
0.0
 10
238.0975647503702
 20
412.2628305644243
 30
0.0
 10
235.5217771875166
 20
410.8624292626873
 30
0.0
 10
233.6131242386418
 20
409.804891701063
 30
0.0
 10
231.7400136734486
 20
408.7274159094261
 30
0.0
 10
229.9140502279629
 20
407.6184894422273
 30
0.0
 10
228.1463549167516
 20
406.4698138044751
 30
0.0
 10
226.4470435489775
 20
405.2776585344167
 30
0.0
 10
224.8238390578096
 20
404.0425496629313
 30
0.0
 10
223.2818687076033
 20
402.7693793626893
 30
0.0
 10
221.8240537744008
 20
401.4656274828512
 30
0.0
 10
220.4511995453847
 20
400.1407451132405
 30
0.0
 10
219.1612702065694
 20
398.8054950601289
 30
0.0
 10
217.952723396209
 20
397.4701535718419
 30
0.0
 10
216.8221200791562
 20
396.1445790221857
 30
0.0
 10
215.7604176889171
 20
394.8355821130686
 30
0.0
 10
214.7603380333019
 20
393.5477058540986
 30
0.0
 10
213.8168520278316
 20
392.2835798588895
 30
0.0
 10
212.9249305880273
 20
391.0458337410554
 30
0.0
 10
212.0806362476895
 20
389.8355346067156
 30
0.0
 10
211.2800315406193
 20
388.6537495619896
 30
0.0
 10
210.520072447115
 20
387.501180898542
 30
0.0
 10
209.7978883536031
 20
386.3776564902346
 30
0.0
 10
209.1107941567553
 20
385.282907715838
 30
0.0
 10
208.4564780777613
 20
384.2168297726936
 30
0.0
 10
207.6249464925354
 20
382.8330967059182
 30
0.0
 10
206.6571300229975
 20
381.1720870102034
 30
0.0
 10
205.5956263253558
 20
379.2829309800782
 30
0.0
 10
204.6221031609237
 20
377.4895874792584
 30
0.0
 10
203.7246649971069
 20
375.7838134323171
 30
0.0
 10
202.6167903464386
 20
373.6131657451213
 30
0.0
 10
201.3743954106426
 20
371.0698739091545
 30
0.0
 10
200.0475728012799
 20
368.2043088511954
 30
0.0
 10
198.8305529545226
 20
365.4335820055832
 30
0.0
 10
197.6775705592759
 20
362.6627077113005
 30
0.0
 10
196.7392370161727
 20
360.2709741581899
 30
0.0
 10
195.9879628955105
 20
358.2559664409679
 30
0.0
 10
195.2350863303404
 20
356.1596169197207
 30
0.0
 10
194.3062558955539
 20
353.4099738292708
 30
0.0
 10
193.254754070253
 20
349.9665296818114
 30
0.0
 10
192.3068167483971
 20
346.4457124804359
 30
0.0
 10
191.4997614037815
 20
342.9161167745996
 30
0.0
 10
191.0781258688495
 20
340.6058493873695
 30
0.0
 10
190.9003195260457
 20
339.4738531193843
 30
0.0
  0
SPLINE
  5
DA
330
B0
100
AcDbEntity
  8
DV2_Default
  6
Continuous
 62
     7
100
AcDbSpline
210
0.0
220
0.0
230
1.0
 70
     8
 71
     3
 72
    15
 73
    11
 74
     0
 42
0.0000000000669465
 43
0.0000000001
 40
0.0
 40
0.0
 40
0.0
 40
0.0
 40
0.0054973530352125
 40
0.1475691597444678
 40
0.2896409664537232
 40
0.4317127731629786
 40
0.5737845798722339
 40
0.7158563865814893
 40
0.8579281932907447
 40
1.0
 40
1.0
 40
1.0
 40
1.0
 10
160.6388641067207
 20
486.5776073778199
 30
0.0
 10
160.5910925100821
 20
486.3077226590324
 30
0.0
 10
159.3151946182232
 20
479.071746169864
 30
0.0
 10
156.8109295052805
 20
464.8693530195031
 30
0.0
 10
153.1258278420293
 20
443.9701030359254
 30
0.0
 10
149.4407261787779
 20
423.0708530523465
 30
0.0
 10
145.7556245155266
 20
402.1716030687676
 30
0.0
 10
142.0705228522754
 20
381.2723530851898
 30
0.0
 10
138.3854211890246
 20
360.3731031016143
 30
0.0
 10
135.9286867468578
 20
346.4402697792328
 30
0.0
 10
134.7003195257746
 20
339.4738531184626
 30
0.0
  0
LINE
  5
DB
330
B0
100
AcDbEntity
  8
DV2_Default
  6
Continuous
 62
     7
100
AcDbLine
 10
160.6407182867
 20
486.5834063945
 30
0.0
 11
160.6396946746
 21
486.5776012016
 31
0.0
  0
LINE
  5
DC
330
B0
100
AcDbEntity
  8
DV2_Default
  6
Continuous
 62
     7
100
AcDbLine
 10
162.2025282733
 20
495.4408709788
 30
0.0
 11
162.2015093834
 21
495.4350925668
 31
0.0
  0
ARC
  5
DD
330
B0
100
AcDbEntity
  8
DV2_Default
  6
Continuous
 62
     7
100
AcDbCircle
 10
305.4190476709
 20
398.6461341597
 30
0.0
 40
42.42042240136774
100
AcDbArc
 50
98.6043764381
 51
132.1745574913
  0
LINE
  5
DE
330
B0
100
AcDbEntity
  8
DV2_Default
  6
Continuous
 62
     7
100
AcDbLine
 10
190.900319526
 20
339.4738531194
 30
0.0
 11
162.8750786357
 21
339.4738531189
 31
0.0
  0
ARC
  5
DF
330
B0
100
AcDbEntity
  8
DV2_Default
  6
Continuous
 62
     7
100
AcDbCircle
 10
156.3236894844
 20
535.3232097866
 30
0.0
 40
102.2506134997616
100
AcDbArc
 50
312.7901162213
 51
312.7970331093
  0
LINE
  5
E0
330
B0
100
AcDbEntity
  8
DV2_Default
  6
Continuous
 62
     7
100
AcDbLine
 10
162.2025282733
 20
495.4408709788
 30
0.0
 11
162.2015093834
 21
495.4350925667
 31
0.0
  0
ARC
  5
E1
330
B0
100
AcDbEntity
  8
DV2_Default
  6
Continuous
 62
     7
100
AcDbCircle
 10
131.3950797815
 20
496.3053733667
 30
0.0
 40
30.81871985474501
100
AcDbArc
 50
341.6117929137
 51
358.3818261599
  0
LINE
  5
E2
330
B0
100
AcDbEntity
  8
DV2_Default
  6
Continuous
 62
     7
100
AcDbLine
 10
160.6407182867
 20
486.5834063946
 30
0.0
 11
160.6396946746
 21
486.5776012016
 31
0.0
  0
LINE
  5
E3
330
B0
100
AcDbEntity
  8
DV2_Default
  6
Continuous
 62
     7
100
AcDbLine
 10
134.7003195258
 20
339.4738531185
 30
0.0
 11
162.8750786357
 21
339.4738531189
 31
0.0
  0
SPLINE
  5
E4
330
B0
100
AcDbEntity
  8
DV2_Default
  6
Continuous
 62
     7
100
AcDbSpline
210
0.0
220
0.0
230
1.0
 70
     8
 71
     3
 72
    17
 73
    13
 74
     0
 42
0.0000000002699308
 43
0.0000000001
 40
0.0
 40
0.0
 40
0.0
 40
0.0
 40
0.0282464167455564
 40
0.0563995275153443
 40
0.0847163830112821
 40
0.1242982530467566
 40
0.1650146078474866
 40
0.2051796713895178
 40
0.2453563464046062
 40
0.5667581967056308
 40
0.8881602656354787
 40
1.0
 40
1.0
 40
1.0
 40
1.0
 10
182.5589856907313
 20
457.3540911100746
 30
0.0
 10
182.4182591863785
 20
457.6744264682146
 30
0.0
 10
182.1369398708699
 20
458.3118577630562
 30
0.0
 10
181.8343215352749
 20
459.3152278184379
 30
0.0
 10
181.5949704871255
 20
460.4775267601617
 30
0.0
 10
181.4780647146254
 20
461.816839270854
 30
0.0
 10
181.5359486416406
 20
463.3067485704545
 30
0.0
 10
181.7706837408388
 20
464.7838846134323
 30
0.0
 10
182.5987190304923
 20
469.6726282791875
 30
0.0
 10
183.9756061472567
 20
477.9912842438031
 30
0.0
 10
185.5137101914904
 20
487.1787083905801
 30
0.0
 10
186.3948519563016
 20
492.453643533511
 30
0.0
 10
186.6222334442286
 20
493.8153665394635
 30
0.0
  0
SPLINE
  5
E5
330
B0
100
AcDbEntity
  8
DV2_Default
  6
Continuous
 62
     7
100
AcDbSpline
210
0.0
220
0.0
230
1.0
 70
     8
 71
     3
 72
    37
 73
    33
 74
     0
 42
0.0000000000771347
 43
0.0000000001
 40
0.0
 40
0.0
 40
0.0
 40
0.0
 40
0.0108286844410281
 40
0.0211086837923599
 40
0.0308407965069249
 40
0.0400257443951895
 40
0.0486640493947974
 40
0.0669437272177033
 40
0.0851485325414808
 40
0.1158485892901835
 40
0.1489622426168025
 40
0.2016786830597758
 40
0.2606941938464031
 40
0.3545604111745688
 40
0.4415062336078185
 40
0.5215523144241915
 40
0.5901527126769065
 40
0.6520073462154339
 40
0.7173474050213976
 40
0.7824639494656742
 40
0.7987705716994651
 40
0.8150753022706244
 40
0.8476822037242475
 40
0.8802817784064432
 40
0.9128766438674137
 40
0.9454476087718682
 40
0.9617366127130241
 40
0.9780272186821194
 40
0.9861788418723103
 40
0.9943283092114749
 40
0.9984051595302984
 40
1.0
 40
1.0
 40
1.0
 40
1.0
 10
308.2583769649907
 20
451.4376038492206
 30
0.0
 10
308.249551356635
 20
451.4329087130646
 30
0.0
 10
308.232347299537
 20
451.4237560867128
 30
0.0
 10
308.0797626763625
 20
451.3747013963095
 30
0.0
 10
307.8243211660615
 20
451.2981727683248
 30
0.0
 10
307.4594038460538
 20
451.193653865585
 30
0.0
 10
306.8198728270846
 20
451.016190459132
 30
0.0
 10
305.7370900437892
 20
450.7348195518653
 30
0.0
 10
303.8398222935243
 20
450.3022909407922
 30
0.0
 10
301.0521804290019
 20
449.7561150189422
 30
0.0
 10
296.4888601234108
 20
449.017273682661
 30
0.0
 10
290.2351938643677
 20
448.2203832762193
 30
0.0
 10
280.9897622931447
 20
447.3637313973744
 30
0.0
 10
269.9267524053816
 20
446.7093626768898
 30
0.0
 10
257.7849523344013
 20
446.2945947974687
 30
0.0
 10
246.7781189345488
 20
446.1057372100045
 30
0.0
 10
236.931329304621
 20
446.054035101128
 30
0.0
 10
227.7682618588174
 20
446.0631348235917
 30
0.0
 10
218.7670190189278
 20
446.1432688068441
 30
0.0
 10
211.8962756917935
 20
446.1815423768334
 30
0.0
 10
207.3234332277974
 20
446.3363243010526
 30
0.0
 10
204.2775645650934
 20
446.5559772812012
 30
0.0
 10
200.4902015494154
 20
447.0545087876161
 30
0.0
 10
196.0113463817923
 20
448.0381868904058
 30
0.0
 10
191.6664455899541
 20
449.5089475862246
 30
0.0
 10
188.2552970886881
 20
451.2685430673511
 30
0.0
 10
185.8112361861469
 20
453.1052416697684
 30
0.0
 10
184.4576341505244
 20
454.4604314390192
 30
0.0
 10
183.5234206570996
 20
455.6688351436577
 30
0.0
 10
183.0120190774456
 20
456.4760043041434
 30
0.0
 10
182.7070353924462
 20
457.0469277514736
 30
0.0
 10
182.5913362510886
 20
457.2858965243153
 30
0.0
 10
182.5589856907313
 20
457.3540911100746
 30
0.0
  0
ARC
  5
E6
330
B0
100
AcDbEntity
  8
DV2_Default
  6
Continuous
 62
     7
100
AcDbCircle
 10
306.8026867874
 20
451.9474408041
 30
0.0
 40
1.388280457512991
100
AcDbArc
 50
335.6244386882
 51
30.5828166195
  0
ARC
  5
E7
330
B0
100
AcDbEntity
  8
DV2_Default
  6
Continuous
 62
     7
100
AcDbCircle
 10
306.4451516687
 20
452.0700151458
 30
0.0
 40
1.567255594932219
100
AcDbArc
 50
77.5185565946
 51
85.550406443
  0
ARC
  5
E8
330
B0
100
AcDbEntity
  8
DV2_Default
  6
Continuous
 62
     7
100
AcDbCircle
 10
193.5876939765
 20
-426.8989968262
 30
0.0
 40
887.7724429621942
100
AcDbArc
 50
87.233844208
 51
87.2662731972
  0
ARC
  5
E9
330
B0
100
AcDbEntity
  8
DV2_Default
  6
Continuous
 62
     7
100
AcDbCircle
 10
193.5876939765
 20
-426.8989968262
 30
0.0
 40
887.7724429621942
100
AcDbArc
 50
87.91021731
 51
87.9226917357
  0
ARC
  5
EA
330
B0
100
AcDbEntity
  8
DV2_Default
  6
Continuous
 62
     7
100
AcDbCircle
 10
193.5876940892
 20
-426.8989947616
 30
0.0
 40
887.7724408948025
100
AcDbArc
 50
87.233844245
 51
87.9226917381
  0
ENDBLK
  5
EC
330
B0
100
AcDbEntity
  8
0
100
AcDbBlockEnd
  0
BLOCK
  5
10A
330
ED
100
AcDbEntity
  8
0
100
AcDbBlockBegin
  2
SE2
 70
     0
 10
0.0
 20
0.0
 30
0.0
  3
SE2
  1

  0
ELLIPSE
  5
F0
330
ED
100
AcDbEntity
  8
DV3_Default
  6
Continuous
 62
     7
100
AcDbEllipse
 10
39.8977404339
 20
220.8602322428
 30
0.0
 11
33.43742943284305
 21
-1.467440752245253E-9
 31
0.0
210
0.0
220
0.0
230
1.0
 40
0.9429324336
 41
2.189126709078297
 42
2.345670185599117
  0
ELLIPSE
  5
F1
330
ED
100
AcDbEntity
  8
DV3_Default
  6
Continuous
 62
     7
100
AcDbEllipse
 10
39.8977404339
 20
220.8602322428
 30
0.0
 11
33.43742943284305
 21
-1.467440752245253E-9
 31
0.0
210
0.0
220
0.0
230
1.0
 40
0.9429324336
 41
0.7820640215936523
 42
0.9508499042688552
  0
SPLINE
  5
F2
330
ED
100
AcDbEntity
  8
DV3_Default
  6
Continuous
 62
     7
100
AcDbSpline
210
0.0
220
0.0
230
1.0
 70
     8
 71
     3
 72
    22
 73
    18
 74
     0
 42
0.0000000002430266
 43
0.0000000001
 40
0.0
 40
0.0
 40
0.0
 40
0.0
 40
0.0820732479790736
 40
0.0820732479790736
 40
0.2214585759026292
 40
0.2214585759026292
 40
0.3608439038261851
 40
0.3608439038261851
 40
0.5002292317497413
 40
0.5002292317497413
 40
0.6396145596732972
 40
0.6396145596732972
 40
0.7789998875968536
 40
0.7789998875968536
 40
0.9183852155204095
 40
0.9183852155204095
 40
1.0
 40
1.0
 40
1.0
 40
1.0
 10
58.91937436046795
 20
247.0163436027738
 30
0.0
 10
58.05617137999301
 20
247.7150718841184
 30
0.0
 10
57.15396535535034
 20
248.3634061760507
 30
0.0
 10
54.62572322835998
 20
249.9725678974063
 30
0.0
 10
52.91100104524597
 20
250.846868778391
 30
0.0
 10
49.3468132286692
 20
252.251843104661
 30
0.0
 10
47.51463749408185
 20
252.7801402606527
 30
0.0
 10
43.75169837661959
 20
253.4938363821774
 30
0.0
 10
41.80414022274449
 20
253.6763472092404
 30
0.0
 10
37.96756247935186
 20
253.6748678379639
 30
0.0
 10
36.06235387624722
 20
253.4968287661664
 30
0.0
 10
32.27853408762237
 20
252.7802299473085
 30
0.0
 10
30.41827900277708
 20
252.2410394412865
 30
0.0
 10
26.88238471948127
 20
250.8448567655779
 30
0.0
 10
25.18132004309055
 20
249.9805943294797
 30
0.0
 10
22.62830634954059
 20
248.3546057549262
 30
0.0
 10
21.73010102282537
 20
247.7080337651365
 30
0.0
 10
20.87563415423487
 20
247.0162701124629
 30
0.0
  0
LINE
  5
F3
330
ED
100
AcDbEntity
  8
DV3_Default
  6
Continuous
 62
     7
100
AcDbLine
 10
61.6775434961
 20
244.7836353483
 30
0.0
 11
58.9190865797
 21
247.0164791542
 31
0.0
  0
LINE
  5
F4
330
ED
100
AcDbEntity
  8
DV3_Default
  6
Continuous
 62
     7
100
AcDbLine
 10
20.8768285265
 20
247.01683065
 30
0.0
 11
18.1179373739
 21
244.7836353502
 31
0.0
  0
SPLINE
  5
F5
330
ED
100
AcDbEntity
  8
DV3_Default
  6
Continuous
 62
     7
100
AcDbSpline
210
0.0
220
0.0
230
1.0
 70
     8
 71
     3
 72
    70
 73
    66
 74
     0
 42
0.0000000001298726
 43
0.0000000001
 40
0.0
 40
0.0
 40
0.0
 40
0.0
 40
0.0111953622307391
 40
0.0272707847421843
 40
0.0433419210142299
 40
0.0594086487451837
 40
0.0754708718703381
 40
0.0915285234220908
 40
0.107581568213474
 40
0.1236300052684159
 40
0.1396738699218962
 40
0.1557132355156653
 40
0.1717482146201658
 40
0.1877789597209458
 40
0.2038056633180385
 40
0.2198285573993385
 40
0.235847912263609
 40
0.2518640346848408
 40
0.2678772654270321
 40
0.2838879761360835
 40
0.2998965656530663
 40
0.3159034558097961
 40
0.3319090867828456
 40
0.3479139120952608
 40
0.3639183622660972
 40
0.3799227787197657
 40
0.3959276252190818
 40
0.4119333591987592
 40
0.4279404265054899
 40
0.4439492564114715
 40
0.4599602569836003
 40
0.4759738108944693
 40
0.4919902717477087
 40
0.5080099609747588
 40
0.5240331653435096
 40
0.5400601351019821
 40
0.5560910827629746
 40
0.5721261825189875
 40
0.58816557026139
 40
0.6042093441640332
 40
0.6202575657798742
 40
0.6363102615898566
 40
0.652367424936381
 40
0.6684290182694126
 40
0.6844949756313871
 40
0.7005652053074414
 40
0.7166395925700775
 40
0.7327180024514934
 40
0.7488002824826532
 40
0.7648862653448357
 40
0.7809757713870303
 40
0.7970686109704792
 40
0.813164586609735
 40
0.8292634948876529
 40
0.8453651281292405
 40
0.8614692758264904
 40
0.8775757258128561
 40
0.8936842651916943
 40
0.9097946810283324
 40
0.9259067608195554
 40
0.9420202927582274
 40
0.9581350658136898
 40
0.9742508696511117
 40
0.9903674944149935
 40
1.0
 40
1.0
 40
1.0
 40
1.0
 10
16.49986602520497
 20
243.3779382987987
 30
0.0
 10
16.26628719765923
 20
243.1624248246908
 30
0.0
 10
15.78549742040211
 20
242.7170074149423
 30
0.0
 10
14.98496658277828
 20
241.9028449411475
 30
0.0
 10
14.15245769063896
 20
240.9948013850571
 30
0.0
 10
13.35139921827477
 20
240.0495929539055
 30
0.0
 10
12.5904430949094
 20
239.0783392238361
 30
0.0
 10
11.86867774322905
 20
238.0798504284484
 30
0.0
 10
11.18767850963763
 20
237.0562826283793
 30
0.0
 10
10.54827823168405
 20
236.0089416540539
 30
0.0
 10
9.9514304891484
 20
234.9394038765068
 30
0.0
 10
9.397976863975282
 20
233.8492128939935
 30
0.0
 10
8.888707919347212
 20
232.7399576033329
 30
0.0
 10
8.424345684107854
 20
231.613248105099
 30
0.0
 10
8.005547330169547
 20
230.4707189695325
 30
0.0
 10
7.632903336556287
 20
229.3140251854838
 30
0.0
 10
7.306937284417149
 20
228.1448400930769
 30
0.0
 10
7.028105358994827
 20
226.9648528197564
 30
0.0
 10
6.796796061980831
 20
225.7757658925352
 30
0.0
 10
6.613329986575593
 20
224.579292852147
 30
0.0
 10
6.47795968158639
 20
223.3771559189999
 30
0.0
 10
6.390869584478764
 20
222.171083698045
 30
0.0
 10
6.352176016508157
 20
220.9628089238431
 30
0.0
 10
6.361927224498374
 20
219.7540670238362
 30
0.0
 10
6.420103191527214
 20
218.5465962326467
 30
0.0
 10
6.526615369958854
 20
217.3421322320625
 30
0.0
 10
6.68130702773051
 20
216.1424051078065
 30
0.0
 10
6.883954194796059
 20
214.9491348790017
 30
0.0
 10
7.134265793556471
 20
213.7640324681687
 30
0.0
 10
7.431883957145828
 20
212.5887975697557
 30
0.0
 10
7.776384390626758
 20
211.4251165086222
 30
0.0
 10
8.167276781086406
 20
210.2746600834556
 30
0.0
 10
8.604005264054283
 20
209.1390813908424
 30
0.0
 10
9.08594895467868
 20
208.0200136276379
 30
0.0
 10
9.612422552685466
 20
206.9190678712082
 30
0.0
 10
10.18267703028561
 20
205.8378308391547
 30
0.0
 10
10.79590041191001
 20
204.7778626321143
 30
0.0
 10
11.45121865394765
 20
203.740694465099
 30
0.0
 10
12.14769663161464
 20
202.7278263944936
 30
0.0
 10
12.88433923872371
 20
201.7407250492224
 30
0.0
 10
13.66009260456384
 20
200.7808213756666
 30
0.0
 10
14.47384543038008
 20
199.8495084066392
 30
0.0
 10
15.32443044618438
 20
198.9481390650932
 30
0.0
 10
16.21062598687667
 20
198.0780240132589
 30
0.0
 10
17.13115768499671
 20
197.2404295576056
 30
0.0
 10
18.08470027592972
 20
196.4365756194305
 30
0.0
 10
19.06987951004682
 20
195.6676337800575
 30
0.0
 10
20.0852741652956
 20
194.9347254086076
 30
0.0
 10
21.12941815250026
 20
194.2389198791922
 30
0.0
 10
22.20080270664213
 20
193.5812328830773
 30
0.0
 10
23.29787865112484
 20
192.9626248404889
 30
0.0
 10
24.4190587441028
 20
192.3839994142199
 30
0.0
 10
25.56272003327326
 20
191.8462021309695
 30
0.0
 10
26.72720645487703
 20
191.3500190969956
 30
0.0
 10
27.91083075932413
 20
190.8961758621508
 30
0.0
 10
29.11187915340745
 20
190.4853362302515
 30
0.0
 10
30.32860597182339
 20
190.1181017663091
 30
0.0
 10
31.55926570809039
 20
189.7950091924615
 30
0.0
 10
32.80200570494585
 20
189.516536146221
 30
0.0
 10
34.05527905135877
 20
189.2830761958569
 30
0.0
 10
35.31631581267757
 20
189.0950290675745
 30
0.0
 10
36.58684168726847
 20
188.9524612874945
 30
0.0
 10
37.85174583264104
 20
188.8563706793441
 30
0.0
 10
38.98342092869689
 20
188.8109937715154
 30
0.0
 10
39.6179016175424
 20
188.8063648562743
 30
0.0
 10
39.89774043400269
 20
188.8048560077346
 30
0.0
  0
SPLINE
  5
F6
330
ED
100
AcDbEntity
  8
DV3_Default
  6
Continuous
 62
     7
100
AcDbSpline
210
0.0
220
0.0
230
1.0
 70
     8
 71
     3
 72
    70
 73
    66
 74
     0
 42
0.0000000001306415
 43
0.0000000001
 40
0.0
 40
0.0
 40
0.0
 40
0.0
 40
0.008876798544536
 40
0.0250887069628826
 40
0.0413013928427972
 40
0.0575139556804841
 40
0.0737261799851888
 40
0.0899378480449881
 40
0.1061487395020534
 40
0.1223586311267531
 40
0.1385672967286027
 40
0.1547745072307445
 40
0.170980030932853
 40
0.187183633985071
 40
0.2033850810926923
 40
0.2195841364677361
 40
0.235780565039224
 40
0.2519741339289334
 40
0.2681646141935159
 40
0.2843517828272388
 40
0.3005354250123031
 40
0.3167153365957537
 40
0.3328913267636898
 40
0.3490632208748933
 40
0.3652308634074854
 40
0.3813941209640992
 40
0.3975528852735551
 40
0.4137070761206763
 40
0.429856644130915
 40
0.4460015733333266
 40
0.4621418834243757
 40
0.4782776316564365
 40
0.4944089142787203
 40
0.5105358674649846
 40
0.5266586676714781
 40
0.542777531380288
 40
0.5588927141970259
 40
0.5750045092875062
 40
0.5911132451549218
 40
0.6072192827768365
 40
0.6233230121389783
 40
0.6394248482201045
 40
0.6555252264982658
 40
0.6716245980628063
 40
0.6877234244283623
 40
0.7038220520218492
 40
0.7199209132553674
 40
0.7360204716382226
 40
0.7521211812565363
 40
0.7682234816300204
 40
0.7843277928896611
 40
0.800434511364342
 40
0.8165440056553892
 40
0.8326566132634174
 40
0.8487726378153371
 40
0.8648923469223324
 40
0.8810159706821152
 40
0.8971437008217498
 40
0.9132756904612628
 40
0.9294120544637005
 40
0.9455528703246211
 40
0.9616981795436264
 40
0.977847989412518
 40
0.9940022751492484
 40
1.0
 40
1.0
 40
1.0
 40
1.0
 10
39.89774043400269
 20
188.8048560077346
 30
0.0
 10
40.15411563030585
 20
188.806122430389
 30
0.0
 10
40.76933713769804
 20
188.8102648548222
 30
0.0
 10
41.88009977664449
 20
188.8527210231806
 30
0.0
 10
43.14508569959786
 20
188.9465505492752
 30
0.0
 10
44.41618436264827
 20
189.0868521723536
 30
0.0
 10
45.67786914527709
 20
189.2726821565807
 30
0.0
 10
46.93196848949878
 20
189.503972639873
 30
0.0
 10
48.17567960125061
 20
189.7803374039462
 30
0.0
 10
49.40745806892289
 20
190.1013919900882
 30
0.0
 10
50.62544316347014
 20
190.4666685267907
 30
0.0
 10
51.82788308688968
 20
190.8756392632216
 30
0.0
 10
53.0130243627565
 20
191.3277110948362
 30
0.0
 10
54.17914478124346
 20
191.8222279819701
 30
0.0
 10
55.32454786388263
 20
192.3584713783612
 30
0.0
 10
56.44756761329386
 20
192.9356613210628
 30
0.0
 10
57.54657047704346
 20
193.552957474911
 30
0.0
 10
58.61995802037616
 20
194.2094603241759
 30
0.0
 10
59.66616936357482
 20
194.9042124625948
 30
0.0
 10
60.68368362793137
 20
195.6361999970082
 30
0.0
 10
61.67102231508481
 20
196.4043540617829
 30
0.0
 10
62.62675162918634
 20
197.2075524449603
 30
0.0
 10
63.54948472800792
 20
198.0446213247463
 30
0.0
 10
64.43788389489899
 20
198.914337114115
 30
0.0
 10
65.29066262173829
 20
199.8154284098702
 30
0.0
 10
66.10658759357706
 20
200.7465780411503
 30
0.0
 10
66.88448056592838
 20
201.706425210913
 30
0.0
 10
67.62322012634803
 20
202.6935677225338
 30
0.0
 10
68.32174333288577
 20
203.7065642823132
 30
0.0
 10
68.97904722321574
 20
204.7439368674996
 30
0.0
 10
69.59419018973007
 20
205.8041731484549
 30
0.0
 10
70.16629321758441
 20
206.8857289528642
 30
0.0
 10
70.69454098454162
 20
207.9870307595017
 30
0.0
 10
71.1781828234276
 20
209.1064782090152
 30
0.0
 10
71.61653354998796
 20
210.2424466195442
 30
0.0
 10
72.00897416085607
 20
211.393289495717
 30
0.0
 10
72.35495240810252
 20
212.5573410206906
 30
0.0
 10
72.65398325836355
 20
213.7329185223616
 30
0.0
 10
72.90564924575574
 20
214.9183249066357
 30
0.0
 10
73.10960072861572
 20
216.1118510526231
 30
0.0
 10
73.26555606050356
 20
217.3117781667615
 30
0.0
 10
73.37330168586043
 20
218.5163800950071
 30
0.0
 10
73.43269217018755
 20
219.7239255944588
 30
0.0
 10
73.44365017369772
 20
220.9326805673323
 30
0.0
 10
73.40616646914371
 20
222.1409072580857
 30
0.0
 10
73.32030033193729
 20
223.3468686144669
 30
0.0
 10
73.18617946070225
 20
224.5488314423353
 30
0.0
 10
73.00399911539324
 20
225.7450716062343
 30
0.0
 10
72.77402172525025
 20
226.9338740347017
 30
0.0
 10
72.49657664941265
 20
228.1135339729638
 30
0.0
 10
72.17205983648053
 20
229.2823591167032
 30
0.0
 10
71.80093342953464
 20
230.4386717720091
 30
0.0
 10
71.38372534949069
 20
231.5808109837014
 30
0.0
 10
70.9210287004248
 20
232.7071348688715
 30
0.0
 10
70.41350154169476
 20
233.8160222846268
 30
0.0
 10
69.86186495079801
 20
234.9058770857111
 30
0.0
 10
69.26690708429082
 20
235.9751228120645
 30
0.0
 10
68.62946441999523
 20
237.022233189118
 30
0.0
 10
67.95048772726294
 20
238.0456289821604
 30
0.0
 10
67.23079120326045
 20
239.0440738488202
 30
0.0
 10
66.47198400028495
 20
240.0152071398193
 30
0.0
 10
65.67298664095274
 20
240.9610325138614
 30
0.0
 10
64.84303114476361
 20
241.8674362021566
 30
0.0
 10
64.13970131486363
 20
242.5891948282768
 30
0.0
 10
63.74993455669922
 20
242.9526353358993
 30
0.0
 10
63.62603321037502
 20
243.0679089381404
 30
0.0
  0
SPLINE
  5
F7
330
ED
100
AcDbEntity
  8
DV3_Default
  6
Continuous
 62
     7
100
AcDbSpline
210
0.0
220
0.0
230
1.0
 70
     8
 71
     3
 72
    33
 73
    29
 74
     0
 42
0.0000000001113739
 43
0.0000000001
 40
0.0
 40
0.0
 40
0.0
 40
0.0
 40
0.00996675297796
 40
0.0421591940741944
 40
0.0743516351704289
 40
0.1065440762666633
 40
0.1226402968147806
 40
0.1387365173628978
 40
0.154832737911015
 40
0.1709289584591323
 40
0.2031213995553667
 40
0.2675062817478356
 40
0.29969872284407
 40
0.3318911639403045
 40
0.3640836050365389
 40
0.3962760461327733
 40
0.4284684872290079
 40
0.4606609283252423
 40
0.5250458105177113
 40
0.5894306927101801
 40
0.653815574902649
 40
0.7182004570951178
 40
0.7825853392875868
 40
0.8469702214800559
 40
0.9113551036725246
 40
0.943547544768759
 40
0.9757399858649934
 40
1.0
 40
1.0
 40
1.0
 40
1.0
 10
53.80857864979532
 20
113.7147386197486
 30
0.0
 10
53.98992361464709
 20
113.9485914376588
 30
0.0
 10
54.73942198026504
 20
114.951584785938
 30
0.0
 10
55.93111131854123
 20
116.8146815674795
 30
0.0
 10
57.25308325238181
 20
119.3671938510201
 30
0.0
 10
58.19703525826167
 20
121.5710018130338
 30
0.0
 10
58.8766021765115
 20
123.3653459701018
 30
0.0
 10
59.35229131726219
 20
124.7243783146053
 30
0.0
 10
59.79780570536638
 20
126.0943102187856
 30
0.0
 10
60.35695110843764
 20
127.9328398371779
 30
0.0
 10
61.24997610782847
 20
131.1777365752036
 30
0.0
 10
62.10197449632334
 20
134.9336823251176
 30
0.0
 10
62.82058075811309
 20
138.7190838644837
 30
0.0
 10
63.30180609065174
 20
141.5696509451641
 30
0.0
 10
63.73083094653848
 20
144.4294265465414
 30
0.0
 10
64.11317585335435
 20
147.2966709188023
 30
0.0
 10
64.45437405324292
 20
150.1696541404499
 30
0.0
 10
64.85954153508399
 20
154.006604824552
 30
0.0
 10
65.28225471216483
 20
158.8120950133579
 30
0.0
 10
65.68008612900314
 20
164.5882225910327
 30
0.0
 10
65.98650431571004
 20
170.3704768185072
 30
0.0
 10
66.22062741700495
 20
176.1563373400948
 30
0.0
 10
66.39808582168416
 20
181.9442611587559
 30
0.0
 10
66.530696880593
 20
187.7333399113471
 30
0.0
 10
66.60973425939498
 20
192.5580984627457
 30
0.0
 10
66.65746219047921
 20
196.4180288555384
 30
0.0
 10
66.68398206834964
 20
199.0752238717354
 30
0.0
 10
66.69773737938617
 20
200.7674551965235
 30
0.0
 10
66.70314778630731
 20
201.4946645308122
 30
0.0
  0
SPLINE
  5
F8
330
ED
100
AcDbEntity
  8
DV3_Default
  6
Continuous
 62
     7
100
AcDbSpline
210
0.0
220
0.0
230
1.0
 70
     8
 71
     3
 72
    18
 73
    14
 74
     0
 42
0.0000000055366269
 43
0.0000000001
 40
0.0
 40
0.0
 40
0.0
 40
0.0
 40
0.0469851555146451
 40
0.1422866399631806
 40
0.2375881244117161
 40
0.4281910933087871
 40
0.6187940622058581
 40
0.809397031102929
 40
0.9046985155514645
 40
0.9523492577757323
 40
0.9761746288878662
 40
0.988087314443933
 40
1.0
 40
1.0
 40
1.0
 40
1.0
 10
67.93472682277138
 20
249.9422684419394
 30
0.0
 10
67.9366202283235
 20
249.9704922403158
 30
0.0
 10
67.94222516204567
 20
250.0559719043918
 30
0.0
 10
67.95093206051266
 20
250.1987462954808
 30
0.0
 10
67.96349960878416
 20
250.4279063575917
 30
0.0
 10
67.97657770022991
 20
250.7144923807115
 30
0.0
 10
67.98805605596222
 20
251.0585616654053
 30
0.0
 10
67.99410422092636
 20
251.3453815702589
 30
0.0
 10
67.9964891657239
 20
251.5461831297299
 30
0.0
 10
67.99721916087206
 20
251.6465880019936
 30
0.0
 10
67.99746850356081
 20
251.6967911095088
 30
0.0
 10
67.9975779357625
 20
251.7254787410914
 30
0.0
 10
67.9976216345714
 20
251.7398225956991
 30
0.0
 10
67.99764075791
 20
251.7469945305268
 30
0.0
  0
SPLINE
  5
F9
330
ED
100
AcDbEntity
  8
DV3_Default
  6
Continuous
 62
     7
100
AcDbSpline
210
0.0
220
0.0
230
1.0
 70
     8
 71
     2
 72
    20
 73
    17
 74
     0
 42
0.0000000002254425
 43
0.0000000001
 40
0.0
 40
0.0
 40
0.0
 40
0.125
 40
0.125
 40
0.25
 40
0.25
 40
0.375
 40
0.375
 40
0.5
 40
0.5
 40
0.625
 40
0.625
 40
0.75
 40
0.75
 40
0.875
 40
0.875
 40
1.0
 40
1.0
 40
1.0
 10
39.89774043402341
 20
279.9217536404442
 30
0.0
 10
42.67066653403266
 20
279.9216943842302
 30
0.0
 10
45.38894345492081
 20
279.3799951895861
 30
0.0
 10
48.10839756140676
 20
278.8380614049761
 30
0.0
 10
50.66840944427202
 20
277.7756101487061
 30
0.0
 10
53.22953058317486
 20
276.7126985311078
 30
0.0
 10
55.53256585620366
 20
275.1704624438686
 30
0.0
 10
57.83659900639516
 20
273.6275581244973
 30
0.0
 10
59.79385420346122
 20
271.6650047775646
 30
0.0
 10
61.75195744738561
 20
269.7016010881712
 30
0.0
 10
63.28796217821811
 20
267.3944051774271
 30
0.0
 10
64.82463241316661
 20
265.0862096288927
 30
0.0
 10
65.88015940766331
 20
262.5233350368119
 30
0.0
 10
66.93614374120281
 20
259.9593500016834
 30
0.0
 10
67.47049262020222
 20
257.2396193542973
 30
0.0
 10
68.0049625698406
 20
254.5192724811828
 30
0.0
 10
67.99764075791
 20
251.7469945305268
 30
0.0
  0
LINE
  5
FA
330
ED
100
AcDbEntity
  8
DV3_Default
  6
Continuous
 62
     7
100
AcDbLine
 10
40.1279967653
 20
253.9813548795
 30
0.0
 11
39.8977404347
 21
253.9823784917
 31
0.0
  0
SPLINE
  5
FB
330
ED
100
AcDbEntity
  8
DV3_Default
  6
Continuous
 62
     7
100
AcDbSpline
210
0.0
220
0.0
230
1.0
 70
     8
 71
     3
 72
    10
 73
     6
 74
     0
 42
0.0000000032626617
 43
0.0000000001
 40
0.0
 40
0.0
 40
0.0
 40
0.0
 40
0.0712651889657231
 40
0.0712651889657231
 40
0.9999999999999999
 40
0.9999999999999999
 40
0.9999999999999999
 40
0.9999999999999999
 10
43.13290426921475
 20
253.4994529244525
 30
0.0
 10
43.0825699903806
 20
253.517136576293
 30
0.0
 10
43.03032578558204
 20
253.5346733544986
 30
0.0
 10
42.27084984628494
 20
253.7780494533716
 30
0.0
 10
41.23673285077782
 20
253.9603338341613
 30
0.0
 10
40.1279967653181
 20
253.9818477778251
 30
0.0
  0
SPLINE
  5
FC
330
ED
100
AcDbEntity
  8
DV3_Default
  6
Continuous
 62
     7
100
AcDbSpline
210
0.0
220
0.0
230
1.0
 70
     8
 71
     2
 72
     6
 73
     3
 74
     0
 42
0.0000000055347736
 43
0.0000000001
 40
0.0
 40
0.0
 40
0.0
 40
1.0
 40
1.0
 40
1.0
 10
11.86042666910341
 20
249.9422487364761
 30
0.0
 10
11.80026996567972
 20
250.8416408608905
 30
0.0
 10
11.79784011013681
 20
251.7469945305268
 30
0.0
  0
SPLINE
  5
FD
330
ED
100
AcDbEntity
  8
DV3_Default
  6
Continuous
 62
     7
100
AcDbSpline
210
0.0
220
0.0
230
1.0
 70
     8
 71
     3
 72
    10
 73
     6
 74
     0
 42
0.0000000032563294
 43
0.0000000001
 40
0.0
 40
0.0
 40
0.0
 40
0.0
 40
0.073726171815246
 40
0.073726171815246
 40
1.0
 40
1.0
 40
1.0
 40
1.0
 10
36.65695497283328
 20
253.4974745026008
 30
0.0
 10
36.70901802041785
 20
253.515828718788
 30
0.0
 10
36.76313725860879
 20
253.5340267374971
 30
0.0
 10
37.52463102158325
 20
253.7780494533716
 30
0.0
 10
38.55874801709101
 20
253.9603338341613
 30
0.0
 10
39.66748410255081
 20
253.9818477778251
 30
0.0
  0
LINE
  5
FE
330
ED
100
AcDbEntity
  8
DV3_Default
  6
Continuous
 62
     7
100
AcDbLine
 10
39.6674841026
 20
253.9813548795
 30
0.0
 11
39.8977404331
 21
253.9823784917
 31
0.0
  0
SPLINE
  5
FF
330
ED
100
AcDbEntity
  8
DV3_Default
  6
Continuous
 62
     7
100
AcDbSpline
210
0.0
220
0.0
230
1.0
 70
     8
 71
     3
 72
    23
 73
    19
 74
     0
 42
0.0000000002259102
 43
0.0000000001
 40
0.0
 40
0.0
 40
0.0
 40
0.0
 40
0.0625
 40
0.125
 40
0.1875
 40
0.25
 40
0.3125
 40
0.375
 40
0.4375
 40
0.5
 40
0.5625
 40
0.625
 40
0.6875
 40
0.75
 40
0.8125
 40
0.875
 40
0.9375
 40
1.0
 40
1.0
 40
1.0
 40
1.0
 10
39.89774043402341
 20
279.9217536404442
 30
0.0
 10
38.97661260106872
 20
279.9217536404433
 30
0.0
 10
37.13435840277353
 20
279.8310957679718
 30
0.0
 10
34.3976794011723
 20
279.4244501359814
 30
0.0
 10
31.71414847129324
 20
278.7510748256196
 30
0.0
 10
29.10969696161227
 20
277.8174770208065
 30
0.0
 10
26.60949222490633
 20
276.6326779833907
 30
0.0
 10
24.23769404668996
 20
275.208126880791
 30
0.0
 10
22.01722165939271
 20
273.5575891566569
 30
0.0
 10
19.96953169955906
 20
271.6970144646431
 30
0.0
 10
18.11441152988451
 20
269.6443816501583
 30
0.0
 10
16.46978727902841
 20
267.4195258335462
 30
0.0
 10
15.05155149297381
 20
265.0439460802194
 30
0.0
 10
13.87340850827511
 20
262.5405980372203
 30
0.0
 10
12.94674323622686
 20
259.9336719917713
 30
0.0
 10
12.28050988613746
 20
257.2483590440888
 30
0.0
 10
11.88114670629071
 20
254.5106079576572
 30
0.0
 10
11.79538764181156
 20
252.6681186227548
 30
0.0
 10
11.79784011013681
 20
251.7469945305268
 30
0.0
  0
SPLINE
  5
100
330
ED
100
AcDbEntity
  8
DV3_Default
  6
Continuous
 62
     7
100
AcDbSpline
210
0.0
220
0.0
230
1.0
 70
     8
 71
     3
 72
    17
 73
    13
 74
     0
 42
0.0000000001126404
 43
0.0000000001
 40
0.0
 40
0.0
 40
0.0
 40
0.0
 40
0.0381782378335154
 40
0.1215077732738448
 40
0.2147943278344324
 40
0.3631698292486147
 40
0.5006061760686852
 40
0.6271360151890446
 40
0.7355735210104811
 40
0.8333479123443014
 40
0.9366317589051235
 40
1.0
 40
1.0
 40
1.0
 40
1.0
 10
25.35670643793435
 20
114.5636280077955
 30
0.0
 10
24.70731404743441
 20
115.4776964836934
 30
0.0
 10
22.82650468427882
 20
118.5201060207144
 30
0.0
 10
20.39735567843522
 20
124.3868793018512
 30
0.0
 10
17.81848931081084
 20
133.632310873074
 30
0.0
 10
15.89017802249393
 20
144.6953207608372
 30
0.0
 10
14.6144653911992
 20
156.8371208318175
 30
0.0
 10
13.90313577376899
 20
167.84395423167
 30
0.0
 10
13.51036595721965
 20
177.6907438615979
 30
0.0
 10
13.27353279180858
 20
186.8538113074015
 30
0.0
 10
13.151797577897
 20
194.6835970294137
 30
0.0
 10
13.10629372920719
 20
199.6190537123481
 30
0.0
 10
13.09232532417677
 20
201.4954838635842
 30
0.0
  0
SPLINE
  5
101
330
ED
100
AcDbEntity
  8
DV3_Default
  6
Continuous
 62
     7
100
AcDbSpline
210
0.0
220
0.0
230
1.0
 70
     8
 71
     3
 72
     8
 73
     4
 74
     0
 42
0.0000000108342512
 43
0.0000000001
 40
0.0
 40
0.0
 40
0.0
 40
0.0
 40
1.0
 40
1.0
 40
1.0
 40
1.0
 10
53.80823456868438
 20
113.714738513571
 30
0.0
 10
54.00260152730343
 20
113.9868687225785
 30
0.0
 10
54.1689022372585
 20
114.2232285414549
 30
0.0
 10
54.33598084650509
 20
114.4718934721905
 30
0.0
  0
SPLINE
  5
102
330
ED
100
AcDbEntity
  8
DV3_Default
  6
Continuous
 62
     7
100
AcDbSpline
210
0.0
220
0.0
230
1.0
 70
     8
 71
     3
 72
    10
 73
     6
 74
     0
 42
0.0000000022499536
 43
0.0000000001
 40
0.0
 40
0.0
 40
0.0
 40
0.0
 40
0.2765690022849359
 40
0.6876952747360466
 40
1.0
 40
1.0
 40
1.0
 40
1.0
 10
57.89935057187691
 20
120.9909477728143
 30
0.0
 10
58.06343749893954
 20
121.3678960737903
 30
0.0
 10
58.45743276708129
 20
122.3102986438027
 30
0.0
 10
58.98133138745697
 20
123.6958933066664
 30
0.0
 10
59.33191474119262
 20
124.705883361415
 30
0.0
 10
59.47872523049893
 20
125.1434484970975
 30
0.0
  0
SPLINE
  5
103
330
ED
100
AcDbEntity
  8
DV3_Default
  6
Continuous
 62
     7
100
AcDbSpline
210
0.0
220
0.0
230
1.0
 70
     8
 71
     3
 72
    62
 73
    58
 74
     0
 42
0.0000000001331561
 43
0.0000000001
 40
0.0
 40
0.0
 40
0.0
 40
0.0
 40
0.0187599662702524
 40
0.0617484755364012
 40
0.1082643428644319
 40
0.1317300959046906
 40
0.1495002389706223
 40
0.1648621638480814
 40
0.1775359919866065
 40
0.1857192999077379
 40
0.1924161924411598
 40
0.1976015842981599
 40
0.2026358714474125
 40
0.2116477309048406
 40
0.2251830191153696
 40
0.2410526612221396
 40
0.2636850960759561
 40
0.2930877866956422
 40
0.3210889323476015
 40
0.3470113108129179
 40
0.3708596030354853
 40
0.3923233669546705
 40
0.4112621747480453
 40
0.4271262700621518
 40
0.4335439502274851
 40
0.438423420105276
 40
0.4427454907326019
 40
0.4467250997976948
 40
0.4531432545096021
 40
0.4636306456658399
 40
0.4767008960052225
 40
0.4910207042460814
 40
0.5078733786990033
 40
0.5227604703887183
 40
0.5350027729193132
 40
0.547504460460104
 40
0.5623187553714651
 40
0.5795760153489545
 40
0.5983965227181359
 40
0.6131787192192515
 40
0.6239922300635066
 40
0.6340492174568053
 40
0.6447640948708395
 40
0.670140246816644
 40
0.6972090675683023
 40
0.7219630020492196
 40
0.7480179066091087
 40
0.775008049954394
 40
0.7995981261101659
 40
0.8193086184411855
 40
0.8363300952937561
 40
0.8521877183138687
 40
0.8694033169266324
 40
0.8948214711063616
 40
0.9305066389038633
 40
0.9689754003853842
 40
1.0
 40
1.0
 40
1.0
 40
1.0
 10
60.09329330558744
 20
127.0655977418475
 30
0.0
 10
60.22961809895691
 20
127.5128067286404
 30
0.0
 10
60.66522930930658
 20
128.9893776617175
 30
0.0
 10
61.35970667537571
 20
131.6000279345653
 30
0.0
 10
61.99172213929612
 20
134.3505373779787
 30
0.0
 10
62.43492474930724
 20
136.4983729795515
 30
0.0
 10
62.7036617152519
 20
137.8876898114472
 30
0.0
 10
62.91078249518535
 20
139.0142567159138
 30
0.0
 10
63.06781500453287
 20
139.9064527995476
 30
0.0
 10
63.1836821202796
 20
140.5858883951955
 30
0.0
 10
63.26620297742418
 20
141.0810041255794
 30
0.0
 10
63.3345671253307
 20
141.4986536854281
 30
0.0
 10
63.41108482752315
 20
141.9735004847627
 30
0.0
 10
63.51851076260015
 20
142.6546284249042
 30
0.0
 10
63.66322428839428
 20
143.604431258459
 30
0.0
 10
63.85077092539265
 20
144.8919054389106
 30
0.0
 10
64.0818160785907
 20
146.5735644549842
 30
0.0
 10
64.33336947762116
 20
148.5563965922907
 30
0.0
 10
64.57370126481169
 20
150.6238244932035
 30
0.0
 10
64.78111071123652
 20
152.5587805522699
 30
0.0
 10
64.95765252590986
 20
154.3340248563947
 30
0.0
 10
65.1066519929661
 20
155.9377199936494
 30
0.0
 10
65.22941084358477
 20
157.3435073551041
 30
0.0
 10
65.31454206242476
 20
158.373548652761
 30
0.0
 10
65.36875171422996
 20
159.0523279255885
 30
0.0
 10
65.39936486351567
 20
159.4425869699983
 30
0.0
 10
65.42483280952182
 20
159.7719001108478
 30
0.0
 10
65.45288650113899
 20
160.1394243472469
 30
0.0
 10
65.49203964837929
 20
160.6607678913192
 30
0.0
 10
65.54676740959604
 20
161.4091794285615
 30
0.0
 10
65.61341670027102
 20
162.3551241737463
 30
0.0
 10
65.68797891565963
 20
163.4603915002558
 30
0.0
 10
65.76183095010087
 20
164.6114037008385
 30
0.0
 10
65.82882710415917
 20
165.7108256357902
 30
0.0
 10
65.8865765126353
 20
166.7016592341521
 30
0.0
 10
65.94191016899083
 20
167.6907962481587
 30
0.0
 10
66.00148762016941
 20
168.8055710266085
 30
0.0
 10
66.0659292728352
 20
170.078675708594
 30
0.0
 10
66.1264763055175
 20
171.3513027391182
 30
0.0
 10
66.17636834245808
 20
172.4629390194872
 30
0.0
 10
66.21466467721683
 20
173.3553783369859
 30
0.0
 10
66.24736639641752
 20
174.1460894936619
 30
0.0
 10
66.29341733474634
 20
175.3014978048749
 30
0.0
 10
66.35246918859468
 20
176.8831186604354
 30
0.0
 10
66.41815233057191
 20
178.816767672247
 30
0.0
 10
66.47828014681942
 20
180.7677836530655
 30
0.0
 10
66.53265438083936
 20
182.7170343779855
 30
0.0
 10
66.58132280238594
 20
184.6622743513857
 30
0.0
 10
66.6213684608162
 20
186.4489352432418
 30
0.0
 10
66.65257456005308
 20
187.9857923822358
 30
0.0
 10
66.6771106806496
 20
189.3037760786281
 30
0.0
 10
66.69865329699604
 20
190.5596115515226
 30
0.0
 10
66.72173325370142
 20
192.0262668662507
 30
0.0
 10
66.74915193353233
 20
193.9886871313019
 30
0.0
 10
66.77817839922139
 20
196.4854371254111
 30
0.0
 10
66.80193105604118
 20
199.1203963288945
 30
0.0
 10
66.81391978005696
 20
200.8606767681437
 30
0.0
 10
66.81862095299472
 20
201.6376370996115
 30
0.0
  0
SPLINE
  5
104
330
ED
100
AcDbEntity
  8
DV3_Default
  6
Continuous
 62
     7
100
AcDbSpline
210
0.0
220
0.0
230
1.0
 70
     8
 71
     3
 72
    23
 73
    19
 74
     0
 42
0.0000000009172221
 43
0.0000000001
 40
0.0
 40
0.0
 40
0.0
 40
0.0
 40
0.0345384250831627
 40
0.0729307379218334
 40
0.1156471818730986
 40
0.1632515007905939
 40
0.2156377290373434
 40
0.2723728519560243
 40
0.3336374938364579
 40
0.3992132976864205
 40
0.4682313429043566
 40
0.5402640565531203
 40
0.6148688573682332
 40
0.688153023311989
 40
0.7609687628726243
 40
0.8370080928146835
 40
0.916451716017941
 40
1.0
 40
1.0
 40
1.0
 40
1.0
 10
67.20469480903488
 20
239.0645863558211
 30
0.0
 10
67.21266100421805
 20
239.1913768584806
 30
0.0
 10
67.22958095958533
 20
239.4584296157403
 30
0.0
 10
67.2567120338355
 20
239.880266255963
 30
0.0
 10
67.28717729882361
 20
240.3474591863307
 30
0.0
 10
67.32122403746006
 20
240.8630886226447
 30
0.0
 10
67.3588789086586
 20
241.4271612853469
 30
0.0
 10
67.40005009866904
 20
242.0383184885334
 30
0.0
 10
67.4446589220072
 20
242.6958301477118
 30
0.0
 10
67.49241380162916
 20
243.3962837807725
 30
0.0
 10
67.54304891257168
 20
244.1371589320993
 30
0.0
 10
67.59588523495522
 20
244.9102697418508
 30
0.0
 10
67.65012156266722
 20
245.7063462397171
 30
0.0
 10
67.70404854335227
 20
246.5017080630322
 30
0.0
 10
67.75913954373713
 20
247.3196740545861
 30
0.0
 10
67.81405138868557
 20
248.1384675547845
 30
0.0
 10
67.87513785558133
 20
249.0525738540264
 30
0.0
 10
67.91192523184898
 20
249.601903087253
 30
0.0
 10
67.9347485495585
 20
249.9425923373905
 30
0.0
  0
SPLINE
  5
105
330
ED
100
AcDbEntity
  8
DV3_Default
  6
Continuous
 62
     7
100
AcDbSpline
210
0.0
220
0.0
230
1.0
 70
     8
 71
     3
 72
    28
 73
    24
 74
     0
 42
0.0000000003982735
 43
0.0000000001
 40
0.0
 40
0.0
 40
0.0
 40
0.0
 40
0.0636236839889855
 40
0.1251522124640622
 40
0.1720381463776888
 40
0.2176451482633175
 40
0.2679138830872184
 40
0.3165196963413716
 40
0.3634511345250597
 40
0.408693550532403
 40
0.4775927351336102
 40
0.5421929844545474
 40
0.6024838402844696
 40
0.6584586142692177
 40
0.7101057702460458
 40
0.7685731441728111
 40
0.820269224746326
 40
0.8651887517348598
 40
0.9033594255632852
 40
0.9354163756978353
 40
0.9618792047395449
 40
0.9832007073421672
 40
1.0
 40
1.0
 40
1.0
 40
1.0
 10
39.89774064732293
 20
106.3691333033851
 30
0.0
 10
40.4901202377683
 20
106.3761603882055
 30
0.0
 10
41.47201120091071
 20
106.3950320626487
 30
0.0
 10
42.94939818486475
 20
106.5607974902003
 30
0.0
 10
44.22109683596387
 20
106.8149098736383
 30
0.0
 10
45.37932355932396
 20
107.1556641108547
 30
0.0
 10
46.50871896120869
 20
107.6130807699401
 30
0.0
 10
47.59174405369097
 20
108.1894798208453
 30
0.0
 10
48.5928779120727
 20
108.8181611781803
 30
0.0
 10
49.69590096972589
 20
109.599311590325
 30
0.0
 10
50.85826310107106
 20
110.5476535189593
 30
0.0
 10
52.03387745602517
 20
111.6703228332654
 30
0.0
 10
53.05338555670142
 20
112.7935358288835
 30
0.0
 10
53.93378937375985
 20
113.8926838777522
 30
0.0
 10
54.74469680478183
 20
115.0255700080032
 30
0.0
 10
55.47729497256591
 20
116.1689102833087
 30
0.0
 10
56.12791787923355
 20
117.2964720443946
 30
0.0
 10
56.65743455600039
 20
118.2966262634392
 30
0.0
 10
57.08326583898624
 20
119.1652676413273
 30
0.0
 10
57.42932063625457
 20
119.8980795020821
 30
0.0
 10
57.70352702091493
 20
120.4881744268591
 30
0.0
 10
57.92492446981871
 20
120.9676861264899
 30
0.0
 10
58.02228224102176
 20
121.192923988766
 30
0.0
 10
58.07240441303978
 20
121.3089639059996
 30
0.0
  0
SPLINE
  5
106
330
ED
100
AcDbEntity
  8
DV3_Default
  6
Continuous
 62
     7
100
AcDbSpline
210
0.0
220
0.0
230
1.0
 70
     8
 71
     3
 72
    28
 73
    24
 74
     0
 42
0.0000000003982619
 43
0.0000000001
 40
0.0
 40
0.0
 40
0.0
 40
0.0
 40
0.0167994531873974
 40
0.038121159531196
 40
0.0645842414415102
 40
0.0966414978987416
 40
0.1348125364692553
 40
0.1797324926889049
 40
0.2314290672472837
 40
0.2898969998623928
 40
0.3415446493565819
 40
0.3975199582114929
 40
0.4578113901541455
 40
0.5224122567664692
 40
0.5913120997377852
 40
0.6365549480616299
 40
0.6834868347013662
 40
0.7320931124111564
 40
0.7823623275808356
 40
0.84061639118594
 40
0.9009512360867229
 40
0.9498278852908348
 40
1.0
 40
1.0
 40
1.0
 40
1.0
 10
21.72307645479844
 20
121.3089639061848
 30
0.0
 10
21.77319862682799
 20
121.192923988922
 30
0.0
 10
21.87055639804918
 20
120.967686126599
 30
0.0
 10
22.091953846974
 20
120.4881744269166
 30
0.0
 10
22.36616023164895
 20
119.8980795021033
 30
0.0
 10
22.71221502892787
 20
119.1652676413343
 30
0.0
 10
23.13804631190033
 20
118.2966262634315
 30
0.0
 10
23.66756298874243
 20
117.2964720444312
 30
0.0
 10
24.31818589506265
 20
116.1689102831406
 30
0.0
 10
25.05078406428379
 20
115.0255700086831
 30
0.0
 10
25.86169149029165
 20
113.8926838754736
 30
0.0
 10
26.74209532755672
 20
112.7935358385284
 30
0.0
 10
27.76160334378159
 20
111.6703227930786
 30
0.0
 10
28.9372180483176
 20
110.5476536850492
 30
0.0
 10
30.09957893698356
 20
109.5993110231508
 30
0.0
 10
31.20260523444042
 20
108.8181625227093
 30
0.0
 10
32.20372769458817
 20
108.1894744396458
 30
0.0
 10
33.28679780084666
 20
107.6131019499114
 30
0.0
 10
34.51486530117852
 20
107.1155388360952
 30
0.0
 10
35.89220469743805
 20
106.7303287244891
 30
0.0
 10
37.28331196732138
 20
106.5016020921452
 30
0.0
 10
38.65326024259453
 20
106.3847559738249
 30
0.0
 10
39.43059048339873
 20
106.3734538426959
 30
0.0
 10
39.89774022058786
 20
106.3691333033851
 30
0.0
  0
SPLINE
  5
107
330
ED
100
AcDbEntity
  8
DV3_Default
  6
Continuous
 62
     7
100
AcDbSpline
210
0.0
220
0.0
230
1.0
 70
     8
 71
     3
 72
    23
 73
    19
 74
     0
 42
0.0000000009173639
 43
0.0000000001
 40
0.0
 40
0.0
 40
0.0
 40
0.0
 40
0.0731086032594798
 40
0.1422051657486973
 40
0.207805738967039
 40
0.2703216126909491
 40
0.3471469023461159
 40
0.4200710176192425
 40
0.484956883711955
 40
0.5431149114979302
 40
0.5969004240472116
 40
0.6463499572270175
 40
0.6913949713395645
 40
0.7498255568111488
 40
0.8171386215516543
 40
0.888329044908704
 40
0.9622205945363003
 40
1.0
 40
1.0
 40
1.0
 40
1.0
 10
11.86073231847633
 20
249.9425923375689
 30
0.0
 10
11.88103090321958
 20
249.6395734727869
 30
0.0
 10
11.91367170479962
 20
249.1521827817536
 30
0.0
 10
11.96759665940876
 20
248.3445861569176
 30
0.0
 10
12.01572090685216
 20
247.6256115771109
 30
0.0
 10
12.06716390153492
 20
246.8594645571072
 30
0.0
 10
12.11956974518769
 20
246.0835923569706
 30
0.0
 10
12.17298013093208
 20
245.2979467199181
 30
0.0
 10
12.22134838249665
 20
244.5894412737256
 30
0.0
 10
12.26490706342074
 20
243.9526238713736
 30
0.0
 10
12.30436281336869
 20
243.3756308498984
 30
0.0
 10
12.34037925310525
 20
242.8479363836219
 30
0.0
 10
12.37716992191328
 20
242.3071421882605
 30
0.0
 10
12.41772093105474
 20
241.7079862198184
 30
0.0
 10
12.46422567961559
 20
241.0146346842108
 30
0.0
 10
12.51396084639959
 20
240.2627274832188
 30
0.0
 10
12.55636918202976
 20
239.6085200771861
 30
0.0
 10
12.58202925422438
 20
239.2039027793376
 30
0.0
 10
12.59067827552165
 20
239.0662685410356
 30
0.0
  0
SPLINE
  5
108
330
ED
100
AcDbEntity
  8
DV3_Default
  6
Continuous
 62
     7
100
AcDbSpline
210
0.0
220
0.0
230
1.0
 70
     8
 71
     3
 72
    64
 73
    60
 74
     0
 42
0.0000000001307846
 43
0.0000000001
 40
0.0
 40
0.0
 40
0.0
 40
0.0
 40
0.0026726790666355
 40
0.0179022462348025
 40
0.0334594996413821
 40
0.0491481717365876
 40
0.0650198460686465
 40
0.0797248893924508
 40
0.0909534263156808
 40
0.0990174329023632
 40
0.1055274758553858
 40
0.1134626917842365
 40
0.1232410083705396
 40
0.1349561755822067
 40
0.1468753326399156
 40
0.1599197700998437
 40
0.1753227802086375
 40
0.1903564068245971
 40
0.20302197107126
 40
0.2139291508615153
 40
0.2245450436653017
 40
0.2366565695879418
 40
0.2542867372651608
 40
0.2726970102461587
 40
0.2899022639972427
 40
0.3041732270812188
 40
0.3165407984966023
 40
0.3303327650376695
 40
0.3452183013431262
 40
0.3621496729811692
 40
0.3789594849059164
 40
0.3943939344339915
 40
0.4108877532748102
 40
0.4289408275569893
 40
0.4459214023842425
 40
0.4638471897774148
 40
0.4829741292311597
 40
0.50108935803971
 40
0.5174389175660332
 40
0.5309278931103029
 40
0.5452445574292265
 40
0.5629702844200478
 40
0.583870818724561
 40
0.6057243965360205
 40
0.6274884008717415
 40
0.6532095225588845
 40
0.6826068024398668
 40
0.7096172969338059
 40
0.7333990707057981
 40
0.7547732889685
 40
0.7745242790541418
 40
0.7947231444748029
 40
0.817078459239224
 40
0.8415559095992297
 40
0.8707666467353656
 40
0.9040465738965914
 40
0.9400497890535897
 40
0.9762035188802768
 40
1.0
 40
1.0
 40
1.0
 40
1.0
 10
12.97686377816301
 20
201.6388123538606
 30
0.0
 10
12.97727643697169
 20
201.5706408629037
 30
0.0
 10
12.98007342337729
 20
201.1140071225197
 30
0.0
 10
12.98571900677644
 20
200.2605029875414
 30
0.0
 10
12.99464357602435
 20
199.0748592280119
 30
0.0
 10
13.00488837001704
 20
197.8727431487245
 30
0.0
 10
13.01619782714886
 20
196.6923020492024
 30
0.0
 10
13.02756854986792
 20
195.6256118828593
 30
0.0
 10
13.03764405802129
 20
194.7581245689461
 30
0.0
 10
13.04577337107093
 20
194.0996615712173
 30
0.0
 10
13.05319150477216
 20
193.5252299045345
 30
0.0
 10
13.06153508634147
 20
192.9063363323014
 30
0.0
 10
13.07222555367667
 20
192.155098707392
 30
0.0
 10
13.08516250960541
 20
191.3011456881056
 30
0.0
 10
13.10015602505707
 20
190.3665180319369
 30
0.0
 10
13.11780380482319
 20
189.3390277915655
 30
0.0
 10
13.13832581852812
 20
188.2287404976028
 30
0.0
 10
13.16019904787895
 20
187.1291932570429
 30
0.0
 10
13.18111527837696
 20
186.1438041236312
 30
0.0
 10
13.20063967512766
 20
185.271456560719
 30
0.0
 10
13.22078421324758
 20
184.4131336432193
 30
0.0
 10
13.24616706499081
 20
183.3834651161979
 30
0.0
 10
13.27840943186995
 20
182.1550974326412
 30
0.0
 10
13.31680771770627
 20
180.7967686626074
 30
0.0
 10
13.35543933340738
 20
179.5240797460432
 30
0.0
 10
13.39152978319307
 20
178.4057018493653
 30
0.0
 10
13.42652896380213
 20
177.374595115963
 30
0.0
 10
13.46381857064929
 20
176.3278883850238
 30
0.0
 10
13.50747366599685
 20
175.1649587451059
 30
0.0
 10
13.55678452700535
 20
173.9252511549282
 30
0.0
 10
13.60977718569845
 20
172.6718269562863
 30
0.0
 10
13.66541357066183
 20
171.4298763529911
 30
0.0
 10
13.72577750112414
 20
170.1564830672462
 30
0.0
 10
13.79186403284123
 20
168.8440282951131
 30
0.0
 10
13.86401125410253
 20
167.4951775544725
 30
0.0
 10
13.94209174131513
 20
166.1193727345516
 30
0.0
 10
14.02689240890017
 20
164.7152688090632
 30
0.0
 10
14.114492775273
 20
163.3517154379655
 30
0.0
 10
14.19738768066282
 20
162.1320722718563
 30
0.0
 10
14.27747254285635
 20
161.0091783125534
 30
0.0
 10
14.36379393653717
 20
159.8515536263668
 30
0.0
 10
14.46935758955848
 20
158.506145374219
 30
0.0
 10
14.59741322428808
 20
156.9704442323974
 30
0.0
 10
14.74345399537103
 20
155.3328635012704
 30
0.0
 10
14.91143538320136
 20
153.5734305268019
 30
0.0
 10
15.11174387100787
 20
151.62367398974
 30
0.0
 10
15.34464893533563
 20
149.5415573844721
 30
0.0
 10
15.59241096740885
 20
147.5118594266573
 30
0.0
 10
15.83322199364963
 20
145.6886281739318
 30
0.0
 10
16.06495568574216
 20
144.0524902417288
 30
0.0
 10
16.29803785223417
 20
142.508154513395
 30
0.0
 10
16.54970225202254
 20
140.9414469001779
 30
0.0
 10
16.83825382464791
 20
139.2596307867547
 30
0.0
 10
17.18962269528877
 20
137.3564943729818
 30
0.0
 10
17.62532175947376
 20
135.1871385568259
 30
0.0
 10
18.16790719255962
 20
132.7418642084812
 30
0.0
 10
18.81361530817925
 20
130.1413056949384
 30
0.0
 10
19.47113545583371
 20
127.7948173350575
 30
0.0
 10
19.92260565123454
 20
126.3417170450271
 30
0.0
 10
20.10915652773999
 20
125.7674797001294
 30
0.0
  0
SPLINE
  5
109
330
ED
100
AcDbEntity
  8
DV3_Default
  6
Continuous
 62
     7
100
AcDbSpline
210
0.0
220
0.0
230
1.0
 70
     8
 71
     3
 72
    10
 73
     6
 74
     0
 42
0.0000000056129713
 43
0.0000000001
 40
0.0
 40
0.0
 40
0.0
 40
0.0
 40
0.3093286258718649
 40
0.6544478170543735
 40
1.0
 40
1.0
 40
1.0
 40
1.0
 10
24.39808975884231
 20
116.0651542042215
 30
0.0
 10
24.49573594249057
 20
115.9029802289726
 30
0.0
 10
24.70184422280856
 20
115.5667432076504
 30
0.0
 10
25.0265284517172
 20
115.0520575386841
 30
0.0
 10
25.2328103397557
 20
114.7476596892689
 30
0.0
 10
25.35790474789254
 20
114.564677186363
 30
0.0
  0
ENDBLK
  5
10B
330
ED
100
AcDbEntity
  8
0
100
AcDbBlockEnd
  0
ENDSEC
  0
SECTION
  2
ENTITIES
  0
INSERT
  5
5F
330
1F
100
AcDbEntity
  8
Default
100
AcDbBlockReference
  2
SEANNOT_GROUP
 10
0.0
 20
0.0
 30
0.0
  0
INSERT
  5
65
330
1F
100
AcDbEntity
  8
Default
100
AcDbBlockReference
  2
SEANNOT_GROUP1
 10
0.0
 20
0.0
 30
0.0
  0
INSERT
  5
6A
330
1F
100
AcDbEntity
  8
Default
100
AcDbBlockReference
  2
SEANNOT_GROUP2
 10
0.0
 20
0.0
 30
0.0
  0
INSERT
  5
6F
330
1F
100
AcDbEntity
  8
Default
100
AcDbBlockReference
  2
SE
 10
0.0
 20
0.0
 30
0.0
  0
INSERT
  5
B1
330
1F
100
AcDbEntity
  8
Default
100
AcDbBlockReference
  2
SE1
 10
0.0
 20
0.0
 30
0.0
  0
INSERT
  5
EE
330
1F
100
AcDbEntity
  8
Default
100
AcDbBlockReference
  2
SE2
 10
0.0
 20
0.0
 30
0.0
  0
TEXT
  5
10D
330
1F
100
AcDbEntity
  8
Default
  6
Continuous
 62
     7
100
AcDbText
 10
5.9362635081
 20
53.4225120485
 30
0.0
 40
10.0
  1
Grohe AG^J
  7
SEACAD_seiso_ttf
 11
5.9362635081
 21
63.4225120485
 31
0.0
100
AcDbText
 73
     3
  0
TEXT
  5
10E
330
1F
100
AcDbEntity
  8
Default
  6
Continuous
 62
     7
100
AcDbText
 10
5.9362635081
 20
37.0588756849
 30
0.0
 40
10.0
  1
 
  7
SEACAD_seiso_ttf
 11
5.9362635081
 21
47.0588756849
 31
0.0
100
AcDbText
 73
     3
  0
TEXT
  5
10F
330
1F
100
AcDbEntity
  8
Default
  6
Continuous
 62
     7
100
AcDbText
 10
5.9362635081
 20
20.6952393213
 30
0.0
 40
10.0
  1
ecn:
  7
SEACAD_seiso_ttf
 11
5.9362635081
 21
30.6952393213
 31
0.0
100
AcDbText
 73
     3
  0
TEXT
  5
110
330
1F
100
AcDbEntity
  8
Default
  6
Continuous
 62
     7
100
AcDbText
 10
5.9362635081
 20
4.3316029576
 30
0.0
 40
10.0
  1
unit: mm
  7
SEACAD_seiso_ttf
 11
5.9362635081
 21
14.3316029576
 31
0.0
100
AcDbText
 73
     3
  0
LINE
  5
111
330
1F
100
AcDbEntity
  8
Default
  6
Continuous
 62
     7
100
AcDbLine
 10
0.0
 20
0.0
 30
0.0
 11
100.0
 21
0.0
 31
0.0
  0
LINE
  5
112
330
1F
100
AcDbEntity
  8
Default
  6
Continuous
 62
     7
100
AcDbLine
 10
0.0
 20
0.0
 30
0.0
 11
0.0
 21
100.0
 31
0.0
  0
TEXT
  5
113
330
1F
100
AcDbEntity
  8
Default
  6
Continuous
 62
     7
100
AcDbText
 10
24.3923665681
 20
-18.2375342018
 30
0.0
 40
10.0
  1
100 mm
  7
SEACAD_seiso_ttf
 11
24.3923665681
 21
-8.2375342018
 31
0.0
100
AcDbText
 73
     3
  0
TEXT
  5
114
330
1F
100
AcDbEntity
  8
Default
  6
Continuous
 62
     7
100
AcDbText
 10
-7.6150308803
 20
24.6231930421
 30
0.0
 40
10.0
  1
100 mm
 50
90.0
  7
SEACAD_seiso_ttf
 11
-17.6150308803
 21
24.6231930421
 31
0.0
100
AcDbText
 73
     3
  0
TEXT
  5
115
330
1F
100
AcDbEntity
  8
Default
  6
Continuous
 62
     7
100
AcDbText
 10
28.4878128572
 20
20.0907663715
 30
0.0
 40
10.0
  1
210658
  7
SEACAD_seiso_ttf
 11
28.4878128572
 21
30.0907663715
 31
0.0
100
AcDbText
 73
     3
  0
TEXT
  5
116
330
1F
100
AcDbEntity
  8
Default
  6
Continuous
 62
     7
100
AcDbText
 10
5.9012241913
 20
36.7242780188
 30
0.0
 40
10.0
  1
36249000
  7
SEACAD_seiso_ttf
 11
5.9012241913
 21
46.7242780188
 31
0.0
100
AcDbText
 73
     3
  0
ENDSEC
  0
SECTION
  2
OBJECTS
  0
DICTIONARY
  5
C
330
0
100
AcDbDictionary
281
     1
  3
ACAD_GROUP
350
D
  3
ACAD_LAYOUT
350
1A
  3
ACAD_MLEADERSTYLE
350
11A
  3
ACAD_MLINESTYLE
350
17
  3
ACAD_PLOTSETTINGS
350
19
  3
ACAD_PLOTSTYLENAME
350
E
  3
ACAD_SCALELIST
350
3B
  3
ACAD_TABLESTYLE
350
119
  3
ACAD_VISUALSTYLE
350
2A
  3
AcDbVariableDictionary
350
117
  0
DICTIONARY
  5
D
102
{ACAD_REACTORS
330
C
102
}
330
C
100
AcDbDictionary
281
     1
  0
DICTIONARY
  5
1A
102
{ACAD_REACTORS
330
C
102
}
330
C
100
AcDbDictionary
281
     1
  3
Layout1
350
1E
  3
Model
350
22
  0
DICTIONARY
  5
11A
102
{ACAD_REACTORS
330
C
102
}
330
C
100
AcDbDictionary
281
     1
  0
DICTIONARY
  5
17
102
{ACAD_REACTORS
330
C
102
}
330
C
100
AcDbDictionary
281
     1
  3
Standard
350
18
  0
DICTIONARY
  5
19
102
{ACAD_REACTORS
330
C
102
}
330
C
100
AcDbDictionary
281
     1
  0
ACDBDICTIONARYWDFLT
  5
E
102
{ACAD_REACTORS
330
C
102
}
330
C
100
AcDbDictionary
281
     1
  3
Normal
350
F
100
AcDbDictionaryWithDefault
340
F
  0
DICTIONARY
  5
3B
102
{ACAD_REACTORS
330
C
102
}
330
C
100
AcDbDictionary
281
     1
  3
A0
350
3C
  3
A1
350
3D
  3
A2
350
3E
  3
A3
350
3F
  3
A4
350
40
  3
A5
350
41
  3
A6
350
42
  3
A7
350
43
  3
A8
350
44
  3
A9
350
45
  3
B0
350
46
  3
B1
350
47
  3
B2
350
48
  3
B3
350
49
  3
B4
350
4A
  3
B5
350
4B
  3
B6
350
4C
  3
B7
350
4D
  3
B8
350
4E
  3
B9
350
4F
  3
C0
350
50
  3
C1
350
51
  3
C2
350
52
  3
C3
350
53
  3
C4
350
54
  3
C5
350
55
  3
C6
350
56
  3
C7
350
57
  3
C8
350
58
  3
C9
350
59
  3
D0
350
5A
  3
D1
350
5B
  3
D2
350
5C
  0
DICTIONARY
  5
119
102
{ACAD_REACTORS
330
C
102
}
330
C
100
AcDbDictionary
281
     1
  0
DICTIONARY
  5
2A
102
{ACAD_REACTORS
330
C
102
}
330
C
100
AcDbDictionary
281
     1
  3
2dWireframe
350
2F
  3
3D Hidden
350
31
  3
3dWireframe
350
30
  3
Basic
350
32
  3
Brighten
350
36
  3
ColorChange
350
3A
  3
Conceptual
350
34
  3
Dim
350
35
  3
Facepattern
350
39
  3
Flat
350
2B
  3
FlatWithEdges
350
2C
  3
Gouraud
350
2D
  3
GouraudWithEdges
350
2E
  3
Linepattern
350
38
  3
Realistic
350
33
  3
Thicken
350
37
  0
DICTIONARY
  5
117
102
{ACAD_REACTORS
330
C
102
}
330
C
100
AcDbDictionary
281
     1
  3
CANNOSCALE
350
118
  3
PSOLHEIGHT
350
11C
  3
PSOLWIDTH
350
11B
  0
LAYOUT
  5
1E
102
{ACAD_REACTORS
330
1A
102
}
330
1A
100
AcDbPlotSettings
  1

  2
none_device
  4

  6

 40
0.0
 41
0.0
 42
0.0
 43
0.0
 44
0.0
 45
0.0
 46
0.0
 47
0.0
 48
0.0
 49
0.0
140
0.0
141
0.0
142
1.0
143
1.0
 70
   688
 72
     0
 73
     0
 74
     5
  7

 75
    16
147
1.0
148
0.0
149
0.0
100
AcDbLayout
  1
Layout1
 70
     1
 71
     1
 10
0.0
 20
0.0
 11
3000.0
 21
4500.0
 12
0.0
 22
0.0
 32
0.0
 14
0.0
 24
0.0
 34
0.0
 15
3000.0
 25
4500.0
 35
0.0
146
0.0
 13
0.0
 23
0.0
 33
0.0
 16
1.0
 26
0.0
 36
0.0
 17
0.0
 27
1.0
 37
0.0
 76
     0
330
1B
  0
LAYOUT
  5
22
102
{ACAD_REACTORS
330
1A
102
}
330
1A
100
AcDbPlotSettings
  1

  2
none_device
  4

  6

 40
0.0
 41
0.0
 42
0.0
 43
0.0
 44
0.0
 45
0.0
 46
0.0
 47
0.0
 48
0.0
 49
0.0
140
0.0
141
0.0
142
1.0
143
1.0
 70
  1712
 72
     0
 73
     0
 74
     0
  7

 75
     0
147
1.0
148
0.0
149
0.0
100
AcDbLayout
  1
Model
 70
     1
 71
     0
 10
0.0
 20
0.0
 11
3000.0
 21
4500.0
 12
0.0
 22
0.0
 32
0.0
 14
0.0
 24
0.0
 34
0.0
 15
3000.0
 25
4500.0
 35
0.0
146
0.0
 13
0.0
 23
0.0
 33
0.0
 16
1.0
 26
0.0
 36
0.0
 17
0.0
 27
1.0
 37
0.0
 76
     0
330
1F
331
29
  0
MLINESTYLE
  5
18
102
{ACAD_REACTORS
330
17
102
}
330
17
100
AcDbMlineStyle
  2
Standard
 70
     0
  3

 62
   256
 51
90.0
 52
90.0
 71
     2
 49
0.5
 62
   256
  6
BYLAYER
 49
-0.5
 62
   256
  6
BYLAYER
  0
ACDBPLACEHOLDER
  5
F
102
{ACAD_REACTORS
330
E
102
}
330
E
  0
SCALE
  5
3C
102
{ACAD_REACTORS
330
3B
102
}
330
3B
100
AcDbScale
 70
     0
300
1:1
140
1.0
141
1.0
290
     1
  0
SCALE
  5
3D
102
{ACAD_REACTORS
330
3B
102
}
330
3B
100
AcDbScale
 70
     0
300
1:2
140
1.0
141
2.0
290
     0
  0
SCALE
  5
3E
102
{ACAD_REACTORS
330
3B
102
}
330
3B
100
AcDbScale
 70
     0
300
1:4
140
1.0
141
4.0
290
     0
  0
SCALE
  5
3F
102
{ACAD_REACTORS
330
3B
102
}
330
3B
100
AcDbScale
 70
     0
300
1:5
140
1.0
141
5.0
290
     0
  0
SCALE
  5
40
102
{ACAD_REACTORS
330
3B
102
}
330
3B
100
AcDbScale
 70
     0
300
1:8
140
1.0
141
8.0
290
     0
  0
SCALE
  5
41
102
{ACAD_REACTORS
330
3B
102
}
330
3B
100
AcDbScale
 70
     0
300
1:10
140
1.0
141
10.0
290
     0
  0
SCALE
  5
42
102
{ACAD_REACTORS
330
3B
102
}
330
3B
100
AcDbScale
 70
     0
300
1:16
140
1.0
141
16.0
290
     0
  0
SCALE
  5
43
102
{ACAD_REACTORS
330
3B
102
}
330
3B
100
AcDbScale
 70
     0
300
1:20
140
1.0
141
20.0
290
     0
  0
SCALE
  5
44
102
{ACAD_REACTORS
330
3B
102
}
330
3B
100
AcDbScale
 70
     0
300
1:30
140
1.0
141
30.0
290
     0
  0
SCALE
  5
45
102
{ACAD_REACTORS
330
3B
102
}
330
3B
100
AcDbScale
 70
     0
300
1:40
140
1.0
141
40.0
290
     0
  0
SCALE
  5
46
102
{ACAD_REACTORS
330
3B
102
}
330
3B
100
AcDbScale
 70
     0
300
1:50
140
1.0
141
50.0
290
     0
  0
SCALE
  5
47
102
{ACAD_REACTORS
330
3B
102
}
330
3B
100
AcDbScale
 70
     0
300
1:100
140
1.0
141
100.0
290
     0
  0
SCALE
  5
48
102
{ACAD_REACTORS
330
3B
102
}
330
3B
100
AcDbScale
 70
     0
300
2:1
140
2.0
141
1.0
290
     0
  0
SCALE
  5
49
102
{ACAD_REACTORS
330
3B
102
}
330
3B
100
AcDbScale
 70
     0
300
4:1
140
4.0
141
1.0
290
     0
  0
SCALE
  5
4A
102
{ACAD_REACTORS
330
3B
102
}
330
3B
100
AcDbScale
 70
     0
300
8:1
140
8.0
141
1.0
290
     0
  0
SCALE
  5
4B
102
{ACAD_REACTORS
330
3B
102
}
330
3B
100
AcDbScale
 70
     0
300
10:1
140
10.0
141
1.0
290
     0
  0
SCALE
  5
4C
102
{ACAD_REACTORS
330
3B
102
}
330
3B
100
AcDbScale
 70
     0
300
100:1
140
100.0
141
1.0
290
     0
  0
SCALE
  5
4D
102
{ACAD_REACTORS
330
3B
102
}
330
3B
100
AcDbScale
 70
     0
300
1/128" = 1'-0"
140
0.0078125
141
12.0
290
     0
  0
SCALE
  5
4E
102
{ACAD_REACTORS
330
3B
102
}
330
3B
100
AcDbScale
 70
     0
300
1/64" = 1'-0"
140
0.015625
141
12.0
290
     0
  0
SCALE
  5
4F
102
{ACAD_REACTORS
330
3B
102
}
330
3B
100
AcDbScale
 70
     0
300
1/32" = 1'-0"
140
0.03125
141
12.0
290
     0
  0
SCALE
  5
50
102
{ACAD_REACTORS
330
3B
102
}
330
3B
100
AcDbScale
 70
     0
300
1/16" = 1'-0"
140
0.0625
141
12.0
290
     0
  0
SCALE
  5
51
102
{ACAD_REACTORS
330
3B
102
}
330
3B
100
AcDbScale
 70
     0
300
3/32" = 1'-0"
140
0.09375
141
12.0
290
     0
  0
SCALE
  5
52
102
{ACAD_REACTORS
330
3B
102
}
330
3B
100
AcDbScale
 70
     0
300
1/8" = 1'-0"
140
0.125
141
12.0
290
     0
  0
SCALE
  5
53
102
{ACAD_REACTORS
330
3B
102
}
330
3B
100
AcDbScale
 70
     0
300
3/16" = 1'-0"
140
0.1875
141
12.0
290
     0
  0
SCALE
  5
54
102
{ACAD_REACTORS
330
3B
102
}
330
3B
100
AcDbScale
 70
     0
300
1/4" = 1'-0"
140
0.25
141
12.0
290
     0
  0
SCALE
  5
55
102
{ACAD_REACTORS
330
3B
102
}
330
3B
100
AcDbScale
 70
     0
300
3/8" = 1'-0"
140
0.375
141
12.0
290
     0
  0
SCALE
  5
56
102
{ACAD_REACTORS
330
3B
102
}
330
3B
100
AcDbScale
 70
     0
300
1/2" = 1'-0"
140
0.5
141
12.0
290
     0
  0
SCALE
  5
57
102
{ACAD_REACTORS
330
3B
102
}
330
3B
100
AcDbScale
 70
     0
300
3/4" = 1'-0"
140
0.75
141
12.0
290
     0
  0
SCALE
  5
58
102
{ACAD_REACTORS
330
3B
102
}
330
3B
100
AcDbScale
 70
     0
300
1" = 1'-0"
140
1.0
141
12.0
290
     0
  0
SCALE
  5
59
102
{ACAD_REACTORS
330
3B
102
}
330
3B
100
AcDbScale
 70
     0
300
1-1/2" = 1'-0"
140
1.5
141
12.0
290
     0
  0
SCALE
  5
5A
102
{ACAD_REACTORS
330
3B
102
}
330
3B
100
AcDbScale
 70
     0
300
3" = 1'-0"
140
3.0
141
12.0
290
     0
  0
SCALE
  5
5B
102
{ACAD_REACTORS
330
3B
102
}
330
3B
100
AcDbScale
 70
     0
300
6" = 1'-0"
140
6.0
141
12.0
290
     0
  0
SCALE
  5
5C
102
{ACAD_REACTORS
330
3B
102
}
330
3B
100
AcDbScale
 70
     0
300
1'-0" = 1'-0"
140
12.0
141
12.0
290
     0
  0
VISUALSTYLE
  5
2F
102
{ACAD_REACTORS
330
2A
102
}
330
2A
100
AcDbVisualStyle
  2
2dWireframe
 70
     4
 71
     0
 72
     2
 73
     0
 90
        0
 40
-0.6
 41
-30.0
 62
     5
 63
     7
 74
     1
 91
        4
 64
     7
 65
   257
 75
     1
175
     1
 42
1.0
 92
        0
 66
   257
 43
1.0
 76
     1
 77
     6
 78
     2
 67
     7
 79
     5
170
     0
171
     0
290
     0
174
     0
 93
        1
 44
0.0
173
     0
291
     0
 45
0.0
1001
ACAD
1000
AcDbSavedByObjectVersion
1070
     0
  0
VISUALSTYLE
  5
31
102
{ACAD_REACTORS
330
2A
102
}
330
2A
100
AcDbVisualStyle
  2
3D Hidden
 70
     6
 71
     1
 72
     2
 73
     2
 90
        0
 40
-0.6
 41
-30.0
 62
     5
 63
     7
 74
     2
 91
        2
 64
     7
 65
   257
 75
     2
175
     1
 42
40.0
 92
        0
 66
   257
 43
1.0
 76
     1
 77
     6
 78
     2
 67
     7
 79
     3
170
     0
171
     0
290
     0
174
     0
 93
        1
 44
0.0
173
     0
291
     0
 45
0.0
1001
ACAD
1000
AcDbSavedByObjectVersion
1070
     0
  0
VISUALSTYLE
  5
30
102
{ACAD_REACTORS
330
2A
102
}
330
2A
100
AcDbVisualStyle
  2
3dWireframe
 70
     5
 71
     0
 72
     2
 73
     0
 90
        0
 40
-0.6
 41
-30.0
 62
     5
 63
     7
 74
     1
 91
        4
 64
     7
 65
   257
 75
     1
175
     1
 42
1.0
 92
        0
 66
   257
 43
1.0
 76
     1
 77
     6
 78
     2
 67
     7
 79
     5
170
     0
171
     0
290
     0
174
     0
 93
        1
 44
0.0
173
     0
291
     0
 45
0.0
1001
ACAD
1000
AcDbSavedByObjectVersion
1070
     0
  0
VISUALSTYLE
  5
32
102
{ACAD_REACTORS
330
2A
102
}
330
2A
100
AcDbVisualStyle
  2
Basic
 70
     7
 71
     1
 72
     0
 73
     1
 90
        0
 40
-0.6
 41
-30.0
 62
     5
 63
     7
 74
     0
 91
        4
 64
     7
 65
   257
 75
     1
175
     1
 42
1.0
 92
        8
 66
     7
 43
1.0
 76
     1
 77
     6
 78
     2
 67
     7
 79
     5
170
     0
171
     0
290
     0
174
     0
 93
        1
 44
0.0
173
     0
291
     1
 45
0.0
1001
ACAD
1000
AcDbSavedByObjectVersion
1070
     0
  0
VISUALSTYLE
  5
36
102
{ACAD_REACTORS
330
2A
102
}
330
2A
100
AcDbVisualStyle
  2
Brighten
 70
    12
 71
     2
 72
     2
 73
     0
 90
        0
 40
-0.6
 41
-30.0
 62
     5
 63
     7
 74
     1
 91
        4
 64
     7
 65
   257
 75
     1
175
     1
 42
1.0
 92
        8
 66
     7
 43
1.0
 76
     1
 77
     6
 78
     2
 67
     7
 79
     5
170
     0
171
     0
290
     0
174
     0
 93
        1
 44
50.0
173
     0
291
     1
 45
0.0
1001
ACAD
1000
AcDbSavedByObjectVersion
1070
     0
  0
VISUALSTYLE
  5
3A
102
{ACAD_REACTORS
330
2A
102
}
330
2A
100
AcDbVisualStyle
  2
ColorChange
 70
    16
 71
     2
 72
     2
 73
     3
 90
        0
 40
-0.6
 41
-30.0
 62
     5
 63
     8
 74
     1
 91
        4
 64
     7
 65
   257
 75
     1
175
     1
 42
1.0
 92
        8
 66
     8
 43
1.0
 76
     1
 77
     6
 78
     2
 67
     7
 79
     5
170
     0
171
     0
290
     0
174
     0
 93
        1
 44
0.0
173
     0
291
     1
 45
0.0
1001
ACAD
1000
AcDbSavedByObjectVersion
1070
     0
  0
VISUALSTYLE
  5
34
102
{ACAD_REACTORS
330
2A
102
}
330
2A
100
AcDbVisualStyle
  2
Conceptual
 70
     9
 71
     3
 72
     2
 73
     0
 90
        0
 40
-0.6
 41
-30.0
 62
     5
 63
     7
 74
     2
 91
        2
 64
     7
 65
   257
 75
     1
175
     1
 42
40.0
 92
        8
 66
     7
 43
1.0
 76
     1
 77
     6
 78
     2
 67
     7
 79
     3
170
     0
171
     0
290
     0
174
     0
 93
        1
 44
0.0
173
     0
291
     0
 45
0.0
1001
ACAD
1000
AcDbSavedByObjectVersion
1070
     0
  0
VISUALSTYLE
  5
35
102
{ACAD_REACTORS
330
2A
102
}
330
2A
100
AcDbVisualStyle
  2
Dim
 70
    11
 71
     2
 72
     2
 73
     0
 90
        0
 40
-0.6
 41
-30.0
 62
     5
 63
     7
 74
     1
 91
        4
 64
     7
 65
   257
 75
     1
175
     1
 42
1.0
 92
        8
 66
     7
 43
1.0
 76
     1
 77
     6
 78
     2
 67
     7
 79
     5
170
     0
171
     0
290
     0
174
     0
 93
        1
 44
-50.0
173
     0
291
     1
 45
0.0
1001
ACAD
1000
AcDbSavedByObjectVersion
1070
     0
  0
VISUALSTYLE
  5
39
102
{ACAD_REACTORS
330
2A
102
}
330
2A
100
AcDbVisualStyle
  2
Facepattern
 70
    15
 71
     2
 72
     2
 73
     0
 90
        0
 40
-0.6
 41
-30.0
 62
     5
 63
     7
 74
     1
 91
        4
 64
     7
 65
   257
 75
     1
175
     1
 42
1.0
 92
        8
 66
     7
 43
1.0
 76
     1
 77
     6
 78
     2
 67
     7
 79
     5
170
     0
171
     0
290
     0
174
     0
 93
        1
 44
0.0
173
     0
291
     1
 45
0.0
1001
ACAD
1000
AcDbSavedByObjectVersion
1070
     0
  0
VISUALSTYLE
  5
2B
102
{ACAD_REACTORS
330
2A
102
}
330
2A
100
AcDbVisualStyle
  2
Flat
 70
     0
 71
     2
 72
     1
 73
     1
 90
        2
 40
-0.6
 41
30.0
 62
     5
 63
     7
 74
     0
 91
        4
 64
     7
 65
   257
 75
     1
175
     1
 42
1.0
 92
        8
 66
     7
 43
1.0
 76
     1
 77
     6
 78
     2
 67
     7
 79
     5
170
     0
171
     0
290
     0
174
     0
 93
       13
 44
0.0
173
     0
291
     1
 45
0.0
1001
ACAD
1000
AcDbSavedByObjectVersion
1070
     0
  0
VISUALSTYLE
  5
2C
102
{ACAD_REACTORS
330
2A
102
}
330
2A
100
AcDbVisualStyle
  2
FlatWithEdges
 70
     1
 71
     2
 72
     1
 73
     1
 90
        2
 40
-0.6
 41
30.0
 62
     5
 63
     7
 74
     1
 91
        4
 64
     7
 65
   257
 75
     1
175
     1
 42
1.0
 92
        0
 66
   257
 43
1.0
 76
     1
 77
     6
 78
     2
 67
     7
 79
     5
170
     0
171
     0
290
     0
174
     0
 93
       13
 44
0.0
173
     0
291
     1
 45
0.0
1001
ACAD
1000
AcDbSavedByObjectVersion
1070
     0
  0
VISUALSTYLE
  5
2D
102
{ACAD_REACTORS
330
2A
102
}
330
2A
100
AcDbVisualStyle
  2
Gouraud
 70
     2
 71
     2
 72
     2
 73
     1
 90
        2
 40
-0.6
 41
30.0
 62
     5
 63
     7
 74
     0
 91
        4
 64
     7
 65
   257
 75
     1
175
     1
 42
1.0
 92
        0
 66
     7
 43
1.0
 76
     1
 77
     6
 78
     2
 67
     7
 79
     5
170
     0
171
     0
290
     0
174
     0
 93
       13
 44
0.0
173
     0
291
     1
 45
0.0
1001
ACAD
1000
AcDbSavedByObjectVersion
1070
     0
  0
VISUALSTYLE
  5
2E
102
{ACAD_REACTORS
330
2A
102
}
330
2A
100
AcDbVisualStyle
  2
GouraudWithEdges
 70
     3
 71
     2
 72
     2
 73
     1
 90
        2
 40
-0.6
 41
30.0
 62
     5
 63
     7
 74
     1
 91
        4
 64
     7
 65
   257
 75
     1
175
     1
 42
1.0
 92
        0
 66
   257
 43
1.0
 76
     1
 77
     6
 78
     2
 67
     7
 79
     5
170
     0
171
     0
290
     0
174
     0
 93
       13
 44
0.0
173
     0
291
     1
 45
0.0
1001
ACAD
1000
AcDbSavedByObjectVersion
1070
     0
  0
VISUALSTYLE
  5
38
102
{ACAD_REACTORS
330
2A
102
}
330
2A
100
AcDbVisualStyle
  2
Linepattern
 70
    14
 71
     2
 72
     2
 73
     0
 90
        0
 40
-0.6
 41
-30.0
 62
     5
 63
     7
 74
     1
 91
        4
 64
     7
 65
   257
 75
     7
175
     7
 42
1.0
 92
        8
 66
     7
 43
1.0
 76
     1
 77
     6
 78
     2
 67
     7
 79
     5
170
     0
171
     0
290
     0
174
     0
 93
        1
 44
0.0
173
     0
291
     1
 45
0.0
1001
ACAD
1000
AcDbSavedByObjectVersion
1070
     0
  0
VISUALSTYLE
  5
33
102
{ACAD_REACTORS
330
2A
102
}
330
2A
100
AcDbVisualStyle
  2
Realistic
 70
     8
 71
     2
 72
     2
 73
     0
 90
        0
 40
-0.6
 41
-30.0
 62
     5
 63
     7
 74
     1
 91
        0
 64
     7
 65
   257
 75
     1
175
     1
 42
1.0
 92
        8
 66
     8
 43
1.0
 76
     1
 77
     6
 78
     2
 67
     7
 79
     5
170
     0
171
     0
290
     0
174
     0
 93
       13
 44
0.0
173
     0
291
     0
 45
0.0
1001
ACAD
1000
AcDbSavedByObjectVersion
1070
     0
  0
VISUALSTYLE
  5
37
102
{ACAD_REACTORS
330
2A
102
}
330
2A
100
AcDbVisualStyle
  2
Thicken
 70
    13
 71
     2
 72
     2
 73
     0
 90
        0
 40
-0.6
 41
-30.0
 62
     5
 63
     7
 74
     1
 91
        4
 64
     7
 65
   257
 75
     1
175
     1
 42
1.0
 92
       12
 66
     7
 43
1.0
 76
     1
 77
     6
 78
     2
 67
     7
 79
     5
170
     0
171
     0
290
     0
174
     0
 93
        1
 44
0.0
173
     0
291
     1
 45
0.0
1001
ACAD
1000
AcDbSavedByObjectVersion
1070
     0
  0
DICTIONARYVAR
  5
118
102
{ACAD_REACTORS
330
117
102
}
330
117
100
DictionaryVariables
280
     0
  1
1:1
  0
DICTIONARYVAR
  5
11C
102
{ACAD_REACTORS
330
117
102
}
330
117
100
DictionaryVariables
280
     0
  1
80.000000
  0
DICTIONARYVAR
  5
11B
102
{ACAD_REACTORS
330
117
102
}
330
117
100
DictionaryVariables
280
     0
  1
5.000000
  0
ENDSEC
  0
EOF
