  0
SECTION
  2
HEADER
  9
$ACADVER
  1
AC1018
  9
$ACADMAINTVER
 70
   104
  9
$DWGCODEPAGE
  3
ANSI_1252
  9
$LASTSAVEDBY
  1
Administrator
  9
$CUSTOMPROPERTYTAG
  1
AmdtFileType
  9
$CUSTOMPROPERTY
  1
84
  9
$INSBASE
 10
0.0
 20
0.0
 30
0.0
  9
$EXTMIN
 10
-976.9991916711406
 20
-442.5069784536372
 30
0.0
  9
$EXTMAX
 10
878.0008083288592
 20
442.4930215463628
 30
0.0
  9
$LIMMIN
 10
0.0
 20
0.0
  9
$LIMMAX
 10
420.0
 20
297.0
  9
$ORTHOMODE
 70
     0
  9
$REGENMODE
 70
     1
  9
$FILLMODE
 70
     1
  9
$QTEXTMODE
 70
     0
  9
$MIRRTEXT
 70
     1
  9
$LTSCALE
 40
1.0
  9
$ATTMODE
 70
     1
  9
$TEXTSIZE
 40
2.5
  9
$TRACEWID
 40
1.0
  9
$TEXTSTYLE
  7
STANDARD
  9
$CLAYER
  8
0
  9
$CELTYPE
  6
ByLayer
  9
$CECOLOR
 62
   256
  9
$CELTSCALE
 40
1.0
  9
$DISPSILH
 70
     0
  9
$DIMSCALE
 40
1.0
  9
$DIMASZ
 40
3.5
  9
$DIMEXO
 40
1.0
  9
$DIMDLI
 40
10.0
  9
$DIMRND
 40
0.0
  9
$DIMDLE
 40
0.0
  9
$DIMEXE
 40
1.0
  9
$DIMTP
 40
0.1
  9
$DIMTM
 40
0.1
  9
$DIMTXT
 40
3.5
  9
$DIMCEN
 40
0.0
  9
$DIMTSZ
 40
0.0
  9
$DIMTOL
 70
     0
  9
$DIMLIM
 70
     0
  9
$DIMTIH
 70
     0
  9
$DIMTOH
 70
     0
  9
$DIMSE1
 70
     0
  9
$DIMSE2
 70
     0
  9
$DIMTAD
 70
     1
  9
$DIMZIN
 70
     8
  9
$DIMBLK
  1

  9
$DIMASO
 70
     1
  9
$DIMSHO
 70
     1
  9
$DIMPOST
  1

  9
$DIMAPOST
  1
"
  9
$DIMALT
 70
     0
  9
$DIMALTD
 70
     2
  9
$DIMALTF
 40
0.0393701
  9
$DIMLFAC
 40
1.0
  9
$DIMTOFL
 70
     1
  9
$DIMTVP
 40
0.0
  9
$DIMTIX
 70
     0
  9
$DIMSOXD
 70
     0
  9
$DIMSAH
 70
     0
  9
$DIMBLK1
  1

  9
$DIMBLK2
  1

  9
$DIMSTYLE
  2
AM_DIN
  9
$DIMCLRD
 70
   256
  9
$DIMCLRE
 70
   256
  9
$DIMCLRT
 70
   140
  9
$DIMTFAC
 40
0.71
  9
$DIMGAP
 40
1.5
  9
$DIMJUST
 70
     0
  9
$DIMSD1
 70
     0
  9
$DIMSD2
 70
     0
  9
$DIMTOLJ
 70
     0
  9
$DIMTZIN
 70
     8
  9
$DIMALTZ
 70
     0
  9
$DIMALTTZ
 70
     0
  9
$DIMUPT
 70
     0
  9
$DIMDEC
 70
     2
  9
$DIMTDEC
 70
     3
  9
$DIMALTU
 70
     2
  9
$DIMALTTD
 70
     4
  9
$DIMTXSTY
  7
STANDARD
  9
$DIMAUNIT
 70
     0
  9
$DIMADEC
 70
     0
  9
$DIMALTRND
 40
0.0
  9
$DIMAZIN
 70
     2
  9
$DIMDSEP
 70
    46
  9
$DIMATFIT
 70
     3
  9
$DIMFRAC
 70
     0
  9
$DIMLDRBLK
  1

  9
$DIMLUNIT
 70
     2
  9
$DIMLWD
 70
    -1
  9
$DIMLWE
 70
    -1
  9
$DIMTMOVE
 70
     0
  9
$LUNITS
 70
     2
  9
$LUPREC
 70
     2
  9
$SKETCHINC
 40
1.0
  9
$FILLETRAD
 40
0.0
  9
$AUNITS
 70
     0
  9
$AUPREC
 70
     0
  9
$MENU
  1
.
  9
$ELEVATION
 40
0.0
  9
$PELEVATION
 40
0.0
  9
$THICKNESS
 40
0.0
  9
$LIMCHECK
 70
     0
  9
$CHAMFERA
 40
2.5
  9
$CHAMFERB
 40
2.5
  9
$CHAMFERC
 40
20.0
  9
$CHAMFERD
 40
0.0
  9
$SKPOLY
 70
     0
  9
$TDCREATE
 40
2453918.262673241
  9
$TDUCREATE
 40
2453918.179339908
  9
$TDUPDATE
 40
2457163.670457153
  9
$TDUUPDATE
 40
2457163.587123820
  9
$TDINDWG
 40
0.3120221181
  9
$TDUSRTIMER
 40
0.3120179630
  9
$USRTIMER
 70
     1
  9
$ANGBASE
 50
0.0
  9
$ANGDIR
 70
     0
  9
$PDMODE
 70
     0
  9
$PDSIZE
 40
0.0
  9
$PLINEWID
 40
0.0
  9
$SPLFRAME
 70
     0
  9
$SPLINETYPE
 70
     6
  9
$SPLINESEGS
 70
     8
  9
$HANDSEED
  5
31A7
  9
$SURFTAB1
 70
     6
  9
$SURFTAB2
 70
     6
  9
$SURFTYPE
 70
     6
  9
$SURFU
 70
     6
  9
$SURFV
 70
     6
  9
$UCSBASE
  2

  9
$UCSNAME
  2

  9
$UCSORG
 10
0.0
 20
0.0
 30
0.0
  9
$UCSXDIR
 10
1.0
 20
0.0
 30
0.0
  9
$UCSYDIR
 10
0.0
 20
1.0
 30
0.0
  9
$UCSORTHOREF
  2

  9
$UCSORTHOVIEW
 70
     0
  9
$UCSORGTOP
 10
0.0
 20
0.0
 30
0.0
  9
$UCSORGBOTTOM
 10
0.0
 20
0.0
 30
0.0
  9
$UCSORGLEFT
 10
0.0
 20
0.0
 30
0.0
  9
$UCSORGRIGHT
 10
0.0
 20
0.0
 30
0.0
  9
$UCSORGFRONT
 10
0.0
 20
0.0
 30
0.0
  9
$UCSORGBACK
 10
0.0
 20
0.0
 30
0.0
  9
$PUCSBASE
  2

  9
$PUCSNAME
  2

  9
$PUCSORG
 10
0.0
 20
0.0
 30
0.0
  9
$PUCSXDIR
 10
1.0
 20
0.0
 30
0.0
  9
$PUCSYDIR
 10
0.0
 20
1.0
 30
0.0
  9
$PUCSORTHOREF
  2

  9
$PUCSORTHOVIEW
 70
     0
  9
$PUCSORGTOP
 10
0.0
 20
0.0
 30
0.0
  9
$PUCSORGBOTTOM
 10
0.0
 20
0.0
 30
0.0
  9
$PUCSORGLEFT
 10
0.0
 20
0.0
 30
0.0
  9
$PUCSORGRIGHT
 10
0.0
 20
0.0
 30
0.0
  9
$PUCSORGFRONT
 10
0.0
 20
0.0
 30
0.0
  9
$PUCSORGBACK
 10
0.0
 20
0.0
 30
0.0
  9
$USERI1
 70
     0
  9
$USERI2
 70
     0
  9
$USERI3
 70
     0
  9
$USERI4
 70
     0
  9
$USERI5
 70
     0
  9
$USERR1
 40
0.0
  9
$USERR2
 40
0.0
  9
$USERR3
 40
0.0
  9
$USERR4
 40
0.0
  9
$USERR5
 40
0.0
  9
$WORLDVIEW
 70
     1
  9
$SHADEDGE
 70
     3
  9
$SHADEDIF
 70
    70
  9
$TILEMODE
 70
     1
  9
$MAXACTVP
 70
    64
  9
$PINSBASE
 10
0.0
 20
0.0
 30
0.0
  9
$PLIMCHECK
 70
     0
  9
$PEXTMIN
 10
1.000000000000000E+20
 20
1.000000000000000E+20
 30
1.000000000000000E+20
  9
$PEXTMAX
 10
-1.000000000000000E+20
 20
-1.000000000000000E+20
 30
-1.000000000000000E+20
  9
$PLIMMIN
 10
0.0
 20
0.0
  9
$PLIMMAX
 10
420.0
 20
297.0
  9
$UNITMODE
 70
     0
  9
$VISRETAIN
 70
     1
  9
$PLINEGEN
 70
     0
  9
$PSLTSCALE
 70
     1
  9
$TREEDEPTH
 70
  3020
  9
$CMLSTYLE
  2
Standard
  9
$CMLJUST
 70
     0
  9
$CMLSCALE
 40
20.0
  9
$PROXYGRAPHICS
 70
     1
  9
$MEASUREMENT
 70
     1
  9
$CELWEIGHT
370
    -1
  9
$ENDCAPS
280
     0
  9
$JOINSTYLE
280
     0
  9
$LWDISPLAY
290
     0
  9
$INSUNITS
 70
     4
  9
$HYPERLINKBASE
  1

  9
$STYLESHEET
  1

  9
$XEDIT
290
     1
  9
$CEPSNTYPE
380
     0
  9
$PSTYLEMODE
290
     1
  9
$FINGERPRINTGUID
  2
{E66C8CC1-E66B-408F-9010-06FD783B68A0}
  9
$VERSIONGUID
  2
{C59C8124-F9BD-44AF-B9EE-791B2998C7F1}
  9
$EXTNAMES
290
     1
  9
$PSVPSCALE
 40
0.0
  9
$OLESTARTUP
290
     0
  9
$SORTENTS
280
   127
  9
$INDEXCTL
280
     0
  9
$HIDETEXT
280
     1
  9
$XCLIPFRAME
290
     0
  9
$HALOGAP
280
     0
  9
$OBSCOLOR
 70
   257
  9
$OBSLTYPE
280
     0
  9
$INTERSECTIONDISPLAY
280
     0
  9
$INTERSECTIONCOLOR
 70
   257
  9
$DIMASSOC
280
     2
  9
$PROJECTNAME
  1

  0
ENDSEC
  0
SECTION
  2
CLASSES
  0
CLASS
  1
ACDBDICTIONARYWDFLT
  2
AcDbDictionaryWithDefault
  3
ObjectDBX Classes
 90
        0
 91
        1
280
     0
281
     0
  0
CLASS
  1
ACME_DOCUMENT
  2
AcMeDbDoc
  3
AcMeServices
 90
     1024
 91
        2
280
     0
281
     0
  0
CLASS
  1
ACMESCOPE
  2
AcMeScope
  3
AcMeServices
 90
     1024
 91
        1
280
     0
281
     0
  0
CLASS
  1
ACMECOMMANDHISTORY
  2
AcMeCommandHistory
  3
AcMeServices
 90
     1024
 91
        1
280
     0
281
     0
  0
CLASS
  1
ACIMSYSVARMAN
  2
AcImSysVarManager
  3
AcMeServices
 90
     1024
 91
        4
280
     0
281
     0
  0
CLASS
  1
ACIMREALSYSVAR
  2
AcImRealSysVar
  3
AcMeServices
 90
     1024
 91
        1
280
     0
281
     0
  0
CLASS
  1
ACIMINTSYSVAR
  2
AcImIntSysVar
  3
AcMeServices
 90
     1024
 91
       27
280
     0
281
     0
  0
CLASS
  1
ACMEDRAWINGMAN
  2
AcMeDrawingMan
  3
AcMeServices
 90
     1024
 91
        0
280
     0
281
     0
  0
CLASS
  1
ACMEVIEW
  2
AcMeView
  3
AcMeServices
 90
     1024
 91
        0
280
     0
281
     0
  0
CLASS
  1
ACDBENTITYCACHE
  2
AcMeEntityCache
  3
AcMeServices
 90
     1024
 91
        1
280
     0
281
     0
  0
CLASS
  1
GSMANAGER
  2
AcMeGSManager
  3
AcMeServices
 90
     1024
 91
        0
280
     0
281
     0
  0
CLASS
  1
AMDTINTERNALREACTOR
  2
AmdtInternalReactor
  3
AcMeServices
 90
     1024
 91
        1
280
     0
281
     0
  0
CLASS
  1
ACMESTATEMGR
  2
AcMeStateMgr
  3
AcMeServices
 90
     1024
 91
        1
280
     0
281
     0
  0
CLASS
  1
ACGREFMASTER
  2
AcGrefMaster
  3
AcAttribServices
 90
     1024
 91
        1
280
     0
281
     0
  0
CLASS
  1
ACME_DATABASE
  2
AcMeDbDatabase
  3
AcMeServices
 90
     1024
 91
        1
280
     0
281
     0
  0
CLASS
  1
ACRFINSADJUSTERMGR
  2
AcRfInsAdjusterMgr
  3
AcMeServices
 90
     1024
 91
        1
280
     0
281
     0
  0
CLASS
  1
ACGREFACADMASTER
  2
AcGrefacadMaster
  3
AcGrefServices
 90
     1024
 91
        1
280
     0
281
     0
  0
CLASS
  1
AMIMASTER
  2
AmiMaster
  3
AmiServices
 90
     1024
 91
        1
280
     0
281
     0
  0
CLASS
  1
AMGSETTINGSOBJ
  2
AmgSettingsObj
  3
"AcadM|Product Description: AutoCAD Mechanical|Company: Autodesk, Inc."
 90
     1024
 91
        2
280
     0
281
     0
  0
CLASS
  1
ACMDATADICTIONARY
  2
AcmDataDictionary
  3
"AcmSymBB|Product Description: AutoCAD Mechanical|Company: Autodesk, Inc."
 90
     1024
 91
        1
280
     0
281
     0
  0
CLASS
  1
ACMDATAENTRYBLOCK
  2
AcmDataEntryBlock
  3
AcmSymBB|Product Description: AutoCAD Mechanical|Company: Autodesk, Inc.
 90
     1024
 91
        0
280
     0
281
     0
  0
CLASS
  1
ACIMSTRSYSVAR
  2
AcImStrSysVar
  3
AcMeServices
 90
     1024
 91
        5
280
     0
281
     0
  0
CLASS
  1
ACMSTANDARDDIN
  2
AcmStandardDIN
  3
"Amdt_StdImp|Product Description: AutoCAD Mechanical|Company: Autodesk, Inc."
 90
     1024
 91
        1
280
     0
281
     0
  0
CLASS
  1
AMGOBJPROPCFG
  2
AmgObjPropCfg
  3
"AmgLay|Product Description: AutoCAD Mechanical|Company: Autodesk, Inc."
 90
     1025
 91
        1
280
     0
281
     0
  0
CLASS
  1
AMDTEDGESTANDARDDIN
  2
AmdtEdgeStdDIN
  3
"Amdt_StdImp|Product Description: AutoCAD Mechanical|Company: Autodesk, Inc."
 90
     1024
 91
        0
280
     0
281
     0
  0
CLASS
  1
ACMSURFSTANDARDDIN
  2
AcmSurfTextStdDIN
  3
"Amdt_StdImp|Product Description: AutoCAD Mechanical|Company: Autodesk, Inc."
 90
     1024
 91
        0
280
     0
281
     0
  0
CLASS
  1
ACMFCFSTANDARDDIN
  2
AcmFCFStdDIN
  3
"Amdt_StdImp|Product Description: AutoCAD Mechanical|Company: Autodesk, Inc."
 90
     1024
 91
        1
280
     0
281
     0
  0
CLASS
  1
ACMWELDSTANDARDDIN
  2
AcmWeldingStdDIN
  3
"Amdt_StdImp|Product Description: AutoCAD Mechanical|Company: Autodesk, Inc."
 90
     1024
 91
        1
280
     0
281
     0
  0
CLASS
  1
ACMIDSTANDARDDIN
  2
AcmIdStdDIN
  3
"Amdt_StdImp|Product Description: AutoCAD Mechanical|Company: Autodesk, Inc."
 90
     1024
 91
        1
280
     0
281
     0
  0
CLASS
  1
ACMDATUMSTANDARDDIN
  2
AcmDatumStdDIN
  3
"Amdt_StdImp|Product Description: AutoCAD Mechanical|Company: Autodesk, Inc."
 90
     1024
 91
        1
280
     0
281
     0
  0
CLASS
  1
ACMBOMSTANDARDDIN
  2
AcmBOMStdDIN
  3
"Amdt_StdImp|Product Description: AutoCAD Mechanical|Company: Autodesk, Inc."
 90
     1024
 91
        1
280
     0
281
     0
  0
CLASS
  1
ACMDETAILSTANDARDDIN
  2
AmdtDetailSymStdDIN
  3
"Amdt_StdImp|Product Description: AutoCAD Mechanical|Company: Autodesk, Inc."
 90
     1024
 91
        1
280
     0
281
     0
  0
CLASS
  1
ACMSECTIONSTANDARDDIN
  2
AmdtSectionSymStdDIN
  3
"Amdt_StdImp|Product Description: AutoCAD Mechanical|Company: Autodesk, Inc."
 90
     1024
 91
        1
280
     0
281
     0
  0
CLASS
  1
ACMCENTERLINESTANDARDDIN
  2
AmdtCenterLineStdDIN
  3
"Amdt_StdImp|Product Description: AutoCAD Mechanical|Company: Autodesk, Inc."
 90
     1024
 91
        1
280
     0
281
     0
  0
CLASS
  1
ACMNOTESTANDARDDIN
  2
AmdtNoteStdDIN
  3
"Amdt_StdImp|Product Description: AutoCAD Mechanical|Company: Autodesk, Inc."
 90
     1024
 91
        1
280
     0
281
     0
  0
CLASS
  1
ACAMGLAYSTD
  2
AcAmgLayStd
  3
"AmgLay|Product Description: AutoCAD Mechanical|Company: Autodesk, Inc."
 90
     1024
 91
        1
280
     0
281
     0
  0
CLASS
  1
ACAMGDIMSTD
  2
AcAmgDimStd
  3
"AmgDim|Product Description: AutoCAD Mechanical|Company: Autodesk, Inc."
 90
     1024
 91
        1
280
     0
281
     0
  0
CLASS
  1
ACAMGHOLECHARTSTDDIN
  2
AcAmgHoleChartStdDIN
  3
AmgDim|Product Description: AutoCAD Mechanical|Company: Autodesk, Inc.
 90
     1024
 91
        1
280
     0
281
     0
  0
CLASS
  1
ACAMGTITLESTD
  2
AcAmgTitleStd
  3
"AmgTitle|Product Description: AutoCAD Mechanical|Company: Autodesk, Inc."
 90
     4095
 91
        1
280
     0
281
     0
  0
CLASS
  1
LAYER_INDEX
  2
AcDbLayerIndex
  3
ObjectDBX Classes
 90
        0
 91
        0
280
     0
281
     0
  0
CLASS
  1
IDBUFFER
  2
AcDbIdBuffer
  3
ObjectDBX Classes
 90
        0
 91
        0
280
     0
281
     0
  0
CLASS
  1
DICTIONARYVAR
  2
AcDbDictionaryVar
  3
ObjectDBX Classes
 90
        0
 91
       10
280
     0
281
     0
  0
CLASS
  1
ACAMGFILTERDAT
  2
AcAmgFilterDat
  3
"AcadM|Product Description: AutoCAD Mechanical|Company: Autodesk, Inc."
 90
     1024
 91
        0
280
     0
281
     0
  0
CLASS
  1
ACMSTANDARDANSI
  2
AcmStandardANSI
  3
"Amdt_StdImp|Product Description: AutoCAD Mechanical|Company: Autodesk, Inc."
 90
     1024
 91
        0
280
     0
281
     0
  0
CLASS
  1
ACMSURFSTANDARDANSI
  2
AcmSurfTextStdANSI
  3
"Amdt_StdImp|Product Description: AutoCAD Mechanical|Company: Autodesk, Inc."
 90
     1024
 91
        0
280
     0
281
     0
  0
CLASS
  1
ACMFCFSTANDARDANSI
  2
AcmFCFStdANSI
  3
"Amdt_StdImp|Product Description: AutoCAD Mechanical|Company: Autodesk, Inc."
 90
     1024
 91
        0
280
     0
281
     0
  0
CLASS
  1
ACMWELDSTANDARDANSI
  2
AcmWeldingStdANSI
  3
"Amdt_StdImp|Product Description: AutoCAD Mechanical|Company: Autodesk, Inc."
 90
     1024
 91
        0
280
     0
281
     0
  0
CLASS
  1
ACMIDSTANDARDANSI
  2
AcmIdStdANSI
  3
"Amdt_StdImp|Product Description: AutoCAD Mechanical|Company: Autodesk, Inc."
 90
     1024
 91
        0
280
     0
281
     0
  0
CLASS
  1
ACMDATUMSTANDARDANSI
  2
AcmDatumStdANSI
  3
"Amdt_StdImp|Product Description: AutoCAD Mechanical|Company: Autodesk, Inc."
 90
     1024
 91
        0
280
     0
281
     0
  0
CLASS
  1
ACMBOMSTANDARDANSI
  2
AcmBOMStdANSI
  3
"Amdt_StdImp|Product Description: AutoCAD Mechanical|Company: Autodesk, Inc."
 90
     1024
 91
        0
280
     0
281
     0
  0
CLASS
  1
ACMDETAILSTANDARDANSI
  2
AmdtDetailSymStdANSI
  3
"Amdt_StdImp|Product Description: AutoCAD Mechanical|Company: Autodesk, Inc."
 90
     1024
 91
        0
280
     0
281
     0
  0
CLASS
  1
ACMSECTIONSTANDARDANSI
  2
AmdtSectionSymStdANSI
  3
"Amdt_StdImp|Product Description: AutoCAD Mechanical|Company: Autodesk, Inc."
 90
     1024
 91
        0
280
     0
281
     0
  0
CLASS
  1
ACMCENTERLINESTANDARDANSI
  2
AmdtCenterLineStdANSI
  3
"Amdt_StdImp|Product Description: AutoCAD Mechanical|Company: Autodesk, Inc."
 90
     1024
 91
        0
280
     0
281
     0
  0
CLASS
  1
ACMNOTESTANDARDANSI
  2
AmdtNoteStdANSI
  3
"Amdt_StdImp|Product Description: AutoCAD Mechanical|Company: Autodesk, Inc."
 90
     1024
 91
        0
280
     0
281
     0
  0
CLASS
  1
ACAMGHOLECHARTSTDANSI
  2
AcAmgHoleChartStdANSI
  3
AmgDim|Product Description: AutoCAD Mechanical|Company: Autodesk, Inc.
 90
     1024
 91
        0
280
     0
281
     0
  0
CLASS
  1
AMDTFORMULAUPDATEDISPATCHER
  2
AmdtFormulaUpdateDispatcher
  3
AcMeServices
 90
     1024
 91
        0
280
     0
281
     0
  0
CLASS
  1
DIMASSOC
  2
AcDbDimAssoc
  3
"AcDbDimAssoc|Product Desc:     AcDim ARX App For Dimension|Company:          Autodesk, Inc.|WEB Address:      www.autodesk.com"
 90
        0
 91
        0
280
     0
281
     0
  0
CLASS
  1
MATERIAL
  2
AcDbMaterial
  3
ObjectDBX Classes
 90
     1153
 91
        3
280
     0
281
     0
  0
CLASS
  1
VISUALSTYLE
  2
AcDbVisualStyle
  3
ObjectDBX Classes
 90
     4095
 91
       26
280
     0
281
     0
  0
CLASS
  1
TABLESTYLE
  2
AcDbTableStyle
  3
ObjectDBX Classes
 90
     4095
 91
        1
280
     0
281
     0
  0
CLASS
  1
SCALE
  2
AcDbScale
  3
ObjectDBX Classes
 90
     1153
 91
       17
280
     0
281
     0
  0
CLASS
  1
MLEADERSTYLE
  2
AcDbMLeaderStyle
  3
ACDB_MLEADERSTYLE_CLASS
 90
     4095
 91
        1
280
     0
281
     0
  0
CLASS
  1
AM_DRAWING_MGR
  2
AcDmDwgMgr
  3
AcMechDwgViewMgmt
 90
     1024
 91
        1
280
     0
281
     0
  0
CLASS
  1
AM_DWG_DOCUMENT
  2
AcDmDwgDocument
  3
AcMechDwgViewMgmt
 90
     1024
 91
        1
280
     0
281
     0
  0
CLASS
  1
AM_DWG_SHEET
  2
AcDmSheet
  3
AcMechDwgViewMgmt
 90
     1024
 91
        2
280
     0
281
     0
  0
CLASS
  1
AM_VIEWDIMPARMAP
  2
AcDmViewDimParMap
  3
AcMechDwgViewMgmt
 90
     1024
 91
        2
280
     0
281
     0
  0
CLASS
  1
AM_DWGMGR_NAME
  2
AcDmDwgMgrName
  3
AcMechDwgViewMgmt
 90
     1024
 91
        1
280
     0
281
     0
  0
CLASS
  1
AMDTMENUSTATEMGR
  2
AmdtMenuStateMgr
  3
McadcomServices
 90
     1024
 91
        1
280
     0
281
     0
  0
CLASS
  1
AMDTMCOMMENUSTATE
  2
AmdtMcomMenuState
  3
McadcomServices
 90
     1024
 91
        1
280
     0
281
     0
  0
CLASS
  1
MAPIAMMOUDLE
  2
MApiAmModule
  3
MApiAmServices
 90
     1024
 91
        1
280
     0
281
     0
  0
CLASS
  1
AMDTADMENUSTATE
  2
AmdtAdMenuState
  3
DesignerServices
 90
     1024
 91
        0
280
     0
281
     0
  0
CLASS
  1
ADAPPL
  2
AcAdAppl
  3
DesignerAssemblies
 90
     1024
 91
        0
280
     0
281
     0
  0
CLASS
  1
DEPMGR
  2
AcAdDepMgr
  3
DesignerAssemblies
 90
     1024
 91
        0
280
     0
281
     0
  0
CLASS
  1
PARAMMGR
  2
AcAdParamMgr
  3
DesignerAssemblies
 90
     1024
 91
        0
280
     0
281
     0
  0
CLASS
  1
PARAMSCOPE
  2
AcAdParamScope
  3
DesignerAssemblies
 90
     1024
 91
        0
280
     0
281
     0
  0
CLASS
  1
NAMEDAPPL
  2
AcAdNamedAppl
  3
DesignerAssemblies
 90
     1024
 91
        0
280
     0
281
     0
  0
CLASS
  1
AMDTDMMENUSTATE
  2
AmdtDmMenuState
  3
AcMechDwgViewMgmt
 90
     1024
 91
        1
280
     0
281
     0
  0
CLASS
  1
AMDTAMMENUSTATE
  2
AmdtAmMenuState
  3
DesignerAssemblies
 90
     1024
 91
        1
280
     0
281
     0
  0
CLASS
  1
ACAMPROJECT
  2
AcAmProject
  3
DesignerAssemblies
 90
     1024
 91
        1
280
     0
281
     0
  0
CLASS
  1
ACAMGRCOMPDEF
  2
AcAmGrCompDef
  3
DesignerAssemblies
 90
     1024
 91
        1
280
     0
281
     0
  0
CLASS
  1
ACCMCONTEXT
  2
AcCmContext
  3
DesignerAssemblies
 90
     1024
 91
        0
280
     0
281
     0
  0
CLASS
  1
ACAMCOMPDEF
  2
AcAmCompDef
  3
DesignerAssemblies
 90
     1024
 91
        1
280
     0
281
     0
  0
CLASS
  1
ACAMCOMPDEFMGR
  2
AcAmCompDefMgr
  3
DesignerAssemblies
 90
     1024
 91
        1
280
     0
281
     0
  0
CLASS
  1
AMCONTEXTMGR
  2
AcAmContextMgr
  3
DesignerAssemblies
 90
     1024
 91
        1
280
     0
281
     0
  0
CLASS
  1
ACAMCONTEXTMODELER
  2
AcAmContextModeler
  3
DesignerAssemblies
 90
     1024
 91
        1
280
     0
281
     0
  0
CLASS
  1
ACRFATTGENMGR
  2
AcRfAttGeneralMgr
  3
AcAttribServices
 90
     1024
 91
        0
280
     0
281
     0
  0
CLASS
  1
ACRFOBJATTMGR
  2
AcRfObjAttGroupMgr
  3
AcAttribServices
 90
     1024
 91
        0
280
     0
281
     0
  0
CLASS
  1
ACRFMCADAPIATTHOLDER
  2
AcRfMCADAPIAttHolder
  3
AcAttribServices
 90
     1024
 91
        0
280
     0
281
     0
  0
CLASS
  1
AMDTSYSATTR
  2
AmdtSystemAttribute
  3
AcAttribServices
 90
     1024
 91
        0
280
     0
281
     0
  0
CLASS
  1
ACMTHREADLINESTANDARDDIN
  2
AmdtThreadLineStdDIN
  3
"Amdt_StdImp|Product Description: AutoCAD Mechanical|Company: Autodesk, Inc."
 90
     1024
 91
        1
280
     0
281
     0
  0
CLASS
  1
ACMTAPERSTANDARDDIN
  2
AcmTaperStdDIN
  3
"Amdt_StdImp|Product Description: AutoCAD Mechanical|Company: Autodesk, Inc."
 90
     1024
 91
        1
280
     0
281
     0
  0
CLASS
  1
ACMANOOTATIONVIEWSTANDARDDIN
  2
AmdtAnViewStdDIN
  3
"Amdt_StdImp|Product Description: AutoCAD Mechanical|Company: Autodesk, Inc."
 90
     1024
 91
        1
280
     0
281
     0
  0
CLASS
  1
ACMTHREADLINESTANDARDANSI
  2
AmdtThreadLineStdANSI
  3
"Amdt_StdImp|Product Description: AutoCAD Mechanical|Company: Autodesk, Inc."
 90
     1024
 91
        0
280
     0
281
     0
  0
CLASS
  1
ACMTAPERSTANDARDANSI
  2
AcmTaperStdANSI
  3
"Amdt_StdImp|Product Description: AutoCAD Mechanical|Company: Autodesk, Inc."
 90
     1024
 91
        0
280
     0
281
     0
  0
CLASS
  1
ACMANOOTATIONVIEWSTANDARDANSI
  2
AmdtAnViewStdANSI
  3
"Amdt_StdImp|Product Description: AutoCAD Mechanical|Company: Autodesk, Inc."
 90
     1024
 91
        0
280
     0
281
     0
  0
CLASS
  1
CATALOGSTATE
  2
AcAmCatalogState
  3
DesignerAssemblies
 90
     1024
 91
        0
280
     0
281
     0
  0
CLASS
  1
ACAMGRCOMPDEFSET
  2
AcAmGrCompDefSet
  3
DesignerAssemblies
 90
     1024
 91
        1
280
     0
281
     0
  0
CLASS
  1
AMDTBROWSERDBTAB
  2
AmdtBrowserDbTab
  3
McadcomServices
 90
     1024
 91
        1
280
     0
281
     0
  0
CLASS
  1
CBROWSERAPPOBJECT
  2
CBrowserAppObject
  3
McadcomServices
 90
     1024
 91
        2
280
     0
281
     0
  0
CLASS
  1
DM_PLACEHOLDER
  2
AcDmSelsetPlaceholder
  3
AcMechDwgViewMgmt
 90
     1024
 91
        1
280
     0
281
     0
  0
CLASS
  1
CELLSTYLEMAP
  2
AcDbCellStyleMap
  3
ObjectDBX Classes
 90
     1152
 91
        3
280
     0
281
     0
  0
CLASS
  1
AMDTEDGESTANDARDDIN13715
  2
AmdtEdgeStdDIN13715
  3
"Amdt_StdImp|Product Description: AutoCAD Mechanical|Company: Autodesk, Inc."
 90
     1024
 91
        1
280
     0
281
     0
  0
CLASS
  1
ACMSURFSTANDARDDIN2002
  2
AcmSurfTextStdDIN2002
  3
"Amdt_StdImp|Product Description: AutoCAD Mechanical|Company: Autodesk, Inc."
 90
     1024
 91
        1
280
     0
281
     0
  0
CLASS
  1
AMDTNOTETEMPLATEDB
  2
AmdtNoteTemplateDB
  3
AcmSymBB|Product Description: AutoCAD Mechanical|Company: Autodesk, Inc.
 90
     1024
 91
        6
280
     0
281
     0
  0
CLASS
  1
CAMSSTRUCTBTNSTATE
  2
StructBtnState
  3
DesignerAssemblies
 90
     1024
 91
        0
280
     0
281
     0
  0
CLASS
  1
SORTENTSTABLE
  2
AcDbSortentsTable
  3
ObjectDBX Classes
 90
        0
 91
        2
280
     0
281
     0
  0
CLASS
  1
IMAGEDEF
  2
AcDbRasterImageDef
  3
ISM
 90
        0
 91
        1
280
     0
281
     0
  0
CLASS
  1
RASTERVARIABLES
  2
AcDbRasterVariables
  3
ISM
 90
        0
 91
        1
280
     0
281
     0
  0
CLASS
  1
IMAGEDEF_REACTOR
  2
AcDbRasterImageDefReactor
  3
ISM
 90
        1
 91
        0
280
     0
281
     0
  0
CLASS
  1
IMAGE
  2
AcDbRasterImage
  3
ISM
 90
     2175
 91
        0
280
     0
281
     1
  0
CLASS
  1
AEC_REFEDIT_STATUS_TRACKER
  2
AecDbRefEditStatusTracker
  3
AecArchBase60|Product Desc: Autodesk Architectural Desktop 2007 |Company: Autodesk,Inc. |WEB Address: www.autodesk.com
 90
      129
 91
        1
280
     0
281
     0
  0
CLASS
  1
NPOCOLLECTION
  2
AcDbImpNonPersistentObjectsCollection
  3
ObjectDBX Classes
 90
     1153
 91
        1
280
     0
281
     0
  0
ENDSEC
  0
SECTION
  2
TABLES
  0
TABLE
  2
VPORT
  5
8
102
{ACAD_XDICTIONARY
360
25A6
102
}
330
0
100
AcDbSymbolTable
 70
     1
  0
VPORT
  5
24F3
330
8
100
AcDbSymbolTableRecord
100
AcDbViewportTableRecord
  2
*Active
 70
     0
 10
0.0
 20
0.0
 11
1.0
 21
1.0
 12
29.9507765882363
 22
-25.07437795244425
 13
0.0
 23
0.0
 14
2.5
 24
2.5
 15
10.0
 25
10.0
 16
0.0
 26
0.0
 36
1.0
 17
0.0
 27
0.0
 37
0.0
 40
1175.764109707908
 41
2.261311172668513
 42
50.0
 43
0.0
 44
0.0
 50
0.0
 51
0.0
 71
     0
 72
   100
 73
     1
 74
     3
 75
     0
 76
     0
 77
     0
 78
     0
281
     0
 65
     1
110
0.0
120
0.0
130
0.0
111
1.0
121
0.0
131
0.0
112
0.0
122
1.0
132
0.0
 79
     0
146
0.0
  0
ENDTAB
  0
TABLE
  2
LTYPE
  5
5
330
0
100
AcDbSymbolTable
 70
    25
  0
LTYPE
  5
14
330
5
100
AcDbSymbolTableRecord
100
AcDbLinetypeTableRecord
  2
ByBlock
 70
     0
  3

 72
    65
 73
     0
 40
0.0
  0
LTYPE
  5
15
330
5
100
AcDbSymbolTableRecord
100
AcDbLinetypeTableRecord
  2
ByLayer
 70
     0
  3

 72
    65
 73
     0
 40
0.0
  0
LTYPE
  5
16
330
5
100
AcDbSymbolTableRecord
100
AcDbLinetypeTableRecord
  2
Continuous
 70
     0
  3
Solid line
 72
    65
 73
     0
 40
0.0
  0
LTYPE
  5
50
330
5
100
AcDbSymbolTableRecord
100
AcDbLinetypeTableRecord
  2
Amconstr
 70
     0
  3
_______________________
 72
    65
 73
     2
 40
9999.0
 49
9999.0
 74
     0
 49
0.0
 74
     0
  0
LTYPE
  5
55
330
5
100
AcDbSymbolTableRecord
100
AcDbLinetypeTableRecord
  2
Amzigzag
 70
     0
  3
/\/-/\/-/\/-/\/-/\/-/\/
 72
    65
 73
     2
 40
11.0001
 49
0.0001
 74
     4
 75
   135
340
54
 46
0.04
 50
0.0
 44
0.0
 45
0.0
 49
-11.0
 74
     0
  0
LTYPE
  5
56
330
5
100
AcDbSymbolTableRecord
100
AcDbLinetypeTableRecord
  2
AM_DIN_F_W050
 70
     0
  3
__ __ __ __ __ __ __ __ __ __ __ __ __ __ __
 72
    65
 73
     2
 40
6.25
 49
4.75
 74
     0
 49
-1.5
 74
     0
  0
LTYPE
  5
57
330
5
100
AcDbSymbolTableRecord
100
AcDbLinetypeTableRecord
  2
AM_DIN_G_W050
 70
     0
  3
____ . ____ . ____ . ____ . ____ . ____ . ____
 72
    65
 73
     4
 40
13.75
 49
9.75
 74
     0
 49
-1.5
 74
     0
 49
1.0
 74
     0
 49
-1.5
 74
     0
  0
LTYPE
  5
58
330
5
100
AcDbSymbolTableRecord
100
AcDbLinetypeTableRecord
  2
AM_DIN_K_W050
 70
     0
  3
_____ . . _____ . . _____ . . ____ .. ____
 72
    65
 73
     6
 40
16.25
 49
9.75
 74
     0
 49
-1.5
 74
     0
 49
1.0
 74
     0
 49
-1.5
 74
     0
 49
1.0
 74
     0
 49
-1.5
 74
     0
  0
LTYPE
  5
59
330
5
100
AcDbSymbolTableRecord
100
AcDbLinetypeTableRecord
  2
AM_DIN_G_W050x2
 70
     0
  3
__ . __ . __ . __ . __ . __
 72
    65
 73
     4
 40
6.875
 49
4.75
 74
     0
 49
-0.875
 74
     0
 49
0.375
 74
     0
 49
-0.875
 74
     0
  0
LTYPE
  5
5A
330
5
100
AcDbSymbolTableRecord
100
AcDbLinetypeTableRecord
  2
AM_DIN_F_W050x2
 70
     0
  3
 _ _ _ _ _ _ _ _ _ _ _ _
 72
    65
 73
     2
 40
3.125
 49
2.25
 74
     0
 49
-0.875
 74
     0
  0
LTYPE
  5
68
330
5
100
AcDbSymbolTableRecord
100
AcDbLinetypeTableRecord
  2
ACDINWELD
 70
     0
  3
_ _ _ _ _
 72
    65
 73
     2
 40
2.0
 49
2.0
 74
     0
 49
-1.0
 74
     0
  0
LTYPE
  5
69
330
5
100
AcDbSymbolTableRecord
100
AcDbLinetypeTableRecord
  2
ACDINTGB
 70
     0
  3
__ . . __ . .
 72
    65
 73
     6
 40
9.0
 49
4.0
 74
     0
 49
-1.0
 74
     0
 49
1.0
 74
     0
 49
-1.0
 74
     0
 49
1.0
 74
     0
 49
-1.0
 74
     0
  0
LTYPE
  5
6A
330
5
100
AcDbSymbolTableRecord
100
AcDbLinetypeTableRecord
  2
ACDINTGL
 70
     0
  3
_ _ _ _ _
 72
    65
 73
     2
 40
3.0
 49
2.0
 74
     0
 49
-1.0
 74
     0
  0
LTYPE
  5
6C
330
5
100
AcDbSymbolTableRecord
100
AcDbLinetypeTableRecord
  2
CENTER
 70
     0
  3
__ . __
 72
    65
 73
     4
 40
7.0
 49
4.0
 74
     0
 49
-1.0
 74
     0
 49
1.0
 74
     0
 49
-1.0
 74
     0
  0
LTYPE
  5
33D
330
5
100
AcDbSymbolTableRecord
100
AcDbLinetypeTableRecord
  2
PHANTOM2
 70
     0
  3
Phantom (.5x) ___ _ _ ___ _ _ ___ _ _ ___ _ _
 72
    65
 73
     6
 40
1.25
 49
0.625
 74
     0
 49
-0.125
 74
     0
 49
0.125
 74
     0
 49
-0.125
 74
     0
 49
0.125
 74
     0
 49
-0.125
 74
     0
  0
LTYPE
  5
341
330
5
100
AcDbSymbolTableRecord
100
AcDbLinetypeTableRecord
  2
ACANSTGB
 70
     0
  3
__ . . __ . .
 72
    65
 73
     6
 40
0.35433070866
 49
0.15748031496
 74
     0
 49
-0.03937007874
 74
     0
 49
0.03937007874
 74
     0
 49
-0.03937007874
 74
     0
 49
0.03937007874
 74
     0
 49
-0.03937007874
 74
     0
  0
LTYPE
  5
342
330
5
100
AcDbSymbolTableRecord
100
AcDbLinetypeTableRecord
  2
ACANSTGL
 70
     0
  3
_ _ _ _ _
 72
    65
 73
     2
 40
0.11811023622
 49
0.07874015748
 74
     0
 49
-0.03937007874
 74
     0
  0
LTYPE
  5
2564
330
5
100
AcDbSymbolTableRecord
100
AcDbLinetypeTableRecord
  2
HIDDEN
 70
     0
  3
Verdeckt
 72
    65
 73
     2
 40
9.525
 49
6.349999999999999
 74
     0
 49
-3.174999999999999
 74
     0
  0
LTYPE
  5
2627
330
5
100
AcDbSymbolTableRecord
100
AcDbLinetypeTableRecord
  2
AM_ISO02W050
 70
     0
  3
__ __ __ __ __ __ __ __ __ __ __ __ __ __ __
 72
    65
 73
     2
 40
7.5
 49
6.0
 74
     0
 49
-1.5
 74
     0
  0
LTYPE
  5
2628
330
5
100
AcDbSymbolTableRecord
100
AcDbLinetypeTableRecord
  2
AM_ISO08W050
 70
     0
  3
____ . ____ . ____ . ____ . ____ . ____ . ____
 72
    65
 73
     4
 40
18.0
 49
12.0
 74
     0
 49
-1.5
 74
     0
 49
3.0
 74
     0
 49
-1.5
 74
     0
  0
LTYPE
  5
2629
330
5
100
AcDbSymbolTableRecord
100
AcDbLinetypeTableRecord
  2
AM_ISO09W050
 70
     0
  3
_____ . . _____ . . _____ . . ____ .. ____
 72
    65
 73
     6
 40
22.5
 49
12.0
 74
     0
 49
-1.5
 74
     0
 49
3.0
 74
     0
 49
-1.5
 74
     0
 49
3.0
 74
     0
 49
-1.5
 74
     0
  0
LTYPE
  5
262A
330
5
100
AcDbSymbolTableRecord
100
AcDbLinetypeTableRecord
  2
AM_ISO08W050x2
 70
     0
  3
__ . __ . __ . __ . __ . __
 72
    65
 73
     4
 40
9.0
 49
6.0
 74
     0
 49
-0.75
 74
     0
 49
1.5
 74
     0
 49
-0.75
 74
     0
  0
LTYPE
  5
262B
330
5
100
AcDbSymbolTableRecord
100
AcDbLinetypeTableRecord
  2
AM_ISO02W050x2
 70
     0
  3
 _ _ _ _ _ _ _ _ _ _ _ _
 72
    65
 73
     2
 40
3.75
 49
3.0
 74
     0
 49
-0.75
 74
     0
  0
LTYPE
  5
2AC0
330
5
100
AcDbSymbolTableRecord
100
AcDbLinetypeTableRecord
  2
CENTER2
 70
     0
  3
Center (.5x) ___ _ ___ _ ___ _ ___ _ ___ _ ___
 72
    65
 73
     4
 40
1.125
 49
0.75
 74
     0
 49
-0.125
 74
     0
 49
0.125
 74
     0
 49
-0.125
 74
     0
  0
LTYPE
  5
2AC1
330
5
100
AcDbSymbolTableRecord
100
AcDbLinetypeTableRecord
  2
HIDDEN2
 70
     0
  3
Hidden (.5x) _ _ _ _ _ _ _ _ _ _ _ _ _ _ _ _ _
 72
    65
 73
     2
 40
0.1875
 49
0.125
 74
     0
 49
-0.0625
 74
     0
  0
LTYPE
  5
2AC2
330
5
100
AcDbSymbolTableRecord
100
AcDbLinetypeTableRecord
  2
Amzigzag2
 70
     0
  3
/\/-/\/-/\/-/\/-/\/-/\/
 72
    65
 73
     2
 40
0.4401
 49
0.0001
 74
     4
 75
   136
340
2AC3
 46
0.0016
 50
0.0
 44
0.0
 45
0.0
 49
-0.4400000000000001
 74
     0
  0
ENDTAB
  0
TABLE
  2
LAYER
  5
2
102
{ACAD_XDICTIONARY
360
2692
102
}
330
0
100
AcDbSymbolTable
 70
     1
  0
LAYER
  5
10
102
{ACAD_XDICTIONARY
360
25A1
102
}
330
2
100
AcDbSymbolTableRecord
100
AcDbLayerTableRecord
  2
0
 70
     0
 62
     7
  6
Continuous
370
    -3
390
F
  0
ENDTAB
  0
TABLE
  2
STYLE
  5
3
330
0
100
AcDbSymbolTable
 70
     7
  0
STYLE
  5
11
330
3
100
AcDbSymbolTableRecord
100
AcDbTextStyleTableRecord
  2
STANDARD
 70
     0
 40
0.0
 41
1.0
 50
0.0
 71
     0
 42
2.5
  3
ISOCP.SHX
  4

  0
STYLE
  5
54
330
3
100
AcDbSymbolTableRecord
100
AcDbTextStyleTableRecord
  2

 70
     1
 40
0.0
 41
1.0
 50
0.0
 71
     0
 42
2.5
  3
ltypeshp.shx
  4

  0
STYLE
  5
5B
330
3
100
AcDbSymbolTableRecord
100
AcDbTextStyleTableRecord
  2
ACDINTS
 70
     0
 40
1.0
 41
1.0
 50
0.0
 71
     0
 42
2.5
  3
isocp.shx
  4

  0
STYLE
  5
67
330
3
100
AcDbSymbolTableRecord
100
AcDbTextStyleTableRecord
  2
ACDINGDT
 70
     0
 40
0.0
 41
1.0
 50
0.0
 71
     0
 42
2.5
  3
amgdt.shx
  4

  0
STYLE
  5
343
330
3
100
AcDbSymbolTableRecord
100
AcDbTextStyleTableRecord
  2
ACANSTS
 70
     0
 40
1.0
 41
1.0
 50
0.0
 71
     0
 42
0.2
  3
romans.shx
  4

  0
STYLE
  5
344
330
3
100
AcDbSymbolTableRecord
100
AcDbTextStyleTableRecord
  2
ACANSGDT
 70
     0
 40
0.0
 41
1.0
 50
0.0
 71
     0
 42
0.2
  3
amgdtans.shx
  4

  0
STYLE
  5
2AC3
330
3
100
AcDbSymbolTableRecord
100
AcDbTextStyleTableRecord
  2

 70
     1
 40
0.0
 41
1.0
 50
0.0
 71
     0
 42
0.2
  3
genltshp.shx
  4

  0
ENDTAB
  0
TABLE
  2
VIEW
  5
6
330
0
100
AcDbSymbolTable
 70
     1
  0
ENDTAB
  0
TABLE
  2
UCS
  5
7
330
0
100
AcDbSymbolTable
 70
     0
  0
ENDTAB
  0
TABLE
  2
APPID
  5
9
330
0
100
AcDbSymbolTable
 70
    23
  0
APPID
  5
12
330
9
100
AcDbSymbolTableRecord
100
AcDbRegAppTableRecord
  2
ACAD
 70
     0
  0
APPID
  5
2C
330
9
100
AcDbSymbolTableRecord
100
AcDbRegAppTableRecord
  2
MCAD_NO_VIS
 70
     0
  0
APPID
  5
2D
330
9
100
AcDbSymbolTableRecord
100
AcDbRegAppTableRecord
  2
ACAD_TEMP_GRAPHIC
 70
     0
  0
APPID
  5
3E
330
9
100
AcDbSymbolTableRecord
100
AcDbRegAppTableRecord
  2
ACATTRIBSERVICES
 70
     0
  0
APPID
  5
428
330
9
100
AcDbSymbolTableRecord
100
AcDbRegAppTableRecord
  2
DCO15
 70
     0
  0
APPID
  5
217D
330
9
100
AcDbSymbolTableRecord
100
AcDbRegAppTableRecord
  2
GENIUS_GENREC_14
 70
     0
  0
APPID
  5
217E
330
9
100
AcDbSymbolTableRecord
100
AcDbRegAppTableRecord
  2
GENIUS_GENODEF_13
 70
     0
  0
APPID
  5
217F
330
9
100
AcDbSymbolTableRecord
100
AcDbRegAppTableRecord
  2
GENIUS_GENOBJ-N-REC_13
 70
     0
  0
APPID
  5
2536
330
9
100
AcDbSymbolTableRecord
100
AcDbRegAppTableRecord
  2
ACAD_MLEADERVER
 70
     0
  0
APPID
  5
2566
330
9
100
AcDbSymbolTableRecord
100
AcDbRegAppTableRecord
  2
AD_DRAW
 70
     0
  0
APPID
  5
2585
330
9
100
AcDbSymbolTableRecord
100
AcDbRegAppTableRecord
  2
DESIGNERASSEMBLIES
 70
     0
  0
APPID
  5
2594
330
9
100
AcDbSymbolTableRecord
100
AcDbRegAppTableRecord
  2
ACADM_DIM_EDIT
 70
     0
  0
APPID
  5
2595
330
9
100
AcDbSymbolTableRecord
100
AcDbRegAppTableRecord
  2
AMDT_DM_ADJ
 70
     0
  0
APPID
  5
263C
330
9
100
AcDbSymbolTableRecord
100
AcDbRegAppTableRecord
  2
ACAD_DSTYLE_DIMJOGGED_JOGANGLE_SYMBOL
 70
     0
  0
APPID
  5
263D
330
9
100
AcDbSymbolTableRecord
100
AcDbRegAppTableRecord
  2
ACAD_DSTYLE_DIM_LINETYPE
 70
     0
  0
APPID
  5
263E
330
9
100
AcDbSymbolTableRecord
100
AcDbRegAppTableRecord
  2
ACAD_DSTYLE_DIM_EXT1_LINETYPE
 70
     0
  0
APPID
  5
263F
330
9
100
AcDbSymbolTableRecord
100
AcDbRegAppTableRecord
  2
ACAD_DSTYLE_DIM_EXT2_LINETYPE
 70
     0
  0
APPID
  5
26B6
330
9
100
AcDbSymbolTableRecord
100
AcDbRegAppTableRecord
  2
ACAD_EXEMPT_FROM_CAD_STANDARDS
 70
     0
  0
APPID
  5
276C
330
9
100
AcDbSymbolTableRecord
100
AcDbRegAppTableRecord
  2
ACAD_DSTYLE_DIMBREAK
 70
     0
  0
APPID
  5
276D
330
9
100
AcDbSymbolTableRecord
100
AcDbRegAppTableRecord
  2
ACAD_DSTYLE_DIMJAG
 70
     0
  0
APPID
  5
2778
330
9
100
AcDbSymbolTableRecord
100
AcDbRegAppTableRecord
  2
ACAD_PSEXT
 70
     0
  0
APPID
  5
2790
330
9
100
AcDbSymbolTableRecord
100
AcDbRegAppTableRecord
  2
GENIUS_GENOBJ-N-FIL_13
 70
     0
  0
APPID
  5
2FB5
330
9
100
AcDbSymbolTableRecord
100
AcDbRegAppTableRecord
  2
ACAD_SPLINE_DATA
 70
     0
  0
ENDTAB
  0
TABLE
  2
DIMSTYLE
  5
A
330
0
100
AcDbSymbolTable
 70
    15
100
AcDbDimStyleTable
 71
     1
340
6F
  0
DIMSTYLE
105
6F
102
{ACAD_REACTORS
330
30F5
102
}
330
A
100
AcDbSymbolTableRecord
100
AcDbDimStyleTableRecord
  2
AM_DIN
 70
     0
  4
"
 41
3.5
 42
1.0
 43
10.0
 44
1.0
 47
0.1
 48
0.1
 73
     0
 74
     0
 77
     1
 78
     8
 79
     2
140
3.5
141
0.0
143
0.0393701
146
0.71
147
1.5
172
     1
176
   256
177
   256
178
   140
271
     2
272
     3
274
     4
283
     0
284
     8
340
11
371
    -1
372
    -1
1001
ACAD_DSTYLE_DIMJOGGED_JOGANGLE_SYMBOL
1070
   384
1040
1.570796326794896
1001
ACAD_DSTYLE_DIM_LINETYPE
1070
   380
1005
14
1001
ACAD_DSTYLE_DIM_EXT1_LINETYPE
1070
   381
1005
14
1001
ACAD_DSTYLE_DIM_EXT2_LINETYPE
1070
   382
1005
14
  0
DIMSTYLE
105
70
330
A
100
AcDbSymbolTableRecord
100
AcDbDimStyleTableRecord
  2
AM_DIN$3
 70
     0
  4
"
 41
3.5
 42
1.0
 43
10.0
 44
1.0
 47
0.1
 48
0.1
 73
     0
 77
     1
 78
     8
 79
     2
140
3.5
141
0.0
143
0.0393701
146
0.71
147
1.5
176
   256
177
   256
178
   140
271
     2
272
     3
274
     4
283
     0
284
     8
288
     1
289
     0
340
11
371
    -1
372
    -1
1001
ACAD_DSTYLE_DIMJOGGED_JOGANGLE_SYMBOL
1070
   384
1040
1.570796326794896
1001
ACAD_DSTYLE_DIM_LINETYPE
1070
   380
1005
14
1001
ACAD_DSTYLE_DIM_EXT1_LINETYPE
1070
   381
1005
14
1001
ACAD_DSTYLE_DIM_EXT2_LINETYPE
1070
   382
1005
14
  0
DIMSTYLE
105
71
330
A
100
AcDbSymbolTableRecord
100
AcDbDimStyleTableRecord
  2
AM_DIN$4
 70
     0
  4
"
 41
3.5
 42
1.0
 43
10.0
 44
1.0
 47
0.1
 48
0.1
 73
     0
 74
     0
 77
     1
 78
     8
 79
     2
140
3.5
141
0.0
143
0.0393701
146
0.71
147
1.5
172
     1
176
   256
177
   256
178
   140
271
     2
272
     3
274
     4
283
     0
284
     8
340
11
371
    -1
372
    -1
1001
ACAD_DSTYLE_DIMJOGGED_JOGANGLE_SYMBOL
1070
   384
1040
1.570796326794896
1001
ACAD_DSTYLE_DIM_LINETYPE
1070
   380
1005
14
1001
ACAD_DSTYLE_DIM_EXT1_LINETYPE
1070
   381
1005
14
1001
ACAD_DSTYLE_DIM_EXT2_LINETYPE
1070
   382
1005
14
  0
DIMSTYLE
105
72
330
A
100
AcDbSymbolTableRecord
100
AcDbDimStyleTableRecord
  2
AM_DIN$6
 70
     0
  4
"
 41
3.5
 42
1.0
 43
10.0
 44
1.0
 47
0.1
 48
0.1
 73
     0
 74
     0
 78
     8
 79
     2
140
3.5
141
0.0
143
0.0393701
146
0.71
147
1.5
172
     1
176
   256
177
   256
178
   140
271
     2
272
     3
274
     4
283
     0
284
     8
340
11
371
    -1
372
    -1
1001
ACAD_DSTYLE_DIMJOGGED_JOGANGLE_SYMBOL
1070
   384
1040
1.570796326794896
1001
ACAD_DSTYLE_DIM_LINETYPE
1070
   380
1005
14
1001
ACAD_DSTYLE_DIM_EXT1_LINETYPE
1070
   381
1005
14
1001
ACAD_DSTYLE_DIM_EXT2_LINETYPE
1070
   382
1005
14
  0
DIMSTYLE
105
73
330
A
100
AcDbSymbolTableRecord
100
AcDbDimStyleTableRecord
  2
AM_DIN$7
 70
     0
  4
"
 41
3.5
 42
1.0
 43
10.0
 44
1.0
 47
0.1
 48
0.1
 73
     0
 74
     0
 77
     1
 78
     8
 79
     2
140
3.5
141
0.0
143
0.0393701
146
0.71
147
1.5
172
     1
176
   256
177
   256
178
   140
271
     2
272
     3
274
     4
283
     0
284
     8
340
11
371
    -1
372
    -1
1001
ACAD_DSTYLE_DIMJOGGED_JOGANGLE_SYMBOL
1070
   384
1040
1.570796326794896
1001
ACAD_DSTYLE_DIM_LINETYPE
1070
   380
1005
14
1001
ACAD_DSTYLE_DIM_EXT1_LINETYPE
1070
   381
1005
14
1001
ACAD_DSTYLE_DIM_EXT2_LINETYPE
1070
   382
1005
14
  0
DIMSTYLE
105
74
330
A
100
AcDbSymbolTableRecord
100
AcDbDimStyleTableRecord
  2
AM_DIN$SF
 70
     0
  4
"
 41
3.5
 42
1.0
 43
10.0
 44
1.0
 47
0.1
 48
0.1
 73
     0
 74
     0
 75
     1
 76
     1
 77
     1
 78
     8
 79
     2
140
3.5
141
0.0
143
0.0393701
146
0.71
147
1.5
172
     1
176
   256
177
   256
178
   140
271
     2
272
     3
274
     4
283
     0
284
     8
340
11
371
    -1
372
    -1
1001
ACAD_DSTYLE_DIMJOGGED_JOGANGLE_SYMBOL
1070
   384
1040
1.570796326794896
1001
ACAD_DSTYLE_DIM_LINETYPE
1070
   380
1005
14
1001
ACAD_DSTYLE_DIM_EXT1_LINETYPE
1070
   381
1005
14
1001
ACAD_DSTYLE_DIM_EXT2_LINETYPE
1070
   382
1005
14
  0
DIMSTYLE
105
79
330
A
100
AcDbSymbolTableRecord
100
AcDbDimStyleTableRecord
  2
AM_DIN$SH
 70
     0
  4
"
 41
3.5
 42
1.0
 43
10.0
 44
1.0
 47
0.1
 48
0.1
 73
     0
 74
     0
 75
     1
 76
     1
 77
     1
 78
     8
 79
     2
140
3.5
141
0.0
143
0.0393701
144
2.0
146
0.71
147
1.5
172
     1
173
     1
176
   256
177
   256
178
   140
271
     2
272
     3
274
     4
283
     0
284
     8
340
11
343
75
371
    -1
372
    -1
1001
ACAD_DSTYLE_DIMJOGGED_JOGANGLE_SYMBOL
1070
   384
1040
1.570796326794896
1001
ACAD_DSTYLE_DIM_LINETYPE
1070
   380
1005
14
1001
ACAD_DSTYLE_DIM_EXT1_LINETYPE
1070
   381
1005
14
1001
ACAD_DSTYLE_DIM_EXT2_LINETYPE
1070
   382
1005
14
  0
DIMSTYLE
105
92
330
A
100
AcDbSymbolTableRecord
100
AcDbDimStyleTableRecord
  2
STANDARD
 70
     0
279
     2
340
11
  0
DIMSTYLE
105
345
330
A
100
AcDbSymbolTableRecord
100
AcDbDimStyleTableRecord
  2
AM_ANSI
 70
     0
  4
mm
 41
0.1
 42
0.05
 43
0.5
 44
0.1
 47
0.1
 48
0.1
 78
     7
 79
     2
140
0.12
141
0.0
146
0.71
147
0.06
176
   256
177
   256
178
     2
274
     4
284
     7
340
11
371
    -1
372
    -1
  0
DIMSTYLE
105
346
330
A
100
AcDbSymbolTableRecord
100
AcDbDimStyleTableRecord
  2
AM_ANSI$3
 70
     0
  4
mm
 41
0.1
 42
0.05
 43
0.5
 44
0.1
 47
0.1
 48
0.1
 78
     7
 79
     2
140
0.12
141
0.0
146
0.71
147
0.06
176
   256
177
   256
178
     2
274
     4
284
     7
288
     1
289
     0
340
11
371
    -1
372
    -1
  0
DIMSTYLE
105
347
330
A
100
AcDbSymbolTableRecord
100
AcDbDimStyleTableRecord
  2
AM_ANSI$4
 70
     0
  4
mm
 41
0.1
 42
0.05
 43
0.5
 44
0.1
 47
0.1
 48
0.1
 78
     7
 79
     2
140
0.12
141
0.0
146
0.71
147
0.06
176
   256
177
   256
178
     2
274
     4
284
     7
288
     1
289
     0
340
11
371
    -1
372
    -1
  0
DIMSTYLE
105
348
330
A
100
AcDbSymbolTableRecord
100
AcDbDimStyleTableRecord
  2
AM_ANSI$7
 70
     0
  4
mm
 41
0.1
 42
0.05
 43
0.5
 44
0.1
 47
0.1
 48
0.1
 78
     7
 79
     2
140
0.24
141
0.0
146
0.71
147
0.06
176
   256
177
   256
178
     2
274
     4
284
     7
340
11
371
    -1
372
    -1
  0
DIMSTYLE
105
349
330
A
100
AcDbSymbolTableRecord
100
AcDbDimStyleTableRecord
  2
AM_ANSI$SF
 70
     0
  4
mm
 41
0.1
 42
0.05
 43
0.5
 44
0.1
 47
0.1
 48
0.1
 75
     1
 76
     1
 78
     7
 79
     2
140
0.12
141
0.0
146
0.71
147
0.06
176
   256
177
   256
178
     2
274
     4
284
     7
340
11
371
    -1
372
    -1
  0
DIMSTYLE
105
34A
330
A
100
AcDbSymbolTableRecord
100
AcDbDimStyleTableRecord
  2
AM_ANSI$SH
 70
     0
  4
mm
 41
0.1
 42
0.05
 43
0.5
 44
0.1
 47
0.1
 48
0.1
 75
     1
 76
     1
 78
     7
 79
     2
140
0.12
141
0.0
146
0.71
147
0.06
173
     1
176
   256
177
   256
178
     2
274
     4
284
     7
340
11
343
75
371
    -1
372
    -1
  0
ENDTAB
  0
TABLE
  2
BLOCK_RECORD
  5
1
330
0
100
AcDbSymbolTable
 70
     6
  0
BLOCK_RECORD
  5
1F
102
{ACAD_XDICTIONARY
360
81
102
}
330
1
100
AcDbSymbolTableRecord
100
AcDbBlockTableRecord
  2
*Model_Space
340
22
  0
BLOCK_RECORD
  5
1B
330
1
100
AcDbSymbolTableRecord
100
AcDbBlockTableRecord
  2
*Paper_Space
340
1E
  0
BLOCK_RECORD
  5
23
330
1
100
AcDbSymbolTableRecord
100
AcDbBlockTableRecord
  2
*Paper_Space0
340
26
  0
BLOCK_RECORD
  5
75
330
1
100
AcDbSymbolTableRecord
100
AcDbBlockTableRecord
  2
GENAXEH
340
0
  0
BLOCK_RECORD
  5
2D3A
102
{ACAD_XDICTIONARY
360
2D4B
102
}
330
1
100
AcDbSymbolTableRecord
100
AcDbBlockTableRecord
  2
A$C0DDA5B2D
340
0
1001
ACAD
1000
DesignCenter Data
1002
{
1070
     1
1070
     1
1002
}
  0
BLOCK_RECORD
  5
2EAE
330
1
100
AcDbSymbolTableRecord
100
AcDbBlockTableRecord
  2
block 2
340
0
  0
ENDTAB
  0
ENDSEC
  0
SECTION
  2
BLOCKS
  0
BLOCK
  5
20
330
1F
100
AcDbEntity
  8
0
100
AcDbBlockBegin
  2
*Model_Space
 70
     0
 10
0.0
 20
0.0
 30
0.0
  3
*Model_Space
  1

  0
ENDBLK
  5
21
330
1F
100
AcDbEntity
  8
0
100
AcDbBlockEnd
  0
BLOCK
  5
1C
330
1B
100
AcDbEntity
 67
     1
  8
0
100
AcDbBlockBegin
  2
*Paper_Space
 70
     0
 10
0.0
 20
0.0
 30
0.0
  3
*Paper_Space
  1

  0
ENDBLK
  5
1D
330
1B
100
AcDbEntity
 67
     1
  8
0
100
AcDbBlockEnd
  0
BLOCK
  5
24
330
23
100
AcDbEntity
 67
     1
  8
0
100
AcDbBlockBegin
  2
*Paper_Space0
 70
     0
 10
0.0
 20
0.0
 30
0.0
  3
*Paper_Space0
  1

  0
ENDBLK
  5
25
330
23
100
AcDbEntity
 67
     1
  8
0
100
AcDbBlockEnd
  0
BLOCK
  5
77
330
75
100
AcDbEntity
  8
0
100
AcDbBlockBegin
  2
GENAXEH
 70
     0
 10
0.0
 20
0.0
 30
0.0
  3
GENAXEH
  1

  0
LINE
  5
76
330
75
100
AcDbEntity
  8
0
100
AcDbLine
 10
-1.0
 20
0.0
 30
0.0
 11
1.0
 21
0.0
 31
0.0
  0
ENDBLK
  5
78
330
75
100
AcDbEntity
  8
0
100
AcDbBlockEnd
  0
BLOCK
  5
2D4D
330
2D3A
100
AcDbEntity
  8
0
100
AcDbBlockBegin
  2
A$C0DDA5B2D
 70
     0
 10
0.0
 20
0.0
 30
0.0
  3
A$C0DDA5B2D
  1

  0
ARC
  5
2D3B
330
2D3A
100
AcDbEntity
  8
0
100
AcDbCircle
 10
371.9560413717081
 20
441.769213813816
 30
0.0
 40
372.1416132631498
100
AcDbArc
 50
122.800666033735
 51
181.8095010798335
  0
ARC
  5
2D3C
330
2D3A
100
AcDbEntity
  8
0
100
AcDbCircle
 10
492.6865152490538
 20
196.9629242519171
 30
0.0
 40
644.0709062183211
100
AcDbArc
 50
95.71221305909846
 51
120.0298781986577
  0
ARC
  5
2D3D
330
2D3A
100
AcDbEntity
  8
0
100
AcDbCircle
 10
911.8303669504943
 20
-7457.147902384426
 30
0.0
 40
8317.167746986923
100
AcDbArc
 50
89.87483724633786
 51
92.07125076235923
  0
ARC
  5
2D3E
330
2D3A
100
AcDbEntity
  8
0
100
AcDbCircle
 10
691.8091882697211
 20
-1028.267690200482
 30
0.0
 40
1884.577050834111
100
AcDbArc
 50
92.45058229909458
 51
98.02903860067884
  0
ARC
  5
2D3F
330
2D3A
100
AcDbEntity
  8
0
100
AcDbCircle
 10
1488.042405318075
 20
441.769213813816
 30
0.0
 40
372.1416132631498
100
AcDbArc
 50
358.1904989201665
 51
57.19933396626498
  0
ARC
  5
2D40
330
2D3A
100
AcDbEntity
  8
0
100
AcDbCircle
 10
1367.311931440729
 20
196.9629242519171
 30
0.0
 40
644.0709062183211
100
AcDbArc
 50
59.97012180134229
 51
84.28778694090153
  0
ARC
  5
2D41
330
2D3A
100
AcDbEntity
  8
0
100
AcDbCircle
 10
948.1680797392883
 20
-7457.147902384426
 30
0.0
 40
8317.167746986923
100
AcDbArc
 50
87.92874923764076
 51
90.12516275366213
  0
ARC
  5
2D42
330
2D3A
100
AcDbEntity
  8
0
100
AcDbCircle
 10
1168.189258420062
 20
-1028.267690200482
 30
0.0
 40
1884.577050834111
100
AcDbArc
 50
81.97096139932117
 51
87.54941770090541
  0
ARC
  5
2D43
330
2D3A
100
AcDbEntity
  8
0
100
AcDbCircle
 10
371.9560413717081
 20
418.2307854694027
 30
0.0
 40
372.1416132631498
100
AcDbArc
 50
178.1904989201664
 51
237.199333966265
  0
ARC
  5
2D44
330
2D3A
100
AcDbEntity
  8
0
100
AcDbCircle
 10
492.6865152490538
 20
663.0370750313016
 30
0.0
 40
644.0709062183211
100
AcDbArc
 50
239.9701218013423
 51
264.2877869409015
  0
ARC
  5
2D45
330
2D3A
100
AcDbEntity
  8
0
100
AcDbCircle
 10
911.8303669504943
 20
8317.147901667645
 30
0.0
 40
8317.167746986923
100
AcDbArc
 50
267.9287492376408
 51
270.1251627536621
  0
ARC
  5
2D46
330
2D3A
100
AcDbEntity
  8
0
100
AcDbCircle
 10
691.8091882697211
 20
1888.267689483701
 30
0.0
 40
1884.577050834111
100
AcDbArc
 50
261.9709613993212
 51
267.5494177009054
  0
ARC
  5
2D47
330
2D3A
100
AcDbEntity
  8
0
100
AcDbCircle
 10
1488.042405318075
 20
418.2307854694028
 30
0.0
 40
372.1416132631498
100
AcDbArc
 50
302.800666033735
 51
1.809501079833543
  0
ARC
  5
2D48
330
2D3A
100
AcDbEntity
  8
0
100
AcDbCircle
 10
1367.311931440729
 20
663.0370750313016
 30
0.0
 40
644.0709062183211
100
AcDbArc
 50
275.7122130590984
 51
300.0298781986577
  0
ARC
  5
2D49
330
2D3A
100
AcDbEntity
  8
0
100
AcDbCircle
 10
948.1680797392883
 20
8317.147901667645
 30
0.0
 40
8317.167746986923
100
AcDbArc
 50
269.8748372463379
 51
272.0712507623592
  0
ARC
  5
2D4A
330
2D3A
100
AcDbEntity
  8
0
100
AcDbCircle
 10
1168.189258420062
 20
1888.267689483701
 30
0.0
 40
1884.577050834111
100
AcDbArc
 50
272.4505822990946
 51
278.0290386006788
  0
ENDBLK
  5
2D4E
330
2D3A
100
AcDbEntity
  8
0
100
AcDbBlockEnd
  0
BLOCK
  5
2EAF
330
2EAE
100
AcDbEntity
  8
0
100
AcDbBlockBegin
  2
block 2
 70
     0
 10
0.0
 20
0.0
 30
0.0
  3
block 2
  1

  0
SPLINE
  5
2EB0
330
2EAE
100
AcDbEntity
  8
0
 62
   250
420
  1842203
370
     9
100
AcDbSpline
210
0.0
220
0.0
230
1.0
 70
    11
 71
     3
 72
    20
 73
    16
 74
     0
 42
0.0000000001
 43
0.0000000001
 40
0.0
 40
0.0
 40
0.0
 40
0.0
 40
1.0
 40
1.0
 40
1.0
 40
2.0
 40
2.0
 40
2.0
 40
3.0
 40
3.0
 40
3.0
 40
4.0
 40
4.0
 40
4.0
 40
5.0
 40
5.0
 40
5.0
 40
5.0
 10
140.113411423305
 20
156.716015585821
 30
0.0
 10
139.8488280900378
 20
171.7697048181687
 30
0.0
 10
127.385850662598
 20
183.7586371068381
 30
0.0
 10
112.2715277497099
 20
183.4940537735709
 30
0.0
 10
97.15169268404542
 20
183.2349825930801
 30
0.0
 10
85.11315102038839
 20
170.8161023878515
 30
0.0
 10
85.37773435365556
 20
155.7624131555038
 30
0.0
 10
85.64782983969916
 20
140.7087239231561
 30
0.0
 10
98.11080726713896
 20
128.7197916344867
 30
0.0
 10
113.2196180272506
 20
128.9843749677539
 30
0.0
 10
128.3339409401387
 20
129.2489583010211
 30
0.0
 10
140.3724826037958
 20
141.6623263534733
 30
0.0
 10
140.113411423305
 20
156.716015585821
 30
0.0
 10
140.113411423305
 20
156.716015585821
 30
0.0
 10
140.113411423305
 20
156.716015585821
 30
0.0
 10
140.113411423305
 20
156.716015585821
 30
0.0
  0
POLYLINE
  5
2EB1
330
2EAE
100
AcDbEntity
  8
0
 62
   250
420
  1842203
370
     9
100
AcDb2dPolyline
 66
     1
 10
0.0
 20
0.0
 30
0.0
  0
VERTEX
  5
2EB2
330
2EB1
100
AcDbEntity
  8
0
 62
   250
420
  1842203
370
     9
100
AcDbVertex
100
AcDb2dVertex
 10
176.3778645392389
 20
156.1978732248394
 30
0.0
  0
VERTEX
  5
2EB3
330
2EB1
100
AcDbEntity
  8
0
 62
   250
420
  1842203
370
     9
100
AcDbVertex
100
AcDb2dVertex
 10
46.66037325222379
 20
156.1978732248394
 30
0.0
  0
SEQEND
  5
2EB4
330
2EB1
100
AcDbEntity
  8
0
370
     9
  0
POLYLINE
  5
2EB5
330
2EAE
100
AcDbEntity
  8
0
 62
   250
420
  1842203
370
     9
100
AcDb2dPolyline
 66
     1
 10
0.0
 20
0.0
 30
0.0
  0
VERTEX
  5
2EB6
330
2EB5
100
AcDbEntity
  8
0
 62
   250
420
  1842203
370
     9
100
AcDbVertex
100
AcDb2dVertex
 10
112.7455728884803
 20
91.54583331044689
 30
0.0
  0
VERTEX
  5
2EB7
330
2EB5
100
AcDbEntity
  8
0
 62
   250
420
  1842203
370
     9
100
AcDbVertex
100
AcDb2dVertex
 10
112.7455728884803
 20
220.7286457781512
 30
0.0
  0
SEQEND
  5
2EB8
330
2EB5
100
AcDbEntity
  8
0
370
     9
  0
SPLINE
  5
2EB9
330
2EAE
100
AcDbEntity
  8
0
 62
   250
420
  1842203
370
     9
100
AcDbSpline
210
0.0
220
0.0
230
1.0
 70
    11
 71
     3
 72
    20
 73
    16
 74
     0
 42
0.0000000001
 43
0.0000000001
 40
0.0
 40
0.0
 40
0.0
 40
0.0
 40
1.0
 40
1.0
 40
1.0
 40
2.0
 40
2.0
 40
2.0
 40
3.0
 40
3.0
 40
3.0
 40
4.0
 40
4.0
 40
4.0
 40
5.0
 40
5.0
 40
5.0
 40
5.0
 10
65.50642359473451
 20
156.633333294175
 30
0.0
 10
65.50642359473451
 20
182.6176214821234
 30
0.0
 10
86.6565537977803
 20
203.6740450879704
 30
0.0
 10
112.7455728884803
 20
203.6740450879704
 30
0.0
 10
138.8401041319566
 20
203.6740450879704
 30
0.0
 10
159.984722182226
 20
182.6176214821234
 30
0.0
 10
159.984722182226
 20
156.633333294175
 30
0.0
 10
159.984722182226
 20
130.6490451062266
 30
0.0
 10
138.8401041319566
 20
109.5871093476032
 30
0.0
 10
112.7455728884803
 20
109.5871093476032
 30
0.0
 10
86.6565537977803
 20
109.5871093476032
 30
0.0
 10
65.50642359473451
 20
130.6490451062266
 30
0.0
 10
65.50642359473451
 20
156.633333294175
 30
0.0
 10
65.50642359473451
 20
156.633333294175
 30
0.0
 10
65.50642359473451
 20
156.633333294175
 30
0.0
 10
65.50642359473451
 20
156.633333294175
 30
0.0
  0
SPLINE
  5
2EBA
330
2EAE
100
AcDbEntity
  8
0
 62
   250
420
  1842203
370
     9
100
AcDbSpline
210
0.0
220
0.0
230
1.0
 70
    11
 71
     3
 72
    20
 73
    16
 74
     0
 42
0.0000000001
 43
0.0000000001
 40
0.0
 40
0.0
 40
0.0
 40
0.0
 40
1.0
 40
1.0
 40
1.0
 40
2.0
 40
2.0
 40
2.0
 40
3.0
 40
3.0
 40
3.0
 40
4.0
 40
4.0
 40
4.0
 40
5.0
 40
5.0
 40
5.0
 40
5.0
 10
-281.3347655546663
 20
307.3245658953911
 30
0.0
 10
-281.3347655546663
 20
325.360329779771
 30
0.0
 10
-266.6559027111138
 20
339.9840710955595
 30
0.0
 10
-248.5429686878643
 20
339.9840710955595
 30
0.0
 10
-230.4300346646147
 20
339.9840710955595
 30
0.0
 10
-215.7511718210622
 20
325.360329779771
 30
0.0
 10
-215.7511718210622
 20
307.3245658953911
 30
0.0
 10
-215.7511718210622
 20
289.2888020110112
 30
0.0
 10
-230.4300346646147
 20
274.6650606952226
 30
0.0
 10
-248.5429686878643
 20
274.6650606952226
 30
0.0
 10
-266.6559027111138
 20
274.6650606952226
 30
0.0
 10
-281.3347655546663
 20
289.2888020110112
 30
0.0
 10
-281.3347655546663
 20
307.3245658953911
 30
0.0
 10
-281.3347655546663
 20
307.3245658953911
 30
0.0
 10
-281.3347655546663
 20
307.3245658953911
 30
0.0
 10
-281.3347655546663
 20
307.3245658953911
 30
0.0
  0
SPLINE
  5
2EBB
330
2EAE
100
AcDbEntity
  8
0
 62
   250
420
  1842203
370
     9
100
AcDbSpline
210
0.0
220
0.0
230
1.0
 70
    11
 71
     3
 72
    20
 73
    16
 74
     0
 42
0.0000000001
 43
0.0000000001
 40
0.0
 40
0.0
 40
0.0
 40
0.0
 40
1.0
 40
1.0
 40
1.0
 40
2.0
 40
2.0
 40
2.0
 40
3.0
 40
3.0
 40
3.0
 40
4.0
 40
4.0
 40
4.0
 40
5.0
 40
5.0
 40
5.0
 40
5.0
 10
-290.7770832606391
 20
307.3300780481675
 30
0.0
 10
-290.7770832606391
 20
330.558289847916
 30
0.0
 10
-271.8703992375879
 20
349.3822915793211
 30
0.0
 10
-248.5484808406407
 20
349.3822915793211
 30
0.0
 10
-225.2320745964698
 20
349.3822915793211
 30
0.0
 10
-206.3253905734187
 20
330.558289847916
 30
0.0
 10
-206.3253905734187
 20
307.3300780481675
 30
0.0
 10
-206.3253905734187
 20
284.1073784011954
 30
0.0
 10
-225.2320745964698
 20
265.2778645170139
 30
0.0
 10
-248.5484808406407
 20
265.2778645170139
 30
0.0
 10
-271.8703992375879
 20
265.2778645170139
 30
0.0
 10
-290.7770832606391
 20
284.1073784011954
 30
0.0
 10
-290.7770832606391
 20
307.3300780481675
 30
0.0
 10
-290.7770832606391
 20
307.3300780481675
 30
0.0
 10
-290.7770832606391
 20
307.3300780481675
 30
0.0
 10
-290.7770832606391
 20
307.3300780481675
 30
0.0
  0
SPLINE
  5
2EBC
330
2EAE
100
AcDbEntity
  8
0
 62
   250
420
  1842203
370
     9
100
AcDbSpline
210
0.0
220
0.0
230
1.0
 70
    11
 71
     3
 72
    20
 73
    16
 74
     0
 42
0.0000000001
 43
0.0000000001
 40
0.0
 40
0.0
 40
0.0
 40
0.0
 40
1.0
 40
1.0
 40
1.0
 40
2.0
 40
2.0
 40
2.0
 40
3.0
 40
3.0
 40
3.0
 40
4.0
 40
4.0
 40
4.0
 40
5.0
 40
5.0
 40
5.0
 40
5.0
 10
-281.2300346519147
 20
3.715190971293424
 30
0.0
 10
-281.2300346519147
 20
21.75095485567338
 30
0.0
 10
-266.5511718083622
 20
36.36918401868548
 30
0.0
 10
-248.4437499378891
 20
36.36918401868548
 30
0.0
 10
-230.3308159146395
 20
36.36918401868548
 30
0.0
 10
-215.6464409183106
 20
21.75095485567338
 30
0.0
 10
-215.6464409183106
 20
3.715190971293424
 30
0.0
 10
-215.6464409183106
 20
-14.32057291308652
 30
0.0
 10
-230.3308159146395
 20
-28.94431422887504
 30
0.0
 10
-248.4437499378891
 20
-28.94431422887504
 30
0.0
 10
-266.5511718083622
 20
-28.94431422887504
 30
0.0
 10
-281.2300346519147
 20
-14.32057291308652
 30
0.0
 10
-281.2300346519147
 20
3.715190971293424
 30
0.0
 10
-281.2300346519147
 20
3.715190971293424
 30
0.0
 10
-281.2300346519147
 20
3.715190971293424
 30
0.0
 10
-281.2300346519147
 20
3.715190971293424
 30
0.0
  0
SPLINE
  5
2EBD
330
2EAE
100
AcDbEntity
  8
0
 62
   250
420
  1842203
370
     9
100
AcDbSpline
210
0.0
220
0.0
230
1.0
 70
    11
 71
     3
 72
    20
 73
    16
 74
     0
 42
0.0000000001
 43
0.0000000001
 40
0.0
 40
0.0
 40
0.0
 40
0.0
 40
1.0
 40
1.0
 40
1.0
 40
2.0
 40
2.0
 40
2.0
 40
3.0
 40
3.0
 40
3.0
 40
4.0
 40
4.0
 40
4.0
 40
5.0
 40
5.0
 40
5.0
 40
5.0
 10
-290.6778645106639
 20
3.720703124069824
 30
0.0
 10
-290.6778645106639
 20
26.94340277104193
 30
0.0
 10
-271.7711804876127
 20
45.77291665522344
 30
0.0
 10
-248.4492620906655
 20
45.77291665522344
 30
0.0
 10
-225.1273436937182
 20
45.77291665522344
 30
0.0
 10
-206.220659670667
 20
26.94340277104193
 30
0.0
 10
-206.220659670667
 20
3.720703124069824
 30
0.0
 10
-206.220659670667
 20
-19.50199652290228
 30
0.0
 10
-225.1273436937182
 20
-38.33151040708379
 30
0.0
 10
-248.4492620906655
 20
-38.33151040708379
 30
0.0
 10
-271.7711804876127
 20
-38.33151040708379
 30
0.0
 10
-290.6778645106639
 20
-19.50199652290228
 30
0.0
 10
-290.6778645106639
 20
3.720703124069824
 30
0.0
 10
-290.6778645106639
 20
3.720703124069824
 30
0.0
 10
-290.6778645106639
 20
3.720703124069824
 30
0.0
 10
-290.6778645106639
 20
3.720703124069824
 30
0.0
  0
SPLINE
  5
2EBE
330
2EAE
100
AcDbEntity
  8
0
 62
   250
420
  1842203
370
     9
100
AcDbSpline
210
0.0
220
0.0
230
1.0
 70
    11
 71
     3
 72
    20
 73
    16
 74
     0
 42
0.0000000001
 43
0.0000000001
 40
0.0
 40
0.0
 40
0.0
 40
0.0
 40
1.0
 40
1.0
 40
1.0
 40
2.0
 40
2.0
 40
2.0
 40
3.0
 40
3.0
 40
3.0
 40
4.0
 40
4.0
 40
4.0
 40
5.0
 40
5.0
 40
5.0
 40
5.0
 10
449.0861109988395
 20
307.7490016591739
 30
0.0
 10
449.0861109988395
 20
325.7847655435538
 30
0.0
 10
463.7704859951685
 20
340.4085068593423
 30
0.0
 10
481.8779078656416
 20
340.4085068593423
 30
0.0
 10
499.9963540416676
 20
340.4085068593423
 30
0.0
 10
514.6697047324437
 20
325.7847655435538
 30
0.0
 10
514.6697047324437
 20
307.7490016591739
 30
0.0
 10
514.6697047324437
 20
289.7132377747939
 30
0.0
 10
499.9963540416676
 20
275.0950086117818
 30
0.0
 10
481.8779078656416
 20
275.0950086117818
 30
0.0
 10
463.7704859951685
 20
275.0950086117818
 30
0.0
 10
449.0861109988395
 20
289.7132377747939
 30
0.0
 10
449.0861109988395
 20
307.7490016591739
 30
0.0
 10
449.0861109988395
 20
307.7490016591739
 30
0.0
 10
449.0861109988395
 20
307.7490016591739
 30
0.0
 10
449.0861109988395
 20
307.7490016591739
 30
0.0
  0
SPLINE
  5
2EBF
330
2EAE
100
AcDbEntity
  8
0
 62
   250
420
  1842203
370
     9
100
AcDbSpline
210
0.0
220
0.0
230
1.0
 70
    11
 71
     3
 72
    20
 73
    16
 74
     0
 42
0.0000000001
 43
0.0000000001
 40
0.0
 40
0.0
 40
0.0
 40
0.0
 40
1.0
 40
1.0
 40
1.0
 40
2.0
 40
2.0
 40
2.0
 40
3.0
 40
3.0
 40
3.0
 40
4.0
 40
4.0
 40
4.0
 40
5.0
 40
5.0
 40
5.0
 40
5.0
 10
439.6493054456432
 20
307.7545138119503
 30
0.0
 10
439.6493054456432
 20
330.9827256116987
 30
0.0
 10
458.5504773159179
 20
349.8067273431039
 30
0.0
 10
481.8723957128653
 20
349.8067273431039
 30
0.0
 10
505.1943141098125
 20
349.8067273431039
 30
0.0
 10
524.0954859800872
 20
330.9827256116987
 30
0.0
 10
524.0954859800872
 20
307.7545138119503
 30
0.0
 10
524.0954859800872
 20
284.5318141649782
 30
0.0
 10
505.1943141098125
 20
265.7023002807966
 30
0.0
 10
481.8723957128653
 20
265.7023002807966
 30
0.0
 10
458.5504773159179
 20
265.7023002807966
 30
0.0
 10
439.6493054456432
 20
284.5318141649782
 30
0.0
 10
439.6493054456432
 20
307.7545138119503
 30
0.0
 10
439.6493054456432
 20
307.7545138119503
 30
0.0
 10
439.6493054456432
 20
307.7545138119503
 30
0.0
 10
439.6493054456432
 20
307.7545138119503
 30
0.0
  0
SPLINE
  5
2EC0
330
2EAE
100
AcDbEntity
  8
0
 62
   250
420
  1842203
370
     9
100
AcDbSpline
210
0.0
220
0.0
230
1.0
 70
    11
 71
     3
 72
    20
 73
    16
 74
     0
 42
0.0000000001
 43
0.0000000001
 40
0.0
 40
0.0
 40
0.0
 40
0.0
 40
1.0
 40
1.0
 40
1.0
 40
2.0
 40
2.0
 40
2.0
 40
3.0
 40
3.0
 40
3.0
 40
4.0
 40
4.0
 40
4.0
 40
5.0
 40
5.0
 40
5.0
 40
5.0
 10
449.1081596099451
 20
3.80338541571582
 30
0.0
 10
449.1081596099451
 20
21.83914930009577
 30
0.0
 10
463.7925346062741
 20
36.45737846310788
 30
0.0
 10
481.8999564767472
 20
36.45737846310788
 30
0.0
 10
500.0128904999967
 20
36.45737846310788
 30
0.0
 10
514.6917533435493
 20
21.83914930009577
 30
0.0
 10
514.6917533435493
 20
3.80338541571582
 30
0.0
 10
514.6917533435493
 20
-14.23237846866413
 30
0.0
 10
500.0128904999967
 20
-28.85060763167624
 30
0.0
 10
481.8999564767472
 20
-28.85060763167624
 30
0.0
 10
463.7925346062741
 20
-28.85060763167624
 30
0.0
 10
449.1081596099451
 20
-14.23237846866413
 30
0.0
 10
449.1081596099451
 20
3.80338541571582
 30
0.0
 10
449.1081596099451
 20
3.80338541571582
 30
0.0
 10
449.1081596099451
 20
3.80338541571582
 30
0.0
 10
449.1081596099451
 20
3.80338541571582
 30
0.0
  0
SPLINE
  5
2EC1
330
2EAE
100
AcDbEntity
  8
0
 62
   250
420
  1842203
370
     9
100
AcDbSpline
210
0.0
220
0.0
230
1.0
 70
    11
 71
     3
 72
    20
 73
    16
 74
     0
 42
0.0000000001
 43
0.0000000001
 40
0.0
 40
0.0
 40
0.0
 40
0.0
 40
1.0
 40
1.0
 40
1.0
 40
2.0
 40
2.0
 40
2.0
 40
3.0
 40
3.0
 40
3.0
 40
4.0
 40
4.0
 40
4.0
 40
5.0
 40
5.0
 40
5.0
 40
5.0
 10
439.660329751196
 20
3.80889756849222
 30
0.0
 10
439.660329751196
 20
27.03159721546433
 30
0.0
 10
458.5670137742471
 20
45.86111109964583
 30
0.0
 10
481.8944443239708
 20
45.86111109964583
 30
0.0
 10
505.2108505681418
 20
45.86111109964583
 30
0.0
 10
524.1175345911929
 20
27.03159721546433
 30
0.0
 10
524.1175345911929
 20
3.80889756849222
 30
0.0
 10
524.1175345911929
 20
-19.41380207847988
 30
0.0
 10
505.2108505681418
 20
-38.24331596266139
 30
0.0
 10
481.8944443239708
 20
-38.24331596266139
 30
0.0
 10
458.5670137742471
 20
-38.24331596266139
 30
0.0
 10
439.660329751196
 20
-19.41380207847988
 30
0.0
 10
439.660329751196
 20
3.80889756849222
 30
0.0
 10
439.660329751196
 20
3.80889756849222
 30
0.0
 10
439.660329751196
 20
3.80889756849222
 30
0.0
 10
439.660329751196
 20
3.80889756849222
 30
0.0
  0
SPLINE
  5
2EC2
330
2EAE
100
AcDbEntity
  8
0
 62
   250
420
  1842203
370
     9
100
AcDbSpline
210
0.0
220
0.0
230
1.0
 70
     8
 71
     3
 72
     8
 73
     4
 74
     0
 42
0.0000000001
 43
0.0000000001
 40
0.0
 40
0.0
 40
0.0
 40
0.0
 40
1.0
 40
1.0
 40
1.0
 40
1.0
 10
-764.469444253327
 20
156.1978732248394
 30
0.0
 10
-764.469444253327
 20
302.3526040910785
 30
0.0
 10
-678.4853730942676
 20
480.3289929354733
 30
0.0
 10
-403.7872394823865
 20
511.9467012609022
 30
0.0
  0
SPLINE
  5
2EC3
330
2EAE
100
AcDbEntity
  8
0
 62
   250
420
  1842203
370
     9
100
AcDbSpline
210
0.0
220
0.0
230
1.0
 70
     8
 71
     3
 72
     8
 73
     4
 74
     0
 42
0.0000000001
 43
0.0000000001
 40
0.0
 40
0.0
 40
0.0
 40
0.0
 40
1.0
 40
1.0
 40
1.0
 40
1.0
 10
-676.7214842058197
 20
155.889192669361
 30
0.0
 10
-676.7214842058197
 20
302.0494356883765
 30
0.0
 10
-641.2177081730288
 20
421.9663193389528
 30
0.0
 10
-430.2455728091053
 20
488.2334200168306
 30
0.0
  0
SPLINE
  5
2EC4
330
2EAE
100
AcDbEntity
  8
0
 62
   250
420
  1842203
370
     9
100
AcDbSpline
210
0.0
220
0.0
230
1.0
 70
     8
 71
     3
 72
     8
 73
     4
 74
     0
 42
0.0000000001
 43
0.0000000001
 40
0.0
 40
0.0
 40
0.0
 40
0.0
 40
1.0
 40
1.0
 40
1.0
 40
1.0
 10
-764.4749564061035
 20
155.889192669361
 30
0.0
 10
-764.4749564061035
 20
9.73446180312194
 30
0.0
 10
-678.4908852470439
 20
-168.2419270412728
 30
0.0
 10
-403.7982637879393
 20
-199.8596353667018
 30
0.0
  0
SPLINE
  5
2EC5
330
2EAE
100
AcDbEntity
  8
0
 62
   250
420
  1842203
370
     9
100
AcDbSpline
210
0.0
220
0.0
230
1.0
 70
     8
 71
     3
 72
     8
 73
     4
 74
     0
 42
0.0000000001
 43
0.0000000001
 40
0.0
 40
0.0
 40
0.0
 40
0.0
 40
1.0
 40
1.0
 40
1.0
 40
1.0
 10
-676.726996358596
 20
156.1978732248394
 30
0.0
 10
-676.726996358596
 20
10.03763020582392
 30
0.0
 10
-641.2232203258053
 20
-109.8792534447524
 30
0.0
 10
-430.2510849618816
 20
-176.1463541226301
 30
0.0
  0
SPLINE
  5
2EC6
330
2EAE
100
AcDbEntity
  8
0
 62
   250
420
  1842203
370
     9
100
AcDbSpline
210
0.0
220
0.0
230
1.0
 70
    11
 71
     3
 72
    20
 73
    16
 74
     0
 42
0.0000000001
 43
0.0000000001
 40
0.0
 40
0.0
 40
0.0
 40
0.0
 40
1.0
 40
1.0
 40
1.0
 40
2.0
 40
2.0
 40
2.0
 40
3.0
 40
3.0
 40
3.0
 40
4.0
 40
4.0
 40
4.0
 40
5.0
 40
5.0
 40
5.0
 40
5.0
 10
40.62456596206608
 20
-201.7447916162305
 30
0.0
 10
40.62456596206608
 20
-201.2431857135781
 30
0.0
 10
73.30611977334014
 20
-200.8407985609009
 30
0.0
 10
113.6164930271514
 20
-200.8407985609009
 30
0.0
 10
153.9323784337391
 20
-200.8407985609009
 30
0.0
 10
186.6139322450132
 20
-201.2431857135781
 30
0.0
 10
186.6139322450132
 20
-201.7447916162305
 30
0.0
 10
186.6139322450132
 20
-202.2408853661064
 30
0.0
 10
153.9323784337391
 20
-202.6432725187837
 30
0.0
 10
113.6164930271514
 20
-202.6432725187837
 30
0.0
 10
73.30611977334014
 20
-202.6432725187837
 30
0.0
 10
40.62456596206608
 20
-202.2408853661064
 30
0.0
 10
40.62456596206608
 20
-201.7447916162305
 30
0.0
 10
40.62456596206608
 20
-201.7447916162305
 30
0.0
 10
40.62456596206608
 20
-201.7447916162305
 30
0.0
 10
40.62456596206608
 20
-201.7447916162305
 30
0.0
  0
SPLINE
  5
2EC7
330
2EAE
100
AcDbEntity
  8
0
 62
   250
420
  1842203
370
     9
100
AcDbSpline
210
0.0
220
0.0
230
1.0
 70
     8
 71
     3
 72
    11
 73
     7
 74
     0
 42
0.0000000001
 43
0.0000000001
 40
0.0
 40
0.0
 40
0.0
 40
0.0
 40
1.0
 40
1.0
 40
1.0
 40
2.0
 40
2.0
 40
2.0
 40
2.0
 10
112.6904513607163
 20
600.5600692943044
 30
0.0
 10
-305.5055554791792
 20
600.5600692943044
 30
0.0
 10
-592.5068140879845
 20
600.5600692943044
 30
0.0
 10
-754.7956161307455
 20
439.3296005846121
 30
0.0
 10
-824.5298609049786
 20
370.0528644908201
 30
0.0
 10
-864.2173608950567
 20
273.4248263205327
 30
0.0
 10
-864.2173608950567
 20
156.1978732248394
 30
0.0
  0
SPLINE
  5
2EC8
330
2EAE
100
AcDbEntity
  8
0
 62
   250
420
  1842203
370
     9
100
AcDbSpline
210
0.0
220
0.0
230
1.0
 70
     8
 71
     3
 72
    11
 73
     7
 74
     0
 42
0.0000000001
 43
0.0000000001
 40
0.0
 40
0.0
 40
0.0
 40
0.0
 40
1.0
 40
1.0
 40
1.0
 40
2.0
 40
2.0
 40
2.0
 40
2.0
 10
112.6904513607163
 20
588.4608939501069
 30
0.0
 10
-264.8809895171131
 20
588.4608939501069
 30
0.0
 10
-582.8991317987197
 20
594.3974824902896
 30
0.0
 10
-742.5476126615854
 20
430.0967446841425
 30
0.0
 10
-808.6658852145003
 20
362.0602429650405
 30
0.0
 10
-848.5352862461995
 20
273.3752169455451
 30
0.0
 10
-848.5352862461995
 20
156.1482638498518
 30
0.0
  0
SPLINE
  5
2EC9
330
2EAE
100
AcDbEntity
  8
0
 62
   250
420
  1842203
370
     9
100
AcDbSpline
210
0.0
220
0.0
230
1.0
 70
     8
 71
     3
 72
    11
 73
     7
 74
     0
 42
0.0000000001
 43
0.0000000001
 40
0.0
 40
0.0
 40
0.0
 40
0.0
 40
1.0
 40
1.0
 40
1.0
 40
2.0
 40
2.0
 40
2.0
 40
2.0
 10
112.6904513607163
 20
541.4367186146408
 30
0.0
 10
-67.79396699694039
 20
541.4367186146408
 30
0.0
 10
-461.8963540511925
 20
558.7614147908652
 30
0.0
 10
-641.3610241452153
 20
450.4310762762811
 30
0.0
 10
-753.009678631192
 20
383.0339842792415
 30
0.0
 10
-798.3416230643036
 20
276.3462672920245
 30
0.0
 10
-798.3416230643036
 20
156.1482638498518
 30
0.0
  0
SPLINE
  5
2ECA
330
2EAE
100
AcDbEntity
  8
0
 62
   250
420
  1842203
370
     9
100
AcDbSpline
210
0.0
220
0.0
230
1.0
 70
     8
 71
     3
 72
    14
 73
    10
 74
     0
 42
0.0000000001
 43
0.0000000001
 40
0.0
 40
0.0
 40
0.0
 40
0.0
 40
1.0
 40
1.0
 40
1.0
 40
2.0
 40
2.0
 40
2.0
 40
3.0
 40
3.0
 40
3.0
 40
3.0
 10
112.6904513607163
 20
444.9850693331982
 30
0.0
 10
49.08572047383969
 20
444.9850693331982
 30
0.0
 10
-116.3339843459165
 20
442.9676214170359
 30
0.0
 10
-236.6422308436172
 20
436.1821613492877
 30
0.0
 10
-384.5057290705403
 20
427.8477863513713
 30
0.0
 10
-539.7720484761681
 20
410.1427516335753
 30
0.0
 10
-619.2683158174052
 20
353.8581596337577
 30
0.0
 10
-689.8900171886387
 20
303.8519096462593
 30
0.0
 10
-715.2459199600774
 20
237.4855902184064
 30
0.0
 10
-715.2459199600774
 20
155.9222655860194
 30
0.0
  0
SPLINE
  5
2ECB
330
2EAE
100
AcDbEntity
  8
0
 62
   250
420
  1842203
370
     9
100
AcDbSpline
210
0.0
220
0.0
230
1.0
 70
     8
 71
     3
 72
    14
 73
    10
 74
     0
 42
0.0000000001
 43
0.0000000001
 40
0.0
 40
0.0
 40
0.0
 40
0.0
 40
1.0
 40
1.0
 40
1.0
 40
2.0
 40
2.0
 40
2.0
 40
3.0
 40
3.0
 40
3.0
 40
3.0
 10
112.8778645551139
 20
415.7045137849627
 30
0.0
 10
46.4453992939442
 20
415.9801214237827
 30
0.0
 10
-105.1939235848126
 20
416.9282117013235
 30
0.0
 10
-210.6524305028925
 20
410.9805988555882
 30
0.0
 10
-358.5214408825919
 20
402.6407117048954
 30
0.0
 10
-517.1060762596123
 20
393.8212672626558
 30
0.0
 10
-601.1167967247208
 20
334.2238714442218
 30
0.0
 10
-665.6585935835853
 20
288.4344183306692
 30
0.0
 10
-688.4789060778802
 20
232.2214843169446
 30
0.0
 10
-688.4789060778802
 20
155.9222655860194
 30
0.0
  0
SPLINE
  5
2ECC
330
2EAE
100
AcDbEntity
  8
0
 62
   250
420
  1842203
370
     9
100
AcDbSpline
210
0.0
220
0.0
230
1.0
 70
     8
 71
     3
 72
    11
 73
     7
 74
     0
 42
0.0000000001
 43
0.0000000001
 40
0.0
 40
0.0
 40
0.0
 40
0.0
 40
1.0
 40
1.0
 40
1.0
 40
2.0
 40
2.0
 40
2.0
 40
2.0
 10
112.6794270551635
 20
-285.0609808315125
 30
0.0
 10
-305.5055554791792
 20
-285.0609808315125
 30
0.0
 10
-592.5068140879845
 20
-285.0609808315125
 30
0.0
 10
-754.7901039779691
 20
-124.7345051771497
 30
0.0
 10
-824.5243487522023
 20
-55.84361977770576
 30
0.0
 10
-864.2063365895038
 20
40.2442274204945
 30
0.0
 10
-864.2063365895038
 20
156.8152343357962
 30
0.0
  0
SPLINE
  5
2ECD
330
2EAE
100
AcDbEntity
  8
0
 62
   250
420
  1842203
370
     9
100
AcDbSpline
210
0.0
220
0.0
230
1.0
 70
     8
 71
     3
 72
    11
 73
     7
 74
     0
 42
0.0000000001
 43
0.0000000001
 40
0.0
 40
0.0
 40
0.0
 40
0.0
 40
1.0
 40
1.0
 40
1.0
 40
2.0
 40
2.0
 40
2.0
 40
2.0
 10
112.6794270551635
 20
-273.0224391678555
 30
0.0
 10
-264.8809895171131
 20
-273.0224391678555
 30
0.0
 10
-582.8936196459433
 20
-278.931466944156
 30
0.0
 10
-742.5476126615854
 20
-115.5567708044441
 30
0.0
 10
-808.6603730617238
 20
-47.90060762691374
 30
0.0
 10
-848.5297740934232
 20
40.29383679548209
 30
0.0
 10
-848.5297740934232
 20
156.8648437107838
 30
0.0
  0
SPLINE
  5
2ECE
330
2EAE
100
AcDbEntity
  8
0
 62
   250
420
  1842203
370
     9
100
AcDbSpline
210
0.0
220
0.0
230
1.0
 70
     8
 71
     3
 72
    11
 73
     7
 74
     0
 42
0.0000000001
 43
0.0000000001
 40
0.0
 40
0.0
 40
0.0
 40
0.0
 40
1.0
 40
1.0
 40
1.0
 40
2.0
 40
2.0
 40
2.0
 40
2.0
 10
112.6794270551635
 20
-226.2683593184329
 30
0.0
 10
-67.80499130249321
 20
-226.2683593184329
 30
0.0
 10
-461.8908418984162
 20
-243.4993488974585
 30
0.0
 10
-641.3610241452153
 20
-135.769835035502
 30
0.0
 10
-753.0041664784156
 20
-68.75308158003395
 30
0.0
 10
-798.3361109115271
 20
37.33932290733184
 30
0.0
 10
-798.3361109115271
 20
156.8648437107838
 30
0.0
  0
SPLINE
  5
2ECF
330
2EAE
100
AcDbEntity
  8
0
 62
   250
420
  1842203
370
     9
100
AcDbSpline
210
0.0
220
0.0
230
1.0
 70
     8
 71
     3
 72
    14
 73
    10
 74
     0
 42
0.0000000001
 43
0.0000000001
 40
0.0
 40
0.0
 40
0.0
 40
0.0
 40
1.0
 40
1.0
 40
1.0
 40
2.0
 40
2.0
 40
2.0
 40
3.0
 40
3.0
 40
3.0
 40
3.0
 10
112.6794270551635
 20
-131.9719617725625
 30
0.0
 10
49.08020832106328
 20
-131.9719617725625
 30
0.0
 10
-116.3394964986929
 20
-129.9545138564002
 30
0.0
 10
-236.6477429963936
 20
-123.1690537886522
 30
0.0
 10
-384.516753376093
 20
-114.8291666379593
 30
0.0
 10
-539.7830727817209
 20
-97.13515622571621
 30
0.0
 10
-619.2793401229579
 20
-40.84505207312207
 30
0.0
 10
-689.8955293414149
 20
9.161197914376367
 30
0.0
 10
-715.2514321128538
 20
75.52200518945284
 30
0.0
 10
-715.2514321128538
 20
157.0908419746162
 30
0.0
  0
SPLINE
  5
2ED0
330
2EAE
100
AcDbEntity
  8
0
 62
   250
420
  1842203
370
     9
100
AcDbSpline
210
0.0
220
0.0
230
1.0
 70
     8
 71
     3
 72
    14
 73
    10
 74
     0
 42
0.0000000001
 43
0.0000000001
 40
0.0
 40
0.0
 40
0.0
 40
0.0
 40
1.0
 40
1.0
 40
1.0
 40
2.0
 40
2.0
 40
2.0
 40
3.0
 40
3.0
 40
3.0
 40
3.0
 10
112.8668402495611
 20
-102.7410155993147
 30
0.0
 10
46.43988714116781
 20
-103.0221353909111
 30
0.0
 10
-105.199435737589
 20
-103.9151041406879
 30
0.0
 10
-210.6634548084453
 20
-97.96749129495259
 30
0.0
 10
-358.5324651881447
 20
-89.62760414425977
 30
0.0
 10
-517.1171005651651
 20
-80.80815970202019
 30
0.0
 10
-601.1223088774971
 20
-21.2107638835862
 30
0.0
 10
-665.6641057363617
 20
24.57868922996644
 30
0.0
 10
-688.4899303834331
 20
80.79162324369098
 30
0.0
 10
-688.4899303834331
 20
157.0908419746162
 30
0.0
  0
SPLINE
  5
2ED1
330
2EAE
100
AcDbEntity
  8
0
 62
   250
420
  1842203
370
     9
100
AcDbSpline
210
0.0
220
0.0
230
1.0
 70
     8
 71
     3
 72
    11
 73
     7
 74
     0
 42
0.0000000001
 43
0.0000000001
 40
0.0
 40
0.0
 40
0.0
 40
0.0
 40
1.0
 40
1.0
 40
1.0
 40
2.0
 40
2.0
 40
2.0
 40
2.0
 10
113.087326360617
 20
599.8765623500308
 30
0.0
 10
478.2894964082053
 20
598.9725692947013
 30
0.0
 10
732.8462237751217
 20
587.4025606170382
 30
0.0
 10
881.8397133212068
 20
438.9437498902641
 30
0.0
 10
951.2763018455144
 20
369.7662325464473
 30
0.0
 10
990.7874129467476
 20
273.2704860427935
 30
0.0
 10
990.7874129467476
 20
156.2033853776158
 30
0.0
  0
SPLINE
  5
2ED2
330
2EAE
100
AcDbEntity
  8
0
 62
   250
420
  1842203
370
     9
100
AcDbSpline
210
0.0
220
0.0
230
1.0
 70
     8
 71
     3
 72
    11
 73
     7
 74
     0
 42
0.0000000001
 43
0.0000000001
 40
0.0
 40
0.0
 40
0.0
 40
0.0
 40
1.0
 40
1.0
 40
1.0
 40
2.0
 40
2.0
 40
2.0
 40
2.0
 10
112.7896701106914
 20
587.8876300613614
 30
0.0
 10
446.8261283605157
 20
587.6450953391999
 30
0.0
 10
724.2197046800562
 20
579.8233505494886
 30
0.0
 10
869.6468313798105
 20
429.7274304481237
 30
0.0
 10
935.4729598355762
 20
361.7846353262205
 30
0.0
 10
975.1659719784308
 20
273.2208766678059
 30
0.0
 10
975.1659719784308
 20
156.1537760026282
 30
0.0
  0
SPLINE
  5
2ED3
330
2EAE
100
AcDbEntity
  8
0
 62
   250
420
  1842203
370
     9
100
AcDbSpline
210
0.0
220
0.0
230
1.0
 70
     8
 71
     3
 72
    11
 73
     7
 74
     0
 42
0.0000000001
 43
0.0000000001
 40
0.0
 40
0.0
 40
0.0
 40
0.0
 40
1.0
 40
1.0
 40
1.0
 40
2.0
 40
2.0
 40
2.0
 40
2.0
 10
112.6904513607163
 20
540.9020397953301
 30
0.0
 10
311.5523870748897
 20
542.5667099338028
 30
0.0
 10
617.3666231095473
 20
541.7674477812248
 30
0.0
 10
768.895702932776
 20
450.0342012763804
 30
0.0
 10
880.064800127206
 20
382.7308158765395
 30
0.0
 10
925.2038192131434
 20
276.186414861509
 30
0.0
 10
925.2038192131434
 20
156.1537760026282
 30
0.0
  0
SPLINE
  5
2ED4
330
2EAE
100
AcDbEntity
  8
0
 62
   250
420
  1842203
370
     9
100
AcDbSpline
210
0.0
220
0.0
230
1.0
 70
     8
 71
     3
 72
    14
 73
    10
 74
     0
 42
0.0000000001
 43
0.0000000001
 40
0.0
 40
0.0
 40
0.0
 40
0.0
 40
1.0
 40
1.0
 40
1.0
 40
2.0
 40
2.0
 40
2.0
 40
3.0
 40
3.0
 40
3.0
 40
3.0
 10
112.6904513607163
 20
444.9850693331982
 30
0.0
 10
188.9896700916414
 20
443.8605901668126
 30
0.0
 10
287.1721353448736
 20
440.6414929453951
 30
0.0
 10
366.1447481723527
 20
436.1876735020642
 30
0.0
 10
514.0137585520522
 20
427.8477863513713
 30
0.0
 10
669.2800779576799
 20
410.1537759391282
 30
0.0
 10
748.776345298917
 20
353.8636717865341
 30
0.0
 10
819.392534517374
 20
303.862933951812
 30
0.0
 10
844.748437288813
 20
237.4966145239592
 30
0.0
 10
844.748437288813
 20
155.9332898915722
 30
0.0
  0
SPLINE
  5
2ED5
330
2EAE
100
AcDbEntity
  8
0
 62
   250
420
  1842203
370
     9
100
AcDbSpline
210
0.0
220
0.0
230
1.0
 70
     8
 71
     3
 72
    14
 73
    10
 74
     0
 42
0.0000000001
 43
0.0000000001
 40
0.0
 40
0.0
 40
0.0
 40
0.0
 40
1.0
 40
1.0
 40
1.0
 40
2.0
 40
2.0
 40
2.0
 40
3.0
 40
3.0
 40
3.0
 40
3.0
 10
112.8778645551139
 20
415.7045137849627
 30
0.0
 10
184.1830728706209
 20
415.6714408683043
 30
0.0
 10
271.8263020153768
 20
414.8391057990679
 30
0.0
 10
340.1604599844043
 20
410.9861110083646
 30
0.0
 10
488.0349825168801
 20
402.6462238576717
 30
0.0
 10
646.6196178939006
 20
393.8267794154322
 30
0.0
 10
730.6303383590091
 20
334.2293835969982
 30
0.0
 10
795.1611109123208
 20
288.445442636222
 30
0.0
 10
817.9924477121685
 20
232.226996469721
 30
0.0
 10
817.9924477121685
 20
155.9332898915722
 30
0.0
  0
SPLINE
  5
2ED6
330
2EAE
100
AcDbEntity
  8
0
 62
   250
420
  1842203
370
     9
100
AcDbSpline
210
0.0
220
0.0
230
1.0
 70
     8
 71
     3
 72
    11
 73
     7
 74
     0
 42
0.0000000001
 43
0.0000000001
 40
0.0
 40
0.0
 40
0.0
 40
0.0
 40
1.0
 40
1.0
 40
1.0
 40
2.0
 40
2.0
 40
2.0
 40
2.0
 10
113.0818142078406
 20
-285.1326388176058
 30
0.0
 10
478.283984255429
 20
-284.2286457622762
 30
0.0
 10
732.8462237751217
 20
-272.7082464596007
 30
0.0
 10
881.8452254739831
 20
-124.8502603854541
 30
0.0
 10
951.2763018455144
 20
-55.94835068045735
 30
0.0
 10
990.7984372523005
 20
40.1615451288485
 30
0.0
 10
990.7984372523005
 20
156.7546006552558
 30
0.0
  0
SPLINE
  5
2ED7
330
2EAE
100
AcDbEntity
  8
0
 62
   250
420
  1842203
370
     9
100
AcDbSpline
210
0.0
220
0.0
230
1.0
 70
     8
 71
     3
 72
    11
 73
     7
 74
     0
 42
0.0000000001
 43
0.0000000001
 40
0.0
 40
0.0
 40
0.0
 40
0.0
 40
1.0
 40
1.0
 40
1.0
 40
2.0
 40
2.0
 40
2.0
 40
2.0
 10
112.784157957915
 20
-273.1878037511475
 30
0.0
 10
446.8261283605157
 20
-272.9452690289859
 30
0.0
 10
724.2197046800562
 20
-265.1621093087095
 30
0.0
 10
869.652343532587
 20
-115.6670138599721
 30
0.0
 10
935.4784719883527
 20
-47.99982637688893
 30
0.0
 10
975.1825084367599
 20
40.2111545038361
 30
0.0
 10
975.1825084367599
 20
156.8042100302434
 30
0.0
  0
SPLINE
  5
2ED8
330
2EAE
100
AcDbEntity
  8
0
 62
   250
420
  1842203
370
     9
100
AcDbSpline
210
0.0
220
0.0
230
1.0
 70
     8
 71
     3
 72
    11
 73
     7
 74
     0
 42
0.0000000001
 43
0.0000000001
 40
0.0
 40
0.0
 40
0.0
 40
0.0
 40
1.0
 40
1.0
 40
1.0
 40
2.0
 40
2.0
 40
2.0
 40
2.0
 10
112.6794270551635
 20
-226.3951388322901
 30
0.0
 10
311.5523870748897
 20
-228.04878466521
 30
0.0
 10
617.3666231095473
 20
-227.2550346654085
 30
0.0
 10
768.9012150855525
 20
-135.8911023965828
 30
0.0
 10
880.0703122799824
 20
-68.85781248278554
 30
0.0
 10
925.2038192131434
 20
37.25664061568584
 30
0.0
 10
925.2038192131434
 20
156.8042100302434
 30
0.0
  0
SPLINE
  5
2ED9
330
2EAE
100
AcDbEntity
  8
0
 62
   250
420
  1842203
370
     9
100
AcDbSpline
210
0.0
220
0.0
230
1.0
 70
     8
 71
     3
 72
    14
 73
    10
 74
     0
 42
0.0000000001
 43
0.0000000001
 40
0.0
 40
0.0
 40
0.0
 40
0.0
 40
1.0
 40
1.0
 40
1.0
 40
2.0
 40
2.0
 40
2.0
 40
3.0
 40
3.0
 40
3.0
 40
3.0
 10
112.6794270551635
 20
-132.0270833003265
 30
0.0
 10
188.9841579388651
 20
-130.902604133941
 30
0.0
 10
287.1611110393209
 20
-127.6835069125235
 30
0.0
 10
366.1392360195764
 20
-123.2296874691926
 30
0.0
 10
514.0082463992757
 20
-114.8898003184998
 30
0.0
 10
669.2745658049036
 20
-97.19578990625661
 30
0.0
 10
748.7708331461406
 20
-40.90568575366247
 30
0.0
 10
819.3870223645978
 20
9.09505208105957
 30
0.0
 10
844.7429251360365
 20
75.46137150891244
 30
0.0
 10
844.7429251360365
 20
157.0302082940758
 30
0.0
  0
SPLINE
  5
2EDA
330
2EAE
100
AcDbEntity
  8
0
 62
   250
420
  1842203
370
     9
100
AcDbSpline
210
0.0
220
0.0
230
1.0
 70
     8
 71
     3
 72
    14
 73
    10
 74
     0
 42
0.0000000001
 43
0.0000000001
 40
0.0
 40
0.0
 40
0.0
 40
0.0
 40
1.0
 40
1.0
 40
1.0
 40
2.0
 40
2.0
 40
2.0
 40
3.0
 40
3.0
 40
3.0
 40
3.0
 10
112.8668402495611
 20
-102.7410155993147
 30
0.0
 10
184.1720485650681
 20
-102.7134548354327
 30
0.0
 10
271.815277709824
 20
-101.8811197661964
 30
0.0
 10
340.154947831628
 20
-98.02812497549297
 30
0.0
 10
488.0239582113273
 20
-89.68823782480017
 30
0.0
 10
646.6085935883478
 20
-80.86879338256059
 30
0.0
 10
730.6248262062326
 20
-21.2713975641266
 30
0.0
 10
795.1555987595444
 20
24.51254339664965
 30
0.0
 10
817.9814234066158
 20
80.73098956315059
 30
0.0
 10
817.9814234066158
 20
157.0302082940758
 30
0.0
  0
SPLINE
  5
2EDB
330
2EAE
100
AcDbEntity
  8
0
 62
   250
420
  1842203
370
     9
100
AcDbSpline
210
0.0
220
0.0
230
1.0
 70
     8
 71
     3
 72
    11
 73
     7
 74
     0
 42
0.0000000001
 43
0.0000000001
 40
0.0
 40
0.0
 40
0.0
 40
0.0
 40
1.0
 40
1.0
 40
1.0
 40
2.0
 40
2.0
 40
2.0
 40
2.0
 10
113.2196180272506
 20
408.4284721201151
 30
0.0
 10
-178.4724825942708
 20
408.4284721201151
 30
0.0
 10
-328.2983072095921
 20
408.4284721201151
 30
0.0
 10
-421.3930554502073
 20
316.9598089485378
 30
0.0
 10
-461.3947481485402
 20
277.6581596528077
 30
0.0
 10
-484.1599391150711
 20
222.8398002915123
 30
0.0
 10
-484.1599391150711
 20
156.3356770442494
 30
0.0
  0
SPLINE
  5
2EDC
330
2EAE
100
AcDbEntity
  8
0
 62
   250
420
  1842203
370
     9
100
AcDbSpline
210
0.0
220
0.0
230
1.0
 70
     8
 71
     3
 72
    11
 73
     7
 74
     0
 42
0.0000000001
 43
0.0000000001
 40
0.0
 40
0.0
 40
0.0
 40
0.0
 40
1.0
 40
1.0
 40
1.0
 40
2.0
 40
2.0
 40
2.0
 40
2.0
 10
113.2141058744742
 20
-95.88940969824987
 30
0.0
 10
-178.4779947470472
 20
-95.88940969824987
 30
0.0
 10
-328.3038193623685
 20
-95.88940969824987
 30
0.0
 10
-421.3985676029836
 20
-4.426258679448991
 30
0.0
 10
-461.405772454093
 20
34.87539061628115
 30
0.0
 10
-484.1709634206239
 20
89.69374997757658
 30
0.0
 10
-484.1709634206239
 20
156.1978732248394
 30
0.0
  0
SPLINE
  5
2EDD
330
2EAE
100
AcDbEntity
  8
0
 62
   250
420
  1842203
370
     9
100
AcDbSpline
210
0.0
220
0.0
230
1.0
 70
     8
 71
     3
 72
    11
 73
     7
 74
     0
 42
0.0000000001
 43
0.0000000001
 40
0.0
 40
0.0
 40
0.0
 40
0.0
 40
1.0
 40
1.0
 40
1.0
 40
2.0
 40
2.0
 40
2.0
 40
2.0
 10
113.2196180272506
 20
408.4339842728915
 30
0.0
 10
393.479513790519
 20
408.3953992034567
 30
0.0
 10
539.4688800734662
 20
406.592925245574
 30
0.0
 10
630.6950085228818
 20
316.9708332540906
 30
0.0
 10
670.6911890684383
 20
277.6691839583605
 30
0.0
 10
693.4563800349692
 20
222.8508245970651
 30
0.0
 10
693.4563800349692
 20
156.3467013498022
 30
0.0
  0
SPLINE
  5
2EDE
330
2EAE
100
AcDbEntity
  8
0
 62
   250
420
  1842203
370
     9
100
AcDbSpline
210
0.0
220
0.0
230
1.0
 70
     8
 71
     3
 72
    11
 73
     7
 74
     0
 42
0.0000000001
 43
0.0000000001
 40
0.0
 40
0.0
 40
0.0
 40
0.0
 40
1.0
 40
1.0
 40
1.0
 40
2.0
 40
2.0
 40
2.0
 40
2.0
 10
113.2141058744742
 20
-95.88389754547348
 30
0.0
 10
393.4629773321899
 20
-95.84531247603868
 30
0.0
 10
539.4743922262425
 20
-94.04283851815597
 30
0.0
 10
630.7005206756582
 20
-4.415234373896191
 30
0.0
 10
670.6967012212147
 20
34.88641492183396
 30
0.0
 10
693.4618921877456
 20
89.69926213035297
 30
0.0
 10
693.4618921877456
 20
156.2033853776158
 30
0.0
  0
ENDBLK
  5
2EDF
330
2EAE
100
AcDbEntity
  8
0
100
AcDbBlockEnd
  0
ENDSEC
  0
SECTION
  2
ENTITIES
  0
CIRCLE
  5
2DC1
330
1F
100
AcDbEntity
  8
0
100
AcDbCircle
 10
0.0008083288594207
 20
-0.0069784536371966
 30
0.0
 40
26.0
  0
CIRCLE
  5
2DC4
330
1F
100
AcDbEntity
  8
0
100
AcDbCircle
 10
0.0008083288594207
 20
-0.0069784536371966
 30
0.0
 40
37.5
  0
LINE
  5
2DC5
330
1F
100
AcDbEntity
  8
0
  6
AM_DIN_G_W050
 62
     4
 48
2.0
100
AcDbLine
 10
0.0008083288594207
 20
53.82121980795176
 30
0.0
 11
0.0008083288594207
 21
-53.83517671522614
 31
0.0
  0
LINE
  5
2DC6
330
1F
100
AcDbEntity
  8
0
  6
AM_DIN_G_W050
 62
     4
 48
2.0
100
AcDbLine
 10
53.82900659044837
 20
-0.0069784536371966
 30
0.0
 11
-53.82738993272953
 21
-0.0069784536371966
 31
0.0
  0
ARC
  5
2DCF
330
1F
100
AcDbEntity
  8
0
100
AcDbCircle
 10
-460.5981090974449
 20
11.45153164955957
 30
0.0
 40
334.0994083357178
100
AcDbArc
 50
101.727911659522
 51
181.9512543664971
  0
CIRCLE
  5
2DDC
330
1F
100
AcDbEntity
  8
0
  6
AM_DIN_F_W050
 62
     6
 48
4.0
100
AcDbCircle
 10
-364.9991916711406
 20
152.4282629381152
 30
0.0
 40
32.5
  0
CIRCLE
  5
2DDD
330
1F
100
AcDbEntity
  8
0
  6
AM_DIN_F_W050
 62
     6
 48
4.0
100
AcDbCircle
 10
-364.9991916711406
 20
152.4930215463628
 30
0.0
 40
42.5
  0
CIRCLE
  5
2DDE
330
1F
100
AcDbEntity
  8
0
  6
AM_DIN_F_W050
 62
     6
 48
4.0
100
AcDbCircle
 10
-364.9991916711406
 20
-152.4422198453895
 30
0.0
 40
32.5
  0
CIRCLE
  5
2DDF
330
1F
100
AcDbEntity
  8
0
  6
AM_DIN_F_W050
 62
     6
 48
4.0
100
AcDbCircle
 10
-364.9991916711406
 20
-152.5069784536371
 30
0.0
 40
42.5
  0
CIRCLE
  5
2DE0
330
1F
100
AcDbEntity
  8
0
  6
AM_DIN_F_W050
 62
     6
 48
4.0
100
AcDbCircle
 10
365.0008083288595
 20
152.4930215463628
 30
0.0
 40
32.5
  0
CIRCLE
  5
2DE1
330
1F
100
AcDbEntity
  8
0
  6
AM_DIN_F_W050
 62
     6
 48
4.0
100
AcDbCircle
 10
365.0008083288595
 20
152.5577801546105
 30
0.0
 40
42.5
  0
CIRCLE
  5
2DE2
330
1F
100
AcDbEntity
  8
0
  6
AM_DIN_F_W050
 62
     6
 48
4.0
100
AcDbCircle
 10
365.0008083288595
 20
-152.4491008494851
 30
0.0
 40
32.5
  0
CIRCLE
  5
2DE3
330
1F
100
AcDbEntity
  8
0
  6
AM_DIN_F_W050
 62
     6
 48
4.0
100
AcDbCircle
 10
365.0008083288595
 20
-152.5138594577327
 30
0.0
 40
42.5
  0
ELLIPSE
  5
2DE4
330
1F
100
AcDbEntity
  8
0
100
AcDbEllipse
 10
0.000808328859307
 20
-357.2688082623284
 30
0.0
 11
-70.0
 21
0.0
 31
0.0
210
0.0
220
0.0
230
1.0
 40
0.0287929721718082
 41
0.0
 42
6.283185307179584
  0
ARC
  5
2DF0
330
1F
100
AcDbEntity
  8
0
100
AcDbCircle
 10
-518.6393683873409
 20
-0.0069784536371959
 30
0.0
 40
357.6856918744473
100
AcDbArc
 50
144.049126795096
 51
215.9508732049047
  0
ARC
  5
2DF1
330
1F
100
AcDbEntity
  8
0
100
AcDbCircle
 10
-525.3729404133549
 20
-1.063336689755447
 30
0.0
 40
352.8876652416609
100
AcDbArc
 50
101.3912061708971
 51
143.2684035756281
  0
ARC
  5
2F5B
330
1F
100
AcDbEntity
  8
0
100
AcDbCircle
 10
-460.5981090974449
 20
-11.46548855683396
 30
0.0
 40
334.0994083357178
100
AcDbArc
 50
178.0487456335028
 51
258.272088340478
  0
SPLINE
  5
2FC1
330
1F
100
AcDbEntity
  8
0
100
AcDbSpline
210
0.0
220
0.0
230
1.0
 70
   264
 71
     3
 72
    34
 73
    30
 74
    28
 42
0.0000000001
 43
0.0000000001
 44
0.00001
 12
0.0122957898412034
 22
0.9459097153946334
 32
0.0
 13
0.9826830052057408
 23
-0.002260967212997
 33
0.0
 40
96.05634165082257
 40
96.05634165082257
 40
96.05634165082257
 40
96.05634165082257
 40
140.9862984966398
 40
185.916255342457
 40
223.1937608950091
 40
260.4712664475611
 40
267.8012579218869
 40
275.1312493962126
 40
289.7912323448641
 40
319.1111982421671
 40
366.9223125453786
 40
414.73342684859
 40
435.4939348554297
 40
451.1447398385834
 40
480.8165800335189
 40
534.7462020293627
 40
588.6758240252065
 40
642.6054460210504
 40
696.5350680168942
 40
750.464690012738
 40
804.3943120085819
 40
838.6457435793703
 40
872.5621863380712
 40
885.6419441474937
 40
898.7217019569159
 40
924.8812175757606
 40
977.20024881345
 40
1081.838311288828
 40
1263.049641105379
 40
1263.049641105379
 40
1263.049641105379
 40
1263.049641105379
 10
-912.0046825494485
 20
-0.8518358559731456
 30
0.0
 10
-911.820532780465
 20
13.31472504160023
 30
0.0
 10
-910.7476811446797
 20
40.89657438036392
 30
0.0
 10
-906.5285518537898
 20
77.42517726690675
 30
0.0
 10
-899.752914650438
 20
109.4097123189633
 30
0.0
 10
-893.1507190345714
 20
129.871737914268
 30
0.0
 10
-888.110136264963
 20
142.3784989233755
 30
0.0
 10
-885.0697286589829
 20
149.4408622243068
 30
0.0
 10
-879.2639182089457
 20
161.7446488918813
 30
0.0
 10
-867.1811760465937
 20
183.49489788198
 30
0.0
 10
-846.9857575539597
 20
212.0030282982149
 30
0.0
 10
-824.5585477595117
 20
236.4233254631217
 30
0.0
 10
-806.8929461003458
 20
252.570993035663
 30
0.0
 10
-792.5327911702112
 20
264.525361321661
 30
0.0
 10
-769.8753005437038
 20
281.3073377555172
 30
0.0
 10
-735.8810597082493
 20
301.6652444502884
 30
0.0
 10
-692.5398696079893
 20
321.4418745376034
 30
0.0
 10
-646.6061652577011
 20
337.2404194548257
 30
0.0
 10
-599.0196625055456
 20
349.2633356129421
 30
0.0
 10
-549.8615061429306
 20
358.0969196334454
 30
0.0
 10
-505.4137477182088
 20
363.6129831828364
 30
0.0
 10
-466.4566285117587
 20
367.1866551972754
 30
0.0
 10
-440.1735761221741
 20
369.10726210689
 30
0.0
 10
-420.5893347787625
 20
370.3692007503601
 30
0.0
 10
-403.5334345652016
 20
371.3926339704756
 30
0.0
 10
-373.6486203191262
 20
372.992410102928
 30
0.0
 10
-313.7718557359701
 20
375.4798854584996
 30
0.0
 10
-202.8857573656829
 20
377.8398263627428
 30
0.0
 10
-109.0065086674636
 20
377.6297645502921
 30
0.0
 10
-49.64874394697833
 20
377.4931935918459
 30
0.0
 11
-912.0046825494485
 21
-0.8518358559731456
 31
0.0
 11
-910.2703806631014
 21
40.4556576904062
 31
0.0
 11
-905.6970040559319
 21
79.14182961542843
 31
0.0
 11
-899.3070639909614
 21
109.0779547425336
 31
0.0
 11
-890.2245027322482
 21
137.0722820197579
 31
0.0
 11
-888.085776644246
 21
142.3787482771267
 31
0.0
 11
-885.8067306966887
 21
147.6726357272142
 31
0.0
 11
-880.8324091911375
 21
158.2154053690405
 31
0.0
 11
-869.2808041119874
 21
179.0154543457386
 31
0.0
 11
-846.2431527688661
 21
211.564526934214
 31
0.0
 11
-818.7775519786804
 21
241.4958705134376
 31
0.0
 11
-805.7317615862759
 21
253.4224928451207
 31
0.0
 11
-795.5202943849046
 21
261.925118220255
 31
0.0
 11
-775.2139457640407
 21
276.9839476060921
 31
0.0
 11
-735.3225542228922
 21
300.969909205467
 31
0.0
 11
-692.1077838996514
 21
320.778860342588
 31
0.0
 11
-646.3306988573899
 21
336.6111479949747
 31
0.0
 11
-598.7577202371356
 21
348.7317802566732
 31
0.0
 11
-549.620785755676
 21
357.6713019180226
 31
0.0
 11
-499.0513366997104
 21
364.0619407523173
 31
0.0
 11
-466.2735486831349
 21
367.0995670940065
 31
0.0
 11
-433.3719034595988
 21
369.535365974145
 31
0.0
 11
-420.5892910493123
 21
370.3597550504984
 31
0.0
 11
-407.7956482437183
 21
371.1276693796015
 31
0.0
 11
-382.1820369565285
 21
372.5014227836876
 31
0.0
 11
-330.8635469824608
 21
374.6539802649158
 31
0.0
 11
-227.9743628890032
 21
377.0099972517186
 31
0.0
 11
-49.64874394697833
 21
377.4931935918459
 31
0.0
1001
ACAD_SPLINE_DATA
1070
   100
1070
     0
1070
   101
1070
     0
1070
   102
1070
    15
  0
SPLINE
  5
2FC2
330
1F
100
AcDbEntity
  8
0
100
AcDbSpline
210
0.0
220
0.0
230
1.0
 70
   264
 71
     3
 72
    34
 73
    30
 74
    28
 42
0.0000000001
 43
0.0000000001
 44
0.00001
 12
0.0122957898412034
 22
-0.9459097153946334
 32
0.0
 13
0.9826830052057406
 23
0.0022609672129971
 33
0.0
 40
96.05634165082257
 40
96.05634165082257
 40
96.05634165082257
 40
96.05634165082257
 40
140.9862984966122
 40
185.9162553424019
 40
223.1937608950096
 40
260.4712664476173
 40
267.801257921901
 40
275.1312493961847
 40
289.7912323447522
 40
319.1111982418871
 40
366.9223125446091
 40
414.733426847331
 40
435.4939348534418
 40
451.1447398382118
 40
480.8165800698258
 40
534.7462020691235
 40
588.6758240684213
 40
642.6054460677191
 40
696.5350680670168
 40
750.4646900663145
 40
804.3943120656123
 40
838.6457436483517
 40
872.5621863881924
 40
885.6419442485423
 40
898.7217021088921
 40
924.8812178295919
 40
977.2002492709914
 40
1081.83831215379
 40
1263.049641105379
 40
1263.049641105379
 40
1263.049641105379
 40
1263.049641105379
 10
-912.0046825494485
 20
0.8378789486987527
 30
0.0
 10
-911.8205327804652
 20
-13.32868194886593
 30
0.0
 10
-910.7476811446808
 20
-40.91053128761318
 30
0.0
 10
-906.528551853794
 20
-77.43913417415857
 30
0.0
 10
-899.752914650439
 20
-109.4236692262393
 30
0.0
 10
-893.150719034566
 20
-129.8856948215597
 30
0.0
 10
-888.1101362649589
 20
-142.3924558306602
 30
0.0
 10
-885.0697286589957
 20
-149.4548191315509
 30
0.0
 10
-879.2639182089949
 20
-161.7586057990553
 30
0.0
 10
-867.181176046756
 20
-183.5088547889812
 30
0.0
 10
-846.9857575543557
 20
-212.0169852049722
 30
0.0
 10
-824.5585477603082
 20
-236.4372823695719
 30
0.0
 10
-806.892946101121
 20
-252.5849499422665
 30
0.0
 10
-792.5327911628575
 20
-264.5393182351037
 30
0.0
 10
-769.8753005259605
 20
-281.3212946750866
 30
0.0
 10
-735.8810596775185
 20
-301.679201373748
 30
0.0
 10
-692.5398695721553
 20
-321.4558314591919
 30
0.0
 10
-646.6061652171734
 20
-337.2543763741727
 30
0.0
 10
-599.0196624606324
 20
-349.2772925298693
 30
0.0
 10
-549.8615060933786
 20
-358.110876548178
 30
0.0
 10
-505.4137476615188
 20
-363.626940096282
 30
0.0
 10
-466.456628455189
 20
-367.2006121091265
 30
0.0
 10
-440.17357605061
 20
-369.1212190191412
 30
0.0
 10
-420.5893346799517
 20
-370.3831576638557
 30
0.0
 10
-403.5334343998843
 20
-371.4065908872338
 30
0.0
 10
-373.6486200371254
 20
-373.0063670239897
 30
0.0
 10
-313.7718552199245
 20
-375.4938423831377
 30
0.0
 10
-202.8857569308932
 20
-377.8537832690966
 30
0.0
 10
-109.0065083841359
 20
-377.6437214569146
 30
0.0
 10
-49.64874394697829
 20
-377.5071504991203
 30
0.0
 11
-912.0046825494485
 21
0.8378789486987527
 31
0.0
 11
-910.2703806631032
 21
-40.46961459765602
 31
0.0
 11
-905.6970040559395
 21
-79.15578652265711
 31
0.0
 11
-899.3070639909612
 21
-109.0919116498085
 31
0.0
 11
-890.2245027322324
 21
-137.0862389270732
 31
0.0
 11
-888.0857766442417
 21
-142.3927051844114
 31
0.0
 11
-885.8067306966978
 21
-147.6865926344685
 31
0.0
 11
-880.8324091911774
 21
-158.2293622762347
 31
0.0
 11
-869.2808041121077
 21
-179.0294112528168
 31
0.0
 11
-846.243152769275
 21
-211.5784838409829
 31
0.0
 11
-818.7775519794529
 21
-241.5098274199674
 31
0.0
 11
-805.7317615875527
 21
-253.4364497512883
 31
0.0
 11
-795.5202943851512
 21
-261.9390751273323
 31
0.0
 11
-775.2139457384481
 21
-276.997904530968
 31
0.0
 11
-735.3225541921717
 21
-300.9838661288613
 31
0.0
 11
-692.1077838638855
 21
-320.7928172641147
 31
0.0
 11
-646.3306988169136
 21
-336.625104914292
 31
0.0
 11
-598.7577201921803
 21
-348.7457371736381
 31
0.0
 11
-549.6207857061217
 21
-357.6852588328049
 31
0.0
 11
-499.0513366455384
 21
-364.0758976652334
 31
0.0
 11
-466.2735486166493
 21
-367.1135240067528
 31
0.0
 11
-433.3719034106763
 21
-369.5493228846875
 31
0.0
 11
-420.58929095051
 21
-370.3737119639213
 31
0.0
 11
-407.7956480950136
 21
-371.1416262954771
 31
0.0
 11
-382.1820367078335
 21
-372.5153797032802
 31
0.0
 11
-330.8635465332076
 21
-374.6679371878138
 31
0.0
 11
-227.9743620376412
 21
-377.0239541697786
 31
0.0
 11
-49.64874394697829
 21
-377.5071504991203
 31
0.0
1001
ACAD_SPLINE_DATA
1070
   100
1070
     0
1070
   101
1070
     0
1070
   102
1070
    15
  0
SPLINE
  5
2FC3
330
1F
100
AcDbEntity
  8
0
100
AcDbSpline
210
0.0
220
0.0
230
1.0
 70
   264
 71
     3
 72
    34
 73
    30
 74
    28
 42
0.0000000001
 43
0.0000000001
 44
0.00001
 12
-0.0122957898412009
 22
-0.9459097153946327
 32
0.0
 13
-0.9826830052057401
 23
0.0022609672129975
 33
0.0
 40
96.05634165082257
 40
96.05634165082257
 40
96.05634165082257
 40
96.05634165082257
 40
140.9862984966213
 40
185.9162553424202
 40
223.1937608952392
 40
260.4712664480581
 40
267.8012579228719
 40
275.1312493976856
 40
289.791232347313
 40
319.1111982465679
 40
366.9223125495628
 40
414.7334268525575
 40
435.4939348609784
 40
451.1447398388054
 40
480.8165799477871
 40
534.7462019394513
 40
588.6758239311155
 40
642.6054459227795
 40
696.5350679144437
 40
750.4646899061079
 40
804.394311897772
 40
838.645743451768
 40
872.5621862243832
 40
885.6419439168083
 40
898.7217016092335
 40
924.8812169940837
 40
977.2002477637842
 40
1081.838309303185
 40
1263.049641105379
 40
1263.049641105379
 40
1263.049641105379
 40
1263.049641105379
 10
813.0062992071675
 20
0.8378789486987963
 30
0.0
 10
812.822149438184
 20
-13.32868194886877
 30
0.0
 10
811.7492978023992
 20
-40.91053128762168
 30
0.0
 10
807.5301685115039
 20
-77.43913417423127
 30
0.0
 10
800.7545313081154
 20
-109.4236692264233
 30
0.0
 10
794.1523356921496
 20
-129.8856948219616
 30
0.0
 10
789.1117529223886
 20
-142.3924558313617
 30
0.0
 10
786.0713453161738
 20
-149.4548191327613
 30
0.0
 10
780.2655348656644
 20
-161.7586058011441
 30
0.0
 10
768.1827927026977
 20
-183.508854791834
 30
0.0
 10
747.9873742094338
 20
-212.016985208249
 30
0.0
 10
725.56016441449
 20
-236.4372823731806
 30
0.0
 10
707.8945627559728
 20
-252.5849499447367
 30
0.0
 10
693.534407845247
 20
-264.5393182144005
 30
0.0
 10
670.8769172425743
 20
-281.3212946343357
 30
0.0
 10
636.8826764355368
 20
-301.6792013210563
 30
0.0
 10
593.5414863437825
 20
-321.4558314137946
 30
0.0
 10
547.6077820007924
 20
-337.2543763367515
 30
0.0
 10
500.0212792550932
 20
-349.2772925005428
 30
0.0
 10
450.8631228992936
 20
-358.1108765259184
 30
0.0
 10
406.4153644848793
 20
-363.6269400782956
 30
0.0
 10
367.4582452825116
 20
-367.2006120953449
 30
0.0
 10
341.1751929332883
 20
-369.1212190034472
 30
0.0
 10
321.5909516620583
 20
-370.3831576434304
 30
0.0
 10
304.535051601282
 20
-371.4065908560426
 30
0.0
 10
274.6502376232654
 20
-373.0063669785949
 30
0.0
 10
214.7734735777828
 20
-375.4938423259255
 30
0.0
 10
103.8873750212985
 20
-377.8537832721294
 30
0.0
 10
10.008125975602
 20
-377.6437214590631
 30
0.0
 10
-49.34963939530272
 20
-377.5071504991204
 30
0.0
 11
813.0062992071675
 21
0.8378789486987963
 31
0.0
 11
811.2719973208212
 21
-40.46961459766411
 31
0.0
 11
806.6986207136556
 21
-79.1557865226722
 31
0.0
 11
800.3086806486328
 21
-109.0919116499866
 31
0.0
 11
791.2261193898264
 21
-137.0862389273934
 31
0.0
 11
789.0873933016681
 21
-142.3927051851132
 31
0.0
 11
786.8083473539354
 21
-147.6865926355511
 31
0.0
 11
781.8340258479795
 21
-158.2293622780698
 31
0.0
 11
770.2824207678179
 21
-179.0294112560972
 31
0.0
 11
747.2447694243607
 21
-211.5784838442376
 31
0.0
 11
719.7791686339642
 21
-241.5098274230591
 31
0.0
 11
706.7333782404309
 21
-253.4364497554848
 31
0.0
 11
696.5219110424765
 21
-261.9390751276472
 31
0.0
 11
676.2155624821919
 21
-276.9979044718041
 31
0.0
 11
636.3241709500798
 21
-300.9838660762894
 31
0.0
 11
593.1094006352433
 21
-320.7928172188311
 31
0.0
 11
547.3323156003409
 21
-336.6251048768906
 31
0.0
 11
499.7593369867431
 21
-348.7457371441402
 31
0.0
 11
450.62240251202
 21
-357.6852588103544
 31
0.0
 11
400.0529534626848
 21
-364.07589764863
 31
0.0
 11
367.2751654638389
 21
-367.1135239911588
 31
0.0
 11
334.3735202282871
 21
-369.5493228740062
 31
0.0
 11
321.5909079325885
 21
-370.373711943736
 31
0.0
 11
308.7972652416352
 21
-371.1416262671982
 31
0.0
 11
283.1836541841535
 21
-372.5153796627335
 31
0.0
 11
231.865164670831
 21
-374.6679371363471
 31
0.0
 11
128.9759815011452
 21
-377.0239541342326
 31
0.0
 11
-49.34963939530272
 21
-377.5071504991204
 31
0.0
1001
ACAD_SPLINE_DATA
1070
   100
1070
     0
1070
   101
1070
     0
1070
   102
1070
    15
  0
SPLINE
  5
2FC4
330
1F
100
AcDbEntity
  8
0
100
AcDbSpline
210
0.0
220
0.0
230
1.0
 70
   264
 71
     3
 72
    34
 73
    30
 74
    28
 42
0.0000000001
 43
0.0000000001
 44
0.00001
 12
-0.0122957898412034
 22
0.9459097153946334
 32
0.0
 13
-0.9826830052057403
 23
-0.0022609672129969
 33
0.0
 40
96.05634165082257
 40
96.05634165082257
 40
96.05634165082257
 40
96.05634165082257
 40
140.9862984966399
 40
185.9162553424572
 40
223.1937608951344
 40
260.4712664478117
 40
267.8012579223508
 40
275.1312493968899
 40
289.7912323459681
 40
319.1111982441246
 40
366.9223125474943
 40
414.733426850864
 40
435.493934858761
 40
451.1447398389147
 40
480.8165799867872
 40
534.7462019795285
 40
588.6758239722698
 40
642.6054459650112
 40
696.5350679577525
 40
750.4646899504938
 40
804.3943119432352
 40
838.6457435021707
 40
872.5621862731808
 40
885.6419440159722
 40
898.7217017587635
 40
924.8812172443463
 40
977.2002482155116
 40
1081.838310157842
 40
1263.049641105379
 40
1263.049641105379
 40
1263.049641105379
 40
1263.049641105379
 10
813.0062992071675
 20
-0.8518358559731893
 30
0.0
 10
812.822149438184
 20
13.31472504160022
 30
0.0
 10
811.7492978023983
 20
40.89657438036409
 30
0.0
 10
807.5301685115048
 20
77.42517726694249
 30
0.0
 10
800.7545313081338
 20
109.4097123190639
 30
0.0
 10
794.1523356922211
 20
129.8717379144736
 30
0.0
 10
789.1117529225439
 20
142.3784989237107
 30
0.0
 10
786.07134531646
 20
149.4408622248467
 30
0.0
 10
780.2655348662151
 20
161.7446488927746
 30
0.0
 10
768.1827927035587
 20
183.4948978831911
 30
0.0
 10
747.9873742105519
 20
212.0030282996152
 30
0.0
 10
725.5601644156901
 20
236.4233254646953
 30
0.0
 10
707.8945627567905
 20
252.5709930367615
 30
0.0
 10
693.5344078372521
 20
264.5253613138262
 30
0.0
 10
670.8769172239899
 20
281.3073377398981
 30
0.0
 10
636.8826764045109
 20
301.6652444300341
 30
0.0
 10
593.541486309622
 20
321.4418745200971
 30
0.0
 10
547.6077819640964
 20
337.2404194403539
 30
0.0
 10
500.0212792162681
 20
349.2633356015713
 30
0.0
 10
450.863122858226
 20
358.0969196247948
 30
0.0
 10
406.4153644405843
 20
363.6129831758119
 30
0.0
 10
367.4582452360779
 20
367.1866551918603
 30
0.0
 10
341.1751928688229
 20
369.1072621006844
 30
0.0
 10
321.5909515650905
 20
370.3692007422622
 30
0.0
 10
304.5350514385417
 20
371.3926339581049
 30
0.0
 10
274.6502373451288
 20
372.9924100849208
 30
0.0
 10
214.7734730681827
 20
375.4798854358011
 30
0.0
 10
103.887374591808
 20
377.839826363946
 30
0.0
 10
10.00812569564962
 20
377.6297645511446
 30
0.0
 10
-49.34963939530274
 20
377.493193591846
 30
0.0
 11
813.0062992071675
 21
-0.8518358559731893
 31
0.0
 11
811.2719973208202
 21
40.45565769040624
 31
0.0
 11
806.6986207136507
 21
79.14182961542855
 31
0.0
 11
800.3086806486544
 21
109.077954742631
 31
0.0
 11
791.2261193898962
 21
137.0722820199399
 31
0.0
 11
789.0873933018252
 21
142.3787482774621
 31
0.0
 11
786.8083473541905
 21
147.6726357277027
 31
0.0
 11
781.8340258484611
 21
158.2154053698316
 31
0.0
 11
770.2824207688665
 21
179.0154543471105
 31
0.0
 11
747.2447694254602
 21
211.5645269356041
 31
0.0
 11
719.7791686350036
 21
241.4958705147828
 31
0.0
 11
706.733378241855
 21
253.4224928469756
 31
0.0
 11
696.5219110424037
 21
261.9251182204308
 31
0.0
 11
676.2155624547006
 21
276.9839475834368
 31
0.0
 11
636.3241709191147
 21
300.9699091852632
 31
0.0
 11
593.1094006011826
 21
320.7788603251295
 31
0.0
 11
547.3323155637126
 21
336.6111479805141
 31
0.0
 11
499.7593369478992
 21
348.7317802452391
 31
0.0
 11
450.6224024709663
 21
357.6713019093
 31
0.0
 11
400.0529534195006
 21
364.061940745853
 31
0.0
 11
367.2751654152599
 21
367.0995670878826
 31
0.0
 11
334.3735201806564
 21
369.5353659699137
 31
0.0
 11
321.5909078356291
 21
370.3597550424956
 31
0.0
 11
308.7972650953241
 21
371.1276693683867
 31
0.0
 11
283.1836539389554
 21
372.5014227676043
 31
0.0
 11
231.8651642272865
 21
374.6539802444979
 31
0.0
 11
128.9759806599259
 21
377.0099972376155
 31
0.0
 11
-49.34963939530274
 21
377.493193591846
 31
0.0
1001
ACAD_SPLINE_DATA
1070
   100
1070
     0
1070
   101
1070
     0
1070
   102
1070
    15
  0
SPLINE
  5
2FCD
330
1F
100
AcDbEntity
  8
0
  6
AM_DIN_F_W050
 62
     6
 48
4.0
100
AcDbSpline
210
0.0
220
0.0
230
1.0
 70
     8
 71
     3
 72
    11
 73
     7
 74
     0
 42
0.0000000001
 43
0.0000000001
 40
58.08568199906591
 40
58.08568199906591
 40
58.08568199906591
 40
58.08568199906591
 40
132.0262321343713
 40
268.127530178397
 40
502.8539035526615
 40
920.2563678652682
 40
920.2563678652682
 40
920.2563678652682
 40
920.2563678652682
 10
-820.2131477466268
 20
59.51303587033816
 30
0.0
 10
-815.7247531579475
 20
84.09404499198712
 30
0.0
 10
-796.6522322909802
 20
150.8437952495795
 30
0.0
 10
-669.8238287502938
 20
250.1158611771922
 30
0.0
 10
-404.7840323205537
 20
281.0511726520222
 30
0.0
 10
-188.1550381552383
 20
285.4304837778268
 30
0.0
 10
-49.4991916711405
 20
288.2335115696756
 30
0.0
  0
SPLINE
  5
2FD0
330
1F
100
AcDbEntity
  8
0
  6
AM_DIN_F_W050
 62
     6
 48
4.0
100
AcDbSpline
210
0.0
220
0.0
230
1.0
 70
     8
 71
     3
 72
    11
 73
     7
 74
     0
 42
0.0000000001
 43
0.0000000001
 40
58.56736755853074
 40
58.56736755853074
 40
58.56736755853074
 40
58.56736755853074
 40
132.5173514920811
 40
268.6186495361069
 40
503.3450229103713
 40
920.7474731979328
 40
920.7474731979328
 40
920.7474731979328
 40
920.7474731979328
 10
-820.2070846762151
 20
-59.52699277761252
 30
0.0
 10
-815.727985049771
 20
-84.11010495386241
 30
0.0
 10
-796.6536133497381
 20
-150.8486661534126
 30
0.0
 10
-669.8246015656891
 20
-250.1339349830687
 30
0.0
 10
-404.7835889123881
 20
-281.0627781714597
 30
0.0
 10
-188.1548640853105
 20
-285.4433142990633
 30
0.0
 10
-49.49919167114064
 20
-288.2471261333077
 30
0.0
  0
SPLINE
  5
2FD2
330
1F
100
AcDbEntity
  8
0
  6
AM_DIN_F_W050
 62
     6
 48
4.0
100
AcDbSpline
210
0.0
220
0.0
230
1.0
 70
     8
 71
     3
 72
    11
 73
     7
 74
     0
 42
0.0000000001
 43
0.0000000001
 40
58.08568199906591
 40
58.08568199906591
 40
58.08568199906591
 40
58.08568199906591
 40
132.0262321343713
 40
268.127530178397
 40
502.8539035526615
 40
920.256367865268
 40
920.256367865268
 40
920.256367865268
 40
920.256367865268
 10
721.2147644043457
 20
59.51303587033816
 30
0.0
 10
716.7263698156664
 20
84.09404499198712
 30
0.0
 10
697.6538489486991
 20
150.8437952495795
 30
0.0
 10
570.8254454080126
 20
250.1158611771922
 30
0.0
 10
305.7856489782727
 20
281.0511726520222
 30
0.0
 10
89.1566548129573
 20
285.4304837778267
 30
0.0
 10
-49.49919167114049
 20
288.2335115696756
 30
0.0
  0
SPLINE
  5
2FD3
330
1F
100
AcDbEntity
  8
0
  6
AM_DIN_F_W050
 62
     6
 48
4.0
100
AcDbSpline
210
0.0
220
0.0
230
1.0
 70
     8
 71
     3
 72
    11
 73
     7
 74
     0
 42
0.0000000001
 43
0.0000000001
 40
58.56736755853074
 40
58.56736755853074
 40
58.56736755853074
 40
58.56736755853074
 40
132.5173514920811
 40
268.6186495361069
 40
503.3450229103713
 40
920.7474731979329
 40
920.7474731979329
 40
920.7474731979329
 40
920.7474731979329
 10
721.2087013339337
 20
-59.52699277761254
 30
0.0
 10
716.7296017074898
 20
-84.11010495386245
 30
0.0
 10
697.6552300074571
 20
-150.8486661534126
 30
0.0
 10
570.826218223408
 20
-250.1339349830687
 30
0.0
 10
305.785205570107
 20
-281.0627781714597
 30
0.0
 10
89.15648074302934
 20
-285.4433142990633
 30
0.0
 10
-49.49919167114064
 20
-288.2471261333077
 30
0.0
  0
SPLINE
  5
2FE1
330
1F
100
AcDbEntity
  8
0
100
AcDbSpline
210
0.0
220
0.0
230
1.0
 70
    40
 71
     3
 72
    12
 73
     8
 74
     6
 42
0.0000000001
 43
0.0000000001
 44
0.00001
 40
0.0
 40
0.0
 40
0.0
 40
0.0
 40
53.2858719447903
 40
127.7952239687844
 40
237.0179897350009
 40
380.2178595208848
 40
727.5938359785241
 40
727.5938359785241
 40
727.5938359785241
 40
727.5938359785241
 10
-646.4046554580457
 20
0.2984441507320586
 30
0.0
 10
-645.4339702437831
 20
18.09247410216341
 30
0.0
 10
-643.1059810445369
 20
60.76780172571286
 30
0.0
 10
-613.6728120823981
 20
136.1069753692637
 30
0.0
 10
-529.7272971788413
 20
214.4162314813887
 30
0.0
 10
-327.4360085421392
 20
250.2545606106031
 30
0.0
 10
-164.7189102020509
 20
250.7275611196838
 30
0.0
 10
-49.49919167114057
 20
251.0624920278502
 30
0.0
 11
-646.4046554580457
 21
0.2984441507320586
 31
0.0
 11
-641.1382535369003
 21
53.32343033386599
 31
0.0
 11
-613.9773391249327
 21
122.705908434185
 31
0.0
 11
-534.6471484077451
 21
197.7814264303762
 31
0.0
 11
-396.5307564461966
 21
235.5976263745533
 31
0.0
 11
-49.49919167114057
 21
251.0624920278502
 31
0.0
  0
SPLINE
  5
2FE2
330
1F
100
AcDbEntity
  8
0
100
AcDbSpline
210
0.0
220
0.0
230
1.0
 70
    40
 71
     3
 72
    12
 73
     8
 74
     6
 42
0.0000000001
 43
0.0000000001
 44
0.00001
 40
0.0
 40
0.0
 40
0.0
 40
0.0
 40
53.2858719447903
 40
127.7952239687844
 40
237.0179897350009
 40
380.2178595208848
 40
727.5938359785241
 40
727.5938359785241
 40
727.5938359785241
 40
727.5938359785241
 10
547.4062721157646
 20
0.298444150731918
 30
0.0
 10
546.4355869015019
 20
18.09247410216326
 30
0.0
 10
544.1075977022558
 20
60.7678017257127
 30
0.0
 10
514.674428740117
 20
136.1069753692637
 30
0.0
 10
430.7289138365603
 20
214.4162314813885
 30
0.0
 10
228.437625199858
 20
250.2545606106031
 30
0.0
 10
65.72052685976977
 20
250.7275611196838
 30
0.0
 10
-49.49919167114052
 20
251.0624920278502
 30
0.0
 11
547.4062721157646
 21
0.298444150731918
 31
0.0
 11
542.139870194619
 21
53.32343033386585
 31
0.0
 11
514.9789557826515
 21
122.7059084341849
 31
0.0
 11
435.648765065464
 21
197.7814264303761
 31
0.0
 11
297.5323731039154
 21
235.5976263745533
 31
0.0
 11
-49.49919167114052
 21
251.0624920278502
 31
0.0
  0
SPLINE
  5
2FE3
330
1F
100
AcDbEntity
  8
0
100
AcDbSpline
210
0.0
220
0.0
230
1.0
 70
    40
 71
     3
 72
    12
 73
     8
 74
     6
 42
0.0000000001
 43
0.0000000001
 44
0.00001
 40
0.0
 40
0.0
 40
0.0
 40
0.0
 40
53.28587194479029
 40
127.7952239687844
 40
237.0179897350009
 40
380.2178595208848
 40
727.5938359785241
 40
727.5938359785241
 40
727.5938359785241
 40
727.5938359785241
 10
-646.4046554580457
 20
-0.3124010580063988
 30
0.0
 10
-645.433970243783
 20
-18.10643100943774
 30
0.0
 10
-643.1059810445368
 20
-60.78175863298721
 30
0.0
 10
-613.6728120823983
 20
-136.1209322765382
 30
0.0
 10
-529.7272971788414
 20
-214.430188388663
 30
0.0
 10
-327.4360085421392
 20
-250.2685175178776
 30
0.0
 10
-164.7189102020509
 20
-250.7415180269582
 30
0.0
 10
-49.49919167114058
 20
-251.0764489351246
 30
0.0
 11
-646.4046554580457
 21
-0.3124010580063988
 31
0.0
 11
-641.1382535369003
 21
-53.33738724114033
 31
0.0
 11
-613.9773391249327
 21
-122.7198653414594
 31
0.0
 11
-534.6471484077451
 21
-197.7953833376506
 31
0.0
 11
-396.5307564461966
 21
-235.6115832818277
 31
0.0
 11
-49.49919167114058
 21
-251.0764489351246
 31
0.0
  0
SPLINE
  5
2FE4
330
1F
100
AcDbEntity
  8
0
100
AcDbSpline
210
0.0
220
0.0
230
1.0
 70
    40
 71
     3
 72
    12
 73
     8
 74
     6
 42
0.0000000001
 43
0.0000000001
 44
0.00001
 40
0.0
 40
0.0
 40
0.0
 40
0.0
 40
53.28587194479029
 40
127.7952239687844
 40
237.0179897350009
 40
380.2178595208848
 40
727.5938359785241
 40
727.5938359785241
 40
727.5938359785241
 40
727.5938359785241
 10
547.4062721157646
 20
-0.3124010580063556
 30
0.0
 10
546.4355869015019
 20
-18.1064310094377
 30
0.0
 10
544.1075977022556
 20
-60.78175863298715
 30
0.0
 10
514.6744287401171
 20
-136.1209322765381
 30
0.0
 10
430.7289138365602
 20
-214.430188388663
 30
0.0
 10
228.4376251998581
 20
-250.2685175178775
 30
0.0
 10
65.72052685976979
 20
-250.7415180269582
 30
0.0
 10
-49.49919167114054
 20
-251.0764489351246
 30
0.0
 11
547.4062721157646
 21
-0.3124010580063556
 31
0.0
 11
542.139870194619
 21
-53.33738724114028
 31
0.0
 11
514.9789557826515
 21
-122.7198653414593
 31
0.0
 11
435.648765065464
 21
-197.7953833376505
 31
0.0
 11
297.5323731039154
 21
-235.6115832818277
 31
0.0
 11
-49.49919167114054
 21
-251.0764489351246
 31
0.0
  0
SPLINE
  5
2FEB
330
1F
100
AcDbEntity
  8
0
  6
AM_DIN_F_W050
 62
     6
 48
4.0
100
AcDbSpline
210
0.0
220
0.0
230
1.0
 70
   264
 71
     3
 72
    30
 73
    26
 74
    24
 42
0.0000000001
 43
0.0000000001
 44
0.00001
 12
0.1808526028982656
 22
0.9222166766851383
 32
0.0
 13
0.9965622511053542
 23
0.0201462235959598
 33
0.0
 40
62.9240912767967
 40
62.9240912767967
 40
62.9240912767967
 40
62.9240912767967
 40
64.75302294032442
 40
97.12953441048664
 40
120.5187153745463
 40
128.2464031252776
 40
136.0676398470118
 40
143.888876568746
 40
159.5313500122144
 40
189.9793196920291
 40
220.4272893718439
 40
250.8752590516586
 40
267.7252814751991
 40
301.4253263222803
 40
354.4874293003985
 40
407.5495322785165
 40
460.6116352566347
 40
485.0876363076879
 40
500.9414597998114
 40
519.1452710173527
 40
537.3490822348939
 40
573.7567046699763
 40
646.571949540141
 40
792.2024392804707
 40
920.2563678652682
 40
920.2563678652682
 40
920.2563678652682
 40
920.2563678652682
 10
-794.769976850202
 20
59.5130358703382
 30
0.0
 10
-794.6597211662447
 20
60.07525963054579
 30
0.0
 10
-792.5744290855607
 20
70.56454577232432
 30
0.0
 10
-788.3107240257725
 20
87.40434356367066
 30
0.0
 10
-781.7341223433861
 20
104.1343855205297
 30
0.0
 10
-776.9354424500789
 20
113.7449595222086
 30
0.0
 10
-773.8137343092828
 20
119.3127487206776
 30
0.0
 10
-769.2136442171009
 20
126.6598622984253
 30
0.0
 10
-760.2585474255022
 20
138.9947413836993
 30
0.0
 10
-744.8532078491
 20
155.5401191794197
 30
0.0
 10
-723.0124765868684
 20
173.4369426174808
 30
0.0
 10
-702.2910865302899
 20
186.8448407695011
 30
0.0
 10
-679.6765714745208
 20
199.182702004536
 30
0.0
 10
-649.9384933834849
 20
212.6231616817939
 30
0.0
 10
-608.0335469370441
 20
226.0329349187164
 30
0.0
 10
-558.1381576481553
 20
236.1922264669213
 30
0.0
 10
-515.8056402952998
 20
241.544687920839
 30
0.0
 10
-485.0461974653291
 20
244.4825788330897
 30
0.0
 10
-465.6355522144165
 20
246.1389095622172
 30
0.0
 10
-448.2575406184554
 20
247.5305241046541
 30
0.0
 10
-424.0733355584324
 20
249.3435115118065
 30
0.0
 10
-381.7621005470787
 20
252.2014401013916
 30
0.0
 10
-297.2112078440479
 20
256.7764534671876
 30
0.0
 10
-182.3412821284709
 20
260.5426296913945
 30
0.0
 10
-91.53180568397042
 20
262.3786840870072
 30
0.0
 10
-48.99390190618706
 20
263.2386184462107
 30
0.0
 11
-794.769976850202
 21
59.5130358703382
 31
0.0
 11
-794.4354463794002
 21
61.19556788091654
 31
0.0
 11
-787.0899432601682
 21
89.48901106913748
 31
0.0
 11
-779.7662922129742
 21
107.9678999622001
 31
0.0
 11
-776.9072671895468
 21
113.6889439669998
 31
0.0
 11
-773.7610903977847
 21
119.2994584789722
 31
0.0
 11
-770.3139540383147
 21
124.8073186159311
 31
0.0
 11
-762.5311337085364
 21
135.5402401954881
 31
0.0
 11
-744.2773075514678
 21
155.2319405384691
 31
0.0
 11
-722.5949970033584
 21
173.079633766053
 31
0.0
 11
-698.4184979124687
 21
188.7952537777616
 31
0.0
 11
-684.3371746239301
 21
196.4890970956199
 31
0.0
 11
-655.3296340820065
 21
209.6689143906434
 31
0.0
 11
-607.668932461848
 21
225.1817032574114
 31
0.0
 11
-557.8543283182242
 21
235.5863481563636
 31
0.0
 11
-506.3502247889434
 21
242.3703405892173
 31
0.0
 11
-482.1728888050071
 21
244.7068638772412
 31
0.0
 11
-466.4081617759118
 21
246.0600936239679
 31
0.0
 11
-448.2610868384587
 21
247.5147825522293
 31
0.0
 11
-430.1199165302803
 21
248.8752742136884
 31
0.0
 11
-393.854433279831
 21
251.3305631799209
 31
0.0
 11
-321.3746168011918
 21
255.2974058651642
 31
0.0
 11
-176.4920395913008
 21
260.4112652755297
 31
0.0
 11
-48.99390190618706
 21
263.2386184462107
 31
0.0
1001
ACAD_SPLINE_DATA
1070
   100
1070
     0
1070
   101
1070
     0
1070
   102
1070
    15
  0
SPLINE
  5
2FEC
330
1F
100
AcDbEntity
  8
0
  6
AM_DIN_F_W050
 62
     6
 48
4.0
100
AcDbSpline
210
0.0
220
0.0
230
1.0
 70
   264
 71
     3
 72
    30
 73
    26
 74
    24
 42
0.0000000001
 43
0.0000000001
 44
0.00001
 12
-0.1808526028981892
 22
0.9222166766851351
 32
0.0
 13
-0.9965622511053544
 23
0.02014622359596
 33
0.0
 40
62.92409127679667
 40
62.92409127679667
 40
62.92409127679667
 40
62.92409127679667
 40
64.7530229403214
 40
97.12953441048211
 40
120.5187153744605
 40
128.2464031252199
 40
136.0676398469888
 40
143.8888765687577
 40
159.5313500122954
 40
189.9793196921125
 40
220.4272893719296
 40
250.8752590517466
 40
267.72528147536
 40
301.4253263225868
 40
354.4874292998189
 40
407.549532277051
 40
460.6116352542832
 40
485.0876363057728
 40
500.9414597979536
 40
519.1452710087991
 40
537.3490822196446
 40
573.7567046413355
 40
646.5719494847173
 40
792.2024391714812
 40
920.256367865268
 40
920.256367865268
 40
920.256367865268
 40
920.256367865268
 10
695.7715935079204
 20
59.51303587033817
 30
0.0
 10
695.6613378239633
 20
60.07525963054483
 30
0.0
 10
693.5760457432793
 20
70.56454577232203
 30
0.0
 10
689.3123406834986
 20
87.4043435636436
 30
0.0
 10
682.7357390011203
 20
104.134385520491
 30
0.0
 10
677.9370591078201
 20
113.7449595221686
 30
0.0
 10
674.8153509670112
 20
119.3127487206614
 30
0.0
 10
670.2152608748102
 20
126.6598622984418
 30
0.0
 10
661.2601640831885
 20
138.9947413837387
 30
0.0
 10
645.8548245067628
 20
155.5401191794714
 30
0.0
 10
624.0140932445227
 20
173.4369426175283
 30
0.0
 10
603.2927031879169
 20
186.8448407695566
 30
0.0
 10
580.6781881320831
 20
199.1827020046162
 30
0.0
 10
550.9401100412316
 20
212.6231616817667
 30
0.0
 10
509.0351635952851
 20
226.0329349185517
 30
0.0
 10
459.1397743072678
 20
236.1922264666777
 30
0.0
 10
416.8072569548918
 20
241.5446879206304
 30
0.0
 10
386.047814125071
 20
244.4825788329086
 30
0.0
 10
366.6371688762306
 20
246.1389095618735
 30
0.0
 10
349.2591572847018
 20
247.5305241039817
 30
0.0
 10
325.0749522335685
 20
249.3435115105481
 30
0.0
 10
282.7637172377627
 20
252.2014400993268
 30
0.0
 10
198.2128245657896
 20
256.7764534642556
 30
0.0
 10
83.34289884069516
 20
260.5426296902915
 30
0.0
 10
-7.46657762210566
 20
262.3786840862752
 30
0.0
 10
-50.00448143609389
 20
263.2386184462106
 30
0.0
 11
695.7715935079204
 21
59.51303587033817
 31
0.0
 11
695.4370630371191
 21
61.19556788091376
 31
0.0
 11
688.0915599178883
 21
89.48901106913373
 31
0.0
 11
680.7679088707235
 21
107.9678999621355
 31
0.0
 11
677.9088838472882
 21
113.6889439669578
 31
0.0
 11
674.7627070555132
 21
119.2994584789559
 31
0.0
 11
671.3155706960281
 21
124.8073186159392
 31
0.0
 11
663.5327503662117
 21
135.5402401955426
 31
0.0
 11
645.2789242091313
 21
155.2319405385206
 31
0.0
 11
623.5966136610122
 21
173.0796337661004
 31
0.0
 11
599.4201145701147
 21
188.7952537778037
 31
0.0
 11
585.338791281513
 21
196.4890970956898
 31
0.0
 11
556.3312507394571
 21
209.6689143907506
 31
0.0
 11
508.6705491201001
 21
225.1817032572726
 31
0.0
 11
458.8559449773446
 21
235.5863481561332
 31
0.0
 11
407.3518414489745
 21
242.3703405889741
 31
0.0
 11
383.1745054646258
 21
244.7068638770715
 31
0.0
 11
367.4097784354823
 21
246.0600936238144
 31
0.0
 11
349.2627035047034
 21
247.5147825515683
 31
0.0
 11
331.1215332031936
 21
248.8752742125869
 31
0.0
 11
294.8560499660709
 21
251.330563178122
 31
0.0
 11
222.3762335140601
 21
255.2974058625718
 31
0.0
 11
77.4936563574648
 21
260.4112652726996
 31
0.0
 11
-50.00448143609389
 21
263.2386184462106
 31
0.0
1001
ACAD_SPLINE_DATA
1070
   100
1070
     0
1070
   101
1070
     0
1070
   102
1070
    15
  0
SPLINE
  5
2FED
330
1F
100
AcDbEntity
  8
0
  6
AM_DIN_F_W050
 62
     6
 48
4.0
100
AcDbSpline
210
0.0
220
0.0
230
1.0
 70
   264
 71
     3
 72
    30
 73
    26
 74
    24
 42
0.0000000001
 43
0.0000000001
 44
0.00001
 12
-0.1805655078150956
 22
-0.9615167526065802
 32
0.0
 13
-0.9965610334964189
 23
-0.0201518594271269
 33
0.0
 40
63.45522238008732
 40
63.45522238008732
 40
63.45522238008732
 40
63.45522238008732
 40
64.88198634412883
 40
97.32297951619324
 40
120.7549426022206
 40
128.6043472931741
 40
136.4867068039759
 40
144.3690663147776
 40
160.1337853363812
 40
190.6044184007545
 40
221.0750514651278
 40
251.545684529501
 40
268.3325237414893
 40
301.9062021654657
 40
354.5599281091052
 40
407.2136540527447
 40
459.8673799963842
 40
484.6189141239662
 40
500.7777560054528
 40
514.6894230747011
 40
528.6010901439493
 40
556.4244242824457
 40
612.0710925594387
 40
723.3644291134246
 40
920.7474731979329
 40
920.7474731979329
 40
920.7474731979329
 40
920.7474731979329
 10
695.7568127913633
 20
-59.52699277761253
 30
0.0
 10
695.6709380047969
 20
-59.98427859542629
 30
0.0
 10
693.6144177704475
 20
-70.79477737376423
 30
0.0
 10
689.3934315640187
 20
-87.0396105138316
 30
0.0
 10
682.8147222195504
 20
-103.9827813489004
 30
0.0
 10
677.997971283986
 20
-113.6455331679226
 30
0.0
 10
674.8472684246567
 20
-119.274262859474
 30
0.0
 10
670.2131825345698
 20
-126.6781215627668
 30
0.0
 10
661.2188030172204
 20
-139.0587366487541
 30
0.0
 10
645.7658313828139
 20
-155.6347666972827
 30
0.0
 10
623.8939340411083
 20
-173.536641269018
 30
0.0
 10
603.1676697699817
 20
-186.9320709978946
 30
0.0
 10
580.5955032465171
 20
-199.2349464755979
 30
0.0
 10
551.0284278045713
 20
-212.5942252783239
 30
0.0
 10
509.4153114115301
 20
-225.9370034913271
 30
0.0
 10
459.9278676068599
 20
-236.0716756612075
 30
0.0
 10
417.7950859031195
 20
-241.4495391340665
 30
0.0
 10
386.9898511303019
 20
-244.4127920454906
 30
0.0
 10
368.8164053660179
 20
-245.9691101065615
 30
0.0
 10
354.191728938088
 20
-247.1520057563163
 30
0.0
 10
335.7067752185261
 20
-248.5744938017606
 30
0.0
 10
303.3644748239503
 20
-250.8755122603273
 30
0.0
 10
238.7269215037642
 20
-254.7775285396434
 30
0.0
 10
117.9189038300988
 20
-259.8551625035767
 30
0.0
 10
15.56346012062739
 20
-261.9263574265452
 30
0.0
 10
-50.0046233485482
 20
-263.2522358791083
 30
0.0
 11
695.7568127913633
 21
-59.52699277761253
 31
0.0
 11
695.4968879390494
 21
-60.89297194063248
 31
0.0
 11
688.1727059050259
 21
-89.26191752961628
 31
0.0
 11
680.8593214470501
 21
-107.7896752400666
 31
0.0
 11
677.9611582576223
 21
-113.6046439776048
 31
0.0
 11
674.7938576617265
 21
-119.2603143813622
 31
0.0
 11
671.3211943448401
 21
-124.8112562797102
 31
0.0
 11
663.473415803792
 21
-135.6263115807373
 31
0.0
 11
645.1897790993129
 21
-155.3260870410673
 31
0.0
 11
623.4767403744343
 21
-173.1786044950782
 31
0.0
 11
599.2713246255247
 21
-188.8947576747309
 31
0.0
 11
585.2397728783426
 21
-196.5538939611391
 31
0.0
 11
556.3399030591994
 21
-209.6804859721344
 31
0.0
 11
509.0557530221892
 21
-225.0968050734348
 31
0.0
 11
459.647152591536
 21
-235.4711641138707
 31
0.0
 11
408.5666374378521
 21
-242.2566217580289
 31
0.0
 11
384.1269790819704
 21
-244.6357770735724
 31
0.0
 11
368.0626574682513
 21
-246.0199343986033
 31
0.0
 11
354.1940197229618
 21
-247.1427404057751
 31
0.0
 11
340.3283169157812
 21
-248.2099034274966
 31
0.0
 11
312.6073724352084
 21
-250.184744098936
 31
0.0
 11
257.200016248647
 21
-253.5495652591229
 31
0.0
 11
146.465943061488
 21
-258.3653084886673
 31
0.0
 11
-50.0046233485482
 21
-263.2522358791083
 31
0.0
1001
ACAD_SPLINE_DATA
1070
   100
1070
     0
1070
   101
1070
     0
1070
   102
1070
    15
  0
SPLINE
  5
2FEE
330
1F
100
AcDbEntity
  8
0
  6
AM_DIN_F_W050
 62
     6
 48
4.0
100
AcDbSpline
210
0.0
220
0.0
230
1.0
 70
   264
 71
     3
 72
    30
 73
    26
 74
    24
 42
0.0000000001
 43
0.0000000001
 44
0.00001
 12
0.1783806145202269
 22
-0.9417523594118746
 32
0.0
 13
0.9965610334964182
 23
-0.0201518594271266
 33
0.0
 40
63.42689125429441
 40
63.42689125429441
 40
63.42689125429441
 40
63.42689125429441
 40
64.88198634389195
 40
97.32297951583793
 40
120.7549426020296
 40
128.6043472930524
 40
136.4867068038664
 40
144.3690663146804
 40
160.1337853363084
 40
190.6044184013689
 40
221.0750514664294
 40
251.54568453149
 40
268.3325237428042
 40
301.9062021654328
 40
354.5599281061061
 40
407.2136540467794
 40
459.8673799874527
 40
484.6189141177571
 40
500.7777560018961
 40
514.6894230640149
 40
528.6010901261337
 40
556.4244242503711
 40
612.0710924988462
 40
723.3644289957964
 40
920.7474731979328
 40
920.7474731979328
 40
920.7474731979328
 40
920.7474731979328
 10
-794.7574096704438
 20
-59.52699277761255
 30
0.0
 10
-794.6708894183545
 20
-59.9837725222116
 30
0.0
 10
-792.6356606792409
 20
-70.59168451564035
 30
0.0
 10
-788.3848729555784
 20
-87.10479761458614
 30
0.0
 10
-781.8135767409594
 20
-103.9783568292603
 30
0.0
 10
-776.9962857464888
 20
-113.6461799711145
 30
0.0
 10
-773.8456698194665
 20
-119.2740933409063
 30
0.0
 10
-769.2115555810298
 20
-126.6782182441247
 30
0.0
 10
-760.2171934972278
 20
-139.0586696227096
 30
0.0
 10
-744.7642123188154
 20
-155.6347892898029
 30
0.0
 10
-722.8923180385069
 20
-173.5366351088317
 30
0.0
 10
-702.1660530234432
 20
-186.9320718208571
 30
0.0
 10
-679.5938866258185
 20
-199.2349461195764
 30
0.0
 10
-650.0268111263213
 20
-212.5942254753458
 30
0.0
 10
-608.4136947631907
 20
-225.9370034279854
 30
0.0
 10
-558.9262509529915
 20
-236.0716756773977
 30
0.0
 10
-516.7934692525102
 20
-241.449539131264
 30
0.0
 10
-485.9882344787389
 20
-244.412792045169
 30
0.0
 10
-467.8147887150979
 20
-245.9691101059515
 30
0.0
 10
-453.1901122910221
 20
-247.1520057554764
 30
0.0
 10
-434.7051585809293
 20
-248.5744938002508
 30
0.0
 10
-402.3628582029135
 20
-250.8755122578674
 30
0.0
 10
-337.7253049158117
 20
-254.7775285359134
 30
0.0
 10
-216.917287231437
 20
-259.8551625023814
 30
0.0
 10
-114.5618435019831
 20
-261.926357425755
 30
0.0
 10
-48.99375999373305
 20
-263.2522358791083
 30
0.0
 11
-794.7574096704438
 21
-59.52699277761255
 31
0.0
 11
-794.4952712813741
 21
-60.89297194041495
 31
0.0
 11
-787.1710892474039
 21
-89.26191752932224
 31
0.0
 11
-779.8577047893985
 21
-107.7896752399226
 31
0.0
 11
-776.9595415999503
 21
-113.6046439775162
 31
0.0
 11
-773.7922410040535
 21
-119.2603143812845
 31
0.0
 11
-770.3195776871662
 21
-124.8112562796423
 31
0.0
 11
-762.4717991461119
 21
-135.6263115806882
 31
0.0
 11
-744.1881624411877
 21
-155.3260870414469
 31
0.0
 11
-722.4751237157276
 21
-173.178604495797
 31
0.0
 11
-698.2697079661662
 21
-188.8947576756816
 31
0.0
 11
-684.2381562195113
 21
-196.55389396171
 31
0.0
 11
-655.3382864015093
 21
-209.6804859721229
 31
0.0
 11
-608.0541363672274
 21
-225.0968050727138
 31
0.0
 11
-558.6455359395189
 21
-235.4711641129267
 31
0.0
 11
-507.5650207889098
 21
-242.2566217570973
 31
0.0
 11
-483.1253624304092
 21
-244.6357770730194
 31
0.0
 11
-467.0610408140762
 21
-246.0199343983091
 31
0.0
 11
-453.1924030758951
 21
-247.1427404049342
 31
0.0
 11
-439.3267002758166
 21
-248.2099034261648
 31
0.0
 11
-411.6057558094385
 21
-250.1847440967775
 31
0.0
 11
-356.1983996512394
 21
-253.5495652558505
 31
0.0
 11
-245.4643265207837
 21
-258.3653084846684
 31
0.0
 11
-48.99375999373305
 21
-263.2522358791083
 31
0.0
1001
ACAD_SPLINE_DATA
1070
   100
1070
     0
1070
   101
1070
     0
1070
   102
1070
    15
  0
SPLINE
  5
2FF1
330
1F
100
AcDbEntity
  8
0
100
AcDbSpline
210
0.0
220
0.0
230
1.0
 70
   264
 71
     3
 72
    28
 73
    24
 74
    22
 42
0.0000000001
 43
0.0000000001
 44
0.00001
 12
0.0130206550353902
 22
1.001673276612456
 32
0.0
 13
0.9826933248066795
 23
-0.0022609909564416
 33
0.0
 40
96.05634165082257
 40
96.05634165082257
 40
96.05634165082257
 40
96.05634165082257
 40
164.8978853964704
 40
219.9346882941322
 40
245.8230720435062
 40
263.6074341741138
 40
281.3917963047214
 40
316.9605205659367
 40
386.7393709513456
 40
418.0136500877355
 40
440.9379903807373
 40
486.7866709667409
 40
532.6353515527446
 40
620.757624906936
 40
658.2237197283966
 40
733.7682857961235
 40
809.3128518638504
 40
852.2265714601049
 40
882.2933031121255
 40
912.360034764146
 40
972.4934980681869
 40
1092.760424676268
 40
1263.049641105379
 40
1263.049641105379
 40
1263.049641105379
 40
1263.049641105379
 10
-962.0017608042324
 20
-0.2019286218153978
 30
0.0
 10
-961.7029734731604
 20
22.78364960843888
 30
0.0
 10
-959.5805085010598
 20
63.42979561609322
 30
0.0
 10
-951.2595704824347
 20
110.2645060306675
 30
0.0
 10
-942.5312514919253
 20
139.950300604309
 30
0.0
 10
-935.889922119753
 20
158.000398289029
 30
0.0
 10
-926.9573217790377
 20
178.5519237956762
 30
0.0
 10
-908.3766496735433
 20
213.2205348510572
 30
0.0
 10
-881.6427546008927
 20
249.0085095552289
 30
0.0
 10
-853.3294942336313
 20
278.0653685135541
 30
0.0
 10
-828.9953380711972
 20
299.819986855503
 30
0.0
 10
-799.1835229752227
 20
322.0956231757607
 30
0.0
 10
-748.9207592919718
 20
351.9075324395144
 30
0.0
 10
-697.0706781702231
 20
373.61872486459
 30
0.0
 10
-633.9700510443853
 20
392.6740493662546
 30
0.0
 10
-573.6014119309817
 20
405.5013208822934
 30
0.0
 10
-510.1985364488064
 20
413.577884162706
 30
0.0
 10
-461.182743447976
 20
417.7711201660545
 30
0.0
 10
-427.0291053968149
 20
420.1054251823935
 30
0.0
 10
-387.1428317119844
 20
422.4289100179641
 30
0.0
 10
-317.3327052225507
 20
425.4920127304347
 30
0.0
 10
-201.1033966620181
 20
427.8409328188748
 30
0.0
 10
-105.3143928293605
 20
427.6227041558199
 30
0.0
 10
-49.53370073887845
 20
427.4943633630448
 30
0.0
 11
-962.0017608042324
 21
-0.2019286218153978
 31
0.0
 11
-957.8739446695202
 21
67.37033036107419
 31
0.0
 11
-948.4099612821086
 21
118.9313605451798
 31
0.0
 11
-941.513257933377
 21
142.2795118546781
 31
0.0
 11
-935.734275848519
 21
157.957684409571
 31
0.0
 11
-929.0402987850956
 21
173.3705168813222
 31
0.0
 11
-913.0012355174724
 21
203.3529784464974
 31
0.0
 11
-872.5328399209722
 21
257.7659918588316
 31
0.0
 11
-851.1545557706586
 21
279.7168609320525
 31
0.0
 11
-834.4422936092581
 21
294.6587026728243
 31
0.0
 11
-798.7381280108271
 21
321.4410728317274
 31
0.0
 11
-760.3772465247943
 21
344.2848636578931
 31
0.0
 11
-681.0524178512101
 21
378.0613137680021
 31
0.0
 11
-645.8362871389966
 21
388.7347225909071
 31
0.0
 11
-573.3502295953805
 21
404.5042044929199
 31
0.0
 11
-499.3800058030865
 21
414.2908361870561
 31
0.0
 11
-456.9071905253561
 21
417.9930238799854
 31
0.0
 11
-427.0259332349949
 21
420.0553132796454
 31
0.0
 11
-397.1139645360025
 21
421.800277106701
 31
0.0
 11
-337.283680119772
 21
424.4593745012559
 31
0.0
 11
-217.7697372606023
 21
427.1350620098723
 31
0.0
 11
-49.53370073887845
 21
427.4943633630448
 31
0.0
1001
ACAD_SPLINE_DATA
1070
   100
1070
     0
1070
   101
1070
     0
1070
   102
1070
    15
  0
SPLINE
  5
2FF2
330
1F
100
AcDbEntity
  8
0
100
AcDbSpline
210
0.0
220
0.0
230
1.0
 70
   264
 71
     3
 72
    28
 73
    24
 74
    22
 42
0.0000000001
 43
0.0000000001
 44
0.00001
 12
-0.0130206550353902
 22
1.001673276612456
 32
0.0
 13
-0.9826933248066794
 23
-0.0022609909564418
 33
0.0
 40
96.05634165082257
 40
96.05634165082257
 40
96.05634165082257
 40
96.05634165082257
 40
164.8978853964704
 40
219.9346882939726
 40
245.8230720432852
 40
263.6074341753074
 40
281.3917963073297
 40
316.9605205713744
 40
386.7393709578708
 40
418.0136500900459
 40
440.9379903822776
 40
486.7866709667406
 40
532.6353515512038
 40
620.7576249079506
 40
658.2237197303267
 40
733.7682857670629
 40
809.3128518037991
 40
852.2265713962079
 40
882.2933030206085
 40
912.3600346450089
 40
972.4934978938101
 40
1092.760424391412
 40
1263.049641105379
 40
1263.049641105379
 40
1263.049641105379
 40
1263.049641105379
 10
863.0033774619512
 20
-0.2019286218154415
 30
0.0
 10
862.7045901308793
 20
22.78364960843884
 30
0.0
 10
860.5821251587817
 20
63.42979561604091
 30
0.0
 10
852.2611871401759
 20
110.2645060305486
 30
0.0
 10
843.5328681495775
 20
139.9503006045556
 30
0.0
 10
836.8915387770783
 20
158.0003982900772
 30
0.0
 10
827.9589384355197
 20
178.551923798327
 30
0.0
 10
809.3782663287665
 20
213.2205348550544
 30
0.0
 10
782.6443712555535
 20
249.0085095587795
 30
0.0
 10
754.3311108888659
 20
278.0653685158613
 30
0.0
 10
729.996954727923
 20
299.819986856263
 30
0.0
 10
700.185139632912
 20
322.0956231757164
 30
0.0
 10
649.9223759498672
 20
351.9075324394696
 30
0.0
 10
598.0722948275277
 20
373.6187248648069
 30
0.0
 10
534.9716677102791
 20
392.6740493637148
 30
0.0
 10
474.6030286167333
 20
405.5013208768319
 30
0.0
 10
411.2001531567345
 20
413.5778841571692
 30
0.0
 10
362.1843601769415
 20
417.7711201605401
 30
0.0
 10
328.0307221456014
 20
420.1054251765532
 30
0.0
 10
288.1444484973908
 20
422.4289100113681
 30
0.0
 10
218.3343220721118
 20
425.4920127240573
 30
0.0
 10
102.1050134715528
 20
427.8409328192135
 30
0.0
 10
6.316009580388325
 20
427.6227041560347
 30
0.0
 10
-49.46468260340262
 20
427.4943633630448
 30
0.0
 11
863.0033774619512
 21
-0.2019286218154415
 31
0.0
 11
858.875561327239
 21
67.37033036107414
 31
0.0
 11
849.4115779398647
 21
118.9313605450339
 31
0.0
 11
842.5148745911624
 21
142.2795118544814
 31
0.0
 11
836.7358925058196
 21
157.9576844106135
 31
0.0
 11
830.0419154417658
 21
173.3705168835641
 31
0.0
 11
814.0028521724833
 21
203.352978450982
 31
0.0
 11
773.5344565744186
 21
257.7659918635865
 31
0.0
 11
752.1561724267349
 21
279.7168609336093
 31
0.0
 11
735.4439102658276
 21
294.6587026737931
 31
0.0
 11
699.7397446685465
 21
321.4410728317272
 31
0.0
 11
661.3788631838417
 21
344.2848636571888
 31
0.0
 11
582.0540345079844
 21
378.0613137683196
 31
0.0
 11
546.8379037948868
 21
388.7347225914042
 31
0.0
 11
474.3518462813028
 21
404.5042044881393
 31
0.0
 11
400.3816225200521
 21
414.2908361810946
 31
0.0
 11
357.9088072464894
 21
417.9930238752057
 31
0.0
 11
328.0275499837471
 21
420.0553132738756
 31
0.0
 11
298.1155813122573
 21
421.8002771003674
 31
0.0
 11
238.2852969509651
 21
424.4593744950101
 31
0.0
 11
118.7713542009298
 21
427.1350620067839
 31
0.0
 11
-49.46468260340262
 21
427.4943633630448
 31
0.0
1001
ACAD_SPLINE_DATA
1070
   100
1070
     0
1070
   101
1070
     0
1070
   102
1070
    15
  0
SPLINE
  5
2FF3
330
1F
100
AcDbEntity
  8
0
100
AcDbSpline
210
0.0
220
0.0
230
1.0
 70
   264
 71
     3
 72
    28
 73
    24
 74
    22
 42
0.0000000001
 43
0.0000000001
 44
0.00001
 12
-0.0130206550353902
 22
-1.001673276612455
 32
0.0
 13
-0.9826933248066794
 23
0.0022609909564411
 33
0.0
 40
96.05634165082257
 40
96.05634165082257
 40
96.05634165082257
 40
96.05634165082257
 40
164.8978853964703
 40
219.9346882941322
 40
245.8230720434922
 40
263.6074341756959
 40
281.3917963078996
 40
316.9605205723069
 40
386.7393709559085
 40
418.0136500902353
 40
440.9379903809383
 40
486.7866709623441
 40
532.63535154375
 40
620.7576249010502
 40
658.2237197214824
 40
733.7682858894265
 40
809.3128520573706
 40
852.2265716622928
 40
882.293303402301
 40
912.3600351423093
 40
972.4934986223257
 40
1092.760425582358
 40
1263.049641105379
 40
1263.049641105379
 40
1263.049641105379
 40
1263.049641105379
 10
863.0033774619512
 20
0.1879717145410483
 30
0.0
 10
862.7045901308793
 20
-22.7976065157132
 30
0.0
 10
860.5821251587791
 20
-63.44375252336774
 30
0.0
 10
852.2611871401544
 20
-110.2784629379369
 30
0.0
 10
843.5328681495056
 20
-139.9642575120556
 30
0.0
 10
836.8915387769458
 20
-158.0143551976915
 30
0.0
 10
827.9589384352616
 20
-178.5658807061428
 30
0.0
 10
809.3782663287793
 20
-213.2344917621789
 30
0.0
 10
782.6443712557137
 20
-249.02246646582
 30
0.0
 10
754.331110889605
 20
-278.0793254224378
 30
0.0
 10
729.9969547292842
 20
-299.8339437623478
 30
0.0
 10
700.1851396364198
 20
-322.1095800805325
 30
0.0
 10
649.9223759553473
 20
-351.921489344013
 30
0.0
 10
598.0722948346762
 20
-373.632681769454
 30
0.0
 10
534.9716676769268
 20
-392.6880062814502
 30
0.0
 10
474.6030284987031
 20
-405.5152778071226
 30
0.0
 10
411.200152946054
 20
-413.5918410876577
 30
0.0
 10
362.1843598788958
 20
-417.7850770908731
 30
0.0
 10
328.0307217657827
 20
-420.1193821081877
 30
0.0
 10
288.1444479642932
 20
-422.4428669461818
 30
0.0
 10
218.3343212704846
 20
-425.5059696579852
 30
0.0
 10
102.1050128370056
 20
-427.8548897250711
 30
0.0
 10
6.316009190276623
 20
-427.6366610624116
 30
0.0
 10
-49.46468260340267
 20
-427.5083202703192
 30
0.0
 11
863.0033774619512
 21
0.1879717145410483
 31
0.0
 11
858.875561327239
 21
-67.38428726834847
 31
0.0
 11
849.4115779398274
 21
-118.9453174524541
 31
0.0
 11
842.5148745911
 21
-142.29346876194
 31
0.0
 11
836.7358925056835
 21
-157.9716413182272
 31
0.0
 11
830.0419154415365
 21
-173.3844737913283
 31
0.0
 11
814.0028521720184
 21
-203.3669353590257
 31
0.0
 11
773.5344565757035
 21
-257.779948769431
 31
0.0
 11
752.1561724266003
 21
-279.7308178410113
 31
0.0
 11
735.443910266827
 21
-294.6726595802251
 31
0.0
 11
699.7397446721056
 21
-321.4550297366264
 31
0.0
 11
661.3788631902671
 21
-344.2988205610558
 31
0.0
 11
582.0540345144096
 21
-378.0752706734356
 31
0.0
 11
546.8379038032662
 21
-388.7486794964003
 31
0.0
 11
474.3518461625485
 21
-404.5181614155429
 31
0.0
 11
400.3816222698779
 21
-414.3047931135415
 31
0.0
 11
357.9088069824142
 21
-418.0069808023835
 31
0.0
 11
328.0275496040716
 21
-420.0692702052138
 31
0.0
 11
298.1155808174655
 21
-421.8142340340792
 31
0.0
 11
238.28529622622
 21
-424.4733314283776
 31
0.0
 11
118.7713530193813
 21
-427.1490189269702
 31
0.0
 11
-49.46468260340267
 21
-427.5083202703192
 31
0.0
1001
ACAD_SPLINE_DATA
1070
   100
1070
     0
1070
   101
1070
     0
1070
   102
1070
    15
  0
SPLINE
  5
2FF4
330
1F
100
AcDbEntity
  8
0
100
AcDbSpline
210
0.0
220
0.0
230
1.0
 70
   264
 71
     3
 72
    28
 73
    24
 74
    22
 42
0.0000000001
 43
0.0000000001
 44
0.00001
 12
0.0130206550353902
 22
-1.001673276612456
 32
0.0
 13
0.9826933248066797
 23
0.0022609909564417
 33
0.0
 40
96.05634165082257
 40
96.05634165082257
 40
96.05634165082257
 40
96.05634165082257
 40
164.8978853964704
 40
219.9346882939726
 40
245.8230720433029
 40
263.6074341759866
 40
281.3917963086703
 40
316.9605205740378
 40
386.7393709595128
 40
418.0136500911813
 40
440.9379903823108
 40
486.7866709645698
 40
532.6353515468288
 40
620.757624903994
 40
658.2237197252716
 40
733.7682858060958
 40
809.31285188692
 40
852.2265714842394
 40
882.2933031464426
 40
912.3600348086458
 40
972.4934981330523
 40
1092.760424781865
 40
1263.049641105379
 40
1263.049641105379
 40
1263.049641105379
 40
1263.049641105379
 10
-962.0017608042324
 20
0.1879717145410047
 30
0.0
 10
-961.7029734731604
 20
-22.79760651571328
 30
0.0
 10
-959.580508501063
 20
-63.44375252331545
 30
0.0
 10
-951.2595704824562
 20
-110.2784629378284
 30
0.0
 10
-942.5312514917964
 20
-139.9642575120398
 30
0.0
 10
-935.8899221191341
 20
-158.0143551979475
 30
0.0
 10
-926.9573217771709
 20
-178.5658807069444
 30
0.0
 10
-908.3766496700484
 20
-213.2344917638659
 30
0.0
 10
-881.6427545966606
 20
-249.0224664673963
 30
0.0
 10
-853.3294942304729
 20
-278.0793254237596
 30
0.0
 10
-828.9953380704282
 20
-299.8339437632926
 30
0.0
 10
-799.1835229769116
 20
-322.109580081757
 30
0.0
 10
-748.9207592952144
 20
-351.9214893452084
 30
0.0
 10
-697.070678173935
 20
-373.6326817705675
 30
0.0
 10
-633.9700510431968
 20
-392.6880062740393
 30
0.0
 10
-573.6014119213783
 20
-405.5152777915075
 30
0.0
 10
-510.198536430046
 20
-413.5918410720566
 30
0.0
 10
-461.1827434210194
 20
-417.7850770754133
 30
0.0
 10
-427.0291053626659
 20
-420.1193820918576
 30
0.0
 10
-387.1428316643352
 20
-422.4428669276987
 30
0.0
 10
-317.3327051512487
 20
-425.5059696400774
 30
0.0
 10
-201.1033966056659
 20
-427.8548897260233
 30
0.0
 10
-105.3143927947709
 20
-427.6366610630148
 30
0.0
 10
-49.53370073887848
 20
-427.5083202703192
 30
0.0
 11
-962.0017608042324
 21
0.1879717145410047
 31
0.0
 11
-957.8739446695202
 21
-67.38428726834858
 31
0.0
 11
-948.4099612821459
 21
-118.9453174523084
 31
0.0
 11
-941.5132579334381
 21
-142.2934687617716
 31
0.0
 11
-935.734275847863
 21
-157.9716413184811
 31
0.0
 11
-929.0402987835078
 21
-173.3844737919908
 31
0.0
 11
-913.0012355134381
 21
-203.3669353604532
 31
0.0
 11
-872.5328399156246
 21
-257.7799487720575
 31
0.0
 11
-851.154555768209
 21
-279.7308178416488
 31
0.0
 11
-834.4422936080839
 21
-294.6726595810885
 31
0.0
 11
-798.7381280125849
 21
-321.4550297378289
 31
0.0
 11
-760.3772465298942
 21
-344.2988205624633
 31
0.0
 11
-681.0524178539496
 21
-378.0752706743565
 31
0.0
 11
-645.8362871419575
 21
-388.7486794973765
 31
0.0
 11
-573.3502295857025
 21
-404.5181614018347
 31
0.0
 11
-499.3800057803261
 21
-414.3047930966206
 31
0.0
 11
-456.9071905014038
 21
-418.006980789065
 31
0.0
 11
-427.025933200859
 21
-420.0692701890833
 31
0.0
 11
-397.113964491727
 21
-421.8142340163411
 31
0.0
 11
-337.2836800552422
 21
-424.4733314108535
 31
0.0
 11
-217.7697371558388
 21
-427.1490189182915
 31
0.0
 11
-49.53370073887848
 21
-427.5083202703192
 31
0.0
1001
ACAD_SPLINE_DATA
1070
   100
1070
     0
1070
   101
1070
     0
1070
   102
1070
    15
  0
ARC
  5
2FF5
330
1F
100
AcDbEntity
  8
0
100
AcDbCircle
 10
-525.3729404133549
 20
1.049379782481054
 30
0.0
 40
352.8876652416609
100
AcDbArc
 50
216.7315964243718
 51
258.6087938291029
  0
ARC
  5
3009
330
1F
100
AcDbEntity
  8
0
  6
AM_DIN_F_W050
 62
     6
 48
4.0
100
AcDbCircle
 10
-409.7396164714762
 20
0.0139280563002772
 30
0.0
 40
414.7633827957316
100
AcDbArc
 50
171.7522860517316
 51
188.2535504445987
  0
ARC
  5
300B
330
1F
100
AcDbEntity
  8
0
  6
AM_DIN_F_W050
 62
     6
 48
4.0
100
AcDbCircle
 10
-408.890817117602
 20
0.0337585476338887
 30
0.0
 40
390.4363076697256
100
AcDbArc
 50
171.2374113715477
 51
188.7746861785962
  0
ARC
  5
300C
330
1F
100
AcDbEntity
  8
0
  6
AM_DIN_F_W050
 62
     6
 48
4.0
100
AcDbCircle
 10
310.7412331291946
 20
0.0139280562998864
 30
0.0
 40
414.7633827957316
100
AcDbArc
 50
351.7464495554013
 51
8.247713948268371
  0
ARC
  5
300D
330
1F
100
AcDbEntity
  8
0
  6
AM_DIN_F_W050
 62
     6
 48
4.0
100
AcDbCircle
 10
309.8924337753204
 20
0.0337585476334979
 30
0.0
 40
390.4363076697256
100
AcDbArc
 50
351.2253138214037
 51
8.762588628452268
  0
REGION
  5
304D
330
1F
100
AcDbEntity
  8
0
100
AcDbModelerGeometry
 70
     1
  1
mogoo mh m o          
  1
ni ^ *+0;:,4 ^ *+0\^ [ nf ^ LR mniqoqoqkjon QK o  
  1
n fqfffffffffffffffj:rooh n:rono 
  1
>,27:>;:- {rn rn _nm mniqoqoqkjon |
  1
=0;& {rn rn {rn {m {rn {rn |
  1
3*2/ {rn rn {rn {rn {l {n |
  1
,7:33 {rn rn {rn {rn {rn {k {rn {m |
  1
9><: {rn rn {rn {rn {j {l {rn {i 90-(>-; ;0*=3: 0*+ |
  1
300/ {rn rn {rn {rn {h {k |
  1
/3>1:r,*-9><: {rn rn {rn rkfqkffnfnihnnkofm roqooifhgkjlilifhjmkjf o o o n n o o 90-(>-;@) V V V V |
  1
<0:;8: {rn rn {rn {g {f {rn {no -:):-,:; {j {rn |
  1
<0:;8: {rn rn {rn {nn {h {rn {nm 90-(>-; {j {rn |
  1
<0:;8: {rn rn {rn {h {nn {rn {nl 90-(>-; {j {rn |
  1
:;8: {rn rn {rn {nk fiqojilknijogmmikj {nj nmilqokfiknnojlhgh {h {ni 90-(>-; _h *1410(1 |
  1
<0:;8: {rn rn {rn {f {g {rn {nh -:):-,:; {j {rn |
  1
:;8: {rn rn {rn {nk fiqojilknijogmmikj {ng nmilqokfiknnojlhgh {g {nf 90-(>-; _h *1410(1 |
  1
:;8: {rn rn {rn {mo fiqojilknijogmmikj {nj nmilqokfiknnojlhgh {f {mn 90-(>-; _h *1410(1 |
  1
):-+:' {rn rn {rn {no {mm |
  1
):-+:' {rn rn {rn {no {ml |
  1
61+<*-):r<*-): {rn rn {rn 90-(>-; $ :'><+<*- 9*33 1*=, l 0/:1 i 
  1
 fiqojilknijogmmikj l mimqjiimhonmokiimk n kkmqiglfmffkoklnfk n ijiqjhlifljjfjgiji n ghjqfknklhnofkkklk n 
  1
 nmilqokfiknnojlhgh l 
  1
 ghgqooogoglmggjfln roqooifhgkjlilhmominfi o 
  1
 ghhqmiiojojnfjkohl rjiqjlnjhkmnnkomgnl o 
  1
 gikqgkgnhjoonjhhkf rnhnqnmflofkmnoffgl o 
  1
 hkkqjhgngjjkjjkhil rlmgqngknfmjhmmohoj o 
  1
 jjmqgkhkhffijjnkol rknkqgnomogijgholfn o 
  1
 mhfqknlghohnjhohj rkklqmjjgofohmgkhg o 
  1
 hhqlokofokkjjiiijg rkkmqhfghmghjjkinkn o 
  1
 rkfqkffnfnihnnkojhf rkkmqjoifhgkjlilhm o 
  1
 o 
  1
 1*33@,*-9><: 
  1
 1*33@,*-9><: 
  1
 1*33=, 
  1
 1*33=, 
  1
 V V 
  1
 o 
  1
 o 
  1
 k mimqjiimhonmokiimk kkmqiglfmffkoklnfk ijiqjhlifljjfjgiji ghjqfknklhnofkkklk 
  1
 Y n Y o " V V |
  1
:;8: {rn rn {rn {mo fiqojilknijogmmikj {ng nmilqokfiknnojlhgh {nn {mk 90-(>-; _h *1410(1 |
  1
):-+:' {rn rn {rn {nh {mj |
  1
61+<*-):r<*-): {rn rn {rn 90-(>-; $ :'><+<*- 9*33 1*=, l 0/:1 i 
  1
 fiqojilknijogmmikj l mimqjiimhonmokiimk n kkmqiglfmffkoklnfk n ijiqjhlifljjfjgiji n ghjqfknklhnofkkklk n 
  1
 nmilqokfiknnojlhgh l 
  1
 ghgqooogoglmggjfln roqooifhgkjlilhmominfi o 
  1
 ghhqmiiojojnfjkohl jiqjnhinhloknmgkoh o 
  1
 gikqgkgnhjoonjhhkf nhnqnnjljmjnlgmjm o 
  1
 hkkqjhgngjjkjjkhil lmgqnhomljiikflmjl o 
  1
 jjmqgkhkhffijjnkol knkqhfimjnhjnkmfhk o 
  1
 mhfqknlghohnjhohj kklqmkngjmnijjhlni o 
  1
 hhqlokofokkjjiikl kkmqhgkhhngkgngigf o 
  1
 rkfqkffnfnihnnkoifl kkmqkflomnjkilimg o 
  1
 o 
  1
 1*33@,*-9><: 
  1
 1*33@,*-9><: 
  1
 1*33=, 
  1
 1*33=, 
  1
 V V 
  1
 o 
  1
 o 
  1
 k mimqjiimhonmokiimk kkmqiglfmffkoklnfk ijiqjhlifljjfjgiji ghjqfknklhnofkkklk 
  1
 Y n Y o " V V |
  1
):-+:' {rn rn {rn {nl {mi |
  1
61+<*-):r<*-): {rn rn {rn 90-(>-; $ :'><+<*- 9*33 1*=, l 0/:1 i 
  1
 fiqojilknijogmmikj l mimqjiimhonmokiimk n kkmqiglfmffkoklnfk n ijiqjhlifljjfjgiji n ghjqfknklhnofkkklk n 
  1
 nmilqokfiknnojlhgh l 
  1
 rfhiqfffnfnihnnkoif roqooifhgkjlilhmominfi o 
  1
 rfhiqmikkllgingmmnn rjiqjlnjhkmnnkomgnl o 
  1
 rfilqgkijjglklgjfll rnhnqnmflofkmnofffj o 
  1
 rgklqjhijiggghgmgji rlmgqngknfmjhmmoifk o 
  1
 rijnqgkjgillohhfkfi rknkqgnomogijghokog o 
  1
 rlhgqknmmjkojhfgflk rkklqmjjgofohmgkhgj o 
  1
 rnhiqlomkhlhghgkgmh rkkmqhfghmghjjkinkn o 
  1
 rkfqkffnfnihnnkogoh rkkmqjoifhgkjlilhm o 
  1
 o 
  1
 1*33@,*-9><: 
  1
 1*33@,*-9><: 
  1
 1*33=, 
  1
 1*33=, 
  1
 V V 
  1
 o 
  1
 o 
  1
 k mimqjiimhonmokiimk kkmqiglfmffkoklnfk ijiqjhlifljjfjgiji ghjqfknklhnofkkklk 
  1
 Y n Y o " V V |
  1
/061+ {rn rn {rn ghgqooogoglmggjfln roqooifhgkjlilhmominfi o |
  1
/061+ {rn rn {rn rkfqkffnfnihnnkojhf rkkmqjoifhgkjlilhm o |
  1
61+<*-):r<*-): {rn rn {rn 90-(>-; $ :'><+<*- 9*33 1*=, l 0/:1 i 
  1
 fiqojilknijogmmikj l mimqjiimhonmokiimk n kkmqiglfmffkoklnfk n ijiqjhlifljjfjgiji n ghjqfknklhnofkkklk n 
  1
 nmilqokfiknnojlhgh l 
  1
 rfhiqfffnfnihnnkoif roqooifhgkjlilhmominfi o 
  1
 rfhiqmikkllgingmmnn jiqjnhinhloknmgjmn o 
  1
 rfilqgkijjglklgjfll nhnqnnjljmjnlgmjkl o 
  1
 rgklqjhijiggghgmgji lmgqnhomljiikflmjl o 
  1
 rijnqgkjgillohhfkfi knkqhfimjnhjnkmfhk o 
  1
 rlhgqknmmjkojhfgfjh kklqmkngjmnijjhllf o 
  1
 rnhiqlomkhlhghgkgok kkmqhgkhhngkgngigf o 
  1
 rkfqkffnfnihnnkoifl kkmqkflomnjkilimg o 
  1
 o 
  1
 1*33@,*-9><: 
  1
 1*33@,*-9><: 
  1
 1*33=, 
  1
 1*33=, 
  1
 V V 
  1
 o 
  1
 o 
  1
 k mimqjiimhonmokiimk kkmqiglfmffkoklnfk ijiqjhlifljjfjgiji ghjqfknklhnofkkklk 
  1
 Y n Y o " V V |
  1
/061+ {rn rn {rn rkfqkffnfnihnnkoifl kkmqkflomnjkilimg o |
  1
/061+ {rn rn {rn rfhiqfffnfnihnnkoif roqooifhgkjlilhmominfi o |
  0
LINE
  5
304E
330
1F
100
AcDbEntity
  8
0
  6
AM_DIN_G_W050
 62
     4
 48
2.0
100
AcDbLine
 10
-322.4991916711406
 20
152.4930215463628
 30
0.0
 11
-407.4991916711406
 21
152.4930215463628
 31
0.0
  0
LINE
  5
304F
330
1F
100
AcDbEntity
  8
0
  6
AM_DIN_G_W050
 62
     4
 48
2.0
100
AcDbLine
 10
-364.9991916711406
 20
109.9930215463628
 30
0.0
 11
-364.9991916711406
 21
194.9930215463628
 31
0.0
  0
LINE
  5
3050
330
1F
100
AcDbEntity
  8
0
  6
AM_DIN_G_W050
 62
     4
 48
2.0
100
AcDbLine
 10
407.5008083288595
 20
152.5577801546105
 30
0.0
 11
322.5008083288595
 21
152.5577801546105
 31
0.0
  0
LINE
  5
3051
330
1F
100
AcDbEntity
  8
0
  6
AM_DIN_G_W050
 62
     4
 48
2.0
100
AcDbLine
 10
365.0008083288595
 20
110.0577801546104
 30
0.0
 11
365.0008083288595
 21
195.0577801546105
 31
0.0
  0
LINE
  5
3052
330
1F
100
AcDbEntity
  8
0
  6
AM_DIN_G_W050
 62
     4
 48
2.0
100
AcDbLine
 10
407.5008083288595
 20
-152.4491008494851
 30
0.0
 11
322.5008083288595
 21
-152.4491008494851
 31
0.0
  0
LINE
  5
3053
330
1F
100
AcDbEntity
  8
0
  6
AM_DIN_G_W050
 62
     4
 48
2.0
100
AcDbLine
 10
365.0008083288595
 20
-194.9491008494851
 30
0.0
 11
365.0008083288595
 21
-109.9491008494851
 31
0.0
  0
LINE
  5
3054
330
1F
100
AcDbEntity
  8
0
  6
AM_DIN_G_W050
 62
     4
 48
2.0
100
AcDbLine
 10
-322.4991916711406
 20
-152.4422198453895
 30
0.0
 11
-407.4991916711406
 21
-152.4422198453895
 31
0.0
  0
LINE
  5
3055
330
1F
100
AcDbEntity
  8
0
  6
AM_DIN_G_W050
 62
     4
 48
2.0
100
AcDbLine
 10
-364.9991916711406
 20
-194.9422198453895
 30
0.0
 11
-364.9991916711406
 21
-109.9422198453895
 31
0.0
  0
ENDSEC
  0
SECTION
  2
OBJECTS
  0
DICTIONARY
  5
C
330
0
100
AcDbDictionary
281
     1
  3
ACAD_2007HEADERVARS_RT
350
316A
  3
ACAD_COLOR
350
251F
  3
ACAD_GROUP
350
D
  3
ACAD_IMAGE_DICT
350
28A6
  3
ACAD_IMAGE_VARS
350
28A8
  3
ACAD_LAYOUT
350
1A
  3
ACAD_MATERIAL
350
24F5
  3
ACAD_MLEADERSTYLE
350
2534
  3
ACAD_MLINESTYLE
350
17
  3
ACAD_PLOTSETTINGS
350
19
  3
ACAD_PLOTSTYLENAME
350
E
  3
ACAD_SCALELIST
350
2522
  3
ACAD_TABLESTYLE
350
2520
  3
ACAD_VISUALSTYLE
350
250E
  3
ACDB_RECOMPOSE_DATA
350
3169
  3
AcDbVariableDictionary
350
86
  3
AcmDictionary
350
45
  3
AEC_PROPERTY_SET_DEFS
350
2EFC
  3
AMG
350
41
  3
AMGSNAPSETTINGS
350
332
  3
ASE_INDEX_DICTIONARY
350
427
  0
DICTIONARY
  5
25A6
330
8
100
AcDbDictionary
280
     1
281
     1
  0
DICTIONARY
  5
2692
330
2
100
AcDbDictionary
280
     1
281
     1
  3
ACAD_LAYERSTATES
360
2693
  0
DICTIONARY
  5
25A1
330
10
100
AcDbDictionary
280
     1
281
     1
  3
ADSK_XREC_LAYER_RECONCILED
360
25A2
  0
DICTIONARY
  5
81
330
1F
100
AcDbDictionary
280
     1
281
     1
  3
ACAD_SORTENTS
360
278F
  0
DICTIONARY
  5
2D4B
330
2D3A
100
AcDbDictionary
280
     1
281
     1
  3
ACAD_SORTENTS
360
2D4C
  0
DICTIONARY
  5
316A
102
{ACAD_REACTORS
330
C
102
}
330
C
100
AcDbDictionary
281
     1
  3
DIMJOGANG
350
316B
  3
DIMLTEX1
350
316D
  3
DIMLTEX2
350
316E
  3
DIMLTYPE
350
316C
  0
DICTIONARY
  5
251F
102
{ACAD_REACTORS
330
C
102
}
330
C
100
AcDbDictionary
281
     1
  0
DICTIONARY
  5
D
102
{ACAD_REACTORS
330
C
102
}
330
C
100
AcDbDictionary
281
     1
  0
DICTIONARY
  5
28A6
102
{ACAD_REACTORS
330
C
102
}
330
C
100
AcDbDictionary
281
     1
  3
$RGNZ9UX
350
28A7
  0
RASTERVARIABLES
  5
28A8
102
{ACAD_REACTORS
330
C
102
}
330
C
100
AcDbRasterVariables
 90
        0
 70
     1
 71
     1
 72
     1
  0
DICTIONARY
  5
1A
102
{ACAD_REACTORS
330
C
102
}
330
C
100
AcDbDictionary
281
     1
  3
Layout1
350
1E
  3
Layout2
350
26
  3
Model
350
22
  0
DICTIONARY
  5
24F5
102
{ACAD_REACTORS
330
C
102
}
330
C
100
AcDbDictionary
281
     1
  3
ByBlock
350
24FE
  3
ByLayer
350
24F6
  3
Global
350
2506
  0
DICTIONARY
  5
2534
102
{ACAD_REACTORS
330
C
102
}
330
C
100
AcDbDictionary
281
     1
  3
Standard
350
2535
  0
DICTIONARY
  5
17
102
{ACAD_REACTORS
330
C
102
}
330
C
100
AcDbDictionary
281
     1
  3
Standard
350
18
  0
DICTIONARY
  5
19
102
{ACAD_REACTORS
330
C
102
}
330
C
100
AcDbDictionary
281
     1
  0
ACDBDICTIONARYWDFLT
  5
E
102
{ACAD_REACTORS
330
C
102
}
330
C
100
AcDbDictionary
281
     1
  3
Normal
350
F
100
AcDbDictionaryWithDefault
340
F
  0
DICTIONARY
  5
2522
102
{ACAD_REACTORS
330
C
102
}
330
C
100
AcDbDictionary
281
     1
  3
A0
350
2523
  3
A1
350
2524
  3
A2
350
2525
  3
A3
350
2526
  3
A4
350
2527
  3
A5
350
2528
  3
A6
350
2529
  3
A7
350
252A
  3
A8
350
252B
  3
A9
350
252C
  3
B0
350
252D
  3
B1
350
252E
  3
B2
350
252F
  3
B3
350
2530
  3
B4
350
2531
  3
B5
350
2532
  3
B6
350
2533
  0
DICTIONARY
  5
2520
102
{ACAD_REACTORS
330
C
102
}
330
C
100
AcDbDictionary
281
     1
  3
Standard
350
2521
  0
DICTIONARY
  5
250E
102
{ACAD_REACTORS
330
C
102
}
330
C
100
AcDbDictionary
281
     1
  3
2dWireframe
350
2514
  3
3D Hidden
350
2516
  3
3dWireframe
350
2515
  3
Basic
350
2513
  3
Brighten
350
251A
  3
ColorChange
350
251E
  3
Conceptual
350
2517
  3
Dim
350
2519
  3
EdgeColorOff
350
264E
  3
Facepattern
350
251D
  3
Flat
350
250F
  3
FlatWithEdges
350
2510
  3
Gouraud
350
2511
  3
GouraudWithEdges
350
2512
  3
Hidden
350
2646
  3
JitterOff
350
264C
  3
Linepattern
350
251C
  3
OverhangOff
350
264D
  3
Realistic
350
2518
  3
Shaded
350
264B
  3
Shaded with edges
350
264A
  3
Shades of Gray
350
2647
  3
Sketchy
350
2648
  3
Thicken
350
251B
  3
Wireframe
350
2645
  3
X-Ray
350
2649
  0
XRECORD
  5
3169
102
{ACAD_REACTORS
330
C
102
}
330
C
100
AcDbXrecord
280
     1
 90
        1
330
2521
  0
DICTIONARY
  5
86
102
{ACAD_REACTORS
330
C
102
}
330
C
100
AcDbDictionary
281
     1
  3
CANNOSCALE
350
25AE
  3
CMLEADERSTYLE
350
25AD
  3
CTABLESTYLE
350
25AC
  3
DIMASSOC
350
89
  3
HIDETEXT
350
88
  3
INDEXCTL
350
87
  3
LAYEREVAL
350
269C
  3
LAYERNOTIFY
350
269D
  3
LIGHTINGUNITS
350
269B
  3
MSLTSCALE
350
269A
  0
DICTIONARY
  5
45
102
{ACAD_REACTORS
330
C
102
}
330
C
100
AcDbDictionary
281
     1
  3
AcmStdDictionary
350
4A
  3
AMDTSECTSYM_ARROWCOLOR
350
258D
  0
DICTIONARY
  5
2EFC
102
{ACAD_REACTORS
330
C
102
}
330
C
100
AcDbDictionary
281
     1
  0
DICTIONARY
  5
41
102
{ACAD_REACTORS
330
C
102
}
330
C
100
AcDbDictionary
281
     1
  0
DICTIONARY
  5
332
102
{ACAD_REACTORS
330
C
102
}
330
C
100
AcDbDictionary
281
     1
  0
DICTIONARY
  5
427
102
{ACAD_REACTORS
330
C
102
}
330
C
100
AcDbDictionary
281
     1
  3
ASEBlockHierarchyIndexRecord
350
429
1001
DCO15
1040
1566620334.734
  0
DICTIONARY
  5
2693
102
{ACAD_REACTORS
330
2692
102
}
330
2692
100
AcDbDictionary
281
     1
  0
XRECORD
  5
25A2
102
{ACAD_REACTORS
330
25A1
102
}
330
25A1
100
AcDbXrecord
280
     1
290
     1
  0
SORTENTSTABLE
  5
278F
102
{ACAD_REACTORS
330
81
102
}
330
81
100
AcDbSortentsTable
330
1F
331
2DF1
  5
2DF1
331
2DDC
  5
2DDC
331
2F5B
  5
2F5B
331
2FE2
  5
2FF1
331
2FCD
  5
2FE1
331
2DE2
  5
2DE2
331
2DC4
  5
2DC4
331
2FD0
  5
2FE3
331
2DDD
  5
2DDD
331
2FE3
  5
2FF2
331
2FC1
  5
2FBA
331
2DE3
  5
2DE3
331
2DC5
  5
2DC5
331
2FEB
  5
2FE2
331
2DDE
  5
2DDE
331
2FF1
  5
2FB8
331
2FE4
  5
2FF3
331
2FC2
  5
2FCC
331
2FEC
  5
2FEB
331
2DE4
  5
2DE4
331
2DC6
  5
2DC6
331
2FD2
  5
2FEA
331
2DC1
  5
2DC1
331
2DDF
  5
2DDF
331
2FC3
  5
2FD2
331
2FF2
  5
2FBD
331
2FD3
  5
2FEC
331
2DCF
  5
2DCF
331
2FC4
  5
2FBF
331
2FF3
  5
2FD0
331
2DE0
  5
2DE0
331
2DF0
  5
2DF0
331
2FE1
  5
2FF0
331
2FEE
  5
2FE4
331
2FF4
  5
2FC2
331
2DE1
  5
2DE1
  0
SORTENTSTABLE
  5
2D4C
102
{ACAD_REACTORS
330
2D4B
102
}
330
2D4B
100
AcDbSortentsTable
330
2D3A
  0
XRECORD
  5
316B
102
{ACAD_REACTORS
330
316A
102
}
330
316A
100
AcDbXrecord
280
     1
 40
1.570796326794896
  0
XRECORD
  5
316D
102
{ACAD_REACTORS
330
316A
102
}
330
316A
100
AcDbXrecord
280
     1
340
14
  0
XRECORD
  5
316E
102
{ACAD_REACTORS
330
316A
102
}
330
316A
100
AcDbXrecord
280
     1
340
14
  0
XRECORD
  5
316C
102
{ACAD_REACTORS
330
316A
102
}
330
316A
100
AcDbXrecord
280
     1
340
14
  0
IMAGEDEF
  5
28A7
102
{ACAD_REACTORS
330
28A6
102
}
330
28A6
100
AcDbRasterImageDef
 90
        0
  1
C:\Users\Administrator\Desktop\$RGNZ9UX.JPG
 10
1291.0
 20
610.0
 11
0.0007745933384973
 21
0.0007745933384973
280
     1
281
     0
  0
LAYOUT
  5
1E
102
{ACAD_REACTORS
330
1A
102
}
330
1A
100
AcDbPlotSettings
  1

  2
Epson Stylus COLOR 440 ESC/P 2
  4

  6

 40
0.0
 41
0.0
 42
0.0
 43
0.0
 44
0.0
 45
0.0
 46
0.0
 47
0.0
 48
0.0
 49
0.0
140
0.0
141
0.0
142
1.0
143
1.0
 70
   688
 72
     0
 73
     0
 74
     5
  7

 75
    16
147
1.0
 76
     0
 77
     2
 78
   300
148
0.0
149
0.0
100
AcDbLayout
  1
Layout1
 70
     1
 71
     1
 10
0.0
 20
0.0
 11
420.0
 21
297.0
 12
0.0
 22
0.0
 32
0.0
 14
1.000000000000000E+20
 24
1.000000000000000E+20
 34
1.000000000000000E+20
 15
-1.000000000000000E+20
 25
-1.000000000000000E+20
 35
-1.000000000000000E+20
146
0.0
 13
0.0
 23
0.0
 33
0.0
 16
1.0
 26
0.0
 36
0.0
 17
0.0
 27
1.0
 37
0.0
 76
     0
330
1B
  0
LAYOUT
  5
26
102
{ACAD_REACTORS
330
1A
102
}
330
1A
100
AcDbPlotSettings
  1

  2
Epson Stylus COLOR 440 ESC/P 2
  4

  6

 40
0.0
 41
0.0
 42
0.0
 43
0.0
 44
0.0
 45
0.0
 46
0.0
 47
0.0
 48
0.0
 49
0.0
140
0.0
141
0.0
142
1.0
143
1.0
 70
   688
 72
     0
 73
     0
 74
     5
  7

 75
    16
147
1.0
 76
     0
 77
     2
 78
   300
148
0.0
149
0.0
100
AcDbLayout
  1
Layout2
 70
     1
 71
     2
 10
0.0
 20
0.0
 11
12.0
 21
9.0
 12
0.0
 22
0.0
 32
0.0
 14
0.0
 24
0.0
 34
0.0
 15
0.0
 25
0.0
 35
0.0
146
0.0
 13
0.0
 23
0.0
 33
0.0
 16
1.0
 26
0.0
 36
0.0
 17
0.0
 27
1.0
 37
0.0
 76
     0
330
23
  0
LAYOUT
  5
22
102
{ACAD_XDICTIONARY
360
2698
102
}
102
{ACAD_REACTORS
330
1A
102
}
330
1A
100
AcDbPlotSettings
  1

  2
none_device
  4
ISO_A4_(210.00_x_297.00_MM)
  6

 40
7.5
 41
20.0
 42
7.5
 43
20.0
 44
210.0
 45
297.0
 46
0.0
 47
0.0
 48
0.0
 49
0.0
140
0.0
141
0.0
142
1.0
143
9.177602477623295
 70
 11952
 72
     1
 73
     1
 74
     0
  7

 75
     0
147
0.1089609189805492
 76
     0
 77
     2
 78
   300
148
1638.945968138709
149
521.9759445033046
100
AcDbLayout
  1
Model
 70
     1
 71
     0
 10
0.0
 20
0.0
 11
12.0
 21
9.0
 12
0.0
 22
0.0
 32
0.0
 14
0.0
 24
0.0
 34
0.0
 15
0.0
 25
0.0
 35
0.0
146
0.0
 13
0.0
 23
0.0
 33
0.0
 16
1.0
 26
0.0
 36
0.0
 17
0.0
 27
1.0
 37
0.0
 76
     0
330
1F
331
24F3
1001
ACAD_PSEXT
1000
Kein
1000
Kein
1000
Nicht anwendbar
1000
Das Layout wird erst geplottet, wenn ein neuer Plotter-Konfigurationsname ausgewählt wird.
1070
     0
  0
MATERIAL
  5
24FE
102
{ACAD_XDICTIONARY
360
24FF
102
}
102
{ACAD_REACTORS
330
24F5
102
}
330
24F5
100
AcDbMaterial
  1
ByBlock
 72
     0
 43
0.0008202099737533
 43
0.0
 43
0.0
 43
0.0
 43
0.0
 43
0.0008202099737533
 43
0.0
 43
0.0
 43
0.0
 43
0.0
 43
1.0
 43
0.0
 43
0.0
 43
0.0
 43
0.0
 43
1.0
 77
     0
 47
0.0008202099737533
 47
0.0
 47
0.0
 47
0.0
 47
0.0
 47
0.0008202099737533
 47
0.0
 47
0.0
 47
0.0
 47
0.0
 47
1.0
 47
0.0
 47
0.0
 47
0.0
 47
0.0
 47
1.0
171
     0
 49
0.0008202099737533
 49
0.0
 49
0.0
 49
0.0
 49
0.0
 49
0.0008202099737533
 49
0.0
 49
0.0
 49
0.0
 49
0.0
 49
1.0
 49
0.0
 49
0.0
 49
0.0
 49
0.0
 49
1.0
175
     0
142
0.0008202099737533
142
0.0
142
0.0
142
0.0
142
0.0
142
0.0008202099737533
142
0.0
142
0.0
142
0.0
142
0.0
142
1.0
142
0.0
142
0.0
142
0.0
142
0.0
142
1.0
179
     0
144
0.0008202099737533
144
0.0
144
0.0
144
0.0
144
0.0
144
0.0008202099737533
144
0.0
144
0.0
144
0.0
144
0.0
144
1.0
144
0.0
144
0.0
144
0.0
144
0.0
144
1.0
147
0.0008202099737533
147
0.0
147
0.0
147
0.0
147
0.0
147
0.0008202099737533
147
0.0
147
0.0
147
0.0
147
0.0
147
1.0
147
0.0
147
0.0
147
0.0
147
0.0
147
1.0
  0
MATERIAL
  5
24F6
102
{ACAD_XDICTIONARY
360
24F7
102
}
102
{ACAD_REACTORS
330
24F5
102
}
330
24F5
100
AcDbMaterial
  1
ByLayer
 72
     0
 43
0.0008202099737533
 43
0.0
 43
0.0
 43
0.0
 43
0.0
 43
0.0008202099737533
 43
0.0
 43
0.0
 43
0.0
 43
0.0
 43
1.0
 43
0.0
 43
0.0
 43
0.0
 43
0.0
 43
1.0
 77
     0
 47
0.0008202099737533
 47
0.0
 47
0.0
 47
0.0
 47
0.0
 47
0.0008202099737533
 47
0.0
 47
0.0
 47
0.0
 47
0.0
 47
1.0
 47
0.0
 47
0.0
 47
0.0
 47
0.0
 47
1.0
171
     0
 49
0.0008202099737533
 49
0.0
 49
0.0
 49
0.0
 49
0.0
 49
0.0008202099737533
 49
0.0
 49
0.0
 49
0.0
 49
0.0
 49
1.0
 49
0.0
 49
0.0
 49
0.0
 49
0.0
 49
1.0
175
     0
142
0.0008202099737533
142
0.0
142
0.0
142
0.0
142
0.0
142
0.0008202099737533
142
0.0
142
0.0
142
0.0
142
0.0
142
1.0
142
0.0
142
0.0
142
0.0
142
0.0
142
1.0
179
     0
144
0.0008202099737533
144
0.0
144
0.0
144
0.0
144
0.0
144
0.0008202099737533
144
0.0
144
0.0
144
0.0
144
0.0
144
1.0
144
0.0
144
0.0
144
0.0
144
0.0
144
1.0
147
0.0008202099737533
147
0.0
147
0.0
147
0.0
147
0.0
147
0.0008202099737533
147
0.0
147
0.0
147
0.0
147
0.0
147
1.0
147
0.0
147
0.0
147
0.0
147
0.0
147
1.0
  0
MATERIAL
  5
2506
102
{ACAD_XDICTIONARY
360
2507
102
}
102
{ACAD_REACTORS
330
24F5
102
}
330
24F5
100
AcDbMaterial
  1
Global
 72
     0
 43
0.0008202099737533
 43
0.0
 43
0.0
 43
0.0
 43
0.0
 43
0.0008202099737533
 43
0.0
 43
0.0
 43
0.0
 43
0.0
 43
1.0
 43
0.0
 43
0.0
 43
0.0
 43
0.0
 43
1.0
 77
     0
 47
0.0008202099737533
 47
0.0
 47
0.0
 47
0.0
 47
0.0
 47
0.0008202099737533
 47
0.0
 47
0.0
 47
0.0
 47
0.0
 47
1.0
 47
0.0
 47
0.0
 47
0.0
 47
0.0
 47
1.0
171
     0
 49
0.0008202099737533
 49
0.0
 49
0.0
 49
0.0
 49
0.0
 49
0.0008202099737533
 49
0.0
 49
0.0
 49
0.0
 49
0.0
 49
1.0
 49
0.0
 49
0.0
 49
0.0
 49
0.0
 49
1.0
175
     0
142
0.0008202099737533
142
0.0
142
0.0
142
0.0
142
0.0
142
0.0008202099737533
142
0.0
142
0.0
142
0.0
142
0.0
142
1.0
142
0.0
142
0.0
142
0.0
142
0.0
142
1.0
179
     0
144
0.0008202099737533
144
0.0
144
0.0
144
0.0
144
0.0
144
0.0008202099737533
144
0.0
144
0.0
144
0.0
144
0.0
144
1.0
144
0.0
144
0.0
144
0.0
144
0.0
144
1.0
147
0.0008202099737533
147
0.0
147
0.0
147
0.0
147
0.0
147
0.0008202099737533
147
0.0
147
0.0
147
0.0
147
0.0
147
1.0
147
0.0
147
0.0
147
0.0
147
0.0
147
1.0
  0
MLEADERSTYLE
  5
2535
102
{ACAD_REACTORS
330
2534
102
}
330
2534
100
AcDbMLeaderStyle
170
     2
171
     1
172
     0
 90
        2
 40
0.0
 41
0.0
173
     1
 91
-1056964608
340
14
 92
       -2
290
     1
 42
2.0
291
     1
 43
0.36
  3
Standard
 44
4.0
300

342
11
174
     1
178
     6
175
     1
176
     0
 93
-1056964608
 45
4.0
292
     0
297
     0
 46
4.0
 94
-1056964608
 47
1.0
 49
1.0
140
1.0
293
     1
141
0.0
294
     1
177
     0
142
1.0
295
     0
296
     0
143
0.125
1001
ACAD_MLEADERVER
1070
     2
  0
MLINESTYLE
  5
18
102
{ACAD_REACTORS
330
17
102
}
330
17
100
AcDbMlineStyle
  2
STANDARD
 70
     0
  3

 62
   256
 51
90.0
 52
90.0
 71
     2
 49
0.5
 62
   256
  6
BYLAYER
 49
-0.5
 62
   256
  6
BYLAYER
  0
ACDBPLACEHOLDER
  5
F
102
{ACAD_REACTORS
330
E
102
}
330
E
  0
SCALE
  5
2523
102
{ACAD_REACTORS
330
2522
102
}
330
2522
100
AcDbScale
 70
     0
300
1:1
140
1.0
141
1.0
290
     1
  0
SCALE
  5
2524
102
{ACAD_REACTORS
330
2522
102
}
330
2522
100
AcDbScale
 70
     0
300
1:2
140
1.0
141
2.0
290
     0
  0
SCALE
  5
2525
102
{ACAD_REACTORS
330
2522
102
}
330
2522
100
AcDbScale
 70
     0
300
1:4
140
1.0
141
4.0
290
     0
  0
SCALE
  5
2526
102
{ACAD_REACTORS
330
2522
102
}
330
2522
100
AcDbScale
 70
     0
300
1:5
140
1.0
141
5.0
290
     0
  0
SCALE
  5
2527
102
{ACAD_REACTORS
330
2522
102
}
330
2522
100
AcDbScale
 70
     0
300
1:8
140
1.0
141
8.0
290
     0
  0
SCALE
  5
2528
102
{ACAD_REACTORS
330
2522
102
}
330
2522
100
AcDbScale
 70
     0
300
1:10
140
1.0
141
10.0
290
     0
  0
SCALE
  5
2529
102
{ACAD_REACTORS
330
2522
102
}
330
2522
100
AcDbScale
 70
     0
300
1:16
140
1.0
141
16.0
290
     0
  0
SCALE
  5
252A
102
{ACAD_REACTORS
330
2522
102
}
330
2522
100
AcDbScale
 70
     0
300
1:20
140
1.0
141
20.0
290
     0
  0
SCALE
  5
252B
102
{ACAD_REACTORS
330
2522
102
}
330
2522
100
AcDbScale
 70
     0
300
1:30
140
1.0
141
30.0
290
     0
  0
SCALE
  5
252C
102
{ACAD_REACTORS
330
2522
102
}
330
2522
100
AcDbScale
 70
     0
300
1:40
140
1.0
141
40.0
290
     0
  0
SCALE
  5
252D
102
{ACAD_REACTORS
330
2522
102
}
330
2522
100
AcDbScale
 70
     0
300
1:50
140
1.0
141
50.0
290
     0
  0
SCALE
  5
252E
102
{ACAD_REACTORS
330
2522
102
}
330
2522
100
AcDbScale
 70
     0
300
1:100
140
1.0
141
100.0
290
     0
  0
SCALE
  5
252F
102
{ACAD_REACTORS
330
2522
102
}
330
2522
100
AcDbScale
 70
     0
300
2:1
140
2.0
141
1.0
290
     0
  0
SCALE
  5
2530
102
{ACAD_REACTORS
330
2522
102
}
330
2522
100
AcDbScale
 70
     0
300
4:1
140
4.0
141
1.0
290
     0
  0
SCALE
  5
2531
102
{ACAD_REACTORS
330
2522
102
}
330
2522
100
AcDbScale
 70
     0
300
8:1
140
8.0
141
1.0
290
     0
  0
SCALE
  5
2532
102
{ACAD_REACTORS
330
2522
102
}
330
2522
100
AcDbScale
 70
     0
300
10:1
140
10.0
141
1.0
290
     0
  0
SCALE
  5
2533
102
{ACAD_REACTORS
330
2522
102
}
330
2522
100
AcDbScale
 70
     0
300
100:1
140
100.0
141
1.0
290
     0
  0
TABLESTYLE
  5
2521
102
{ACAD_XDICTIONARY
360
25A3
102
}
102
{ACAD_REACTORS
330
2520
102
}
330
2520
100
AcDbTableStyle
  3
Standard
 70
     0
 71
     0
 40
1.5
 41
1.5
280
     0
281
     0
  7
STANDARD
140
4.5
170
     2
 62
     0
 63
     7
283
     0
274
    -2
284
     1
 64
     0
275
    -2
285
     1
 65
     0
276
    -2
286
     1
 66
     0
277
    -2
287
     1
 67
     0
278
    -2
288
     1
 68
     0
279
    -2
289
     1
 69
     0
  7
STANDARD
140
6.0
170
     5
 62
     0
 63
     7
283
     0
274
    -2
284
     1
 64
     0
275
    -2
285
     1
 65
     0
276
    -2
286
     1
 66
     0
277
    -2
287
     1
 67
     0
278
    -2
288
     1
 68
     0
279
    -2
289
     1
 69
     0
  7
STANDARD
140
4.5
170
     5
 62
     0
 63
     7
283
     0
274
    -2
284
     1
 64
     0
275
    -2
285
     1
 65
     0
276
    -2
286
     1
 66
     0
277
    -2
287
     1
 67
     0
278
    -2
288
     1
 68
     0
279
    -2
289
     1
 69
     0
  0
VISUALSTYLE
  5
2514
102
{ACAD_XDICTIONARY
360
317C
102
}
102
{ACAD_REACTORS
330
250E
102
}
330
250E
100
AcDbVisualStyle
  2
2dWireframe
 70
     4
 71
     0
 72
     2
 73
     0
 90
        0
 40
-0.6
 41
-30.0
 62
     5
 63
     7
421
 16777215
 74
     1
 91
        4
 64
     7
 65
   257
 75
     1
175
     1
 42
1.0
 92
        0
 66
   257
 43
1.0
 76
     1
 77
     6
 78
     2
 67
     7
 79
     5
170
     0
171
     0
290
     0
174
     0
 93
        1
 44
0.0
173
     0
291
     0
 45
0.0
1001
ACAD
1000
AcDbSavedByObjectVersion
1070
     0
  0
VISUALSTYLE
  5
2516
102
{ACAD_XDICTIONARY
360
3180
102
}
102
{ACAD_REACTORS
330
250E
102
}
330
250E
100
AcDbVisualStyle
  2
3D Hidden
 70
     6
 71
     1
 72
     2
 73
     2
 90
        0
 40
-0.6
 41
-30.0
 62
     5
 63
     7
421
 16777215
 74
     2
 91
        2
 64
     7
 65
   257
 75
     2
175
     1
 42
40.0
 92
        0
 66
   257
 43
1.0
 76
     1
 77
     6
 78
     2
 67
     7
 79
     3
170
     0
171
     0
290
     0
174
     0
 93
        1
 44
0.0
173
     0
291
     0
 45
0.0
1001
ACAD
1000
AcDbSavedByObjectVersion
1070
     0
  0
VISUALSTYLE
  5
2515
102
{ACAD_XDICTIONARY
360
317E
102
}
102
{ACAD_REACTORS
330
250E
102
}
330
250E
100
AcDbVisualStyle
  2
3dWireframe
 70
     5
 71
     0
 72
     2
 73
     0
 90
        0
 40
-0.6
 41
-30.0
 62
     5
 63
     7
421
 16777215
 74
     1
 91
        4
 64
     7
 65
   257
 75
     1
175
     1
 42
1.0
 92
        0
 66
   257
 43
1.0
 76
     1
 77
     6
 78
     2
 67
     7
 79
     5
170
     0
171
     0
290
     0
174
     0
 93
        1
 44
0.0
173
     0
291
     0
 45
0.0
1001
ACAD
1000
AcDbSavedByObjectVersion
1070
     0
  0
VISUALSTYLE
  5
2513
102
{ACAD_XDICTIONARY
360
317A
102
}
102
{ACAD_REACTORS
330
250E
102
}
330
250E
100
AcDbVisualStyle
  2
Basic
 70
     7
 71
     1
 72
     0
 73
     1
 90
        0
 40
-0.6
 41
-30.0
 62
     5
 63
     7
421
 16777215
 74
     0
 91
        4
 64
     7
 65
   257
 75
     1
175
     1
 42
1.0
 92
        8
 66
     7
 43
1.0
 76
     1
 77
     6
 78
     2
 67
     7
 79
     5
170
     0
171
     0
290
     0
174
     0
 93
        1
 44
0.0
173
     0
291
     1
 45
0.0
1001
ACAD
1000
AcDbSavedByObjectVersion
1070
     0
  0
VISUALSTYLE
  5
251A
102
{ACAD_XDICTIONARY
360
3188
102
}
102
{ACAD_REACTORS
330
250E
102
}
330
250E
100
AcDbVisualStyle
  2
Brighten
 70
    12
 71
     2
 72
     2
 73
     0
 90
        0
 40
-0.6
 41
-30.0
 62
     5
 63
     7
421
 16777215
 74
     1
 91
        4
 64
     7
 65
   257
 75
     1
175
     1
 42
1.0
 92
        8
 66
     7
 43
1.0
 76
     1
 77
     6
 78
     2
 67
     7
 79
     5
170
     0
171
     0
290
     0
174
     0
 93
        1
 44
50.0
173
     0
291
     1
 45
0.0
1001
ACAD
1000
AcDbSavedByObjectVersion
1070
     0
  0
VISUALSTYLE
  5
251E
102
{ACAD_XDICTIONARY
360
3190
102
}
102
{ACAD_REACTORS
330
250E
102
}
330
250E
100
AcDbVisualStyle
  2
ColorChange
 70
    16
 71
     2
 72
     2
 73
     3
 90
        0
 40
-0.6
 41
-30.0
 62
     5
 63
     8
421
  8421504
 74
     1
 91
        4
 64
     7
 65
   257
 75
     1
175
     1
 42
1.0
 92
        8
 66
     8
424
  8421504
 43
1.0
 76
     1
 77
     6
 78
     2
 67
     7
 79
     5
170
     0
171
     0
290
     0
174
     0
 93
        1
 44
0.0
173
     0
291
     1
 45
0.0
1001
ACAD
1000
AcDbSavedByObjectVersion
1070
     0
  0
VISUALSTYLE
  5
2517
102
{ACAD_XDICTIONARY
360
3182
102
}
102
{ACAD_REACTORS
330
250E
102
}
330
250E
100
AcDbVisualStyle
  2
Conceptual
 70
     9
 71
     3
 72
     2
 73
     0
 90
        0
 40
-0.6
 41
-30.0
 62
     5
 63
     7
421
 16777215
 74
     2
 91
        2
 64
     7
 65
   257
 75
     1
175
     1
 42
40.0
 92
        8
 66
     7
 43
1.0
 76
     1
 77
     6
 78
     2
 67
     7
 79
     3
170
     0
171
     0
290
     0
174
     0
 93
        1
 44
0.0
173
     0
291
     0
 45
0.0
1001
ACAD
1000
AcDbSavedByObjectVersion
1070
     0
  0
VISUALSTYLE
  5
2519
102
{ACAD_XDICTIONARY
360
3186
102
}
102
{ACAD_REACTORS
330
250E
102
}
330
250E
100
AcDbVisualStyle
  2
Dim
 70
    11
 71
     2
 72
     2
 73
     0
 90
        0
 40
-0.6
 41
-30.0
 62
     5
 63
     7
421
 16777215
 74
     1
 91
        4
 64
     7
 65
   257
 75
     1
175
     1
 42
1.0
 92
        8
 66
     7
 43
1.0
 76
     1
 77
     6
 78
     2
 67
     7
 79
     5
170
     0
171
     0
290
     0
174
     0
 93
        1
 44
-50.0
173
     0
291
     1
 45
0.0
1001
ACAD
1000
AcDbSavedByObjectVersion
1070
     0
  0
VISUALSTYLE
  5
264E
102
{ACAD_XDICTIONARY
360
31A5
102
}
102
{ACAD_REACTORS
330
250E
102
}
330
250E
100
AcDbVisualStyle
  2
EdgeColorOff
 70
    22
 71
     2
 72
     2
 73
     0
 90
        0
 40
-0.6
 41
-30.0
 62
     5
 63
     7
421
 16777215
 74
     1
 91
        4
 64
     7
 65
   257
 75
     1
175
     1
 42
1.0
 92
        8
 66
     7
 43
1.0
 76
     1
 77
     6
 78
     2
 67
     7
 79
     5
170
     0
171
     0
290
     0
174
     0
 93
        1
 44
0.0
173
     0
291
     1
 45
0.0
1001
ACAD
1000
AcDbSavedByObjectVersion
1070
     0
  0
VISUALSTYLE
  5
251D
102
{ACAD_XDICTIONARY
360
318E
102
}
102
{ACAD_REACTORS
330
250E
102
}
330
250E
100
AcDbVisualStyle
  2
Facepattern
 70
    15
 71
     2
 72
     2
 73
     0
 90
        0
 40
-0.6
 41
-30.0
 62
     5
 63
     7
421
 16777215
 74
     1
 91
        4
 64
     7
 65
   257
 75
     1
175
     1
 42
1.0
 92
        8
 66
     7
 43
1.0
 76
     1
 77
     6
 78
     2
 67
     7
 79
     5
170
     0
171
     0
290
     0
174
     0
 93
        1
 44
0.0
173
     0
291
     1
 45
0.0
1001
ACAD
1000
AcDbSavedByObjectVersion
1070
     0
  0
VISUALSTYLE
  5
250F
102
{ACAD_XDICTIONARY
360
3172
102
}
102
{ACAD_REACTORS
330
250E
102
}
330
250E
100
AcDbVisualStyle
  2
Flat
 70
     0
 71
     2
 72
     1
 73
     1
 90
        2
 40
-0.6
 41
30.0
 62
     5
 63
     7
421
 16777215
 74
     0
 91
        4
 64
     7
 65
   257
 75
     1
175
     1
 42
1.0
 92
        8
 66
     7
 43
1.0
 76
     1
 77
     6
 78
     2
 67
     7
 79
     5
170
     0
171
     0
290
     0
174
     0
 93
       13
 44
0.0
173
     0
291
     1
 45
0.0
1001
ACAD
1000
AcDbSavedByObjectVersion
1070
     0
  0
VISUALSTYLE
  5
2510
102
{ACAD_XDICTIONARY
360
3174
102
}
102
{ACAD_REACTORS
330
250E
102
}
330
250E
100
AcDbVisualStyle
  2
FlatWithEdges
 70
     1
 71
     2
 72
     1
 73
     1
 90
        2
 40
-0.6
 41
30.0
 62
     5
 63
     7
421
 16777215
 74
     1
 91
        4
 64
     7
 65
   257
 75
     1
175
     1
 42
1.0
 92
        0
 66
   257
 43
1.0
 76
     1
 77
     6
 78
     2
 67
     7
 79
     5
170
     0
171
     0
290
     0
174
     0
 93
       13
 44
0.0
173
     0
291
     1
 45
0.0
1001
ACAD
1000
AcDbSavedByObjectVersion
1070
     0
  0
VISUALSTYLE
  5
2511
102
{ACAD_XDICTIONARY
360
3176
102
}
102
{ACAD_REACTORS
330
250E
102
}
330
250E
100
AcDbVisualStyle
  2
Gouraud
 70
     2
 71
     2
 72
     2
 73
     1
 90
        2
 40
-0.6
 41
30.0
 62
     5
 63
     7
421
 16777215
 74
     0
 91
        4
 64
     7
 65
   257
 75
     1
175
     1
 42
1.0
 92
        0
 66
     7
 43
1.0
 76
     1
 77
     6
 78
     2
 67
     7
 79
     5
170
     0
171
     0
290
     0
174
     0
 93
       13
 44
0.0
173
     0
291
     1
 45
0.0
1001
ACAD
1000
AcDbSavedByObjectVersion
1070
     0
  0
VISUALSTYLE
  5
2512
102
{ACAD_XDICTIONARY
360
3178
102
}
102
{ACAD_REACTORS
330
250E
102
}
330
250E
100
AcDbVisualStyle
  2
GouraudWithEdges
 70
     3
 71
     2
 72
     2
 73
     1
 90
        2
 40
-0.6
 41
30.0
 62
     5
 63
     7
421
 16777215
 74
     1
 91
        4
 64
     7
 65
   257
 75
     1
175
     1
 42
1.0
 92
        0
 66
   257
 43
1.0
 76
     1
 77
     6
 78
     2
 67
     7
 79
     5
170
     0
171
     0
290
     0
174
     0
 93
       13
 44
0.0
173
     0
291
     1
 45
0.0
1001
ACAD
1000
AcDbSavedByObjectVersion
1070
     0
  0
VISUALSTYLE
  5
2646
102
{ACAD_XDICTIONARY
360
3195
102
}
102
{ACAD_REACTORS
330
250E
102
}
330
250E
100
AcDbVisualStyle
  2
Hidden
 70
     6
 71
     1
 72
     2
 73
     2
 90
        0
 40
-0.6
 41
-30.0
 62
     5
 63
     7
421
 16777215
 74
     2
 91
        2
 64
     7
 65
   257
 75
     2
175
     1
 42
40.0
 92
        0
 66
   257
 43
1.0
 76
     1
 77
     6
 78
     2
 67
     7
 79
     3
170
     0
171
     0
290
     0
174
     0
 93
        1
 44
0.0
173
     0
291
     0
 45
0.0
1001
ACAD
1000
AcDbSavedByObjectVersion
1070
     0
  0
VISUALSTYLE
  5
264C
102
{ACAD_XDICTIONARY
360
31A1
102
}
102
{ACAD_REACTORS
330
250E
102
}
330
250E
100
AcDbVisualStyle
  2
JitterOff
 70
    20
 71
     2
 72
     2
 73
     0
 90
        0
 40
-0.6
 41
-30.0
 62
     5
 63
     7
421
 16777215
 74
     1
 91
        4
 64
     7
 65
   257
 75
     1
175
     1
 42
1.0
 92
       10
 66
     7
 43
1.0
 76
     1
 77
     6
 78
     2
 67
     7
 79
     5
170
     0
171
     0
290
     0
174
     0
 93
        1
 44
0.0
173
     0
291
     1
 45
0.0
1001
ACAD
1000
AcDbSavedByObjectVersion
1070
     0
  0
VISUALSTYLE
  5
251C
102
{ACAD_XDICTIONARY
360
318C
102
}
102
{ACAD_REACTORS
330
250E
102
}
330
250E
100
AcDbVisualStyle
  2
Linepattern
 70
    14
 71
     2
 72
     2
 73
     0
 90
        0
 40
-0.6
 41
-30.0
 62
     5
 63
     7
421
 16777215
 74
     1
 91
        4
 64
     7
 65
   257
 75
     7
175
     7
 42
1.0
 92
        8
 66
     7
 43
1.0
 76
     1
 77
     6
 78
     2
 67
     7
 79
     5
170
     0
171
     0
290
     0
174
     0
 93
        1
 44
0.0
173
     0
291
     1
 45
0.0
1001
ACAD
1000
AcDbSavedByObjectVersion
1070
     0
  0
VISUALSTYLE
  5
264D
102
{ACAD_XDICTIONARY
360
31A3
102
}
102
{ACAD_REACTORS
330
250E
102
}
330
250E
100
AcDbVisualStyle
  2
OverhangOff
 70
    21
 71
     2
 72
     2
 73
     0
 90
        0
 40
-0.6
 41
-30.0
 62
     5
 63
     7
421
 16777215
 74
     1
 91
        4
 64
     7
 65
   257
 75
     1
175
     1
 42
1.0
 92
        9
 66
     7
 43
1.0
 76
     1
 77
     6
 78
     2
 67
     7
 79
     5
170
     0
171
     0
290
     0
174
     0
 93
        1
 44
0.0
173
     0
291
     1
 45
0.0
1001
ACAD
1000
AcDbSavedByObjectVersion
1070
     0
  0
VISUALSTYLE
  5
2518
102
{ACAD_XDICTIONARY
360
3184
102
}
102
{ACAD_REACTORS
330
250E
102
}
330
250E
100
AcDbVisualStyle
  2
Realistic
 70
     8
 71
     2
 72
     2
 73
     0
 90
        0
 40
-0.6
 41
-30.0
 62
     5
 63
     7
421
 16777215
 74
     1
 91
        0
 64
     7
 65
   257
 75
     1
175
     1
 42
1.0
 92
        8
 66
     8
424
  7895160
 43
1.0
 76
     1
 77
     6
 78
     2
 67
     7
 79
     5
170
     0
171
     0
290
     0
174
     0
 93
       13
 44
0.0
173
     0
291
     0
 45
0.0
1001
ACAD
1000
AcDbSavedByObjectVersion
1070
     0
  0
VISUALSTYLE
  5
264B
102
{ACAD_XDICTIONARY
360
319F
102
}
102
{ACAD_REACTORS
330
250E
102
}
330
250E
100
AcDbVisualStyle
  2
Shaded
 70
    27
 71
     2
 72
     2
 73
     1
 90
        2
 40
-0.6
 41
30.0
 62
     5
 63
     7
421
 16777215
 74
     0
 91
        4
 64
     7
 65
   257
 75
     1
175
     1
 42
1.0
 92
        8
 66
   257
 43
1.0
 76
     1
 77
     6
 78
     2
 67
     8
425
  7895160
 79
     3
170
     0
171
     0
290
     0
174
     0
 93
        5
 44
0.0
173
     0
291
     0
 45
0.0
1001
ACAD
1000
AcDbSavedByObjectVersion
1070
     0
  0
VISUALSTYLE
  5
264A
102
{ACAD_XDICTIONARY
360
319D
102
}
102
{ACAD_REACTORS
330
250E
102
}
330
250E
100
AcDbVisualStyle
  2
Shaded with edges
 70
    26
 71
     2
 72
     2
 73
     1
 90
        2
 40
-0.6
 41
30.0
 62
     5
 63
     7
421
 16777215
 74
     1
 91
       10
 64
     7
 65
   257
 75
     2
175
     1
 42
1.0
 92
        8
 66
   257
 43
1.0
 76
     1
 77
     6
 78
     2
 67
     7
 79
     3
170
     0
171
     0
290
     0
174
     0
 93
        5
 44
0.0
173
     0
291
     0
 45
0.0
1001
ACAD
1000
AcDbSavedByObjectVersion
1070
     0
  0
VISUALSTYLE
  5
2647
102
{ACAD_XDICTIONARY
360
3197
102
}
102
{ACAD_REACTORS
330
250E
102
}
330
250E
100
AcDbVisualStyle
  2
Shades of Gray
 70
    23
 71
     2
 72
     2
 73
     3
 90
        0
 40
-0.6
 41
-30.0
 62
     5
 63
     7
421
 16777215
 74
     2
 91
        2
 64
     7
 65
     7
 75
     1
175
     1
 42
40.0
 92
        8
 66
     7
 43
1.0
 76
     1
 77
     6
 78
     2
 67
     7
 79
     3
170
     0
171
     0
290
     0
174
     0
 93
        1
 44
0.0
173
     0
291
     0
 45
0.0
1001
ACAD
1000
AcDbSavedByObjectVersion
1070
     0
  0
VISUALSTYLE
  5
2648
102
{ACAD_XDICTIONARY
360
3199
102
}
102
{ACAD_REACTORS
330
250E
102
}
330
250E
100
AcDbVisualStyle
  2
Sketchy
 70
    24
 71
     1
 72
     2
 73
     2
 90
        0
 40
-0.6
 41
-30.0
 62
     5
 63
     7
421
 16777215
 74
     2
 91
        2
 64
     7
 65
     7
 75
     1
175
     1
 42
40.0
 92
       11
 66
     7
 43
1.0
 76
     1
 77
     6
 78
     2
 67
     7
 79
     6
170
     0
171
     0
290
     0
174
     0
 93
        1
 44
0.0
173
     0
291
     0
 45
0.0
1001
ACAD
1000
AcDbSavedByObjectVersion
1070
     0
  0
VISUALSTYLE
  5
251B
102
{ACAD_XDICTIONARY
360
318A
102
}
102
{ACAD_REACTORS
330
250E
102
}
330
250E
100
AcDbVisualStyle
  2
Thicken
 70
    13
 71
     2
 72
     2
 73
     0
 90
        0
 40
-0.6
 41
-30.0
 62
     5
 63
     7
421
 16777215
 74
     1
 91
        4
 64
     7
 65
   257
 75
     1
175
     1
 42
1.0
 92
       12
 66
     7
 43
1.0
 76
     1
 77
     6
 78
     2
 67
     7
 79
     5
170
     0
171
     0
290
     0
174
     0
 93
        1
 44
0.0
173
     0
291
     1
 45
0.0
1001
ACAD
1000
AcDbSavedByObjectVersion
1070
     0
  0
VISUALSTYLE
  5
2645
102
{ACAD_XDICTIONARY
360
3193
102
}
102
{ACAD_REACTORS
330
250E
102
}
330
250E
100
AcDbVisualStyle
  2
Wireframe
 70
     5
 71
     0
 72
     2
 73
     0
 90
        0
 40
-0.6
 41
-30.0
 62
     5
 63
     7
421
 16777215
 74
     1
 91
        4
 64
     7
 65
   257
 75
     1
175
     1
 42
1.0
 92
        0
 66
   257
 43
1.0
 76
     1
 77
     6
 78
     2
 67
     7
 79
     3
170
     0
171
     0
290
     0
174
     0
 93
        1
 44
0.0
173
     0
291
     0
 45
0.0
1001
ACAD
1000
AcDbSavedByObjectVersion
1070
     0
  0
VISUALSTYLE
  5
2649
102
{ACAD_XDICTIONARY
360
319B
102
}
102
{ACAD_REACTORS
330
250E
102
}
330
250E
100
AcDbVisualStyle
  2
X-Ray
 70
    25
 71
     2
 72
     2
 73
     1
 90
        1
 40
0.5
 41
-30.0
 62
     5
 63
     7
421
 16777215
 74
     1
 91
        0
 64
     7
 65
   257
 75
     1
175
     1
 42
1.0
 92
        8
 66
     7
 43
1.0
 76
     1
 77
     6
 78
     2
 67
     7
 79
     3
170
     0
171
     0
290
     0
174
     0
 93
       13
 44
0.0
173
     0
291
     0
 45
0.0
1001
ACAD
1000
AcDbSavedByObjectVersion
1070
     0
  0
DICTIONARYVAR
  5
25AE
102
{ACAD_REACTORS
330
86
102
}
330
86
100
DictionaryVariables
280
     0
  1
1:1
  0
DICTIONARYVAR
  5
25AD
102
{ACAD_REACTORS
330
86
102
}
330
86
100
DictionaryVariables
280
     0
  1
STANDARD
  0
DICTIONARYVAR
  5
25AC
102
{ACAD_REACTORS
330
86
102
}
330
86
100
DictionaryVariables
280
     0
  1
STANDARD
  0
DICTIONARYVAR
  5
89
102
{ACAD_REACTORS
330
86
102
}
330
86
100
DictionaryVariables
280
     0
  1
2
  0
DICTIONARYVAR
  5
88
102
{ACAD_REACTORS
330
86
102
}
330
86
100
DictionaryVariables
280
     0
  1
1
  0
DICTIONARYVAR
  5
87
102
{ACAD_REACTORS
330
86
102
}
330
86
100
DictionaryVariables
280
     0
  1
1
  0
DICTIONARYVAR
  5
269C
102
{ACAD_REACTORS
330
86
102
}
330
86
100
DictionaryVariables
280
     0
  1
1
  0
DICTIONARYVAR
  5
269D
102
{ACAD_REACTORS
330
86
102
}
330
86
100
DictionaryVariables
280
     0
  1
15
  0
DICTIONARYVAR
  5
269B
102
{ACAD_REACTORS
330
86
102
}
330
86
100
DictionaryVariables
280
     0
  1
0
  0
DICTIONARYVAR
  5
269A
102
{ACAD_REACTORS
330
86
102
}
330
86
100
DictionaryVariables
280
     0
  1
0
  0
DICTIONARY
  5
4A
102
{ACAD_REACTORS
330
45
102
}
330
45
100
AcDbDictionary
281
     1
  0
XRECORD
  5
258D
102
{ACAD_REACTORS
330
45
102
}
330
45
100
AcDbXrecord
280
     1
 90
-1023410169
  0
XRECORD
  5
429
102
{ACAD_REACTORS
330
427
102
}
330
427
100
AcDbXrecord
280
     1
330
0
  0
DICTIONARY
  5
2698
330
22
100
AcDbDictionary
280
     1
281
     1
  3
ADSK_XREC_LAYOUTTHUMBNAIL
360
2699
  0
DICTIONARY
  5
24FF
330
24FE
100
AcDbDictionary
280
     1
281
     1
  3
ACAD_XREC_ROUNDTRIP
360
3170
  3
BUMPTILE
360
2501
  3
DIFFUSETILE
360
2500
  3
OPACITYTILE
360
2504
  3
REFLECTIONTILE
360
2503
  3
REFRACTIONTILE
360
2505
  3
SPECULARTILE
360
2502
  0
DICTIONARY
  5
24F7
330
24F6
100
AcDbDictionary
280
     1
281
     1
  3
ACAD_XREC_ROUNDTRIP
360
316F
  3
BUMPTILE
360
24F9
  3
DIFFUSETILE
360
24F8
  3
OPACITYTILE
360
24FC
  3
REFLECTIONTILE
360
24FB
  3
REFRACTIONTILE
360
24FD
  3
SPECULARTILE
360
24FA
  0
DICTIONARY
  5
2507
330
2506
100
AcDbDictionary
280
     1
281
     1
  3
ACAD_XREC_ROUNDTRIP
360
3171
  3
BUMPTILE
360
2509
  3
DIFFUSETILE
360
2508
  3
OPACITYTILE
360
250C
  3
REFLECTIONTILE
360
250B
  3
REFRACTIONTILE
360
250D
  3
SPECULARTILE
360
250A
  0
DICTIONARY
  5
25A3
330
2521
100
AcDbDictionary
280
     1
281
     1
  3
ACAD_ROUNDTRIP_2008_TABLESTYLE_CELLSTYLEMAP
360
3168
  3
ACAD_XREC_ROUNDTRIP
360
3192
  0
DICTIONARY
  5
317C
330
2514
100
AcDbDictionary
280
     1
281
     1
  3
ACAD_XREC_ROUNDTRIP
360
317D
  0
DICTIONARY
  5
3180
330
2516
100
AcDbDictionary
280
     1
281
     1
  3
ACAD_XREC_ROUNDTRIP
360
3181
  0
DICTIONARY
  5
317E
330
2515
100
AcDbDictionary
280
     1
281
     1
  3
ACAD_XREC_ROUNDTRIP
360
317F
  0
DICTIONARY
  5
317A
330
2513
100
AcDbDictionary
280
     1
281
     1
  3
ACAD_XREC_ROUNDTRIP
360
317B
  0
DICTIONARY
  5
3188
330
251A
100
AcDbDictionary
280
     1
281
     1
  3
ACAD_XREC_ROUNDTRIP
360
3189
  0
DICTIONARY
  5
3190
330
251E
100
AcDbDictionary
280
     1
281
     1
  3
ACAD_XREC_ROUNDTRIP
360
3191
  0
DICTIONARY
  5
3182
330
2517
100
AcDbDictionary
280
     1
281
     1
  3
ACAD_XREC_ROUNDTRIP
360
3183
  0
DICTIONARY
  5
3186
330
2519
100
AcDbDictionary
280
     1
281
     1
  3
ACAD_XREC_ROUNDTRIP
360
3187
  0
DICTIONARY
  5
31A5
330
264E
100
AcDbDictionary
280
     1
281
     1
  3
ACAD_XREC_ROUNDTRIP
360
31A6
  0
DICTIONARY
  5
318E
330
251D
100
AcDbDictionary
280
     1
281
     1
  3
ACAD_XREC_ROUNDTRIP
360
318F
  0
DICTIONARY
  5
3172
330
250F
100
AcDbDictionary
280
     1
281
     1
  3
ACAD_XREC_ROUNDTRIP
360
3173
  0
DICTIONARY
  5
3174
330
2510
100
AcDbDictionary
280
     1
281
     1
  3
ACAD_XREC_ROUNDTRIP
360
3175
  0
DICTIONARY
  5
3176
330
2511
100
AcDbDictionary
280
     1
281
     1
  3
ACAD_XREC_ROUNDTRIP
360
3177
  0
DICTIONARY
  5
3178
330
2512
100
AcDbDictionary
280
     1
281
     1
  3
ACAD_XREC_ROUNDTRIP
360
3179
  0
DICTIONARY
  5
3195
330
2646
100
AcDbDictionary
280
     1
281
     1
  3
ACAD_XREC_ROUNDTRIP
360
3196
  0
DICTIONARY
  5
31A1
330
264C
100
AcDbDictionary
280
     1
281
     1
  3
ACAD_XREC_ROUNDTRIP
360
31A2
  0
DICTIONARY
  5
318C
330
251C
100
AcDbDictionary
280
     1
281
     1
  3
ACAD_XREC_ROUNDTRIP
360
318D
  0
DICTIONARY
  5
31A3
330
264D
100
AcDbDictionary
280
     1
281
     1
  3
ACAD_XREC_ROUNDTRIP
360
31A4
  0
DICTIONARY
  5
3184
330
2518
100
AcDbDictionary
280
     1
281
     1
  3
ACAD_XREC_ROUNDTRIP
360
3185
  0
DICTIONARY
  5
319F
330
264B
100
AcDbDictionary
280
     1
281
     1
  3
ACAD_XREC_ROUNDTRIP
360
31A0
  0
DICTIONARY
  5
319D
330
264A
100
AcDbDictionary
280
     1
281
     1
  3
ACAD_XREC_ROUNDTRIP
360
319E
  0
DICTIONARY
  5
3197
330
2647
100
AcDbDictionary
280
     1
281
     1
  3
ACAD_XREC_ROUNDTRIP
360
3198
  0
DICTIONARY
  5
3199
330
2648
100
AcDbDictionary
280
     1
281
     1
  3
ACAD_XREC_ROUNDTRIP
360
319A
  0
DICTIONARY
  5
318A
330
251B
100
AcDbDictionary
280
     1
281
     1
  3
ACAD_XREC_ROUNDTRIP
360
318B
  0
DICTIONARY
  5
3193
330
2645
100
AcDbDictionary
280
     1
281
     1
  3
ACAD_XREC_ROUNDTRIP
360
3194
  0
DICTIONARY
  5
319B
330
2649
100
AcDbDictionary
280
     1
281
     1
  3
ACAD_XREC_ROUNDTRIP
360
319C
  0
XRECORD
  5
2699
102
{ACAD_REACTORS
330
2698
102
}
330
2698
100
AcDbXrecord
280
     1
310
28000000000100007100000001000800000000000071000000000000000000000001000000000000FFFFFF0000000000FFFFFF000000000000000000000000000000000000000000000000000000000000000000330000006600000099000000CC000000FF00000000330000333300006633000099330000CC330000FF3300
310
0000660000336600006666000099660000CC660000FF66000000990000339900006699000099990000CC990000FF99000000CC000033CC000066CC000099CC0000CCCC0000FFCC000000FF000033FF000066FF000099FF0000CCFF0000FFFF000000003300330033006600330099003300CC003300FF003300003333003333
310
33006633330099333300CC333300FF33330000663300336633006666330099663300CC663300FF66330000993300339933006699330099993300CC993300FF99330000CC330033CC330066CC330099CC3300CCCC3300FFCC330000FF330033FF330066FF330099FF3300CCFF3300FFFF330000006600330066006600660099
310
006600CC006600FF00660000336600333366006633660099336600CC336600FF33660000666600336666006666660099666600CC666600FF66660000996600339966006699660099996600CC996600FF99660000CC660033CC660066CC660099CC6600CCCC6600FFCC660000FF660033FF660066FF660099FF6600CCFF6600
310
FFFF660000009900330099006600990099009900CC009900FF00990000339900333399006633990099339900CC339900FF33990000669900336699006666990099669900CC669900FF66990000999900339999006699990099999900CC999900FF99990000CC990033CC990066CC990099CC9900CCCC9900FFCC990000FF99
310
0033FF990066FF990099FF9900CCFF9900FFFF99000000CC003300CC006600CC009900CC00CC00CC00FF00CC000033CC003333CC006633CC009933CC00CC33CC00FF33CC000066CC003366CC006666CC009966CC00CC66CC00FF66CC000099CC003399CC006699CC009999CC00CC99CC00FF99CC0000CCCC0033CCCC0066CC
310
CC0099CCCC00CCCCCC00FFCCCC0000FFCC0033FFCC0066FFCC0099FFCC00CCFFCC00FFFFCC000000FF003300FF006600FF009900FF00CC00FF00FF00FF000033FF003333FF006633FF009933FF00CC33FF00FF33FF000066FF003366FF006666FF009966FF00CC66FF00FF66FF000099FF003399FF006699FF009999FF00CC
310
99FF00FF99FF0000CCFF0033CCFF0066CCFF0099CCFF00CCCCFF00FFCCFF0000FFFF0033FFFF0066FFFF0099FFFF00CCFFFF00FFFFFF00000000000D0D0D001A1A1A00282828003535350043434300505050005D5D5D006B6B6B00787878008686860093939300A1A1A100AEAEAE00BBBBBB00C9C9C900D6D6D600E4E4E400
310
F1F1F100FFFFFF000000000000000000000000000000000000000000000000000000000000000000000000000000000000000000000000000000000000000000000000000000000000000000000000000000000000000000000000000000000000000000000000000000000000000000000000000000000000000000000000
310
00000000000000000000000000000000000000000000000000000000000000000000000000000000000000000000000000000000000000000000000000000000000000000000000000000000000000000000000000000000000000000000000000000000000000000000000000000000000000000000000000000000000000
310
00000000000000000000000000000000000000000000000000000000000000000000000000000000000000000000000000000000000000000000000000000000000000000000000000000000000000000000000000000000000000000000000000000000000000000000000000000000000000000000000000000000000000
310
00000000000000000000000000000000000000000000000000000000000000000000000000000000000000000000000000000000000000000000000000000000000000000000000000000000000000000000000000000000000000000000000000000000000000000000000000000000000000000000000000000000000000
310
00000000000000000000000000000000000000000000000000000000000000000000000000000000000000000000000000000000000000000000000000000000000000000000000000000000000000000000000000000000000000000000000000000000000000000000000000000000000000000000000000000000000000
310
00000000000000000000000000000000000000000000000000000000000000000000000000000000000000000000000000000000000000000000000000000000000000000000000000000000000000000000000000000000000000000000000000000000000000000000000000000000000000000000000000000000000000
310
00000000000000000000000000000000000000000000000000000000000000000000000000000000000000000000000000000000000000000000000000000000000000000000000000000000000000000000000000000000000000000000000000000000000000000000000000000000000000000000000000000000000000
310
00000000000000000000000000000000000000000000000000000000000000000000000000000000000000000000000000000000000000000000000000000000000000000000000000000000000000000000000000000000000000000000000000000000000000000000000000000000000000000000000000000000000000
310
00000000000000000000000000000000000000000000000000000000000000000000000000000000000000000000000000000000000000000000000000000000000000000000000000000000000000000000000000000000000000000000000000000000000000000000000000000000000000000000000000000000000000
310
00000000000000000000000000000000000000000000000000000000000000000000000000000000000000000000000000000000000000000000000000000000000000000000000000000000000000000000000000000000000000000000000000000000000000000000000000000000000000000000000000000000000000
310
00000000000000000000000000000000000000000000000000000000000000000000000000000000000000000000000000000000000000000000000000000000000000000000000000000000000000000000000000000000000000000000000000000000000000000000000000000000000000000000000000000000000000
310
00000000000000000000000000000000000000000000000000000000000000000000000000000000000000000000000000000000000000000000000000000000000000000000000000000000000000000000000000000000000000000000000000000000000000000000000000000000000000000000000000000000000000
310
00000000000000000000000000000000000000000000000000000000000000000000000000000000000000000000000000000000000000000000000000000000000000000000000000000000000000000000000000000000000000000000000000000000000000000000000000000000000000000000000000000000000000
310
00000000000000000000000000000000000000000000000000000000000000000000000000000000000000000000000000000000000000000000000000000000000000000000000000000000000000000000000000000000000000000000000000000000000000000000000000000000000000000000000000000000000000
310
00000000000000000000000000000000000000000000000000000000000000000000000000000000000000000000000000000000000000000000000000000000000000000000000000000000000000000000000000000000000000000000000000000000000000000000000000000000000000000000000000000000000000
310
00000000000000000000000000000000000000000000000000000000000000000000000000000000000000000000000000000000000000000000000000000000000000000000000000000000000000000000000000000000000000000000000000000000000000000000000000000000000000000000000000000000000000
310
00000000000000000000000000000000000000000000000000000000000000000000000000000000000000000000000000000000000000000000000000000000000000000000000000000000000000000000000000000000000000000000000000000000000000000000000000000000000000000000000000000000000000
310
00000000000000000000000000000000000000000000000000000000000000000000000000000000000000000000000000000000000000000000000000000000000000000000000000000000000000000000000000000000000000000000000000000000000000000000000000000000000000000000000000000000000000
310
00000000000000000000000000000000000000000000000000000000000000000000000000000000000000000000000000000000000000000000000000000000000000000000000000000000000000000000000000000000000000000000000000000000000000000000000000000000000000000000000000000000000000
310
00000000000000000000000000000000000000000000000000000000000000000000000000000000000000000000000000000000000000000000000000000000000000000000000000000000000000000000000000000000000000000000000000000000000000000000000000000000000000000000000000000000000000
310
00000000000000000000000000000000000000000000000000000000000000000000000000000000000000000000000000000000000000000000000000000000000000000000000000000000000000000000000000000000000000000000000000000000000000000000000000000000000000000000000000000000000000
310
00000000000000000000000000000000000000000000000000000000000000000000000000000000000000000000000000000000000000000000000000000000000000000000000000000000000000000000000000000000000000000000000000000000000000000000000000000000000000000000000000000000000000
310
00000000000000000000000000000000000000000000000000000000000000000000000000000000000000000000000000000000000000000000000000000000000000000000000000000000000000000000000000000000000000000000000000000000000000000000000000000000000000000000000000000000000000
310
00000000000000000000000000000000000000000000000000000000000000000000000000000000000000000000000000000000000000000000000000000000000000000000000000000000000000000000000000000000000000000000000000000000000000000000000000000000000000000000000000000000000000
310
00000000000000000000000000000000000000000000000000000000000000000000000000000000000000000000000000000000000000000000000000000000000000000000000000000000000000000000000000000000000000000000000000000000000000000000000000000000000000000000000000000000000000
310
00000000000000000000000000000000000000000000000000000000000000000000000000000000000000000000000000000000000000000000000000000000000000000000000000000000000000000000000000000000000000000000000000000000000000000000000000000000000000000000000000000000000000
310
00000000000000000000000000000000000000000000000000000000000000000000000000000000000000000000000000000000000000000000000000000000000000000000000000000000000000000000000000000000000000000000000000000000000000000000000000000000000000000000000000000000000000
310
00000000000000000000000000000000000000000000000000000000000000000000000000000000000000000000000000000000000000000000000000000000000000000000000000000000000000000000000000000000000000000000000000000000000000000000000000000000000000000000000000000000000000
310
00000000000000000000000000000000000000000000000000000000000000000000000000000000000000000000000000000000000000000000000000000000000000000000000000000000000000000000000000000000000000000000000000000000000000000000000000000000000000000000000000000000000000
310
00000000000000000000000000000000000000000000000000000000000000000000000000000000000000000000000000000000000000000000000000000000000000000000000000000000000000000000000000000000000000000000000000000000000000000000000000000000000000000000000000000000000000
310
00000000000000000000000000000000000000000000000000000000000000000000000000000000000000000000000000000000000000000000000000000000000000000000000000000000000000000000000000000000000000000000000000000000000000000000000000000000000000000000000000000000000000
310
00000000000000000000000000000000000000000000000000000000000000000000000000000000000000000000000000000000000000000000000000000000000000000000000000000000000000000000000000000000000000000000000000000000000000000000000000000000000000000000000000000000000000
310
00000000000000000000000000000000000000000000000000000000000000000000000000000000000000000000000000000000000000000000000000000000000000000000000000000000000000000000000000000000000000000000000000000000000000000000000000000000000000000000000000000000000000
310
000000000000000000000000000000000000000000000000000000000000000000000000000000000000000000000000000000E2E2E2E2E2E2E2E2E2E2E2E2E2E2E2E2E2E2E2E2E2E2E2E2E2E2E2E2E2E2E2E2E2E2E2E2E2E2E2E2E2E2E2E2E200000000000000000000000000000000000000000000000000000000000000
310
00000000000000000000000000000000000000000000000000000000000000000000000000000000000000000000000000000000000000000000000000000000000000000000000000000000000000000000000000000000000000000000000000000000000000000000000000000000000000000000000000000000000000
310
00000000000000000000000000000000000000000000000000000000000000E2E2E2E2E2E2E2E2E2E2E2E2E2E2E2E2E2E2E2E2E2E2000000000000000000000000000000000000000000000000000000000000000000000000000000000000000000E2E2E2E2E2E2E2E2E2E2E2E2E2E2E2E2E2E2E2E2E2E200000000000000
310
00000000000000000000000000000000000000000000000000000000000000000000000000000000000000000000000000000000000000000000000000000000000000000000000000000000000000000000000000000000000000000000000000000000000000000000000000000000000000000000000000000000000000
310
000000000000000000000000000000000000000000000000000000E2E2E2E2E2E2000000000000E2E2E2E2E2E2E2E2E2E2E2E2E2E2E2E2E2E2E2E2E2E2E2E2E2E2E2E2E2E2E2E2E2E2E2E2E2E2E2E2E2E2E2E2E2E2E2E2E2E2E2E2E2E2E2E2E2E2E2E2E2E2E2E2E2E2E2E2E2E2E2E2E2E2E2E2E2000000000000E2E2E2E2E2
310
00000000000000000000000000000000000000000000000000000000000000000000000000000000000000000000000000000000000000000000000000000000000000000000000000000000000000000000000000000000000000000000000000000000000000000000000000000000000000000000000000000000000000
310
000000000000000000000000000000000000000000000000E2E2E2E2E20000000000E2E2E2E2E2E2E20000000000000000000000000000000000000000000000000000000000000000000000000000000000000000000000000000000000000000000000000000000000000000000000000000000000E2E2E2E2E2E2000000
310
0000E2E2E2E2E2000000000000000000000000000000000000000000000000000000000000000000000000000000000000000000000000000000000000000000000000000000000000000000000000000000000000000000000000000000000000000000000000000000000000000000000000000000000000000000000000
310
0000000000000000000000000000000000000000000000E2E2E20000E2E2E2E2E2E2E2E2000000000000000000000000000000000000000000000000000000000000000000000000000000000000000000000000000000000000000000000000000000000000000000000000000000000000000000000000000000000000E2
310
E2E2E2E2E2E2E2E200E2E2E2E2000000000000000000000000000000000000000000000000000000000000000000000000000000000000000000000000000000000000000000000000000000000000000000000000000000000000000000000000000000000000000000000000000000000000000000000000000000000000
310
00000000000000000000000000000000000000000000E2E2E20000E2E2E200000000000000000000000000000000000000000000000000000000000000000000000000000000000000000000000000000000000000000000000000000000000000000000000000000000000000000000000000000000000000000000000000
310
00000000000000000000E2E2E20000E2E2E200000000000000000000000000000000000000000000000000000000000000000000000000000000000000000000000000000000000000000000000000000000000000000000000000000000000000000000000000000000000000000000000000000000000000000000000000
310
00000000000000000000000000000000000000000000E2E200E2E2E2E2000000000000000000000000000000000000000000000000000000000000000000000000E2E2E2E2E2E2E2E2E2E2E2E2E2E2E2E2E2E2E2E2E2E2E2E2E2E2E2E2E2E2E2E2E2E2E2E2E2E2E2E2E2000000000000000000000000000000000000000000
310
000000000000000000000000000000E2E2E20000E2E2000000000000000000000000000000000000000000000000000000000000000000000000000000000000000000000000000000000000000000000000000000000000000000000000000000000000000000000000000000000000000000000000000000000000000000
310
000000000000000000000000000000000000000000E2E2E2E2E2E20000000000000000000000000000000000000000000000E2E2E2E2E2E2E2E2E2E2E2E2E2E2E2E2E20000000000000000000000000000000000000000000000000000000000000000000000000000000000E2E2E2E2E2E2E2E2E2E2E2E2E2E2E2E2E20000
310
0000000000000000000000000000000000000000E2E2E2E2E2E20000000000000000000000000000000000000000000000000000000000000000000000000000000000000000000000000000000000000000000000000000000000000000000000000000000000000000000000000000000000000000000000000000000000
310
000000000000000000000000000000000000000000E2E200E2E20000000000000000000000000000E2E2E2E2E2E2E2E2E2E2E2E20000000000000000000000000000000000000000000000000000000000000000000000E2E2E2E2E2E2E2E2E2E2E2E2E2E20000000000000000000000000000000000000000000000000000
310
E2E2E2E2E2E2E2E2E2E2E2E20000000000000000000000000000E2E2E2E2E2000000000000000000000000000000000000000000000000000000000000000000000000000000000000000000000000000000000000000000000000000000000000000000000000000000000000000000000000000000000000000000000000
310
000000000000000000000000000000000000000000E2E200E2E200000000000000000000E2E2E2E2E2E20000000000000000000000000000000000000000000000000000000000000000000000000000000000000000000000000000E2E2E2E2E2E2E2E2000000000000000000000000000000000000000000000000000000
310
0000000000000000000000000000E2E2E2E2E2E200000000000000000000E2E200E2E20000000000000000000000000000000000000000000000000000000000000000000000000000000000000000000000000000000000000000000000000000000000000000000000000000000000000000000000000000000000000000
310
000000000000000000000000000000000000000000E2E200E2E2000000000000000000E2E2E2E2E2E2E200000000E2E200000000000000000000000000000000000000000000000000000000000000000000000000000000000000000000000000000000000000000000000000000000000000000000000000000000000000
310
00000000000000000000000000000000000000000000E2E2E2000000000000000000E2E200E2E200000000000000000000000000000000000000000000000000000000000000000000000000000000000000000000000000000000000000000000000000000000000000000000000000000000000000000000000000000000
310
00000000000000000000000000000000000000000000E200E2E20000000000000000E2E2E2E2E20000000000E2E2E2E200000000000000000000000000000000000000000000000000000000000000000000000000000000000000000000000000000000000000000000000000000000000000000000000000000000000000
310
000000000000000000000000000000000000000000000000000000E2E2E20000000000000000E2E200E200000000000000000000000000000000000000000000000000000000000000000000000000000000000000000000000000000000000000000000000000000000000000000000000000000000000000000000000000
310
0000000000000000000000000000000000000000000000E2E2E20000000000000000E2E200E2E20000000000E2E2000000000000000000000000000000000000000000000000000000000000000000000000000000000000000000000000000000000000000000000000000000000000000000000000000000000000000000
310
0000000000000000000000000000000000000000000000000000000000000000E2E20000000000000000E2E2E200000000000000000000000000000000000000000000000000000000000000000000000000000000000000000000000000000000000000000000000000000000000000000000000000000000000000000000
310
0000000000000000000000000000000000000000000000E2E2E20000000000000000E2E200E2E20000000000E2E2000000000000000000000000000000000000000000000000000000000000000000000000000000000000000000000000000000000000000000000000000000000000000000000000000000000000000000
310
000000000000000000000000000000000000000000000000000000000000000000000000E2E20000000000000000E2E2E2000000000000000000000000000000000000000000000000000000000000000000000000000000000000000000000000000000000000000000000000000000000000000000000000000000000000
310
000000000000000000000000000000000000000000000000E2E2E200000000000000E2E200E2E2000000000000E2000000000000000000000000000000000000000000000000000000000000000000000000000000000000000000000000000000000000000000000000000000000000000000000000000000000000000000
310
00000000000000000000000000000000000000000000000000000000000000000000000000000000E20000000000000000E200E2000000000000000000000000000000000000000000000000000000000000000000000000000000000000000000000000000000000000000000000000000000000000000000000000000000
310
00000000000000000000000000000000000000000000000000E2E200000000000000E2E20000E2000000000000E2E20000000000000000000000000000000000000000000000000000000000000000000000C3C3C3C3C3C3C3C3C3C3C3C3C3C3C3C3C3C3C3C3C3C3C3C3C3C3C3C3C3C3C3C3C3C3C3C3C3C3C3C3C3C3C30000
310
00000000000000000000000000000000000000000000000000000000000000000000000000000000000000E2E200000000000000E200E2000000000000000000000000000000000000000000000000000000000000000000000000000000000000000000000000000000000000000000000000000000000000000000000000
310
0000000000000000000000000000000000000000000000000000E2E200000000000000E20000E2E2000000000000E20000000000000000000000000000000000000000C3C3C3C3C3C3C3C3C3C3C3C3C3C3C3C3C300000000000000000000000000000000000000000000000000000000000000000000000000000000000000
310
C3C3C3C3C3C3C3C3C3C3C3C3C3C3C3C3C3000000000000000000000000000000000000000000000000000000000000E2E2000000000000E200E2000000000000000000000000000000000000000000000000000000000000000000000000000000000000000000000000000000000000000000000000000000000000000000
310
000000000000000000000000000000000000000000000000000000E200E2000000000000E20000E200000000000000E20000000000000000000000C3C3C3C3C3C3C3C3C3C30000000000000000000000000000000000000000000000000000000000000000C3C3C3C3C3C3C3C3C3C3C3C3C300000000000000000000000000
310
00000000000000000000000000000000000000C3C3C3C3C3C3C3C3C3C300000000000000000000000000000000000000000000E2000000000000E200E2000000000000000000000000000000000000000000000000000000000000000000000000000000000000000000000000000000000000000000000000000000000000
310
00000000000000000000000000000000000000000000000000000000E200E2000000000000E20000E200000000000000E200000000000000C3C3C3C3C3000000000000000000000000000000C3C3C3C3C3C3C3C3C3C3C3C3C3C3C3C3C3C3C3C3C3C3C3C3C3C3C30000E2E2E2E2E2E2E2E2E20000C3C3C3C3C3C3C3C3C3C3C3
310
C3C3C3C3C3C3C3C3C3C3C3C3C3C3C3C3000000000000000000000000000000C3C3C3C300000000000000000000000000000000000000E2000000000000E200E2000000000000000000000000000000000000000000000000000000000000000000000000000000000000000000000000000000000000000000000000000000
310
0000000000000000000000000000000000000000000000000000000000E200E2000000000000E20000E200000000000000E200000000C3C3C3C30000000000000000C3C3C3C3C3C3C3C3C3C3C3C30000000000E2E2E2E2E2E2E2E2E2E2E2E2E2E2E2E2E2E2E2E2E2E2E2E2000000000000000000E2E2E2E2E2E2E2E2E2E2E2
310
E2E2E2E2E2E2E2E2E2E2E2E2000000000000C3C3C3C3C3C3C3C3C3C3C30000000000000000C3C3C3C3C3000000000000000000000000000000E2000000000000E200E2000000000000000000000000000000000000000000000000000000000000000000000000000000000000000000000000000000000000000000000000
310
00000000000000000000000000000000000000000000000000000000000000E2E2000000000000E20000E200000000000000E2000000C3C3000000000000C3C3C3C3C3C3000000000000000000E2E2E2E2E2E2E2E2000000000000000000000000000000000000000000000000000000000000000000000000000000000000
310
0000000000000000000000000000E2E2E2E2E2E2E2E2E20000000000000000C3C3C3C3C3C3C3000000000000C3C30000000000000000000000000000E2000000000000E200E2000000000000000000000000000000000000000000000000000000000000000000000000000000000000000000000000000000000000000000
310
0000000000000000000000000000000000000000000000000000000000000000E2E2000000000000E20000E200000000000000E200C3C3C30000000000C3C3C3000000000000000000E2E2E2E2E2E2000000000000000000000000000000000000000000000000000000000000000000000000000000000000000000000000
310
00000000000000000000000000000000000000000000000000E2E2E2E2E200000000000000000000C3C3C30000000000C3C300000000000000000000000000E2000000000000E2E200000000000000000000000000000000000000000000000000000000000000000000000000000000000000000000000000000000000000
310
000000000000000000000000000000000000000000000000000000000000000000E200E20000000000E20000E200000000000000E2C3C300000000C3C3C3C300000000000000000000E2E200000000000000000000000000000000000000000000000000000000000000000000000000000000000000000000000000000000
310
0000000000000000000000000000000000000000000000000000000000000000E2E20000000000000000000000C3C3C3C3000000C3C3000000000000000000000000E20000000000E200E200000000000000000000000000000000000000000000000000000000000000000000000000000000000000000000000000000000
310
00000000000000000000000000000000000000000000000000000000000000000000E200E20000000000E20000E200000000000000E2C3C3000000C3C3000000000000000000000000E2E200000000000000000000000000000000000000000000000000000000000000000000000000000000000000000000000000000000
310
000000000000000000000000000000000000000000000000000000000000000000000000E2E2000000000000000000000000C3C3C3000000C3C30000000000000000000000E20000000000E2E20000000000000000000000000000000000000000000000000000000000000000000000000000000000000000000000000000
310
000000000000000000000000000000000000000000000000000000000000000000000000E2E20000000000E2000000E200000000000000C3000000C3C300000000000000000000000000E20000000000000000000000000000C3C32DC300000000000000000000000000000000000000000000000000000000000000000000
310
0000000000000000000000000000000000000000000000000000000000000000C3C32DC300000000E2E200000000000000000000000000C3C30000C3C30000000000000000000000E200000000E200E20000000000000000000000000000000000000000000000000000000000000000000000000000000000000000000000
310
00000000000000000000000000000000000000000000000000000000000000000000000000E200E20000000000E20000E2000000000000C3C3000000C300000000000000000000000000E2E200000000000000000000000000C3C3C3C32DC3C3C3000000000000000000000000000000000000000000000000000000000000
310
0000000000000000000000000000000000000000000000000000000000000000C3C3C3C32DC3C3C300000000E2E200000000000000000000000000C3000000C300000000000000000000E20000000000E2E2000000000000000000000000000000000000000000000000000000000000000000000000000000000000000000
310
000000000000000000000000000000000000000000000000000000000000000000000000000000E2E20000000000E2000000E20000000000C3C30000C3C300000000000000000000000000E2000000000000000000000000000000C3C300002D00C3C300000000000000000000000000000000000000000000000000000000
310
00000000000000000000000000000000000000000000000000000000000000000000C3C300002D00C3C3000000000000E200000000000000000000000000C3C30000C3C3000000000000000000E200000000E200E2000000000000000000000000000000000000000000000000000000000000000000000000000000000000
310
0000000000000000000000000000000000000000000000000000000000000000000000000000000000E2E20000000000E2000000E20000000000C3E200C30000000000000000000000000000E200000000000000000000000000000000C3C300002D0000C3C300000000000000000000000000000000000000000000000000
310
000000000000000000000000000000000000000000000000000000000000000000000000C3C300002D0000C3C3000000000000E20000000000000000000000000000C30000C300000000000000000000E200000000E2E200000000000000000000000000000000000000000000000000000000000000000000000000000000
310
00000000000000000000000000000000000000000000000000000000000000000000000000000000000000E20000000000E2000000E20000000000C3E200C30000000000000000000000000000E200000000000000000000000000000000002D2D2D2D2D2D2D2D2D0000000000000000000000000000000000000000000000
310
00000000000000000000000000000000000000000000000000000000000000000000000000002D2D2D2D2D2D2D2D2D00000000000000E20000000000000000000000000000C30000C3000000000000000000E200000000E200E200000000000000000000000000000000000000000000000000000000000000000000000000
310
0000000000000000000000000000000000000000000000000000000000000000000000000000000000000000E2E20000000000E2000000E200000000C300E2C30000000000000000000000000000E2000000000000000000000000000000000000C3C300002D0000C300000000000000000000000000000000000000000000
310
00000000000000000000000000000000000000000000000000000000000000000000000000000000C3C300002D0000C3C30000000000000000E20000000000000000000000000000C30000C30000000000000000E20000000000E2E20000000000000000000000000000000000000000000000000000000000000000000000
310
00000000000000000000000000000000000000000000000000000000000000000000000000000000000000000000E2E200000000E2000000E200000000C300E200C300000000000000000000000000E200000000000000000000000000000000000000C3C3C3002DC3C3C30000000000000000000000000000000000000000
310
000000000000000000000000000000000000000000000000000000000000000000000000000000000000C3C3C3002DC3C3C300000000000000000000E20000000000000000000000000000C300C3C30000000000000000E200000000E2E2000000000000000000000000000000000000000000000000000000000000000000
310
0000000000000000000000000000000000000000000000000000000000000000000000000000000000000000000000E2E20000000000E2000000E200000000C300C3C30000000000000000000000000000E20000000000000000000000000000000000000000C300C32DC3C300000000000000000000000000000000000000
310
000000000000000000000000000000000000000000000000000000000000000000000000000000000000000000C300C32DC3C3000000000000000000000000E200000000000000000000000000C30000C30000000000000000E200000000E2E200000000000000000000000000000000000000000000000000000000000000
310
00000000000000000000000000000000000000000000000000000000000000000000000000000000000000000000000000E2E20000000000E20000E200000000C30000C30000000000000000000000000000E200000000000000000000000000000000000000000000C3C32DC3000000000000000000000000000000000000
310
000000000000000000000000000000000000000000000000000000000000000000000000000000000000000000000000C3C32DC300000000000000000000000000E20000000000000000000000000000C300C3C30000000000000000E2000000E2E20000000000000000000000000000000000000000000000000000000000
310
000000000000000000000000000000000000000000000000000000000000000000000000000000000000000000000000000000E2E200000000E2000000E200000000C300C3E20000000000000000000000000000E2000000000000000000000000000000000000000000000000000000000000000000000000000000000000
310
0000000000000000000000000000000000000000000000000000000000000000000000000000000000000000000000000000000000000000000000000000000000000000E200000000000000000000000000C30000C30000000000000000E2000000E200E20000000000000000000000000000000000000000000000000000
310
0000000000000000000000000000000000000000000000000000000000000000000000000000000000000000000000000000000000E2E200000000E20000E20000000000C300C30000000000000000000000000000E20000000000000000000000000000000000000000000000000000000000000000000000000000000000
310
00000000000000000000000000000000000000000000000000000000000000000000000000000000000000000000000000000000000000000000000000000000000000000000E200000000000000000000000000C3C300C30000000000000000E200000000E2E2000000000000000000000000000000000000000000000000
310
00000000000000000000000000000000000000000000000000000000000000000000000000000000000000000000000000000000000000E2E200000000E20000E200000000C30000C30000000000000000000000000000E2000000000000000000000000000000000000000000000000000000000000000000000000000000
310
000000000000000000000000000000000000000000000000000000000000000000000000000000000000000000000000000000000000000000000000000000000000000000000000E20000000000000000000000000000C300C30000000000000000E200000000E2E200000000000000000000000000000000000000000000
310
000000000000000000000000000000000000000000000000000000000000000000000000000000000000000000000000000000000000000000E2E200000000E20000E200000000C30000C300000000000000000000000000E20000000000000000000000000000000000000000000000000000000000000000000000000000
310
0000000000000000000000000000000000000000000000000000000000000000000000000000000000000000000000000000000000000000000000000000000000000000000000000000E20000000000000000000000000000C30000C300000000000000E200000000E200E200000000000000000000000000000000000000
310
00000000000000000000000000000000000000000000000000000000000000000000000000000000000000000000000000000000000000000000E200E200000000E20000E200000000C300C3E200000000000000000000000000E2000000000000000000000000000000000000000000000000000000000000000000000000
310
000000000000000000000000000000000000000000000000002D000000000000000000000000000000000000000000000000000000000000000000000000000000000000000000000000000000E200000000000000000000000000C30000C300000000000000E200000000E200E20000000000000000000000000000000000
310
000000000000000000000000000000000000000000000000000000000000000000000000000000000000000000000000000000000000000000000000E2E200000000E2000000E200000000C300C3E200000000000000000000000000E200000000000000000000000000000000000000000000000000000000000000000000
310
0000000000000000000000000000000000000000000000000000002D000000000000000000000000000000000000000000000000000000000000000000000000000000000000000000000000000000E20000000000000000000000000000C300C300000000000000E200000000E200E2000000000000000000000000000000
310
0000000000000000000000000000000000000000000000000000000000000000000000000000000000000000000000000000000000000000000000000000E2E200000000E2000000E200000000C300C3E200000000000000000000000000E20000000000000000000000000000000000000000000000000000000000000000
310
000000000000000000000000000000000000000000000000000000E2E22DE2E200000000000000000000000000000000000000000000000000000000000000000000000000000000000000000000000000E20000000000000000000000000000C300C300000000000000E200000000E200E200000000000000000000000000
310
00000000000000000000000000000000000000000000000000000000000000000000000000000000000000000000000000000000000000000000000000000000E2E200000000E2000000E200000000C300C3E200000000000000000000000000E2000000000000000000000000000000000000000000000000000000000000
310
00000000000000000000000000000000000000000000000000000000E200E22DE200E2000000000000000000000000000000000000000000000000000000000000000000000000000000000000000000000000E20000000000000000000000000000C300C300000000000000E200000000E200E20000000000000000000000
310
000000000000000000000000000000000000000000000000000000000000000000000000000000000000000000000000000000000000000000000000000000000000E2E200000000E2000000E200000000C300C30000000000000000000000000000E200000000000000000000000000000000000000000000000000000000
310
0000000000000000000000000000000000000000000000000000000000E2E2E2002DE2E2E2000000000000000000000000000000000000000000000000000000000000000000000000000000000000000000000000E20000000000000000000000000000C300C30000000000000000E2000000E200E2000000000000000000
310
0000000000000000000000000000000000000000000000000000000000000000000000000000000000000000000000000000000000000000000000000000000000000000E2E200000000E2000000E200000000C300C30000000000000000000000000000E20000000000000000000000000000000000000000000000000000
310
00000000000000000000000000000000000000000000000000000000002D2D2D2D2D2D2D2D2D2D2D2D00000000000000000000000000000000000000000000000000000000000000000000000000000000000000000000E20000000000000000000000000000C300C30000000000000000E2000000E200E200000000000000
310
00000000000000000000000000000000000000000000000000000000000000000000000000000000000000000000000000000000000000000000000000000000000000000000E2E200000000E2000000E200000000C300C30000000000000000000000000000E2000000000000000000000000000000000000000000000000
310
000000000000000000000000000000000000000000000000000000000000000000E2E200002D00E2E2000000000000000000000000000000000000000000000000000000000000000000000000000000000000000000000000E20000000000000000000000000000C300C30000000000000000E2000000E200E20000000000
310
000000000000000000000000000000000000000000000000000000000000000000000000000000000000000000000000000000000000000000000000000000000000000000000000E2E200000000E2000000E200000000C300C3E200000000000000000000000000E200000000000000000000000000000000000000000000
310
000000000000000000000000000000000000000000000000000000000000000000000000E2E2002DE200E2000000000000000000000000000000000000000000000000000000000000000000000000000000000000000000000000E20000000000000000000000000000C300C30000000000000000E2000000E200E2000000
310
0000000000000000000000000000000000000000000000000000000000000000000000000000000000000000000000000000000000000000000000000000000000000000000000000000E2E200000000E2000000E200000000C300C3E200000000000000000000000000E20000000000000000000000000000000000000000
310
000000000000000000000000000000000000000000000000000000000000000000000000000000E2E22DE2E200000000000000000000000000000000000000000000000000000000000000000000000000000000000000000000000000E20000000000000000000000000000C300C300000000000000E200000000E200E200
310
00000000000000000000000000000000000000000000000000000000000000000000000000000000000000000000000000000000000000000000000000000000000000000000000000000000E2E200000000E2000000E200000000C300C3E200000000000000000000000000E2000000000000000000000000000000000000
310
000000000000000000000000000000000000000000000000000000000000000000000000000000000000E22DE20000000000000000000000000000000000000000000000000000000000000000000000000000000000000000000000000000E20000000000000000000000000000C300C300000000000000E200000000E200
310
E20000000000000000000000000000000000000000000000000000000000000000000000000000000000000000000000000000000000000000000000000000000000000000000000000000000000E2E200000000E2000000E200000000C300C3E200000000000000000000000000E200000000000000000000000000000000
310
0000000000000000000000000000000000000000000000000000000000000000000000000000000000000000002D000000000000000000000000000000000000000000000000000000000000000000000000000000000000000000000000000000E20000000000000000000000000000C300C300000000000000E200000000
310
E200E2000000000000000000000000000000000000000000000000000000000000000000000000000000000000000000000000000000000000000000000000000000000000000000000000000000000000E2E200000000E20000E200000000C300C3E200000000000000000000000000E20000000000000000000000000000
310
00000000000000000000000000000000000000000000000000000000000000000000000000000000000000000000002D000000000000000000000000000000000000000000000000000000000000000000000000000000000000000000000000000000E200000000000000000000000000C30000C300000000000000E20000
310
0000E200E2000000000000000000000000000000000000000000000000000000000000000000000000000000000000000000000000000000000000000000000000000000000000000000000000000000000000E2E200000000E20000E200000000C30000C300000000000000000000000000E2000000000000000000000000
310
00000000000000000000000000000000000000000000000000000000000000000000000000000000000000000000000000000000000000000000000000000000000000000000000000000000000000000000000000000000000000000000000000000000E20000000000000000000000000000C30000C300000000000000E2
310
00000000E2E200000000000000000000000000000000000000000000000000000000000000000000000000000000000000000000000000000000000000000000000000000000000000000000000000000000000000E2E200000000E20000E200000000C30000C30000000000000000000000000000E2000000000000000000
310
000000000000000000000000000000000000000000000000000000000000000000000000000000000000000000000000000000000000000000000000000000000000000000000000000000000000000000000000000000000000000000000000000000000000E20000000000000000000000000000C300C300000000000000
310
00E200000000E2E200000000000000000000000000000000000000000000000000000000000000000000000000000000000000000000000000000000000000000000000000000000000000000000000000000000000000E2E200000000E2000000E200000000C300C30000000000000000000000000000E200000000000000
310
0000000000000000000000000000000000000000000000000000000000000000000000000000000000000000000000000000000000000000000000000000000000000000000000000000000000000000000000000000000000000000000000000000000000000000E200000000000000000000000000C30000C30000000000
310
000000E2000000E200E200000000000000000000000000000000000000000000000000000000000000000000000000000000000000000000000000000000000000000000000000000000000000000000000000000000000000E2E200000000E2000000E200000000C300C3C30000000000000000000000000000E200000000
310
00000000000000000000000000000000000000000000000000000000000000000000000000000000000000000000000000000000000000000000000000000000000000000000000000000000000000000000000000000000000000000000000000000000000000000000E200000000000000000000000000C30000C3000000
310
0000000000E2000000E200E200000000000000000000000000000000000000000000000000000000000000000000000000000000000000000000000000000000000000000000000000000000000000000000000000000000000000E2E20000000000E20000E200000000C30000C30000000000000000000000000000E20000
310
0000000000000000000000000000000000000000C3C32DC3000000000000000000000000000000000000000000000000000000000000000000000000000000000000000000000000000000000000000000000000000000000000C3C32DC300000000000000000000000000E200000000000000000000000000C30000C30000
310
000000000000E200000000E2E20000000000000000000000000000000000000000000000000000000000000000000000000000000000000000000000000000000000000000000000000000000000000000000000000000000000000000E200E200000000E2000000E200000000C300E2C30000000000000000000000000000
310
E20000000000000000000000000000000000000000C3C3C32DC3C3C3000000000000000000000000000000000000000000000000000000000000000000000000000000000000000000000000000000000000000000000000000000C3C3C32DC3C3C30000000000000000000000E200000000000000000000000000C30000C3
310
0000000000000000E200000000E2E2000000000000000000000000000000000000000000000000000000000000000000000000000000000000000000000000000000000000000000000000000000000000000000000000000000000000000000E2E200000000E2000000E200000000C30000E2C30000000000000000000000
310
0000E200000000000000000000000000000000000000C3C300002D00C3C30000000000000000000000000000000000000000000000000000000000000000000000000000000000000000000000000000000000000000000000000000C3C300002D00C3C300000000000000000000E200000000000000000000000000C30000
310
C3C30000000000000000E200000000E2E2000000000000000000000000000000000000000000000000000000000000000000000000000000000000000000000000000000000000000000000000000000000000000000000000000000000000000000E2E20000000000E2000000E200000000C300E2C3000000000000000000
310
0000000000E2000000000000000000000000000000000000C3C300002D0000C3C300000000000000000000000000000000000000000000000000000000000000000000000000000000000000000000000000000000000000000000000000C3C300002D0000C3C30000000000000000E20000000000000000000000000000C3
310
0000C30000000000000000E20000000000E2E200000000000000000000000000000000000000000000000000000000000000000000000000000000000000000000000000000000000000000000000000000000000000000000000000000000000000000000E20000000000E2000000E20000000000C3E200C3000000000000
310
0000000000000000E200000000000000000000000000000000002D2D2D2D2D2D2D2D2D000000000000000000000000000000000000000000000000000000000000000000000000000000000000000000000000000000000000000000000000002D2D2D2D2D2D2D2D2D00000000000000E20000000000000000000000000000
310
C30000C3000000000000000000E200000000E200E200000000000000000000000000000000000000000000000000000000000000000000000000000000000000000000000000000000000000000000000000000000000000000000000000000000000000000000E2E20000000000E2000000E20000000000C3E200C3000000
310
0000000000000000000000E200000000000000000000000000000000C3C300002D0000C30000000000000000000000000000000000000000000000000000000000000000000000000000000000000000000000000000000000000000000000000000C3C300002D0000C3C3000000000000E200000000000000000000000000
310
00C30000C300000000000000000000E200000000E2E20000000000000000000000000000000000000000000000000000000000000000000000000000000000000000000000000000000000000000000000000000000000000000000000000000000000000000000000E2E20000000000E2000000E2000000000000C30000C3
310
C300000000000000000000000000E2000000000000000000000000000000C3C3C3002DC3C3C30000000000000000000000000000000000000000000000000000000000000000000000000000000000000000000000000000000000000000000000000000C3C3C3002DC3C3C3000000000000E2000000000000000000000000
310
00C3C30000C300000000000000000000E200000000E200E20000000000000000000000000000000000000000000000000000000000000000000000000000000000000000000000000000000000000000000000000000000000000000000000000000000000000000000000E200E20000000000E2000000E20000000000C3C3
310
000000C3C3000000000000000000000000E2000000000000000000000000000000C300C32DC3C300000000000000000000000000000000000000000000000000000000000000000000000000000000000000000000000000000000000000000000000000000000C300C32DC3C3000000000000E20000000000000000000000
310
00C3C3000000C300000000000000000000E20000000000E2E200000000000000000000000000000000000000000000000000000000000000000000000000000000000000000000000000000000000000000000000000000000000000000000000000000000000000000000000000E2E20000000000E2000000E20000000000
310
0000C3C3000000C3C30000000000000000000000E2E20000000000000000000000000000C3C32DC3000000000000000000000000000000000000000000000000000000000000000000000000000000000000000000000000000000000000000000000000000000000000C3C32DC30000000000E2E200000000000000000000
310
00C3C3000000C3C30000000000000000000000E200000000E200E200000000000000000000000000000000000000000000000000000000000000000000000000000000000000000000000000000000000000000000000000000000000000000000000000000000000000000000000000E200E20000000000E2000000E20000
310
00000000E200C300000000C3C30000000000000000000000E2000000000000000000000000000000000000000000000000000000000000000000000000000000000000000000000000000000000000000000000000000000000000000000000000000000000000000000000000000000000000E2E200000000000000000000
310
00C3C3000000C3C3000000000000000000000000E20000000000E2E2000000000000000000000000000000000000000000000000000000000000000000000000000000000000000000000000000000000000000000000000000000000000000000000000000000000000000000000000000000E200E20000000000E2000000
310
E2000000000000E200C3C300000000C3C300000000000000000000E2E2E2E2E2000000000000000000000000000000000000000000000000000000000000000000000000000000000000000000000000000000000000000000000000000000000000000000000000000000000000000000E2E2E2E200000000000000000000
310
C3C3C3000000C3C3C3000000000000000000000000E20000000000E200E200000000000000000000000000000000000000000000000000000000000000000000000000000000000000000000000000000000000000000000000000000000000000000000000000000000000000000000000000000000E200E20000000000E2
310
0000E200000000000000E20000C3C3C3000000C3C3C3C3C300000000000000000000E2E2E2000000000000000000000000000000000000000000000000000000000000000000000000000000000000000000000000000000000000000000000000000000000000000000000000000000E2E2E200000000000000000000C3C3
310
C3C300000000C3C3C300000000000000000000000000E20000000000E200E2000000000000000000000000000000000000000000000000000000000000000000000000000000000000000000000000000000000000000000000000000000000000000000000000000000000000000000000000000000000000E200E2000000
310
0000E20000E200000000000000E2000000C3C3C3000000000000C3C3C3C3C3C3C3000000000000E2E2E2E2E2E2E2E2E2000000000000000000000000000000000000000000000000000000000000000000000000000000000000000000000000000000000000000000E2E2E2E2E2E2E2E2E2000000000000C3C3C3C3C3C3C3
310
0000000000C3C3C3C30000000000000000000000000000E20000000000E200E20000000000000000000000000000000000000000000000000000000000000000000000000000000000000000000000000000000000000000000000000000000000000000000000000000000000000000000000000000000000000000E2E200
310
0000000000E20000E200000000000000E20000000000C3C3C300000000000000000000C3C3C3C3C3C3C3C3C3C3C3C3C3C300E2E2E2E2E2E2E2E2E2E2E2E2E2E2E2E2E2E2E2E2E2E2E2E2E2E2E2E2E2E2E2E2E2E2E2E2E2E2E2E2E2E2E2E2E2E2E2E2E2E2E2E2E2E2E2E2E200C3C3C3C3C3C3C3C3C3C3C3C3C3C30000000000
310
0000000000C3C30000000000000000000000000000000000E2000000000000E200E20000000000000000000000000000000000000000000000000000000000000000000000000000000000000000000000000000000000000000000000000000000000000000000000000000000000000000000000000000000000000000E2
310
00E2000000000000E20000E200000000000000E2E2000000000000C3C3C3C3C3C3C300000000000000000000000000000000C3C3C3C3C3C3C3C3C3C3C3C3C3C3C3C3C3C3C3C3C3C3C3C3C3C3C3C3C3C3C3C3C3C3C3C3C3C3C3C3C3C3C3C3C3C3C3C3C3C3C3C3C3C3C3C3C3C3C3C3C300000000000000000000000000000000
310
C3C3C3C3C3C3C3000000000000000000000000000000000000E2000000000000E200E20000000000000000000000000000000000000000000000000000000000000000000000000000000000000000000000000000000000000000000000000000000000000000000000000000000000000000000000000000000000000000
310
0000E200E2000000000000E20000E20000000000000000E20000000000000000000000C3C3C3C3C3C3C3C3C3C30000000000000000000000000000000000000000000000000000000000000000000000000000000000000000000000000000000000000000000000000000000000000000000000000000C3C3C3C3C3C3C3C3
310
C3C3000000000000000000000000000000000000000000000000E20000000000E2E200E200000000000000000000000000000000000000000000000000000000000000000000000000000000000000000000000000000000000000000000000000000000000000000000000000000000000000000000000000000000000000
310
0000000000E200E2000000000000E20000E2E200000000000000E20000000000000000000000000000000000000000C3C3C3C3C3C3C3C3C3C3C3C3C3C3C3C3C3C3C3C3C3C3C3C30000000000000000000000000000000000000000000000000000C3C3C3C3C3C3C3C3C3C3C3C3C3C3C3C3C3C3C3C3C3C3C3C3000000000000
310
0000000000000000000000000000000000000000000000000000E2E20000000000E20000E2000000000000000000000000000000000000000000000000000000000000000000000000000000000000000000000000000000000000000000000000000000000000000000000000000000000000000000000000000000000000
310
0000000000000000E200E2000000000000E2E20000E200000000000000E200000000000000000000000000000000000000000000000000000000000000000000000000000000000000C3C3C3C3C3C3C3C3C3C3C3C3C3C3C3C3C3C3C3C3C3C3C3C3C3C300000000000000000000000000000000000000000000000000000000
310
000000000000000000000000000000000000000000000000000000E2000000000000E20000E20000000000000000000000000000000000000000000000000000000000000000000000000000000000000000000000000000000000000000000000000000000000000000000000000000000000000000000000000000000000
310
0000000000000000000000E200E200000000000000E2E2E2E2E2000000000000E2E2000000000000000000000000000000000000000000000000000000000000000000000000000000000000000000000000000000000000000000000000000000000000000000000000000000000000000000000000000000000000000000
310
0000000000000000000000000000000000000000000000000000E2E2E200000000000000E200E200000000000000000000000000000000000000000000000000000000000000000000000000000000000000000000000000000000000000000000000000000000000000000000000000000000000000000000000000000000
310
0000000000000000000000000000E200E2000000000000000000E2E2E2E2000000000000E2E20000000000000000000000000000000000000000000000000000000000000000000000000000000000000000000000000000000000000000000000000000000000000000000000000000000000000000000000000000000000
310
00000000000000000000000000000000000000000000000000E2E2E2000000000000000000E200E2000000000000000000000000000000000000000000000000000000000000000000000000000000000000000000000000000000000000000000000000000000000000000000000000000000000000000000000000000000
310
0000000000000000000000000000000000E2E2E2E200000000000000000000E2E2E2E20000000000E2E200000000000000000000000000000000000000000000000000000000000000000000000000000000000000000000000000000000000000000000000000000000000000000000000000000000000000000000000000
310
000000000000000000000000000000000000000000000000E2E2E200000000000000000000E2E2E2E20000000000000000000000000000000000000000000000000000000000000000000000000000000000000000000000000000000000000000000000000000000000000000000000000000000000000000000000000000
310
000000000000000000000000000000000000000000E200E2E20000000000000000000000E2E2E2E200000000E2E2000000000000000000000000000000000000000000000000000000000000000000000000000000000000000000000000000000000000000000000000000000000000000000000000000000000000000000
310
0000000000000000000000000000000000000000000000E2E2E20000000000000000000000E2E200E20000000000000000000000000000000000000000000000000000000000000000000000000000000000000000000000000000000000000000000000000000000000000000000000000000000000000000000000000000
310
000000000000000000000000000000000000000000000000E20000E2E2000000000000000000000000E2E2E2E2000000E2E2E200000000000000000000000000000000000000000000000000000000000000000000000000000000000000000000000000000000000000000000000000000000000000000000000000000000
310
00000000000000000000000000000000000000000000E2E2E2000000000000000000000000E2E20000E200000000000000000000000000000000000000000000000000000000000000000000000000000000000000000000000000000000000000000000000000000000000000000000000000000000000000000000000000
310
000000000000000000000000000000000000000000000000000000E2E20000E2E200000000000000000000000000E2E2E2E2E2E2000000000000000000000000000000000000000000000000000000000000000000000000000000000000000000000000000000000000000000000000000000000000000000000000000000
310
000000000000000000000000000000000000E2E2E2E2E2E200000000000000000000000000E2E200E2E2E2000000000000000000000000000000000000000000000000000000000000000000000000000000000000000000000000000000000000000000000000000000000000000000000000000000000000000000000000
310
00000000000000000000000000000000000000000000000000000000000000E2E2E200E2E20000000000000000000000000000000000E2E2E2E2E2E2E2E20000000000000000000000000000000000000000000000000000000000000000000000000000000000000000000000000000000000000000000000000000000000
310
0000000000000000000000E2E2E2E2E2E2E2E2E20000000000000000000000000000000000E2E200E2E200000000000000000000000000000000000000000000000000000000000000000000000000000000000000000000000000000000000000000000000000000000000000000000000000000000000000000000000000
310
000000000000000000000000000000000000000000000000000000000000000000000000E2E200E2E2E200000000000000000000000000000000000000000000E2E2E2E2E2E2E2E2E2E2E2E2E2E2E2E2E2E2E2E2E2E2E2E2E2E2E2E2E2E2E2E2E2E2E2E2E2E2E2E2E2E2E2E2E2E2E2E2E2E2E2E2E2E2E2E2E2E2E2E2E2E2E2
310
E2E2E2E2E2E2E2E2E2E2E2E2E20000000000000000000000000000000000000000000000E2E2E200E2E200000000000000000000000000000000000000000000000000000000000000000000000000000000000000000000000000000000000000000000000000000000000000000000000000000000000000000000000000
310
00000000000000000000000000000000000000000000000000000000000000000000000000000000E2E2E200E2E2E20000000000000000000000000000000000000000000000000000000000000000000000000000000000000000000000000000000000000000000000000000000000000000000000000000000000000000
310
00000000000000000000000000000000000000000000000000000000000000000000E2E2E2E200E2E2E200000000000000000000000000000000000000000000000000000000000000000000000000000000000000000000000000000000000000000000000000000000000000000000000000000000000000000000000000
310
000000000000000000000000000000000000000000000000000000000000000000000000000000000000000000E2E20000E2E2E2E20000000000000000000000000000000000000000000000000000000000000000000000000000000000000000000000000000000000000000000000000000000000000000000000000000
310
000000000000000000000000000000000000000000000000000000000000000000E2E2E2000000E2E20000000000000000000000000000000000000000000000000000000000000000000000000000000000000000000000000000000000000000000000000000000000000000000000000000000000000000000000000000
310
00000000000000000000000000000000000000000000000000000000000000000000000000000000000000000000000000E2E2E2E20000E2E2E2E2E2E2E2E200000000000000000000000000000000000000000000000000000000000000000000000000000000000000000000000000000000000000000000000000000000
310
000000000000000000000000000000000000000000000000000000E2E2E2E2E2E2E2E20000E2E2E2E20000000000000000000000000000000000000000000000000000000000000000000000000000000000000000000000000000000000000000000000000000000000000000000000000000000000000000000000000000
310
00000000000000000000000000000000000000000000000000000000000000000000000000000000000000000000000000000000000000E2E2E2E2E20000000000E2E2E2E2E2E2E2E2E2E2E2E2E2E2000000000000000000000000000000000000000000000000000000000000000000000000000000000000000000000000
310
000000000000000000000000000000E2E2E2E2E2E2E2E2E2E2E2E2E2E200000000E2E2E2E2E2E200000000000000000000000000000000000000000000000000000000000000000000000000000000000000000000000000000000000000000000000000000000000000000000000000000000000000000000000000000000
310
0000000000000000000000000000000000000000000000000000000000000000000000000000000000000000000000000000000000000000000000000000E2E2E2E2E2E2E2E2E2E2E20000000000000000E2E2E2E2E2E2E2E2E2E2E2E2E2E2E2E2E2E2E2E2E2E2E2E2E2E2E2E2E2E2E2E2E2E2E2E2E2E2E2E2E2E2E2E2E2E2
310
E2E2E2E2E2E2E2E2E2E2E2E2E2E2E2E2E20000000000000000E2E2E2E2E2E2E2E2E2E20000000000000000000000000000000000000000000000000000000000000000000000000000000000000000000000000000000000000000000000000000000000000000000000000000000000000000000000000000000000000000
310
000000000000000000000000000000000000000000000000000000000000000000000000000000000000000000000000000000000000000000000000000000000000000000000000000000E2E2E2E2E2E2E2E2E2E2E2E2E2E2E2E2E2E2E2E2E2E2E2E2E2E2E2E2E2E200000000000000000000000000000000000000E2E2E2
310
E2E2E2E2E2E2E2E2E2E2E2E2E2E2E2E2E2E2E2E2E2E2E2E2E2E2E200000000000000000000000000000000000000000000000000000000000000000000000000000000000000000000000000000000000000000000000000000000000000000000000000000000000000000000000000000000000000000000000000000000
310
0000000000000000000000000000000000000000000000000000000000000000000000000000000000000000000000000000000000000000000000000000000000000000000000000000000000000000000000000000000000000000000000000000000000000000000000E2E2E2E2E2E2E2E2E2E2E2E2E2E2E2E2E2E2E200
310
00000000000000000000000000000000000000000000000000000000000000000000000000000000000000000000000000000000000000000000000000000000000000000000000000000000000000000000000000000000000000000000000000000000000000000000000000000000000000000000000000000000000000
310
00000000000000000000000000000000000000000000000000000000000000000000000000000000000000000000000000000000000000000000000000000000000000000000000000000000000000000000000000000000000000000000000000000000000000000000000000000000000000000000000000000000000000
310
00000000000000000000000000000000000000000000000000000000000000000000000000000000000000000000000000000000000000000000000000000000000000000000000000000000000000000000000000000000000000000000000000000000000000000000000000000000000000000000000000000000000000
310
00000000000000000000000000000000000000000000000000000000000000000000000000000000000000000000000000000000000000000000000000000000000000000000000000000000000000000000000000000000000000000000000000000000000000000000000000000000000000000000000000000000000000
310
00000000000000000000000000000000000000000000000000000000000000000000000000000000000000000000000000000000000000000000000000000000000000000000000000000000000000000000000000000000000000000000000000000000000000000000000000000000000000000000000000000000000000
310
00000000000000000000000000000000000000000000000000000000000000000000000000000000000000000000000000000000000000000000000000000000000000000000000000000000000000000000000000000000000000000000000000000000000000000000000000000000000000000000000000000000000000
310
00000000000000000000000000000000000000000000000000000000000000000000000000000000000000000000000000000000000000000000000000000000000000000000000000000000000000000000000000000000000000000000000000000000000000000000000000000000000000000000000000000000000000
310
00000000000000000000000000000000000000000000000000000000000000000000000000000000000000000000000000000000000000000000000000000000000000000000000000000000000000000000000000000000000000000000000000000000000000000000000000000000000000000000000000000000000000
310
00000000000000000000000000000000000000000000000000000000000000000000000000000000000000000000000000000000000000000000000000000000000000000000000000000000000000000000000000000000000000000000000000000000000000000000000000000000000000000000000000000000000000
310
00000000000000000000000000000000000000000000000000000000000000000000000000000000000000000000000000000000000000000000000000000000000000000000000000000000000000000000000000000000000000000000000000000000000000000000000000000000000000000000000000000000000000
310
00000000000000000000000000000000000000000000000000000000000000000000000000000000000000000000000000000000000000000000000000000000000000000000000000000000000000000000000000000000000000000000000000000000000000000000000000000000000000000000000000000000000000
310
00000000000000000000000000000000000000000000000000000000000000000000000000000000000000000000000000000000000000000000000000000000000000000000000000000000000000000000000000000000000000000000000000000000000000000000000000000000000000000000000000000000000000
310
00000000000000000000000000000000000000000000000000000000000000000000000000000000000000000000000000000000000000000000000000000000000000000000000000000000000000000000000000000000000000000000000000000000000000000000000000000000000000000000000000000000000000
310
00000000000000000000000000000000000000000000000000000000000000000000000000000000000000000000000000000000000000000000000000000000000000000000000000000000000000000000000000000000000000000000000000000000000000000000000000000000000000000000000000000000000000
310
00000000000000000000000000000000000000000000000000000000000000000000000000000000000000000000000000000000000000000000000000000000000000000000000000000000000000000000000000000000000000000000000000000000000000000000000000000000000000000000000000000000000000
310
00000000000000000000000000000000000000000000000000000000000000000000000000000000000000000000000000000000000000000000000000000000000000000000000000000000000000000000000000000000000000000000000000000000000000000000000000000000000000000000000000000000000000
310
00000000000000000000000000000000000000000000000000000000000000000000000000000000000000000000000000000000000000000000000000000000000000000000000000000000000000000000000000000000000000000000000000000000000000000000000000000000000000000000000000000000000000
310
00000000000000000000000000000000000000000000000000000000000000000000000000000000000000000000000000000000000000000000000000000000000000000000000000000000000000000000000000000000000000000000000000000000000000000000000000000000000000000000000000000000000000
310
00000000000000000000000000000000000000000000000000000000000000000000000000000000000000000000000000000000000000000000000000000000000000000000000000000000000000000000000000000000000000000000000000000000000000000000000000000000000000000000000000000000000000
310
00000000000000000000000000000000000000000000000000000000000000000000000000000000000000000000000000000000000000000000000000000000000000000000000000000000000000000000000000000000000000000000000000000000000000000000000000000000000000000000000000000000000000
310
00000000000000000000000000000000000000000000000000000000000000000000000000000000000000000000000000000000000000000000000000000000000000000000000000000000000000000000000000000000000000000000000000000000000000000000000000000000000000000000000000000000000000
310
00000000000000000000000000000000000000000000000000000000000000000000000000000000000000000000000000000000000000000000000000000000000000000000000000000000000000000000000000000000000000000000000000000000000000000000000000000000000000000000000000000000000000
310
00000000000000000000000000000000000000000000000000000000000000000000000000000000000000000000000000000000000000000000000000000000000000000000000000000000000000000000000000000000000000000000000000000000000000000000000000000000000000000000000000000000000000
310
0000000000000000000000000000000000000000
  0
XRECORD
  5
3170
102
{ACAD_REACTORS
330
24FF
102
}
330
24FF
100
AcDbXrecord
280
     1
102
MATERIAL
148
0.0
149
0.0
149
0.0
 93
        0
 94
      127
282
     0
 72
     0
 77
     0
171
     0
175
     0
179
     0
273
     0
  0
XRECORD
  5
2501
102
{ACAD_REACTORS
330
24FF
102
}
330
24FF
100
AcDbXrecord
280
     1
270
     1
271
     1
  0
XRECORD
  5
2500
102
{ACAD_REACTORS
330
24FF
102
}
330
24FF
100
AcDbXrecord
280
     1
270
     1
271
     1
  0
XRECORD
  5
2504
102
{ACAD_REACTORS
330
24FF
102
}
330
24FF
100
AcDbXrecord
280
     1
270
     1
271
     1
  0
XRECORD
  5
2503
102
{ACAD_REACTORS
330
24FF
102
}
330
24FF
100
AcDbXrecord
280
     1
270
     1
271
     1
  0
XRECORD
  5
2505
102
{ACAD_REACTORS
330
24FF
102
}
330
24FF
100
AcDbXrecord
280
     1
270
     1
271
     1
  0
XRECORD
  5
2502
102
{ACAD_REACTORS
330
24FF
102
}
330
24FF
100
AcDbXrecord
280
     1
270
     1
271
     1
  0
XRECORD
  5
316F
102
{ACAD_REACTORS
330
24F7
102
}
330
24F7
100
AcDbXrecord
280
     1
102
MATERIAL
148
0.0
149
0.0
149
0.0
 93
        0
 94
      127
282
     0
 72
     0
 77
     0
171
     0
175
     0
179
     0
273
     0
  0
XRECORD
  5
24F9
102
{ACAD_REACTORS
330
24F7
102
}
330
24F7
100
AcDbXrecord
280
     1
270
     1
271
     1
  0
XRECORD
  5
24F8
102
{ACAD_REACTORS
330
24F7
102
}
330
24F7
100
AcDbXrecord
280
     1
270
     1
271
     1
  0
XRECORD
  5
24FC
102
{ACAD_REACTORS
330
24F7
102
}
330
24F7
100
AcDbXrecord
280
     1
270
     1
271
     1
  0
XRECORD
  5
24FB
102
{ACAD_REACTORS
330
24F7
102
}
330
24F7
100
AcDbXrecord
280
     1
270
     1
271
     1
  0
XRECORD
  5
24FD
102
{ACAD_REACTORS
330
24F7
102
}
330
24F7
100
AcDbXrecord
280
     1
270
     1
271
     1
  0
XRECORD
  5
24FA
102
{ACAD_REACTORS
330
24F7
102
}
330
24F7
100
AcDbXrecord
280
     1
270
     1
271
     1
  0
XRECORD
  5
3171
102
{ACAD_REACTORS
330
2507
102
}
330
2507
100
AcDbXrecord
280
     1
102
MATERIAL
148
0.0
149
0.0
149
0.0
 93
        0
 94
      127
282
     0
 72
     0
 77
     0
171
     0
175
     0
179
     0
273
     0
  0
XRECORD
  5
2509
102
{ACAD_REACTORS
330
2507
102
}
330
2507
100
AcDbXrecord
280
     1
270
     1
271
     1
  0
XRECORD
  5
2508
102
{ACAD_REACTORS
330
2507
102
}
330
2507
100
AcDbXrecord
280
     1
270
     1
271
     1
  0
XRECORD
  5
250C
102
{ACAD_REACTORS
330
2507
102
}
330
2507
100
AcDbXrecord
280
     1
270
     1
271
     1
  0
XRECORD
  5
250B
102
{ACAD_REACTORS
330
2507
102
}
330
2507
100
AcDbXrecord
280
     1
270
     1
271
     1
  0
XRECORD
  5
250D
102
{ACAD_REACTORS
330
2507
102
}
330
2507
100
AcDbXrecord
280
     1
270
     1
271
     1
  0
XRECORD
  5
250A
102
{ACAD_REACTORS
330
2507
102
}
330
2507
100
AcDbXrecord
280
     1
270
     1
271
     1
  0
CELLSTYLEMAP
  5
3168
102
{ACAD_REACTORS
330
25A3
102
}
330
25A3
100
AcDbCellStyleMap
 90
        3
300
CELLSTYLE
  1
TABLEFORMAT_BEGIN
 90
        5
170
     1
 91
        0
 92
    32768
 62
   257
 93
        1
300
CONTENTFORMAT
  1
CONTENTFORMAT_BEGIN
 90
        0
 91
        0
 92
      512
 93
        0
300

 40
0.0
140
1.0
 94
        5
 62
     0
340
11
144
6.0
309
CONTENTFORMAT_END
171
     1
301
MARGIN
  1
CELLMARGIN_BEGIN
 40
1.5
 40
1.5
 40
1.5
 40
1.5
 40
4.5
 40
4.5
309
CELLMARGIN_END
 94
        6
 95
        1
302
GRIDFORMAT
  1
GRIDFORMAT_BEGIN
 90
        0
 91
        1
 62
     0
 92
       -2
340
0
 93
        0
 40
1.125
309
GRIDFORMAT_END
 95
        2
302
GRIDFORMAT
  1
GRIDFORMAT_BEGIN
 90
        0
 91
        1
 62
     0
 92
       -2
340
0
 93
        0
 40
1.125
309
GRIDFORMAT_END
 95
        4
302
GRIDFORMAT
  1
GRIDFORMAT_BEGIN
 90
        0
 91
        1
 62
     0
 92
       -2
340
0
 93
        0
 40
1.125
309
GRIDFORMAT_END
 95
        8
302
GRIDFORMAT
  1
GRIDFORMAT_BEGIN
 90
        0
 91
        1
 62
     0
 92
       -2
340
0
 93
        0
 40
1.125
309
GRIDFORMAT_END
 95
       16
302
GRIDFORMAT
  1
GRIDFORMAT_BEGIN
 90
        0
 91
        1
 62
     0
 92
       -2
340
0
 93
        0
 40
1.125
309
GRIDFORMAT_END
 95
       32
302
GRIDFORMAT
  1
GRIDFORMAT_BEGIN
 90
        0
 91
        1
 62
     0
 92
       -2
340
0
 93
        0
 40
1.125
309
GRIDFORMAT_END
309
TABLEFORMAT_END
  1
CELLSTYLE_BEGIN
 90
        1
 91
        1
300
_TITLE
309
CELLSTYLE_END
300
CELLSTYLE
  1
TABLEFORMAT_BEGIN
 90
        5
170
     1
 91
        0
 92
        0
 62
   257
 93
        1
300
CONTENTFORMAT
  1
CONTENTFORMAT_BEGIN
 90
        0
 91
        0
 92
      512
 93
        0
300

 40
0.0
140
1.0
 94
        5
 62
     0
340
11
144
4.5
309
CONTENTFORMAT_END
171
     1
301
MARGIN
  1
CELLMARGIN_BEGIN
 40
1.5
 40
1.5
 40
1.5
 40
1.5
 40
4.5
 40
4.5
309
CELLMARGIN_END
 94
        6
 95
        1
302
GRIDFORMAT
  1
GRIDFORMAT_BEGIN
 90
        0
 91
        1
 62
     0
 92
       -2
340
0
 93
        0
 40
1.125
309
GRIDFORMAT_END
 95
        2
302
GRIDFORMAT
  1
GRIDFORMAT_BEGIN
 90
        0
 91
        1
 62
     0
 92
       -2
340
0
 93
        0
 40
1.125
309
GRIDFORMAT_END
 95
        4
302
GRIDFORMAT
  1
GRIDFORMAT_BEGIN
 90
        0
 91
        1
 62
     0
 92
       -2
340
0
 93
        0
 40
1.125
309
GRIDFORMAT_END
 95
        8
302
GRIDFORMAT
  1
GRIDFORMAT_BEGIN
 90
        0
 91
        1
 62
     0
 92
       -2
340
0
 93
        0
 40
1.125
309
GRIDFORMAT_END
 95
       16
302
GRIDFORMAT
  1
GRIDFORMAT_BEGIN
 90
        0
 91
        1
 62
     0
 92
       -2
340
0
 93
        0
 40
1.125
309
GRIDFORMAT_END
 95
       32
302
GRIDFORMAT
  1
GRIDFORMAT_BEGIN
 90
        0
 91
        1
 62
     0
 92
       -2
340
0
 93
        0
 40
1.125
309
GRIDFORMAT_END
309
TABLEFORMAT_END
  1
CELLSTYLE_BEGIN
 90
        2
 91
        1
300
_HEADER
309
CELLSTYLE_END
300
CELLSTYLE
  1
TABLEFORMAT_BEGIN
 90
        5
170
     1
 91
        0
 92
        0
 62
   257
 93
        1
300
CONTENTFORMAT
  1
CONTENTFORMAT_BEGIN
 90
        0
 91
        0
 92
      512
 93
        0
300

 40
0.0
140
1.0
 94
        2
 62
     0
340
11
144
4.5
309
CONTENTFORMAT_END
171
     1
301
MARGIN
  1
CELLMARGIN_BEGIN
 40
1.5
 40
1.5
 40
1.5
 40
1.5
 40
4.5
 40
4.5
309
CELLMARGIN_END
 94
        6
 95
        1
302
GRIDFORMAT
  1
GRIDFORMAT_BEGIN
 90
        0
 91
        1
 62
     0
 92
       -2
340
0
 93
        0
 40
1.125
309
GRIDFORMAT_END
 95
        2
302
GRIDFORMAT
  1
GRIDFORMAT_BEGIN
 90
        0
 91
        1
 62
     0
 92
       -2
340
0
 93
        0
 40
1.125
309
GRIDFORMAT_END
 95
        4
302
GRIDFORMAT
  1
GRIDFORMAT_BEGIN
 90
        0
 91
        1
 62
     0
 92
       -2
340
0
 93
        0
 40
1.125
309
GRIDFORMAT_END
 95
        8
302
GRIDFORMAT
  1
GRIDFORMAT_BEGIN
 90
        0
 91
        1
 62
     0
 92
       -2
340
0
 93
        0
 40
1.125
309
GRIDFORMAT_END
 95
       16
302
GRIDFORMAT
  1
GRIDFORMAT_BEGIN
 90
        0
 91
        1
 62
     0
 92
       -2
340
0
 93
        0
 40
1.125
309
GRIDFORMAT_END
 95
       32
302
GRIDFORMAT
  1
GRIDFORMAT_BEGIN
 90
        0
 91
        1
 62
     0
 92
       -2
340
0
 93
        0
 40
1.125
309
GRIDFORMAT_END
309
TABLEFORMAT_END
  1
CELLSTYLE_BEGIN
 90
        3
 91
        2
300
_DATA
309
CELLSTYLE_END
  0
XRECORD
  5
3192
102
{ACAD_REACTORS
330
25A3
102
}
330
25A3
100
AcDbXrecord
280
     1
102
ACAD_ROUNDTRIP_PRE2007_TABLESTYLE
 90
      512
 91
        0
  1

 92
      512
 93
        0
  2

 94
      512
 95
        0
  3

  0
XRECORD
  5
317D
102
{ACAD_REACTORS
330
317C
102
}
330
317C
100
AcDbXrecord
280
     1
102
RTVSPropertyOp0
 70
     1
102
RTVSPropertyOp1
 70
     1
102
RTVSPropertyOp2
 70
     1
102
RTVSPropertyOp3
 70
     1
102
RTVSPropertyOp4
 70
     1
102
RTVSPropertyOp5
 70
     1
102
RTVSPropertyOp6
 70
     1
102
RTVSPropertyOp7
 70
     1
102
RTVSPropertyOp8
 70
     1
102
RTVSPropertyOp9
 70
     1
102
RTVSPropertyOp10
 70
     1
102
RTVSPropertyOp11
 70
     1
102
RTVSPropertyOp12
 70
     1
102
RTVSPropertyOp13
 70
     1
102
RTVSPropertyOp14
 70
     1
102
RTVSPropertyOp15
 70
     1
102
RTVSPropertyOp16
 70
     1
102
RTVSPropertyOp17
 70
     1
102
RTVSPropertyOp18
 70
     1
102
RTVSPropertyOp19
 70
     1
102
RTVSPropertyOp20
 70
     1
102
RTVSPropertyOp21
 70
     1
102
RTVSPropertyOp22
 70
     1
102
RTVSPropertyOp23
 70
     1
102
RTVSPropertyOp24
 70
     1
102
RTVSPropertyOp25
 70
     1
102
RTVSPropertyOp26
 70
     1
102
RTVSPropertyOp27
 70
     1
102
RTVSPropertyOp28
 70
     1
102
RTVSPropertyOp29
 70
     1
102
RTVSPropertyOp30
 70
     1
102
RTVSPropertyOp31
 70
     1
102
RTVSPropertyOp32
 70
     1
  0
XRECORD
  5
3181
102
{ACAD_REACTORS
330
3180
102
}
330
3180
100
AcDbXrecord
280
     1
102
RTVSPropertyOp0
 70
     1
102
RTVSPropertyOp1
 70
     1
102
RTVSPropertyOp2
 70
     1
102
RTVSPropertyOp3
 70
     1
102
RTVSPropertyOp4
 70
     1
102
RTVSPropertyOp5
 70
     1
102
RTVSPropertyOp6
 70
     1
102
RTVSPropertyOp7
 70
     1
102
RTVSPropertyOp8
 70
     1
102
RTVSPropertyOp9
 70
     1
102
RTVSPropertyOp10
 70
     1
102
RTVSPropertyOp11
 70
     1
102
RTVSPropertyOp12
 70
     1
102
RTVSPropertyOp13
 70
     1
102
RTVSPropertyOp14
 70
     1
102
RTVSPropertyOp15
 70
     1
102
RTVSPropertyOp16
 70
     1
102
RTVSPropertyOp17
 70
     1
102
RTVSPropertyOp18
 70
     1
102
RTVSPropertyOp19
 70
     1
102
RTVSPropertyOp20
 70
     1
102
RTVSPropertyOp21
 70
     1
102
RTVSPropertyOp22
 70
     1
102
RTVSPropertyOp23
 70
     1
102
RTVSPropertyOp24
 70
     1
102
RTVSPropertyOp25
 70
     1
102
RTVSPropertyOp26
 70
     1
102
RTVSPropertyOp27
 70
     1
102
RTVSPropertyOp28
 70
     1
102
RTVSPropertyOp29
 70
     1
102
RTVSPropertyOp30
 70
     1
102
RTVSPropertyOp31
 70
     1
102
RTVSPropertyOp32
 70
     1
  0
XRECORD
  5
317F
102
{ACAD_REACTORS
330
317E
102
}
330
317E
100
AcDbXrecord
280
     1
102
RTVSPropertyOp0
 70
     1
102
RTVSPropertyOp1
 70
     1
102
RTVSPropertyOp2
 70
     1
102
RTVSPropertyOp3
 70
     1
102
RTVSPropertyOp4
 70
     1
102
RTVSPropertyOp5
 70
     1
102
RTVSPropertyOp6
 70
     1
102
RTVSPropertyOp7
 70
     1
102
RTVSPropertyOp8
 70
     1
102
RTVSPropertyOp9
 70
     1
102
RTVSPropertyOp10
 70
     1
102
RTVSPropertyOp11
 70
     1
102
RTVSPropertyOp12
 70
     1
102
RTVSPropertyOp13
 70
     1
102
RTVSPropertyOp14
 70
     1
102
RTVSPropertyOp15
 70
     1
102
RTVSPropertyOp16
 70
     1
102
RTVSPropertyOp17
 70
     1
102
RTVSPropertyOp18
 70
     1
102
RTVSPropertyOp19
 70
     1
102
RTVSPropertyOp20
 70
     1
102
RTVSPropertyOp21
 70
     1
102
RTVSPropertyOp22
 70
     1
102
RTVSPropertyOp23
 70
     1
102
RTVSPropertyOp24
 70
     1
102
RTVSPropertyOp25
 70
     1
102
RTVSPropertyOp26
 70
     1
102
RTVSPropertyOp27
 70
     1
102
RTVSPropertyOp28
 70
     1
102
RTVSPropertyOp29
 70
     1
102
RTVSPropertyOp30
 70
     1
102
RTVSPropertyOp31
 70
     1
102
RTVSPropertyOp32
 70
     1
  0
XRECORD
  5
317B
102
{ACAD_REACTORS
330
317A
102
}
330
317A
100
AcDbXrecord
280
     1
102
RTVSPropertyOp0
 70
     1
102
RTVSPropertyOp1
 70
     1
102
RTVSPropertyOp2
 70
     1
102
RTVSPropertyOp3
 70
     1
102
RTVSPropertyOp4
 70
     1
102
RTVSPropertyOp5
 70
     1
102
RTVSPropertyOp6
 70
     1
102
RTVSPropertyOp7
 70
     1
102
RTVSPropertyOp8
 70
     1
102
RTVSPropertyOp9
 70
     1
102
RTVSPropertyOp10
 70
     1
102
RTVSPropertyOp11
 70
     1
102
RTVSPropertyOp12
 70
     1
102
RTVSPropertyOp13
 70
     1
102
RTVSPropertyOp14
 70
     1
102
RTVSPropertyOp15
 70
     1
102
RTVSPropertyOp16
 70
     1
102
RTVSPropertyOp17
 70
     1
102
RTVSPropertyOp18
 70
     1
102
RTVSPropertyOp19
 70
     1
102
RTVSPropertyOp20
 70
     1
102
RTVSPropertyOp21
 70
     1
102
RTVSPropertyOp22
 70
     1
102
RTVSPropertyOp23
 70
     1
102
RTVSPropertyOp24
 70
     1
102
RTVSPropertyOp25
 70
     1
102
RTVSPropertyOp26
 70
     1
102
RTVSPropertyOp27
 70
     1
102
RTVSPropertyOp28
 70
     1
102
RTVSPropertyOp29
 70
     1
102
RTVSPropertyOp30
 70
     1
102
RTVSPropertyOp31
 70
     1
102
RTVSPropertyOp32
 70
     1
  0
XRECORD
  5
3189
102
{ACAD_REACTORS
330
3188
102
}
330
3188
100
AcDbXrecord
280
     1
102
RTVSPropertyOp0
 70
     1
102
RTVSPropertyOp1
 70
     1
102
RTVSPropertyOp2
 70
     1
102
RTVSPropertyOp3
 70
     1
102
RTVSPropertyOp4
 70
     1
102
RTVSPropertyOp5
 70
     1
102
RTVSPropertyOp6
 70
     1
102
RTVSPropertyOp7
 70
     1
102
RTVSPropertyOp8
 70
     1
102
RTVSPropertyOp9
 70
     1
102
RTVSPropertyOp10
 70
     1
102
RTVSPropertyOp11
 70
     1
102
RTVSPropertyOp12
 70
     1
102
RTVSPropertyOp13
 70
     1
102
RTVSPropertyOp14
 70
     1
102
RTVSPropertyOp15
 70
     1
102
RTVSPropertyOp16
 70
     1
102
RTVSPropertyOp17
 70
     1
102
RTVSPropertyOp18
 70
     1
102
RTVSPropertyOp19
 70
     1
102
RTVSPropertyOp20
 70
     1
102
RTVSPropertyOp21
 70
     1
102
RTVSPropertyOp22
 70
     1
102
RTVSPropertyOp23
 70
     1
102
RTVSPropertyOp24
 70
     1
102
RTVSPropertyOp25
 70
     1
102
RTVSPropertyOp26
 70
     1
102
RTVSPropertyOp27
 70
     1
102
RTVSPropertyOp28
 70
     1
102
RTVSPropertyOp29
 70
     1
102
RTVSPropertyOp30
 70
     1
102
RTVSPropertyOp31
 70
     1
102
RTVSPropertyOp32
 70
     1
  0
XRECORD
  5
3191
102
{ACAD_REACTORS
330
3190
102
}
330
3190
100
AcDbXrecord
280
     1
102
RTVSPropertyOp0
 70
     1
102
RTVSPropertyOp1
 70
     1
102
RTVSPropertyOp2
 70
     1
102
RTVSPropertyOp3
 70
     1
102
RTVSPropertyOp4
 70
     1
102
RTVSPropertyOp5
 70
     1
102
RTVSPropertyOp6
 70
     1
102
RTVSPropertyOp7
 70
     1
102
RTVSPropertyOp8
 70
     1
102
RTVSPropertyOp9
 70
     1
102
RTVSPropertyOp10
 70
     1
102
RTVSPropertyOp11
 70
     1
102
RTVSPropertyOp12
 70
     1
102
RTVSPropertyOp13
 70
     1
102
RTVSPropertyOp14
 70
     1
102
RTVSPropertyOp15
 70
     1
102
RTVSPropertyOp16
 70
     1
102
RTVSPropertyOp17
 70
     1
102
RTVSPropertyOp18
 70
     1
102
RTVSPropertyOp19
 70
     1
102
RTVSPropertyOp20
 70
     1
102
RTVSPropertyOp21
 70
     1
102
RTVSPropertyOp22
 70
     1
102
RTVSPropertyOp23
 70
     1
102
RTVSPropertyOp24
 70
     1
102
RTVSPropertyOp25
 70
     1
102
RTVSPropertyOp26
 70
     1
102
RTVSPropertyOp27
 70
     1
102
RTVSPropertyOp28
 70
     1
102
RTVSPropertyOp29
 70
     1
102
RTVSPropertyOp30
 70
     1
102
RTVSPropertyOp31
 70
     1
102
RTVSPropertyOp32
 70
     1
  0
XRECORD
  5
3183
102
{ACAD_REACTORS
330
3182
102
}
330
3182
100
AcDbXrecord
280
     1
102
RTVSPropertyOp0
 70
     1
102
RTVSPropertyOp1
 70
     1
102
RTVSPropertyOp2
 70
     1
102
RTVSPropertyOp3
 70
     1
102
RTVSPropertyOp4
 70
     1
102
RTVSPropertyOp5
 70
     1
102
RTVSPropertyOp6
 70
     1
102
RTVSPropertyOp7
 70
     1
102
RTVSPropertyOp8
 70
     1
102
RTVSPropertyOp9
 70
     1
102
RTVSPropertyOp10
 70
     1
102
RTVSPropertyOp11
 70
     1
102
RTVSPropertyOp12
 70
     1
102
RTVSPropertyOp13
 70
     1
102
RTVSPropertyOp14
 70
     1
102
RTVSPropertyOp15
 70
     1
102
RTVSPropertyOp16
 70
     1
102
RTVSPropertyOp17
 70
     1
102
RTVSPropertyOp18
 70
     1
102
RTVSPropertyOp19
 70
     1
102
RTVSPropertyOp20
 70
     1
102
RTVSPropertyOp21
 70
     1
102
RTVSPropertyOp22
 70
     1
102
RTVSPropertyOp23
 70
     1
102
RTVSPropertyOp24
 70
     1
102
RTVSPropertyOp25
 70
     1
102
RTVSPropertyOp26
 70
     1
102
RTVSPropertyOp27
 70
     1
102
RTVSPropertyOp28
 70
     1
102
RTVSPropertyOp29
 70
     1
102
RTVSPropertyOp30
 70
     1
102
RTVSPropertyOp31
 70
     1
102
RTVSPropertyOp32
 70
     1
  0
XRECORD
  5
3187
102
{ACAD_REACTORS
330
3186
102
}
330
3186
100
AcDbXrecord
280
     1
102
RTVSPropertyOp0
 70
     1
102
RTVSPropertyOp1
 70
     1
102
RTVSPropertyOp2
 70
     1
102
RTVSPropertyOp3
 70
     1
102
RTVSPropertyOp4
 70
     1
102
RTVSPropertyOp5
 70
     1
102
RTVSPropertyOp6
 70
     1
102
RTVSPropertyOp7
 70
     1
102
RTVSPropertyOp8
 70
     1
102
RTVSPropertyOp9
 70
     1
102
RTVSPropertyOp10
 70
     1
102
RTVSPropertyOp11
 70
     1
102
RTVSPropertyOp12
 70
     1
102
RTVSPropertyOp13
 70
     1
102
RTVSPropertyOp14
 70
     1
102
RTVSPropertyOp15
 70
     1
102
RTVSPropertyOp16
 70
     1
102
RTVSPropertyOp17
 70
     1
102
RTVSPropertyOp18
 70
     1
102
RTVSPropertyOp19
 70
     1
102
RTVSPropertyOp20
 70
     1
102
RTVSPropertyOp21
 70
     1
102
RTVSPropertyOp22
 70
     1
102
RTVSPropertyOp23
 70
     1
102
RTVSPropertyOp24
 70
     1
102
RTVSPropertyOp25
 70
     1
102
RTVSPropertyOp26
 70
     1
102
RTVSPropertyOp27
 70
     1
102
RTVSPropertyOp28
 70
     1
102
RTVSPropertyOp29
 70
     1
102
RTVSPropertyOp30
 70
     1
102
RTVSPropertyOp31
 70
     1
102
RTVSPropertyOp32
 70
     1
  0
XRECORD
  5
31A6
102
{ACAD_REACTORS
330
31A5
102
}
330
31A5
100
AcDbXrecord
280
     1
102
RTVSPropertyOp0
 70
     0
102
RTVSPropertyOp1
 70
     0
102
RTVSPropertyOp2
 70
     0
102
RTVSPropertyOp3
 70
     0
102
RTVSPropertyOp4
 70
     0
102
RTVSPropertyOp5
 70
     0
102
RTVSPropertyOp6
 70
     0
102
RTVSPropertyOp7
 70
     0
102
RTVSPropertyOp8
 70
     0
102
RTVSPropertyOp9
 70
     0
102
RTVSPropertyOp10
 70
     0
102
RTVSPropertyOp11
 70
     0
102
RTVSPropertyOp12
 70
     0
102
RTVSPropertyOp13
 70
     0
102
RTVSPropertyOp14
 70
     2
102
RTVSPropertyOp15
 70
     0
102
RTVSPropertyOp16
 70
     0
102
RTVSPropertyOp17
 70
     0
102
RTVSPropertyOp18
 70
     0
102
RTVSPropertyOp19
 70
     0
102
RTVSPropertyOp20
 70
     0
102
RTVSPropertyOp21
 70
     0
102
RTVSPropertyOp22
 70
     0
102
RTVSPropertyOp23
 70
     0
102
RTVSPropertyOp24
 70
     0
102
RTVSPropertyOp25
 70
     0
102
RTVSPropertyOp26
 70
     0
102
RTVSPropertyOp27
 70
     0
102
RTVSPropertyOp28
 70
     1
102
RTVSPropertyOp29
 70
     1
102
RTVSPropertyOp30
 70
     1
102
RTVSPropertyOp31
 70
     1
102
RTVSPropertyOp32
 70
     1
  0
XRECORD
  5
318F
102
{ACAD_REACTORS
330
318E
102
}
330
318E
100
AcDbXrecord
280
     1
102
RTVSPropertyOp0
 70
     1
102
RTVSPropertyOp1
 70
     1
102
RTVSPropertyOp2
 70
     1
102
RTVSPropertyOp3
 70
     1
102
RTVSPropertyOp4
 70
     1
102
RTVSPropertyOp5
 70
     1
102
RTVSPropertyOp6
 70
     1
102
RTVSPropertyOp7
 70
     1
102
RTVSPropertyOp8
 70
     1
102
RTVSPropertyOp9
 70
     1
102
RTVSPropertyOp10
 70
     1
102
RTVSPropertyOp11
 70
     1
102
RTVSPropertyOp12
 70
     1
102
RTVSPropertyOp13
 70
     1
102
RTVSPropertyOp14
 70
     1
102
RTVSPropertyOp15
 70
     1
102
RTVSPropertyOp16
 70
     1
102
RTVSPropertyOp17
 70
     1
102
RTVSPropertyOp18
 70
     1
102
RTVSPropertyOp19
 70
     1
102
RTVSPropertyOp20
 70
     1
102
RTVSPropertyOp21
 70
     1
102
RTVSPropertyOp22
 70
     1
102
RTVSPropertyOp23
 70
     1
102
RTVSPropertyOp24
 70
     1
102
RTVSPropertyOp25
 70
     1
102
RTVSPropertyOp26
 70
     1
102
RTVSPropertyOp27
 70
     1
102
RTVSPropertyOp28
 70
     1
102
RTVSPropertyOp29
 70
     1
102
RTVSPropertyOp30
 70
     1
102
RTVSPropertyOp31
 70
     1
102
RTVSPropertyOp32
 70
     1
  0
XRECORD
  5
3173
102
{ACAD_REACTORS
330
3172
102
}
330
3172
100
AcDbXrecord
280
     1
102
RTVSPropertyOp0
 70
     1
102
RTVSPropertyOp1
 70
     1
102
RTVSPropertyOp2
 70
     1
102
RTVSPropertyOp3
 70
     1
102
RTVSPropertyOp4
 70
     1
102
RTVSPropertyOp5
 70
     1
102
RTVSPropertyOp6
 70
     1
102
RTVSPropertyOp7
 70
     1
102
RTVSPropertyOp8
 70
     1
102
RTVSPropertyOp9
 70
     1
102
RTVSPropertyOp10
 70
     1
102
RTVSPropertyOp11
 70
     1
102
RTVSPropertyOp12
 70
     1
102
RTVSPropertyOp13
 70
     1
102
RTVSPropertyOp14
 70
     1
102
RTVSPropertyOp15
 70
     1
102
RTVSPropertyOp16
 70
     1
102
RTVSPropertyOp17
 70
     1
102
RTVSPropertyOp18
 70
     1
102
RTVSPropertyOp19
 70
     1
102
RTVSPropertyOp20
 70
     1
102
RTVSPropertyOp21
 70
     1
102
RTVSPropertyOp22
 70
     1
102
RTVSPropertyOp23
 70
     1
102
RTVSPropertyOp24
 70
     1
102
RTVSPropertyOp25
 70
     1
102
RTVSPropertyOp26
 70
     1
102
RTVSPropertyOp27
 70
     1
102
RTVSPropertyOp28
 70
     1
102
RTVSPropertyOp29
 70
     1
102
RTVSPropertyOp30
 70
     1
102
RTVSPropertyOp31
 70
     1
102
RTVSPropertyOp32
 70
     1
  0
XRECORD
  5
3175
102
{ACAD_REACTORS
330
3174
102
}
330
3174
100
AcDbXrecord
280
     1
102
RTVSPropertyOp0
 70
     1
102
RTVSPropertyOp1
 70
     1
102
RTVSPropertyOp2
 70
     1
102
RTVSPropertyOp3
 70
     1
102
RTVSPropertyOp4
 70
     1
102
RTVSPropertyOp5
 70
     1
102
RTVSPropertyOp6
 70
     1
102
RTVSPropertyOp7
 70
     1
102
RTVSPropertyOp8
 70
     1
102
RTVSPropertyOp9
 70
     1
102
RTVSPropertyOp10
 70
     1
102
RTVSPropertyOp11
 70
     1
102
RTVSPropertyOp12
 70
     1
102
RTVSPropertyOp13
 70
     1
102
RTVSPropertyOp14
 70
     1
102
RTVSPropertyOp15
 70
     1
102
RTVSPropertyOp16
 70
     1
102
RTVSPropertyOp17
 70
     1
102
RTVSPropertyOp18
 70
     1
102
RTVSPropertyOp19
 70
     1
102
RTVSPropertyOp20
 70
     1
102
RTVSPropertyOp21
 70
     1
102
RTVSPropertyOp22
 70
     1
102
RTVSPropertyOp23
 70
     1
102
RTVSPropertyOp24
 70
     1
102
RTVSPropertyOp25
 70
     1
102
RTVSPropertyOp26
 70
     1
102
RTVSPropertyOp27
 70
     1
102
RTVSPropertyOp28
 70
     1
102
RTVSPropertyOp29
 70
     1
102
RTVSPropertyOp30
 70
     1
102
RTVSPropertyOp31
 70
     1
102
RTVSPropertyOp32
 70
     1
  0
XRECORD
  5
3177
102
{ACAD_REACTORS
330
3176
102
}
330
3176
100
AcDbXrecord
280
     1
102
RTVSPropertyOp0
 70
     1
102
RTVSPropertyOp1
 70
     1
102
RTVSPropertyOp2
 70
     1
102
RTVSPropertyOp3
 70
     1
102
RTVSPropertyOp4
 70
     1
102
RTVSPropertyOp5
 70
     1
102
RTVSPropertyOp6
 70
     1
102
RTVSPropertyOp7
 70
     1
102
RTVSPropertyOp8
 70
     1
102
RTVSPropertyOp9
 70
     1
102
RTVSPropertyOp10
 70
     1
102
RTVSPropertyOp11
 70
     1
102
RTVSPropertyOp12
 70
     1
102
RTVSPropertyOp13
 70
     1
102
RTVSPropertyOp14
 70
     1
102
RTVSPropertyOp15
 70
     1
102
RTVSPropertyOp16
 70
     1
102
RTVSPropertyOp17
 70
     1
102
RTVSPropertyOp18
 70
     1
102
RTVSPropertyOp19
 70
     1
102
RTVSPropertyOp20
 70
     1
102
RTVSPropertyOp21
 70
     1
102
RTVSPropertyOp22
 70
     1
102
RTVSPropertyOp23
 70
     1
102
RTVSPropertyOp24
 70
     1
102
RTVSPropertyOp25
 70
     1
102
RTVSPropertyOp26
 70
     1
102
RTVSPropertyOp27
 70
     1
102
RTVSPropertyOp28
 70
     1
102
RTVSPropertyOp29
 70
     1
102
RTVSPropertyOp30
 70
     1
102
RTVSPropertyOp31
 70
     1
102
RTVSPropertyOp32
 70
     1
  0
XRECORD
  5
3179
102
{ACAD_REACTORS
330
3178
102
}
330
3178
100
AcDbXrecord
280
     1
102
RTVSPropertyOp0
 70
     1
102
RTVSPropertyOp1
 70
     1
102
RTVSPropertyOp2
 70
     1
102
RTVSPropertyOp3
 70
     1
102
RTVSPropertyOp4
 70
     1
102
RTVSPropertyOp5
 70
     1
102
RTVSPropertyOp6
 70
     1
102
RTVSPropertyOp7
 70
     1
102
RTVSPropertyOp8
 70
     1
102
RTVSPropertyOp9
 70
     1
102
RTVSPropertyOp10
 70
     1
102
RTVSPropertyOp11
 70
     1
102
RTVSPropertyOp12
 70
     1
102
RTVSPropertyOp13
 70
     1
102
RTVSPropertyOp14
 70
     1
102
RTVSPropertyOp15
 70
     1
102
RTVSPropertyOp16
 70
     1
102
RTVSPropertyOp17
 70
     1
102
RTVSPropertyOp18
 70
     1
102
RTVSPropertyOp19
 70
     1
102
RTVSPropertyOp20
 70
     1
102
RTVSPropertyOp21
 70
     1
102
RTVSPropertyOp22
 70
     1
102
RTVSPropertyOp23
 70
     1
102
RTVSPropertyOp24
 70
     1
102
RTVSPropertyOp25
 70
     1
102
RTVSPropertyOp26
 70
     1
102
RTVSPropertyOp27
 70
     1
102
RTVSPropertyOp28
 70
     1
102
RTVSPropertyOp29
 70
     1
102
RTVSPropertyOp30
 70
     1
102
RTVSPropertyOp31
 70
     1
102
RTVSPropertyOp32
 70
     1
  0
XRECORD
  5
3196
102
{ACAD_REACTORS
330
3195
102
}
330
3195
100
AcDbXrecord
280
     1
102
RTVSPropertyOp0
 70
     1
102
RTVSPropertyOp1
 70
     1
102
RTVSPropertyOp2
 70
     1
102
RTVSPropertyOp3
 70
     1
102
RTVSPropertyOp4
 70
     1
102
RTVSPropertyOp5
 70
     1
102
RTVSPropertyOp6
 70
     1
102
RTVSPropertyOp7
 70
     1
102
RTVSPropertyOp8
 70
     1
102
RTVSPropertyOp9
 70
     1
102
RTVSPropertyOp10
 70
     1
102
RTVSPropertyOp11
 70
     1
102
RTVSPropertyOp12
 70
     1
102
RTVSPropertyOp13
 70
     1
102
RTVSPropertyOp14
 70
     1
102
RTVSPropertyOp15
 70
     1
102
RTVSPropertyOp16
 70
     1
102
RTVSPropertyOp17
 70
     1
102
RTVSPropertyOp18
 70
     1
102
RTVSPropertyOp19
 70
     1
102
RTVSPropertyOp20
 70
     1
102
RTVSPropertyOp21
 70
     1
102
RTVSPropertyOp22
 70
     1
102
RTVSPropertyOp23
 70
     1
102
RTVSPropertyOp24
 70
     1
102
RTVSPropertyOp25
 70
     1
102
RTVSPropertyOp26
 70
     1
102
RTVSPropertyOp27
 70
     1
102
RTVSPropertyOp28
 70
     1
102
RTVSPropertyOp29
 70
     1
102
RTVSPropertyOp30
 70
     1
102
RTVSPropertyOp31
 70
     1
102
RTVSPropertyOp32
 70
     1
  0
XRECORD
  5
31A2
102
{ACAD_REACTORS
330
31A1
102
}
330
31A1
100
AcDbXrecord
280
     1
102
RTVSPropertyOp0
 70
     0
102
RTVSPropertyOp1
 70
     0
102
RTVSPropertyOp2
 70
     0
102
RTVSPropertyOp3
 70
     0
102
RTVSPropertyOp4
 70
     0
102
RTVSPropertyOp5
 70
     0
102
RTVSPropertyOp6
 70
     0
102
RTVSPropertyOp7
 70
     0
102
RTVSPropertyOp8
 70
     0
102
RTVSPropertyOp9
 70
     0
102
RTVSPropertyOp10
 70
     0
102
RTVSPropertyOp11
 70
     0
102
RTVSPropertyOp12
 70
     0
102
RTVSPropertyOp13
 70
     0
102
RTVSPropertyOp14
 70
     2
102
RTVSPropertyOp15
 70
     0
102
RTVSPropertyOp16
 70
     0
102
RTVSPropertyOp17
 70
     0
102
RTVSPropertyOp18
 70
     0
102
RTVSPropertyOp19
 70
     0
102
RTVSPropertyOp20
 70
     0
102
RTVSPropertyOp21
 70
     0
102
RTVSPropertyOp22
 70
     0
102
RTVSPropertyOp23
 70
     0
102
RTVSPropertyOp24
 70
     0
102
RTVSPropertyOp25
 70
     0
102
RTVSPropertyOp26
 70
     0
102
RTVSPropertyOp27
 70
     0
102
RTVSPropertyOp28
 70
     1
102
RTVSPropertyOp29
 70
     1
102
RTVSPropertyOp30
 70
     1
102
RTVSPropertyOp31
 70
     1
102
RTVSPropertyOp32
 70
     1
  0
XRECORD
  5
318D
102
{ACAD_REACTORS
330
318C
102
}
330
318C
100
AcDbXrecord
280
     1
102
RTVSPropertyOp0
 70
     1
102
RTVSPropertyOp1
 70
     1
102
RTVSPropertyOp2
 70
     1
102
RTVSPropertyOp3
 70
     1
102
RTVSPropertyOp4
 70
     1
102
RTVSPropertyOp5
 70
     1
102
RTVSPropertyOp6
 70
     1
102
RTVSPropertyOp7
 70
     1
102
RTVSPropertyOp8
 70
     1
102
RTVSPropertyOp9
 70
     1
102
RTVSPropertyOp10
 70
     1
102
RTVSPropertyOp11
 70
     1
102
RTVSPropertyOp12
 70
     1
102
RTVSPropertyOp13
 70
     1
102
RTVSPropertyOp14
 70
     1
102
RTVSPropertyOp15
 70
     1
102
RTVSPropertyOp16
 70
     1
102
RTVSPropertyOp17
 70
     1
102
RTVSPropertyOp18
 70
     1
102
RTVSPropertyOp19
 70
     1
102
RTVSPropertyOp20
 70
     1
102
RTVSPropertyOp21
 70
     1
102
RTVSPropertyOp22
 70
     1
102
RTVSPropertyOp23
 70
     1
102
RTVSPropertyOp24
 70
     1
102
RTVSPropertyOp25
 70
     1
102
RTVSPropertyOp26
 70
     1
102
RTVSPropertyOp27
 70
     1
102
RTVSPropertyOp28
 70
     1
102
RTVSPropertyOp29
 70
     1
102
RTVSPropertyOp30
 70
     1
102
RTVSPropertyOp31
 70
     1
102
RTVSPropertyOp32
 70
     1
  0
XRECORD
  5
31A4
102
{ACAD_REACTORS
330
31A3
102
}
330
31A3
100
AcDbXrecord
280
     1
102
RTVSPropertyOp0
 70
     0
102
RTVSPropertyOp1
 70
     0
102
RTVSPropertyOp2
 70
     0
102
RTVSPropertyOp3
 70
     0
102
RTVSPropertyOp4
 70
     0
102
RTVSPropertyOp5
 70
     0
102
RTVSPropertyOp6
 70
     0
102
RTVSPropertyOp7
 70
     0
102
RTVSPropertyOp8
 70
     0
102
RTVSPropertyOp9
 70
     0
102
RTVSPropertyOp10
 70
     0
102
RTVSPropertyOp11
 70
     0
102
RTVSPropertyOp12
 70
     0
102
RTVSPropertyOp13
 70
     0
102
RTVSPropertyOp14
 70
     2
102
RTVSPropertyOp15
 70
     0
102
RTVSPropertyOp16
 70
     0
102
RTVSPropertyOp17
 70
     0
102
RTVSPropertyOp18
 70
     0
102
RTVSPropertyOp19
 70
     0
102
RTVSPropertyOp20
 70
     0
102
RTVSPropertyOp21
 70
     0
102
RTVSPropertyOp22
 70
     0
102
RTVSPropertyOp23
 70
     0
102
RTVSPropertyOp24
 70
     0
102
RTVSPropertyOp25
 70
     0
102
RTVSPropertyOp26
 70
     0
102
RTVSPropertyOp27
 70
     0
102
RTVSPropertyOp28
 70
     1
102
RTVSPropertyOp29
 70
     1
102
RTVSPropertyOp30
 70
     1
102
RTVSPropertyOp31
 70
     1
102
RTVSPropertyOp32
 70
     1
  0
XRECORD
  5
3185
102
{ACAD_REACTORS
330
3184
102
}
330
3184
100
AcDbXrecord
280
     1
102
RTVSPropertyOp0
 70
     1
102
RTVSPropertyOp1
 70
     1
102
RTVSPropertyOp2
 70
     1
102
RTVSPropertyOp3
 70
     1
102
RTVSPropertyOp4
 70
     1
102
RTVSPropertyOp5
 70
     1
102
RTVSPropertyOp6
 70
     1
102
RTVSPropertyOp7
 70
     1
102
RTVSPropertyOp8
 70
     1
102
RTVSPropertyOp9
 70
     1
102
RTVSPropertyOp10
 70
     1
102
RTVSPropertyOp11
 70
     1
102
RTVSPropertyOp12
 70
     1
102
RTVSPropertyOp13
 70
     1
102
RTVSPropertyOp14
 70
     1
102
RTVSPropertyOp15
 70
     1
102
RTVSPropertyOp16
 70
     1
102
RTVSPropertyOp17
 70
     1
102
RTVSPropertyOp18
 70
     1
102
RTVSPropertyOp19
 70
     1
102
RTVSPropertyOp20
 70
     1
102
RTVSPropertyOp21
 70
     1
102
RTVSPropertyOp22
 70
     1
102
RTVSPropertyOp23
 70
     1
102
RTVSPropertyOp24
 70
     1
102
RTVSPropertyOp25
 70
     1
102
RTVSPropertyOp26
 70
     1
102
RTVSPropertyOp27
 70
     1
102
RTVSPropertyOp28
 70
     1
102
RTVSPropertyOp29
 70
     1
102
RTVSPropertyOp30
 70
     1
102
RTVSPropertyOp31
 70
     1
102
RTVSPropertyOp32
 70
     1
  0
XRECORD
  5
31A0
102
{ACAD_REACTORS
330
319F
102
}
330
319F
100
AcDbXrecord
280
     1
102
RTVSPropertyOp0
 70
     1
102
RTVSPropertyOp1
 70
     1
102
RTVSPropertyOp2
 70
     1
102
RTVSPropertyOp3
 70
     1
102
RTVSPropertyOp4
 70
     1
102
RTVSPropertyOp5
 70
     1
102
RTVSPropertyOp6
 70
     1
102
RTVSPropertyOp7
 70
     1
102
RTVSPropertyOp8
 70
     1
102
RTVSPropertyOp9
 70
     1
102
RTVSPropertyOp10
 70
     1
102
RTVSPropertyOp11
 70
     1
102
RTVSPropertyOp12
 70
     1
102
RTVSPropertyOp13
 70
     1
102
RTVSPropertyOp14
 70
     1
102
RTVSPropertyOp15
 70
     1
102
RTVSPropertyOp16
 70
     1
102
RTVSPropertyOp17
 70
     1
102
RTVSPropertyOp18
 70
     1
102
RTVSPropertyOp19
 70
     1
102
RTVSPropertyOp20
 70
     1
102
RTVSPropertyOp21
 70
     1
102
RTVSPropertyOp22
 70
     1
102
RTVSPropertyOp23
 70
     1
102
RTVSPropertyOp24
 70
     1
102
RTVSPropertyOp25
 70
     1
102
RTVSPropertyOp26
 70
     1
102
RTVSPropertyOp27
 70
     1
102
RTVSPropertyOp28
 70
     1
102
RTVSPropertyOp29
 70
     1
102
RTVSPropertyOp30
 70
     1
102
RTVSPropertyOp31
 70
     1
102
RTVSPropertyOp32
 70
     1
  0
XRECORD
  5
319E
102
{ACAD_REACTORS
330
319D
102
}
330
319D
100
AcDbXrecord
280
     1
102
RTVSPropertyOp0
 70
     1
102
RTVSPropertyOp1
 70
     1
102
RTVSPropertyOp2
 70
     1
102
RTVSPropertyOp3
 70
     1
102
RTVSPropertyOp4
 70
     1
102
RTVSPropertyOp5
 70
     1
102
RTVSPropertyOp6
 70
     1
102
RTVSPropertyOp7
 70
     1
102
RTVSPropertyOp8
 70
     1
102
RTVSPropertyOp9
 70
     1
102
RTVSPropertyOp10
 70
     1
102
RTVSPropertyOp11
 70
     1
102
RTVSPropertyOp12
 70
     1
102
RTVSPropertyOp13
 70
     1
102
RTVSPropertyOp14
 70
     1
102
RTVSPropertyOp15
 70
     1
102
RTVSPropertyOp16
 70
     1
102
RTVSPropertyOp17
 70
     1
102
RTVSPropertyOp18
 70
     1
102
RTVSPropertyOp19
 70
     1
102
RTVSPropertyOp20
 70
     1
102
RTVSPropertyOp21
 70
     1
102
RTVSPropertyOp22
 70
     1
102
RTVSPropertyOp23
 70
     1
102
RTVSPropertyOp24
 70
     1
102
RTVSPropertyOp25
 70
     1
102
RTVSPropertyOp26
 70
     1
102
RTVSPropertyOp27
 70
     1
102
RTVSPropertyOp28
 70
     1
102
RTVSPropertyOp29
 70
     1
102
RTVSPropertyOp30
 70
     1
102
RTVSPropertyOp31
 70
     1
102
RTVSPropertyOp32
 70
     1
  0
XRECORD
  5
3198
102
{ACAD_REACTORS
330
3197
102
}
330
3197
100
AcDbXrecord
280
     1
102
RTVSPropertyOp0
 70
     1
102
RTVSPropertyOp1
 70
     1
102
RTVSPropertyOp2
 70
     1
102
RTVSPropertyOp3
 70
     1
102
RTVSPropertyOp4
 70
     1
102
RTVSPropertyOp5
 70
     1
102
RTVSPropertyOp6
 70
     1
102
RTVSPropertyOp7
 70
     1
102
RTVSPropertyOp8
 70
     1
102
RTVSPropertyOp9
 70
     1
102
RTVSPropertyOp10
 70
     1
102
RTVSPropertyOp11
 70
     1
102
RTVSPropertyOp12
 70
     1
102
RTVSPropertyOp13
 70
     1
102
RTVSPropertyOp14
 70
     1
102
RTVSPropertyOp15
 70
     1
102
RTVSPropertyOp16
 70
     1
102
RTVSPropertyOp17
 70
     1
102
RTVSPropertyOp18
 70
     1
102
RTVSPropertyOp19
 70
     1
102
RTVSPropertyOp20
 70
     1
102
RTVSPropertyOp21
 70
     1
102
RTVSPropertyOp22
 70
     1
102
RTVSPropertyOp23
 70
     1
102
RTVSPropertyOp24
 70
     1
102
RTVSPropertyOp25
 70
     1
102
RTVSPropertyOp26
 70
     1
102
RTVSPropertyOp27
 70
     1
102
RTVSPropertyOp28
 70
     1
102
RTVSPropertyOp29
 70
     1
102
RTVSPropertyOp30
 70
     1
102
RTVSPropertyOp31
 70
     1
102
RTVSPropertyOp32
 70
     1
  0
XRECORD
  5
319A
102
{ACAD_REACTORS
330
3199
102
}
330
3199
100
AcDbXrecord
280
     1
102
RTVSPropertyOp0
 70
     1
102
RTVSPropertyOp1
 70
     1
102
RTVSPropertyOp2
 70
     1
102
RTVSPropertyOp3
 70
     1
102
RTVSPropertyOp4
 70
     1
102
RTVSPropertyOp5
 70
     1
102
RTVSPropertyOp6
 70
     1
102
RTVSPropertyOp7
 70
     1
102
RTVSPropertyOp8
 70
     1
102
RTVSPropertyOp9
 70
     1
102
RTVSPropertyOp10
 70
     1
102
RTVSPropertyOp11
 70
     1
102
RTVSPropertyOp12
 70
     1
102
RTVSPropertyOp13
 70
     1
102
RTVSPropertyOp14
 70
     1
102
RTVSPropertyOp15
 70
     1
102
RTVSPropertyOp16
 70
     1
102
RTVSPropertyOp17
 70
     1
102
RTVSPropertyOp18
 70
     1
102
RTVSPropertyOp19
 70
     1
102
RTVSPropertyOp20
 70
     1
102
RTVSPropertyOp21
 70
     1
102
RTVSPropertyOp22
 70
     1
102
RTVSPropertyOp23
 70
     1
102
RTVSPropertyOp24
 70
     1
102
RTVSPropertyOp25
 70
     1
102
RTVSPropertyOp26
 70
     1
102
RTVSPropertyOp27
 70
     1
102
RTVSPropertyOp28
 70
     1
102
RTVSPropertyOp29
 70
     1
102
RTVSPropertyOp30
 70
     1
102
RTVSPropertyOp31
 70
     1
102
RTVSPropertyOp32
 70
     1
  0
XRECORD
  5
318B
102
{ACAD_REACTORS
330
318A
102
}
330
318A
100
AcDbXrecord
280
     1
102
RTVSPropertyOp0
 70
     1
102
RTVSPropertyOp1
 70
     1
102
RTVSPropertyOp2
 70
     1
102
RTVSPropertyOp3
 70
     1
102
RTVSPropertyOp4
 70
     1
102
RTVSPropertyOp5
 70
     1
102
RTVSPropertyOp6
 70
     1
102
RTVSPropertyOp7
 70
     1
102
RTVSPropertyOp8
 70
     1
102
RTVSPropertyOp9
 70
     1
102
RTVSPropertyOp10
 70
     1
102
RTVSPropertyOp11
 70
     1
102
RTVSPropertyOp12
 70
     1
102
RTVSPropertyOp13
 70
     1
102
RTVSPropertyOp14
 70
     1
102
RTVSPropertyOp15
 70
     1
102
RTVSPropertyOp16
 70
     1
102
RTVSPropertyOp17
 70
     1
102
RTVSPropertyOp18
 70
     1
102
RTVSPropertyOp19
 70
     1
102
RTVSPropertyOp20
 70
     1
102
RTVSPropertyOp21
 70
     1
102
RTVSPropertyOp22
 70
     1
102
RTVSPropertyOp23
 70
     1
102
RTVSPropertyOp24
 70
     1
102
RTVSPropertyOp25
 70
     1
102
RTVSPropertyOp26
 70
     1
102
RTVSPropertyOp27
 70
     1
102
RTVSPropertyOp28
 70
     1
102
RTVSPropertyOp29
 70
     1
102
RTVSPropertyOp30
 70
     1
102
RTVSPropertyOp31
 70
     1
102
RTVSPropertyOp32
 70
     1
  0
XRECORD
  5
3194
102
{ACAD_REACTORS
330
3193
102
}
330
3193
100
AcDbXrecord
280
     1
102
RTVSPropertyOp0
 70
     1
102
RTVSPropertyOp1
 70
     1
102
RTVSPropertyOp2
 70
     1
102
RTVSPropertyOp3
 70
     1
102
RTVSPropertyOp4
 70
     1
102
RTVSPropertyOp5
 70
     1
102
RTVSPropertyOp6
 70
     1
102
RTVSPropertyOp7
 70
     1
102
RTVSPropertyOp8
 70
     1
102
RTVSPropertyOp9
 70
     1
102
RTVSPropertyOp10
 70
     1
102
RTVSPropertyOp11
 70
     1
102
RTVSPropertyOp12
 70
     1
102
RTVSPropertyOp13
 70
     1
102
RTVSPropertyOp14
 70
     1
102
RTVSPropertyOp15
 70
     1
102
RTVSPropertyOp16
 70
     1
102
RTVSPropertyOp17
 70
     1
102
RTVSPropertyOp18
 70
     1
102
RTVSPropertyOp19
 70
     1
102
RTVSPropertyOp20
 70
     1
102
RTVSPropertyOp21
 70
     1
102
RTVSPropertyOp22
 70
     1
102
RTVSPropertyOp23
 70
     1
102
RTVSPropertyOp24
 70
     1
102
RTVSPropertyOp25
 70
     1
102
RTVSPropertyOp26
 70
     1
102
RTVSPropertyOp27
 70
     1
102
RTVSPropertyOp28
 70
     1
102
RTVSPropertyOp29
 70
     1
102
RTVSPropertyOp30
 70
     1
102
RTVSPropertyOp31
 70
     1
102
RTVSPropertyOp32
 70
     1
  0
XRECORD
  5
319C
102
{ACAD_REACTORS
330
319B
102
}
330
319B
100
AcDbXrecord
280
     1
102
RTVSPropertyOp0
 70
     1
102
RTVSPropertyOp1
 70
     1
102
RTVSPropertyOp2
 70
     1
102
RTVSPropertyOp3
 70
     1
102
RTVSPropertyOp4
 70
     1
102
RTVSPropertyOp5
 70
     1
102
RTVSPropertyOp6
 70
     1
102
RTVSPropertyOp7
 70
     1
102
RTVSPropertyOp8
 70
     1
102
RTVSPropertyOp9
 70
     1
102
RTVSPropertyOp10
 70
     1
102
RTVSPropertyOp11
 70
     1
102
RTVSPropertyOp12
 70
     1
102
RTVSPropertyOp13
 70
     1
102
RTVSPropertyOp14
 70
     1
102
RTVSPropertyOp15
 70
     1
102
RTVSPropertyOp16
 70
     1
102
RTVSPropertyOp17
 70
     1
102
RTVSPropertyOp18
 70
     1
102
RTVSPropertyOp19
 70
     1
102
RTVSPropertyOp20
 70
     1
102
RTVSPropertyOp21
 70
     1
102
RTVSPropertyOp22
 70
     1
102
RTVSPropertyOp23
 70
     1
102
RTVSPropertyOp24
 70
     1
102
RTVSPropertyOp25
 70
     1
102
RTVSPropertyOp26
 70
     1
102
RTVSPropertyOp27
 70
     1
102
RTVSPropertyOp28
 70
     1
102
RTVSPropertyOp29
 70
     1
102
RTVSPropertyOp30
 70
     1
102
RTVSPropertyOp31
 70
     1
102
RTVSPropertyOp32
 70
     1
  0
ENDSEC
  0
EOF
