  0
SECTION
  2
HEADER
  9
$ACADVER
  1
AC1021
  9
$ACADMAINTVER
 70
    25
  9
$DWGCODEPAGE
  3
UNDEFINED
  9
$INSBASE
 10
0.0
 20
0.0
 30
0.0
  9
$EXTMIN
 10
1.000000000000000E+20
 20
1.000000000000000E+20
 30
1.000000000000000E+20
  9
$EXTMAX
 10
-1.000000000000000E+20
 20
-1.000000000000000E+20
 30
-1.000000000000000E+20
  9
$LIMMIN
 10
0.0
 20
0.0
  9
$LIMMAX
 10
12.0
 20
9.0
  9
$ORTHOMODE
 70
     0
  9
$REGENMODE
 70
     1
  9
$FILLMODE
 70
     1
  9
$QTEXTMODE
 70
     0
  9
$MIRRTEXT
 70
     1
  9
$LTSCALE
 40
1.0
  9
$ATTMODE
 70
     1
  9
$TEXTSIZE
 40
0.2
  9
$TRACEWID
 40
0.05
  9
$TEXTSTYLE
  7
Standard
  9
$CLAYER
  8
0
  9
$CELTYPE
  6
ByLayer
  9
$CECOLOR
 62
   256
  9
$CELTSCALE
 40
1.0
  9
$DISPSILH
 70
     0
  9
$DIMSCALE
 40
1.0
  9
$DIMASZ
 40
0.18
  9
$DIMEXO
 40
0.0625
  9
$DIMDLI
 40
0.38
  9
$DIMRND
 40
0.0
  9
$DIMDLE
 40
0.0
  9
$DIMEXE
 40
0.18
  9
$DIMTP
 40
0.0
  9
$DIMTM
 40
0.0
  9
$DIMTXT
 40
0.18
  9
$DIMCEN
 40
0.09
  9
$DIMTSZ
 40
0.0
  9
$DIMTOL
 70
     0
  9
$DIMLIM
 70
     0
  9
$DIMTIH
 70
     1
  9
$DIMTOH
 70
     1
  9
$DIMSE1
 70
     0
  9
$DIMSE2
 70
     0
  9
$DIMTAD
 70
     0
  9
$DIMZIN
 70
     0
  9
$DIMBLK
  1

  9
$DIMASO
 70
     1
  9
$DIMSHO
 70
     1
  9
$DIMPOST
  1

  9
$DIMAPOST
  1

  9
$DIMALT
 70
     0
  9
$DIMALTD
 70
     2
  9
$DIMALTF
 40
25.4
  9
$DIMLFAC
 40
1.0
  9
$DIMTOFL
 70
     0
  9
$DIMTVP
 40
0.0
  9
$DIMTIX
 70
     0
  9
$DIMSOXD
 70
     0
  9
$DIMSAH
 70
     0
  9
$DIMBLK1
  1

  9
$DIMBLK2
  1

  9
$DIMSTYLE
  2
Standard
  9
$DIMCLRD
 70
     0
  9
$DIMCLRE
 70
     0
  9
$DIMCLRT
 70
     0
  9
$DIMTFAC
 40
1.0
  9
$DIMGAP
 40
0.09
  9
$DIMJUST
 70
     0
  9
$DIMSD1
 70
     0
  9
$DIMSD2
 70
     0
  9
$DIMTOLJ
 70
     1
  9
$DIMTZIN
 70
     0
  9
$DIMALTZ
 70
     0
  9
$DIMALTTZ
 70
     0
  9
$DIMUPT
 70
     0
  9
$DIMDEC
 70
     4
  9
$DIMTDEC
 70
     4
  9
$DIMALTU
 70
     2
  9
$DIMALTTD
 70
     2
  9
$DIMTXSTY
  7
Standard
  9
$DIMAUNIT
 70
     0
  9
$DIMADEC
 70
     0
  9
$DIMALTRND
 40
0.0
  9
$DIMAZIN
 70
     0
  9
$DIMDSEP
 70
    46
  9
$DIMATFIT
 70
     3
  9
$DIMFRAC
 70
     0
  9
$DIMLDRBLK
  1

  9
$DIMLUNIT
 70
     2
  9
$DIMLWD
 70
    -2
  9
$DIMLWE
 70
    -2
  9
$DIMTMOVE
 70
     0
  9
$DIMFXL
 40
1.0
  9
$DIMFXLON
 70
     0
  9
$DIMJOGANG
 40
0.7853981633974483
  9
$DIMTFILL
 70
     0
  9
$DIMTFILLCLR
 70
     0
  9
$DIMARCSYM
 70
     0
  9
$DIMLTYPE
  6

  9
$DIMLTEX1
  6

  9
$DIMLTEX2
  6

  9
$LUNITS
 70
     2
  9
$LUPREC
 70
     4
  9
$SKETCHINC
 40
0.1
  9
$FILLETRAD
 40
0.5
  9
$AUNITS
 70
     0
  9
$AUPREC
 70
     0
  9
$MENU
  1
.
  9
$ELEVATION
 40
0.0
  9
$PELEVATION
 40
0.0
  9
$THICKNESS
 40
0.0
  9
$LIMCHECK
 70
     0
  9
$CHAMFERA
 40
0.5
  9
$CHAMFERB
 40
0.5
  9
$CHAMFERC
 40
1.0
  9
$CHAMFERD
 40
0.0
  9
$SKPOLY
 70
     0
  9
$TDCREATE
 40
2459443.37568287
  9
$TDUCREATE
 40
2459443.334016204
  9
$TDUPDATE
 40
2459443.37568287
  9
$TDUUPDATE
 40
2459443.334016204
  9
$TDINDWG
 40
0.0000000116
  9
$TDUSRTIMER
 40
0.0000000116
  9
$USRTIMER
 70
     1
  9
$ANGBASE
 50
0.0
  9
$ANGDIR
 70
     0
  9
$PDMODE
 70
     0
  9
$PDSIZE
 40
0.0
  9
$PLINEWID
 40
0.0
  9
$SPLFRAME
 70
     0
  9
$SPLINETYPE
 70
     6
  9
$SPLINESEGS
 70
     8
  9
$HANDSEED
  5
2C1
  9
$SURFTAB1
 70
     6
  9
$SURFTAB2
 70
     6
  9
$SURFTYPE
 70
     6
  9
$SURFU
 70
     6
  9
$SURFV
 70
     6
  9
$UCSBASE
  2

  9
$UCSNAME
  2

  9
$UCSORG
 10
0.0
 20
0.0
 30
0.0
  9
$UCSXDIR
 10
1.0
 20
0.0
 30
0.0
  9
$UCSYDIR
 10
0.0
 20
1.0
 30
0.0
  9
$UCSORTHOREF
  2

  9
$UCSORTHOVIEW
 70
     0
  9
$UCSORGTOP
 10
0.0
 20
0.0
 30
0.0
  9
$UCSORGBOTTOM
 10
0.0
 20
0.0
 30
0.0
  9
$UCSORGLEFT
 10
0.0
 20
0.0
 30
0.0
  9
$UCSORGRIGHT
 10
0.0
 20
0.0
 30
0.0
  9
$UCSORGFRONT
 10
0.0
 20
0.0
 30
0.0
  9
$UCSORGBACK
 10
0.0
 20
0.0
 30
0.0
  9
$PUCSBASE
  2

  9
$PUCSNAME
  2

  9
$PUCSORG
 10
0.0
 20
0.0
 30
0.0
  9
$PUCSXDIR
 10
1.0
 20
0.0
 30
0.0
  9
$PUCSYDIR
 10
0.0
 20
1.0
 30
0.0
  9
$PUCSORTHOREF
  2

  9
$PUCSORTHOVIEW
 70
     0
  9
$PUCSORGTOP
 10
0.0
 20
0.0
 30
0.0
  9
$PUCSORGBOTTOM
 10
0.0
 20
0.0
 30
0.0
  9
$PUCSORGLEFT
 10
0.0
 20
0.0
 30
0.0
  9
$PUCSORGRIGHT
 10
0.0
 20
0.0
 30
0.0
  9
$PUCSORGFRONT
 10
0.0
 20
0.0
 30
0.0
  9
$PUCSORGBACK
 10
0.0
 20
0.0
 30
0.0
  9
$USERI1
 70
     0
  9
$USERI2
 70
     0
  9
$USERI3
 70
     0
  9
$USERI4
 70
     0
  9
$USERI5
 70
     0
  9
$USERR1
 40
0.0
  9
$USERR2
 40
0.0
  9
$USERR3
 40
0.0
  9
$USERR4
 40
0.0
  9
$USERR5
 40
0.0
  9
$WORLDVIEW
 70
     1
  9
$SHADEDGE
 70
     3
  9
$SHADEDIF
 70
    70
  9
$TILEMODE
 70
     1
  9
$MAXACTVP
 70
    64
  9
$PINSBASE
 10
0.0
 20
0.0
 30
0.0
  9
$PLIMCHECK
 70
     0
  9
$PEXTMIN
 10
1.000000000000000E+20
 20
1.000000000000000E+20
 30
1.000000000000000E+20
  9
$PEXTMAX
 10
-1.000000000000000E+20
 20
-1.000000000000000E+20
 30
-1.000000000000000E+20
  9
$PLIMMIN
 10
0.0
 20
0.0
  9
$PLIMMAX
 10
12.0
 20
9.0
  9
$UNITMODE
 70
     0
  9
$VISRETAIN
 70
     1
  9
$PLINEGEN
 70
     0
  9
$PSLTSCALE
 70
     1
  9
$TREEDEPTH
 70
  3020
  9
$CMLSTYLE
  2
Standard
  9
$CMLJUST
 70
     0
  9
$CMLSCALE
 40
1.0
  9
$PROXYGRAPHICS
 70
     1
  9
$MEASUREMENT
 70
     0
  9
$CELWEIGHT
370
    -1
  9
$ENDCAPS
280
     0
  9
$JOINSTYLE
280
     0
  9
$LWDISPLAY
290
     1
  9
$INSUNITS
 70
     1
  9
$HYPERLINKBASE
  1

  9
$STYLESHEET
  1

  9
$XEDIT
290
     1
  9
$CEPSNTYPE
380
     0
  9
$PSTYLEMODE
290
     1
  9
$FINGERPRINTGUID
  2
{59D2858A-EAD1-258B-989F-EE0CFC5A1881}
  9
$VERSIONGUID
  2
{FAEB1C32-E019-11D5-929B-00C0DF256EC4}
  9
$EXTNAMES
290
     1
  9
$PSVPSCALE
 40
0.0
  9
$OLESTARTUP
290
     0
  9
$SORTENTS
280
   127
  9
$INDEXCTL
280
     0
  9
$HIDETEXT
280
     1
  9
$XCLIPFRAME
290
     0
  9
$HALOGAP
280
     0
  9
$OBSCOLOR
 70
   257
  9
$OBSLTYPE
280
     0
  9
$INTERSECTIONDISPLAY
280
     0
  9
$INTERSECTIONCOLOR
 70
   257
  9
$DIMASSOC
280
     2
  9
$PROJECTNAME
  1

  9
$CAMERADISPLAY
290
     0
  9
$LENSLENGTH
 40
50.0
  9
$CAMERAHEIGHT
 40
0.0
  9
$STEPSPERSEC
 40
2.0
  9
$STEPSIZE
 40
6.0
  9
$3DDWFPREC
 40
2.0
  9
$PSOLWIDTH
 40
0.25
  9
$PSOLHEIGHT
 40
4.0
  9
$LOFTANG1
 40
1.570796326794897
  9
$LOFTANG2
 40
1.570796326794897
  9
$LOFTMAG1
 40
0.0
  9
$LOFTMAG2
 40
0.0
  9
$LOFTPARAM
 70
     7
  9
$LOFTNORMALS
280
     1
  9
$LATITUDE
 40
37.795
  9
$LONGITUDE
 40
-122.394
  9
$NORTHDIRECTION
 40
0.0
  9
$TIMEZONE
 70
 -8000
  9
$LIGHTGLYPHDISPLAY
280
     1
  9
$TILEMODELIGHTSYNCH
280
     1
  9
$CMATERIAL
347
3C
  9
$SOLIDHIST
280
     1
  9
$SHOWHIST
280
     1
  9
$DWFFRAME
280
     2
  9
$DGNFRAME
280
     2
  9
$REALWORLDSCALE
290
     1
  9
$INTERFERECOLOR
 62
   256
  9
$CSHADOW
280
     0
  9
$SHADOWPLANELOCATION
 40
0.0
  0
ENDSEC
  0
SECTION
  2
CLASSES
  0
CLASS
  1
ACDBDICTIONARYWDFLT
  2
AcDbDictionaryWithDefault
  3
ObjectDBX Classes
 90
        0
 91
        4
280
     0
281
     0
  0
CLASS
  1
VISUALSTYLE
  2
AcDbVisualStyle
  3
ObjectDBX Classes
 90
     4095
 91
        4
280
     0
281
     0
  0
CLASS
  1
MATERIAL
  2
AcDbMaterial
  3
ObjectDBX Classes
 90
     1153
 91
        4
280
     0
281
     0
  0
CLASS
  1
SUN
  2
AcDbSun
  3
SCENEOE
 90
     1024
 91
        4
280
     0
281
     0
  0
ENDSEC
  0
SECTION
  2
TABLES
  0
TABLE
  2
VPORT
  5
8
330
0
100
AcDbSymbolTable
 70
     1
  0
VPORT
  5
29
330
8
100
AcDbSymbolTableRecord
100
AcDbViewportTableRecord
  2
*Active
 70
     0
 10
0.0
 20
0.0
 11
1.0
 21
1.0
 12
0.0
 22
0.0
 13
0.0
 23
0.0
 14
0.5
 24
0.5
 15
0.5
 25
0.5
 16
0.0
 26
0.0
 36
1.0
 17
105.0007777515277
 27
148.5000416295417
 37
0.0
 40
297.0000832590835
 41
0.7070757462376325
 42
50.0
 43
0.0
 44
0.0
 50
0.0
 51
0.0
 71
     0
 72
   100
 73
     1
 74
     3
 75
     0
 76
     0
 77
     0
 78
     0
281
     0
 65
     1
110
0.0
120
0.0
130
0.0
111
1.0
121
0.0
131
0.0
112
0.0
122
1.0
132
0.0
 79
     0
146
0.0
 60
     3
 61
     5
292
     1
282
     1
141
0.0
142
0.0
 63
   250
361
3F
  0
ENDTAB
  0
TABLE
  2
LTYPE
  5
5
330
0
100
AcDbSymbolTable
 70
    39
  0
LTYPE
  5
14
330
5
100
AcDbSymbolTableRecord
100
AcDbLinetypeTableRecord
  2
ByBlock
 70
     0
  3

 72
    65
 73
     0
 40
0.0
  0
LTYPE
  5
15
330
5
100
AcDbSymbolTableRecord
100
AcDbLinetypeTableRecord
  2
ByLayer
 70
     0
  3

 72
    65
 73
     0
 40
0.0
  0
LTYPE
  5
16
330
5
100
AcDbSymbolTableRecord
100
AcDbLinetypeTableRecord
  2
Continuous
 70
     0
  3
Solid line
 72
    65
 73
     0
 40
0.0
  0
LTYPE
  5
9A
330
5
100
AcDbSymbolTableRecord
100
AcDbLinetypeTableRecord
  2
AI-Linetype-1
 70
     0
  3
Adobe Illustrator Linetype No. 1
 72
    65
 73
     2
 40
7.270862246391072
 49
3.635375106750391
 74
     0
 49
-3.635487139640682
 74
     0
  0
LTYPE
  5
A0
330
5
100
AcDbSymbolTableRecord
100
AcDbLinetypeTableRecord
  2
AI-Linetype-2
 70
     0
  3
Adobe Illustrator Linetype No. 2
 72
    65
 73
     2
 40
7.270862246391072
 49
3.635375106750391
 74
     0
 49
-3.635487139640682
 74
     0
  0
LTYPE
  5
A6
330
5
100
AcDbSymbolTableRecord
100
AcDbLinetypeTableRecord
  2
AI-Linetype-3
 70
     0
  3
Adobe Illustrator Linetype No. 3
 72
    65
 73
     2
 40
7.270862246391072
 49
3.635375106750391
 74
     0
 49
-3.635487139640682
 74
     0
  0
LTYPE
  5
AC
330
5
100
AcDbSymbolTableRecord
100
AcDbLinetypeTableRecord
  2
AI-Linetype-4
 70
     0
  3
Adobe Illustrator Linetype No. 4
 72
    65
 73
     2
 40
7.270862246391072
 49
3.635375106750391
 74
     0
 49
-3.635487139640682
 74
     0
  0
LTYPE
  5
B2
330
5
100
AcDbSymbolTableRecord
100
AcDbLinetypeTableRecord
  2
AI-Linetype-5
 70
     0
  3
Adobe Illustrator Linetype No. 5
 72
    65
 73
     2
 40
7.270862246391072
 49
3.635375106750391
 74
     0
 49
-3.635487139640682
 74
     0
  0
LTYPE
  5
B8
330
5
100
AcDbSymbolTableRecord
100
AcDbLinetypeTableRecord
  2
AI-Linetype-6
 70
     0
  3
Adobe Illustrator Linetype No. 6
 72
    65
 73
     2
 40
7.270862246391072
 49
3.635375106750391
 74
     0
 49
-3.635487139640682
 74
     0
  0
LTYPE
  5
BE
330
5
100
AcDbSymbolTableRecord
100
AcDbLinetypeTableRecord
  2
AI-Linetype-7
 70
     0
  3
Adobe Illustrator Linetype No. 7
 72
    65
 73
     2
 40
7.270862246391072
 49
3.635375106750391
 74
     0
 49
-3.635487139640682
 74
     0
  0
LTYPE
  5
C4
330
5
100
AcDbSymbolTableRecord
100
AcDbLinetypeTableRecord
  2
AI-Linetype-8
 70
     0
  3
Adobe Illustrator Linetype No. 8
 72
    65
 73
     2
 40
7.270862246391072
 49
3.635375106750391
 74
     0
 49
-3.635487139640682
 74
     0
  0
LTYPE
  5
CA
330
5
100
AcDbSymbolTableRecord
100
AcDbLinetypeTableRecord
  2
AI-Linetype-9
 70
     0
  3
Adobe Illustrator Linetype No. 9
 72
    65
 73
     2
 40
7.270862246391072
 49
3.635375106750391
 74
     0
 49
-3.635487139640682
 74
     0
  0
LTYPE
  5
D0
330
5
100
AcDbSymbolTableRecord
100
AcDbLinetypeTableRecord
  2
AI-Linetype-10
 70
     0
  3
Adobe Illustrator Linetype No. 10
 72
    65
 73
     2
 40
7.270862246391072
 49
3.635375106750391
 74
     0
 49
-3.635487139640682
 74
     0
  0
LTYPE
  5
D6
330
5
100
AcDbSymbolTableRecord
100
AcDbLinetypeTableRecord
  2
AI-Linetype-11
 70
     0
  3
Adobe Illustrator Linetype No. 11
 72
    65
 73
     2
 40
7.270862246391072
 49
3.635375106750391
 74
     0
 49
-3.635487139640682
 74
     0
  0
LTYPE
  5
DC
330
5
100
AcDbSymbolTableRecord
100
AcDbLinetypeTableRecord
  2
AI-Linetype-12
 70
     0
  3
Adobe Illustrator Linetype No. 12
 72
    65
 73
     2
 40
7.270862246391072
 49
3.635375106750391
 74
     0
 49
-3.635487139640682
 74
     0
  0
LTYPE
  5
E2
330
5
100
AcDbSymbolTableRecord
100
AcDbLinetypeTableRecord
  2
AI-Linetype-13
 70
     0
  3
Adobe Illustrator Linetype No. 13
 72
    65
 73
     2
 40
7.270862246391072
 49
3.635375106750391
 74
     0
 49
-3.635487139640682
 74
     0
  0
LTYPE
  5
E8
330
5
100
AcDbSymbolTableRecord
100
AcDbLinetypeTableRecord
  2
AI-Linetype-14
 70
     0
  3
Adobe Illustrator Linetype No. 14
 72
    65
 73
     2
 40
7.270862246391072
 49
3.635375106750391
 74
     0
 49
-3.635487139640682
 74
     0
  0
LTYPE
  5
EE
330
5
100
AcDbSymbolTableRecord
100
AcDbLinetypeTableRecord
  2
AI-Linetype-15
 70
     0
  3
Adobe Illustrator Linetype No. 15
 72
    65
 73
     2
 40
7.270862246391072
 49
3.635375106750391
 74
     0
 49
-3.635487139640682
 74
     0
  0
LTYPE
  5
F4
330
5
100
AcDbSymbolTableRecord
100
AcDbLinetypeTableRecord
  2
AI-Linetype-16
 70
     0
  3
Adobe Illustrator Linetype No. 16
 72
    65
 73
     2
 40
7.270862246391072
 49
3.635375106750391
 74
     0
 49
-3.635487139640682
 74
     0
  0
LTYPE
  5
1B8
330
5
100
AcDbSymbolTableRecord
100
AcDbLinetypeTableRecord
  2
AI-Linetype-17
 70
     0
  3
Adobe Illustrator Linetype No. 17
 72
    65
 73
     2
 40
7.148089338211011
 49
3.574044669105505
 74
     0
 49
-3.574044669105505
 74
     0
  0
LTYPE
  5
1C1
330
5
100
AcDbSymbolTableRecord
100
AcDbLinetypeTableRecord
  2
AI-Linetype-18
 70
     0
  3
Adobe Illustrator Linetype No. 18
 72
    65
 73
     4
 40
32.16656149218979
 49
21.44442748487327
 74
     0
 49
-3.574044669105505
 74
     0
 49
3.574044669105505
 74
     0
 49
-3.574044669105505
 74
     0
  0
LTYPE
  5
1DA
330
5
100
AcDbSymbolTableRecord
100
AcDbLinetypeTableRecord
  2
AI-Linetype-19
 70
     0
  3
Adobe Illustrator Linetype No. 19
 72
    65
 73
     2
 40
7.14807520793656
 49
3.57403760396828
 74
     0
 49
-3.57403760396828
 74
     0
  0
LTYPE
  5
1E3
330
5
100
AcDbSymbolTableRecord
100
AcDbLinetypeTableRecord
  2
AI-Linetype-20
 70
     0
  3
Adobe Illustrator Linetype No. 20
 72
    65
 73
     4
 40
32.16649723308454
 49
21.4443844211797
 74
     0
 49
-3.57403760396828
 74
     0
 49
3.57403760396828
 74
     0
 49
-3.57403760396828
 74
     0
  0
LTYPE
  5
1FC
330
5
100
AcDbSymbolTableRecord
100
AcDbLinetypeTableRecord
  2
AI-Linetype-21
 70
     0
  3
Adobe Illustrator Linetype No. 21
 72
    65
 73
     2
 40
7.270862246391072
 49
3.635375106750391
 74
     0
 49
-3.635487139640682
 74
     0
  0
LTYPE
  5
202
330
5
100
AcDbSymbolTableRecord
100
AcDbLinetypeTableRecord
  2
AI-Linetype-22
 70
     0
  3
Adobe Illustrator Linetype No. 22
 72
    65
 73
     2
 40
7.270862246391072
 49
3.635375106750391
 74
     0
 49
-3.635487139640682
 74
     0
  0
LTYPE
  5
208
330
5
100
AcDbSymbolTableRecord
100
AcDbLinetypeTableRecord
  2
AI-Linetype-23
 70
     0
  3
Adobe Illustrator Linetype No. 23
 72
    65
 73
     2
 40
7.270862246391072
 49
3.635375106750391
 74
     0
 49
-3.635487139640682
 74
     0
  0
LTYPE
  5
20E
330
5
100
AcDbSymbolTableRecord
100
AcDbLinetypeTableRecord
  2
AI-Linetype-24
 70
     0
  3
Adobe Illustrator Linetype No. 24
 72
    65
 73
     2
 40
7.270862246391072
 49
3.635375106750391
 74
     0
 49
-3.635487139640682
 74
     0
  0
LTYPE
  5
214
330
5
100
AcDbSymbolTableRecord
100
AcDbLinetypeTableRecord
  2
AI-Linetype-25
 70
     0
  3
Adobe Illustrator Linetype No. 25
 72
    65
 73
     2
 40
7.270862246391072
 49
3.635375106750391
 74
     0
 49
-3.635487139640682
 74
     0
  0
LTYPE
  5
21A
330
5
100
AcDbSymbolTableRecord
100
AcDbLinetypeTableRecord
  2
AI-Linetype-26
 70
     0
  3
Adobe Illustrator Linetype No. 26
 72
    65
 73
     2
 40
7.270862246391072
 49
3.635375106750391
 74
     0
 49
-3.635487139640682
 74
     0
  0
LTYPE
  5
220
330
5
100
AcDbSymbolTableRecord
100
AcDbLinetypeTableRecord
  2
AI-Linetype-27
 70
     0
  3
Adobe Illustrator Linetype No. 27
 72
    65
 73
     2
 40
7.270862246391072
 49
3.635375106750391
 74
     0
 49
-3.635487139640682
 74
     0
  0
LTYPE
  5
226
330
5
100
AcDbSymbolTableRecord
100
AcDbLinetypeTableRecord
  2
AI-Linetype-28
 70
     0
  3
Adobe Illustrator Linetype No. 28
 72
    65
 73
     2
 40
7.270862246391072
 49
3.635375106750391
 74
     0
 49
-3.635487139640682
 74
     0
  0
LTYPE
  5
22C
330
5
100
AcDbSymbolTableRecord
100
AcDbLinetypeTableRecord
  2
AI-Linetype-29
 70
     0
  3
Adobe Illustrator Linetype No. 29
 72
    65
 73
     2
 40
7.270862246391072
 49
3.635375106750391
 74
     0
 49
-3.635487139640682
 74
     0
  0
LTYPE
  5
232
330
5
100
AcDbSymbolTableRecord
100
AcDbLinetypeTableRecord
  2
AI-Linetype-30
 70
     0
  3
Adobe Illustrator Linetype No. 30
 72
    65
 73
     2
 40
7.270862246391072
 49
3.635375106750391
 74
     0
 49
-3.635487139640682
 74
     0
  0
LTYPE
  5
238
330
5
100
AcDbSymbolTableRecord
100
AcDbLinetypeTableRecord
  2
AI-Linetype-31
 70
     0
  3
Adobe Illustrator Linetype No. 31
 72
    65
 73
     2
 40
7.270862246391072
 49
3.635375106750391
 74
     0
 49
-3.635487139640682
 74
     0
  0
LTYPE
  5
23E
330
5
100
AcDbSymbolTableRecord
100
AcDbLinetypeTableRecord
  2
AI-Linetype-32
 70
     0
  3
Adobe Illustrator Linetype No. 32
 72
    65
 73
     2
 40
7.270862246391072
 49
3.635375106750391
 74
     0
 49
-3.635487139640682
 74
     0
  0
LTYPE
  5
244
330
5
100
AcDbSymbolTableRecord
100
AcDbLinetypeTableRecord
  2
AI-Linetype-33
 70
     0
  3
Adobe Illustrator Linetype No. 33
 72
    65
 73
     2
 40
7.270862246391072
 49
3.635375106750391
 74
     0
 49
-3.635487139640682
 74
     0
  0
LTYPE
  5
24A
330
5
100
AcDbSymbolTableRecord
100
AcDbLinetypeTableRecord
  2
AI-Linetype-34
 70
     0
  3
Adobe Illustrator Linetype No. 34
 72
    65
 73
     2
 40
7.270862246391072
 49
3.635375106750391
 74
     0
 49
-3.635487139640682
 74
     0
  0
LTYPE
  5
250
330
5
100
AcDbSymbolTableRecord
100
AcDbLinetypeTableRecord
  2
AI-Linetype-35
 70
     0
  3
Adobe Illustrator Linetype No. 35
 72
    65
 73
     2
 40
7.270862246391072
 49
3.635375106750391
 74
     0
 49
-3.635487139640682
 74
     0
  0
LTYPE
  5
256
330
5
100
AcDbSymbolTableRecord
100
AcDbLinetypeTableRecord
  2
AI-Linetype-36
 70
     0
  3
Adobe Illustrator Linetype No. 36
 72
    65
 73
     2
 40
7.270862246391072
 49
3.635375106750391
 74
     0
 49
-3.635487139640682
 74
     0
  0
LTYPE
  5
25C
330
5
100
AcDbSymbolTableRecord
100
AcDbLinetypeTableRecord
  2
AI-Linetype-37
 70
     0
  3
Adobe Illustrator Linetype No. 37
 72
    65
 73
     2
 40
7.270862246391072
 49
3.635375106750391
 74
     0
 49
-3.635487139640682
 74
     0
  0
LTYPE
  5
262
330
5
100
AcDbSymbolTableRecord
100
AcDbLinetypeTableRecord
  2
AI-Linetype-38
 70
     0
  3
Adobe Illustrator Linetype No. 38
 72
    65
 73
     2
 40
7.270862246391072
 49
3.635375106750391
 74
     0
 49
-3.635487139640682
 74
     0
  0
ENDTAB
  0
TABLE
  2
LAYER
  5
2
330
0
100
AcDbSymbolTable
 70
     1
  0
LAYER
  5
10
330
2
100
AcDbSymbolTableRecord
100
AcDbLayerTableRecord
  2
0
 70
     0
 62
     7
  6
Continuous
370
    -3
390
F
347
3E
  0
ENDTAB
  0
TABLE
  2
STYLE
  5
3
330
0
100
AcDbSymbolTable
 70
     1
  0
STYLE
  5
11
330
3
100
AcDbSymbolTableRecord
100
AcDbTextStyleTableRecord
  2
Standard
 70
     0
 40
0.0
 41
1.0
 50
0.0
 71
     0
 42
0.2
  3
txt
  4

  0
ENDTAB
  0
TABLE
  2
VIEW
  5
6
330
0
100
AcDbSymbolTable
 70
     0
  0
ENDTAB
  0
TABLE
  2
UCS
  5
7
330
0
100
AcDbSymbolTable
 70
     0
  0
ENDTAB
  0
TABLE
  2
APPID
  5
9
330
0
100
AcDbSymbolTable
 70
     1
  0
APPID
  5
12
330
9
100
AcDbSymbolTableRecord
100
AcDbRegAppTableRecord
  2
ACAD
 70
     0
  0
ENDTAB
  0
TABLE
  2
DIMSTYLE
  5
A
330
0
100
AcDbSymbolTable
 70
     1
100
AcDbDimStyleTable
  0
DIMSTYLE
105
27
330
A
100
AcDbSymbolTableRecord
100
AcDbDimStyleTableRecord
  2
Standard
 70
     0
178
     0
340
11
  0
ENDTAB
  0
TABLE
  2
BLOCK_RECORD
  5
1
330
0
100
AcDbSymbolTable
 70
   110
  0
BLOCK_RECORD
  5
1F
330
1
100
AcDbSymbolTableRecord
100
AcDbBlockTableRecord
  2
*Model_Space
340
22
 70
     0
280
     1
281
     0
  0
BLOCK_RECORD
  5
1B
330
1
100
AcDbSymbolTableRecord
100
AcDbBlockTableRecord
  2
*Paper_Space
340
1E
 70
     0
280
     1
281
     0
  0
BLOCK_RECORD
  5
23
330
1
100
AcDbSymbolTableRecord
100
AcDbBlockTableRecord
  2
*Paper_Space0
340
26
 70
     0
280
     1
281
     0
  0
BLOCK_RECORD
  5
40
330
1
100
AcDbSymbolTableRecord
100
AcDbBlockTableRecord
  2
block 2
340
0
102
{BLKREFS
331
41
102
}
 70
     0
280
     1
281
     0
  0
BLOCK_RECORD
  5
45
330
1
100
AcDbSymbolTableRecord
100
AcDbBlockTableRecord
  2
block 3
340
0
102
{BLKREFS
331
46
102
}
 70
     0
280
     1
281
     0
  0
BLOCK_RECORD
  5
4A
330
1
100
AcDbSymbolTableRecord
100
AcDbBlockTableRecord
  2
block 4
340
0
102
{BLKREFS
331
4B
102
}
 70
     0
280
     1
281
     0
  0
BLOCK_RECORD
  5
4F
330
1
100
AcDbSymbolTableRecord
100
AcDbBlockTableRecord
  2
block 5
340
0
102
{BLKREFS
331
50
102
}
 70
     0
280
     1
281
     0
  0
BLOCK_RECORD
  5
54
330
1
100
AcDbSymbolTableRecord
100
AcDbBlockTableRecord
  2
block 6
340
0
102
{BLKREFS
331
55
102
}
 70
     0
280
     1
281
     0
  0
BLOCK_RECORD
  5
59
330
1
100
AcDbSymbolTableRecord
100
AcDbBlockTableRecord
  2
block 7
340
0
102
{BLKREFS
331
5A
102
}
 70
     0
280
     1
281
     0
  0
BLOCK_RECORD
  5
5E
330
1
100
AcDbSymbolTableRecord
100
AcDbBlockTableRecord
  2
block 8
340
0
102
{BLKREFS
331
5F
102
}
 70
     0
280
     1
281
     0
  0
BLOCK_RECORD
  5
63
330
1
100
AcDbSymbolTableRecord
100
AcDbBlockTableRecord
  2
block 9
340
0
102
{BLKREFS
331
64
102
}
 70
     0
280
     1
281
     0
  0
BLOCK_RECORD
  5
68
330
1
100
AcDbSymbolTableRecord
100
AcDbBlockTableRecord
  2
block 10
340
0
102
{BLKREFS
331
69
102
}
 70
     0
280
     1
281
     0
  0
BLOCK_RECORD
  5
6D
330
1
100
AcDbSymbolTableRecord
100
AcDbBlockTableRecord
  2
block 11
340
0
102
{BLKREFS
331
6E
102
}
 70
     0
280
     1
281
     0
  0
BLOCK_RECORD
  5
72
330
1
100
AcDbSymbolTableRecord
100
AcDbBlockTableRecord
  2
block 12
340
0
102
{BLKREFS
331
73
102
}
 70
     0
280
     1
281
     0
  0
BLOCK_RECORD
  5
77
330
1
100
AcDbSymbolTableRecord
100
AcDbBlockTableRecord
  2
block 13
340
0
102
{BLKREFS
331
78
102
}
 70
     0
280
     1
281
     0
  0
BLOCK_RECORD
  5
7C
330
1
100
AcDbSymbolTableRecord
100
AcDbBlockTableRecord
  2
block 14
340
0
102
{BLKREFS
331
7D
102
}
 70
     0
280
     1
281
     0
  0
BLOCK_RECORD
  5
81
330
1
100
AcDbSymbolTableRecord
100
AcDbBlockTableRecord
  2
block 15
340
0
102
{BLKREFS
331
82
102
}
 70
     0
280
     1
281
     0
  0
BLOCK_RECORD
  5
86
330
1
100
AcDbSymbolTableRecord
100
AcDbBlockTableRecord
  2
block 16
340
0
102
{BLKREFS
331
87
102
}
 70
     0
280
     1
281
     0
  0
BLOCK_RECORD
  5
8B
330
1
100
AcDbSymbolTableRecord
100
AcDbBlockTableRecord
  2
block 17
340
0
102
{BLKREFS
331
8C
102
}
 70
     0
280
     1
281
     0
  0
BLOCK_RECORD
  5
90
330
1
100
AcDbSymbolTableRecord
100
AcDbBlockTableRecord
  2
block 18
340
0
102
{BLKREFS
331
91
102
}
 70
     0
280
     1
281
     0
  0
BLOCK_RECORD
  5
95
330
1
100
AcDbSymbolTableRecord
100
AcDbBlockTableRecord
  2
block 19
340
0
102
{BLKREFS
331
96
102
}
 70
     0
280
     1
281
     0
  0
BLOCK_RECORD
  5
9B
330
1
100
AcDbSymbolTableRecord
100
AcDbBlockTableRecord
  2
block 20
340
0
102
{BLKREFS
331
9C
102
}
 70
     0
280
     1
281
     0
  0
BLOCK_RECORD
  5
A1
330
1
100
AcDbSymbolTableRecord
100
AcDbBlockTableRecord
  2
block 21
340
0
102
{BLKREFS
331
A2
102
}
 70
     0
280
     1
281
     0
  0
BLOCK_RECORD
  5
A7
330
1
100
AcDbSymbolTableRecord
100
AcDbBlockTableRecord
  2
block 22
340
0
102
{BLKREFS
331
A8
102
}
 70
     0
280
     1
281
     0
  0
BLOCK_RECORD
  5
AD
330
1
100
AcDbSymbolTableRecord
100
AcDbBlockTableRecord
  2
block 23
340
0
102
{BLKREFS
331
AE
102
}
 70
     0
280
     1
281
     0
  0
BLOCK_RECORD
  5
B3
330
1
100
AcDbSymbolTableRecord
100
AcDbBlockTableRecord
  2
block 24
340
0
102
{BLKREFS
331
B4
102
}
 70
     0
280
     1
281
     0
  0
BLOCK_RECORD
  5
B9
330
1
100
AcDbSymbolTableRecord
100
AcDbBlockTableRecord
  2
block 25
340
0
102
{BLKREFS
331
BA
102
}
 70
     0
280
     1
281
     0
  0
BLOCK_RECORD
  5
BF
330
1
100
AcDbSymbolTableRecord
100
AcDbBlockTableRecord
  2
block 26
340
0
102
{BLKREFS
331
C0
102
}
 70
     0
280
     1
281
     0
  0
BLOCK_RECORD
  5
C5
330
1
100
AcDbSymbolTableRecord
100
AcDbBlockTableRecord
  2
block 27
340
0
102
{BLKREFS
331
C6
102
}
 70
     0
280
     1
281
     0
  0
BLOCK_RECORD
  5
CB
330
1
100
AcDbSymbolTableRecord
100
AcDbBlockTableRecord
  2
block 28
340
0
102
{BLKREFS
331
CC
102
}
 70
     0
280
     1
281
     0
  0
BLOCK_RECORD
  5
D1
330
1
100
AcDbSymbolTableRecord
100
AcDbBlockTableRecord
  2
block 29
340
0
102
{BLKREFS
331
D2
102
}
 70
     0
280
     1
281
     0
  0
BLOCK_RECORD
  5
D7
330
1
100
AcDbSymbolTableRecord
100
AcDbBlockTableRecord
  2
block 30
340
0
102
{BLKREFS
331
D8
102
}
 70
     0
280
     1
281
     0
  0
BLOCK_RECORD
  5
DD
330
1
100
AcDbSymbolTableRecord
100
AcDbBlockTableRecord
  2
block 31
340
0
102
{BLKREFS
331
DE
102
}
 70
     0
280
     1
281
     0
  0
BLOCK_RECORD
  5
E3
330
1
100
AcDbSymbolTableRecord
100
AcDbBlockTableRecord
  2
block 32
340
0
102
{BLKREFS
331
E4
102
}
 70
     0
280
     1
281
     0
  0
BLOCK_RECORD
  5
E9
330
1
100
AcDbSymbolTableRecord
100
AcDbBlockTableRecord
  2
block 33
340
0
102
{BLKREFS
331
EA
102
}
 70
     0
280
     1
281
     0
  0
BLOCK_RECORD
  5
EF
330
1
100
AcDbSymbolTableRecord
100
AcDbBlockTableRecord
  2
block 34
340
0
102
{BLKREFS
331
F0
102
}
 70
     0
280
     1
281
     0
  0
BLOCK_RECORD
  5
F5
330
1
100
AcDbSymbolTableRecord
100
AcDbBlockTableRecord
  2
block 35
340
0
102
{BLKREFS
331
F6
102
}
 70
     0
280
     1
281
     0
  0
BLOCK_RECORD
  5
FA
330
1
100
AcDbSymbolTableRecord
100
AcDbBlockTableRecord
  2
block 36
340
0
102
{BLKREFS
331
FB
102
}
 70
     0
280
     1
281
     0
  0
BLOCK_RECORD
  5
FF
330
1
100
AcDbSymbolTableRecord
100
AcDbBlockTableRecord
  2
block 37
340
0
102
{BLKREFS
331
100
102
}
 70
     0
280
     1
281
     0
  0
BLOCK_RECORD
  5
104
330
1
100
AcDbSymbolTableRecord
100
AcDbBlockTableRecord
  2
block 38
340
0
102
{BLKREFS
331
105
102
}
 70
     0
280
     1
281
     0
  0
BLOCK_RECORD
  5
109
330
1
100
AcDbSymbolTableRecord
100
AcDbBlockTableRecord
  2
block 39
340
0
102
{BLKREFS
331
10A
102
}
 70
     0
280
     1
281
     0
  0
BLOCK_RECORD
  5
10E
330
1
100
AcDbSymbolTableRecord
100
AcDbBlockTableRecord
  2
block 40
340
0
102
{BLKREFS
331
10F
102
}
 70
     0
280
     1
281
     0
  0
BLOCK_RECORD
  5
113
330
1
100
AcDbSymbolTableRecord
100
AcDbBlockTableRecord
  2
block 41
340
0
102
{BLKREFS
331
114
102
}
 70
     0
280
     1
281
     0
  0
BLOCK_RECORD
  5
118
330
1
100
AcDbSymbolTableRecord
100
AcDbBlockTableRecord
  2
block 42
340
0
102
{BLKREFS
331
119
102
}
 70
     0
280
     1
281
     0
  0
BLOCK_RECORD
  5
11D
330
1
100
AcDbSymbolTableRecord
100
AcDbBlockTableRecord
  2
block 43
340
0
102
{BLKREFS
331
11E
102
}
 70
     0
280
     1
281
     0
  0
BLOCK_RECORD
  5
122
330
1
100
AcDbSymbolTableRecord
100
AcDbBlockTableRecord
  2
block 44
340
0
102
{BLKREFS
331
123
102
}
 70
     0
280
     1
281
     0
  0
BLOCK_RECORD
  5
127
330
1
100
AcDbSymbolTableRecord
100
AcDbBlockTableRecord
  2
block 45
340
0
102
{BLKREFS
331
128
102
}
 70
     0
280
     1
281
     0
  0
BLOCK_RECORD
  5
12C
330
1
100
AcDbSymbolTableRecord
100
AcDbBlockTableRecord
  2
block 46
340
0
102
{BLKREFS
331
12D
102
}
 70
     0
280
     1
281
     0
  0
BLOCK_RECORD
  5
131
330
1
100
AcDbSymbolTableRecord
100
AcDbBlockTableRecord
  2
block 47
340
0
102
{BLKREFS
331
132
102
}
 70
     0
280
     1
281
     0
  0
BLOCK_RECORD
  5
136
330
1
100
AcDbSymbolTableRecord
100
AcDbBlockTableRecord
  2
block 48
340
0
102
{BLKREFS
331
137
102
}
 70
     0
280
     1
281
     0
  0
BLOCK_RECORD
  5
13B
330
1
100
AcDbSymbolTableRecord
100
AcDbBlockTableRecord
  2
block 49
340
0
102
{BLKREFS
331
13C
102
}
 70
     0
280
     1
281
     0
  0
BLOCK_RECORD
  5
140
330
1
100
AcDbSymbolTableRecord
100
AcDbBlockTableRecord
  2
block 50
340
0
102
{BLKREFS
331
141
102
}
 70
     0
280
     1
281
     0
  0
BLOCK_RECORD
  5
145
330
1
100
AcDbSymbolTableRecord
100
AcDbBlockTableRecord
  2
block 51
340
0
102
{BLKREFS
331
146
102
}
 70
     0
280
     1
281
     0
  0
BLOCK_RECORD
  5
14A
330
1
100
AcDbSymbolTableRecord
100
AcDbBlockTableRecord
  2
block 52
340
0
102
{BLKREFS
331
14B
102
}
 70
     0
280
     1
281
     0
  0
BLOCK_RECORD
  5
14F
330
1
100
AcDbSymbolTableRecord
100
AcDbBlockTableRecord
  2
block 53
340
0
102
{BLKREFS
331
150
102
}
 70
     0
280
     1
281
     0
  0
BLOCK_RECORD
  5
154
330
1
100
AcDbSymbolTableRecord
100
AcDbBlockTableRecord
  2
block 54
340
0
102
{BLKREFS
331
155
102
}
 70
     0
280
     1
281
     0
  0
BLOCK_RECORD
  5
159
330
1
100
AcDbSymbolTableRecord
100
AcDbBlockTableRecord
  2
block 55
340
0
102
{BLKREFS
331
15A
102
}
 70
     0
280
     1
281
     0
  0
BLOCK_RECORD
  5
15E
330
1
100
AcDbSymbolTableRecord
100
AcDbBlockTableRecord
  2
block 56
340
0
102
{BLKREFS
331
15F
102
}
 70
     0
280
     1
281
     0
  0
BLOCK_RECORD
  5
163
330
1
100
AcDbSymbolTableRecord
100
AcDbBlockTableRecord
  2
block 57
340
0
102
{BLKREFS
331
164
102
}
 70
     0
280
     1
281
     0
  0
BLOCK_RECORD
  5
168
330
1
100
AcDbSymbolTableRecord
100
AcDbBlockTableRecord
  2
block 58
340
0
102
{BLKREFS
331
169
102
}
 70
     0
280
     1
281
     0
  0
BLOCK_RECORD
  5
16D
330
1
100
AcDbSymbolTableRecord
100
AcDbBlockTableRecord
  2
block 59
340
0
102
{BLKREFS
331
16E
102
}
 70
     0
280
     1
281
     0
  0
BLOCK_RECORD
  5
172
330
1
100
AcDbSymbolTableRecord
100
AcDbBlockTableRecord
  2
block 60
340
0
102
{BLKREFS
331
173
102
}
 70
     0
280
     1
281
     0
  0
BLOCK_RECORD
  5
177
330
1
100
AcDbSymbolTableRecord
100
AcDbBlockTableRecord
  2
block 61
340
0
102
{BLKREFS
331
178
102
}
 70
     0
280
     1
281
     0
  0
BLOCK_RECORD
  5
17C
330
1
100
AcDbSymbolTableRecord
100
AcDbBlockTableRecord
  2
block 62
340
0
102
{BLKREFS
331
17D
102
}
 70
     0
280
     1
281
     0
  0
BLOCK_RECORD
  5
181
330
1
100
AcDbSymbolTableRecord
100
AcDbBlockTableRecord
  2
block 63
340
0
102
{BLKREFS
331
182
102
}
 70
     0
280
     1
281
     0
  0
BLOCK_RECORD
  5
186
330
1
100
AcDbSymbolTableRecord
100
AcDbBlockTableRecord
  2
block 64
340
0
102
{BLKREFS
331
187
102
}
 70
     0
280
     1
281
     0
  0
BLOCK_RECORD
  5
18B
330
1
100
AcDbSymbolTableRecord
100
AcDbBlockTableRecord
  2
block 65
340
0
102
{BLKREFS
331
18C
102
}
 70
     0
280
     1
281
     0
  0
BLOCK_RECORD
  5
190
330
1
100
AcDbSymbolTableRecord
100
AcDbBlockTableRecord
  2
block 66
340
0
102
{BLKREFS
331
191
102
}
 70
     0
280
     1
281
     0
  0
BLOCK_RECORD
  5
195
330
1
100
AcDbSymbolTableRecord
100
AcDbBlockTableRecord
  2
block 67
340
0
102
{BLKREFS
331
196
102
}
 70
     0
280
     1
281
     0
  0
BLOCK_RECORD
  5
19A
330
1
100
AcDbSymbolTableRecord
100
AcDbBlockTableRecord
  2
block 68
340
0
102
{BLKREFS
331
19B
102
}
 70
     0
280
     1
281
     0
  0
BLOCK_RECORD
  5
19F
330
1
100
AcDbSymbolTableRecord
100
AcDbBlockTableRecord
  2
block 69
340
0
102
{BLKREFS
331
1A0
102
}
 70
     0
280
     1
281
     0
  0
BLOCK_RECORD
  5
1A4
330
1
100
AcDbSymbolTableRecord
100
AcDbBlockTableRecord
  2
block 70
340
0
102
{BLKREFS
331
1A5
102
}
 70
     0
280
     1
281
     0
  0
BLOCK_RECORD
  5
1A9
330
1
100
AcDbSymbolTableRecord
100
AcDbBlockTableRecord
  2
block 71
340
0
102
{BLKREFS
331
1AA
102
}
 70
     0
280
     1
281
     0
  0
BLOCK_RECORD
  5
1B1
330
1
100
AcDbSymbolTableRecord
100
AcDbBlockTableRecord
  2
block 72
340
0
102
{BLKREFS
331
1B2
102
}
 70
     0
280
     1
281
     0
  0
BLOCK_RECORD
  5
1BA
330
1
100
AcDbSymbolTableRecord
100
AcDbBlockTableRecord
  2
block 73
340
0
102
{BLKREFS
331
1BB
102
}
 70
     0
280
     1
281
     0
  0
BLOCK_RECORD
  5
1C3
330
1
100
AcDbSymbolTableRecord
100
AcDbBlockTableRecord
  2
block 74
340
0
102
{BLKREFS
331
1C4
102
}
 70
     0
280
     1
281
     0
  0
BLOCK_RECORD
  5
1CB
330
1
100
AcDbSymbolTableRecord
100
AcDbBlockTableRecord
  2
block 75
340
0
102
{BLKREFS
331
1CC
102
}
 70
     0
280
     1
281
     0
  0
BLOCK_RECORD
  5
1D3
330
1
100
AcDbSymbolTableRecord
100
AcDbBlockTableRecord
  2
block 76
340
0
102
{BLKREFS
331
1D4
102
}
 70
     0
280
     1
281
     0
  0
BLOCK_RECORD
  5
1DC
330
1
100
AcDbSymbolTableRecord
100
AcDbBlockTableRecord
  2
block 77
340
0
102
{BLKREFS
331
1DD
102
}
 70
     0
280
     1
281
     0
  0
BLOCK_RECORD
  5
1E5
330
1
100
AcDbSymbolTableRecord
100
AcDbBlockTableRecord
  2
block 78
340
0
102
{BLKREFS
331
1E6
102
}
 70
     0
280
     1
281
     0
  0
BLOCK_RECORD
  5
1ED
330
1
100
AcDbSymbolTableRecord
100
AcDbBlockTableRecord
  2
block 79
340
0
102
{BLKREFS
331
1EE
102
}
 70
     0
280
     1
281
     0
  0
BLOCK_RECORD
  5
1F2
330
1
100
AcDbSymbolTableRecord
100
AcDbBlockTableRecord
  2
block 80
340
0
102
{BLKREFS
331
1F3
102
}
 70
     0
280
     1
281
     0
  0
BLOCK_RECORD
  5
1F7
330
1
100
AcDbSymbolTableRecord
100
AcDbBlockTableRecord
  2
block 81
340
0
102
{BLKREFS
331
1F8
102
}
 70
     0
280
     1
281
     0
  0
BLOCK_RECORD
  5
1FD
330
1
100
AcDbSymbolTableRecord
100
AcDbBlockTableRecord
  2
block 82
340
0
102
{BLKREFS
331
1FE
102
}
 70
     0
280
     1
281
     0
  0
BLOCK_RECORD
  5
203
330
1
100
AcDbSymbolTableRecord
100
AcDbBlockTableRecord
  2
block 83
340
0
102
{BLKREFS
331
204
102
}
 70
     0
280
     1
281
     0
  0
BLOCK_RECORD
  5
209
330
1
100
AcDbSymbolTableRecord
100
AcDbBlockTableRecord
  2
block 84
340
0
102
{BLKREFS
331
20A
102
}
 70
     0
280
     1
281
     0
  0
BLOCK_RECORD
  5
20F
330
1
100
AcDbSymbolTableRecord
100
AcDbBlockTableRecord
  2
block 85
340
0
102
{BLKREFS
331
210
102
}
 70
     0
280
     1
281
     0
  0
BLOCK_RECORD
  5
215
330
1
100
AcDbSymbolTableRecord
100
AcDbBlockTableRecord
  2
block 86
340
0
102
{BLKREFS
331
216
102
}
 70
     0
280
     1
281
     0
  0
BLOCK_RECORD
  5
21B
330
1
100
AcDbSymbolTableRecord
100
AcDbBlockTableRecord
  2
block 87
340
0
102
{BLKREFS
331
21C
102
}
 70
     0
280
     1
281
     0
  0
BLOCK_RECORD
  5
221
330
1
100
AcDbSymbolTableRecord
100
AcDbBlockTableRecord
  2
block 88
340
0
102
{BLKREFS
331
222
102
}
 70
     0
280
     1
281
     0
  0
BLOCK_RECORD
  5
227
330
1
100
AcDbSymbolTableRecord
100
AcDbBlockTableRecord
  2
block 89
340
0
102
{BLKREFS
331
228
102
}
 70
     0
280
     1
281
     0
  0
BLOCK_RECORD
  5
22D
330
1
100
AcDbSymbolTableRecord
100
AcDbBlockTableRecord
  2
block 90
340
0
102
{BLKREFS
331
22E
102
}
 70
     0
280
     1
281
     0
  0
BLOCK_RECORD
  5
233
330
1
100
AcDbSymbolTableRecord
100
AcDbBlockTableRecord
  2
block 91
340
0
102
{BLKREFS
331
234
102
}
 70
     0
280
     1
281
     0
  0
BLOCK_RECORD
  5
239
330
1
100
AcDbSymbolTableRecord
100
AcDbBlockTableRecord
  2
block 92
340
0
102
{BLKREFS
331
23A
102
}
 70
     0
280
     1
281
     0
  0
BLOCK_RECORD
  5
23F
330
1
100
AcDbSymbolTableRecord
100
AcDbBlockTableRecord
  2
block 93
340
0
102
{BLKREFS
331
240
102
}
 70
     0
280
     1
281
     0
  0
BLOCK_RECORD
  5
245
330
1
100
AcDbSymbolTableRecord
100
AcDbBlockTableRecord
  2
block 94
340
0
102
{BLKREFS
331
246
102
}
 70
     0
280
     1
281
     0
  0
BLOCK_RECORD
  5
24B
330
1
100
AcDbSymbolTableRecord
100
AcDbBlockTableRecord
  2
block 95
340
0
102
{BLKREFS
331
24C
102
}
 70
     0
280
     1
281
     0
  0
BLOCK_RECORD
  5
251
330
1
100
AcDbSymbolTableRecord
100
AcDbBlockTableRecord
  2
block 96
340
0
102
{BLKREFS
331
252
102
}
 70
     0
280
     1
281
     0
  0
BLOCK_RECORD
  5
257
330
1
100
AcDbSymbolTableRecord
100
AcDbBlockTableRecord
  2
block 97
340
0
102
{BLKREFS
331
258
102
}
 70
     0
280
     1
281
     0
  0
BLOCK_RECORD
  5
25D
330
1
100
AcDbSymbolTableRecord
100
AcDbBlockTableRecord
  2
block 98
340
0
102
{BLKREFS
331
25E
102
}
 70
     0
280
     1
281
     0
  0
BLOCK_RECORD
  5
263
330
1
100
AcDbSymbolTableRecord
100
AcDbBlockTableRecord
  2
block 99
340
0
102
{BLKREFS
331
264
102
}
 70
     0
280
     1
281
     0
  0
BLOCK_RECORD
  5
268
330
1
100
AcDbSymbolTableRecord
100
AcDbBlockTableRecord
  2
block 100
340
0
102
{BLKREFS
331
269
102
}
 70
     0
280
     1
281
     0
  0
BLOCK_RECORD
  5
26D
330
1
100
AcDbSymbolTableRecord
100
AcDbBlockTableRecord
  2
block 101
340
0
102
{BLKREFS
331
26E
102
}
 70
     0
280
     1
281
     0
  0
BLOCK_RECORD
  5
272
330
1
100
AcDbSymbolTableRecord
100
AcDbBlockTableRecord
  2
block 102
340
0
102
{BLKREFS
331
273
102
}
 70
     0
280
     1
281
     0
  0
BLOCK_RECORD
  5
277
330
1
100
AcDbSymbolTableRecord
100
AcDbBlockTableRecord
  2
block 103
340
0
102
{BLKREFS
331
278
102
}
 70
     0
280
     1
281
     0
  0
BLOCK_RECORD
  5
27C
330
1
100
AcDbSymbolTableRecord
100
AcDbBlockTableRecord
  2
block 104
340
0
102
{BLKREFS
331
27D
102
}
 70
     0
280
     1
281
     0
  0
BLOCK_RECORD
  5
281
330
1
100
AcDbSymbolTableRecord
100
AcDbBlockTableRecord
  2
block 105
340
0
102
{BLKREFS
331
282
102
}
 70
     0
280
     1
281
     0
  0
BLOCK_RECORD
  5
286
330
1
100
AcDbSymbolTableRecord
100
AcDbBlockTableRecord
  2
block 106
340
0
102
{BLKREFS
331
287
102
}
 70
     0
280
     1
281
     0
  0
BLOCK_RECORD
  5
28B
330
1
100
AcDbSymbolTableRecord
100
AcDbBlockTableRecord
  2
block 107
340
0
102
{BLKREFS
331
28C
102
}
 70
     0
280
     1
281
     0
  0
BLOCK_RECORD
  5
290
330
1
100
AcDbSymbolTableRecord
100
AcDbBlockTableRecord
  2
block 108
340
0
102
{BLKREFS
331
291
102
}
 70
     0
280
     1
281
     0
  0
BLOCK_RECORD
  5
295
330
1
100
AcDbSymbolTableRecord
100
AcDbBlockTableRecord
  2
block 109
340
0
102
{BLKREFS
331
296
102
}
 70
     0
280
     1
281
     0
  0
BLOCK_RECORD
  5
29A
330
1
100
AcDbSymbolTableRecord
100
AcDbBlockTableRecord
  2
block 110
340
0
102
{BLKREFS
331
29B
102
}
 70
     0
280
     1
281
     0
  0
ENDTAB
  0
ENDSEC
  0
SECTION
  2
BLOCKS
  0
BLOCK
  5
20
330
1F
100
AcDbEntity
  8
0
100
AcDbBlockBegin
  2
*Model_Space
 70
     0
 10
0.0
 20
0.0
 30
0.0
  3
*Model_Space
  1

  0
ENDBLK
  5
21
330
1F
100
AcDbEntity
  8
0
100
AcDbBlockEnd
  0
BLOCK
  5
1C
330
1B
100
AcDbEntity
 67
     1
  8
0
100
AcDbBlockBegin
  2
*Paper_Space
 70
     0
 10
0.0
 20
0.0
 30
0.0
  3
*Paper_Space
  1

  0
ENDBLK
  5
1D
330
1B
100
AcDbEntity
 67
     1
  8
0
100
AcDbBlockEnd
  0
BLOCK
  5
24
330
23
100
AcDbEntity
  8
0
100
AcDbBlockBegin
  2
*Paper_Space0
 70
     0
 10
0.0
 20
0.0
 30
0.0
  3
*Paper_Space0
  1

  0
ENDBLK
  5
25
330
23
100
AcDbEntity
  8
0
100
AcDbBlockEnd
  0
BLOCK
  5
42
330
40
100
AcDbEntity
  8
0
100
AcDbBlockBegin
  2
block 2
 70
     0
 10
0.0
 20
0.0
 30
0.0
  3
block 2
  1

  0
SPLINE
  5
44
330
40
100
AcDbEntity
  8
0
 62
   250
370
    25
100
AcDbSpline
210
0.0
220
0.0
230
1.0
 70
     8
 71
     3
 72
     8
 73
     4
 74
     0
 42
0.0000000001
 43
0.0000000001
 12
1.0
 22
0.0
 32
0.0
 13
1.0
 23
0.0
 33
0.0
 40
0.0
 40
0.0
 40
0.0
 40
0.0
 40
1.0
 40
1.0
 40
1.0
 40
1.0
 10
201.3049945059195
 20
-168.9066098967658
 30
0.0
 10
170.6391315020712
 20
-169.2405453212484
 30
0.0
 10
139.9737271038319
 20
-169.4085360767316
 30
0.0
 10
109.3061002323024
 20
-169.410687995271
 30
0.0
  0
ENDBLK
  5
43
330
40
100
AcDbEntity
  8
0
100
AcDbBlockEnd
  0
BLOCK
  5
47
330
45
100
AcDbEntity
  8
0
100
AcDbBlockBegin
  2
block 3
 70
     0
 10
0.0
 20
0.0
 30
0.0
  3
block 3
  1

  0
SPLINE
  5
49
330
45
100
AcDbEntity
  8
0
 62
   250
370
    25
100
AcDbSpline
210
0.0
220
0.0
230
1.0
 70
     8
 71
     3
 72
     8
 73
     4
 74
     0
 42
0.0000000001
 43
0.0000000001
 12
1.0
 22
0.0
 32
0.0
 13
1.0
 23
0.0
 33
0.0
 40
0.0
 40
0.0
 40
0.0
 40
0.0
 40
1.0
 40
1.0
 40
1.0
 40
1.0
 10
-720.0850588989297
 20
137.6105597954499
 30
0.0
 10
-720.1269683954807
 20
139.4760615520918
 30
0.0
 10
-720.1574480293389
 20
141.3416691407766
 30
0.0
 10
-720.176497800494
 20
143.2075236709649
 30
0.0
  0
ENDBLK
  5
48
330
45
100
AcDbEntity
  8
0
100
AcDbBlockEnd
  0
BLOCK
  5
4C
330
4A
100
AcDbEntity
  8
0
100
AcDbBlockBegin
  2
block 4
 70
     0
 10
0.0
 20
0.0
 30
0.0
  3
block 4
  1

  0
SPLINE
  5
4E
330
4A
100
AcDbEntity
  8
0
 62
   250
370
    25
100
AcDbSpline
210
0.0
220
0.0
230
1.0
 70
     8
 71
     3
 72
     8
 73
     4
 74
     0
 42
0.0000000001
 43
0.0000000001
 12
1.0
 22
0.0
 32
0.0
 13
1.0
 23
0.0
 33
0.0
 40
0.0
 40
0.0
 40
0.0
 40
0.0
 40
1.0
 40
1.0
 40
1.0
 40
1.0
 10
-720.176497800494
 20
143.2075236709649
 30
0.0
 10
-720.1951947981127
 20
145.0413816410526
 30
0.0
 10
-720.2030969254002
 20
146.8751690564516
 30
0.0
 10
-720.2028499839261
 20
148.7090623039125
 30
0.0
  0
ENDBLK
  5
4D
330
4A
100
AcDbEntity
  8
0
100
AcDbBlockEnd
  0
BLOCK
  5
51
330
4F
100
AcDbEntity
  8
0
100
AcDbBlockBegin
  2
block 5
 70
     0
 10
0.0
 20
0.0
 30
0.0
  3
block 5
  1

  0
SPLINE
  5
53
330
4F
100
AcDbEntity
  8
0
 62
   250
370
    25
100
AcDbSpline
210
0.0
220
0.0
230
1.0
 70
    24
 71
     3
 72
     8
 73
     4
 74
     0
 42
0.0000000001
 43
0.0000000001
 12
1.0
 22
0.0
 32
0.0
 13
1.0
 23
0.0
 33
0.0
 40
0.0
 40
0.0
 40
0.0
 40
0.0
 40
1.0
 40
1.0
 40
1.0
 40
1.0
 10
-720.2028499839261
 20
148.7090975812665
 30
0.0
 10
-720.2028499839261
 20
148.7400005433605
 30
0.0
 10
-720.2028499839261
 20
148.7709035054552
 30
0.0
 10
-720.2028499839261
 20
148.8018064675613
 30
0.0
  0
ENDBLK
  5
52
330
4F
100
AcDbEntity
  8
0
100
AcDbBlockEnd
  0
BLOCK
  5
56
330
54
100
AcDbEntity
  8
0
100
AcDbBlockBegin
  2
block 6
 70
     0
 10
0.0
 20
0.0
 30
0.0
  3
block 6
  1

  0
SPLINE
  5
58
330
54
100
AcDbEntity
  8
0
 62
   250
370
    25
100
AcDbSpline
210
0.0
220
0.0
230
1.0
 70
     8
 71
     3
 72
     8
 73
     4
 74
     0
 42
0.0000000001
 43
0.0000000001
 12
1.0
 22
0.0
 32
0.0
 13
1.0
 23
0.0
 33
0.0
 40
0.0
 40
0.0
 40
0.0
 40
0.0
 40
1.0
 40
1.0
 40
1.0
 40
1.0
 10
930.693498011678
 20
159.772358013078
 30
0.0
 10
930.7352311214495
 20
157.908055686472
 30
0.0
 10
930.7653932591287
 20
156.0436828051721
 30
0.0
 10
930.7844783076353
 20
154.1790277050389
 30
0.0
  0
ENDBLK
  5
57
330
54
100
AcDbEntity
  8
0
100
AcDbBlockEnd
  0
BLOCK
  5
5B
330
59
100
AcDbEntity
  8
0
100
AcDbBlockBegin
  2
block 7
 70
     0
 10
0.0
 20
0.0
 30
0.0
  3
block 7
  1

  0
SPLINE
  5
5D
330
59
100
AcDbEntity
  8
0
 62
   250
370
    25
100
AcDbSpline
210
0.0
220
0.0
230
1.0
 70
     8
 71
     3
 72
     8
 73
     4
 74
     0
 42
0.0000000001
 43
0.0000000001
 12
1.0
 22
0.0
 32
0.0
 13
1.0
 23
0.0
 33
0.0
 40
0.0
 40
0.0
 40
0.0
 40
0.0
 40
1.0
 40
1.0
 40
1.0
 40
1.0
 10
930.7844783076353
 20
154.1790277050389
 30
0.0
 10
930.8028930864172
 20
152.3455930631806
 30
0.0
 10
930.8117829796291
 20
150.5121584213222
 30
0.0
 10
930.8111832646074
 20
148.6786532247681
 30
0.0
  0
ENDBLK
  5
5C
330
59
100
AcDbEntity
  8
0
100
AcDbBlockEnd
  0
BLOCK
  5
60
330
5E
100
AcDbEntity
  8
0
100
AcDbBlockBegin
  2
block 8
 70
     0
 10
0.0
 20
0.0
 30
0.0
  3
block 8
  1

  0
SPLINE
  5
62
330
5E
100
AcDbEntity
  8
0
 62
   250
370
    25
100
AcDbSpline
210
0.0
220
0.0
230
1.0
 70
     8
 71
     3
 72
     8
 73
     4
 74
     0
 42
0.0000000001
 43
0.0000000001
 12
1.0
 22
0.0
 32
0.0
 13
1.0
 23
0.0
 33
0.0
 40
0.0
 40
0.0
 40
0.0
 40
0.0
 40
1.0
 40
1.0
 40
1.0
 40
1.0
 10
930.8111832646074
 20
148.6786532247681
 30
0.0
 10
930.8111832646074
 20
148.6485969191572
 30
0.0
 10
930.8111479872463
 20
148.6185758909074
 30
0.0
 10
930.8111479872463
 20
148.5885548626576
 30
0.0
  0
ENDBLK
  5
61
330
5E
100
AcDbEntity
  8
0
100
AcDbBlockEnd
  0
BLOCK
  5
65
330
63
100
AcDbEntity
  8
0
100
AcDbBlockBegin
  2
block 9
 70
     0
 10
0.0
 20
0.0
 30
0.0
  3
block 9
  1

  0
SPLINE
  5
67
330
63
100
AcDbEntity
  8
0
 62
   250
370
    25
100
AcDbSpline
210
0.0
220
0.0
230
1.0
 70
     8
 71
     3
 72
    26
 73
    22
 74
     0
 42
0.0000000001
 43
0.0000000001
 12
1.0
 22
0.0
 32
0.0
 13
1.0
 23
0.0
 33
0.0
 40
0.0
 40
0.0
 40
0.0
 40
0.0
 40
1.0
 40
1.0
 40
1.0
 40
2.0
 40
2.0
 40
2.0
 40
3.0
 40
3.0
 40
3.0
 40
4.0
 40
4.0
 40
4.0
 40
5.0
 40
5.0
 40
5.0
 40
6.0
 40
6.0
 40
6.0
 40
7.0
 40
7.0
 40
7.0
 40
7.0
 10
930.8111479872463
 20
148.5885548626576
 30
0.0
 10
930.8502000181228
 20
106.7319302631219
 30
0.0
 10
925.38249236766
 20
65.17122196533859
 30
0.0
 10
912.1509799272187
 20
25.20822498967013
 30
0.0
 10
898.8911397715175
 20
-14.84042539934575
 30
0.0
 10
878.4834374266065
 20
-51.22238298405642
 30
0.0
 10
850.8542137773451
 20
-83.17082394001848
 30
0.0
 10
823.3045405613417
 20
-115.0272968364356
 30
0.0
 10
790.1647825538547
 20
-140.7069168684268
 30
0.0
 10
753.3661632220286
 20
-160.8168072828931
 30
0.0
 10
716.5327956965066
 20
-180.9457121906727
 30
0.0
 10
677.0030036183484
 20
-195.0012327106713
 30
0.0
 10
636.4996976793279
 20
-205.1709880635789
 30
0.0
 10
595.7735799724684
 20
-215.3966926296176
 30
0.0
 10
554.6942301200509
 20
-221.7124325927887
 30
0.0
 10
513.0559105935828
 20
-226.3386342410431
 30
0.0
 10
471.5033150373135
 20
-230.9552757263646
 30
0.0
 10
429.875402330273
 20
-233.8443499091819
 30
0.0
 10
388.144761968399
 20
-236.041000187779
 30
0.0
 10
304.6479216718106
 20
-240.436135167358
 30
0.0
 10
221.1658625865495
 20
-241.5865296811526
 30
0.0
 10
137.5923645997239
 20
-241.8274387315954
 30
0.0
  0
ENDBLK
  5
66
330
63
100
AcDbEntity
  8
0
100
AcDbBlockEnd
  0
BLOCK
  5
6A
330
68
100
AcDbEntity
  8
0
100
AcDbBlockBegin
  2
block 10
 70
     0
 10
0.0
 20
0.0
 30
0.0
  3
block 10
  1

  0
SPLINE
  5
6C
330
68
100
AcDbEntity
  8
0
 62
   250
370
    25
100
AcDbSpline
210
0.0
220
0.0
230
1.0
 70
     8
 71
     3
 72
     8
 73
     4
 74
     0
 42
0.0000000001
 43
0.0000000001
 12
1.0
 22
0.0
 32
0.0
 13
1.0
 23
0.0
 33
0.0
 40
0.0
 40
0.0
 40
0.0
 40
0.0
 40
1.0
 40
1.0
 40
1.0
 40
1.0
 10
137.5923645997239
 20
-241.8274387315954
 30
0.0
 10
116.0548344384019
 20
-241.8899502028646
 30
0.0
 10
94.51758649591218
 20
-241.8898090934473
 30
0.0
 10
72.98005633459017
 20
-241.8272976221806
 30
0.0
  0
ENDBLK
  5
6B
330
68
100
AcDbEntity
  8
0
100
AcDbBlockEnd
  0
BLOCK
  5
6F
330
6D
100
AcDbEntity
  8
0
100
AcDbBlockBegin
  2
block 11
 70
     0
 10
0.0
 20
0.0
 30
0.0
  3
block 11
  1

  0
SPLINE
  5
71
330
6D
100
AcDbEntity
  8
0
 62
   250
370
    25
100
AcDbSpline
210
0.0
220
0.0
230
1.0
 70
     8
 71
     3
 72
     8
 73
     4
 74
     0
 42
0.0000000001
 43
0.0000000001
 12
1.0
 22
0.0
 32
0.0
 13
1.0
 23
0.0
 33
0.0
 40
0.0
 40
0.0
 40
0.0
 40
0.0
 40
1.0
 40
1.0
 40
1.0
 40
1.0
 10
72.98005633459017
 20
-241.8272976221806
 30
0.0
 10
62.54586167921826
 20
-241.7974882580535
 30
0.0
 10
52.11180813326267
 20
-241.7512749243173
 30
0.0
 10
41.67775458731959
 20
-241.6886928983285
 30
0.0
  0
ENDBLK
  5
70
330
6D
100
AcDbEntity
  8
0
100
AcDbBlockEnd
  0
BLOCK
  5
74
330
72
100
AcDbEntity
  8
0
100
AcDbBlockBegin
  2
block 12
 70
     0
 10
0.0
 20
0.0
 30
0.0
  3
block 12
  1

  0
SPLINE
  5
76
330
72
100
AcDbEntity
  8
0
 62
   250
370
    25
100
AcDbSpline
210
0.0
220
0.0
230
1.0
 70
     8
 71
     3
 72
     8
 73
     4
 74
     0
 42
0.0000000001
 43
0.0000000001
 12
1.0
 22
0.0
 32
0.0
 13
1.0
 23
0.0
 33
0.0
 40
0.0
 40
0.0
 40
0.0
 40
0.0
 40
1.0
 40
1.0
 40
1.0
 40
1.0
 10
41.67775458731959
 20
-241.6886928983285
 30
0.0
 10
-23.63957159742222
 20
-241.3162345948467
 30
0.0
 10
-88.90285287583413
 20
-240.161359857095
 30
0.0
 10
-154.167227752227
 20
-237.1877258567578
 30
0.0
  0
ENDBLK
  5
75
330
72
100
AcDbEntity
  8
0
100
AcDbBlockEnd
  0
BLOCK
  5
79
330
77
100
AcDbEntity
  8
0
100
AcDbBlockBegin
  2
block 13
 70
     0
 10
0.0
 20
0.0
 30
0.0
  3
block 13
  1

  0
SPLINE
  5
7B
330
77
100
AcDbEntity
  8
0
 62
   250
370
    25
100
AcDbSpline
210
0.0
220
0.0
230
1.0
 70
     8
 71
     3
 72
    23
 73
    19
 74
     0
 42
0.0000000001
 43
0.0000000001
 12
1.0
 22
0.0
 32
0.0
 13
1.0
 23
0.0
 33
0.0
 40
0.0
 40
0.0
 40
0.0
 40
0.0
 40
1.0
 40
1.0
 40
1.0
 40
2.0
 40
2.0
 40
2.0
 40
3.0
 40
3.0
 40
3.0
 40
4.0
 40
4.0
 40
4.0
 40
5.0
 40
5.0
 40
5.0
 40
6.0
 40
6.0
 40
6.0
 40
6.0
 10
-154.1672630295871
 20
-237.1880786302849
 30
0.0
 10
-214.8968046045605
 20
-234.4185241228075
 30
0.0
 10
-284.2164877095069
 20
-229.7842086831393
 30
0.0
 10
-344.4932797233156
 20
-220.968327364953
 30
0.0
 10
-406.8581735974624
 20
-211.8470499932315
 30
0.0
 10
-470.156259316843
 20
-197.0123946111463
 30
0.0
 10
-527.4992101856192
 20
-168.7531886881142
 30
0.0
 10
-556.4250177036363
 20
-154.4982452910299
 30
0.0
 10
-582.6838572595794
 20
-137.5552381420871
 30
0.0
 10
-607.089753796927
 20
-116.3722106462029
 30
0.0
 10
-631.1889490186355
 20
-95.45535077947018
 30
0.0
 10
-652.1518463607216
 20
-71.22107918152098
 30
0.0
 10
-669.0876573574665
 20
-44.13473941715556
 30
0.0
 10
-686.0870028687485
 20
-16.94669504379261
 30
0.0
 10
-698.575821175518
 20
12.31026025709384
 30
0.0
 10
-706.9611423881793
 20
43.20782414142482
 30
0.0
 10
-715.4155013826071
 20
74.3598435737239
 30
0.0
 10
-719.3606737120007
 20
105.4255746003151
 30
0.0
 10
-720.0850588989297
 20
137.6105597954499
 30
0.0
  0
ENDBLK
  5
7A
330
77
100
AcDbEntity
  8
0
100
AcDbBlockEnd
  0
BLOCK
  5
7E
330
7C
100
AcDbEntity
  8
0
100
AcDbBlockBegin
  2
block 14
 70
     0
 10
0.0
 20
0.0
 30
0.0
  3
block 14
  1

  0
SPLINE
  5
80
330
7C
100
AcDbEntity
  8
0
 62
   250
370
    25
100
AcDbSpline
210
0.0
220
0.0
230
1.0
 70
     8
 71
     3
 72
    26
 73
    22
 74
     0
 42
0.0000000001
 43
0.0000000001
 12
1.0
 22
0.0
 32
0.0
 13
1.0
 23
0.0
 33
0.0
 40
0.0
 40
0.0
 40
0.0
 40
0.0
 40
1.0
 40
1.0
 40
1.0
 40
2.0
 40
2.0
 40
2.0
 40
3.0
 40
3.0
 40
3.0
 40
4.0
 40
4.0
 40
4.0
 40
5.0
 40
5.0
 40
5.0
 40
6.0
 40
6.0
 40
6.0
 40
7.0
 40
7.0
 40
7.0
 40
7.0
 10
-720.2028499839261
 20
148.8018064675613
 30
0.0
 10
-720.2428545033587
 20
188.8708129015439
 30
0.0
 10
-715.220946775332
 20
228.7215583463639
 30
0.0
 10
-703.1640643908755
 20
267.1446292749707
 30
0.0
 10
-691.0799478891466
 20
305.6545177717726
 30
0.0
 10
-672.441934007415
 20
341.0119513608261
 30
0.0
 10
-647.0286220720297
 20
372.4487303815429
 30
0.0
 10
-621.6719655671449
 20
403.8153427451504
 30
0.0
 10
-590.9630641914254
 20
429.6412938902167
 30
0.0
 10
-556.5068258875457
 20
450.3295217540993
 30
0.0
 10
-522.0151338428891
 20
471.0390571397961
 30
0.0
 10
-484.7983014794456
 20
485.997537167736
 30
0.0
 10
-446.3150121075608
 20
497.0651719914394
 30
0.0
 10
-407.6337462250426
 20
508.1897797418619
 30
0.0
 10
-368.5140533870835
 20
515.2899116711172
 30
0.0
 10
-328.7122729096138
 20
520.5460963070232
 30
0.0
 10
-288.9922653387094
 20
525.7914860726123
 30
0.0
 10
-249.1690009526631
 20
529.0776774293583
 30
0.0
 10
-209.2108712422761
 20
531.6037476395588
 30
0.0
 10
-129.274362620335
 20
536.6572285994113
 30
0.0
 10
-49.34219311293114
 20
538.4274109455478
 30
0.0
 10
30.71302380521037
 20
539.0064181566804
 30
0.0
  0
ENDBLK
  5
7F
330
7C
100
AcDbEntity
  8
0
100
AcDbBlockEnd
  0
BLOCK
  5
83
330
81
100
AcDbEntity
  8
0
100
AcDbBlockBegin
  2
block 15
 70
     0
 10
0.0
 20
0.0
 30
0.0
  3
block 15
  1

  0
SPLINE
  5
85
330
81
100
AcDbEntity
  8
0
 62
   250
370
    25
100
AcDbSpline
210
0.0
220
0.0
230
1.0
 70
     8
 71
     3
 72
     8
 73
     4
 74
     0
 42
0.0000000001
 43
0.0000000001
 12
1.0
 22
0.0
 32
0.0
 13
1.0
 23
0.0
 33
0.0
 40
0.0
 40
0.0
 40
0.0
 40
0.0
 40
1.0
 40
1.0
 40
1.0
 40
1.0
 10
30.71302380521037
 20
539.0064181566804
 30
0.0
 10
44.81394663487717
 20
539.1092163662183
 30
0.0
 10
58.91494001923914
 20
539.1781835932725
 30
0.0
 10
73.01618034507909
 20
539.2186467183114
 30
0.0
  0
ENDBLK
  5
84
330
81
100
AcDbEntity
  8
0
100
AcDbBlockEnd
  0
BLOCK
  5
88
330
86
100
AcDbEntity
  8
0
100
AcDbBlockBegin
  2
block 16
 70
     0
 10
0.0
 20
0.0
 30
0.0
  3
block 16
  1

  0
SPLINE
  5
8A
330
86
100
AcDbEntity
  8
0
 62
   250
370
    25
100
AcDbSpline
210
0.0
220
0.0
230
1.0
 70
     8
 71
     3
 72
     8
 73
     4
 74
     0
 42
0.0000000001
 43
0.0000000001
 12
1.0
 22
0.0
 32
0.0
 13
1.0
 23
0.0
 33
0.0
 40
0.0
 40
0.0
 40
0.0
 40
0.0
 40
1.0
 40
1.0
 40
1.0
 40
1.0
 10
73.01618034507909
 20
539.2186467183114
 30
0.0
 10
94.55236996694822
 20
539.2808759707616
 30
0.0
 10
116.0882420926375
 20
539.2818637366735
 30
0.0
 10
137.6243964371593
 20
539.219105323914
 30
0.0
  0
ENDBLK
  5
89
330
86
100
AcDbEntity
  8
0
100
AcDbBlockEnd
  0
BLOCK
  5
8D
330
8B
100
AcDbEntity
  8
0
100
AcDbBlockBegin
  2
block 17
 70
     0
 10
0.0
 20
0.0
 30
0.0
  3
block 17
  1

  0
SPLINE
  5
8F
330
8B
100
AcDbEntity
  8
0
 62
   250
370
    25
100
AcDbSpline
210
0.0
220
0.0
230
1.0
 70
     8
 71
     3
 72
     8
 73
     4
 74
     0
 42
0.0000000001
 43
0.0000000001
 12
1.0
 22
0.0
 32
0.0
 13
1.0
 23
0.0
 33
0.0
 40
0.0
 40
0.0
 40
0.0
 40
0.0
 40
1.0
 40
1.0
 40
1.0
 40
1.0
 10
137.6243964371593
 20
539.219105323914
 30
0.0
 10
224.1928359461235
 20
538.9946002430908
 30
0.0
 10
310.6541381310192
 20
537.736151194007
 30
0.0
 10
397.1341020361702
 20
532.9485909285686
 30
0.0
  0
ENDBLK
  5
8E
330
8B
100
AcDbEntity
  8
0
100
AcDbBlockEnd
  0
BLOCK
  5
92
330
90
100
AcDbEntity
  8
0
100
AcDbBlockBegin
  2
block 18
 70
     0
 10
0.0
 20
0.0
 30
0.0
  3
block 18
  1

  0
SPLINE
  5
94
330
90
100
AcDbEntity
  8
0
 62
   250
370
    25
100
AcDbSpline
210
0.0
220
0.0
230
1.0
 70
     8
 71
     3
 72
    26
 73
    22
 74
     0
 42
0.0000000001
 43
0.0000000001
 12
1.0
 22
0.0
 32
0.0
 13
1.0
 23
0.0
 33
0.0
 40
0.0
 40
0.0
 40
0.0
 40
0.0
 40
1.0
 40
1.0
 40
1.0
 40
2.0
 40
2.0
 40
2.0
 40
3.0
 40
3.0
 40
3.0
 40
4.0
 40
4.0
 40
4.0
 40
5.0
 40
5.0
 40
5.0
 40
6.0
 40
6.0
 40
6.0
 40
7.0
 40
7.0
 40
7.0
 40
7.0
 10
397.1341020361702
 20
532.9485909285686
 30
0.0
 10
427.6014593690667
 20
531.2736574382234
 30
0.0
 10
458.0192520196132
 20
529.1570514758477
 30
0.0
 10
488.4000034484687
 20
526.2692120004235
 30
0.0
 10
518.7832948468108
 20
523.3811608608751
 30
0.0
 10
549.0054040147407
 20
519.717254874902
 30
0.0
 10
579.1041482757439
 20
514.5571304739162
 30
0.0
 10
638.8016861369474
 20
504.322605642171
 30
0.0
 10
698.5340780238913
 20
488.0121915770633
 30
0.0
 10
752.497352547825
 20
458.6975923406632
 30
0.0
 10
779.627789688951
 20
443.9594899431399
 30
0.0
 10
804.1260423390539
 20
426.747069213728
 30
0.0
 10
826.7307477360885
 20
405.6294453970075
 30
0.0
 10
849.1120416502766
 20
384.7205929612304
 30
0.0
 10
868.3281102545724
 20
361.0005587402725
 30
0.0
 10
883.9048259112878
 20
334.5987753459218
 30
0.0
 10
899.4894084179296
 20
308.1836218344183
 30
0.0
 10
910.9359573008983
 20
279.9086109429151
 30
0.0
 10
918.6092404005318
 20
250.2615931998147
 30
0.0
 10
926.3443294243393
 20
220.3757477701658
 30
0.0
 10
930.0040021278378
 20
190.5646903309909
 30
0.0
 10
930.693498011678
 20
159.772358013078
 30
0.0
  0
ENDBLK
  5
93
330
90
100
AcDbEntity
  8
0
100
AcDbBlockEnd
  0
BLOCK
  5
97
330
95
100
AcDbEntity
  8
0
100
AcDbBlockBegin
  2
block 19
 70
     0
 10
0.0
 20
0.0
 30
0.0
  3
block 19
  1

  0
SPLINE
  5
99
330
95
100
AcDbEntity
  8
0
  6
AI-Linetype-1
 62
     6
370
    25
100
AcDbSpline
210
0.0
220
0.0
230
1.0
 70
     8
 71
     3
 72
    11
 73
     7
 74
     0
 42
0.0000000001
 43
0.0000000001
 12
1.0
 22
0.0
 32
0.0
 13
1.0
 23
0.0
 33
0.0
 40
0.0
 40
0.0
 40
0.0
 40
0.0
 40
1.0
 40
1.0
 40
1.0
 40
2.0
 40
2.0
 40
2.0
 40
2.0
 10
-235.8462965521405
 20
-3.263456431102298
 30
0.0
 10
-235.8462965521405
 20
-16.67047336897944
 30
0.0
 10
-225.7076555685394
 20
-27.90602811387939
 30
0.0
 10
-212.3710518905469
 20
-29.27849353640885
 30
0.0
 10
-199.0344834899143
 20
-30.65095895892419
 30
0.0
 10
-186.8200524425174
 20
-21.71573457789986
 30
0.0
 10
-184.0895499659174
 20
-8.589701757505633
 30
0.0
  0
ENDBLK
  5
98
330
95
100
AcDbEntity
  8
0
100
AcDbBlockEnd
  0
BLOCK
  5
9D
330
9B
100
AcDbEntity
  8
0
100
AcDbBlockBegin
  2
block 20
 70
     0
 10
0.0
 20
0.0
 30
0.0
  3
block 20
  1

  0
SPLINE
  5
9F
330
9B
100
AcDbEntity
  8
0
  6
AI-Linetype-2
 62
     6
370
    25
100
AcDbSpline
210
0.0
220
0.0
230
1.0
 70
     8
 71
     3
 72
    11
 73
     7
 74
     0
 42
0.0000000001
 43
0.0000000001
 12
1.0
 22
0.0
 32
0.0
 13
1.0
 23
0.0
 33
0.0
 40
0.0
 40
0.0
 40
0.0
 40
0.0
 40
1.0
 40
1.0
 40
1.0
 40
2.0
 40
2.0
 40
2.0
 40
2.0
 10
-183.5414457168791
 20
-3.263456431102298
 30
0.0
 10
-183.5414457168791
 20
9.978215552771552
 30
0.0
 10
-193.4386132123742
 20
21.1303746349299
 30
0.0
 10
-206.5864477691381
 20
22.70370930603972
 30
0.0
 10
-219.7343176032626
 20
24.27707925448492
 30
0.0
 10
-231.9834262896271
 20
15.77509604693243
 30
0.0
 10
-235.1078709783094
 20
2.907328728599482
 30
0.0
  0
ENDBLK
  5
9E
330
9B
100
AcDbEntity
  8
0
100
AcDbBlockEnd
  0
BLOCK
  5
A3
330
A1
100
AcDbEntity
  8
0
100
AcDbBlockBegin
  2
block 21
 70
     0
 10
0.0
 20
0.0
 30
0.0
  3
block 21
  1

  0
SPLINE
  5
A5
330
A1
100
AcDbEntity
  8
0
  6
AI-Linetype-3
 62
     6
370
    25
100
AcDbSpline
210
0.0
220
0.0
230
1.0
 70
     8
 71
     3
 72
    11
 73
     7
 74
     0
 42
0.0000000001
 43
0.0000000001
 12
1.0
 22
0.0
 32
0.0
 13
1.0
 23
0.0
 33
0.0
 40
0.0
 40
0.0
 40
0.0
 40
0.0
 40
1.0
 40
1.0
 40
1.0
 40
2.0
 40
2.0
 40
2.0
 40
2.0
 10
494.1449205466396
 20
-3.263456431102298
 30
0.0
 10
494.1449205466396
 20
-16.67047336897944
 30
0.0
 10
504.283561530227
 20
-27.90602811387939
 30
0.0
 10
517.6201652082203
 20
-29.27849353640885
 30
0.0
 10
530.9567688862138
 20
-30.65095895892419
 30
0.0
 10
543.1711646562609
 20
-21.71573457789986
 30
0.0
 10
545.9016671328611
 20
-8.589701757505633
 30
0.0
  0
ENDBLK
  5
A4
330
A1
100
AcDbEntity
  8
0
100
AcDbBlockEnd
  0
BLOCK
  5
A9
330
A7
100
AcDbEntity
  8
0
100
AcDbBlockBegin
  2
block 22
 70
     0
 10
0.0
 20
0.0
 30
0.0
  3
block 22
  1

  0
SPLINE
  5
AB
330
A7
100
AcDbEntity
  8
0
  6
AI-Linetype-4
 62
     6
370
    25
100
AcDbSpline
210
0.0
220
0.0
230
1.0
 70
     8
 71
     3
 72
    11
 73
     7
 74
     0
 42
0.0000000001
 43
0.0000000001
 12
1.0
 22
0.0
 32
0.0
 13
1.0
 23
0.0
 33
0.0
 40
0.0
 40
0.0
 40
0.0
 40
0.0
 40
1.0
 40
1.0
 40
1.0
 40
2.0
 40
2.0
 40
2.0
 40
2.0
 10
546.4498066592483
 20
-3.263456431102298
 30
0.0
 10
546.4498066592483
 20
9.978215552771552
 30
0.0
 10
536.5526391637536
 20
21.1303746349299
 30
0.0
 10
523.4047693296308
 20
22.70370930603972
 30
0.0
 10
510.2568994955182
 20
24.27707925448492
 30
0.0
 10
498.0077908091408
 20
15.77509604693243
 30
0.0
 10
494.8833813978189
 20
2.907328728599482
 30
0.0
  0
ENDBLK
  5
AA
330
A7
100
AcDbEntity
  8
0
100
AcDbBlockEnd
  0
BLOCK
  5
AF
330
AD
100
AcDbEntity
  8
0
100
AcDbBlockBegin
  2
block 23
 70
     0
 10
0.0
 20
0.0
 30
0.0
  3
block 23
  1

  0
SPLINE
  5
B1
330
AD
100
AcDbEntity
  8
0
  6
AI-Linetype-5
 62
     6
370
    25
100
AcDbSpline
210
0.0
220
0.0
230
1.0
 70
     8
 71
     3
 72
    11
 73
     7
 74
     0
 42
0.0000000001
 43
0.0000000001
 12
1.0
 22
0.0
 32
0.0
 13
1.0
 23
0.0
 33
0.0
 40
0.0
 40
0.0
 40
0.0
 40
0.0
 40
1.0
 40
1.0
 40
1.0
 40
2.0
 40
2.0
 40
2.0
 40
2.0
 10
546.4498066592483
 20
300.7329035611619
 30
0.0
 10
546.4498066592483
 20
313.9745758795496
 30
0.0
 10
536.5526391637536
 20
325.126735243435
 30
0.0
 10
523.4047693296308
 20
326.7000699542795
 30
0.0
 10
510.2568994955182
 20
328.2734399424831
 30
0.0
 10
498.0077908091408
 20
319.7714565201565
 30
0.0
 10
494.8833813978189
 20
306.9036888767555
 30
0.0
  0
ENDBLK
  5
B0
330
AD
100
AcDbEntity
  8
0
100
AcDbBlockEnd
  0
BLOCK
  5
B5
330
B3
100
AcDbEntity
  8
0
100
AcDbBlockBegin
  2
block 24
 70
     0
 10
0.0
 20
0.0
 30
0.0
  3
block 24
  1

  0
SPLINE
  5
B7
330
B3
100
AcDbEntity
  8
0
  6
AI-Linetype-6
 62
     6
370
    25
100
AcDbSpline
210
0.0
220
0.0
230
1.0
 70
     8
 71
     3
 72
    11
 73
     7
 74
     0
 42
0.0000000001
 43
0.0000000001
 12
1.0
 22
0.0
 32
0.0
 13
1.0
 23
0.0
 33
0.0
 40
0.0
 40
0.0
 40
0.0
 40
0.0
 40
1.0
 40
1.0
 40
1.0
 40
2.0
 40
2.0
 40
2.0
 40
2.0
 10
494.1449205466396
 20
300.7329035611619
 30
0.0
 10
494.1449205466396
 20
287.3258862845877
 30
0.0
 10
504.283561530227
 20
276.0903312558675
 30
0.0
 10
517.6201652082203
 20
274.7178657986613
 30
0.0
 10
530.9567688862138
 20
273.3454003414678
 30
0.0
 10
543.1711646562609
 20
282.2806249482149
 30
0.0
 10
545.9016671328611
 20
295.4066228228602
 30
0.0
  0
ENDBLK
  5
B6
330
B3
100
AcDbEntity
  8
0
100
AcDbBlockEnd
  0
BLOCK
  5
BB
330
B9
100
AcDbEntity
  8
0
100
AcDbBlockBegin
  2
block 25
 70
     0
 10
0.0
 20
0.0
 30
0.0
  3
block 25
  1

  0
SPLINE
  5
BD
330
B9
100
AcDbEntity
  8
0
  6
AI-Linetype-7
 62
     6
370
    25
100
AcDbSpline
210
0.0
220
0.0
230
1.0
 70
     8
 71
     3
 72
    11
 73
     7
 74
     0
 42
0.0000000001
 43
0.0000000001
 12
1.0
 22
0.0
 32
0.0
 13
1.0
 23
0.0
 33
0.0
 40
0.0
 40
0.0
 40
0.0
 40
0.0
 40
1.0
 40
1.0
 40
1.0
 40
2.0
 40
2.0
 40
2.0
 40
2.0
 10
-183.5414457168791
 20
300.7329035611619
 30
0.0
 10
-183.5414457168791
 20
313.9745758795496
 30
0.0
 10
-193.4386132123742
 20
325.126735243435
 30
0.0
 10
-206.5864477691381
 20
326.7000699542795
 30
0.0
 10
-219.7343176032626
 20
328.2734399424831
 30
0.0
 10
-231.9834262896271
 20
319.7714565201565
 30
0.0
 10
-235.1078709783094
 20
306.9036888767555
 30
0.0
  0
ENDBLK
  5
BC
330
B9
100
AcDbEntity
  8
0
100
AcDbBlockEnd
  0
BLOCK
  5
C1
330
BF
100
AcDbEntity
  8
0
100
AcDbBlockBegin
  2
block 26
 70
     0
 10
0.0
 20
0.0
 30
0.0
  3
block 26
  1

  0
SPLINE
  5
C3
330
BF
100
AcDbEntity
  8
0
  6
AI-Linetype-8
 62
     6
370
    25
100
AcDbSpline
210
0.0
220
0.0
230
1.0
 70
     8
 71
     3
 72
    11
 73
     7
 74
     0
 42
0.0000000001
 43
0.0000000001
 12
1.0
 22
0.0
 32
0.0
 13
1.0
 23
0.0
 33
0.0
 40
0.0
 40
0.0
 40
0.0
 40
0.0
 40
1.0
 40
1.0
 40
1.0
 40
2.0
 40
2.0
 40
2.0
 40
2.0
 10
-235.8462965521405
 20
300.7329035611619
 30
0.0
 10
-235.8462965521405
 20
287.3258862845877
 30
0.0
 10
-225.7076555685394
 20
276.0903312558675
 30
0.0
 10
-212.3710518905469
 20
274.7178657986613
 30
0.0
 10
-199.0344834899143
 20
273.3454003414678
 30
0.0
 10
-186.8200524425174
 20
282.2806249482149
 30
0.0
 10
-184.0895499659174
 20
295.4066228228602
 30
0.0
  0
ENDBLK
  5
C2
330
BF
100
AcDbEntity
  8
0
100
AcDbBlockEnd
  0
BLOCK
  5
C7
330
C5
100
AcDbEntity
  8
0
100
AcDbBlockBegin
  2
block 27
 70
     0
 10
0.0
 20
0.0
 30
0.0
  3
block 27
  1

  0
SPLINE
  5
C9
330
C5
100
AcDbEntity
  8
0
  6
AI-Linetype-9
 62
     6
370
    25
100
AcDbSpline
210
0.0
220
0.0
230
1.0
 70
     8
 71
     3
 72
    11
 73
     7
 74
     0
 42
0.0000000001
 43
0.0000000001
 12
1.0
 22
0.0
 32
0.0
 13
1.0
 23
0.0
 33
0.0
 40
0.0
 40
0.0
 40
0.0
 40
0.0
 40
1.0
 40
1.0
 40
1.0
 40
2.0
 40
2.0
 40
2.0
 40
2.0
 10
-245.7716506534769
 20
-3.263456431102298
 30
0.0
 10
-245.7716506534769
 20
-21.75870239399021
 30
0.0
 10
-231.7852028375346
 20
-37.25833664064741
 30
0.0
 10
-213.3871102403267
 20
-39.15167218175841
 30
0.0
 10
-194.9890176431317
 20
-41.04500772286943
 30
0.0
 10
-178.1390364486581
 20
-28.71874777469934
 30
0.0
 10
-174.3722264210908
 20
-10.61112936772584
 30
0.0
  0
ENDBLK
  5
C8
330
C5
100
AcDbEntity
  8
0
100
AcDbBlockEnd
  0
BLOCK
  5
CD
330
CB
100
AcDbEntity
  8
0
100
AcDbBlockBegin
  2
block 28
 70
     0
 10
0.0
 20
0.0
 30
0.0
  3
block 28
  1

  0
SPLINE
  5
CF
330
CB
100
AcDbEntity
  8
0
  6
AI-Linetype-10
 62
     6
370
    25
100
AcDbSpline
210
0.0
220
0.0
230
1.0
 70
     8
 71
     3
 72
    11
 73
     7
 74
     0
 42
0.0000000001
 43
0.0000000001
 12
1.0
 22
0.0
 32
0.0
 13
1.0
 23
0.0
 33
0.0
 40
0.0
 40
0.0
 40
0.0
 40
0.0
 40
1.0
 40
1.0
 40
1.0
 40
2.0
 40
2.0
 40
2.0
 40
2.0
 10
-173.616091615543
 20
-3.263456431102298
 30
0.0
 10
-173.616091615543
 20
15.00368616659507
 30
0.0
 10
-187.2694153777169
 20
30.38828096479639
 30
0.0
 10
-205.4071258250715
 20
32.55875539190014
 30
0.0
 10
-223.5448715497862
 20
34.72922981898977
 30
0.0
 10
-240.4427593909784
 20
23.00060350975546
 30
0.0
 10
-244.7529465021453
 20
5.249251091789688
 30
0.0
  0
ENDBLK
  5
CE
330
CB
100
AcDbEntity
  8
0
100
AcDbBlockEnd
  0
BLOCK
  5
D3
330
D1
100
AcDbEntity
  8
0
100
AcDbBlockBegin
  2
block 29
 70
     0
 10
0.0
 20
0.0
 30
0.0
  3
block 29
  1

  0
SPLINE
  5
D5
330
D1
100
AcDbEntity
  8
0
  6
AI-Linetype-11
 62
     6
370
    25
100
AcDbSpline
210
0.0
220
0.0
230
1.0
 70
     8
 71
     3
 72
    11
 73
     7
 74
     0
 42
0.0000000001
 43
0.0000000001
 12
1.0
 22
0.0
 32
0.0
 13
1.0
 23
0.0
 33
0.0
 40
0.0
 40
0.0
 40
0.0
 40
0.0
 40
1.0
 40
1.0
 40
1.0
 40
2.0
 40
2.0
 40
2.0
 40
2.0
 10
484.2196017226505
 20
-3.263456431102298
 30
0.0
 10
484.2196017226505
 20
-21.75870239399021
 30
0.0
 10
498.2060495385922
 20
-37.25833664064741
 30
0.0
 10
516.604106858448
 20
-39.15167218175841
 30
0.0
 10
535.0021994556469
 20
-41.04500772286943
 30
0.0
 10
551.8522159274696
 20
-28.71874777469934
 30
0.0
 10
555.6189906776909
 20
-10.61112936772584
 30
0.0
  0
ENDBLK
  5
D4
330
D1
100
AcDbEntity
  8
0
100
AcDbBlockEnd
  0
BLOCK
  5
D9
330
D7
100
AcDbEntity
  8
0
100
AcDbBlockBegin
  2
block 30
 70
     0
 10
0.0
 20
0.0
 30
0.0
  3
block 30
  1

  0
SPLINE
  5
DB
330
D7
100
AcDbEntity
  8
0
  6
AI-Linetype-12
 62
     6
370
    25
100
AcDbSpline
210
0.0
220
0.0
230
1.0
 70
     8
 71
     3
 72
    11
 73
     7
 74
     0
 42
0.0000000001
 43
0.0000000001
 12
1.0
 22
0.0
 32
0.0
 13
1.0
 23
0.0
 33
0.0
 40
0.0
 40
0.0
 40
0.0
 40
0.0
 40
1.0
 40
1.0
 40
1.0
 40
2.0
 40
2.0
 40
2.0
 40
2.0
 10
556.3751254832233
 20
-3.263456431102298
 30
0.0
 10
556.3751254832233
 20
15.00368616659507
 30
0.0
 10
542.721801721062
 20
30.38828096479639
 30
0.0
 10
524.5840912737095
 20
32.55875539190014
 30
0.0
 10
506.4463455489789
 20
34.72922981898977
 30
0.0
 10
489.5484929851481
 20
23.00060350975546
 30
0.0
 10
485.2382705966187
 20
5.249251091789688
 30
0.0
  0
ENDBLK
  5
DA
330
D7
100
AcDbEntity
  8
0
100
AcDbBlockEnd
  0
BLOCK
  5
DF
330
DD
100
AcDbEntity
  8
0
100
AcDbBlockBegin
  2
block 31
 70
     0
 10
0.0
 20
0.0
 30
0.0
  3
block 31
  1

  0
SPLINE
  5
E1
330
DD
100
AcDbEntity
  8
0
  6
AI-Linetype-13
 62
     6
370
    25
100
AcDbSpline
210
0.0
220
0.0
230
1.0
 70
     8
 71
     3
 72
    11
 73
     7
 74
     0
 42
0.0000000001
 43
0.0000000001
 12
1.0
 22
0.0
 32
0.0
 13
1.0
 23
0.0
 33
0.0
 40
0.0
 40
0.0
 40
0.0
 40
0.0
 40
1.0
 40
1.0
 40
1.0
 40
2.0
 40
2.0
 40
2.0
 40
2.0
 10
556.3751254832233
 20
300.7329035611619
 30
0.0
 10
556.3751254832233
 20
319.0000466203378
 30
0.0
 10
542.721801721062
 20
334.3846418071732
 30
0.0
 10
524.5840912737095
 20
336.5551162891024
 30
0.0
 10
506.4463455489789
 20
338.7255907710317
 30
0.0
 10
489.5484929851481
 20
326.9969641655024
 30
0.0
 10
485.2382705966187
 20
309.2456112990975
 30
0.0
  0
ENDBLK
  5
E0
330
DD
100
AcDbEntity
  8
0
100
AcDbBlockEnd
  0
BLOCK
  5
E5
330
E3
100
AcDbEntity
  8
0
100
AcDbBlockBegin
  2
block 32
 70
     0
 10
0.0
 20
0.0
 30
0.0
  3
block 32
  1

  0
SPLINE
  5
E7
330
E3
100
AcDbEntity
  8
0
  6
AI-Linetype-14
 62
     6
370
    25
100
AcDbSpline
210
0.0
220
0.0
230
1.0
 70
     8
 71
     3
 72
    11
 73
     7
 74
     0
 42
0.0000000001
 43
0.0000000001
 12
1.0
 22
0.0
 32
0.0
 13
1.0
 23
0.0
 33
0.0
 40
0.0
 40
0.0
 40
0.0
 40
0.0
 40
1.0
 40
1.0
 40
1.0
 40
2.0
 40
2.0
 40
2.0
 40
2.0
 10
484.2196017226505
 20
300.7329035611619
 30
0.0
 10
484.2196017226505
 20
282.2376571310465
 30
0.0
 10
498.2060495385922
 20
266.7380224928284
 30
0.0
 10
516.604106858448
 20
264.8446516265382
 30
0.0
 10
535.0021994556469
 20
262.9513160375949
 30
0.0
 10
551.8522159274696
 20
275.2776115745131
 30
0.0
 10
555.6189906776909
 20
293.3852304389218
 30
0.0
  0
ENDBLK
  5
E6
330
E3
100
AcDbEntity
  8
0
100
AcDbBlockEnd
  0
BLOCK
  5
EB
330
E9
100
AcDbEntity
  8
0
100
AcDbBlockBegin
  2
block 33
 70
     0
 10
0.0
 20
0.0
 30
0.0
  3
block 33
  1

  0
SPLINE
  5
ED
330
E9
100
AcDbEntity
  8
0
  6
AI-Linetype-15
 62
     6
370
    25
100
AcDbSpline
210
0.0
220
0.0
230
1.0
 70
     8
 71
     3
 72
    11
 73
     7
 74
     0
 42
0.0000000001
 43
0.0000000001
 12
1.0
 22
0.0
 32
0.0
 13
1.0
 23
0.0
 33
0.0
 40
0.0
 40
0.0
 40
0.0
 40
0.0
 40
1.0
 40
1.0
 40
1.0
 40
2.0
 40
2.0
 40
2.0
 40
2.0
 10
-173.616091615543
 20
300.7329035611619
 30
0.0
 10
-173.616091615543
 20
319.0000466203378
 30
0.0
 10
-187.2694153777169
 20
334.3846418071732
 30
0.0
 10
-205.4071258250715
 20
336.5551162891024
 30
0.0
 10
-223.5448715497862
 20
338.7255907710317
 30
0.0
 10
-240.4427593909784
 20
326.9969641655024
 30
0.0
 10
-244.7529465021453
 20
309.2456112990975
 30
0.0
  0
ENDBLK
  5
EC
330
E9
100
AcDbEntity
  8
0
100
AcDbBlockEnd
  0
BLOCK
  5
F1
330
EF
100
AcDbEntity
  8
0
100
AcDbBlockBegin
  2
block 34
 70
     0
 10
0.0
 20
0.0
 30
0.0
  3
block 34
  1

  0
SPLINE
  5
F3
330
EF
100
AcDbEntity
  8
0
  6
AI-Linetype-16
 62
     6
370
    25
100
AcDbSpline
210
0.0
220
0.0
230
1.0
 70
     8
 71
     3
 72
    11
 73
     7
 74
     0
 42
0.0000000001
 43
0.0000000001
 12
1.0
 22
0.0
 32
0.0
 13
1.0
 23
0.0
 33
0.0
 40
0.0
 40
0.0
 40
0.0
 40
0.0
 40
1.0
 40
1.0
 40
1.0
 40
2.0
 40
2.0
 40
2.0
 40
2.0
 10
-245.7716506534769
 20
300.7329035611619
 30
0.0
 10
-245.7716506534769
 20
282.2376571310465
 30
0.0
 10
-231.7852028375346
 20
266.7380224928284
 30
0.0
 10
-213.3871102403267
 20
264.8446516265382
 30
0.0
 10
-194.9890176431317
 20
262.9513160375949
 30
0.0
 10
-178.1390364486581
 20
275.2776115745131
 30
0.0
 10
-174.3722264210908
 20
293.3852304389218
 30
0.0
  0
ENDBLK
  5
F2
330
EF
100
AcDbEntity
  8
0
100
AcDbBlockEnd
  0
BLOCK
  5
F7
330
F5
100
AcDbEntity
  8
0
100
AcDbBlockBegin
  2
block 35
 70
     0
 10
0.0
 20
0.0
 30
0.0
  3
block 35
  1

  0
SPLINE
  5
F9
330
F5
100
AcDbEntity
  8
0
 62
   250
370
    25
100
AcDbSpline
210
0.0
220
0.0
230
1.0
 70
     8
 71
     3
 72
     8
 73
     4
 74
     0
 42
0.0000000001
 43
0.0000000001
 12
1.0
 22
0.0
 32
0.0
 13
1.0
 23
0.0
 33
0.0
 40
0.0
 40
0.0
 40
0.0
 40
0.0
 40
1.0
 40
1.0
 40
1.0
 40
1.0
 10
-720.0439960588778
 20
143.2088994877587
 30
0.0
 10
-720.0249462877226
 20
141.3435388405455
 30
0.0
 10
-719.9944666538786
 20
139.4784956895126
 30
0.0
 10
-719.9525218799799
 20
137.6135230931876
 30
0.0
  0
ENDBLK
  5
F8
330
F5
100
AcDbEntity
  8
0
100
AcDbBlockEnd
  0
BLOCK
  5
FC
330
FA
100
AcDbEntity
  8
0
100
AcDbBlockBegin
  2
block 36
 70
     0
 10
0.0
 20
0.0
 30
0.0
  3
block 36
  1

  0
SPLINE
  5
FE
330
FA
100
AcDbEntity
  8
0
 62
   250
370
    25
100
AcDbSpline
210
0.0
220
0.0
230
1.0
 70
     8
 71
     3
 72
     8
 73
     4
 74
     0
 42
0.0000000001
 43
0.0000000001
 12
1.0
 22
0.0
 32
0.0
 13
1.0
 23
0.0
 33
0.0
 40
0.0
 40
0.0
 40
0.0
 40
0.0
 40
1.0
 40
1.0
 40
1.0
 40
1.0
 10
-720.0703835196716
 20
148.7090623039125
 30
0.0
 10
-720.07119489882
 20
146.875592384706
 30
0.0
 10
-720.0624108376642
 20
145.042263574909
 30
0.0
 10
-720.0439960588778
 20
143.2088994877587
 30
0.0
  0
ENDBLK
  5
FD
330
FA
100
AcDbEntity
  8
0
100
AcDbBlockEnd
  0
BLOCK
  5
101
330
FF
100
AcDbEntity
  8
0
100
AcDbBlockBegin
  2
block 37
 70
     0
 10
0.0
 20
0.0
 30
0.0
  3
block 37
  1

  0
SPLINE
  5
103
330
FF
100
AcDbEntity
  8
0
 62
   250
370
    25
100
AcDbSpline
210
0.0
220
0.0
230
1.0
 70
    24
 71
     3
 72
     8
 73
     4
 74
     0
 42
0.0000000001
 43
0.0000000001
 12
1.0
 22
0.0
 32
0.0
 13
1.0
 23
0.0
 33
0.0
 40
0.0
 40
0.0
 40
0.0
 40
0.0
 40
1.0
 40
1.0
 40
1.0
 40
1.0
 10
-720.0703835196716
 20
148.8017711902144
 30
0.0
 10
-720.0703835196716
 20
148.7708682281069
 30
0.0
 10
-720.0703835196716
 20
148.7399652660129
 30
0.0
 10
-720.0703835196716
 20
148.7090623039125
 30
0.0
  0
ENDBLK
  5
102
330
FF
100
AcDbEntity
  8
0
100
AcDbBlockEnd
  0
BLOCK
  5
106
330
104
100
AcDbEntity
  8
0
100
AcDbBlockBegin
  2
block 38
 70
     0
 10
0.0
 20
0.0
 30
0.0
  3
block 38
  1

  0
SPLINE
  5
108
330
104
100
AcDbEntity
  8
0
 62
   250
370
    25
100
AcDbSpline
210
0.0
220
0.0
230
1.0
 70
     8
 71
     3
 72
     8
 73
     4
 74
     0
 42
0.0000000001
 43
0.0000000001
 12
1.0
 22
0.0
 32
0.0
 13
1.0
 23
0.0
 33
0.0
 40
0.0
 40
0.0
 40
0.0
 40
0.0
 40
1.0
 40
1.0
 40
1.0
 40
1.0
 10
-426.0161051223648
 20
143.3439764762103
 30
0.0
 10
-426.0169165015131
 20
143.4813464926802
 30
0.0
 10
-426.0176220485944
 20
143.6187517864842
 30
0.0
 10
-426.0181864862583
 20
143.75612180294
 30
0.0
  0
ENDBLK
  5
107
330
104
100
AcDbEntity
  8
0
100
AcDbBlockEnd
  0
BLOCK
  5
10B
330
109
100
AcDbEntity
  8
0
100
AcDbBlockBegin
  2
block 39
 70
     0
 10
0.0
 20
0.0
 30
0.0
  3
block 39
  1

  0
SPLINE
  5
10D
330
109
100
AcDbEntity
  8
0
 62
   250
370
    25
100
AcDbSpline
210
0.0
220
0.0
230
1.0
 70
     8
 71
     3
 72
     8
 73
     4
 74
     0
 42
0.0000000001
 43
0.0000000001
 12
1.0
 22
0.0
 32
0.0
 13
1.0
 23
0.0
 33
0.0
 40
0.0
 40
0.0
 40
0.0
 40
0.0
 40
1.0
 40
1.0
 40
1.0
 40
1.0
 10
-421.6771316903449
 20
100.6409777534778
 30
0.0
 10
-424.5545290689876
 20
114.7996229869534
 30
0.0
 10
-425.9314394727879
 20
128.9067899082676
 30
0.0
 10
-426.0161051223648
 20
143.3439764762103
 30
0.0
  0
ENDBLK
  5
10C
330
109
100
AcDbEntity
  8
0
100
AcDbBlockEnd
  0
BLOCK
  5
110
330
10E
100
AcDbEntity
  8
0
100
AcDbBlockBegin
  2
block 40
 70
     0
 10
0.0
 20
0.0
 30
0.0
  3
block 40
  1

  0
SPLINE
  5
112
330
10E
100
AcDbEntity
  8
0
 62
   250
370
    25
100
AcDbSpline
210
0.0
220
0.0
230
1.0
 70
     8
 71
     3
 72
     8
 73
     4
 74
     0
 42
0.0000000001
 43
0.0000000001
 12
1.0
 22
0.0
 32
0.0
 13
1.0
 23
0.0
 33
0.0
 40
0.0
 40
0.0
 40
0.0
 40
0.0
 40
1.0
 40
1.0
 40
1.0
 40
1.0
 10
-421.6771316903449
 20
196.7503626899806
 30
0.0
 10
-424.5825392880499
 20
182.4538269324181
 30
0.0
 10
-425.958250261813
 20
168.2128177300358
 30
0.0
 10
-426.0181864862583
 20
153.6351920158305
 30
0.0
  0
ENDBLK
  5
111
330
10E
100
AcDbEntity
  8
0
100
AcDbBlockEnd
  0
BLOCK
  5
115
330
113
100
AcDbEntity
  8
0
100
AcDbBlockBegin
  2
block 41
 70
     0
 10
0.0
 20
0.0
 30
0.0
  3
block 41
  1

  0
SPLINE
  5
117
330
113
100
AcDbEntity
  8
0
 62
   250
370
    25
100
AcDbSpline
210
0.0
220
0.0
230
1.0
 70
     8
 71
     3
 72
     8
 73
     4
 74
     0
 42
0.0000000001
 43
0.0000000001
 12
1.0
 22
0.0
 32
0.0
 13
1.0
 23
0.0
 33
0.0
 40
0.0
 40
0.0
 40
0.0
 40
0.0
 40
1.0
 40
1.0
 40
1.0
 40
1.0
 10
-426.0242541911512
 20
151.8988759295456
 30
0.0
 10
-426.0315918807751
 20
149.1846010357613
 30
0.0
 10
-426.0295810716004
 20
146.4703966967178
 30
0.0
 10
-426.0181864862583
 20
143.75612180294
 30
0.0
  0
ENDBLK
  5
116
330
113
100
AcDbEntity
  8
0
100
AcDbBlockEnd
  0
BLOCK
  5
11A
330
118
100
AcDbEntity
  8
0
100
AcDbBlockBegin
  2
block 42
 70
     0
 10
0.0
 20
0.0
 30
0.0
  3
block 42
  1

  0
SPLINE
  5
11C
330
118
100
AcDbEntity
  8
0
 62
   250
370
    25
100
AcDbSpline
210
0.0
220
0.0
230
1.0
 70
     8
 71
     3
 72
     8
 73
     4
 74
     0
 42
0.0000000001
 43
0.0000000001
 12
1.0
 22
0.0
 32
0.0
 13
1.0
 23
0.0
 33
0.0
 40
0.0
 40
0.0
 40
0.0
 40
0.0
 40
1.0
 40
1.0
 40
1.0
 40
1.0
 10
-426.0181864862583
 20
153.6351920158305
 30
0.0
 10
-426.0206206236791
 20
153.056396468835
 30
0.0
 10
-426.0226314328538
 20
152.4776361991871
 30
0.0
 10
-426.0242541911512
 20
151.8988759295456
 30
0.0
  0
ENDBLK
  5
11B
330
118
100
AcDbEntity
  8
0
100
AcDbBlockEnd
  0
BLOCK
  5
11F
330
11D
100
AcDbEntity
  8
0
100
AcDbBlockBegin
  2
block 43
 70
     0
 10
0.0
 20
0.0
 30
0.0
  3
block 43
  1

  0
SPLINE
  5
121
330
11D
100
AcDbEntity
  8
0
 62
   250
370
    25
100
AcDbSpline
210
0.0
220
0.0
230
1.0
 70
     8
 71
     3
 72
     8
 73
     4
 74
     0
 42
0.0000000001
 43
0.0000000001
 12
1.0
 22
0.0
 32
0.0
 13
1.0
 23
0.0
 33
0.0
 40
0.0
 40
0.0
 40
0.0
 40
0.0
 40
1.0
 40
1.0
 40
1.0
 40
1.0
 10
930.652047120738
 20
154.1776871655741
 30
0.0
 10
930.6330326269298
 20
156.0418131054025
 30
0.0
 10
930.6026941025004
 20
157.9056215490519
 30
0.0
 10
930.5610315474229
 20
159.7693947153402
 30
0.0
  0
ENDBLK
  5
120
330
11D
100
AcDbEntity
  8
0
100
AcDbBlockEnd
  0
BLOCK
  5
124
330
122
100
AcDbEntity
  8
0
100
AcDbBlockBegin
  2
block 44
 70
     0
 10
0.0
 20
0.0
 30
0.0
  3
block 44
  1

  0
SPLINE
  5
126
330
122
100
AcDbEntity
  8
0
 62
   250
370
    25
100
AcDbSpline
210
0.0
220
0.0
230
1.0
 70
     8
 71
     3
 72
     8
 73
     4
 74
     0
 42
0.0000000001
 43
0.0000000001
 12
1.0
 22
0.0
 32
0.0
 13
1.0
 23
0.0
 33
0.0
 40
0.0
 40
0.0
 40
0.0
 40
0.0
 40
1.0
 40
1.0
 40
1.0
 40
1.0
 10
930.6787520777107
 20
148.6786532247681
 30
0.0
 10
930.6793870700833
 20
150.51173509308
 30
0.0
 10
930.6704971768719
 20
152.3447111293364
 30
0.0
 10
930.652047120738
 20
154.1776871655741
 30
0.0
  0
ENDBLK
  5
125
330
122
100
AcDbEntity
  8
0
100
AcDbBlockEnd
  0
BLOCK
  5
129
330
127
100
AcDbEntity
  8
0
100
AcDbBlockBegin
  2
block 45
 70
     0
 10
0.0
 20
0.0
 30
0.0
  3
block 45
  1

  0
SPLINE
  5
12B
330
127
100
AcDbEntity
  8
0
 62
   250
370
    25
100
AcDbSpline
210
0.0
220
0.0
230
1.0
 70
    24
 71
     3
 72
     8
 73
     4
 74
     0
 42
0.0000000001
 43
0.0000000001
 12
1.0
 22
0.0
 32
0.0
 13
1.0
 23
0.0
 33
0.0
 40
0.0
 40
0.0
 40
0.0
 40
0.0
 40
1.0
 40
1.0
 40
1.0
 40
1.0
 10
930.6787520777107
 20
148.5885901400173
 30
0.0
 10
930.6787520777107
 20
148.6186111682742
 30
0.0
 10
930.6787520777107
 20
148.6486321965183
 30
0.0
 10
930.6787520777107
 20
148.6786532247681
 30
0.0
  0
ENDBLK
  5
12A
330
127
100
AcDbEntity
  8
0
100
AcDbBlockEnd
  0
BLOCK
  5
12E
330
12C
100
AcDbEntity
  8
0
100
AcDbBlockBegin
  2
block 46
 70
     0
 10
0.0
 20
0.0
 30
0.0
  3
block 46
  1

  0
SPLINE
  5
130
330
12C
100
AcDbEntity
  8
0
 62
   250
370
    25
100
AcDbSpline
210
0.0
220
0.0
230
1.0
 70
     8
 71
     3
 72
    68
 73
    64
 74
     0
 42
0.0000000001
 43
0.0000000001
 12
1.0
 22
0.0
 32
0.0
 13
1.0
 23
0.0
 33
0.0
 40
0.0
 40
0.0
 40
0.0
 40
0.0
 40
1.0
 40
1.0
 40
1.0
 40
2.0
 40
2.0
 40
2.0
 40
3.0
 40
3.0
 40
3.0
 40
4.0
 40
4.0
 40
4.0
 40
5.0
 40
5.0
 40
5.0
 40
6.0
 40
6.0
 40
6.0
 40
7.0
 40
7.0
 40
7.0
 40
8.0
 40
8.0
 40
8.0
 40
9.0
 40
9.0
 40
9.0
 40
10.0
 40
10.0
 40
10.0
 40
11.0
 40
11.0
 40
11.0
 40
12.0
 40
12.0
 40
12.0
 40
13.0
 40
13.0
 40
13.0
 40
14.0
 40
14.0
 40
14.0
 40
15.0
 40
15.0
 40
15.0
 40
16.0
 40
16.0
 40
16.0
 40
17.0
 40
17.0
 40
17.0
 40
18.0
 40
18.0
 40
18.0
 40
19.0
 40
19.0
 40
19.0
 40
20.0
 40
20.0
 40
20.0
 40
21.0
 40
21.0
 40
21.0
 40
21.0
 10
137.5921176582523
 20
-241.7352942829523
 30
0.0
 10
159.0515790351772
 20
-241.672112541952
 30
0.0
 10
180.5109698574076
 20
-241.549206240629
 30
0.0
 10
201.9694434684192
 20
-241.331298024993
 30
0.0
 10
220.478589176006
 20
-241.143340282913
 30
0.0
 10
238.9870293364987
 20
-240.8846867234188
 30
0.0
 10
257.4935645198871
 20
-240.5214005319739
 30
0.0
 10
290.9938570852083
 20
-239.8637953761416
 30
0.0
 10
324.487940836222
 20
-238.8633296168325
 30
0.0
 10
357.9627278745942
 20
-237.4003777466397
 30
0.0
 10
374.2918742146787
 20
-236.6867521526622
 30
0.0
 10
390.6164697760891
 20
-235.8630964915755
 30
0.0
 10
406.9331632101988
 20
-234.9061629870963
 30
0.0
 10
421.4681033260664
 20
-234.0537210051567
 30
0.0
 10
435.9967993502821
 20
-233.095552793283
 30
0.0
 10
450.5153002191794
 20
-231.9981801425418
 30
0.0
 10
464.009240895987
 20
-230.9782412838135
 30
0.0
 10
477.4943622343054
 20
-229.8380772026918
 30
0.0
 10
490.9641026462741
 20
-228.5365545043861
 30
0.0
 10
502.5857330371367
 20
-227.413605772
 30
0.0
 10
514.1958982879493
 20
-226.1705023718946
 30
0.0
 10
525.7875429278981
 20
-224.7714377897982
 30
0.0
 10
536.7656438271723
 20
-223.4464203737277
 30
0.0
 10
547.7271643700731
 20
-221.9814929717111
 30
0.0
 10
558.6625796709986
 20
-220.3426482145005
 30
0.0
 10
569.0679174507995
 20
-218.7832127811255
 30
0.0
 10
579.4496194034286
 20
-217.0663345168801
 30
0.0
 10
589.7974198188573
 20
-215.1596640881172
 30
0.0
 10
608.114762552766
 20
-211.7845385219616
 30
0.0
 10
626.3258851738026
 20
-207.8148131541982
 30
0.0
 10
644.3308822154288
 20
-203.0476794575867
 30
0.0
 10
661.1484787989274
 20
-198.5949366714064
 30
0.0
 10
677.7862314317565
 20
-193.446524482006
 30
0.0
 10
694.1110386572922
 20
-187.4338171415604
 30
0.0
 10
709.1607812000065
 20
-181.890721925632
 30
0.0
 10
723.9446030483114
 20
-175.6131169407236
 30
0.0
 10
738.3231586539163
 20
-168.507693587871
 30
0.0
 10
753.1339676780259
 20
-161.1886305846071
 30
0.0
 10
767.5148163116439
 20
-152.991267321113
 30
0.0
 10
781.2816273216139
 20
-143.8594775285954
 30
0.0
 10
795.1210744034564
 20
-134.6794988717323
 30
0.0
 10
808.339957551162
 20
-124.5551807496122
 30
0.0
 10
820.7421346765275
 20
-113.5099826020816
 30
0.0
 10
832.7684315950696
 20
-102.7996370901965
 30
0.0
 10
844.0267757944707
 20
-91.22337366902212
 30
0.0
 10
854.3449432325474
 20
-78.85929639832092
 30
0.0
 10
864.3159815073064
 20
-66.91113912070907
 30
0.0
 10
873.4090369958391
 20
-54.22727264411719
 30
0.0
 10
881.5047664095512
 20
-40.93691791295545
 30
0.0
 10
885.2391565488067
 20
-34.80638421314328
 30
0.0
 10
888.7613181264194
 20
-28.54680595566845
 30
0.0
 10
892.066912027864
 20
-22.17448127766613
 30
0.0
 10
895.9225151554499
 20
-14.74182519741278
 30
0.0
 10
899.4834465450936
 20
-7.155783185868247
 30
0.0
 10
902.7426154486767
 20
0.5567986912724524
 30
0.0
 10
909.1584019877787
 20
15.73932481088186
 30
0.0
 10
914.404779519285
 20
31.41217086130233
 30
0.0
 10
918.5264797280421
 20
47.37083402655907
 30
0.0
 10
922.6956632552972
 20
63.51332747886106
 30
0.0
 10
925.7141347725711
 20
79.9483054657362
 30
0.0
 10
927.6925593393424
 20
96.5029795117077
 30
0.0
 10
929.7574839781145
 20
113.7810246676906
 30
0.0
 10
930.6894763933216
 20
131.189446375898
 30
0.0
 10
930.6787520777107
 20
148.5885901400173
 30
0.0
  0
ENDBLK
  5
12F
330
12C
100
AcDbEntity
  8
0
100
AcDbBlockEnd
  0
BLOCK
  5
133
330
131
100
AcDbEntity
  8
0
100
AcDbBlockBegin
  2
block 47
 70
     0
 10
0.0
 20
0.0
 30
0.0
  3
block 47
  1

  0
SPLINE
  5
135
330
131
100
AcDbEntity
  8
0
 62
   250
370
    25
100
AcDbSpline
210
0.0
220
0.0
230
1.0
 70
     8
 71
     3
 72
     8
 73
     4
 74
     0
 42
0.0000000001
 43
0.0000000001
 12
1.0
 22
0.0
 32
0.0
 13
1.0
 23
0.0
 33
0.0
 40
0.0
 40
0.0
 40
0.0
 40
0.0
 40
1.0
 40
1.0
 40
1.0
 40
1.0
 10
72.98033855342247
 20
-241.7351531735382
 30
0.0
 10
94.5176923279806
 20
-241.7974177033481
 30
0.0
 10
116.0547638836939
 20
-241.797452980695
 30
0.0
 10
137.5921176582523
 20
-241.7352942829523
 30
0.0
  0
ENDBLK
  5
134
330
131
100
AcDbEntity
  8
0
100
AcDbBlockEnd
  0
BLOCK
  5
138
330
136
100
AcDbEntity
  8
0
100
AcDbBlockBegin
  2
block 48
 70
     0
 10
0.0
 20
0.0
 30
0.0
  3
block 48
  1

  0
SPLINE
  5
13A
330
136
100
AcDbEntity
  8
0
 62
   250
370
    25
100
AcDbSpline
210
0.0
220
0.0
230
1.0
 70
     8
 71
     3
 72
     8
 73
     4
 74
     0
 42
0.0000000001
 43
0.0000000001
 12
1.0
 22
0.0
 32
0.0
 13
1.0
 23
0.0
 33
0.0
 40
0.0
 40
0.0
 40
0.0
 40
0.0
 40
1.0
 40
1.0
 40
1.0
 40
1.0
 10
41.67831902498388
 20
-241.5970423326511
 30
0.0
 10
52.11226673887138
 20
-241.6594126945172
 30
0.0
 10
62.54624973011898
 20
-241.7054496414808
 30
0.0
 10
72.98033855342247
 20
-241.7351531735382
 30
0.0
  0
ENDBLK
  5
139
330
136
100
AcDbEntity
  8
0
100
AcDbBlockEnd
  0
BLOCK
  5
13D
330
13B
100
AcDbEntity
  8
0
100
AcDbBlockBegin
  2
block 49
 70
     0
 10
0.0
 20
0.0
 30
0.0
  3
block 49
  1

  0
SPLINE
  5
13F
330
13B
100
AcDbEntity
  8
0
 62
   250
370
    25
100
AcDbSpline
210
0.0
220
0.0
230
1.0
 70
     8
 71
     3
 72
     8
 73
     4
 74
     0
 42
0.0000000001
 43
0.0000000001
 12
1.0
 22
0.0
 32
0.0
 13
1.0
 23
0.0
 33
0.0
 40
0.0
 40
0.0
 40
0.0
 40
0.0
 40
1.0
 40
1.0
 40
1.0
 40
1.0
 10
-154.1631355791735
 20
-237.0979802681885
 30
0.0
 10
-88.8998895781092
 20
-240.0730253626857
 30
0.0
 10
-23.63696107322475
 20
-241.2035234488324
 30
0.0
 10
41.67831902498388
 20
-241.5970423326511
 30
0.0
  0
ENDBLK
  5
13E
330
13B
100
AcDbEntity
  8
0
100
AcDbBlockEnd
  0
BLOCK
  5
142
330
140
100
AcDbEntity
  8
0
100
AcDbBlockBegin
  2
block 50
 70
     0
 10
0.0
 20
0.0
 30
0.0
  3
block 50
  1

  0
SPLINE
  5
144
330
140
100
AcDbEntity
  8
0
 62
   250
370
    25
100
AcDbSpline
210
0.0
220
0.0
230
1.0
 70
     8
 71
     3
 72
    62
 73
    58
 74
     0
 42
0.0000000001
 43
0.0000000001
 12
1.0
 22
0.0
 32
0.0
 13
1.0
 23
0.0
 33
0.0
 40
0.0
 40
0.0
 40
0.0
 40
0.0
 40
1.0
 40
1.0
 40
1.0
 40
2.0
 40
2.0
 40
2.0
 40
3.0
 40
3.0
 40
3.0
 40
4.0
 40
4.0
 40
4.0
 40
5.0
 40
5.0
 40
5.0
 40
6.0
 40
6.0
 40
6.0
 40
7.0
 40
7.0
 40
7.0
 40
8.0
 40
8.0
 40
8.0
 40
9.0
 40
9.0
 40
9.0
 40
10.0
 40
10.0
 40
10.0
 40
11.0
 40
11.0
 40
11.0
 40
12.0
 40
12.0
 40
12.0
 40
13.0
 40
13.0
 40
13.0
 40
14.0
 40
14.0
 40
14.0
 40
15.0
 40
15.0
 40
15.0
 40
16.0
 40
16.0
 40
16.0
 40
17.0
 40
17.0
 40
17.0
 40
18.0
 40
18.0
 40
18.0
 40
19.0
 40
19.0
 40
19.0
 40
19.0
 10
-719.9525218799799
 20
137.6135230931876
 30
0.0
 10
-719.6103668235775
 20
122.3858062995612
 30
0.0
 10
-718.5094664374312
 20
107.1703219301529
 30
0.0
 10
-716.5319590818652
 20
92.06667597206192
 30
0.0
 10
-714.6727719715869
 20
77.86701218729371
 30
0.0
 10
-712.0387530581683
 20
63.7661602685568
 30
0.0
 10
-708.5594887430128
 20
49.87450305373075
 30
0.0
 10
-705.2761195745909
 20
36.76512114398599
 30
0.0
 10
-701.240002226605
 20
23.84200365865524
 30
0.0
 10
-696.4220328820344
 20
11.2157098223194
 30
0.0
 10
-691.6088965349472
 20
-1.39781361218227
 30
0.0
 10
-686.015495672186
 20
-13.715113112664
 30
0.0
 10
-679.6517079528797
 20
-25.62192533244247
 30
0.0
 10
-676.2846256234293
 20
-31.92179032715256
 30
0.0
 10
-672.7019281063605
 20
-38.10672170546298
 30
0.0
 10
-668.9120466892659
 20
-44.16179714698741
 30
0.0
 10
-665.5391788737553
 20
-49.55062449778939
 30
0.0
 10
-662.0022713621753
 20
-54.83661836429285
 30
0.0
 10
-658.3079915744195
 20
-60.01014802909952
 30
0.0
 10
-650.4563814503473
 20
-71.00578149553914
 30
0.0
 10
-641.8940384753396
 20
-81.49359746402678
 30
0.0
 10
-632.7105671285136
 20
-91.4042406583803
 30
0.0
 10
-623.5305176850358
 20
-101.3111797306597
 30
0.0
 10
-613.7297631980172
 20
-110.6413340796931
 30
0.0
 10
-603.4121249202569
 20
-119.3572391564677
 30
0.0
 10
-593.0610789882444
 20
-128.1013661157253
 30
0.0
 10
-582.189797916872
 20
-136.2272574618282
 30
0.0
 10
-570.9041137681262
 20
-143.7265524620956
 30
0.0
 10
-565.5967064142045
 20
-147.2533000066377
 30
0.0
 10
-560.1976132172616
 20
-150.6414781081886
 30
0.0
 10
-554.7172409967045
 20
-153.8928859117603
 30
0.0
 10
-548.5619071621518
 20
-157.5447269504046
 30
0.0
 10
-542.3039867821842
 20
-161.0240617323776
 30
0.0
 10
-535.9592488340439
 20
-164.3357585323973
 30
0.0
 10
-523.2847305358291
 20
-170.9513205600459
 30
0.0
 10
-510.2636827893327
 20
-176.8978475860743
 30
0.0
 10
-497.0006323944203
 20
-182.2364752634133
 30
0.0
 10
-483.0101982374806
 20
-187.8679402488623
 30
0.0
 10
-468.7504920374741
 20
-192.8229619885387
 30
0.0
 10
-454.319267342361
 20
-197.2036331423168
 30
0.0
 10
-439.0843892458755
 20
-201.828282470181
 30
0.0
 10
-423.6583784454354
 20
-205.8128595033137
 30
0.0
 10
-408.1203267687121
 20
-209.2850321593197
 30
0.0
 10
-391.0443235671942
 20
-213.1008777089473
 30
0.0
 10
-373.8329964357504
 20
-216.2978879147831
 30
0.0
 10
-356.5514320924932
 20
-219.0367158469321
 30
0.0
 10
-337.7000960511708
 20
-222.0243196794493
 30
0.0
 10
-318.7651526808692
 20
-224.4667472833442
 30
0.0
 10
-299.7916158852845
 20
-226.5408087567985
 30
0.0
 10
-277.6475621767216
 20
-228.9614702332572
 30
0.0
 10
-255.4509452106974
 20
-230.8803819038331
 30
0.0
 10
-233.2334087737532
 20
-232.4941797397153
 30
0.0
 10
-220.4647704950856
 20
-233.4216213762567
 30
0.0
 10
-207.6892178550366
 20
-234.2483108897929
 30
0.0
 10
-194.9087263854317
 20
-234.991886957309
 30
0.0
 10
-181.3316369852519
 20
-235.7817821906067
 30
0.0
 10
-167.7490090404912
 20
-236.4779102170172
 30
0.0
 10
-154.1631355791735
 20
-237.0979802681885
 30
0.0
  0
ENDBLK
  5
143
330
140
100
AcDbEntity
  8
0
100
AcDbBlockEnd
  0
BLOCK
  5
147
330
145
100
AcDbEntity
  8
0
100
AcDbBlockBegin
  2
block 51
 70
     0
 10
0.0
 20
0.0
 30
0.0
  3
block 51
  1

  0
SPLINE
  5
149
330
145
100
AcDbEntity
  8
0
 62
   250
370
    25
100
AcDbSpline
210
0.0
220
0.0
230
1.0
 70
     8
 71
     3
 72
    68
 73
    64
 74
     0
 42
0.0000000001
 43
0.0000000001
 12
1.0
 22
0.0
 32
0.0
 13
1.0
 23
0.0
 33
0.0
 40
0.0
 40
0.0
 40
0.0
 40
0.0
 40
1.0
 40
1.0
 40
1.0
 40
2.0
 40
2.0
 40
2.0
 40
3.0
 40
3.0
 40
3.0
 40
4.0
 40
4.0
 40
4.0
 40
5.0
 40
5.0
 40
5.0
 40
6.0
 40
6.0
 40
6.0
 40
7.0
 40
7.0
 40
7.0
 40
8.0
 40
8.0
 40
8.0
 40
9.0
 40
9.0
 40
9.0
 40
10.0
 40
10.0
 40
10.0
 40
11.0
 40
11.0
 40
11.0
 40
12.0
 40
12.0
 40
12.0
 40
13.0
 40
13.0
 40
13.0
 40
14.0
 40
14.0
 40
14.0
 40
15.0
 40
15.0
 40
15.0
 40
16.0
 40
16.0
 40
16.0
 40
17.0
 40
17.0
 40
17.0
 40
18.0
 40
18.0
 40
18.0
 40
19.0
 40
19.0
 40
19.0
 40
20.0
 40
20.0
 40
20.0
 40
21.0
 40
21.0
 40
21.0
 40
21.0
 10
30.71369407493023
 20
538.914979255117
 30
0.0
 10
-5.639442830648333
 20
538.650540209571
 30
0.0
 10
-41.99247390415849
 20
538.1503073299223
 30
0.0
 10
-78.33425150174325
 20
537.1920332859721
 30
0.0
 10
-94.95277797665203
 20
536.7538179946484
 30
0.0
 10
-111.5689408688356
 20
536.2198246872174
 30
0.0
 10
-128.1809763105987
 20
535.5794348801447
 30
0.0
 10
-144.2448016712805
 20
534.9601762081028
 30
0.0
 10
-160.3047112456535
 20
534.2414353977949
 30
0.0
 10
-176.3585883925084
 20
533.4038451818828
 30
0.0
 10
-191.2089433304409
 20
532.6290133787247
 30
0.0
 10
-206.0541124973521
 20
531.7524769640088
 30
0.0
 10
-220.8907798219381
 20
530.7491890163705
 30
0.0
 10
-234.3858493740775
 20
529.8366344232151
 30
0.0
 10
-247.8738987327735
 20
528.8192002566284
 30
0.0
 10
-261.3501301778795
 20
527.6611152796679
 30
0.0
 10
-273.9619958953875
 20
526.5773244102185
 30
0.0
 10
-286.5635253481873
 20
525.3703450206145
 30
0.0
 10
-299.1473102919085
 20
524.0003489782023
 30
0.0
 10
-310.5757971696459
 20
522.756116702781
 30
0.0
 10
-321.9896792228162
 20
521.3774777086409
 30
0.0
 10
-333.3811248788583
 20
519.8282021532112
 30
0.0
 10
-353.2919809700996
 20
517.120241905816
 30
0.0
 10
-373.1344342719333
 20
513.8910587531313
 30
0.0
 10
-392.8312273791226
 20
509.9157948407934
 30
0.0
 10
-410.4390719694838
 20
506.3621658634158
 30
0.0
 10
-427.9305365689976
 20
502.212314326158
 30
0.0
 10
-445.2022585304835
 20
497.2776474945551
 30
0.0
 10
-461.1150615387023
 20
492.7312079436828
 30
0.0
 10
-476.8413178989901
 20
487.5185555626032
 30
0.0
 10
-492.2581918647473
 20
481.5017911745496
 30
0.0
 10
-506.8810431467634
 20
475.7949383413449
 30
0.0
 10
-521.225556105764
 20
469.3646528097541
 30
0.0
 10
-535.1553132138403
 20
462.1284914034886
 30
0.0
 10
-549.975012131162
 20
454.4300202731247
 30
0.0
 10
-564.3252752988545
 20
445.8193826004801
 30
0.0
 10
-578.0130650358727
 20
436.2524816931027
 30
0.0
 10
-590.7171457567309
 20
427.3731364150822
 30
0.0
 10
-602.850579999353
 20
417.6700296439059
 30
0.0
 10
-614.2534202407264
 20
407.1713127080798
 30
0.0
 10
-625.7687952413487
 20
396.5689509062253
 30
0.0
 10
-636.5391478029474
 20
385.1551394077488
 30
0.0
 10
-646.4083050793663
 20
373.0060772973152
 30
0.0
 10
-655.9159753093995
 20
361.3020037301699
 30
0.0
 10
-664.5872900309073
 20
348.9154897499757
 30
0.0
 10
-672.3177224439999
 20
335.9683127827507
 30
0.0
 10
-680.3280806610392
 20
322.5522997809082
 30
0.0
 10
-687.328130737005
 20
308.5342434557855
 30
0.0
 10
-693.2778681524754
 20
294.0860150760357
 30
0.0
 10
-699.2219964686504
 20
279.6514390322901
 30
0.0
 10
-704.1177523787992
 20
264.7875023130549
 30
0.0
 10
-708.0058459494007
 20
249.668721988572
 30
0.0
 10
-712.1083552775982
 20
233.7160908476842
 30
0.0
 10
-715.0890094713798
 20
217.4797239486224
 30
0.0
 10
-717.0535347606797
 20
201.1252837457322
 30
0.0
 10
-718.08694956863
 20
192.5222659815614
 30
0.0
 10
-718.839168587877
 20
183.8865813876023
 30
0.0
 10
-719.3347801341622
 20
175.2360097502225
 30
0.0
 10
-719.5872601566971
 20
170.8295507400101
 30
0.0
 10
-719.773136534908
 20
166.4192464982042
 30
0.0
 10
-719.8943142458774
 20
162.0072136660448
 30
0.0
 10
-720.0151391833202
 20
157.6065048645308
 30
0.0
 10
-720.0715829497082
 20
153.2040674726711
 30
0.0
 10
-720.0703835196716
 20
148.8017711902144
 30
0.0
  0
ENDBLK
  5
148
330
145
100
AcDbEntity
  8
0
100
AcDbBlockEnd
  0
BLOCK
  5
14C
330
14A
100
AcDbEntity
  8
0
100
AcDbBlockBegin
  2
block 52
 70
     0
 10
0.0
 20
0.0
 30
0.0
  3
block 52
  1

  0
SPLINE
  5
14E
330
14A
100
AcDbEntity
  8
0
 62
   250
370
    25
100
AcDbSpline
210
0.0
220
0.0
230
1.0
 70
     8
 71
     3
 72
     8
 73
     4
 74
     0
 42
0.0000000001
 43
0.0000000001
 12
1.0
 22
0.0
 32
0.0
 13
1.0
 23
0.0
 33
0.0
 40
0.0
 40
0.0
 40
0.0
 40
0.0
 40
1.0
 40
1.0
 40
1.0
 40
1.0
 10
73.01646256391139
 20
539.1265022696806
 30
0.0
 10
58.9153280701267
 20
539.0870974652557
 30
0.0
 10
44.81447579517463
 20
539.0166133119849
 30
0.0
 10
30.71369407493023
 20
538.914979255117
 30
0.0
  0
ENDBLK
  5
14D
330
14A
100
AcDbEntity
  8
0
100
AcDbBlockEnd
  0
BLOCK
  5
151
330
14F
100
AcDbEntity
  8
0
100
AcDbBlockBegin
  2
block 53
 70
     0
 10
0.0
 20
0.0
 30
0.0
  3
block 53
  1

  0
SPLINE
  5
153
330
14F
100
AcDbEntity
  8
0
 62
   250
370
    25
100
AcDbSpline
210
0.0
220
0.0
230
1.0
 70
     8
 71
     3
 72
     8
 73
     4
 74
     0
 42
0.0000000001
 43
0.0000000001
 12
1.0
 22
0.0
 32
0.0
 13
1.0
 23
0.0
 33
0.0
 40
0.0
 40
0.0
 40
0.0
 40
0.0
 40
1.0
 40
1.0
 40
1.0
 40
1.0
 10
137.6241142183273
 20
539.1269608752765
 30
0.0
 10
116.0881362605825
 20
539.188978463602
 30
0.0
 10
94.55244052165654
 20
539.1888373541857
 30
0.0
 10
73.01646256391139
 20
539.1265022696806
 30
0.0
  0
ENDBLK
  5
152
330
14F
100
AcDbEntity
  8
0
100
AcDbBlockEnd
  0
BLOCK
  5
156
330
154
100
AcDbEntity
  8
0
100
AcDbBlockBegin
  2
block 54
 70
     0
 10
0.0
 20
0.0
 30
0.0
  3
block 54
  1

  0
SPLINE
  5
158
330
154
100
AcDbEntity
  8
0
 62
   250
370
    25
100
AcDbSpline
210
0.0
220
0.0
230
1.0
 70
     8
 71
     3
 72
    20
 73
    16
 74
     0
 42
0.0000000001
 43
0.0000000001
 12
1.0
 22
0.0
 32
0.0
 13
1.0
 23
0.0
 33
0.0
 40
0.0
 40
0.0
 40
0.0
 40
0.0
 40
1.0
 40
1.0
 40
1.0
 40
2.0
 40
2.0
 40
2.0
 40
3.0
 40
3.0
 40
3.0
 40
4.0
 40
4.0
 40
4.0
 40
5.0
 40
5.0
 40
5.0
 40
5.0
 10
397.1290926518999
 20
532.8586689532409
 30
0.0
 10
388.4732999661442
 20
533.3375237563738
 30
0.0
 10
379.8155670259371
 20
533.781242314924
 30
0.0
 10
371.1562466047918
 20
534.1919765474998
 30
0.0
 10
361.4018818382596
 20
534.6546390451451
 30
0.0
 10
351.6455768172747
 20
535.0754273236031
 30
0.0
 10
341.8877901474091
 20
535.4591743803675
 30
0.0
 10
321.357957602978
 20
536.2666377359735
 30
0.0
 10
300.821739857463
 20
536.9103436143303
 30
0.0
 10
280.2822060406573
 20
537.4119170334387
 30
0.0
 10
258.6855157566921
 20
537.9393487530226
 30
0.0
 10
237.0851566278956
 20
538.3096198605584
 30
0.0
 10
215.4836333464364
 20
538.5725067025279
 30
0.0
 10
189.5316362155342
 20
538.8883095754919
 30
0.0
 10
163.5779104942777
 20
539.04910375501
 30
0.0
 10
137.6241142183273
 20
539.1269608752765
 30
0.0
  0
ENDBLK
  5
157
330
154
100
AcDbEntity
  8
0
100
AcDbBlockEnd
  0
BLOCK
  5
15B
330
159
100
AcDbEntity
  8
0
100
AcDbBlockBegin
  2
block 55
 70
     0
 10
0.0
 20
0.0
 30
0.0
  3
block 55
  1

  0
SPLINE
  5
15D
330
159
100
AcDbEntity
  8
0
 62
   250
370
    25
100
AcDbSpline
210
0.0
220
0.0
230
1.0
 70
     8
 71
     3
 72
    59
 73
    55
 74
     0
 42
0.0000000001
 43
0.0000000001
 12
1.0
 22
0.0
 32
0.0
 13
1.0
 23
0.0
 33
0.0
 40
0.0
 40
0.0
 40
0.0
 40
0.0
 40
1.0
 40
1.0
 40
1.0
 40
2.0
 40
2.0
 40
2.0
 40
3.0
 40
3.0
 40
3.0
 40
4.0
 40
4.0
 40
4.0
 40
5.0
 40
5.0
 40
5.0
 40
6.0
 40
6.0
 40
6.0
 40
7.0
 40
7.0
 40
7.0
 40
8.0
 40
8.0
 40
8.0
 40
9.0
 40
9.0
 40
9.0
 40
10.0
 40
10.0
 40
10.0
 40
11.0
 40
11.0
 40
11.0
 40
12.0
 40
12.0
 40
12.0
 40
13.0
 40
13.0
 40
13.0
 40
14.0
 40
14.0
 40
14.0
 40
15.0
 40
15.0
 40
15.0
 40
16.0
 40
16.0
 40
16.0
 40
17.0
 40
17.0
 40
17.0
 40
18.0
 40
18.0
 40
18.0
 40
18.0
 10
930.5610315474229
 20
159.7693947153402
 30
0.0
 10
930.2355274021132
 20
174.3650471574353
 30
0.0
 10
929.2103322176547
 20
188.9488464085928
 30
0.0
 10
927.3841999880701
 20
203.4341865647256
 30
0.0
 10
925.6673217238106
 20
217.052691578503
 30
0.0
 10
923.2425327969391
 20
230.5841673599761
 30
0.0
 10
920.0460870287628
 20
243.933082834502
 30
0.0
 10
916.8528867771458
 20
257.2684518051106
 30
0.0
 10
912.8896524425317
 20
270.4216132423248
 30
0.0
 10
908.1215652764937
 20
283.2781274098004
 30
0.0
 10
903.6162238430265
 20
295.4262723090422
 30
0.0
 10
898.3922827086624
 20
307.3095548344709
 30
0.0
 10
892.4570442856993
 20
318.8269406442743
 30
0.0
 10
889.3163014594719
 20
324.9215621525943
 30
0.0
 10
885.9763474152543
 20
330.9137382249166
 30
0.0
 10
882.4432851352448
 20
336.789710693168
 30
0.0
 10
879.3034947975829
 20
342.0115704636405
 30
0.0
 10
876.0111651812506
 20
347.1417091137295
 30
0.0
 10
872.5720464949316
 20
352.1713778596396
 30
0.0
 10
865.267376467224
 20
362.8544189700813
 30
0.0
 10
857.3005505050044
 20
373.0843224684759
 30
0.0
 10
848.7453688328551
 20
382.7948374839838
 30
0.0
 10
840.1857774914477
 20
392.5103971610895
 30
0.0
 10
831.0371954477419
 20
401.7060039176895
 30
0.0
 10
821.3902149467752
 20
410.3428526643439
 30
0.0
 10
811.1437310920119
 20
419.5164110746822
 30
0.0
 10
800.3349967692807
 20
428.0595984464773
 30
0.0
 10
789.0745006512774
 20
435.9555874818669
 30
0.0
 10
778.4513604879006
 20
443.4046124421423
 30
0.0
 10
767.4261995984012
 20
450.2775934890231
 30
0.0
 10
756.0910918766953
 20
456.5904054318041
 30
0.0
 10
743.7861744162986
 20
463.4433136642676
 30
0.0
 10
731.1160305099911
 20
469.6361120487567
 30
0.0
 10
718.1857161179644
 20
475.2202349674023
 30
0.0
 10
704.5417055772604
 20
481.1125761279177
 30
0.0
 10
690.6080679602385
 20
486.3271687634628
 30
0.0
 10
676.4850262296296
 20
490.955663439736
 30
0.0
 10
661.9874801090065
 20
495.7068880305542
 30
0.0
 10
647.2904052741752
 20
499.840476707623
 30
0.0
 10
632.4718705095394
 20
503.4680822963308
 30
0.0
 10
616.1727099203571
 20
507.4580921426418
 30
0.0
 10
599.7265838744271
 20
510.8359340650624
 30
0.0
 10
583.200731008478
 20
513.7488557391804
 30
0.0
 10
565.9418500038441
 20
516.7909983609775
 30
0.0
 10
548.5960455989745
 20
519.3260642964584
 30
0.0
 10
531.2066736619241
 20
521.5004192873101
 30
0.0
 10
510.8105070117693
 20
524.0506897623604
 30
0.0
 10
490.3544746918817
 20
526.104678421386
 30
0.0
 10
469.8728662903455
 20
527.8418058868331
 30
0.0
 10
458.5335605635169
 20
528.8035371114573
 30
0.0
 10
447.1864232640955
 20
529.6681497805339
 30
0.0
 10
435.8338532521687
 20
530.4553992122942
 30
0.0
 10
422.9383576085355
 20
531.349644858727
 30
0.0
 10
410.0358064941109
 20
532.1440908707067
 30
0.0
 10
397.1290926518999
 20
532.8586689532409
 30
0.0
  0
ENDBLK
  5
15C
330
159
100
AcDbEntity
  8
0
100
AcDbBlockEnd
  0
BLOCK
  5
160
330
15E
100
AcDbEntity
  8
0
100
AcDbBlockBegin
  2
block 56
 70
     0
 10
0.0
 20
0.0
 30
0.0
  3
block 56
  1

  0
SPLINE
  5
162
330
15E
100
AcDbEntity
  8
0
 62
   250
370
    25
100
AcDbSpline
210
0.0
220
0.0
230
1.0
 70
     8
 71
     3
 72
    65
 73
    61
 74
     0
 42
0.0000000001
 43
0.0000000001
 12
1.0
 22
0.0
 32
0.0
 13
1.0
 23
0.0
 33
0.0
 40
0.0
 40
0.0
 40
0.0
 40
0.0
 40
1.0
 40
1.0
 40
1.0
 40
2.0
 40
2.0
 40
2.0
 40
3.0
 40
3.0
 40
3.0
 40
4.0
 40
4.0
 40
4.0
 40
5.0
 40
5.0
 40
5.0
 40
6.0
 40
6.0
 40
6.0
 40
7.0
 40
7.0
 40
7.0
 40
8.0
 40
8.0
 40
8.0
 40
9.0
 40
9.0
 40
9.0
 40
10.0
 40
10.0
 40
10.0
 40
11.0
 40
11.0
 40
11.0
 40
12.0
 40
12.0
 40
12.0
 40
13.0
 40
13.0
 40
13.0
 40
14.0
 40
14.0
 40
14.0
 40
15.0
 40
15.0
 40
15.0
 40
16.0
 40
16.0
 40
16.0
 40
17.0
 40
17.0
 40
17.0
 40
18.0
 40
18.0
 40
18.0
 40
19.0
 40
19.0
 40
19.0
 40
20.0
 40
20.0
 40
20.0
 40
20.0
 10
-27.99611315174366
 20
-70.24869422056052
 30
0.0
 10
-47.27374073875833
 20
-69.70630491658109
 30
0.0
 10
-66.54699393388813
 20
-69.01028273982348
 30
0.0
 10
-85.81361498645539
 20
-68.16288544090831
 30
0.0
 10
-94.61573813658178
 20
-67.77575176794731
 30
0.0
 10
-103.4164149151804
 20
-67.35704486393382
 30
0.0
 10
-112.2147986657872
 20
-66.89378266299376
 30
0.0
 10
-120.1144212686344
 20
-66.47779211518038
 30
0.0
 10
-128.0121741717249
 20
-66.02592449927496
 30
0.0
 10
-135.9069637770907
 20
-65.52488025312378
 30
0.0
 10
-148.941910801074
 20
-64.69762632283265
 30
0.0
 10
-161.9688145883283
 20
-63.73635372808577
 30
0.0
 10
-174.9738816934774
 20
-62.52789272014618
 30
0.0
 10
-185.7617318226559
 20
-61.52548673169311
 30
0.0
 10
-196.5345890763701
 20
-60.35300862392679
 30
0.0
 10
-207.2743914494147
 20
-58.92508720231572
 30
0.0
 10
-217.7870782174186
 20
-57.52736319497622
 30
0.0
 10
-228.2681211988881
 20
-55.88488491178711
 30
0.0
 10
-238.6918737574704
 20
-53.93178953452414
 30
0.0
 10
-243.4461322007347
 20
-53.04096581393525
 30
0.0
 10
-248.1884668983533
 20
-52.08554925981409
 30
0.0
 10
-252.9153501149125
 20
-51.0591546712314
 30
0.0
 10
-257.6339784306442
 20
-50.03452395032295
 30
0.0
 10
-262.3372258200239
 20
-48.93919741378622
 30
0.0
 10
-267.0206473364713
 20
-47.76428516864986
 30
0.0
 10
-271.5017179503992
 20
-46.64010175727038
 30
0.0
 10
-275.9646560043619
 20
-45.4431058890959
 30
0.0
 10
-280.404346282046
 20
-44.16543071435617
 30
0.0
 10
-284.6775627262277
 20
-42.93566218513946
 30
0.0
 10
-288.9292247071244
 20
-41.63121149939859
 30
0.0
 10
-293.1518534256681
 20
-40.23715633677544
 30
0.0
 10
-300.619116777955
 20
-37.77197490185378
 30
0.0
 10
-307.9956114984081
 20
-35.02672656062877
 30
0.0
 10
-315.2141695050318
 20
-31.90782049532096
 30
0.0
 10
-322.2824459836262
 20
-28.85386003708539
 30
0.0
 10
-329.1992415041718
 20
-25.4416933354293
 30
0.0
 10
-335.8773151702256
 20
-21.60944391299551
 30
0.0
 10
-341.8814502655405
 20
-18.16390483529785
 30
0.0
 10
-347.6925829571584
 20
-14.37878595661453
 30
0.0
 10
-353.2472845625799
 20
-10.24734930252506
 30
0.0
 10
-355.9214491048558
 20
-8.258376857141204
 30
0.0
 10
-358.5362065830063
 20
-6.189113156104688
 30
0.0
 10
-361.0865476127444
 20
-4.043544540297304
 30
0.0
 10
-363.8383576111736
 20
-1.72853879753579
 30
0.0
 10
-366.5152032323447
 20
0.6753658750537056
 30
0.0
 10
-369.1115106543478
 20
3.163160093316391
 30
0.0
 10
-374.3293488064754
 20
8.162913516734323
 30
0.0
 10
-379.2218592000409
 20
13.50147063936279
 30
0.0
 10
-383.7720028730773
 20
19.11631999149958
 30
0.0
 10
-388.3289550754591
 20
24.73956535367488
 30
0.0
 10
-392.5425175140304
 20
30.63991432449469
 30
0.0
 10
-396.3949809570996
 20
36.76734361723076
 30
0.0
 10
-400.4941742140226
 20
43.28712763120403
 30
0.0
 10
-404.1845029381415
 20
50.06401299461376
 30
0.0
 10
-407.4360872106163
 20
57.04483673629452
 30
0.0
 10
-410.672890271762
 20
63.99387558283988
 30
0.0
 10
-413.4748999449043
 20
71.14501838532408
 30
0.0
 10
-415.84550285605
 20
78.43554200990938
 30
0.0
 10
-418.2132483015186
 20
85.71728157359365
 30
0.0
 10
-420.1506100282457
 20
93.13811974055089
 30
0.0
 10
-421.6771316903449
 20
100.6409777534778
 30
0.0
  0
ENDBLK
  5
161
330
15E
100
AcDbEntity
  8
0
100
AcDbBlockEnd
  0
BLOCK
  5
165
330
163
100
AcDbEntity
  8
0
100
AcDbBlockBegin
  2
block 57
 70
     0
 10
0.0
 20
0.0
 30
0.0
  3
block 57
  1

  0
SPLINE
  5
167
330
163
100
AcDbEntity
  8
0
 62
   250
370
    25
100
AcDbSpline
210
0.0
220
0.0
230
1.0
 70
     8
 71
     3
 72
     8
 73
     4
 74
     0
 42
0.0000000001
 43
0.0000000001
 12
1.0
 22
0.0
 32
0.0
 13
1.0
 23
0.0
 33
0.0
 40
0.0
 40
0.0
 40
0.0
 40
0.0
 40
1.0
 40
1.0
 40
1.0
 40
1.0
 10
39.11330261596076
 20
-71.5743113181606
 30
0.0
 10
16.73902889523001
 20
-71.31943244198366
 30
0.0
 10
-5.629212397983109
 20
-70.87758359434935
 30
0.0
 10
-27.99611315174366
 20
-70.24869422056052
 30
0.0
  0
ENDBLK
  5
166
330
163
100
AcDbEntity
  8
0
100
AcDbBlockEnd
  0
BLOCK
  5
16A
330
168
100
AcDbEntity
  8
0
100
AcDbBlockBegin
  2
block 58
 70
     0
 10
0.0
 20
0.0
 30
0.0
  3
block 58
  1

  0
SPLINE
  5
16C
330
168
100
AcDbEntity
  8
0
 62
   250
370
    25
100
AcDbSpline
210
0.0
220
0.0
230
1.0
 70
     8
 71
     3
 72
     8
 73
     4
 74
     0
 42
0.0000000001
 43
0.0000000001
 12
1.0
 22
0.0
 32
0.0
 13
1.0
 23
0.0
 33
0.0
 40
0.0
 40
0.0
 40
0.0
 40
0.0
 40
1.0
 40
1.0
 40
1.0
 40
1.0
 10
69.62793160322947
 20
-71.85250852474825
 30
0.0
 10
59.45609462952956
 20
-71.78608126884401
 30
0.0
 10
49.28464570671721
 20
-71.69337238488691
 30
0.0
 10
39.11330261596076
 20
-71.5743113181606
 30
0.0
  0
ENDBLK
  5
16B
330
168
100
AcDbEntity
  8
0
100
AcDbBlockEnd
  0
BLOCK
  5
16F
330
16D
100
AcDbEntity
  8
0
100
AcDbBlockBegin
  2
block 59
 70
     0
 10
0.0
 20
0.0
 30
0.0
  3
block 59
  1

  0
SPLINE
  5
171
330
16D
100
AcDbEntity
  8
0
 62
   250
370
    25
100
AcDbSpline
210
0.0
220
0.0
230
1.0
 70
     8
 71
     3
 72
    80
 73
    76
 74
     0
 42
0.0000000001
 43
0.0000000001
 12
1.0
 22
0.0
 32
0.0
 13
1.0
 23
0.0
 33
0.0
 40
0.0
 40
0.0
 40
0.0
 40
0.0
 40
1.0
 40
1.0
 40
1.0
 40
2.0
 40
2.0
 40
2.0
 40
3.0
 40
3.0
 40
3.0
 40
4.0
 40
4.0
 40
4.0
 40
5.0
 40
5.0
 40
5.0
 40
6.0
 40
6.0
 40
6.0
 40
7.0
 40
7.0
 40
7.0
 40
8.0
 40
8.0
 40
8.0
 40
9.0
 40
9.0
 40
9.0
 40
10.0
 40
10.0
 40
10.0
 40
11.0
 40
11.0
 40
11.0
 40
12.0
 40
12.0
 40
12.0
 40
13.0
 40
13.0
 40
13.0
 40
14.0
 40
14.0
 40
14.0
 40
15.0
 40
15.0
 40
15.0
 40
16.0
 40
16.0
 40
16.0
 40
17.0
 40
17.0
 40
17.0
 40
18.0
 40
18.0
 40
18.0
 40
19.0
 40
19.0
 40
19.0
 40
20.0
 40
20.0
 40
20.0
 40
21.0
 40
21.0
 40
21.0
 40
22.0
 40
22.0
 40
22.0
 40
23.0
 40
23.0
 40
23.0
 40
24.0
 40
24.0
 40
24.0
 40
25.0
 40
25.0
 40
25.0
 40
25.0
 10
736.9475887895659
 20
143.2863332797838
 30
0.0
 10
736.4215328867848
 20
132.2340088277047
 30
0.0
 10
735.0381667272034
 20
121.2295910223576
 30
0.0
 10
732.9214196554254
 20
110.3703659075978
 30
0.0
 10
731.7994939663009
 20
104.6146540845048
 30
0.0
 10
730.4715485298544
 20
98.89972288160435
 30
0.0
 10
728.9382888931499
 20
93.23982434956767
 30
0.0
 10
727.5377779395177
 20
88.07006936152523
 30
0.0
 10
725.9660307096109
 20
82.94624548725378
 30
0.0
 10
724.2099593050677
 20
77.88616779001865
 30
0.0
 10
722.4705035342623
 20
72.87406729302735
 30
0.0
 10
720.5502160468632
 20
67.92451354307495
 30
0.0
 10
718.4359383898536
 20
63.0587082294054
 30
0.0
 10
716.3185210483421
 20
58.18567105833502
 30
0.0
 10
714.0065843768881
 20
53.39662926501971
 30
0.0
 10
711.4855588283054
 20
48.71969889985994
 30
0.0
 10
706.7526784615646
 20
39.93941265367705
 30
0.0
 10
701.2828894472077
 20
31.5541974848949
 30
0.0
 10
695.1057894852504
 20
23.72184899397551
 30
0.0
 10
693.5331955988366
 20
21.72783188711431
 30
0.0
 10
691.9147411522357
 20
19.76965657099882
 30
0.0
 10
690.2552591429413
 20
17.84735832297729
 30
0.0
 10
688.5854055915555
 20
15.9130304975626
 30
0.0
 10
686.874030594535
 20
14.01500306850139
 30
0.0
 10
685.1216633121612
 20
12.15542795430605
 30
0.0
 10
681.596009276495
 20
8.4140529934882
 30
0.0
 10
677.9044811223498
 20
4.828251159846538
 30
0.0
 10
674.0723374351674
 20
1.401091583111519
 30
0.0
 10
666.3969376943029
 20
-5.463211061269825
 30
0.0
 10
658.1574177857035
 20
-11.69111025565776
 30
0.0
 10
649.5127021891225
 20
-17.28525180153093
 30
0.0
 10
640.5025132051326
 20
-23.11589272260746
 30
0.0
 10
631.0521333979872
 20
-28.25809609786722
 30
0.0
 10
621.3233447131138
 20
-32.78911933056908
 30
0.0
 10
610.3692324145564
 20
-37.89082430446702
 30
0.0
 10
599.0622054666347
 20
-42.2177327721208
 30
0.0
 10
587.5653863542091
 20
-45.94136322433641
 30
0.0
 10
577.6492749196257
 20
-49.1530487283119
 30
0.0
 10
567.5920187916876
 20
-51.91590046872443
 30
0.0
 10
557.4477334314579
 20
-54.30953943155779
 30
0.0
 10
547.2935704120991
 20
-56.70547142234393
 30
0.0
 10
537.0522723283843
 20
-58.73141453377707
 30
0.0
 10
526.7523785596761
 20
-60.38856819585336
 30
0.0
 10
516.0539565228854
 20
-62.10985608586379
 30
0.0
 10
505.2923174677263
 20
-63.43321543287151
 30
0.0
 10
494.504749557392
 20
-64.46123277967459
 30
0.0
 10
481.7170615075628
 20
-65.67985366531408
 30
0.0
 10
468.8929319510601
 20
-66.48347176902904
 30
0.0
 10
456.063404959402
 20
-67.12361461846027
 30
0.0
 10
451.4448937743096
 20
-67.3540815662846
 30
0.0
 10
446.8257123195002
 20
-67.5633468249054
 30
0.0
 10
442.2057194855386
 20
-67.75955946287158
 30
0.0
 10
436.4193514964418
 20
-68.005336781957
 30
0.0
 10
430.6317135225747
 20
-68.23061795886362
 30
0.0
 10
424.8437227751805
 20
-68.4424231869081
 30
0.0
 10
412.8146036683295
 20
-68.88254344424143
 30
0.0
 10
400.7838970805428
 20
-69.26435023689119
 30
0.0
 10
388.7517088438882
 20
-69.59916759520645
 30
0.0
 10
376.3645598713214
 20
-69.94386261239029
 30
0.0
 10
363.9757881404822
 20
-70.23878128433091
 30
0.0
 10
351.586169753147
 20
-70.48491137694347
 30
0.0
 10
338.4273286619296
 20
-70.74635184080233
 30
0.0
 10
325.2674998048123
 20
-70.95279491116295
 30
0.0
 10
312.1071770647384
 20
-71.11500018074447
 30
0.0
 10
293.9133403471738
 20
-71.33929359177573
 30
0.0
 10
275.7185511410307
 20
-71.47909774213764
 30
0.0
 10
257.5236208254973
 20
-71.59438413207985
 30
0.0
 10
232.3539342967992
 20
-71.75383776810664
 30
0.0
 10
207.184071381324
 20
-71.86633724716128
 30
0.0
 10
182.0140673564457
 20
-71.94320659957366
 30
0.0
 10
161.3350821593029
 20
-72.00635306162472
 30
0.0
 10
140.6559911301051
 20
-72.04544036887539
 30
0.0
 10
119.9769001009062
 20
-72.02857779407627
 30
0.0
 10
103.1938047696251
 20
-72.01489018107729
 30
0.0
 10
86.41067416098336
 20
-71.96437301143413
 30
0.0
 10
69.62793160322947
 20
-71.85250852474825
 30
0.0
  0
ENDBLK
  5
170
330
16D
100
AcDbEntity
  8
0
100
AcDbBlockEnd
  0
BLOCK
  5
174
330
172
100
AcDbEntity
  8
0
100
AcDbBlockBegin
  2
block 60
 70
     0
 10
0.0
 20
0.0
 30
0.0
  3
block 60
  1

  0
SPLINE
  5
176
330
172
100
AcDbEntity
  8
0
 62
   250
370
    25
100
AcDbSpline
210
0.0
220
0.0
230
1.0
 70
     8
 71
     3
 72
     8
 73
     4
 74
     0
 42
0.0000000001
 43
0.0000000001
 12
1.0
 22
0.0
 32
0.0
 13
1.0
 23
0.0
 33
0.0
 40
0.0
 40
0.0
 40
0.0
 40
0.0
 40
1.0
 40
1.0
 40
1.0
 40
1.0
 10
737.0292911414203
 20
145.433383598657
 30
0.0
 10
737.1122634780195
 20
148.3270438374947
 30
0.0
 10
737.0850646380914
 20
151.2133663867027
 30
0.0
 10
736.9475535122197
 20
154.1049452616403
 30
0.0
  0
ENDBLK
  5
175
330
172
100
AcDbEntity
  8
0
100
AcDbBlockEnd
  0
BLOCK
  5
179
330
177
100
AcDbEntity
  8
0
100
AcDbBlockBegin
  2
block 61
 70
     0
 10
0.0
 20
0.0
 30
0.0
  3
block 61
  1

  0
SPLINE
  5
17B
330
177
100
AcDbEntity
  8
0
 62
   250
370
    25
100
AcDbSpline
210
0.0
220
0.0
230
1.0
 70
     8
 71
     3
 72
     8
 73
     4
 74
     0
 42
0.0000000001
 43
0.0000000001
 12
1.0
 22
0.0
 32
0.0
 13
1.0
 23
0.0
 33
0.0
 40
0.0
 40
0.0
 40
0.0
 40
0.0
 40
1.0
 40
1.0
 40
1.0
 40
1.0
 10
736.9475887895659
 20
143.2863332797838
 30
0.0
 10
736.981560881468
 20
144.0017932961686
 30
0.0
 10
737.0087949987578
 20
144.7173944219694
 30
0.0
 10
737.0292911414203
 20
145.433383598657
 30
0.0
  0
ENDBLK
  5
17A
330
177
100
AcDbEntity
  8
0
100
AcDbBlockEnd
  0
BLOCK
  5
17E
330
17C
100
AcDbEntity
  8
0
100
AcDbBlockBegin
  2
block 62
 70
     0
 10
0.0
 20
0.0
 30
0.0
  3
block 62
  1

  0
SPLINE
  5
180
330
17C
100
AcDbEntity
  8
0
 62
   250
370
    25
100
AcDbSpline
210
0.0
220
0.0
230
1.0
 70
     8
 71
     3
 72
     8
 73
     4
 74
     0
 42
0.0000000001
 43
0.0000000001
 12
1.0
 22
0.0
 32
0.0
 13
1.0
 23
0.0
 33
0.0
 40
0.0
 40
0.0
 40
0.0
 40
0.0
 40
1.0
 40
1.0
 40
1.0
 40
1.0
 10
67.47947019019506
 20
369.229177946499
 30
0.0
 10
58.02383405730746
 20
369.164302892492
 30
0.0
 10
48.56851542060006
 20
369.0764270036904
 30
0.0
 10
39.11330261596076
 20
368.9656208347901
 30
0.0
  0
ENDBLK
  5
17F
330
17C
100
AcDbEntity
  8
0
100
AcDbBlockEnd
  0
BLOCK
  5
183
330
181
100
AcDbEntity
  8
0
100
AcDbBlockBegin
  2
block 63
 70
     0
 10
0.0
 20
0.0
 30
0.0
  3
block 63
  1

  0
SPLINE
  5
185
330
181
100
AcDbEntity
  8
0
 62
   250
370
    25
100
AcDbSpline
210
0.0
220
0.0
230
1.0
 70
     8
 71
     3
 72
    86
 73
    82
 74
     0
 42
0.0000000001
 43
0.0000000001
 12
1.0
 22
0.0
 32
0.0
 13
1.0
 23
0.0
 33
0.0
 40
0.0
 40
0.0
 40
0.0
 40
0.0
 40
1.0
 40
1.0
 40
1.0
 40
2.0
 40
2.0
 40
2.0
 40
3.0
 40
3.0
 40
3.0
 40
4.0
 40
4.0
 40
4.0
 40
5.0
 40
5.0
 40
5.0
 40
6.0
 40
6.0
 40
6.0
 40
7.0
 40
7.0
 40
7.0
 40
8.0
 40
8.0
 40
8.0
 40
9.0
 40
9.0
 40
9.0
 40
10.0
 40
10.0
 40
10.0
 40
11.0
 40
11.0
 40
11.0
 40
12.0
 40
12.0
 40
12.0
 40
13.0
 40
13.0
 40
13.0
 40
14.0
 40
14.0
 40
14.0
 40
15.0
 40
15.0
 40
15.0
 40
16.0
 40
16.0
 40
16.0
 40
17.0
 40
17.0
 40
17.0
 40
18.0
 40
18.0
 40
18.0
 40
19.0
 40
19.0
 40
19.0
 40
20.0
 40
20.0
 40
20.0
 40
21.0
 40
21.0
 40
21.0
 40
22.0
 40
22.0
 40
22.0
 40
23.0
 40
23.0
 40
23.0
 40
24.0
 40
24.0
 40
24.0
 40
25.0
 40
25.0
 40
25.0
 40
26.0
 40
26.0
 40
26.0
 40
27.0
 40
27.0
 40
27.0
 40
27.0
 10
736.9475535122197
 20
154.1049452616403
 30
0.0
 10
736.4015659044205
 20
165.5736836002783
 30
0.0
 10
734.9324757746443
 20
176.990246732368
 30
0.0
 10
732.6782528543281
 20
188.2470387282072
 30
0.0
 10
731.5595374044244
 20
193.8334546748573
 30
0.0
 10
730.2474667772732
 20
199.3805010944627
 30
0.0
 10
728.7405240466531
 20
204.8747373151347
 30
0.0
 10
727.2352040743017
 20
210.3628705535681
 30
0.0
 10
725.5354353267358
 20
215.7982994251246
 30
0.0
 10
723.627071585006
 20
221.1597164080148
 30
0.0
 10
721.9681187360062
 20
225.8203487537668
 30
0.0
 10
720.1515113920062
 20
230.4250664934438
 30
0.0
 10
718.1645497055636
 20
234.9555254029591
 30
0.0
 10
716.0807516824128
 20
239.7068205484985
 30
0.0
 10
713.809560354821
 20
244.3765191742267
 30
0.0
 10
711.3403925166193
 20
248.9394685267727
 30
0.0
 10
708.8422972481374
 20
253.5559336253326
 30
0.0
 10
706.1415335809561
 20
258.063215313276
 30
0.0
 10
703.2385601206572
 20
262.4364430560293
 30
0.0
 10
700.3359394339104
 20
266.8091416384777
 30
0.0
 10
697.2311795087694
 20
271.047821553095
 30
0.0
 10
693.937297688863
 20
275.1338916343332
 30
0.0
 10
690.6418989427226
 20
279.2217608606202
 30
0.0
 10
687.1572371924132
 20
283.1568791441109
 30
0.0
 10
683.5047963464817
 20
286.9293688256811
 30
0.0
 10
680.0763666984261
 20
290.4704743423945
 30
0.0
 10
676.5001602144954
 20
293.8682832471774
 30
0.0
 10
672.7967788694017
 20
297.1202908478982
 30
0.0
 10
664.7971449679727
 20
304.1448234075382
 30
0.0
 10
656.204145972331
 20
310.4889616406746
 30
0.0
 10
647.1925458941915
 20
316.157891318329
 30
0.0
 10
643.1972091674255
 20
318.6711911263874
 30
0.0
 10
639.1196056511519
 20
321.0518128060544
 30
0.0
 10
634.9732112945802
 20
323.3069882149222
 30
0.0
 10
629.787404979902
 20
326.127483221578
 30
0.0
 10
624.4940380128658
 20
328.7518714173681
 30
0.0
 10
619.1196742410724
 20
331.193981525057
 30
0.0
 10
608.3579999085765
 20
336.0840930585484
 30
0.0
 10
597.271703364596
 20
340.2435047587451
 30
0.0
 10
586.0083145035603
 20
343.8326227542384
 30
0.0
 10
576.1864994361978
 20
346.9623943233777
 30
0.0
 10
566.2300307086302
 20
349.6585013798291
 30
0.0
 10
556.1902015935897
 20
351.9949910896644
 30
0.0
 10
545.9661188586074
 20
354.3743427845998
 30
0.0
 10
535.655571329
 20
356.3807775704474
 30
0.0
 10
525.2869219973534
 20
358.0142248924873
 30
0.0
 10
514.1921236110638
 20
359.7620413962019
 30
0.0
 10
503.0307921351479
 20
361.0827549750827
 30
0.0
 10
491.8445901246543
 20
362.0995541493038
 30
0.0
 10
479.4230104545892
 20
363.2286058639199
 30
0.0
 10
466.9708100412659
 20
363.9828356923512
 30
0.0
 10
454.5129299739522
 20
364.5912642167089
 30
0.0
 10
449.6232417686956
 20
364.8300919032574
 30
0.0
 10
444.7326716295962
 20
365.0464126379552
 30
0.0
 10
439.8414312207624
 20
365.2491868687221
 30
0.0
 10
434.468407988419
 20
365.471963359199
 30
0.0
 10
429.0945733769387
 20
365.6784064347843
 30
0.0
 10
423.7203859919063
 20
365.8734196476678
 30
0.0
 10
411.1760058525905
 20
366.3286386236221
 30
0.0
 10
398.6296501814488
 20
366.7217341792075
 30
0.0
 10
386.0818128614393
 20
367.0636775714803
 30
0.0
 10
372.5440577109641
 20
367.4325728622096
 30
0.0
 10
359.0045739701482
 20
367.7418847020469
 30
0.0
 10
345.4641024634204
 20
367.9938708416316
 30
0.0
 10
332.9249433724854
 20
368.2271952609596
 30
0.0
 10
320.3849023477203
 20
368.4113783261657
 30
0.0
 10
307.8444379946937
 20
368.5574618490706
 30
0.0
 10
289.8740833146853
 20
368.7668329450332
 30
0.0
 10
271.9028819781802
 20
368.8979941471828
 30
0.0
 10
253.9316453643282
 20
369.0074950539839
 30
0.0
 10
241.7990577781892
 20
369.0814363879613
 30
0.0
 10
229.6664701920631
 20
369.1455000628193
 30
0.0
 10
217.5338120512283
 20
369.2003563482858
 30
0.0
 10
203.6148498134779
 20
369.2633264251627
 30
0.0
 10
189.6958170210189
 20
369.3141963696183
 30
0.0
 10
175.7767489512117
 20
369.3530367363728
 30
0.0
 10
155.1393204770773
 20
369.4106093780984
 30
0.0
 10
134.5018214482466
 20
369.4417240043099
 30
0.0
 10
113.8643929741117
 20
369.4132199022891
 30
0.0
 10
98.40261093672326
 20
369.391877103128
 30
0.0
 10
82.94086417669527
 20
369.3370560950091
 30
0.0
 10
67.47947019019506
 20
369.229177946499
 30
0.0
  0
ENDBLK
  5
184
330
181
100
AcDbEntity
  8
0
100
AcDbBlockEnd
  0
BLOCK
  5
188
330
186
100
AcDbEntity
  8
0
100
AcDbBlockBegin
  2
block 64
 70
     0
 10
0.0
 20
0.0
 30
0.0
  3
block 64
  1

  0
SPLINE
  5
18A
330
186
100
AcDbEntity
  8
0
 62
   250
370
    25
100
AcDbSpline
210
0.0
220
0.0
230
1.0
 70
     8
 71
     3
 72
     8
 73
     4
 74
     0
 42
0.0000000001
 43
0.0000000001
 12
1.0
 22
0.0
 32
0.0
 13
1.0
 23
0.0
 33
0.0
 40
0.0
 40
0.0
 40
0.0
 40
0.0
 40
1.0
 40
1.0
 40
1.0
 40
1.0
 10
39.11330261596076
 20
368.9656208347901
 30
0.0
 10
16.73902889523001
 20
368.7106008427667
 30
0.0
 10
-5.629212397983109
 20
368.2687519839668
 30
0.0
 10
-27.99611315174366
 20
367.640003703694
 30
0.0
  0
ENDBLK
  5
189
330
186
100
AcDbEntity
  8
0
100
AcDbBlockEnd
  0
BLOCK
  5
18D
330
18B
100
AcDbEntity
  8
0
100
AcDbBlockBegin
  2
block 65
 70
     0
 10
0.0
 20
0.0
 30
0.0
  3
block 65
  1

  0
SPLINE
  5
18F
330
18B
100
AcDbEntity
  8
0
 62
   250
370
    25
100
AcDbSpline
210
0.0
220
0.0
230
1.0
 70
     8
 71
     3
 72
    68
 73
    64
 74
     0
 42
0.0000000001
 43
0.0000000001
 12
1.0
 22
0.0
 32
0.0
 13
1.0
 23
0.0
 33
0.0
 40
0.0
 40
0.0
 40
0.0
 40
0.0
 40
1.0
 40
1.0
 40
1.0
 40
2.0
 40
2.0
 40
2.0
 40
3.0
 40
3.0
 40
3.0
 40
4.0
 40
4.0
 40
4.0
 40
5.0
 40
5.0
 40
5.0
 40
6.0
 40
6.0
 40
6.0
 40
7.0
 40
7.0
 40
7.0
 40
8.0
 40
8.0
 40
8.0
 40
9.0
 40
9.0
 40
9.0
 40
10.0
 40
10.0
 40
10.0
 40
11.0
 40
11.0
 40
11.0
 40
12.0
 40
12.0
 40
12.0
 40
13.0
 40
13.0
 40
13.0
 40
14.0
 40
14.0
 40
14.0
 40
15.0
 40
15.0
 40
15.0
 40
16.0
 40
16.0
 40
16.0
 40
17.0
 40
17.0
 40
17.0
 40
18.0
 40
18.0
 40
18.0
 40
19.0
 40
19.0
 40
19.0
 40
20.0
 40
20.0
 40
20.0
 40
21.0
 40
21.0
 40
21.0
 40
21.0
 10
-27.99611315174366
 20
367.640003703694
 30
0.0
 10
-47.27381129346632
 20
367.0983552104412
 30
0.0
 10
-66.54706448859581
 20
366.4017333011087
 30
0.0
 10
-85.8137560958778
 20
365.5542301487174
 30
0.0
 10
-94.61584396863735
 20
365.1670611886197
 30
0.0
 10
-103.4165560245964
 20
364.748389551403
 30
0.0
 10
-112.2149397752035
 20
364.2850920613665
 30
0.0
 10
-120.1145623780504
 20
363.8691367804089
 30
0.0
 10
-128.0123152811409
 20
363.417163321025
 30
0.0
 10
-135.9071401638543
 20
362.916189616941
 30
0.0
 10
-148.9421224651851
 20
362.0890062204526
 30
0.0
 10
-161.9691320845207
 20
361.1281922070322
 30
0.0
 10
-174.9742344670177
 20
359.9196606138513
 30
0.0
 10
-185.7620140414878
 20
358.9172193227157
 30
0.0
 10
-196.534730185786
 20
357.7443178570806
 30
0.0
 10
-207.2744267267619
 20
356.3163611220495
 30
0.0
 10
-217.7870076627109
 20
354.9186370793915
 30
0.0
 10
-228.2680153668318
 20
353.2764762509032
 30
0.0
 10
-238.6916620933593
 20
351.3233102695907
 30
0.0
 10
-243.4459558139708
 20
350.4324865264974
 30
0.0
 10
-248.1883257889374
 20
349.4769641161678
 30
0.0
 10
-252.9152442828569
 20
348.4505695016797
 30
0.0
 10
-257.6339078759365
 20
347.4259740322333
 30
0.0
 10
-262.3371552653288
 20
346.3307533000885
 30
0.0
 10
-267.0205415044025
 20
345.1556646384914
 30
0.0
 10
-271.2641955259432
 20
344.0909235402112
 30
0.0
 10
-275.4915866872747
 20
342.9606018408306
 30
0.0
 10
-279.6986933700782
 20
341.7593021052174
 30
0.0
 10
-283.9752611628855
 20
340.5381412193244
 30
0.0
 10
-288.2309447621267
 20
339.2436034370987
 30
0.0
 10
-292.4574892669748
 20
337.8593906210239
 30
0.0
 10
-296.2826127607036
 20
336.6066565032905
 30
0.0
 10
-300.0839240404867
 20
335.2804396571828
 30
0.0
 10
-303.8532740375538
 20
333.8690632785391
 30
0.0
 10
-307.6763161674011
 20
332.4375788081056
 30
0.0
 10
-311.466479803317
 20
330.9184301130016
 30
0.0
 10
-315.2140636729756
 20
329.2990584551897
 30
0.0
 10
-322.2823754289173
 20
326.2447098689092
 30
0.0
 10
-329.1991709494699
 20
322.8336719563765
 30
0.0
 10
-335.8771387834498
 20
319.0015282691935
 30
0.0
 10
-341.8812033240702
 20
315.5560949365262
 30
0.0
 10
-347.6922654609792
 20
311.7702351377886
 30
0.0
 10
-353.2470023437479
 20
307.6389747660859
 30
0.0
 10
-355.92127271808
 20
305.650037547818
 30
0.0
 10
-358.5361007509327
 20
303.581091290689
 30
0.0
 10
-361.0865476127444
 20
301.4355578980447
 30
0.0
 10
-363.8383928885212
 20
299.120657928855
 30
0.0
 10
-366.5152737870534
 20
296.7166826408412
 30
0.0
 10
-369.1115812090565
 20
294.2288530823579
 30
0.0
 10
-374.329525193241
 20
289.2289231458792
 30
0.0
 10
-379.2220355868167
 20
283.8903658883925
 30
0.0
 10
-383.7721792598601
 20
278.275445839695
 30
0.0
 10
-388.3290609075159
 20
272.6521650581147
 30
0.0
 10
-392.542588068739
 20
266.7517453835227
 30
0.0
 10
-396.3950867891699
 20
260.6243512133443
 30
0.0
 10
-400.4942800460897
 20
254.1044964799665
 30
0.0
 10
-404.184679324907
 20
247.3276462227144
 30
0.0
 10
-407.436298874739
 20
240.346822304671
 30
0.0
 10
-410.6731372132323
 20
233.3977832825786
 30
0.0
 10
-413.4751468863816
 20
226.2466402994577
 30
0.0
 10
-415.8456792428257
 20
218.9560459359676
 30
0.0
 10
-418.2133541335825
 20
211.6742003562937
 30
0.0
 10
-420.1506100282457
 20
204.2532914471503
 30
0.0
 10
-421.6771316903449
 20
196.7503626899806
 30
0.0
  0
ENDBLK
  5
18E
330
18B
100
AcDbEntity
  8
0
100
AcDbBlockEnd
  0
BLOCK
  5
192
330
190
100
AcDbEntity
  8
0
100
AcDbBlockBegin
  2
block 66
 70
     0
 10
0.0
 20
0.0
 30
0.0
  3
block 66
  1

  0
SPLINE
  5
194
330
190
100
AcDbEntity
  8
0
 62
   250
370
    25
100
AcDbSpline
210
0.0
220
0.0
230
1.0
 70
     8
 71
     3
 72
     8
 73
     4
 74
     0
 42
0.0000000001
 43
0.0000000001
 12
1.0
 22
0.0
 32
0.0
 13
1.0
 23
0.0
 33
0.0
 40
0.0
 40
0.0
 40
0.0
 40
0.0
 40
1.0
 40
1.0
 40
1.0
 40
1.0
 10
-633.7344217735318
 20
148.695656909392
 30
0.0
 10
-633.7344570508794
 20
147.0644320606366
 30
0.0
 10
-633.7226391372913
 20
145.4334188760052
 30
0.0
 10
-633.6989327554033
 20
143.8023704140385
 30
0.0
  0
ENDBLK
  5
193
330
190
100
AcDbEntity
  8
0
100
AcDbBlockEnd
  0
BLOCK
  5
197
330
195
100
AcDbEntity
  8
0
100
AcDbBlockBegin
  2
block 67
 70
     0
 10
0.0
 20
0.0
 30
0.0
  3
block 67
  1

  0
SPLINE
  5
199
330
195
100
AcDbEntity
  8
0
 62
   250
370
    25
100
AcDbSpline
210
0.0
220
0.0
230
1.0
 70
     8
 71
     3
 72
     8
 73
     4
 74
     0
 42
0.0000000001
 43
0.0000000001
 12
1.0
 22
0.0
 32
0.0
 13
1.0
 23
0.0
 33
0.0
 40
0.0
 40
0.0
 40
0.0
 40
0.0
 40
1.0
 40
1.0
 40
1.0
 40
1.0
 10
-633.6988622007087
 20
153.5889434047454
 30
0.0
 10
-633.7225685825827
 20
151.9578949427658
 30
0.0
 10
-633.7344217735318
 20
150.3268817581473
 30
0.0
 10
-633.7344217735318
 20
148.695656909392
 30
0.0
  0
ENDBLK
  5
198
330
195
100
AcDbEntity
  8
0
100
AcDbBlockEnd
  0
BLOCK
  5
19C
330
19A
100
AcDbEntity
  8
0
100
AcDbBlockBegin
  2
block 68
 70
     0
 10
0.0
 20
0.0
 30
0.0
  3
block 68
  1

  0
SPLINE
  5
19E
330
19A
100
AcDbEntity
  8
0
 62
   250
370
    25
100
AcDbSpline
210
0.0
220
0.0
230
1.0
 70
     8
 71
     3
 72
    59
 73
    55
 74
     0
 42
0.0000000001
 43
0.0000000001
 12
1.0
 22
0.0
 32
0.0
 13
1.0
 23
0.0
 33
0.0
 40
0.0
 40
0.0
 40
0.0
 40
0.0
 40
1.0
 40
1.0
 40
1.0
 40
2.0
 40
2.0
 40
2.0
 40
3.0
 40
3.0
 40
3.0
 40
4.0
 40
4.0
 40
4.0
 40
5.0
 40
5.0
 40
5.0
 40
6.0
 40
6.0
 40
6.0
 40
7.0
 40
7.0
 40
7.0
 40
8.0
 40
8.0
 40
8.0
 40
9.0
 40
9.0
 40
9.0
 40
10.0
 40
10.0
 40
10.0
 40
11.0
 40
11.0
 40
11.0
 40
12.0
 40
12.0
 40
12.0
 40
13.0
 40
13.0
 40
13.0
 40
14.0
 40
14.0
 40
14.0
 40
15.0
 40
15.0
 40
15.0
 40
16.0
 40
16.0
 40
16.0
 40
17.0
 40
17.0
 40
17.0
 40
18.0
 40
18.0
 40
18.0
 40
18.0
 10
-633.6989327554033
 20
143.8023704140385
 30
0.0
 10
-633.4957351964011
 20
130.0223656736629
 30
0.0
 10
-632.4217161540073
 20
116.250756943562
 30
0.0
 10
-630.3876591999823
 20
102.6191553288078
 30
0.0
 10
-628.3495453502399
 20
88.96057558594804
 30
0.0
 10
-625.3475836346435
 20
75.44257609519195
 30
0.0
 10
-621.306351070342
 20
62.23752200383254
 30
0.0
 10
-619.2835123148832
 20
55.62781601680192
 30
0.0
 10
-617.0003266869384
 20
49.09653158571403
 30
0.0
 10
-614.4517142475395
 20
42.67104393659888
 30
0.0
 10
-612.3572271861144
 20
37.39051805982075
 30
0.0
 10
-610.0834958890456
 20
32.18142882308879
 30
0.0
 10
-607.6384577609787
 20
27.05428887761725
 30
0.0
 10
-602.0583211833195
 20
15.35307307174194
 30
0.0
 10
-595.5858086590077
 20
4.078748515797202
 30
0.0
 10
-588.3484125453484
 20
-6.677704496599994
 30
0.0
 10
-580.9594649189349
 20
-17.6594386859051
 30
0.0
 10
-572.7732138148631
 20
-28.10135881801359
 30
0.0
 10
-563.899301249364
 20
-37.92204476195899
 30
0.0
 10
-559.3729697902617
 20
-42.93128779335664
 30
0.0
 10
-554.667746869056
 20
-47.77892527018881
 30
0.0
 10
-549.797178989664
 20
-52.4540917676859
 30
0.0
 10
-544.666370069856
 20
-57.37905720250996
 30
0.0
 10
-539.3520483545603
 20
-62.11264299676162
 30
0.0
 10
-533.8736869431849
 20
-66.64726451949363
 30
0.0
 10
-523.1506413133061
 20
-75.52311711523946
 30
0.0
 10
-511.7990590672784
 20
-83.63669666511653
 30
0.0
 10
-499.9707033820088
 20
-90.97657330670029
 30
0.0
 10
-488.2428881556318
 20
-98.25407958799846
 30
0.0
 10
-476.0463427267001
 20
-104.7710061363672
 30
0.0
 10
-463.5016450912066
 20
-110.5269649009343
 30
0.0
 10
-457.7620548734843
 20
-113.1604898648644
 30
0.0
 10
-451.9495816424263
 20
-115.6347375795422
 30
0.0
 10
-446.0733269553314
 20
-117.9467800246461
 30
0.0
 10
-439.7031187575963
 20
-120.4532006853668
 30
0.0
 10
-433.2579814599703
 20
-122.7690178072369
 30
0.0
 10
-426.7568590015752
 20
-124.9135633798123
 30
0.0
 10
-420.3354280858302
 20
-127.0318273243003
 30
0.0
 10
-413.859387826118
 20
-128.9829824471524
 30
0.0
 10
-407.3427786092946
 20
-130.7868193434373
 30
0.0
 10
-399.9919658025428
 20
-132.8215817931441
 30
0.0
 10
-392.5895069495423
 20
-134.6689509431545
 30
0.0
 10
-385.1542048799864
 20
-136.3696721363224
 30
0.0
 10
-376.4513169266496
 20
-138.3603378946321
 30
0.0
 10
-367.7034503469691
 20
-140.1500991270299
 30
0.0
 10
-358.9338881945887
 20
-141.8231981527116
 30
0.0
 10
-353.6909325664273
 20
-142.8234874999864
 30
0.0
 10
-348.4402511977431
 20
-143.7820437385338
 30
0.0
 10
-343.1845957221331
 20
-144.7127308681357
 30
0.0
 10
-337.2759917014338
 20
-145.7590924385538
 30
0.0
 10
-331.3611083117225
 20
-146.7702119332275
 30
0.0
 10
-325.4423796904268
 20
-147.7582953163192
 30
0.0
 10
-313.1924596249007
 20
-149.8032176437266
 30
0.0
 10
-300.9259944803595
 20
-151.7492928277262
 30
0.0
 10
-288.6370223839787
 20
-153.5437106707259
 30
0.0
  0
ENDBLK
  5
19D
330
19A
100
AcDbEntity
  8
0
100
AcDbBlockEnd
  0
BLOCK
  5
1A1
330
19F
100
AcDbEntity
  8
0
100
AcDbBlockBegin
  2
block 69
 70
     0
 10
0.0
 20
0.0
 30
0.0
  3
block 69
  1

  0
SPLINE
  5
1A3
330
19F
100
AcDbEntity
  8
0
 62
   250
370
    25
100
AcDbSpline
210
0.0
220
0.0
230
1.0
 70
     8
 71
     3
 72
    53
 73
    49
 74
     0
 42
0.0000000001
 43
0.0000000001
 12
1.0
 22
0.0
 32
0.0
 13
1.0
 23
0.0
 33
0.0
 40
0.0
 40
0.0
 40
0.0
 40
0.0
 40
1.0
 40
1.0
 40
1.0
 40
2.0
 40
2.0
 40
2.0
 40
3.0
 40
3.0
 40
3.0
 40
4.0
 40
4.0
 40
4.0
 40
5.0
 40
5.0
 40
5.0
 40
6.0
 40
6.0
 40
6.0
 40
7.0
 40
7.0
 40
7.0
 40
8.0
 40
8.0
 40
8.0
 40
9.0
 40
9.0
 40
9.0
 40
10.0
 40
10.0
 40
10.0
 40
11.0
 40
11.0
 40
11.0
 40
12.0
 40
12.0
 40
12.0
 40
13.0
 40
13.0
 40
13.0
 40
14.0
 40
14.0
 40
14.0
 40
15.0
 40
15.0
 40
15.0
 40
16.0
 40
16.0
 40
16.0
 40
16.0
 10
-633.6988622007087
 20
153.5889434047454
 30
0.0
 10
-633.4915724686275
 20
167.6527897353641
 30
0.0
 10
-632.3776194615097
 20
181.7085928292679
 30
0.0
 10
-630.2607665576505
 20
195.6149257742799
 30
0.0
 10
-628.2721115582269
 20
208.6790824473646
 30
0.0
 10
-625.3983477470448
 20
221.6113723712198
 30
0.0
 10
-621.576011164272
 20
234.2610554122093
 30
0.0
 10
-619.5355337318213
 20
241.0138817913813
 30
0.0
 10
-617.2246906583515
 20
247.6861346940213
 30
0.0
 10
-614.6371672974901
 20
254.2489572445746
 30
0.0
 10
-612.3726081124544
 20
259.9924985259312
 30
0.0
 10
-609.8961378619765
 20
265.6522208142063
 30
0.0
 10
-607.2179164239936
 20
271.2145776054299
 30
0.0
 10
-601.8583691408724
 20
282.3456763889848
 30
0.0
 10
-595.6910057286121
 20
293.0867840241088
 30
0.0
 10
-588.8262795825714
 20
303.3593731208334
 30
0.0
 10
-580.9726586493244
 20
315.1118119403048
 30
0.0
 10
-572.2063067361522
 20
326.2509892379312
 30
0.0
 10
-562.660783905279
 20
336.6753767888666
 30
0.0
 10
-554.0161388634073
 20
346.11591421426
 30
0.0
 10
-544.7324798312466
 20
354.9701772935795
 30
0.0
 10
-534.9103472676903
 20
363.1779123062279
 30
0.0
 10
-524.4182977517698
 20
371.9454636494361
 30
0.0
 10
-513.3118931160117
 20
379.9752949658804
 30
0.0
 10
-501.740532954606
 20
387.2605624489069
 30
0.0
 10
-489.7923400978035
 20
394.7831054149053
 30
0.0
 10
-477.348429862673
 20
401.5118020839422
 30
0.0
 10
-464.5354479500452
 20
407.4425602829513
 30
0.0
 10
-458.5319478470888
 20
410.2213927345303
 30
0.0
 10
-452.4474509393707
 20
412.8250731235318
 30
0.0
 10
-446.2929990386686
 20
415.251625918105
 30
0.0
 10
-440.1400993415399
 20
417.6775437203185
 30
0.0
 10
-433.9173152061493
 20
419.9264397601713
 30
0.0
 10
-427.6416150397718
 20
422.0128483075333
 30
0.0
 10
-413.8800250781979
 20
426.5880389019173
 30
0.0
 10
-399.8640148396026
 20
430.381906659997
 30
0.0
 10
-385.7296490783572
 20
433.6308098535654
 30
0.0
 10
-377.1912241493505
 20
435.5934301657609
 30
0.0
 10
-368.6095491843519
 20
437.3571920334659
 30
0.0
 10
-360.0055083769094
 20
439.0087013607625
 30
0.0
 10
-354.8584013195573
 20
439.9966789367569
 30
0.0
 10
-349.7032863028364
 20
440.9444756065571
 30
0.0
 10
-344.5434088433299
 20
441.8635917875665
 30
0.0
 10
-338.5328179922343
 20
442.9342242039733
 30
0.0
 10
-332.5157713853545
 20
443.9659104215708
 30
0.0
 10
-326.4946326053955
 20
444.9739608119888
 30
0.0
 10
-314.0475121310505
 20
447.0578293898482
 30
0.0
 10
-301.5828235344013
 20
449.0405930711689
 30
0.0
 10
-289.0953457670864
 20
450.8678188987211
 30
0.0
  0
ENDBLK
  5
1A2
330
19F
100
AcDbEntity
  8
0
100
AcDbBlockEnd
  0
BLOCK
  5
1A6
330
1A4
100
AcDbEntity
  8
0
100
AcDbBlockBegin
  2
block 70
 70
     0
 10
0.0
 20
0.0
 30
0.0
  3
block 70
  1

  0
SPLINE
  5
1A8
330
1A4
100
AcDbEntity
  8
0
 62
   250
370
    25
100
AcDbSpline
210
0.0
220
0.0
230
1.0
 70
    11
 71
     3
 72
    17
 73
    13
 74
     0
 42
0.0000000001
 43
0.0000000001
 12
1.0
 22
0.0
 32
0.0
 13
1.0
 23
0.0
 33
0.0
 40
0.0
 40
0.0
 40
0.0
 40
0.0
 40
1.0
 40
1.0
 40
1.0
 40
2.0
 40
2.0
 40
2.0
 40
3.0
 40
3.0
 40
3.0
 40
4.0
 40
4.0
 40
4.0
 40
4.0
 10
128.3014284313154
 20
149.1681851259825
 30
0.0
 10
128.566051608858
 20
164.2837882684154
 30
0.0
 10
141.032623877202
 20
176.3238198413139
 30
0.0
 10
156.1501648622649
 20
176.0576894528376
 30
0.0
 10
171.2659833205462
 20
175.7950041179179
 30
0.0
 10
183.3042923666625
 20
163.3264940069568
 30
0.0
 10
183.0413917158893
 20
148.212182759597
 30
0.0
 10
182.7767685383596
 20
133.0965796171635
 30
0.0
 10
170.3101962700149
 20
121.0565480442726
 30
0.0
 10
155.1926552849392
 20
121.3192333791846
 30
0.0
 10
140.0785593534522
 20
121.5857943993565
 30
0.0
 10
128.038527780555
 20
134.0504288250783
 30
0.0
 10
128.3014284313154
 20
149.1681851259825
 30
0.0
  0
ENDBLK
  5
1A7
330
1A4
100
AcDbEntity
  8
0
100
AcDbBlockEnd
  0
BLOCK
  5
1AB
330
1A9
100
AcDbEntity
  8
0
100
AcDbBlockBegin
  2
block 71
 70
     0
 10
0.0
 20
0.0
 30
0.0
  3
block 71
  1

  0
POLYLINE
  5
1AD
330
1A9
100
AcDbEntity
  8
0
 62
     4
370
    25
100
AcDb2dPolyline
 66
     1
 10
0.0
 20
0.0
 30
0.0
  0
VERTEX
  5
1AE
330
1AD
100
AcDbEntity
  8
0
 62
     4
370
    25
100
AcDbVertex
100
AcDb2dVertex
 10
221.7609981495926
 20
148.6471158025138
 30
0.0
  0
VERTEX
  5
1AF
330
1AD
100
AcDbEntity
  8
0
 62
     4
370
    25
100
AcDbVertex
100
AcDb2dVertex
 10
210.5109096514285
 20
148.6471158025138
 30
0.0
  0
SEQEND
  5
1B0
330
1AD
100
AcDbEntity
  8
0
 62
     4
370
    25
  0
ENDBLK
  5
1AC
330
1A9
100
AcDbEntity
  8
0
100
AcDbBlockEnd
  0
BLOCK
  5
1B3
330
1B1
100
AcDbEntity
  8
0
100
AcDbBlockBegin
  2
block 72
 70
     0
 10
0.0
 20
0.0
 30
0.0
  3
block 72
  1

  0
POLYLINE
  5
1B5
330
1B1
100
AcDbEntity
  8
0
  6
AI-Linetype-17
 62
     4
370
    25
100
AcDb2dPolyline
 66
     1
 10
0.0
 20
0.0
 30
0.0
  0
VERTEX
  5
1B6
330
1B5
100
AcDbEntity
  8
0
  6
AI-Linetype-17
 62
     4
370
    25
100
AcDbVertex
100
AcDb2dVertex
 10
206.9368707017198
 20
148.6471158025138
 30
0.0
  0
VERTEX
  5
1B7
330
1B5
100
AcDbEntity
  8
0
  6
AI-Linetype-17
 62
     4
370
    25
100
AcDbVertex
100
AcDb2dVertex
 10
201.5757961282717
 20
148.6471158025138
 30
0.0
  0
SEQEND
  5
1B9
330
1B5
100
AcDbEntity
  8
0
  6
AI-Linetype-17
 62
     4
370
    25
  0
ENDBLK
  5
1B4
330
1B1
100
AcDbEntity
  8
0
100
AcDbBlockEnd
  0
BLOCK
  5
1BC
330
1BA
100
AcDbEntity
  8
0
100
AcDbBlockBegin
  2
block 73
 70
     0
 10
0.0
 20
0.0
 30
0.0
  3
block 73
  1

  0
POLYLINE
  5
1BE
330
1BA
100
AcDbEntity
  8
0
  6
AI-Linetype-18
 62
     4
370
    25
100
AcDb2dPolyline
 66
     1
 10
0.0
 20
0.0
 30
0.0
  0
VERTEX
  5
1BF
330
1BE
100
AcDbEntity
  8
0
  6
AI-Linetype-18
 62
     4
370
    25
100
AcDbVertex
100
AcDb2dVertex
 10
199.788782036379
 20
148.6471158025138
 30
0.0
  0
VERTEX
  5
1C0
330
1BE
100
AcDbEntity
  8
0
  6
AI-Linetype-18
 62
     4
370
    25
100
AcDbVertex
100
AcDb2dVertex
 10
105.0761146796179
 20
148.6471158025138
 30
0.0
  0
SEQEND
  5
1C2
330
1BE
100
AcDbEntity
  8
0
  6
AI-Linetype-18
 62
     4
370
    25
  0
ENDBLK
  5
1BD
330
1BA
100
AcDbEntity
  8
0
100
AcDbBlockEnd
  0
BLOCK
  5
1C5
330
1C3
100
AcDbEntity
  8
0
100
AcDbBlockBegin
  2
block 74
 70
     0
 10
0.0
 20
0.0
 30
0.0
  3
block 74
  1

  0
POLYLINE
  5
1C7
330
1C3
100
AcDbEntity
  8
0
 62
     4
370
    25
100
AcDb2dPolyline
 66
     1
 10
0.0
 20
0.0
 30
0.0
  0
VERTEX
  5
1C8
330
1C7
100
AcDbEntity
  8
0
 62
     4
370
    25
100
AcDbVertex
100
AcDb2dVertex
 10
103.2890925132827
 20
148.6471158025138
 30
0.0
  0
VERTEX
  5
1C9
330
1C7
100
AcDbEntity
  8
0
 62
     4
370
    25
100
AcDbVertex
100
AcDb2dVertex
 10
92.03900939808038
 20
148.6471158025138
 30
0.0
  0
SEQEND
  5
1CA
330
1C7
100
AcDbEntity
  8
0
 62
     4
370
    25
  0
ENDBLK
  5
1C6
330
1C3
100
AcDbEntity
  8
0
100
AcDbBlockEnd
  0
BLOCK
  5
1CD
330
1CB
100
AcDbEntity
  8
0
100
AcDbBlockBegin
  2
block 75
 70
     0
 10
0.0
 20
0.0
 30
0.0
  3
block 75
  1

  0
POLYLINE
  5
1CF
330
1CB
100
AcDbEntity
  8
0
 62
   250
370
    25
100
AcDb2dPolyline
 66
     1
 10
0.0
 20
0.0
 30
0.0
  0
VERTEX
  5
1D0
330
1CF
100
AcDbEntity
  8
0
 62
   250
370
    25
100
AcDbVertex
100
AcDb2dVertex
 10
155.670652401955
 20
213.449437241527
 30
0.0
  0
VERTEX
  5
1D1
330
1CF
100
AcDbEntity
  8
0
 62
   250
370
    25
100
AcDbVertex
100
AcDb2dVertex
 10
155.670652401955
 20
202.1993595092864
 30
0.0
  0
SEQEND
  5
1D2
330
1CF
100
AcDbEntity
  8
0
 62
   250
370
    25
  0
ENDBLK
  5
1CE
330
1CB
100
AcDbEntity
  8
0
100
AcDbBlockEnd
  0
BLOCK
  5
1D5
330
1D3
100
AcDbEntity
  8
0
100
AcDbBlockBegin
  2
block 76
 70
     0
 10
0.0
 20
0.0
 30
0.0
  3
block 76
  1

  0
POLYLINE
  5
1D7
330
1D3
100
AcDbEntity
  8
0
  6
AI-Linetype-19
 62
     4
370
    25
100
AcDb2dPolyline
 66
     1
 10
0.0
 20
0.0
 30
0.0
  0
VERTEX
  5
1D8
330
1D7
100
AcDbEntity
  8
0
  6
AI-Linetype-19
 62
     4
370
    25
100
AcDbVertex
100
AcDb2dVertex
 10
155.670652401955
 20
198.6253205595777
 30
0.0
  0
VERTEX
  5
1D9
330
1D7
100
AcDbEntity
  8
0
  6
AI-Linetype-19
 62
     4
370
    25
100
AcDbVertex
100
AcDb2dVertex
 10
155.670652401955
 20
193.2642675179763
 30
0.0
  0
SEQEND
  5
1DB
330
1D7
100
AcDbEntity
  8
0
  6
AI-Linetype-19
 62
     4
370
    25
  0
ENDBLK
  5
1D6
330
1D3
100
AcDbEntity
  8
0
100
AcDbBlockEnd
  0
BLOCK
  5
1DE
330
1DC
100
AcDbEntity
  8
0
100
AcDbBlockBegin
  2
block 77
 70
     0
 10
0.0
 20
0.0
 30
0.0
  3
block 77
  1

  0
POLYLINE
  5
1E0
330
1DC
100
AcDbEntity
  8
0
  6
AI-Linetype-20
 62
     4
370
    25
100
AcDb2dPolyline
 66
     1
 10
0.0
 20
0.0
 30
0.0
  0
VERTEX
  5
1E1
330
1E0
100
AcDbEntity
  8
0
  6
AI-Linetype-20
 62
     4
370
    25
100
AcDbVertex
100
AcDb2dVertex
 10
155.670652401955
 20
191.4772426601602
 30
0.0
  0
VERTEX
  5
1E2
330
1E0
100
AcDbEntity
  8
0
  6
AI-Linetype-20
 62
     4
370
    25
100
AcDbVertex
100
AcDb2dVertex
 10
155.670652401955
 20
96.76476370705885
 30
0.0
  0
SEQEND
  5
1E4
330
1E0
100
AcDbEntity
  8
0
  6
AI-Linetype-20
 62
     4
370
    25
  0
ENDBLK
  5
1DF
330
1DC
100
AcDbEntity
  8
0
100
AcDbBlockEnd
  0
BLOCK
  5
1E7
330
1E5
100
AcDbEntity
  8
0
100
AcDbBlockBegin
  2
block 78
 70
     0
 10
0.0
 20
0.0
 30
0.0
  3
block 78
  1

  0
POLYLINE
  5
1E9
330
1E5
100
AcDbEntity
  8
0
 62
     4
370
    25
100
AcDb2dPolyline
 66
     1
 10
0.0
 20
0.0
 30
0.0
  0
VERTEX
  5
1EA
330
1E9
100
AcDbEntity
  8
0
 62
     4
370
    25
100
AcDbVertex
100
AcDb2dVertex
 10
155.670652401955
 20
94.97774961516619
 30
0.0
  0
VERTEX
  5
1EB
330
1E9
100
AcDbEntity
  8
0
 62
     4
370
    25
100
AcDbVertex
100
AcDb2dVertex
 10
155.670652401955
 20
83.72766111700216
 30
0.0
  0
SEQEND
  5
1EC
330
1E9
100
AcDbEntity
  8
0
 62
     4
370
    25
  0
ENDBLK
  5
1E8
330
1E5
100
AcDbEntity
  8
0
100
AcDbBlockEnd
  0
BLOCK
  5
1EF
330
1ED
100
AcDbEntity
  8
0
100
AcDbBlockBegin
  2
block 79
 70
     0
 10
0.0
 20
0.0
 30
0.0
  3
block 79
  1

  0
SPLINE
  5
1F1
330
1ED
100
AcDbEntity
  8
0
 62
   250
370
    25
100
AcDbSpline
210
0.0
220
0.0
230
1.0
 70
    11
 71
     3
 72
    17
 73
    13
 74
     0
 42
0.0000000001
 43
0.0000000001
 12
1.0
 22
0.0
 32
0.0
 13
1.0
 23
0.0
 33
0.0
 40
0.0
 40
0.0
 40
0.0
 40
0.0
 40
1.0
 40
1.0
 40
1.0
 40
2.0
 40
2.0
 40
2.0
 40
3.0
 40
3.0
 40
3.0
 40
4.0
 40
4.0
 40
4.0
 40
4.0
 10
202.9146138298616
 20
149.0837813103284
 30
0.0
 10
202.9146138310295
 20
175.1766170018216
 30
0.0
 10
181.7647840568573
 20
196.3279539888327
 30
0.0
 10
155.6706564702781
 20
196.3279539899942
 30
0.0
 10
129.5797586214149
 20
196.3279539911685
 30
0.0
 10
108.4282063185624
 20
175.1766170060697
 30
0.0
 10
108.4282063173945
 20
149.0837813145765
 30
0.0
 10
108.4282063162138
 20
122.9926681498648
 30
0.0
 10
129.5797586171668
 20
101.8413311628479
 30
0.0
 10
155.6706564660301
 20
101.8413311616864
 30
0.0
 10
181.7647840526105
 20
101.8413311605057
 30
0.0
 10
202.9146138286808
 20
122.9926681456167
 30
0.0
 10
202.9146138298616
 20
149.0837813103284
 30
0.0
  0
ENDBLK
  5
1F0
330
1ED
100
AcDbEntity
  8
0
100
AcDbBlockEnd
  0
BLOCK
  5
1F4
330
1F2
100
AcDbEntity
  8
0
100
AcDbBlockBegin
  2
block 80
 70
     0
 10
0.0
 20
0.0
 30
0.0
  3
block 80
  1

  0
SPLINE
  5
1F6
330
1F2
100
AcDbEntity
  8
0
 62
   250
370
    25
100
AcDbSpline
210
0.0
220
0.0
230
1.0
 70
     8
 71
     3
 72
    38
 73
    34
 74
     0
 42
0.0000000001
 43
0.0000000001
 12
1.0
 22
0.0
 32
0.0
 13
1.0
 23
0.0
 33
0.0
 40
0.0
 40
0.0
 40
0.0
 40
0.0
 40
1.0
 40
1.0
 40
1.0
 40
2.0
 40
2.0
 40
2.0
 40
3.0
 40
3.0
 40
3.0
 40
4.0
 40
4.0
 40
4.0
 40
5.0
 40
5.0
 40
5.0
 40
6.0
 40
6.0
 40
6.0
 40
7.0
 40
7.0
 40
7.0
 40
8.0
 40
8.0
 40
8.0
 40
9.0
 40
9.0
 40
9.0
 40
10.0
 40
10.0
 40
10.0
 40
11.0
 40
11.0
 40
11.0
 40
11.0
 10
909.8059130416984
 20
129.5371471709847
 30
0.0
 10
911.8064120862261
 20
278.3172501269869
 30
0.0
 10
859.1062692180207
 20
375.5936420742757
 30
0.0
 10
717.7954126492206
 20
452.0005878907313
 30
0.0
 10
576.5083831055313
 20
528.3946506658646
 30
0.0
 10
153.9790229926822
 20
521.6941385070977
 30
0.0
 10
-162.6158012996623
 20
513.413091003345
 30
0.0
 10
-291.958982722103
 20
510.0299830592847
 30
0.0
 10
-406.0947225473567
 20
493.164471103916
 30
0.0
 10
-492.664496083338
 20
454.8862411544651
 30
0.0
 10
-597.4146169475694
 20
408.5692756606285
 30
0.0
 10
-636.4458939776889
 20
347.0349060323445
 30
0.0
 10
-660.894447360592
 20
302.2283811517325
 30
0.0
 10
-681.3973408359977
 20
264.6530124891225
 30
0.0
 10
-687.2236465747218
 20
235.3779981127167
 30
0.0
 10
-693.7277250992063
 20
189.2529672456497
 30
0.0
 10
-695.5968753579825
 20
175.9974979187407
 30
0.0
 10
-699.0416827979476
 20
144.444261359542
 30
0.0
 10
-695.287233445627
 20
112.4900710295047
 30
0.0
 10
-688.1095026469521
 20
51.40026675848537
 30
0.0
 10
-679.1667967333797
 20
22.89079497128235
 30
0.0
 10
-655.8809500814136
 20
-18.84644671526071
 30
0.0
 10
-616.0702653699625
 20
-90.20258825237444
 30
0.0
 10
-520.7843013428712
 20
-180.8783616777033
 30
0.0
 10
-305.8877199856638
 20
-202.6507661098033
 30
0.0
 10
-87.22267286505149
 20
-224.8049754090208
 30
0.0
 10
277.9264764867828
 20
-229.5315437158768
 30
0.0
 10
532.5575481091278
 20
-202.4191465741062
 30
0.0
 10
647.9371882729405
 20
-190.1338484513647
 30
0.0
 10
715.8471745017238
 20
-159.4823777935982
 30
0.0
 10
769.6355925419864
 20
-124.8148002169517
 30
0.0
 10
886.0421120776925
 20
-49.78875941741111
 30
0.0
 10
905.3579191760484
 20
62.91310834331514
 30
0.0
 10
909.8059391155391
 20
129.5373165795362
 30
0.0
  0
ENDBLK
  5
1F5
330
1F2
100
AcDbEntity
  8
0
100
AcDbBlockEnd
  0
BLOCK
  5
1F9
330
1F7
100
AcDbEntity
  8
0
100
AcDbBlockBegin
  2
block 81
 70
     0
 10
0.0
 20
0.0
 30
0.0
  3
block 81
  1

  0
SPLINE
  5
1FB
330
1F7
100
AcDbEntity
  8
0
  6
AI-Linetype-21
 62
     6
370
    25
100
AcDbSpline
210
0.0
220
0.0
230
1.0
 70
     8
 71
     3
 72
     8
 73
     4
 74
     0
 42
0.0000000001
 43
0.0000000001
 12
1.0
 22
0.0
 32
0.0
 13
1.0
 23
0.0
 33
0.0
 40
0.0
 40
0.0
 40
0.0
 40
0.0
 40
1.0
 40
1.0
 40
1.0
 40
1.0
 10
126.816264972701
 20
382.5327122146807
 30
0.0
 10
197.9567170444852
 20
382.4149211315208
 30
0.0
 10
254.8472702420189
 20
381.5343983894686
 30
0.0
 10
325.9196722990003
 20
377.9948098539518
 30
0.0
  0
ENDBLK
  5
1FA
330
1F7
100
AcDbEntity
  8
0
100
AcDbBlockEnd
  0
BLOCK
  5
1FF
330
1FD
100
AcDbEntity
  8
0
100
AcDbBlockBegin
  2
block 82
 70
     0
 10
0.0
 20
0.0
 30
0.0
  3
block 82
  1

  0
SPLINE
  5
201
330
1FD
100
AcDbEntity
  8
0
  6
AI-Linetype-22
 62
     6
370
    25
100
AcDbSpline
210
0.0
220
0.0
230
1.0
 70
     8
 71
     3
 72
     8
 73
     4
 74
     0
 42
0.0000000001
 43
0.0000000001
 12
1.0
 22
0.0
 32
0.0
 13
1.0
 23
0.0
 33
0.0
 40
0.0
 40
0.0
 40
0.0
 40
0.0
 40
1.0
 40
1.0
 40
1.0
 40
1.0
 10
101.8900631284258
 20
382.5481636954906
 30
0.0
 10
110.1987970765257
 20
382.5497511763955
 30
0.0
 10
118.5075310246255
 20
382.5446006827926
 30
0.0
 10
126.816264972701
 20
382.5327122146807
 30
0.0
  0
ENDBLK
  5
200
330
1FD
100
AcDbEntity
  8
0
100
AcDbBlockEnd
  0
BLOCK
  5
205
330
203
100
AcDbEntity
  8
0
100
AcDbBlockBegin
  2
block 83
 70
     0
 10
0.0
 20
0.0
 30
0.0
  3
block 83
  1

  0
SPLINE
  5
207
330
203
100
AcDbEntity
  8
0
  6
AI-Linetype-23
 62
     6
370
    25
100
AcDbSpline
210
0.0
220
0.0
230
1.0
 70
     8
 71
     3
 72
     8
 73
     4
 74
     0
 42
0.0000000001
 43
0.0000000001
 12
1.0
 22
0.0
 32
0.0
 13
1.0
 23
0.0
 33
0.0
 40
0.0
 40
0.0
 40
0.0
 40
0.0
 40
1.0
 40
1.0
 40
1.0
 40
1.0
 10
76.9643904444551
 20
382.5326769373267
 30
0.0
 10
85.27294800577856
 20
382.5447770695562
 30
0.0
 10
93.58150556710234
 20
382.5499275631661
 30
0.0
 10
101.8900631284258
 20
382.5481636954906
 30
0.0
  0
ENDBLK
  5
206
330
203
100
AcDbEntity
  8
0
100
AcDbBlockEnd
  0
BLOCK
  5
20B
330
209
100
AcDbEntity
  8
0
100
AcDbBlockBegin
  2
block 84
 70
     0
 10
0.0
 20
0.0
 30
0.0
  3
block 84
  1

  0
SPLINE
  5
20D
330
209
100
AcDbEntity
  8
0
  6
AI-Linetype-24
 62
     6
370
    25
100
AcDbSpline
210
0.0
220
0.0
230
1.0
 70
     8
 71
     3
 72
    65
 73
    61
 74
     0
 42
0.0000000001
 43
0.0000000001
 12
1.0
 22
0.0
 32
0.0
 13
1.0
 23
0.0
 33
0.0
 40
0.0
 40
0.0
 40
0.0
 40
0.0
 40
1.0
 40
1.0
 40
1.0
 40
2.0
 40
2.0
 40
2.0
 40
3.0
 40
3.0
 40
3.0
 40
4.0
 40
4.0
 40
4.0
 40
5.0
 40
5.0
 40
5.0
 40
6.0
 40
6.0
 40
6.0
 40
7.0
 40
7.0
 40
7.0
 40
8.0
 40
8.0
 40
8.0
 40
9.0
 40
9.0
 40
9.0
 40
10.0
 40
10.0
 40
10.0
 40
11.0
 40
11.0
 40
11.0
 40
12.0
 40
12.0
 40
12.0
 40
13.0
 40
13.0
 40
13.0
 40
14.0
 40
14.0
 40
14.0
 40
15.0
 40
15.0
 40
15.0
 40
16.0
 40
16.0
 40
16.0
 40
17.0
 40
17.0
 40
17.0
 40
18.0
 40
18.0
 40
18.0
 40
19.0
 40
19.0
 40
19.0
 40
20.0
 40
20.0
 40
20.0
 40
20.0
 10
-535.4142754769823
 20
149.0844377245035
 30
0.0
 10
-535.4176621028317
 20
159.208720667773
 30
0.0
 10
-534.6330937819806
 20
169.3343794278234
 30
0.0
 10
-533.063181038523
 20
179.3362852319999
 30
0.0
 10
-531.411354282412
 20
189.8597314295154
 30
0.0
 10
-528.8901171725618
 20
200.2461956636118
 30
0.0
 10
-525.5563368012821
 20
210.3639875738503
 30
0.0
 10
-522.3928754881402
 20
219.9647898693095
 30
0.0
 10
-518.4978324376839
 20
229.3236953521818
 30
0.0
 10
-513.9117060506459
 20
238.3321203285566
 30
0.0
 10
-509.2957703006936
 20
247.3991409889992
 30
0.0
 10
-503.9797554892764
 20
256.1110950869997
 30
0.0
 10
-497.9999620121429
 20
264.3421130254488
 30
0.0
 10
-492.0592205642919
 20
272.5194388319496
 30
0.0
 10
-485.4633434021247
 20
280.2221078478117
 30
0.0
 10
-478.2880710015638
 20
287.3410424961763
 30
0.0
 10
-474.8770332281867
 20
290.7252342897594
 30
0.0
 10
-471.3350811994559
 20
293.9775593361529
 30
0.0
 10
-467.6774194543528
 20
297.09396073971
 30
0.0
 10
-463.4288973312794
 20
300.7138405316691
 30
0.0
 10
-459.0242376458024
 20
304.1503486404145
 30
0.0
 10
-454.4863706770606
 20
307.3991459514577
 30
0.0
 10
-446.0879619086659
 20
313.4117475183585
 30
0.0
 10
-437.2331700302475
 20
318.7812782092532
 30
0.0
 10
-428.079825917158
 20
323.56823868532
 30
0.0
 10
-418.1391618496943
 20
328.7669211534772
 30
0.0
 10
-407.8463592490189
 20
333.2784713311789
 30
0.0
 10
-397.3517349143763
 20
337.2421289324997
 30
0.0
 10
-386.6815704734112
 20
341.2720726809241
 30
0.0
 10
-375.8027052147106
 20
344.7356385197644
 30
0.0
 10
-364.8110845911809
 20
347.7813441070118
 30
0.0
 10
-358.2367617253433
 20
349.6030313616898
 30
0.0
 10
-351.622081567163
 20
351.2752484698131
 30
0.0
 10
-344.977944818844
 20
352.8220545864302
 30
0.0
 10
-338.2861836433636
 20
354.3799730693829
 30
0.0
 10
-331.5645072721858
 20
355.8106814158
 30
0.0
 10
-324.8230755830535
 20
357.1377448977929
 30
0.0
 10
-309.174570754014
 20
360.2181986781893
 30
0.0
 10
-293.4195988722693
 20
362.7402119535085
 30
0.0
 10
-277.6170731180807
 20
364.8968576791729
 30
0.0
 10
-260.8287922764971
 20
367.1880159535323
 30
0.0
 10
-243.986819302971
 20
369.0668172434416
 30
0.0
 10
-227.11983468585
 20
370.6777928659713
 30
0.0
 10
-216.5350411706731
 20
371.6887359837232
 30
0.0
 10
-205.9403699965369
 20
372.5942350920277
 30
0.0
 10
-195.3393488987679
 20
373.4171499158862
 30
0.0
 10
-184.7102117503146
 20
374.242287213021
 30
0.0
 10
-174.0746894008809
 20
374.9844168975053
 30
0.0
 10
-163.4351101558119
 20
375.6624123534128
 30
0.0
 10
-150.7267963498478
 20
376.4722040017936
 30
0.0
 10
-138.012661780567
 20
377.1904509179927
 30
0.0
 10
-125.2949641986011
 20
377.8362028728533
 30
0.0
 10
-112.0543504064764
 20
378.5085539522068
 30
0.0
 10
-98.80985610548696
 20
379.1023423654386
 30
0.0
 10
-85.56243378413943
 20
379.6234594305618
 30
0.0
 10
-60.12322866602521
 20
380.6241368384548
 30
0.0
 10
-34.67329923246849
 20
381.3567769148561
 30
0.0
 10
-9.218642633550802
 20
381.8119958837447
 30
0.0
 10
19.50566019231426
 20
382.3256694272981
 30
0.0
 10
48.23588961353871
 20
382.4861108307673
 30
0.0
 10
76.9643904444551
 20
382.5326769373267
 30
0.0
  0
ENDBLK
  5
20C
330
209
100
AcDbEntity
  8
0
100
AcDbBlockEnd
  0
BLOCK
  5
211
330
20F
100
AcDbEntity
  8
0
100
AcDbBlockBegin
  2
block 85
 70
     0
 10
0.0
 20
0.0
 30
0.0
  3
block 85
  1

  0
SPLINE
  5
213
330
20F
100
AcDbEntity
  8
0
  6
AI-Linetype-25
 62
     6
370
    25
100
AcDbSpline
210
0.0
220
0.0
230
1.0
 70
     8
 71
     3
 72
     8
 73
     4
 74
     0
 42
0.0000000001
 43
0.0000000001
 12
1.0
 22
0.0
 32
0.0
 13
1.0
 23
0.0
 33
0.0
 40
0.0
 40
0.0
 40
0.0
 40
0.0
 40
1.0
 40
1.0
 40
1.0
 40
1.0
 10
101.8905922887297
 20
-84.37932352383058
 30
0.0
 10
93.58192889535032
 20
-84.380911004756
 30
0.0
 10
85.2733007793317
 20
-84.37576051114607
 30
0.0
 10
76.96463738592668
 20
-84.36383676568146
 30
0.0
  0
ENDBLK
  5
212
330
20F
100
AcDbEntity
  8
0
100
AcDbBlockEnd
  0
BLOCK
  5
217
330
215
100
AcDbEntity
  8
0
100
AcDbBlockBegin
  2
block 86
 70
     0
 10
0.0
 20
0.0
 30
0.0
  3
block 86
  1

  0
SPLINE
  5
219
330
215
100
AcDbEntity
  8
0
  6
AI-Linetype-26
 62
     6
370
    25
100
AcDbSpline
210
0.0
220
0.0
230
1.0
 70
     8
 71
     3
 72
     8
 73
     4
 74
     0
 42
0.0000000001
 43
0.0000000001
 12
1.0
 22
0.0
 32
0.0
 13
1.0
 23
0.0
 33
0.0
 40
0.0
 40
0.0
 40
0.0
 40
0.0
 40
1.0
 40
1.0
 40
1.0
 40
1.0
 10
126.8165119141976
 20
-84.36383676568146
 30
0.0
 10
118.5078485207929
 20
-84.37593689792119
 30
0.0
 10
110.1992204047736
 20
-84.38108739151701
 30
0.0
 10
101.8905922887297
 20
-84.37932352383058
 30
0.0
  0
ENDBLK
  5
218
330
215
100
AcDbEntity
  8
0
100
AcDbBlockEnd
  0
BLOCK
  5
21D
330
21B
100
AcDbEntity
  8
0
100
AcDbBlockBegin
  2
block 87
 70
     0
 10
0.0
 20
0.0
 30
0.0
  3
block 87
  1

  0
SPLINE
  5
21F
330
21B
100
AcDbEntity
  8
0
  6
AI-Linetype-27
 62
     6
370
    25
100
AcDbSpline
210
0.0
220
0.0
230
1.0
 70
     8
 71
     3
 72
     8
 73
     4
 74
     0
 42
0.0000000001
 43
0.0000000001
 12
1.0
 22
0.0
 32
0.0
 13
1.0
 23
0.0
 33
0.0
 40
0.0
 40
0.0
 40
0.0
 40
0.0
 40
1.0
 40
1.0
 40
1.0
 40
1.0
 10
76.96463738592668
 20
-84.36383676568146
 30
0.0
 10
14.62295697898887
 20
-84.26061522950266
 30
0.0
 10
-35.02085171863317
 20
-83.62671646540068
 30
0.0
 10
-97.31967014114478
 20
-80.97184867698671
 30
0.0
  0
ENDBLK
  5
21E
330
21B
100
AcDbEntity
  8
0
100
AcDbBlockEnd
  0
BLOCK
  5
223
330
221
100
AcDbEntity
  8
0
100
AcDbBlockBegin
  2
block 88
 70
     0
 10
0.0
 20
0.0
 30
0.0
  3
block 88
  1

  0
SPLINE
  5
225
330
221
100
AcDbEntity
  8
0
  6
AI-Linetype-28
 62
     6
370
    25
100
AcDbSpline
210
0.0
220
0.0
230
1.0
 70
     8
 71
     3
 72
    56
 73
    52
 74
     0
 42
0.0000000001
 43
0.0000000001
 12
1.0
 22
0.0
 32
0.0
 13
1.0
 23
0.0
 33
0.0
 40
0.0
 40
0.0
 40
0.0
 40
0.0
 40
1.0
 40
1.0
 40
1.0
 40
2.0
 40
2.0
 40
2.0
 40
3.0
 40
3.0
 40
3.0
 40
4.0
 40
4.0
 40
4.0
 40
5.0
 40
5.0
 40
5.0
 40
6.0
 40
6.0
 40
6.0
 40
7.0
 40
7.0
 40
7.0
 40
8.0
 40
8.0
 40
8.0
 40
9.0
 40
9.0
 40
9.0
 40
10.0
 40
10.0
 40
10.0
 40
11.0
 40
11.0
 40
11.0
 40
12.0
 40
12.0
 40
12.0
 40
13.0
 40
13.0
 40
13.0
 40
14.0
 40
14.0
 40
14.0
 40
15.0
 40
15.0
 40
15.0
 40
16.0
 40
16.0
 40
16.0
 40
17.0
 40
17.0
 40
17.0
 40
17.0
 10
-97.31967014114478
 20
-80.97184867698671
 30
0.0
 10
-108.0293454875319
 20
-80.51514805926236
 30
0.0
 10
-118.7370100247584
 20
-80.01121106525648
 30
0.0
 10
-129.4418876510752
 20
-79.45404054491834
 30
0.0
 10
-140.1208011452457
 20
-78.89821056399107
 30
0.0
 10
-150.796892451146
 20
-78.28942927555264
 30
0.0
 10
-161.4691738028768
 20
-77.61739569237804
 30
0.0
 10
-179.9636085665837
 20
-76.45278442301233
 30
0.0
 10
-198.4465076357261
 20
-75.09820460533857
 30
0.0
 10
-216.904253951858
 20
-73.45082275402893
 30
0.0
 10
-233.1569540134022
 20
-72.00025325763049
 30
0.0
 10
-249.3901456984758
 20
-70.32267399177141
 30
0.0
 10
-265.5814984423644
 20
-68.2989533339124
 30
0.0
 10
-279.3761430703853
 20
-66.57480796150993
 30
0.0
 10
-293.1403786197288
 20
-64.59941727785572
 30
0.0
 10
-306.8445368361493
 20
-62.26229261195707
 30
0.0
 10
-318.7911067491148
 20
-60.22491961830164
 30
0.0
 10
-330.6919924893522
 20
-57.9126654865815
 30
0.0
 10
-342.5080714719116
 20
-55.21888677731854
 30
0.0
 10
-353.8463187020285
 20
-52.63404453550697
 30
0.0
 10
-365.106461871598
 20
-49.69791040806886
 30
0.0
 10
-376.2209887839828
 20
-46.27699488954294
 30
0.0
 10
-385.6742609485141
 20
-43.36738933190328
 30
0.0
 10
-395.0221596609622
 20
-40.10705632627537
 30
0.0
 10
-404.1902144300722
 20
-36.39563180211513
 30
0.0
 10
-412.2025831294444
 20
-33.15209081674389
 30
0.0
 10
-420.0775465406105
 20
-29.56396064287998
 30
0.0
 10
-427.743668024637
 20
-25.5697881308405
 30
0.0
 10
-436.147756446803
 20
-21.19112774356213
 30
0.0
 10
-444.30088178287
 20
-16.32444044870514
 30
0.0
 10
-452.0837360265119
 20
-10.91903268935777
 30
0.0
 10
-459.1447803594847
 20
-6.014951399844172
 30
0.0
 10
-465.9010636437304
 20
-0.6674337774842757
 30
0.0
 10
-472.2636869508087
 20
5.11417167902857
 30
0.0
 10
-478.8816830130291
 20
11.12776101182914
 30
0.0
 10
-485.0738108751896
 20
17.61096247370752
 30
0.0
 10
-490.7705388754164
 20
24.50352234500265
 30
0.0
 10
-496.503567271417
 20
31.43996724398993
 30
0.0
 10
-501.734881159353
 20
38.79099160068557
 30
0.0
 10
-506.4321664842874
 20
46.46730843352506
 30
0.0
 10
-510.8889308194998
 20
53.75052971688873
 30
0.0
 10
-514.8649706714192
 20
61.32658831123393
 30
0.0
 10
-518.3390137964774
 20
69.12630532643367
 30
0.0
 10
-522.3133250581209
 20
78.0491827206937
 30
0.0
 10
-525.6306661831198
 20
87.26479159386105
 30
0.0
 10
-528.2506093254318
 20
96.67499034864797
 30
0.0
 10
-530.68234779183
 20
105.4090986246115
 30
0.0
 10
-532.5133129442156
 20
114.3108096068012
 30
0.0
 10
-533.7108732314451
 20
123.2972920693438
 30
0.0
 10
-534.8495908946237
 20
131.8423137308126
 30
0.0
 10
-535.4156160163913
 20
140.4639578039897
 30
0.0
 10
-535.4142754769823
 20
149.0844377245035
 30
0.0
  0
ENDBLK
  5
224
330
221
100
AcDbEntity
  8
0
100
AcDbBlockEnd
  0
BLOCK
  5
229
330
227
100
AcDbEntity
  8
0
100
AcDbBlockBegin
  2
block 89
 70
     0
 10
0.0
 20
0.0
 30
0.0
  3
block 89
  1

  0
SPLINE
  5
22B
330
227
100
AcDbEntity
  8
0
  6
AI-Linetype-29
 62
     6
370
    25
100
AcDbSpline
210
0.0
220
0.0
230
1.0
 70
     8
 71
     3
 72
    53
 73
    49
 74
     0
 42
0.0000000001
 43
0.0000000001
 12
1.0
 22
0.0
 32
0.0
 13
1.0
 23
0.0
 33
0.0
 40
0.0
 40
0.0
 40
0.0
 40
0.0
 40
1.0
 40
1.0
 40
1.0
 40
2.0
 40
2.0
 40
2.0
 40
3.0
 40
3.0
 40
3.0
 40
4.0
 40
4.0
 40
4.0
 40
5.0
 40
5.0
 40
5.0
 40
6.0
 40
6.0
 40
6.0
 40
7.0
 40
7.0
 40
7.0
 40
8.0
 40
8.0
 40
8.0
 40
9.0
 40
9.0
 40
9.0
 40
10.0
 40
10.0
 40
10.0
 40
11.0
 40
11.0
 40
11.0
 40
12.0
 40
12.0
 40
12.0
 40
13.0
 40
13.0
 40
13.0
 40
14.0
 40
14.0
 40
14.0
 40
15.0
 40
15.0
 40
15.0
 40
16.0
 40
16.0
 40
16.0
 40
16.0
 10
326.9343900935735
 20
396.3608703284733
 30
0.0
 10
346.7299242071404
 20
395.4055595971155
 30
0.0
 10
366.517732580312
 20
394.2812350653791
 30
0.0
 10
386.2885372691171
 20
392.904430515035
 30
0.0
 10
403.7675486911955
 20
391.687220711677
 30
0.0
 10
421.2333311057307
 20
390.2727399478449
 30
0.0
 10
438.6703271998456
 20
388.5556500461361
 30
0.0
 10
454.0588732113408
 20
387.0403113287963
 30
0.0
 10
469.4250533807337
 20
385.289284613074
 30
0.0
 10
484.7449849397602
 20
383.1908112432552
 30
0.0
 10
498.5180398274666
 20
381.304178380869
 30
0.0
 10
512.2537712752251
 20
379.1367025077072
 30
0.0
 10
525.9165491560595
 20
376.5710511461543
 30
0.0
 10
537.5076644556941
 20
374.394438438443
 30
0.0
 10
549.0462870533714
 20
371.9312325113226
 30
0.0
 10
560.4906838400142
 20
369.0812809583517
 30
0.0
 10
571.8552126984451
 20
366.2511905553789
 30
0.0
 10
583.1268562852256
 20
363.0397166842773
 30
0.0
 10
594.2312146619881
 20
359.3178853408538
 30
0.0
 10
604.1483489858138
 20
355.9939825443128
 30
0.0
 10
613.9320996362715
 20
352.2630496437073
 30
0.0
 10
623.4951904408939
 20
348.0270155964213
 30
0.0
 10
631.9004432280233
 20
344.3038437135648
 30
0.0
 10
640.1352005659236
 20
340.1905043015769
 30
0.0
 10
648.1199825773168
 20
335.6347516000098
 30
0.0
 10
656.0788004565652
 20
331.0937801095261
 30
0.0
 10
663.7892304901716
 20
326.1132880724538
 30
0.0
 10
671.1605746024711
 20
320.6704863184319
 30
0.0
 10
678.91877017266
 20
314.942043833558
 30
0.0
 10
686.3013324833211
 20
308.7015152860357
 30
0.0
 10
693.2108960389841
 20
301.9740887062305
 30
0.0
 10
700.0231999311771
 20
295.3413465430822
 30
0.0
 10
706.3757693532489
 20
288.2353586834309
 30
0.0
 10
712.2090208552365
 20
280.7268562209397
 30
0.0
 10
717.8036916158293
 20
273.5254431202155
 30
0.0
 10
722.9206717334077
 20
265.9537941950463
 30
0.0
 10
727.532162653421
 20
258.0864504932974
 30
0.0
 10
732.3946166658726
 20
249.7909808301025
 30
0.0
 10
736.6950671605301
 20
241.1667262327732
 30
0.0
 10
740.4075852826585
 20
232.2966943139842
 30
0.0
 10
744.1241250230568
 20
223.4171022324047
 30
0.0
 10
747.2514976835417
 20
214.2912036690486
 30
0.0
 10
749.758341696868
 20
204.997384903288
 30
0.0
 10
752.1956540465625
 20
195.9611966497501
 30
0.0
 10
754.0463745631446
 20
186.7662250283566
 30
0.0
 10
755.2834807938291
 20
177.4894452242979
 30
0.0
 10
756.5386843068488
 20
168.0769534415389
 30
0.0
 10
757.1622468063835
 20
158.580219338739
 30
0.0
 10
757.1607651575533
 20
149.0844377245035
 30
0.0
  0
ENDBLK
  5
22A
330
227
100
AcDbEntity
  8
0
100
AcDbBlockEnd
  0
BLOCK
  5
22F
330
22D
100
AcDbEntity
  8
0
100
AcDbBlockBegin
  2
block 90
 70
     0
 10
0.0
 20
0.0
 30
0.0
  3
block 90
  1

  0
SPLINE
  5
231
330
22D
100
AcDbEntity
  8
0
  6
AI-Linetype-30
 62
     6
370
    25
100
AcDbSpline
210
0.0
220
0.0
230
1.0
 70
     8
 71
     3
 72
    62
 73
    58
 74
     0
 42
0.0000000001
 43
0.0000000001
 12
1.0
 22
0.0
 32
0.0
 13
1.0
 23
0.0
 33
0.0
 40
0.0
 40
0.0
 40
0.0
 40
0.0
 40
1.0
 40
1.0
 40
1.0
 40
2.0
 40
2.0
 40
2.0
 40
3.0
 40
3.0
 40
3.0
 40
4.0
 40
4.0
 40
4.0
 40
5.0
 40
5.0
 40
5.0
 40
6.0
 40
6.0
 40
6.0
 40
7.0
 40
7.0
 40
7.0
 40
8.0
 40
8.0
 40
8.0
 40
9.0
 40
9.0
 40
9.0
 40
10.0
 40
10.0
 40
10.0
 40
11.0
 40
11.0
 40
11.0
 40
12.0
 40
12.0
 40
12.0
 40
13.0
 40
13.0
 40
13.0
 40
14.0
 40
14.0
 40
14.0
 40
15.0
 40
15.0
 40
15.0
 40
16.0
 40
16.0
 40
16.0
 40
17.0
 40
17.0
 40
17.0
 40
18.0
 40
18.0
 40
18.0
 40
19.0
 40
19.0
 40
19.0
 40
19.0
 10
757.1607651575533
 20
149.0844377245035
 30
0.0
 10
757.1634815137676
 20
137.9113237858708
 30
0.0
 10
756.2979163695709
 20
126.7370456945864
 30
0.0
 10
754.5619530837671
 20
115.699714289387
 30
0.0
 10
752.8463095535486
 20
104.7917096619271
 30
0.0
 10
750.280517082611
 20
94.01747675873997
 30
0.0
 10
746.9143167392898
 20
83.50038048482473
 30
0.0
 10
743.4622513176847
 20
72.71507049265671
 30
0.0
 10
739.1684329654556
 20
62.20016141465982
 30
0.0
 10
734.0786164100458
 20
52.08423920414413
 30
0.0
 10
729.4572831083985
 20
42.89942746054803
 30
0.0
 10
724.1797910326397
 20
34.04350648312273
 30
0.0
 10
718.2783484064609
 20
25.62393109049471
 30
0.0
 10
712.0649481437363
 20
16.75926132942676
 30
0.0
 10
705.1599706440334
 20
8.378314638825389
 30
0.0
 10
697.6367928025253
 20
0.5951779797519257
 30
0.0
 10
690.116366594572
 20
-7.185101213693252
 30
0.0
 10
681.9781986503932
 20
-14.36802898121955
 30
0.0
 10
673.3535560021782
 20
-20.90333509414138
 30
0.0
 10
664.6481282145563
 20
-27.4999179700114
 30
0.0
 10
655.4470183336659
 20
-33.43670850435359
 30
0.0
 10
645.9053408825893
 20
-38.75244123123669
 30
0.0
 10
635.3960761811389
 20
-44.607247196163
 30
0.0
 10
624.4736431161031
 20
-49.7086700008708
 30
0.0
 10
613.3067732690472
 20
-54.18501337982661
 30
0.0
 10
602.0243700894392
 20
-58.70767592387158
 30
0.0
 10
590.4923796342123
 20
-62.59231225344875
 30
0.0
 10
578.8236541569921
 20
-65.99551854055382
 30
0.0
 10
565.3666843561817
 20
-69.92026522100245
 30
0.0
 10
551.72778924364
 20
-73.2047632137411
 30
0.0
 10
537.9999952004143
 20
-76.04201491946455
 30
0.0
 10
522.7559099512799
 20
-79.19263535586657
 30
0.0
 10
507.4021826876572
 20
-81.79176492581763
 30
0.0
 10
491.9962096635757
 20
-84.01773065101176
 30
0.0
 10
474.6130468108014
 20
-86.52937238441051
 30
0.0
 10
457.1633508694462
 20
-88.5659692762998
 30
0.0
 10
439.6852566585318
 20
-90.29755817026559
 30
0.0
 10
429.0676904820054
 20
-91.34945829537332
 30
0.0
 10
418.4396116541453
 20
-92.28878838562046
 30
0.0
 10
407.804124582085
 20
-93.13921954518425
 30
0.0
 10
395.838434343556
 20
-94.0959766480363
 30
0.0
 10
383.8633250516385
 20
-94.94019899338112
 30
0.0
 10
371.883347484981
 20
-95.70116678460398
 30
0.0
 10
358.6018825175524
 20
-96.54485996965744
 30
0.0
 10
345.3144204000546
 20
-97.28624882971552
 30
0.0
 10
332.0227955548478
 20
-97.94695838243382
 30
0.0
 10
319.0599556437762
 20
-98.59133452050705
 30
0.0
 10
306.0931999464667
 20
-99.15901769218902
 30
0.0
 10
293.1237984476374
 20
-99.65723975492037
 30
0.0
 10
267.0189449473427
 20
-100.6600690813772
 30
0.0
 10
240.9034376862753
 20
-101.3815615140871
 30
0.0
 10
214.7830268730836
 20
-101.8116630073191
 30
0.0
 10
200.9983304587426
 20
-102.0386374994007
 30
0.0
 10
187.2122935049613
 20
-102.1844388012019
 30
0.0
 10
173.4259743323748
 20
-102.2747841033748
 30
0.0
 10
157.9101476296367
 20
-102.3764887133728
 30
0.0
 10
142.3939681533713
 20
-102.407885557935
 30
0.0
 10
126.8778239544671
 20
-102.4062627996877
 30
0.0
  0
ENDBLK
  5
230
330
22D
100
AcDbEntity
  8
0
100
AcDbBlockEnd
  0
BLOCK
  5
235
330
233
100
AcDbEntity
  8
0
100
AcDbBlockBegin
  2
block 91
 70
     0
 10
0.0
 20
0.0
 30
0.0
  3
block 91
  1

  0
SPLINE
  5
237
330
233
100
AcDbEntity
  8
0
  6
AI-Linetype-31
 62
     6
370
    25
100
AcDbSpline
210
0.0
220
0.0
230
1.0
 70
     8
 71
     3
 72
    14
 73
    10
 74
     0
 42
0.0000000001
 43
0.0000000001
 12
1.0
 22
0.0
 32
0.0
 13
1.0
 23
0.0
 33
0.0
 40
0.0
 40
0.0
 40
0.0
 40
0.0
 40
1.0
 40
1.0
 40
1.0
 40
2.0
 40
2.0
 40
2.0
 40
3.0
 40
3.0
 40
3.0
 40
3.0
 10
126.8758837000286
 20
-102.4062627996877
 30
0.0
 10
124.843132039693
 20
-102.4060511355502
 30
0.0
 10
122.8103803793318
 20
-102.4042872678882
 30
0.0
 10
120.777663996331
 20
-102.4017472984395
 30
0.0
 10
116.2731692893172
 20
-102.3961029218851
 30
0.0
 10
111.7686745823047
 20
-102.3865074817465
 30
0.0
 10
107.2641798752915
 20
-102.3813922654944
 30
0.0
 10
105.4731133634
 20
-102.3793461790049
 30
0.0
 10
103.6820468515088
 20
-102.3780409169224
 30
0.0
 10
101.8909803396176
 20
-102.3779350848661
 30
0.0
  0
ENDBLK
  5
236
330
233
100
AcDbEntity
  8
0
100
AcDbBlockEnd
  0
BLOCK
  5
23B
330
239
100
AcDbEntity
  8
0
100
AcDbBlockBegin
  2
block 92
 70
     0
 10
0.0
 20
0.0
 30
0.0
  3
block 92
  1

  0
SPLINE
  5
23D
330
239
100
AcDbEntity
  8
0
  6
AI-Linetype-32
 62
     6
370
    25
100
AcDbSpline
210
0.0
220
0.0
230
1.0
 70
     8
 71
     3
 72
    14
 73
    10
 74
     0
 42
0.0000000001
 43
0.0000000001
 12
1.0
 22
0.0
 32
0.0
 13
1.0
 23
0.0
 33
0.0
 40
0.0
 40
0.0
 40
0.0
 40
0.0
 40
1.0
 40
1.0
 40
1.0
 40
2.0
 40
2.0
 40
2.0
 40
3.0
 40
3.0
 40
3.0
 40
3.0
 10
101.8909803396176
 20
-102.3779350848661
 30
0.0
 10
100.0243850139991
 20
-102.377829252799
 30
0.0
 10
98.157824965741
 20
-102.3791345148777
 30
0.0
 10
96.29122964012282
 20
-102.3812511560945
 30
0.0
 10
91.82391726364133
 20
-102.3862958176341
 30
0.0
 10
87.35664016452057
 20
-102.3959970898289
 30
0.0
 10
82.8893277880458
 20
-102.4017472984395
 30
0.0
 10
80.89464039204114
 20
-102.4042872678882
 30
0.0
 10
78.89995299606856
 20
-102.4060864129119
 30
0.0
 10
76.90526560007063
 20
-102.4062627996877
 30
0.0
  0
ENDBLK
  5
23C
330
239
100
AcDbEntity
  8
0
100
AcDbBlockEnd
  0
BLOCK
  5
241
330
23F
100
AcDbEntity
  8
0
100
AcDbBlockBegin
  2
block 93
 70
     0
 10
0.0
 20
0.0
 30
0.0
  3
block 93
  1

  0
SPLINE
  5
243
330
23F
100
AcDbEntity
  8
0
  6
AI-Linetype-33
 62
     6
370
    25
100
AcDbSpline
210
0.0
220
0.0
230
1.0
 70
     8
 71
     3
 72
    17
 73
    13
 74
     0
 42
0.0000000001
 43
0.0000000001
 12
1.0
 22
0.0
 32
0.0
 13
1.0
 23
0.0
 33
0.0
 40
0.0
 40
0.0
 40
0.0
 40
0.0
 40
1.0
 40
1.0
 40
1.0
 40
2.0
 40
2.0
 40
2.0
 40
3.0
 40
3.0
 40
3.0
 40
4.0
 40
4.0
 40
4.0
 40
4.0
 10
76.90332534563797
 20
-102.4062627996877
 30
0.0
 10
68.15253088149902
 20
-102.407074178811
 30
0.0
 10
59.40166586264532
 20
-102.3971965198411
 30
0.0
 10
50.65087139850606
 20
-102.3706679500568
 30
0.0
 10
42.22836798553951
 20
-102.3451271461542
 30
0.0
 10
33.8059351273002
 20
-102.304134861454
 30
0.0
 10
25.38360810109723
 20
-102.240529793181
 30
0.0
 10
11.90018028518705
 20
-102.1387193511269
 30
0.0
 10
-1.582894757176417
 20
-101.979018772073
 30
0.0
 10
-15.06462926011298
 20
-101.7414963513148
 30
0.0
 10
-42.78271613357497
 20
-101.2531872249016
 30
0.0
 10
-70.49501752108716
 20
-100.4361284417028
 30
0.0
 10
-98.19426628781834
 20
-99.30305512631732
 30
0.0
  0
ENDBLK
  5
242
330
23F
100
AcDbEntity
  8
0
100
AcDbBlockEnd
  0
BLOCK
  5
247
330
245
100
AcDbEntity
  8
0
100
AcDbBlockBegin
  2
block 94
 70
     0
 10
0.0
 20
0.0
 30
0.0
  3
block 94
  1

  0
SPLINE
  5
249
330
245
100
AcDbEntity
  8
0
  6
AI-Linetype-34
 62
     6
370
    25
100
AcDbSpline
210
0.0
220
0.0
230
1.0
 70
     8
 71
     3
 72
    53
 73
    49
 74
     0
 42
0.0000000001
 43
0.0000000001
 12
1.0
 22
0.0
 32
0.0
 13
1.0
 23
0.0
 33
0.0
 40
0.0
 40
0.0
 40
0.0
 40
0.0
 40
1.0
 40
1.0
 40
1.0
 40
2.0
 40
2.0
 40
2.0
 40
3.0
 40
3.0
 40
3.0
 40
4.0
 40
4.0
 40
4.0
 40
5.0
 40
5.0
 40
5.0
 40
6.0
 40
6.0
 40
6.0
 40
7.0
 40
7.0
 40
7.0
 40
8.0
 40
8.0
 40
8.0
 40
9.0
 40
9.0
 40
9.0
 40
10.0
 40
10.0
 40
10.0
 40
11.0
 40
11.0
 40
11.0
 40
12.0
 40
12.0
 40
12.0
 40
13.0
 40
13.0
 40
13.0
 40
14.0
 40
14.0
 40
14.0
 40
15.0
 40
15.0
 40
15.0
 40
16.0
 40
16.0
 40
16.0
 40
16.0
 10
-98.19426628781834
 20
-99.30305512631732
 30
0.0
 10
-109.5640161945652
 20
-98.83739406081284
 30
0.0
 10
-120.9316141827362
 20
-98.31846419158492
 30
0.0
 10
-132.2961077638051
 20
-97.73875144238275
 30
0.0
 10
-142.8203300631153
 20
-97.20193595497105
 30
0.0
 10
-153.3418360062114
 20
-96.61294526180983
 30
0.0
 10
-163.8596378271931
 20
-95.96169003982313
 30
0.0
 10
-182.625108497438
 20
-94.7996892946045
 30
0.0
 10
-201.3786906995719
 20
-93.43939454566711
 30
0.0
 10
-220.105991273405
 20
-91.7721162670279
 30
0.0
 10
-235.9135616891491
 20
-90.36479680594641
 30
0.0
 10
-251.7024351075457
 20
-88.73875775348158
 30
0.0
 10
-267.4519389995132
 20
-86.78559180250413
 30
0.0
 10
-281.9699457599756
 20
-84.98517679195712
 30
0.0
 10
-296.4545448667153
 20
-82.9067762362436
 30
0.0
 10
-310.8722581113167
 20
-80.42857743391143
 30
0.0
 10
-323.2389460264945
 20
-78.30290522456943
 30
0.0
 10
-335.5564573109538
 20
-75.88305516482671
 30
0.0
 10
-347.7826002499834
 20
-73.05797414605101
 30
0.0
 10
-359.672655842723
 20
-70.31057385954578
 30
0.0
 10
-371.4762906971987
 20
-67.17992040519353
 30
0.0
 10
-383.1204275648867
 20
-63.52885543277689
 30
0.0
 10
-393.1248378084253
 20
-60.39188733216743
 30
0.0
 10
-403.0115275264671
 20
-56.87078412986163
 30
0.0
 10
-412.7007346249046
 20
-52.86468787235432
 30
0.0
 10
-421.7204481265186
 20
-49.13541300735594
 30
0.0
 10
-430.5690664682315
 20
-44.98591430807112
 30
0.0
 10
-439.1570204519123
 20
-40.34785954091375
 30
0.0
 10
-447.9983363816527
 20
-35.5729639197224
 30
0.0
 10
-456.5634306408729
 20
-30.28026730463493
 30
0.0
 10
-464.7337360476437
 20
-24.43156432185725
 30
0.0
 10
-472.3562194465542
 20
-18.97500439999294
 30
0.0
 10
-479.6351014315749
 20
-13.03450974354961
 30
0.0
 10
-486.4788019954588
 20
-6.62824818952121
 30
0.0
 10
-493.4491129776707
 20
-0.1034194505680515
 30
0.0
 10
-499.9679444018535
 20
6.904567921200552
 30
0.0
 10
-505.968410407589
 20
14.33112109163502
 30
0.0
 10
-511.9608684542872
 20
21.74779660309889
 30
0.0
 10
-517.436336899255
 20
29.58190903790198
 30
0.0
 10
-522.362783906401
 20
37.74579417274057
 30
0.0
 10
-532.4322808653916
 20
54.43244095903391
 30
0.0
 10
-540.2083265799971
 20
72.49680950687596
 30
0.0
 10
-545.4543864013082
 20
91.26767761220266
 30
0.0
 10
-548.0748234265434
 20
100.6439042756214
 30
0.0
 10
-550.0640075051483
 20
110.1963765968592
 30
0.0
 10
-551.3890954218579
 20
119.8405700370674
 30
0.0
 10
-552.720039379118
 20
129.5273432428821
 30
0.0
 10
-553.3809958566128
 20
139.3066136694308
 30
0.0
 10
-553.379620039864
 20
149.0844377245035
 30
0.0
  0
ENDBLK
  5
248
330
245
100
AcDbEntity
  8
0
100
AcDbBlockEnd
  0
BLOCK
  5
24D
330
24B
100
AcDbEntity
  8
0
100
AcDbBlockBegin
  2
block 95
 70
     0
 10
0.0
 20
0.0
 30
0.0
  3
block 95
  1

  0
SPLINE
  5
24F
330
24B
100
AcDbEntity
  8
0
  6
AI-Linetype-35
 62
     6
370
    25
100
AcDbSpline
210
0.0
220
0.0
230
1.0
 70
     8
 71
     3
 72
    59
 73
    55
 74
     0
 42
0.0000000001
 43
0.0000000001
 12
1.0
 22
0.0
 32
0.0
 13
1.0
 23
0.0
 33
0.0
 40
0.0
 40
0.0
 40
0.0
 40
0.0
 40
1.0
 40
1.0
 40
1.0
 40
2.0
 40
2.0
 40
2.0
 40
3.0
 40
3.0
 40
3.0
 40
4.0
 40
4.0
 40
4.0
 40
5.0
 40
5.0
 40
5.0
 40
6.0
 40
6.0
 40
6.0
 40
7.0
 40
7.0
 40
7.0
 40
8.0
 40
8.0
 40
8.0
 40
9.0
 40
9.0
 40
9.0
 40
10.0
 40
10.0
 40
10.0
 40
11.0
 40
11.0
 40
11.0
 40
12.0
 40
12.0
 40
12.0
 40
13.0
 40
13.0
 40
13.0
 40
14.0
 40
14.0
 40
14.0
 40
15.0
 40
15.0
 40
15.0
 40
16.0
 40
16.0
 40
16.0
 40
17.0
 40
17.0
 40
17.0
 40
18.0
 40
18.0
 40
18.0
 40
18.0
 10
-553.379620039864
 20
149.0844377245035
 30
0.0
 10
-553.3823716733616
 20
160.2575163857636
 30
0.0
 10
-552.5167712736826
 20
171.4318297544013
 30
0.0
 10
-550.7808433090846
 20
182.4691258822531
 30
0.0
 10
-549.0652350995655
 20
193.3770599550127
 30
0.0
 10
-546.4995485254939
 20
204.1511870261379
 30
0.0
 10
-543.133418821918
 20
214.6681774679892
 30
0.0
 10
-539.7758615150003
 20
225.1583218438702
 30
0.0
 10
-535.6219885288466
 20
235.3926701298921
 30
0.0
 10
-530.7137799129711
 20
245.252831527902
 30
0.0
 10
-525.8337931791293
 20
255.0563022189226
 30
0.0
 10
-520.2082195990251
 20
264.4898545816834
 30
0.0
 10
-513.8767814716168
 20
273.4246557214158
 30
0.0
 10
-507.6322314635555
 20
282.2368680579054
 30
0.0
 10
-500.7010783426862
 20
290.5639109524396
 30
0.0
 10
-493.1575456587825
 20
298.292932151336
 30
0.0
 10
-485.8123422509681
 20
305.8187910717152
 30
0.0
 10
-477.8865441747631
 20
312.7776370901383
 30
0.0
 10
-469.5021052379944
 20
319.1253735147822
 30
0.0
 10
-460.6525696851012
 20
325.8252837589026
 30
0.0
 10
-451.292147512495
 20
331.8443763588339
 30
0.0
 10
-441.5825501042834
 20
337.2229027748614
 30
0.0
 10
-431.0465454350865
 20
343.0592234065841
 30
0.0
 10
-420.099383221835
 20
348.1412789442311
 30
0.0
 10
-408.9100067059581
 20
352.5999836464857
 30
0.0
 10
-397.457073089112
 20
357.1637090299261
 30
0.0
 10
-385.7503541979816
 20
361.0743800463662
 30
0.0
 10
-373.9056655809916
 20
364.4944489083956
 30
0.0
 10
-360.8312346846388
 20
368.2695843328792
 30
0.0
 10
-347.5887159154303
 20
371.4469802805519
 30
0.0
 10
-334.2619195488393
 20
374.2023179715667
 30
0.0
 10
-319.3186795699215
 20
377.2918733091584
 30
0.0
 10
-304.2694664212425
 20
379.85075141883
 30
0.0
 10
-289.1694186062608
 20
382.04828359714
 30
0.0
 10
-271.5150081828406
 20
384.6176038034336
 30
0.0
 10
-253.7911719278289
 20
386.6929352294013
 30
0.0
 10
-236.0378085279858
 20
388.4532398890768
 30
0.0
 10
-225.8362329033141
 20
389.4647474444805
 30
0.0
 10
-215.6249560064351
 20
390.3722220845653
 30
0.0
 10
-205.4067647482777
 20
391.1967243893345
 30
0.0
 10
-193.6068075162621
 20
392.1488954362547
 30
0.0
 10
-181.7976781723235
 20
392.9904014253847
 30
0.0
 10
-169.9835747215652
 20
393.7496759036393
 30
0.0
 10
-157.3722736375914
 20
394.5601378217413
 30
0.0
 10
-144.7552928997169
 20
395.2769030891039
 30
0.0
 10
-132.1345374850205
 20
395.9197270236122
 30
0.0
 10
-117.8738084632472
 20
396.6460877310955
 30
0.0
 10
-103.6082817214171
 20
397.2781167954734
 30
0.0
 10
-89.33947418570847
 20
397.8260799265611
 30
0.0
 10
-63.14127680817089
 20
398.8321547695357
 30
0.0
 10
-36.93200234166432
 20
399.5548819096118
 30
0.0
 10
-10.71824765124203
 20
399.9848070160867
 30
0.0
 10
18.48582718149123
 20
400.4637676438386
 30
0.0
 10
47.69544055873482
 20
400.5793362537344
 30
0.0
 10
76.90307840415997
 20
400.5751029713163
 30
0.0
  0
ENDBLK
  5
24E
330
24B
100
AcDbEntity
  8
0
100
AcDbBlockEnd
  0
BLOCK
  5
253
330
251
100
AcDbEntity
  8
0
100
AcDbBlockBegin
  2
block 96
 70
     0
 10
0.0
 20
0.0
 30
0.0
  3
block 96
  1

  0
SPLINE
  5
255
330
251
100
AcDbEntity
  8
0
  6
AI-Linetype-36
 62
     6
370
    25
100
AcDbSpline
210
0.0
220
0.0
230
1.0
 70
     8
 71
     3
 72
    14
 73
    10
 74
     0
 42
0.0000000001
 43
0.0000000001
 12
1.0
 22
0.0
 32
0.0
 13
1.0
 23
0.0
 33
0.0
 40
0.0
 40
0.0
 40
0.0
 40
0.0
 40
1.0
 40
1.0
 40
1.0
 40
2.0
 40
2.0
 40
2.0
 40
3.0
 40
3.0
 40
3.0
 40
3.0
 10
76.90501865859875
 20
400.5751029713163
 30
0.0
 10
78.9380878151524
 20
400.5748913071987
 30
0.0
 10
80.97115697168068
 20
400.5731627168772
 30
0.0
 10
83.00422612820867
 20
400.570587470079
 30
0.0
 10
87.5084386164155
 20
400.5649430935259
 30
0.0
 10
92.01265110459636
 20
400.5553476533867
 30
0.0
 10
96.51686359277753
 20
400.5502324371378
 30
0.0
 10
98.30778899525274
 20
400.5481863506367
 30
0.0
 10
100.0987143977279
 20
400.5468810885574
 30
0.0
 10
101.8896398002032
 20
400.5467752565018
 30
0.0
  0
ENDBLK
  5
254
330
251
100
AcDbEntity
  8
0
100
AcDbBlockEnd
  0
BLOCK
  5
259
330
257
100
AcDbEntity
  8
0
100
AcDbBlockBegin
  2
block 97
 70
     0
 10
0.0
 20
0.0
 30
0.0
  3
block 97
  1

  0
SPLINE
  5
25B
330
257
100
AcDbEntity
  8
0
  6
AI-Linetype-37
 62
     6
370
    25
100
AcDbSpline
210
0.0
220
0.0
230
1.0
 70
     8
 71
     3
 72
    14
 73
    10
 74
     0
 42
0.0000000001
 43
0.0000000001
 12
1.0
 22
0.0
 32
0.0
 13
1.0
 23
0.0
 33
0.0
 40
0.0
 40
0.0
 40
0.0
 40
0.0
 40
1.0
 40
1.0
 40
1.0
 40
2.0
 40
2.0
 40
2.0
 40
3.0
 40
3.0
 40
3.0
 40
3.0
 10
101.8896398002032
 20
400.5467752565018
 30
0.0
 10
103.7561998484612
 20
400.5467047017938
 30
0.0
 10
105.622759896719
 20
400.5479746865191
 30
0.0
 10
107.4893199449774
 20
400.5500913277276
 30
0.0
 10
111.9567028761794
 20
400.555135989269
 30
0.0
 10
116.4240505299953
 20
400.5648372614575
 30
0.0
 10
120.891433461198
 20
400.570587470079
 30
0.0
 10
122.8867205721946
 20
400.5731627168772
 30
0.0
 10
124.8820076831919
 20
400.5749265845521
 30
0.0
 10
126.8772595168288
 20
400.5751029713163
 30
0.0
  0
ENDBLK
  5
25A
330
257
100
AcDbEntity
  8
0
100
AcDbBlockEnd
  0
BLOCK
  5
25F
330
25D
100
AcDbEntity
  8
0
100
AcDbBlockBegin
  2
block 98
 70
     0
 10
0.0
 20
0.0
 30
0.0
  3
block 98
  1

  0
SPLINE
  5
261
330
25D
100
AcDbEntity
  8
0
  6
AI-Linetype-38
 62
     6
370
    25
100
AcDbSpline
210
0.0
220
0.0
230
1.0
 70
     8
 71
     3
 72
    20
 73
    16
 74
     0
 42
0.0000000001
 43
0.0000000001
 12
1.0
 22
0.0
 32
0.0
 13
1.0
 23
0.0
 33
0.0
 40
0.0
 40
0.0
 40
0.0
 40
0.0
 40
1.0
 40
1.0
 40
1.0
 40
2.0
 40
2.0
 40
2.0
 40
3.0
 40
3.0
 40
3.0
 40
4.0
 40
4.0
 40
4.0
 40
5.0
 40
5.0
 40
5.0
 40
5.0
 10
126.8775770129955
 20
400.5751029713163
 30
0.0
 10
136.6997799787041
 20
400.576267123986
 30
0.0
 10
146.5220534991085
 20
400.5634261673284
 30
0.0
 10
156.3442211874567
 20
400.5286779741729
 30
0.0
 10
165.2203913657548
 20
400.4972811296163
 30
0.0
 10
174.0964909893577
 20
400.4479986668485
 30
0.0
 10
182.9724142261579
 20
400.3721170795812
 30
0.0
 10
198.8492693640772
 20
400.2363698235148
 30
0.0
 10
214.7254895096105
 20
400.0154630362278
 30
0.0
 10
230.5994519045392
 20
399.6841381326485
 30
0.0
 10
246.7274465216508
 20
399.3474863486956
 30
0.0
 10
262.8530775560491
 20
398.8968181584048
 30
0.0
 10
278.975039745733
 20
398.3398593021766
 30
0.0
 10
294.9656643484936
 20
397.7874159471927
 30
0.0
 10
310.9526906612075
 20
397.130445793934
 30
0.0
 10
326.9343900935735
 20
396.3608703284733
 30
0.0
  0
ENDBLK
  5
260
330
25D
100
AcDbEntity
  8
0
100
AcDbBlockEnd
  0
BLOCK
  5
265
330
263
100
AcDbEntity
  8
0
100
AcDbBlockBegin
  2
block 99
 70
     0
 10
0.0
 20
0.0
 30
0.0
  3
block 99
  1

  0
SPLINE
  5
267
330
263
100
AcDbEntity
  8
0
 62
   250
370
    25
100
AcDbSpline
210
0.0
220
0.0
230
1.0
 70
     8
 71
     3
 72
     8
 73
     4
 74
     0
 42
0.0000000001
 43
0.0000000001
 12
1.0
 22
0.0
 32
0.0
 13
1.0
 23
0.0
 33
0.0
 40
0.0
 40
0.0
 40
0.0
 40
0.0
 40
1.0
 40
1.0
 40
1.0
 40
1.0
 10
-492.5653667852515
 20
204.7030713497446
 30
0.0
 10
-492.4854636321676
 20
205.2905800230704
 30
0.0
 10
-492.4041141085387
 20
205.8779123097353
 30
0.0
 10
-492.321318214377
 20
206.4650329324302
 30
0.0
  0
ENDBLK
  5
266
330
263
100
AcDbEntity
  8
0
100
AcDbBlockEnd
  0
BLOCK
  5
26A
330
268
100
AcDbEntity
  8
0
100
AcDbBlockBegin
  2
block 100
 70
     0
 10
0.0
 20
0.0
 30
0.0
  3
block 100
  1

  0
SPLINE
  5
26C
330
268
100
AcDbEntity
  8
0
 62
   250
370
    25
100
AcDbSpline
210
0.0
220
0.0
230
1.0
 70
     8
 71
     3
 72
    53
 73
    49
 74
     0
 42
0.0000000001
 43
0.0000000001
 12
1.0
 22
0.0
 32
0.0
 13
1.0
 23
0.0
 33
0.0
 40
0.0
 40
0.0
 40
0.0
 40
0.0
 40
1.0
 40
1.0
 40
1.0
 40
2.0
 40
2.0
 40
2.0
 40
3.0
 40
3.0
 40
3.0
 40
4.0
 40
4.0
 40
4.0
 40
5.0
 40
5.0
 40
5.0
 40
6.0
 40
6.0
 40
6.0
 40
7.0
 40
7.0
 40
7.0
 40
8.0
 40
8.0
 40
8.0
 40
9.0
 40
9.0
 40
9.0
 40
10.0
 40
10.0
 40
10.0
 40
11.0
 40
11.0
 40
11.0
 40
12.0
 40
12.0
 40
12.0
 40
13.0
 40
13.0
 40
13.0
 40
14.0
 40
14.0
 40
14.0
 40
15.0
 40
15.0
 40
15.0
 40
16.0
 40
16.0
 40
16.0
 40
16.0
 10
-492.321318214377
 20
206.4650329324302
 30
0.0
 10
-490.8709260572398
 20
216.7466111023362
 30
0.0
 10
-488.9860583003575
 20
226.9701227851393
 30
0.0
 10
-486.5973244351048
 20
237.075667072505
 30
0.0
 10
-485.4804441584213
 20
241.8005717002734
 30
0.0
 10
-484.2534280566168
 20
246.4996885989642
 30
0.0
 10
-482.9102789835158
 20
251.1652920330397
 30
0.0
 10
-481.5030662786417
 20
256.0534248721439
 30
0.0
 10
-479.9683613021393
 20
260.9047987321615
 30
0.0
 10
-478.3111734348918
 20
265.7139456267745
 30
0.0
 10
-474.9915061008651
 20
275.3474792230675
 30
0.0
 10
-471.1802491693805
 20
284.8117169070609
 30
0.0
 10
-466.8851283757649
 20
294.051908260798
 30
0.0
 10
-462.9034466616935
 20
302.6177734291698
 30
0.0
 10
-458.5059510556239
 20
310.9910949240232
 30
0.0
 10
-453.6660777278155
 20
319.1028702855809
 30
0.0
 10
-451.3585875541849
 20
322.9702535472361
 30
0.0
 10
-448.9505569892607
 20
326.7781592285377
 30
0.0
 10
-446.4365533241709
 20
330.514734146217
 30
0.0
 10
-444.0125774059567
 20
334.1175374240943
 30
0.0
 10
-441.4900719042657
 20
337.6539840420308
 30
0.0
 10
-438.8551022736383
 20
341.105306459863
 30
0.0
 10
-436.2925570020878
 20
344.4617328568342
 30
0.0
 10
-433.6236505797517
 20
347.7376211067523
 30
0.0
 10
-430.8399870019932
 20
350.9131100721318
 30
0.0
 10
-428.0972098500358
 20
354.0419624057164
 30
0.0
 10
-425.2430268890484
 20
357.0733434732789
 30
0.0
 10
-422.2771911777268
 20
359.9915195851043
 30
0.0
 10
-419.3162942926428
 20
362.9049332572297
 30
0.0
 10
-416.2440974305246
 20
365.7055300242625
 30
0.0
 10
-413.0686791000142
 20
368.3838555614591
 30
0.0
 10
-410.2155897362704
 20
370.7902987073192
 30
0.0
 10
-407.2791400410745
 20
373.0980711578908
 30
0.0
 10
-404.2697721041961
 20
375.3053737692858
 30
0.0
 10
-397.6199600690323
 20
380.1828528543744
 30
0.0
 10
-390.614164494025
 20
384.5698359268596
 30
0.0
 10
-383.3831584425065
 20
388.5364543211082
 30
0.0
 10
-379.321044415398
 20
390.7647469445473
 30
0.0
 10
-375.1878465677777
 20
392.8603615254588
 30
0.0
 10
-371.0030732632858
 20
394.8483449689555
 30
0.0
 10
-366.6430332502955
 20
396.9195476366919
 30
0.0
 10
-362.2270169342632
 20
398.8739470609167
 30
0.0
 10
-357.7691969807835
 20
400.725865838089
 30
0.0
 10
-353.6688069467477
 20
402.4293023283572
 30
0.0
 10
-349.5329984722023
 20
404.0460624159512
 30
0.0
 10
-345.3692150740362
 20
405.5875054014848
 30
0.0
 10
-340.0025452375939
 20
407.5742541383995
 30
0.0
 10
-332.6526191200272
 20
409.4358389043164
 30
0.0
 10
-327.2046703125596
 20
411.1878875569398
 30
0.0
  0
ENDBLK
  5
26B
330
268
100
AcDbEntity
  8
0
100
AcDbBlockEnd
  0
BLOCK
  5
26F
330
26D
100
AcDbEntity
  8
0
100
AcDbBlockBegin
  2
block 101
 70
     0
 10
0.0
 20
0.0
 30
0.0
  3
block 101
  1

  0
SPLINE
  5
271
330
26D
100
AcDbEntity
  8
0
 62
   250
370
    25
100
AcDbSpline
210
0.0
220
0.0
230
1.0
 70
     8
 71
     3
 72
    53
 73
    49
 74
     0
 42
0.0000000001
 43
0.0000000001
 12
1.0
 22
0.0
 32
0.0
 13
1.0
 23
0.0
 33
0.0
 40
0.0
 40
0.0
 40
0.0
 40
0.0
 40
1.0
 40
1.0
 40
1.0
 40
2.0
 40
2.0
 40
2.0
 40
3.0
 40
3.0
 40
3.0
 40
4.0
 40
4.0
 40
4.0
 40
5.0
 40
5.0
 40
5.0
 40
6.0
 40
6.0
 40
6.0
 40
7.0
 40
7.0
 40
7.0
 40
8.0
 40
8.0
 40
8.0
 40
9.0
 40
9.0
 40
9.0
 40
10.0
 40
10.0
 40
10.0
 40
11.0
 40
11.0
 40
11.0
 40
12.0
 40
12.0
 40
12.0
 40
13.0
 40
13.0
 40
13.0
 40
14.0
 40
14.0
 40
14.0
 40
15.0
 40
15.0
 40
15.0
 40
16.0
 40
16.0
 40
16.0
 40
16.0
 10
-327.2046703125596
 20
-114.4133734003114
 30
0.0
 10
-332.6639078659925
 20
-112.6873946954243
 30
0.0
 10
-338.0897377868129
 20
-110.8544198450971
 30
0.0
 10
-343.4699541184293
 20
-108.8958224184602
 30
0.0
 10
-348.6728665835771
 20
-107.0017825078595
 30
0.0
 10
-353.8331640326584
 20
-104.9902338071363
 30
0.0
 10
-358.9378291305117
 20
-102.8454073492424
 30
0.0
 10
-363.3595956515282
 20
-100.9874914257791
 30
0.0
 10
-367.739637993716
 20
-99.02956426842097
 30
0.0
 10
-372.062663155577
 20
-96.9523291770633
 30
0.0
 10
-376.2110655325488
 20
-94.95898357921959
 30
0.0
 10
-380.3069752420752
 20
-92.85578437211709
 30
0.0
 10
-384.3310603071442
 20
-90.62149460237676
 30
0.0
 10
-391.5002251986701
 20
-86.64097693963481
 30
0.0
 10
-398.4414985366002
 20
-82.2444337104104
 30
0.0
 10
-405.025976956078
 20
-77.35771196455627
 30
0.0
 10
-408.010086324484
 20
-75.14303639094545
 30
0.0
 10
-410.9209246778967
 20
-72.82767931416164
 30
0.0
 10
-413.7484026998565
 20
-70.41594456864036
 30
0.0
 10
-416.8982449659165
 20
-67.72922302662136
 30
0.0
 10
-419.9446540995918
 20
-64.92291133193257
 30
0.0
 10
-422.8804688028559
 20
-62.0044882787896
 30
0.0
 10
-425.8237975774504
 20
-59.07855115409757
 30
0.0
 10
-428.6559674843438
 20
-56.03986767899135
 30
0.0
 10
-431.3774724061354
 20
-52.90614707370828
 30
0.0
 10
-434.1419451162216
 20
-49.7229676501137
 30
0.0
 10
-436.7922603855125
 20
-46.44168196854074
 30
0.0
 10
-439.3373081012468
 20
-43.08074007317493
 30
0.0
 10
-441.9558737732947
 20
-39.62278551708021
 30
0.0
 10
-444.4630689136343
 20
-36.08051813949113
 30
0.0
 10
-446.8724400171133
 20
-32.47337574988656
 30
0.0
 10
-449.3706041609095
 20
-28.73334365376588
 30
0.0
 10
-451.7636771378048
 20
-24.92353299658562
 30
0.0
 10
-454.0567388833418
 20
-21.05473864166826
 30
0.0
 10
-458.8634515206711
 20
-12.94493881066581
 30
0.0
 10
-463.230714454712
 20
-4.57585059554698
 30
0.0
 10
-467.1837862539149
 20
3.983382434574535
 30
0.0
 10
-471.4461696850261
 20
13.21232031965661
 30
0.0
 10
-475.2269822804824
 20
22.6622706845194
 30
0.0
 10
-478.5182160863074
 20
32.28003531378914
 30
0.0
 10
-480.1615046854285
 20
37.08205618750392
 30
0.0
 10
-481.6827337217619
 20
41.92595125331485
 30
0.0
 10
-483.076929091764
 20
46.80611141557017
 30
0.0
 10
-484.4073783259572
 20
51.46310718084147
 30
0.0
 10
-485.6221179168277
 20
56.15312252808641
 30
0.0
 10
-486.7276036158253
 20
60.86853755377736
 30
0.0
 10
-489.0917844592108
 20
70.95273905577784
 30
0.0
 10
-490.9564030284976
 20
81.15296770001406
 30
0.0
 10
-492.3893329071444
 20
91.4103808980635
 30
0.0
  0
ENDBLK
  5
270
330
26D
100
AcDbEntity
  8
0
100
AcDbBlockEnd
  0
BLOCK
  5
274
330
272
100
AcDbEntity
  8
0
100
AcDbBlockBegin
  2
block 102
 70
     0
 10
0.0
 20
0.0
 30
0.0
  3
block 102
  1

  0
SPLINE
  5
276
330
272
100
AcDbEntity
  8
0
 62
   250
370
    25
100
AcDbSpline
210
0.0
220
0.0
230
1.0
 70
     8
 71
     3
 72
     8
 73
     4
 74
     0
 42
0.0000000001
 43
0.0000000001
 12
1.0
 22
0.0
 32
0.0
 13
1.0
 23
0.0
 33
0.0
 40
0.0
 40
0.0
 40
0.0
 40
0.0
 40
1.0
 40
1.0
 40
1.0
 40
1.0
 10
-496.1677113668233
 20
142.3868299873677
 30
0.0
 10
-496.1735674036521
 20
142.8177425876331
 30
0.0
 10
-496.1788237258434
 20
143.2486904652203
 30
0.0
 10
-496.1834803334506
 20
143.679638342814
 30
0.0
  0
ENDBLK
  5
275
330
272
100
AcDbEntity
  8
0
100
AcDbBlockEnd
  0
BLOCK
  5
279
330
277
100
AcDbEntity
  8
0
100
AcDbBlockBegin
  2
block 103
 70
     0
 10
0.0
 20
0.0
 30
0.0
  3
block 103
  1

  0
SPLINE
  5
27B
330
277
100
AcDbEntity
  8
0
 62
   250
370
    25
100
AcDbSpline
210
0.0
220
0.0
230
1.0
 70
     8
 71
     3
 72
     8
 73
     4
 74
     0
 42
0.0000000001
 43
0.0000000001
 12
1.0
 22
0.0
 32
0.0
 13
1.0
 23
0.0
 33
0.0
 40
0.0
 40
0.0
 40
0.0
 40
0.0
 40
1.0
 40
1.0
 40
1.0
 40
1.0
 10
-496.1834803334506
 20
143.679638342814
 30
0.0
 10
-496.185173645299
 20
143.8407146369407
 30
0.0
 10
-496.1867964024952
 20
144.0018262083958
 30
0.0
 10
-496.1883486050322
 20
144.1629025025289
 30
0.0
  0
ENDBLK
  5
27A
330
277
100
AcDbEntity
  8
0
100
AcDbBlockEnd
  0
BLOCK
  5
27E
330
27C
100
AcDbEntity
  8
0
100
AcDbBlockBegin
  2
block 104
 70
     0
 10
0.0
 20
0.0
 30
0.0
  3
block 104
  1

  0
SPLINE
  5
280
330
27C
100
AcDbEntity
  8
0
 62
   250
370
    25
100
AcDbSpline
210
0.0
220
0.0
230
1.0
 70
     8
 71
     3
 72
     8
 73
     4
 74
     0
 42
0.0000000001
 43
0.0000000001
 12
1.0
 22
0.0
 32
0.0
 13
1.0
 23
0.0
 33
0.0
 40
0.0
 40
0.0
 40
0.0
 40
0.0
 40
1.0
 40
1.0
 40
1.0
 40
1.0
 10
-496.1883486050322
 20
144.1629025025289
 30
0.0
 10
-496.2124430216126
 20
146.6700977062113
 30
0.0
 10
-496.2165351919222
 20
149.1770812459102
 30
0.0
 10
-496.200589838643
 20
151.6843117269331
 30
0.0
  0
ENDBLK
  5
27F
330
27C
100
AcDbEntity
  8
0
100
AcDbBlockEnd
  0
BLOCK
  5
283
330
281
100
AcDbEntity
  8
0
100
AcDbBlockBegin
  2
block 105
 70
     0
 10
0.0
 20
0.0
 30
0.0
  3
block 105
  1

  0
SPLINE
  5
285
330
281
100
AcDbEntity
  8
0
 62
   250
370
    25
100
AcDbSpline
210
0.0
220
0.0
230
1.0
 70
     8
 71
     3
 72
     8
 73
     4
 74
     0
 42
0.0000000001
 43
0.0000000001
 12
1.0
 22
0.0
 32
0.0
 13
1.0
 23
0.0
 33
0.0
 40
0.0
 40
0.0
 40
0.0
 40
0.0
 40
1.0
 40
1.0
 40
1.0
 40
1.0
 10
-496.200589838643
 20
151.6843117269331
 30
0.0
 10
-496.1963565590104
 20
152.3599784508522
 30
0.0
 10
-496.1906416314976
 20
153.0356098974435
 30
0.0
 10
-496.1834803334506
 20
153.7112413440474
 30
0.0
  0
ENDBLK
  5
284
330
281
100
AcDbEntity
  8
0
100
AcDbBlockEnd
  0
BLOCK
  5
288
330
286
100
AcDbEntity
  8
0
100
AcDbBlockBegin
  2
block 106
 70
     0
 10
0.0
 20
0.0
 30
0.0
  3
block 106
  1

  0
SPLINE
  5
28A
330
286
100
AcDbEntity
  8
0
 62
   250
370
    25
100
AcDbSpline
210
0.0
220
0.0
230
1.0
 70
     8
 71
     3
 72
     8
 73
     4
 74
     0
 42
0.0000000001
 43
0.0000000001
 12
1.0
 22
0.0
 32
0.0
 13
1.0
 23
0.0
 33
0.0
 40
0.0
 40
0.0
 40
0.0
 40
0.0
 40
1.0
 40
1.0
 40
1.0
 40
1.0
 10
-496.1834803334506
 20
153.7112413440474
 30
0.0
 10
-496.1761426487549
 20
154.3899066411142
 30
0.0
 10
-496.1673233161783
 20
155.0685366608517
 30
0.0
 10
-496.1569165037459
 20
155.7471314032756
 30
0.0
  0
ENDBLK
  5
289
330
286
100
AcDbEntity
  8
0
100
AcDbBlockEnd
  0
BLOCK
  5
28D
330
28B
100
AcDbEntity
  8
0
100
AcDbBlockBegin
  2
block 107
 70
     0
 10
0.0
 20
0.0
 30
0.0
  3
block 107
  1

  0
SPLINE
  5
28F
330
28B
100
AcDbEntity
  8
0
 62
   250
370
    25
100
AcDbSpline
210
0.0
220
0.0
230
1.0
 70
     8
 71
     3
 72
     8
 73
     4
 74
     0
 42
0.0000000001
 43
0.0000000001
 12
1.0
 22
0.0
 32
0.0
 13
1.0
 23
0.0
 33
0.0
 40
0.0
 40
0.0
 40
0.0
 40
0.0
 40
1.0
 40
1.0
 40
1.0
 40
1.0
 10
-492.5653667852515
 20
204.7030713497446
 30
0.0
 10
-494.779583697618
 20
188.4276982271566
 30
0.0
 10
-495.9059888534762
 20
172.1625908079395
 30
0.0
 10
-496.1569165037459
 20
155.7471314032756
 30
0.0
  0
ENDBLK
  5
28E
330
28B
100
AcDbEntity
  8
0
100
AcDbBlockEnd
  0
BLOCK
  5
292
330
290
100
AcDbEntity
  8
0
100
AcDbBlockBegin
  2
block 108
 70
     0
 10
0.0
 20
0.0
 30
0.0
  3
block 108
  1

  0
SPLINE
  5
294
330
290
100
AcDbEntity
  8
0
 62
   250
370
    25
100
AcDbSpline
210
0.0
220
0.0
230
1.0
 70
     8
 71
     3
 72
     8
 73
     4
 74
     0
 42
0.0000000001
 43
0.0000000001
 12
1.0
 22
0.0
 32
0.0
 13
1.0
 23
0.0
 33
0.0
 40
0.0
 40
0.0
 40
0.0
 40
0.0
 40
1.0
 40
1.0
 40
1.0
 40
1.0
 10
-492.3893329071444
 20
91.4103808980635
 30
0.0
 10
-492.4828883870647
 20
92.08061491299328
 30
0.0
 10
-492.5746094457816
 20
92.7510605919059
 30
0.0
 10
-492.664496083338
 20
93.4217532121303
 30
0.0
  0
ENDBLK
  5
293
330
290
100
AcDbEntity
  8
0
100
AcDbBlockEnd
  0
BLOCK
  5
297
330
295
100
AcDbEntity
  8
0
100
AcDbBlockBegin
  2
block 109
 70
     0
 10
0.0
 20
0.0
 30
0.0
  3
block 109
  1

  0
SPLINE
  5
299
330
295
100
AcDbEntity
  8
0
 62
   250
370
    25
100
AcDbSpline
210
0.0
220
0.0
230
1.0
 70
     8
 71
     3
 72
     8
 73
     4
 74
     0
 42
0.0000000001
 43
0.0000000001
 12
1.0
 22
0.0
 32
0.0
 13
1.0
 23
0.0
 33
0.0
 40
0.0
 40
0.0
 40
0.0
 40
0.0
 40
1.0
 40
1.0
 40
1.0
 40
1.0
 10
-492.664496083338
 20
93.4217532121303
 30
0.0
 10
-494.8244917390663
 20
109.5401774883361
 30
0.0
 10
-495.9216167107774
 20
125.6482302291786
 30
0.0
 10
-496.1607970100811
 20
141.9014139104566
 30
0.0
  0
ENDBLK
  5
298
330
295
100
AcDbEntity
  8
0
100
AcDbBlockEnd
  0
BLOCK
  5
29C
330
29A
100
AcDbEntity
  8
0
100
AcDbBlockBegin
  2
block 110
 70
     0
 10
0.0
 20
0.0
 30
0.0
  3
block 110
  1

  0
SPLINE
  5
29E
330
29A
100
AcDbEntity
  8
0
 62
   250
370
    25
100
AcDbSpline
210
0.0
220
0.0
230
1.0
 70
     8
 71
     3
 72
     8
 73
     4
 74
     0
 42
0.0000000001
 43
0.0000000001
 12
1.0
 22
0.0
 32
0.0
 13
1.0
 23
0.0
 33
0.0
 40
0.0
 40
0.0
 40
0.0
 40
0.0
 40
1.0
 40
1.0
 40
1.0
 40
1.0
 10
-496.1607970100811
 20
141.9014139104566
 30
0.0
 10
-496.1631958685391
 20
142.0631957512076
 30
0.0
 10
-496.1654888950179
 20
142.2250128692877
 30
0.0
 10
-496.1677113668233
 20
142.3868299873677
 30
0.0
  0
ENDBLK
  5
29D
330
29A
100
AcDbEntity
  8
0
100
AcDbBlockEnd
  0
ENDSEC
  0
SECTION
  2
ENTITIES
  0
INSERT
  5
41
330
1F
100
AcDbEntity
  8
0
100
AcDbBlockReference
  2
block 2
 10
0.0
 20
0.0
 30
0.0
  0
INSERT
  5
46
330
1F
100
AcDbEntity
  8
0
100
AcDbBlockReference
  2
block 3
 10
0.0
 20
0.0
 30
0.0
  0
INSERT
  5
4B
330
1F
100
AcDbEntity
  8
0
100
AcDbBlockReference
  2
block 4
 10
0.0
 20
0.0
 30
0.0
  0
INSERT
  5
50
330
1F
100
AcDbEntity
  8
0
100
AcDbBlockReference
  2
block 5
 10
0.0
 20
0.0
 30
0.0
  0
INSERT
  5
55
330
1F
100
AcDbEntity
  8
0
100
AcDbBlockReference
  2
block 6
 10
0.0
 20
0.0
 30
0.0
  0
INSERT
  5
5A
330
1F
100
AcDbEntity
  8
0
100
AcDbBlockReference
  2
block 7
 10
0.0
 20
0.0
 30
0.0
  0
INSERT
  5
5F
330
1F
100
AcDbEntity
  8
0
100
AcDbBlockReference
  2
block 8
 10
0.0
 20
0.0
 30
0.0
  0
INSERT
  5
64
330
1F
100
AcDbEntity
  8
0
100
AcDbBlockReference
  2
block 9
 10
0.0
 20
0.0
 30
0.0
  0
INSERT
  5
69
330
1F
100
AcDbEntity
  8
0
100
AcDbBlockReference
  2
block 10
 10
0.0
 20
0.0
 30
0.0
  0
INSERT
  5
6E
330
1F
100
AcDbEntity
  8
0
100
AcDbBlockReference
  2
block 11
 10
0.0
 20
0.0
 30
0.0
  0
INSERT
  5
73
330
1F
100
AcDbEntity
  8
0
100
AcDbBlockReference
  2
block 12
 10
0.0
 20
0.0
 30
0.0
  0
INSERT
  5
78
330
1F
100
AcDbEntity
  8
0
100
AcDbBlockReference
  2
block 13
 10
0.0
 20
0.0
 30
0.0
  0
INSERT
  5
7D
330
1F
100
AcDbEntity
  8
0
100
AcDbBlockReference
  2
block 14
 10
0.0
 20
0.0
 30
0.0
  0
INSERT
  5
82
330
1F
100
AcDbEntity
  8
0
100
AcDbBlockReference
  2
block 15
 10
0.0
 20
0.0
 30
0.0
  0
INSERT
  5
87
330
1F
100
AcDbEntity
  8
0
100
AcDbBlockReference
  2
block 16
 10
0.0
 20
0.0
 30
0.0
  0
INSERT
  5
8C
330
1F
100
AcDbEntity
  8
0
100
AcDbBlockReference
  2
block 17
 10
0.0
 20
0.0
 30
0.0
  0
INSERT
  5
91
330
1F
100
AcDbEntity
  8
0
100
AcDbBlockReference
  2
block 18
 10
0.0
 20
0.0
 30
0.0
  0
INSERT
  5
96
330
1F
100
AcDbEntity
  8
0
100
AcDbBlockReference
  2
block 19
 10
0.0
 20
0.0
 30
0.0
  0
INSERT
  5
9C
330
1F
100
AcDbEntity
  8
0
100
AcDbBlockReference
  2
block 20
 10
0.0
 20
0.0
 30
0.0
  0
INSERT
  5
A2
330
1F
100
AcDbEntity
  8
0
100
AcDbBlockReference
  2
block 21
 10
0.0
 20
0.0
 30
0.0
  0
INSERT
  5
A8
330
1F
100
AcDbEntity
  8
0
100
AcDbBlockReference
  2
block 22
 10
0.0
 20
0.0
 30
0.0
  0
INSERT
  5
AE
330
1F
100
AcDbEntity
  8
0
100
AcDbBlockReference
  2
block 23
 10
0.0
 20
0.0
 30
0.0
  0
INSERT
  5
B4
330
1F
100
AcDbEntity
  8
0
100
AcDbBlockReference
  2
block 24
 10
0.0
 20
0.0
 30
0.0
  0
INSERT
  5
BA
330
1F
100
AcDbEntity
  8
0
100
AcDbBlockReference
  2
block 25
 10
0.0
 20
0.0
 30
0.0
  0
INSERT
  5
C0
330
1F
100
AcDbEntity
  8
0
100
AcDbBlockReference
  2
block 26
 10
0.0
 20
0.0
 30
0.0
  0
INSERT
  5
C6
330
1F
100
AcDbEntity
  8
0
100
AcDbBlockReference
  2
block 27
 10
0.0
 20
0.0
 30
0.0
  0
INSERT
  5
CC
330
1F
100
AcDbEntity
  8
0
100
AcDbBlockReference
  2
block 28
 10
0.0
 20
0.0
 30
0.0
  0
INSERT
  5
D2
330
1F
100
AcDbEntity
  8
0
100
AcDbBlockReference
  2
block 29
 10
0.0
 20
0.0
 30
0.0
  0
INSERT
  5
D8
330
1F
100
AcDbEntity
  8
0
100
AcDbBlockReference
  2
block 30
 10
0.0
 20
0.0
 30
0.0
  0
INSERT
  5
DE
330
1F
100
AcDbEntity
  8
0
100
AcDbBlockReference
  2
block 31
 10
0.0
 20
0.0
 30
0.0
  0
INSERT
  5
E4
330
1F
100
AcDbEntity
  8
0
100
AcDbBlockReference
  2
block 32
 10
0.0
 20
0.0
 30
0.0
  0
INSERT
  5
EA
330
1F
100
AcDbEntity
  8
0
100
AcDbBlockReference
  2
block 33
 10
0.0
 20
0.0
 30
0.0
  0
INSERT
  5
F0
330
1F
100
AcDbEntity
  8
0
100
AcDbBlockReference
  2
block 34
 10
0.0
 20
0.0
 30
0.0
  0
INSERT
  5
F6
330
1F
100
AcDbEntity
  8
0
100
AcDbBlockReference
  2
block 35
 10
0.0
 20
0.0
 30
0.0
  0
INSERT
  5
FB
330
1F
100
AcDbEntity
  8
0
100
AcDbBlockReference
  2
block 36
 10
0.0
 20
0.0
 30
0.0
  0
INSERT
  5
100
330
1F
100
AcDbEntity
  8
0
100
AcDbBlockReference
  2
block 37
 10
0.0
 20
0.0
 30
0.0
  0
INSERT
  5
105
330
1F
100
AcDbEntity
  8
0
100
AcDbBlockReference
  2
block 38
 10
0.0
 20
0.0
 30
0.0
  0
INSERT
  5
10A
330
1F
100
AcDbEntity
  8
0
100
AcDbBlockReference
  2
block 39
 10
0.0
 20
0.0
 30
0.0
  0
INSERT
  5
10F
330
1F
100
AcDbEntity
  8
0
100
AcDbBlockReference
  2
block 40
 10
0.0
 20
0.0
 30
0.0
  0
INSERT
  5
114
330
1F
100
AcDbEntity
  8
0
100
AcDbBlockReference
  2
block 41
 10
0.0
 20
0.0
 30
0.0
  0
INSERT
  5
119
330
1F
100
AcDbEntity
  8
0
100
AcDbBlockReference
  2
block 42
 10
0.0
 20
0.0
 30
0.0
  0
INSERT
  5
11E
330
1F
100
AcDbEntity
  8
0
100
AcDbBlockReference
  2
block 43
 10
0.0
 20
0.0
 30
0.0
  0
INSERT
  5
123
330
1F
100
AcDbEntity
  8
0
100
AcDbBlockReference
  2
block 44
 10
0.0
 20
0.0
 30
0.0
  0
INSERT
  5
128
330
1F
100
AcDbEntity
  8
0
100
AcDbBlockReference
  2
block 45
 10
0.0
 20
0.0
 30
0.0
  0
INSERT
  5
12D
330
1F
100
AcDbEntity
  8
0
100
AcDbBlockReference
  2
block 46
 10
0.0
 20
0.0
 30
0.0
  0
INSERT
  5
132
330
1F
100
AcDbEntity
  8
0
100
AcDbBlockReference
  2
block 47
 10
0.0
 20
0.0
 30
0.0
  0
INSERT
  5
137
330
1F
100
AcDbEntity
  8
0
100
AcDbBlockReference
  2
block 48
 10
0.0
 20
0.0
 30
0.0
  0
INSERT
  5
13C
330
1F
100
AcDbEntity
  8
0
100
AcDbBlockReference
  2
block 49
 10
0.0
 20
0.0
 30
0.0
  0
INSERT
  5
141
330
1F
100
AcDbEntity
  8
0
100
AcDbBlockReference
  2
block 50
 10
0.0
 20
0.0
 30
0.0
  0
INSERT
  5
146
330
1F
100
AcDbEntity
  8
0
100
AcDbBlockReference
  2
block 51
 10
0.0
 20
0.0
 30
0.0
  0
INSERT
  5
14B
330
1F
100
AcDbEntity
  8
0
100
AcDbBlockReference
  2
block 52
 10
0.0
 20
0.0
 30
0.0
  0
INSERT
  5
150
330
1F
100
AcDbEntity
  8
0
100
AcDbBlockReference
  2
block 53
 10
0.0
 20
0.0
 30
0.0
  0
INSERT
  5
155
330
1F
100
AcDbEntity
  8
0
100
AcDbBlockReference
  2
block 54
 10
0.0
 20
0.0
 30
0.0
  0
INSERT
  5
15A
330
1F
100
AcDbEntity
  8
0
100
AcDbBlockReference
  2
block 55
 10
0.0
 20
0.0
 30
0.0
  0
INSERT
  5
15F
330
1F
100
AcDbEntity
  8
0
100
AcDbBlockReference
  2
block 56
 10
0.0
 20
0.0
 30
0.0
  0
INSERT
  5
164
330
1F
100
AcDbEntity
  8
0
100
AcDbBlockReference
  2
block 57
 10
0.0
 20
0.0
 30
0.0
  0
INSERT
  5
169
330
1F
100
AcDbEntity
  8
0
100
AcDbBlockReference
  2
block 58
 10
0.0
 20
0.0
 30
0.0
  0
INSERT
  5
16E
330
1F
100
AcDbEntity
  8
0
100
AcDbBlockReference
  2
block 59
 10
0.0
 20
0.0
 30
0.0
  0
INSERT
  5
173
330
1F
100
AcDbEntity
  8
0
100
AcDbBlockReference
  2
block 60
 10
0.0
 20
0.0
 30
0.0
  0
INSERT
  5
178
330
1F
100
AcDbEntity
  8
0
100
AcDbBlockReference
  2
block 61
 10
0.0
 20
0.0
 30
0.0
  0
INSERT
  5
17D
330
1F
100
AcDbEntity
  8
0
100
AcDbBlockReference
  2
block 62
 10
0.0
 20
0.0
 30
0.0
  0
INSERT
  5
182
330
1F
100
AcDbEntity
  8
0
100
AcDbBlockReference
  2
block 63
 10
0.0
 20
0.0
 30
0.0
  0
INSERT
  5
187
330
1F
100
AcDbEntity
  8
0
100
AcDbBlockReference
  2
block 64
 10
0.0
 20
0.0
 30
0.0
  0
INSERT
  5
18C
330
1F
100
AcDbEntity
  8
0
100
AcDbBlockReference
  2
block 65
 10
0.0
 20
0.0
 30
0.0
  0
INSERT
  5
191
330
1F
100
AcDbEntity
  8
0
100
AcDbBlockReference
  2
block 66
 10
0.0
 20
0.0
 30
0.0
  0
INSERT
  5
196
330
1F
100
AcDbEntity
  8
0
100
AcDbBlockReference
  2
block 67
 10
0.0
 20
0.0
 30
0.0
  0
INSERT
  5
19B
330
1F
100
AcDbEntity
  8
0
100
AcDbBlockReference
  2
block 68
 10
0.0
 20
0.0
 30
0.0
  0
INSERT
  5
1A0
330
1F
100
AcDbEntity
  8
0
100
AcDbBlockReference
  2
block 69
 10
0.0
 20
0.0
 30
0.0
  0
INSERT
  5
1A5
330
1F
100
AcDbEntity
  8
0
100
AcDbBlockReference
  2
block 70
 10
0.0
 20
0.0
 30
0.0
  0
INSERT
  5
1AA
330
1F
100
AcDbEntity
  8
0
100
AcDbBlockReference
  2
block 71
 10
0.0
 20
0.0
 30
0.0
  0
INSERT
  5
1B2
330
1F
100
AcDbEntity
  8
0
100
AcDbBlockReference
  2
block 72
 10
0.0
 20
0.0
 30
0.0
  0
INSERT
  5
1BB
330
1F
100
AcDbEntity
  8
0
100
AcDbBlockReference
  2
block 73
 10
0.0
 20
0.0
 30
0.0
  0
INSERT
  5
1C4
330
1F
100
AcDbEntity
  8
0
100
AcDbBlockReference
  2
block 74
 10
0.0
 20
0.0
 30
0.0
  0
INSERT
  5
1CC
330
1F
100
AcDbEntity
  8
0
100
AcDbBlockReference
  2
block 75
 10
0.0
 20
0.0
 30
0.0
  0
INSERT
  5
1D4
330
1F
100
AcDbEntity
  8
0
100
AcDbBlockReference
  2
block 76
 10
0.0
 20
0.0
 30
0.0
  0
INSERT
  5
1DD
330
1F
100
AcDbEntity
  8
0
100
AcDbBlockReference
  2
block 77
 10
0.0
 20
0.0
 30
0.0
  0
INSERT
  5
1E6
330
1F
100
AcDbEntity
  8
0
100
AcDbBlockReference
  2
block 78
 10
0.0
 20
0.0
 30
0.0
  0
INSERT
  5
1EE
330
1F
100
AcDbEntity
  8
0
100
AcDbBlockReference
  2
block 79
 10
0.0
 20
0.0
 30
0.0
  0
INSERT
  5
1F3
330
1F
100
AcDbEntity
  8
0
100
AcDbBlockReference
  2
block 80
 10
0.0
 20
0.0
 30
0.0
  0
INSERT
  5
1F8
330
1F
100
AcDbEntity
  8
0
100
AcDbBlockReference
  2
block 81
 10
0.0
 20
0.0
 30
0.0
  0
INSERT
  5
1FE
330
1F
100
AcDbEntity
  8
0
100
AcDbBlockReference
  2
block 82
 10
0.0
 20
0.0
 30
0.0
  0
INSERT
  5
204
330
1F
100
AcDbEntity
  8
0
100
AcDbBlockReference
  2
block 83
 10
0.0
 20
0.0
 30
0.0
  0
INSERT
  5
20A
330
1F
100
AcDbEntity
  8
0
100
AcDbBlockReference
  2
block 84
 10
0.0
 20
0.0
 30
0.0
  0
INSERT
  5
210
330
1F
100
AcDbEntity
  8
0
100
AcDbBlockReference
  2
block 85
 10
0.0
 20
0.0
 30
0.0
  0
INSERT
  5
216
330
1F
100
AcDbEntity
  8
0
100
AcDbBlockReference
  2
block 86
 10
0.0
 20
0.0
 30
0.0
  0
INSERT
  5
21C
330
1F
100
AcDbEntity
  8
0
100
AcDbBlockReference
  2
block 87
 10
0.0
 20
0.0
 30
0.0
  0
INSERT
  5
222
330
1F
100
AcDbEntity
  8
0
100
AcDbBlockReference
  2
block 88
 10
0.0
 20
0.0
 30
0.0
  0
INSERT
  5
228
330
1F
100
AcDbEntity
  8
0
100
AcDbBlockReference
  2
block 89
 10
0.0
 20
0.0
 30
0.0
  0
INSERT
  5
22E
330
1F
100
AcDbEntity
  8
0
100
AcDbBlockReference
  2
block 90
 10
0.0
 20
0.0
 30
0.0
  0
INSERT
  5
234
330
1F
100
AcDbEntity
  8
0
100
AcDbBlockReference
  2
block 91
 10
0.0
 20
0.0
 30
0.0
  0
INSERT
  5
23A
330
1F
100
AcDbEntity
  8
0
100
AcDbBlockReference
  2
block 92
 10
0.0
 20
0.0
 30
0.0
  0
INSERT
  5
240
330
1F
100
AcDbEntity
  8
0
100
AcDbBlockReference
  2
block 93
 10
0.0
 20
0.0
 30
0.0
  0
INSERT
  5
246
330
1F
100
AcDbEntity
  8
0
100
AcDbBlockReference
  2
block 94
 10
0.0
 20
0.0
 30
0.0
  0
INSERT
  5
24C
330
1F
100
AcDbEntity
  8
0
100
AcDbBlockReference
  2
block 95
 10
0.0
 20
0.0
 30
0.0
  0
INSERT
  5
252
330
1F
100
AcDbEntity
  8
0
100
AcDbBlockReference
  2
block 96
 10
0.0
 20
0.0
 30
0.0
  0
INSERT
  5
258
330
1F
100
AcDbEntity
  8
0
100
AcDbBlockReference
  2
block 97
 10
0.0
 20
0.0
 30
0.0
  0
INSERT
  5
25E
330
1F
100
AcDbEntity
  8
0
100
AcDbBlockReference
  2
block 98
 10
0.0
 20
0.0
 30
0.0
  0
INSERT
  5
264
330
1F
100
AcDbEntity
  8
0
100
AcDbBlockReference
  2
block 99
 10
0.0
 20
0.0
 30
0.0
  0
INSERT
  5
269
330
1F
100
AcDbEntity
  8
0
100
AcDbBlockReference
  2
block 100
 10
0.0
 20
0.0
 30
0.0
  0
INSERT
  5
26E
330
1F
100
AcDbEntity
  8
0
100
AcDbBlockReference
  2
block 101
 10
0.0
 20
0.0
 30
0.0
  0
INSERT
  5
273
330
1F
100
AcDbEntity
  8
0
100
AcDbBlockReference
  2
block 102
 10
0.0
 20
0.0
 30
0.0
  0
INSERT
  5
278
330
1F
100
AcDbEntity
  8
0
100
AcDbBlockReference
  2
block 103
 10
0.0
 20
0.0
 30
0.0
  0
INSERT
  5
27D
330
1F
100
AcDbEntity
  8
0
100
AcDbBlockReference
  2
block 104
 10
0.0
 20
0.0
 30
0.0
  0
INSERT
  5
282
330
1F
100
AcDbEntity
  8
0
100
AcDbBlockReference
  2
block 105
 10
0.0
 20
0.0
 30
0.0
  0
INSERT
  5
287
330
1F
100
AcDbEntity
  8
0
100
AcDbBlockReference
  2
block 106
 10
0.0
 20
0.0
 30
0.0
  0
INSERT
  5
28C
330
1F
100
AcDbEntity
  8
0
100
AcDbBlockReference
  2
block 107
 10
0.0
 20
0.0
 30
0.0
  0
INSERT
  5
291
330
1F
100
AcDbEntity
  8
0
100
AcDbBlockReference
  2
block 108
 10
0.0
 20
0.0
 30
0.0
  0
INSERT
  5
296
330
1F
100
AcDbEntity
  8
0
100
AcDbBlockReference
  2
block 109
 10
0.0
 20
0.0
 30
0.0
  0
INSERT
  5
29B
330
1F
100
AcDbEntity
  8
0
100
AcDbBlockReference
  2
block 110
 10
0.0
 20
0.0
 30
0.0
  0
ENDSEC
  0
SECTION
  2
OBJECTS
  0
DICTIONARY
  5
C
330
0
100
AcDbDictionary
281
     1
  3
ACAD_GROUP
350
D
  3
ACAD_LAYOUT
350
1A
  3
ACAD_MATERIAL
350
3B
  3
ACAD_MLEADERSTYLE
350
2C0
  3
ACAD_MLINESTYLE
350
17
  3
ACAD_PLOTSETTINGS
350
19
  3
ACAD_PLOTSTYLENAME
350
E
  3
ACAD_TABLESTYLE
350
2BF
  3
ACAD_VISUALSTYLE
350
2A
  0
SUN
  5
3F
330
29
100
AcDbSun
 90
        1
290
     0
 63
     7
421
 16777215
 40
1.0
291
     1
 91
  2455826
 92
 54000000
292
     0
 70
     2
 71
   256
280
     1
  0
DICTIONARY
  5
D
102
{ACAD_REACTORS
330
C
102
}
330
C
100
AcDbDictionary
281
     1
  0
DICTIONARY
  5
1A
102
{ACAD_REACTORS
330
C
102
}
330
C
100
AcDbDictionary
281
     1
  3
Layout1
350
1E
  3
Layout2
350
26
  3
Model
350
22
  0
DICTIONARY
  5
3B
102
{ACAD_REACTORS
330
C
102
}
330
C
100
AcDbDictionary
281
     1
  3
ByBlock
350
3D
  3
ByLayer
350
3C
  3
Global
350
3E
  0
DICTIONARY
  5
2C0
102
{ACAD_REACTORS
330
C
102
}
330
C
100
AcDbDictionary
281
     1
  0
DICTIONARY
  5
17
102
{ACAD_REACTORS
330
C
102
}
330
C
100
AcDbDictionary
281
     1
  3
Standard
350
18
  0
DICTIONARY
  5
19
102
{ACAD_REACTORS
330
C
102
}
330
C
100
AcDbDictionary
281
     1
  0
ACDBDICTIONARYWDFLT
  5
E
102
{ACAD_REACTORS
330
C
102
}
330
C
100
AcDbDictionary
281
     1
  3
Normal
350
F
100
AcDbDictionaryWithDefault
340
F
  0
DICTIONARY
  5
2BF
102
{ACAD_REACTORS
330
C
102
}
330
C
100
AcDbDictionary
281
     1
  0
DICTIONARY
  5
2A
102
{ACAD_REACTORS
330
C
102
}
330
C
100
AcDbDictionary
281
     1
  3
2dWireframe
350
2F
  3
3D Hidden
350
31
  3
3dWireframe
350
30
  3
Basic
350
32
  3
Brighten
350
36
  3
ColorChange
350
3A
  3
Conceptual
350
34
  3
Dim
350
35
  3
Facepattern
350
39
  3
Flat
350
2B
  3
FlatWithEdges
350
2C
  3
Gouraud
350
2D
  3
GouraudWithEdges
350
2E
  3
Linepattern
350
38
  3
Realistic
350
33
  3
Thicken
350
37
  0
LAYOUT
  5
1E
102
{ACAD_REACTORS
330
1A
102
}
330
1A
100
AcDbPlotSettings
  1

  2
none_device
  4

  6

 40
0.0
 41
0.0
 42
0.0
 43
0.0
 44
0.0
 45
0.0
 46
0.0
 47
0.0
 48
0.0
 49
0.0
140
0.0
141
0.0
142
1.0
143
1.0
 70
   688
 72
     0
 73
     0
 74
     5
  7

 75
    16
 76
     0
 77
     2
 78
   300
147
1.0
148
0.0
149
0.0
100
AcDbLayout
  1
Layout1
 70
     1
 71
     1
 10
0.0
 20
0.0
 11
12.0
 21
9.0
 12
0.0
 22
0.0
 32
0.0
 14
1.000000000000000E+20
 24
1.000000000000000E+20
 34
1.000000000000000E+20
 15
-1.000000000000000E+20
 25
-1.000000000000000E+20
 35
-1.000000000000000E+20
146
0.0
 13
0.0
 23
0.0
 33
0.0
 16
1.0
 26
0.0
 36
0.0
 17
0.0
 27
1.0
 37
0.0
 76
     0
330
1B
  0
LAYOUT
  5
26
102
{ACAD_REACTORS
330
1A
102
}
330
1A
100
AcDbPlotSettings
  1

  2
none_device
  4

  6

 40
0.0
 41
0.0
 42
0.0
 43
0.0
 44
0.0
 45
0.0
 46
0.0
 47
0.0
 48
0.0
 49
0.0
140
0.0
141
0.0
142
1.0
143
1.0
 70
   688
 72
     0
 73
     0
 74
     5
  7

 75
    16
 76
     0
 77
     2
 78
   300
147
1.0
148
0.0
149
0.0
100
AcDbLayout
  1
Layout2
 70
     1
 71
     2
 10
0.0
 20
0.0
 11
0.0
 21
0.0
 12
0.0
 22
0.0
 32
0.0
 14
0.0
 24
0.0
 34
0.0
 15
0.0
 25
0.0
 35
0.0
146
0.0
 13
0.0
 23
0.0
 33
0.0
 16
1.0
 26
0.0
 36
0.0
 17
0.0
 27
1.0
 37
0.0
 76
     0
330
23
  0
LAYOUT
  5
22
102
{ACAD_REACTORS
330
1A
102
}
330
1A
100
AcDbPlotSettings
  1

  2
none_device
  4

  6

 40
0.0
 41
0.0
 42
0.0
 43
0.0
 44
0.0
 45
0.0
 46
0.0
 47
0.0
 48
0.0
 49
0.0
140
0.0
141
0.0
142
1.0
143
1.0
 70
  1712
 72
     0
 73
     0
 74
     0
  7

 75
     0
 76
     0
 77
     2
 78
   300
147
1.0
148
0.0
149
0.0
100
AcDbLayout
  1
Model
 70
     1
 71
     0
 10
0.0
 20
0.0
 11
12.0
 21
9.0
 12
0.0
 22
0.0
 32
0.0
 14
1.000000000000000E+20
 24
1.000000000000000E+20
 34
1.000000000000000E+20
 15
-1.000000000000000E+20
 25
-1.000000000000000E+20
 35
-1.000000000000000E+20
146
0.0
 13
0.0
 23
0.0
 33
0.0
 16
1.0
 26
0.0
 36
0.0
 17
0.0
 27
1.0
 37
0.0
 76
     0
330
1F
331
29
  0
MATERIAL
  5
3D
102
{ACAD_REACTORS
330
3B
102
}
330
3B
100
AcDbMaterial
  1
ByBlock
 72
     1
 94
      127
  0
MATERIAL
  5
3C
102
{ACAD_REACTORS
330
3B
102
}
330
3B
100
AcDbMaterial
  1
ByLayer
 72
     1
 94
      127
  0
MATERIAL
  5
3E
102
{ACAD_REACTORS
330
3B
102
}
330
3B
100
AcDbMaterial
  1
Global
 72
     1
 94
      127
  0
MLINESTYLE
  5
18
102
{ACAD_REACTORS
330
17
102
}
330
17
100
AcDbMlineStyle
  2
Standard
 70
     0
  3

 62
   256
 51
90.0
 52
90.0
 71
     2
 49
0.5
 62
   256
  6
BYLAYER
 49
-0.5
 62
   256
  6
BYLAYER
  0
ACDBPLACEHOLDER
  5
F
102
{ACAD_REACTORS
330
E
102
}
330
E
  0
VISUALSTYLE
  5
2F
102
{ACAD_REACTORS
330
2A
102
}
102
{ACAD_XDICTIONARY
360
2A7
102
}
330
2A
100
AcDbVisualStyle
  2
2dWireframe
 70
     4
 71
     0
 72
     2
 73
     0
 90
        0
 40
-0.6
 41
-30.0
 62
     5
 63
     7
421
 16777215
 74
     1
 91
        4
 64
     7
 65
   257
 75
     1
175
     1
 42
1.0
 92
        0
 66
   257
 43
1.0
 76
     1
 77
     6
 78
     2
 67
     7
 79
     5
170
     0
171
     0
290
     0
174
     0
 93
        1
 44
0.0
173
     0
291
     0
 45
0.0
  0
VISUALSTYLE
  5
31
102
{ACAD_REACTORS
330
2A
102
}
102
{ACAD_XDICTIONARY
360
2AB
102
}
330
2A
100
AcDbVisualStyle
  2
3D Hidden
 70
     6
 71
     1
 72
     2
 73
     2
 90
        0
 40
-0.6
 41
-30.0
 62
     5
 63
     7
421
 16777215
 74
     2
 91
        2
 64
     7
 65
   257
 75
     2
175
     1
 42
40.0
 92
        0
 66
   257
 43
1.0
 76
     1
 77
     6
 78
     2
 67
     7
 79
     3
170
     0
171
     0
290
     0
174
     0
 93
        1
 44
0.0
173
     0
291
     0
 45
0.0
  0
VISUALSTYLE
  5
30
102
{ACAD_REACTORS
330
2A
102
}
102
{ACAD_XDICTIONARY
360
2A9
102
}
330
2A
100
AcDbVisualStyle
  2
3dWireframe
 70
     5
 71
     0
 72
     2
 73
     0
 90
        0
 40
-0.6
 41
-30.0
 62
     5
 63
     7
421
 16777215
 74
     1
 91
        4
 64
     7
 65
   257
 75
     1
175
     1
 42
1.0
 92
        0
 66
   257
 43
1.0
 76
     1
 77
     6
 78
     2
 67
     7
 79
     5
170
     0
171
     0
290
     0
174
     0
 93
        1
 44
0.0
173
     0
291
     0
 45
0.0
  0
VISUALSTYLE
  5
32
102
{ACAD_REACTORS
330
2A
102
}
102
{ACAD_XDICTIONARY
360
2AD
102
}
330
2A
100
AcDbVisualStyle
  2
Basic
 70
     7
 71
     1
 72
     0
 73
     1
 90
        0
 40
-0.6
 41
-30.0
 62
     5
 63
     7
421
 16777215
 74
     0
 91
        4
 64
     7
 65
   257
 75
     1
175
     1
 42
1.0
 92
        8
 66
     7
 43
1.0
 76
     1
 77
     6
 78
     2
 67
     7
 79
     5
170
     0
171
     0
290
     0
174
     0
 93
        1
 44
0.0
173
     0
291
     1
 45
0.0
  0
VISUALSTYLE
  5
36
102
{ACAD_REACTORS
330
2A
102
}
102
{ACAD_XDICTIONARY
360
2B5
102
}
330
2A
100
AcDbVisualStyle
  2
Brighten
 70
    12
 71
     2
 72
     2
 73
     0
 90
        0
 40
-0.6
 41
-30.0
 62
     5
 63
     7
421
 16777215
 74
     1
 91
        4
 64
     7
 65
   257
 75
     1
175
     1
 42
1.0
 92
        8
 66
     7
 43
1.0
 76
     1
 77
     6
 78
     2
 67
     7
 79
     5
170
     0
171
     0
290
     0
174
     0
 93
        1
 44
50.0
173
     0
291
     1
 45
0.0
  0
VISUALSTYLE
  5
3A
102
{ACAD_REACTORS
330
2A
102
}
102
{ACAD_XDICTIONARY
360
2BD
102
}
330
2A
100
AcDbVisualStyle
  2
ColorChange
 70
    16
 71
     2
 72
     2
 73
     3
 90
        0
 40
-0.6
 41
-30.0
 62
     5
 63
     8
421
  8421504
 74
     1
 91
        4
 64
     7
 65
   257
 75
     1
175
     1
 42
1.0
 92
        8
 66
     8
424
  8421504
 43
1.0
 76
     1
 77
     6
 78
     2
 67
     7
 79
     5
170
     0
171
     0
290
     0
174
     0
 93
        1
 44
0.0
173
     0
291
     1
 45
0.0
  0
VISUALSTYLE
  5
34
102
{ACAD_REACTORS
330
2A
102
}
102
{ACAD_XDICTIONARY
360
2B1
102
}
330
2A
100
AcDbVisualStyle
  2
Conceptual
 70
     9
 71
     3
 72
     2
 73
     0
 90
        0
 40
-0.6
 41
-30.0
 62
     5
 63
     7
421
 16777215
 74
     2
 91
        2
 64
     7
 65
   257
 75
     1
175
     1
 42
40.0
 92
        8
 66
     7
 43
1.0
 76
     1
 77
     6
 78
     2
 67
     7
 79
     3
170
     0
171
     0
290
     0
174
     0
 93
        1
 44
0.0
173
     0
291
     0
 45
0.0
  0
VISUALSTYLE
  5
35
102
{ACAD_REACTORS
330
2A
102
}
102
{ACAD_XDICTIONARY
360
2B3
102
}
330
2A
100
AcDbVisualStyle
  2
Dim
 70
    11
 71
     2
 72
     2
 73
     0
 90
        0
 40
-0.6
 41
-30.0
 62
     5
 63
     7
421
 16777215
 74
     1
 91
        4
 64
     7
 65
   257
 75
     1
175
     1
 42
1.0
 92
        8
 66
     7
 43
1.0
 76
     1
 77
     6
 78
     2
 67
     7
 79
     5
170
     0
171
     0
290
     0
174
     0
 93
        1
 44
-50.0
173
     0
291
     1
 45
0.0
  0
VISUALSTYLE
  5
39
102
{ACAD_REACTORS
330
2A
102
}
102
{ACAD_XDICTIONARY
360
2BB
102
}
330
2A
100
AcDbVisualStyle
  2
Facepattern
 70
    15
 71
     2
 72
     2
 73
     0
 90
        0
 40
-0.6
 41
-30.0
 62
     5
 63
     7
421
 16777215
 74
     1
 91
        4
 64
     7
 65
   257
 75
     1
175
     1
 42
1.0
 92
        8
 66
     7
 43
1.0
 76
     1
 77
     6
 78
     2
 67
     7
 79
     5
170
     0
171
     0
290
     0
174
     0
 93
        1
 44
0.0
173
     0
291
     1
 45
0.0
  0
VISUALSTYLE
  5
2B
102
{ACAD_REACTORS
330
2A
102
}
102
{ACAD_XDICTIONARY
360
29F
102
}
330
2A
100
AcDbVisualStyle
  2
Flat
 70
     0
 71
     2
 72
     1
 73
     1
 90
        2
 40
-0.6
 41
30.0
 62
     5
 63
     7
421
 16777215
 74
     0
 91
        4
 64
     7
 65
   257
 75
     1
175
     1
 42
1.0
 92
        8
 66
     7
 43
1.0
 76
     1
 77
     6
 78
     2
 67
     7
 79
     5
170
     0
171
     0
290
     0
174
     0
 93
       13
 44
0.0
173
     0
291
     1
 45
0.0
  0
VISUALSTYLE
  5
2C
102
{ACAD_REACTORS
330
2A
102
}
102
{ACAD_XDICTIONARY
360
2A1
102
}
330
2A
100
AcDbVisualStyle
  2
FlatWithEdges
 70
     1
 71
     2
 72
     1
 73
     1
 90
        2
 40
-0.6
 41
30.0
 62
     5
 63
     7
421
 16777215
 74
     1
 91
        4
 64
     7
 65
   257
 75
     1
175
     1
 42
1.0
 92
        0
 66
   257
 43
1.0
 76
     1
 77
     6
 78
     2
 67
     7
 79
     5
170
     0
171
     0
290
     0
174
     0
 93
       13
 44
0.0
173
     0
291
     1
 45
0.0
  0
VISUALSTYLE
  5
2D
102
{ACAD_REACTORS
330
2A
102
}
102
{ACAD_XDICTIONARY
360
2A3
102
}
330
2A
100
AcDbVisualStyle
  2
Gouraud
 70
     2
 71
     2
 72
     2
 73
     1
 90
        2
 40
-0.6
 41
30.0
 62
     5
 63
     7
421
 16777215
 74
     0
 91
        4
 64
     7
 65
   257
 75
     1
175
     1
 42
1.0
 92
        0
 66
     7
 43
1.0
 76
     1
 77
     6
 78
     2
 67
     7
 79
     5
170
     0
171
     0
290
     0
174
     0
 93
       13
 44
0.0
173
     0
291
     1
 45
0.0
  0
VISUALSTYLE
  5
2E
102
{ACAD_REACTORS
330
2A
102
}
102
{ACAD_XDICTIONARY
360
2A5
102
}
330
2A
100
AcDbVisualStyle
  2
GouraudWithEdges
 70
     3
 71
     2
 72
     2
 73
     1
 90
        2
 40
-0.6
 41
30.0
 62
     5
 63
     7
421
 16777215
 74
     1
 91
        4
 64
     7
 65
   257
 75
     1
175
     1
 42
1.0
 92
        0
 66
   257
 43
1.0
 76
     1
 77
     6
 78
     2
 67
     7
 79
     5
170
     0
171
     0
290
     0
174
     0
 93
       13
 44
0.0
173
     0
291
     1
 45
0.0
  0
VISUALSTYLE
  5
38
102
{ACAD_REACTORS
330
2A
102
}
102
{ACAD_XDICTIONARY
360
2B9
102
}
330
2A
100
AcDbVisualStyle
  2
Linepattern
 70
    14
 71
     2
 72
     2
 73
     0
 90
        0
 40
-0.6
 41
-30.0
 62
     5
 63
     7
421
 16777215
 74
     1
 91
        4
 64
     7
 65
   257
 75
     7
175
     7
 42
1.0
 92
        8
 66
     7
 43
1.0
 76
     1
 77
     6
 78
     2
 67
     7
 79
     5
170
     0
171
     0
290
     0
174
     0
 93
        1
 44
0.0
173
     0
291
     1
 45
0.0
  0
VISUALSTYLE
  5
33
102
{ACAD_REACTORS
330
2A
102
}
102
{ACAD_XDICTIONARY
360
2AF
102
}
330
2A
100
AcDbVisualStyle
  2
Realistic
 70
     8
 71
     2
 72
     2
 73
     0
 90
        0
 40
-0.6
 41
-30.0
 62
     5
 63
     7
421
 16777215
 74
     1
 91
        0
 64
     7
 65
   257
 75
     1
175
     1
 42
1.0
 92
        8
 66
     8
424
  7895160
 43
1.0
 76
     1
 77
     6
 78
     2
 67
     7
 79
     5
170
     0
171
     0
290
     0
174
     0
 93
       13
 44
0.0
173
     0
291
     0
 45
0.0
  0
VISUALSTYLE
  5
37
102
{ACAD_REACTORS
330
2A
102
}
102
{ACAD_XDICTIONARY
360
2B7
102
}
330
2A
100
AcDbVisualStyle
  2
Thicken
 70
    13
 71
     2
 72
     2
 73
     0
 90
        0
 40
-0.6
 41
-30.0
 62
     5
 63
     7
421
 16777215
 74
     1
 91
        4
 64
     7
 65
   257
 75
     1
175
     1
 42
1.0
 92
       12
 66
     7
 43
1.0
 76
     1
 77
     6
 78
     2
 67
     7
 79
     5
170
     0
171
     0
290
     0
174
     0
 93
        1
 44
0.0
173
     0
291
     1
 45
0.0
  0
DICTIONARY
  5
2A7
330
2F
100
AcDbDictionary
280
     1
281
     1
  3
ACAD_XREC_ROUNDTRIP
360
2A8
  0
DICTIONARY
  5
2AB
330
31
100
AcDbDictionary
280
     1
281
     1
  3
ACAD_XREC_ROUNDTRIP
360
2AC
  0
DICTIONARY
  5
2A9
330
30
100
AcDbDictionary
280
     1
281
     1
  3
ACAD_XREC_ROUNDTRIP
360
2AA
  0
DICTIONARY
  5
2AD
330
32
100
AcDbDictionary
280
     1
281
     1
  3
ACAD_XREC_ROUNDTRIP
360
2AE
  0
DICTIONARY
  5
2B5
330
36
100
AcDbDictionary
280
     1
281
     1
  3
ACAD_XREC_ROUNDTRIP
360
2B6
  0
DICTIONARY
  5
2BD
330
3A
100
AcDbDictionary
280
     1
281
     1
  3
ACAD_XREC_ROUNDTRIP
360
2BE
  0
DICTIONARY
  5
2B1
330
34
100
AcDbDictionary
280
     1
281
     1
  3
ACAD_XREC_ROUNDTRIP
360
2B2
  0
DICTIONARY
  5
2B3
330
35
100
AcDbDictionary
280
     1
281
     1
  3
ACAD_XREC_ROUNDTRIP
360
2B4
  0
DICTIONARY
  5
2BB
330
39
100
AcDbDictionary
280
     1
281
     1
  3
ACAD_XREC_ROUNDTRIP
360
2BC
  0
DICTIONARY
  5
29F
330
2B
100
AcDbDictionary
280
     1
281
     1
  3
ACAD_XREC_ROUNDTRIP
360
2A0
  0
DICTIONARY
  5
2A1
330
2C
100
AcDbDictionary
280
     1
281
     1
  3
ACAD_XREC_ROUNDTRIP
360
2A2
  0
DICTIONARY
  5
2A3
330
2D
100
AcDbDictionary
280
     1
281
     1
  3
ACAD_XREC_ROUNDTRIP
360
2A4
  0
DICTIONARY
  5
2A5
330
2E
100
AcDbDictionary
280
     1
281
     1
  3
ACAD_XREC_ROUNDTRIP
360
2A6
  0
DICTIONARY
  5
2B9
330
38
100
AcDbDictionary
280
     1
281
     1
  3
ACAD_XREC_ROUNDTRIP
360
2BA
  0
DICTIONARY
  5
2AF
330
33
100
AcDbDictionary
280
     1
281
     1
  3
ACAD_XREC_ROUNDTRIP
360
2B0
  0
DICTIONARY
  5
2B7
330
37
100
AcDbDictionary
280
     1
281
     1
  3
ACAD_XREC_ROUNDTRIP
360
2B8
  0
XRECORD
  5
2A8
102
{ACAD_REACTORS
330
2A7
102
}
330
2A7
100
AcDbXrecord
280
     1
102
RTVSPropertyOp0
 70
     1
102
RTVSPropertyOp1
 70
     1
102
RTVSPropertyOp2
 70
     1
102
RTVSPropertyOp3
 70
     1
102
RTVSPropertyOp4
 70
     1
102
RTVSPropertyOp5
 70
     1
102
RTVSPropertyOp6
 70
     1
102
RTVSPropertyOp7
 70
     1
102
RTVSPropertyOp8
 70
     1
102
RTVSPropertyOp9
 70
     1
102
RTVSPropertyOp10
 70
     1
102
RTVSPropertyOp11
 70
     1
102
RTVSPropertyOp12
 70
     1
102
RTVSPropertyOp13
 70
     1
102
RTVSPropertyOp14
 70
     1
102
RTVSPropertyOp15
 70
     1
102
RTVSPropertyOp16
 70
     1
102
RTVSPropertyOp17
 70
     1
102
RTVSPropertyOp18
 70
     1
102
RTVSPropertyOp19
 70
     1
102
RTVSPropertyOp20
 70
     1
102
RTVSPropertyOp21
 70
     1
102
RTVSPropertyOp22
 70
     1
102
RTVSPropertyOp23
 70
     1
102
RTVSPropertyOp24
 70
     1
102
RTVSPropertyOp25
 70
     1
102
RTVSPropertyOp26
 70
     1
102
RTVSPropertyOp27
 70
     1
102
RTVSPropertyOp28
 70
     1
102
RTVSPropertyOp29
 70
     1
102
RTVSPropertyOp30
 70
     1
102
RTVSPropertyOp31
 70
     1
102
RTVSPropertyOp32
 70
     1
  0
XRECORD
  5
2AC
102
{ACAD_REACTORS
330
2AB
102
}
330
2AB
100
AcDbXrecord
280
     1
102
RTVSPropertyOp0
 70
     1
102
RTVSPropertyOp1
 70
     1
102
RTVSPropertyOp2
 70
     1
102
RTVSPropertyOp3
 70
     1
102
RTVSPropertyOp4
 70
     1
102
RTVSPropertyOp5
 70
     1
102
RTVSPropertyOp6
 70
     1
102
RTVSPropertyOp7
 70
     1
102
RTVSPropertyOp8
 70
     1
102
RTVSPropertyOp9
 70
     1
102
RTVSPropertyOp10
 70
     1
102
RTVSPropertyOp11
 70
     1
102
RTVSPropertyOp12
 70
     1
102
RTVSPropertyOp13
 70
     1
102
RTVSPropertyOp14
 70
     1
102
RTVSPropertyOp15
 70
     1
102
RTVSPropertyOp16
 70
     1
102
RTVSPropertyOp17
 70
     1
102
RTVSPropertyOp18
 70
     1
102
RTVSPropertyOp19
 70
     1
102
RTVSPropertyOp20
 70
     1
102
RTVSPropertyOp21
 70
     1
102
RTVSPropertyOp22
 70
     1
102
RTVSPropertyOp23
 70
     1
102
RTVSPropertyOp24
 70
     1
102
RTVSPropertyOp25
 70
     1
102
RTVSPropertyOp26
 70
     1
102
RTVSPropertyOp27
 70
     1
102
RTVSPropertyOp28
 70
     1
102
RTVSPropertyOp29
 70
     1
102
RTVSPropertyOp30
 70
     1
102
RTVSPropertyOp31
 70
     1
102
RTVSPropertyOp32
 70
     1
  0
XRECORD
  5
2AA
102
{ACAD_REACTORS
330
2A9
102
}
330
2A9
100
AcDbXrecord
280
     1
102
RTVSPropertyOp0
 70
     1
102
RTVSPropertyOp1
 70
     1
102
RTVSPropertyOp2
 70
     1
102
RTVSPropertyOp3
 70
     1
102
RTVSPropertyOp4
 70
     1
102
RTVSPropertyOp5
 70
     1
102
RTVSPropertyOp6
 70
     1
102
RTVSPropertyOp7
 70
     1
102
RTVSPropertyOp8
 70
     1
102
RTVSPropertyOp9
 70
     1
102
RTVSPropertyOp10
 70
     1
102
RTVSPropertyOp11
 70
     1
102
RTVSPropertyOp12
 70
     1
102
RTVSPropertyOp13
 70
     1
102
RTVSPropertyOp14
 70
     1
102
RTVSPropertyOp15
 70
     1
102
RTVSPropertyOp16
 70
     1
102
RTVSPropertyOp17
 70
     1
102
RTVSPropertyOp18
 70
     1
102
RTVSPropertyOp19
 70
     1
102
RTVSPropertyOp20
 70
     1
102
RTVSPropertyOp21
 70
     1
102
RTVSPropertyOp22
 70
     1
102
RTVSPropertyOp23
 70
     1
102
RTVSPropertyOp24
 70
     1
102
RTVSPropertyOp25
 70
     1
102
RTVSPropertyOp26
 70
     1
102
RTVSPropertyOp27
 70
     1
102
RTVSPropertyOp28
 70
     1
102
RTVSPropertyOp29
 70
     1
102
RTVSPropertyOp30
 70
     1
102
RTVSPropertyOp31
 70
     1
102
RTVSPropertyOp32
 70
     1
  0
XRECORD
  5
2AE
102
{ACAD_REACTORS
330
2AD
102
}
330
2AD
100
AcDbXrecord
280
     1
102
RTVSPropertyOp0
 70
     1
102
RTVSPropertyOp1
 70
     1
102
RTVSPropertyOp2
 70
     1
102
RTVSPropertyOp3
 70
     1
102
RTVSPropertyOp4
 70
     1
102
RTVSPropertyOp5
 70
     1
102
RTVSPropertyOp6
 70
     1
102
RTVSPropertyOp7
 70
     1
102
RTVSPropertyOp8
 70
     1
102
RTVSPropertyOp9
 70
     1
102
RTVSPropertyOp10
 70
     1
102
RTVSPropertyOp11
 70
     1
102
RTVSPropertyOp12
 70
     1
102
RTVSPropertyOp13
 70
     1
102
RTVSPropertyOp14
 70
     1
102
RTVSPropertyOp15
 70
     1
102
RTVSPropertyOp16
 70
     1
102
RTVSPropertyOp17
 70
     1
102
RTVSPropertyOp18
 70
     1
102
RTVSPropertyOp19
 70
     1
102
RTVSPropertyOp20
 70
     1
102
RTVSPropertyOp21
 70
     1
102
RTVSPropertyOp22
 70
     1
102
RTVSPropertyOp23
 70
     1
102
RTVSPropertyOp24
 70
     1
102
RTVSPropertyOp25
 70
     1
102
RTVSPropertyOp26
 70
     1
102
RTVSPropertyOp27
 70
     1
102
RTVSPropertyOp28
 70
     1
102
RTVSPropertyOp29
 70
     1
102
RTVSPropertyOp30
 70
     1
102
RTVSPropertyOp31
 70
     1
102
RTVSPropertyOp32
 70
     1
  0
XRECORD
  5
2B6
102
{ACAD_REACTORS
330
2B5
102
}
330
2B5
100
AcDbXrecord
280
     1
102
RTVSPropertyOp0
 70
     1
102
RTVSPropertyOp1
 70
     1
102
RTVSPropertyOp2
 70
     1
102
RTVSPropertyOp3
 70
     1
102
RTVSPropertyOp4
 70
     1
102
RTVSPropertyOp5
 70
     1
102
RTVSPropertyOp6
 70
     1
102
RTVSPropertyOp7
 70
     1
102
RTVSPropertyOp8
 70
     1
102
RTVSPropertyOp9
 70
     1
102
RTVSPropertyOp10
 70
     1
102
RTVSPropertyOp11
 70
     1
102
RTVSPropertyOp12
 70
     1
102
RTVSPropertyOp13
 70
     1
102
RTVSPropertyOp14
 70
     1
102
RTVSPropertyOp15
 70
     1
102
RTVSPropertyOp16
 70
     1
102
RTVSPropertyOp17
 70
     1
102
RTVSPropertyOp18
 70
     1
102
RTVSPropertyOp19
 70
     1
102
RTVSPropertyOp20
 70
     1
102
RTVSPropertyOp21
 70
     1
102
RTVSPropertyOp22
 70
     1
102
RTVSPropertyOp23
 70
     1
102
RTVSPropertyOp24
 70
     1
102
RTVSPropertyOp25
 70
     1
102
RTVSPropertyOp26
 70
     1
102
RTVSPropertyOp27
 70
     1
102
RTVSPropertyOp28
 70
     1
102
RTVSPropertyOp29
 70
     1
102
RTVSPropertyOp30
 70
     1
102
RTVSPropertyOp31
 70
     1
102
RTVSPropertyOp32
 70
     1
  0
XRECORD
  5
2BE
102
{ACAD_REACTORS
330
2BD
102
}
330
2BD
100
AcDbXrecord
280
     1
102
RTVSPropertyOp0
 70
     1
102
RTVSPropertyOp1
 70
     1
102
RTVSPropertyOp2
 70
     1
102
RTVSPropertyOp3
 70
     1
102
RTVSPropertyOp4
 70
     1
102
RTVSPropertyOp5
 70
     1
102
RTVSPropertyOp6
 70
     1
102
RTVSPropertyOp7
 70
     1
102
RTVSPropertyOp8
 70
     1
102
RTVSPropertyOp9
 70
     1
102
RTVSPropertyOp10
 70
     1
102
RTVSPropertyOp11
 70
     1
102
RTVSPropertyOp12
 70
     1
102
RTVSPropertyOp13
 70
     1
102
RTVSPropertyOp14
 70
     1
102
RTVSPropertyOp15
 70
     1
102
RTVSPropertyOp16
 70
     1
102
RTVSPropertyOp17
 70
     1
102
RTVSPropertyOp18
 70
     1
102
RTVSPropertyOp19
 70
     1
102
RTVSPropertyOp20
 70
     1
102
RTVSPropertyOp21
 70
     1
102
RTVSPropertyOp22
 70
     1
102
RTVSPropertyOp23
 70
     1
102
RTVSPropertyOp24
 70
     1
102
RTVSPropertyOp25
 70
     1
102
RTVSPropertyOp26
 70
     1
102
RTVSPropertyOp27
 70
     1
102
RTVSPropertyOp28
 70
     1
102
RTVSPropertyOp29
 70
     1
102
RTVSPropertyOp30
 70
     1
102
RTVSPropertyOp31
 70
     1
102
RTVSPropertyOp32
 70
     1
  0
XRECORD
  5
2B2
102
{ACAD_REACTORS
330
2B1
102
}
330
2B1
100
AcDbXrecord
280
     1
102
RTVSPropertyOp0
 70
     1
102
RTVSPropertyOp1
 70
     1
102
RTVSPropertyOp2
 70
     1
102
RTVSPropertyOp3
 70
     1
102
RTVSPropertyOp4
 70
     1
102
RTVSPropertyOp5
 70
     1
102
RTVSPropertyOp6
 70
     1
102
RTVSPropertyOp7
 70
     1
102
RTVSPropertyOp8
 70
     1
102
RTVSPropertyOp9
 70
     1
102
RTVSPropertyOp10
 70
     1
102
RTVSPropertyOp11
 70
     1
102
RTVSPropertyOp12
 70
     1
102
RTVSPropertyOp13
 70
     1
102
RTVSPropertyOp14
 70
     1
102
RTVSPropertyOp15
 70
     1
102
RTVSPropertyOp16
 70
     1
102
RTVSPropertyOp17
 70
     1
102
RTVSPropertyOp18
 70
     1
102
RTVSPropertyOp19
 70
     1
102
RTVSPropertyOp20
 70
     1
102
RTVSPropertyOp21
 70
     1
102
RTVSPropertyOp22
 70
     1
102
RTVSPropertyOp23
 70
     1
102
RTVSPropertyOp24
 70
     1
102
RTVSPropertyOp25
 70
     1
102
RTVSPropertyOp26
 70
     1
102
RTVSPropertyOp27
 70
     1
102
RTVSPropertyOp28
 70
     1
102
RTVSPropertyOp29
 70
     1
102
RTVSPropertyOp30
 70
     1
102
RTVSPropertyOp31
 70
     1
102
RTVSPropertyOp32
 70
     1
  0
XRECORD
  5
2B4
102
{ACAD_REACTORS
330
2B3
102
}
330
2B3
100
AcDbXrecord
280
     1
102
RTVSPropertyOp0
 70
     1
102
RTVSPropertyOp1
 70
     1
102
RTVSPropertyOp2
 70
     1
102
RTVSPropertyOp3
 70
     1
102
RTVSPropertyOp4
 70
     1
102
RTVSPropertyOp5
 70
     1
102
RTVSPropertyOp6
 70
     1
102
RTVSPropertyOp7
 70
     1
102
RTVSPropertyOp8
 70
     1
102
RTVSPropertyOp9
 70
     1
102
RTVSPropertyOp10
 70
     1
102
RTVSPropertyOp11
 70
     1
102
RTVSPropertyOp12
 70
     1
102
RTVSPropertyOp13
 70
     1
102
RTVSPropertyOp14
 70
     1
102
RTVSPropertyOp15
 70
     1
102
RTVSPropertyOp16
 70
     1
102
RTVSPropertyOp17
 70
     1
102
RTVSPropertyOp18
 70
     1
102
RTVSPropertyOp19
 70
     1
102
RTVSPropertyOp20
 70
     1
102
RTVSPropertyOp21
 70
     1
102
RTVSPropertyOp22
 70
     1
102
RTVSPropertyOp23
 70
     1
102
RTVSPropertyOp24
 70
     1
102
RTVSPropertyOp25
 70
     1
102
RTVSPropertyOp26
 70
     1
102
RTVSPropertyOp27
 70
     1
102
RTVSPropertyOp28
 70
     1
102
RTVSPropertyOp29
 70
     1
102
RTVSPropertyOp30
 70
     1
102
RTVSPropertyOp31
 70
     1
102
RTVSPropertyOp32
 70
     1
  0
XRECORD
  5
2BC
102
{ACAD_REACTORS
330
2BB
102
}
330
2BB
100
AcDbXrecord
280
     1
102
RTVSPropertyOp0
 70
     1
102
RTVSPropertyOp1
 70
     1
102
RTVSPropertyOp2
 70
     1
102
RTVSPropertyOp3
 70
     1
102
RTVSPropertyOp4
 70
     1
102
RTVSPropertyOp5
 70
     1
102
RTVSPropertyOp6
 70
     1
102
RTVSPropertyOp7
 70
     1
102
RTVSPropertyOp8
 70
     1
102
RTVSPropertyOp9
 70
     1
102
RTVSPropertyOp10
 70
     1
102
RTVSPropertyOp11
 70
     1
102
RTVSPropertyOp12
 70
     1
102
RTVSPropertyOp13
 70
     1
102
RTVSPropertyOp14
 70
     1
102
RTVSPropertyOp15
 70
     1
102
RTVSPropertyOp16
 70
     1
102
RTVSPropertyOp17
 70
     1
102
RTVSPropertyOp18
 70
     1
102
RTVSPropertyOp19
 70
     1
102
RTVSPropertyOp20
 70
     1
102
RTVSPropertyOp21
 70
     1
102
RTVSPropertyOp22
 70
     1
102
RTVSPropertyOp23
 70
     1
102
RTVSPropertyOp24
 70
     1
102
RTVSPropertyOp25
 70
     1
102
RTVSPropertyOp26
 70
     1
102
RTVSPropertyOp27
 70
     1
102
RTVSPropertyOp28
 70
     1
102
RTVSPropertyOp29
 70
     1
102
RTVSPropertyOp30
 70
     1
102
RTVSPropertyOp31
 70
     1
102
RTVSPropertyOp32
 70
     1
  0
XRECORD
  5
2A0
102
{ACAD_REACTORS
330
29F
102
}
330
29F
100
AcDbXrecord
280
     1
102
RTVSPropertyOp0
 70
     1
102
RTVSPropertyOp1
 70
     1
102
RTVSPropertyOp2
 70
     1
102
RTVSPropertyOp3
 70
     1
102
RTVSPropertyOp4
 70
     1
102
RTVSPropertyOp5
 70
     1
102
RTVSPropertyOp6
 70
     1
102
RTVSPropertyOp7
 70
     1
102
RTVSPropertyOp8
 70
     1
102
RTVSPropertyOp9
 70
     1
102
RTVSPropertyOp10
 70
     1
102
RTVSPropertyOp11
 70
     1
102
RTVSPropertyOp12
 70
     1
102
RTVSPropertyOp13
 70
     1
102
RTVSPropertyOp14
 70
     1
102
RTVSPropertyOp15
 70
     1
102
RTVSPropertyOp16
 70
     1
102
RTVSPropertyOp17
 70
     1
102
RTVSPropertyOp18
 70
     1
102
RTVSPropertyOp19
 70
     1
102
RTVSPropertyOp20
 70
     1
102
RTVSPropertyOp21
 70
     1
102
RTVSPropertyOp22
 70
     1
102
RTVSPropertyOp23
 70
     1
102
RTVSPropertyOp24
 70
     1
102
RTVSPropertyOp25
 70
     1
102
RTVSPropertyOp26
 70
     1
102
RTVSPropertyOp27
 70
     1
102
RTVSPropertyOp28
 70
     1
102
RTVSPropertyOp29
 70
     1
102
RTVSPropertyOp30
 70
     1
102
RTVSPropertyOp31
 70
     1
102
RTVSPropertyOp32
 70
     1
  0
XRECORD
  5
2A2
102
{ACAD_REACTORS
330
2A1
102
}
330
2A1
100
AcDbXrecord
280
     1
102
RTVSPropertyOp0
 70
     1
102
RTVSPropertyOp1
 70
     1
102
RTVSPropertyOp2
 70
     1
102
RTVSPropertyOp3
 70
     1
102
RTVSPropertyOp4
 70
     1
102
RTVSPropertyOp5
 70
     1
102
RTVSPropertyOp6
 70
     1
102
RTVSPropertyOp7
 70
     1
102
RTVSPropertyOp8
 70
     1
102
RTVSPropertyOp9
 70
     1
102
RTVSPropertyOp10
 70
     1
102
RTVSPropertyOp11
 70
     1
102
RTVSPropertyOp12
 70
     1
102
RTVSPropertyOp13
 70
     1
102
RTVSPropertyOp14
 70
     1
102
RTVSPropertyOp15
 70
     1
102
RTVSPropertyOp16
 70
     1
102
RTVSPropertyOp17
 70
     1
102
RTVSPropertyOp18
 70
     1
102
RTVSPropertyOp19
 70
     1
102
RTVSPropertyOp20
 70
     1
102
RTVSPropertyOp21
 70
     1
102
RTVSPropertyOp22
 70
     1
102
RTVSPropertyOp23
 70
     1
102
RTVSPropertyOp24
 70
     1
102
RTVSPropertyOp25
 70
     1
102
RTVSPropertyOp26
 70
     1
102
RTVSPropertyOp27
 70
     1
102
RTVSPropertyOp28
 70
     1
102
RTVSPropertyOp29
 70
     1
102
RTVSPropertyOp30
 70
     1
102
RTVSPropertyOp31
 70
     1
102
RTVSPropertyOp32
 70
     1
  0
XRECORD
  5
2A4
102
{ACAD_REACTORS
330
2A3
102
}
330
2A3
100
AcDbXrecord
280
     1
102
RTVSPropertyOp0
 70
     1
102
RTVSPropertyOp1
 70
     1
102
RTVSPropertyOp2
 70
     1
102
RTVSPropertyOp3
 70
     1
102
RTVSPropertyOp4
 70
     1
102
RTVSPropertyOp5
 70
     1
102
RTVSPropertyOp6
 70
     1
102
RTVSPropertyOp7
 70
     1
102
RTVSPropertyOp8
 70
     1
102
RTVSPropertyOp9
 70
     1
102
RTVSPropertyOp10
 70
     1
102
RTVSPropertyOp11
 70
     1
102
RTVSPropertyOp12
 70
     1
102
RTVSPropertyOp13
 70
     1
102
RTVSPropertyOp14
 70
     1
102
RTVSPropertyOp15
 70
     1
102
RTVSPropertyOp16
 70
     1
102
RTVSPropertyOp17
 70
     1
102
RTVSPropertyOp18
 70
     1
102
RTVSPropertyOp19
 70
     1
102
RTVSPropertyOp20
 70
     1
102
RTVSPropertyOp21
 70
     1
102
RTVSPropertyOp22
 70
     1
102
RTVSPropertyOp23
 70
     1
102
RTVSPropertyOp24
 70
     1
102
RTVSPropertyOp25
 70
     1
102
RTVSPropertyOp26
 70
     1
102
RTVSPropertyOp27
 70
     1
102
RTVSPropertyOp28
 70
     1
102
RTVSPropertyOp29
 70
     1
102
RTVSPropertyOp30
 70
     1
102
RTVSPropertyOp31
 70
     1
102
RTVSPropertyOp32
 70
     1
  0
XRECORD
  5
2A6
102
{ACAD_REACTORS
330
2A5
102
}
330
2A5
100
AcDbXrecord
280
     1
102
RTVSPropertyOp0
 70
     1
102
RTVSPropertyOp1
 70
     1
102
RTVSPropertyOp2
 70
     1
102
RTVSPropertyOp3
 70
     1
102
RTVSPropertyOp4
 70
     1
102
RTVSPropertyOp5
 70
     1
102
RTVSPropertyOp6
 70
     1
102
RTVSPropertyOp7
 70
     1
102
RTVSPropertyOp8
 70
     1
102
RTVSPropertyOp9
 70
     1
102
RTVSPropertyOp10
 70
     1
102
RTVSPropertyOp11
 70
     1
102
RTVSPropertyOp12
 70
     1
102
RTVSPropertyOp13
 70
     1
102
RTVSPropertyOp14
 70
     1
102
RTVSPropertyOp15
 70
     1
102
RTVSPropertyOp16
 70
     1
102
RTVSPropertyOp17
 70
     1
102
RTVSPropertyOp18
 70
     1
102
RTVSPropertyOp19
 70
     1
102
RTVSPropertyOp20
 70
     1
102
RTVSPropertyOp21
 70
     1
102
RTVSPropertyOp22
 70
     1
102
RTVSPropertyOp23
 70
     1
102
RTVSPropertyOp24
 70
     1
102
RTVSPropertyOp25
 70
     1
102
RTVSPropertyOp26
 70
     1
102
RTVSPropertyOp27
 70
     1
102
RTVSPropertyOp28
 70
     1
102
RTVSPropertyOp29
 70
     1
102
RTVSPropertyOp30
 70
     1
102
RTVSPropertyOp31
 70
     1
102
RTVSPropertyOp32
 70
     1
  0
XRECORD
  5
2BA
102
{ACAD_REACTORS
330
2B9
102
}
330
2B9
100
AcDbXrecord
280
     1
102
RTVSPropertyOp0
 70
     1
102
RTVSPropertyOp1
 70
     1
102
RTVSPropertyOp2
 70
     1
102
RTVSPropertyOp3
 70
     1
102
RTVSPropertyOp4
 70
     1
102
RTVSPropertyOp5
 70
     1
102
RTVSPropertyOp6
 70
     1
102
RTVSPropertyOp7
 70
     1
102
RTVSPropertyOp8
 70
     1
102
RTVSPropertyOp9
 70
     1
102
RTVSPropertyOp10
 70
     1
102
RTVSPropertyOp11
 70
     1
102
RTVSPropertyOp12
 70
     1
102
RTVSPropertyOp13
 70
     1
102
RTVSPropertyOp14
 70
     1
102
RTVSPropertyOp15
 70
     1
102
RTVSPropertyOp16
 70
     1
102
RTVSPropertyOp17
 70
     1
102
RTVSPropertyOp18
 70
     1
102
RTVSPropertyOp19
 70
     1
102
RTVSPropertyOp20
 70
     1
102
RTVSPropertyOp21
 70
     1
102
RTVSPropertyOp22
 70
     1
102
RTVSPropertyOp23
 70
     1
102
RTVSPropertyOp24
 70
     1
102
RTVSPropertyOp25
 70
     1
102
RTVSPropertyOp26
 70
     1
102
RTVSPropertyOp27
 70
     1
102
RTVSPropertyOp28
 70
     1
102
RTVSPropertyOp29
 70
     1
102
RTVSPropertyOp30
 70
     1
102
RTVSPropertyOp31
 70
     1
102
RTVSPropertyOp32
 70
     1
  0
XRECORD
  5
2B0
102
{ACAD_REACTORS
330
2AF
102
}
330
2AF
100
AcDbXrecord
280
     1
102
RTVSPropertyOp0
 70
     1
102
RTVSPropertyOp1
 70
     1
102
RTVSPropertyOp2
 70
     1
102
RTVSPropertyOp3
 70
     1
102
RTVSPropertyOp4
 70
     1
102
RTVSPropertyOp5
 70
     1
102
RTVSPropertyOp6
 70
     1
102
RTVSPropertyOp7
 70
     1
102
RTVSPropertyOp8
 70
     1
102
RTVSPropertyOp9
 70
     1
102
RTVSPropertyOp10
 70
     1
102
RTVSPropertyOp11
 70
     1
102
RTVSPropertyOp12
 70
     1
102
RTVSPropertyOp13
 70
     1
102
RTVSPropertyOp14
 70
     1
102
RTVSPropertyOp15
 70
     1
102
RTVSPropertyOp16
 70
     1
102
RTVSPropertyOp17
 70
     1
102
RTVSPropertyOp18
 70
     1
102
RTVSPropertyOp19
 70
     1
102
RTVSPropertyOp20
 70
     1
102
RTVSPropertyOp21
 70
     1
102
RTVSPropertyOp22
 70
     1
102
RTVSPropertyOp23
 70
     1
102
RTVSPropertyOp24
 70
     1
102
RTVSPropertyOp25
 70
     1
102
RTVSPropertyOp26
 70
     1
102
RTVSPropertyOp27
 70
     1
102
RTVSPropertyOp28
 70
     1
102
RTVSPropertyOp29
 70
     1
102
RTVSPropertyOp30
 70
     1
102
RTVSPropertyOp31
 70
     1
102
RTVSPropertyOp32
 70
     1
  0
XRECORD
  5
2B8
102
{ACAD_REACTORS
330
2B7
102
}
330
2B7
100
AcDbXrecord
280
     1
102
RTVSPropertyOp0
 70
     1
102
RTVSPropertyOp1
 70
     1
102
RTVSPropertyOp2
 70
     1
102
RTVSPropertyOp3
 70
     1
102
RTVSPropertyOp4
 70
     1
102
RTVSPropertyOp5
 70
     1
102
RTVSPropertyOp6
 70
     1
102
RTVSPropertyOp7
 70
     1
102
RTVSPropertyOp8
 70
     1
102
RTVSPropertyOp9
 70
     1
102
RTVSPropertyOp10
 70
     1
102
RTVSPropertyOp11
 70
     1
102
RTVSPropertyOp12
 70
     1
102
RTVSPropertyOp13
 70
     1
102
RTVSPropertyOp14
 70
     1
102
RTVSPropertyOp15
 70
     1
102
RTVSPropertyOp16
 70
     1
102
RTVSPropertyOp17
 70
     1
102
RTVSPropertyOp18
 70
     1
102
RTVSPropertyOp19
 70
     1
102
RTVSPropertyOp20
 70
     1
102
RTVSPropertyOp21
 70
     1
102
RTVSPropertyOp22
 70
     1
102
RTVSPropertyOp23
 70
     1
102
RTVSPropertyOp24
 70
     1
102
RTVSPropertyOp25
 70
     1
102
RTVSPropertyOp26
 70
     1
102
RTVSPropertyOp27
 70
     1
102
RTVSPropertyOp28
 70
     1
102
RTVSPropertyOp29
 70
     1
102
RTVSPropertyOp30
 70
     1
102
RTVSPropertyOp31
 70
     1
102
RTVSPropertyOp32
 70
     1
  0
ENDSEC
  0
EOF
