  0
SECTION
  2
HEADER
  9
$ACADVER
  1
AC1015
  9
$ACADMAINTVER
 70
     6
  9
$DWGCODEPAGE
  3
ANSI_1252
  9
$INSBASE
 10
0.0
 20
0.0
 30
0.0
  9
$EXTMIN
 10
0.0
 20
0.0
 30
0.0
  9
$EXTMAX
 10
1682.0
 20
2378.0
 30
0.0
  9
$LIMMIN
 10
0.0
 20
0.0
  9
$LIMMAX
 10
1682.0
 20
2378.0
  9
$ORTHOMODE
 70
     0
  9
$REGENMODE
 70
     1
  9
$FILLMODE
 70
     1
  9
$QTEXTMODE
 70
     0
  9
$MIRRTEXT
 70
     1
  9
$LTSCALE
 40
1.0
  9
$ATTMODE
 70
     1
  9
$TEXTSIZE
 40
2.5
  9
$TRACEWID
 40
1.0
  9
$TEXTSTYLE
  7
Standard
  9
$CLAYER
  8
0
  9
$CELTYPE
  6
ByLayer
  9
$CECOLOR
 62
   256
  9
$CELTSCALE
 40
1.0
  9
$DISPSILH
 70
     0
  9
$DIMSCALE
 40
1.0
  9
$DIMASZ
 40
2.5
  9
$DIMEXO
 40
0.625
  9
$DIMDLI
 40
3.75
  9
$DIMRND
 40
0.0
  9
$DIMDLE
 40
0.0
  9
$DIMEXE
 40
1.25
  9
$DIMTP
 40
0.0
  9
$DIMTM
 40
0.0
  9
$DIMTXT
 40
2.5
  9
$DIMCEN
 40
2.5
  9
$DIMTSZ
 40
0.0
  9
$DIMTOL
 70
     0
  9
$DIMLIM
 70
     0
  9
$DIMTIH
 70
     0
  9
$DIMTOH
 70
     0
  9
$DIMSE1
 70
     0
  9
$DIMSE2
 70
     0
  9
$DIMTAD
 70
     1
  9
$DIMZIN
 70
     8
  9
$DIMBLK
  1

  9
$DIMASO
 70
     1
  9
$DIMSHO
 70
     1
  9
$DIMPOST
  1

  9
$DIMAPOST
  1

  9
$DIMALT
 70
     0
  9
$DIMALTD
 70
     3
  9
$DIMALTF
 40
0.0393700787
  9
$DIMLFAC
 40
1.0
  9
$DIMTOFL
 70
     1
  9
$DIMTVP
 40
0.0
  9
$DIMTIX
 70
     0
  9
$DIMSOXD
 70
     0
  9
$DIMSAH
 70
     0
  9
$DIMBLK1
  1

  9
$DIMBLK2
  1

  9
$DIMSTYLE
  2
ISO-25
  9
$DIMCLRD
 70
     0
  9
$DIMCLRE
 70
     0
  9
$DIMCLRT
 70
     0
  9
$DIMTFAC
 40
1.0
  9
$DIMGAP
 40
0.625
  9
$DIMJUST
 70
     0
  9
$DIMSD1
 70
     0
  9
$DIMSD2
 70
     0
  9
$DIMTOLJ
 70
     0
  9
$DIMTZIN
 70
     8
  9
$DIMALTZ
 70
     0
  9
$DIMALTTZ
 70
     0
  9
$DIMUPT
 70
     0
  9
$DIMDEC
 70
     2
  9
$DIMTDEC
 70
     2
  9
$DIMALTU
 70
     2
  9
$DIMALTTD
 70
     3
  9
$DIMTXSTY
  7
Standard
  9
$DIMAUNIT
 70
     0
  9
$DIMADEC
 70
     0
  9
$DIMALTRND
 40
0.0
  9
$DIMAZIN
 70
     0
  9
$DIMDSEP
 70
    44
  9
$DIMATFIT
 70
     3
  9
$DIMFRAC
 70
     0
  9
$DIMLDRBLK
  1

  9
$DIMLUNIT
 70
     2
  9
$DIMLWD
 70
    -2
  9
$DIMLWE
 70
    -2
  9
$DIMTMOVE
 70
     0
  9
$LUNITS
 70
     2
  9
$LUPREC
 70
     4
  9
$SKETCHINC
 40
1.0
  9
$FILLETRAD
 40
10.0
  9
$AUNITS
 70
     0
  9
$AUPREC
 70
     0
  9
$MENU
  1
.
  9
$ELEVATION
 40
0.0
  9
$PELEVATION
 40
0.0
  9
$THICKNESS
 40
0.0
  9
$LIMCHECK
 70
     0
  9
$CHAMFERA
 40
10.0
  9
$CHAMFERB
 40
10.0
  9
$CHAMFERC
 40
20.0
  9
$CHAMFERD
 40
0.0
  9
$SKPOLY
 70
     0
  9
$TDCREATE
 40
2455509.668345463
  9
$TDUCREATE
 40
2455509.626678796
  9
$TDUPDATE
 40
2455509.668345475
  9
$TDUUPDATE
 40
2455509.626678808
  9
$TDINDWG
 40
0.0000000116
  9
$TDUSRTIMER
 40
0.0000000116
  9
$USRTIMER
 70
     1
  9
$ANGBASE
 50
0.0
  9
$ANGDIR
 70
     0
  9
$PDMODE
 70
     0
  9
$PDSIZE
 40
0.0
  9
$PLINEWID
 40
0.0
  9
$SPLFRAME
 70
     0
  9
$SPLINETYPE
 70
     6
  9
$SPLINESEGS
 70
     8
  9
$HANDSEED
  5
322
  9
$SURFTAB1
 70
     6
  9
$SURFTAB2
 70
     6
  9
$SURFTYPE
 70
     6
  9
$SURFU
 70
     6
  9
$SURFV
 70
     6
  9
$UCSBASE
  2

  9
$UCSNAME
  2

  9
$UCSORG
 10
0.0
 20
0.0
 30
0.0
  9
$UCSXDIR
 10
1.0
 20
0.0
 30
0.0
  9
$UCSYDIR
 10
0.0
 20
1.0
 30
0.0
  9
$UCSORTHOREF
  2

  9
$UCSORTHOVIEW
 70
     0
  9
$UCSORGTOP
 10
0.0
 20
0.0
 30
0.0
  9
$UCSORGBOTTOM
 10
0.0
 20
0.0
 30
0.0
  9
$UCSORGLEFT
 10
0.0
 20
0.0
 30
0.0
  9
$UCSORGRIGHT
 10
0.0
 20
0.0
 30
0.0
  9
$UCSORGFRONT
 10
0.0
 20
0.0
 30
0.0
  9
$UCSORGBACK
 10
0.0
 20
0.0
 30
0.0
  9
$PUCSBASE
  2

  9
$PUCSNAME
  2

  9
$PUCSORG
 10
0.0
 20
0.0
 30
0.0
  9
$PUCSXDIR
 10
1.0
 20
0.0
 30
0.0
  9
$PUCSYDIR
 10
0.0
 20
1.0
 30
0.0
  9
$PUCSORTHOREF
  2

  9
$PUCSORTHOVIEW
 70
     0
  9
$PUCSORGTOP
 10
0.0
 20
0.0
 30
0.0
  9
$PUCSORGBOTTOM
 10
0.0
 20
0.0
 30
0.0
  9
$PUCSORGLEFT
 10
0.0
 20
0.0
 30
0.0
  9
$PUCSORGRIGHT
 10
0.0
 20
0.0
 30
0.0
  9
$PUCSORGFRONT
 10
0.0
 20
0.0
 30
0.0
  9
$PUCSORGBACK
 10
0.0
 20
0.0
 30
0.0
  9
$USERI1
 70
     0
  9
$USERI2
 70
     0
  9
$USERI3
 70
     0
  9
$USERI4
 70
     0
  9
$USERI5
 70
     0
  9
$USERR1
 40
0.0
  9
$USERR2
 40
0.0
  9
$USERR3
 40
0.0
  9
$USERR4
 40
0.0
  9
$USERR5
 40
0.0
  9
$WORLDVIEW
 70
     1
  9
$SHADEDGE
 70
     3
  9
$SHADEDIF
 70
    70
  9
$TILEMODE
 70
     1
  9
$MAXACTVP
 70
    64
  9
$PINSBASE
 10
0.0
 20
0.0
 30
0.0
  9
$PLIMCHECK
 70
     0
  9
$PEXTMIN
 10
0.0
 20
0.0
 30
0.0
  9
$PEXTMAX
 10
1682.0
 20
2378.0
 30
0.0
  9
$PLIMMIN
 10
0.0
 20
0.0
  9
$PLIMMAX
 10
1682.0
 20
2378.0
  9
$UNITMODE
 70
     0
  9
$VISRETAIN
 70
     1
  9
$PLINEGEN
 70
     0
  9
$PSLTSCALE
 70
     1
  9
$TREEDEPTH
 70
  3020
  9
$CMLSTYLE
  2
Standard
  9
$CMLJUST
 70
     0
  9
$CMLSCALE
 40
20.0
  9
$PROXYGRAPHICS
 70
     1
  9
$MEASUREMENT
 70
     1
  9
$CELWEIGHT
370
    -1
  9
$ENDCAPS
280
     0
  9
$JOINSTYLE
280
     0
  9
$LWDISPLAY
290
     0
  9
$INSUNITS
 70
     4
  9
$HYPERLINKBASE
  1

  9
$STYLESHEET
  1

  9
$XEDIT
290
     1
  9
$CEPSNTYPE
380
     0
  9
$PSTYLEMODE
290
     1
  9
$FINGERPRINTGUID
  2
{3CB08E4D-56A5-4DAA-8038-C31834021314}
  9
$VERSIONGUID
  2
{FAEB1C32-E019-11D5-929B-00C0DF256EC4}
  9
$EXTNAMES
290
     1
  9
$PSVPSCALE
 40
0.0
  9
$OLESTARTUP
290
     0
  0
ENDSEC
  0
SECTION
  2
CLASSES
  0
CLASS
  1
ACDBDICTIONARYWDFLT
  2
AcDbDictionaryWithDefault
  3
ObjectDBX Classes
 90
        0
280
     0
281
     0
  0
CLASS
  1
VISUALSTYLE
  2
AcDbVisualStyle
  3
ObjectDBX Classes
 90
     4095
280
     0
281
     0
  0
CLASS
  1
SCALE
  2
AcDbScale
  3
ObjectDBX Classes
 90
     1153
280
     0
281
     0
  0
CLASS
  1
DICTIONARYVAR
  2
AcDbDictionaryVar
  3
ObjectDBX Classes
 90
        0
280
     0
281
     0
  0
CLASS
  1
ACDBPLACEHOLDER
  2
AcDbPlaceHolder
  3
ObjectDBX Classes
 90
        0
280
     0
281
     0
  0
CLASS
  1
LAYOUT
  2
AcDbLayout
  3
ObjectDBX Classes
 90
        0
280
     0
281
     0
  0
ENDSEC
  0
SECTION
  2
TABLES
  0
TABLE
  2
VPORT
  5
8
330
0
100
AcDbSymbolTable
 70
     1
  0
VPORT
  5
29
330
8
100
AcDbSymbolTableRecord
100
AcDbViewportTableRecord
  2
*Active
 70
     0
 10
0.0
 20
0.0
 11
1.0
 21
1.0
 12
344.1869158879
 22
148.5
 13
0.0
 23
0.0
 14
10.0
 24
10.0
 15
10.0
 25
10.0
 16
0.0
 26
0.0
 36
1.0
 17
0.0
 27
0.0
 37
0.0
 40
297.0
 41
1.9729729729
 42
50.0
 43
0.0
 44
0.0
 50
0.0
 51
0.0
 71
     0
 72
   100
 73
     1
 74
     3
 75
     0
 76
     0
 77
     0
 78
     0
281
     0
 65
     1
110
0.0
120
0.0
130
0.0
111
1.0
121
0.0
131
0.0
112
0.0
122
1.0
132
0.0
 79
     0
146
0.0
  0
ENDTAB
  0
TABLE
  2
LTYPE
  5
5
330
0
100
AcDbSymbolTable
 70
     2
  0
LTYPE
  5
14
330
5
100
AcDbSymbolTableRecord
100
AcDbLinetypeTableRecord
  2
ByBlock
 70
     0
  3

 72
    65
 73
     0
 40
0.0
  0
LTYPE
  5
15
330
5
100
AcDbSymbolTableRecord
100
AcDbLinetypeTableRecord
  2
ByLayer
 70
     0
  3

 72
    65
 73
     0
 40
0.0
  0
LTYPE
  5
16
330
5
100
AcDbSymbolTableRecord
100
AcDbLinetypeTableRecord
  2
Continuous
 70
     0
  3
Solid line
 72
    65
 73
     0
 40
0.0
  0
LTYPE
  5
60
330
5
100
AcDbSymbolTableRecord
100
AcDbLinetypeTableRecord
  2
CENTER2
 70
     0
  3
Center (.5x) ___ _ ___ _ ___ _ ___ _ ___ _ ___
 72
    65
 73
     4
 40
28.575
 49
19.05
 74
     4
 75
     0
340
0
 46
0.0
 50
0.0
 44
0.0
 45
0.0
 49
-3.175
 74
     4
 75
     0
340
0
 46
0.0
 50
0.0
 44
0.0
 45
0.0
 49
3.175
 74
     4
 75
     0
340
0
 46
0.0
 50
0.0
 44
0.0
 45
0.0
 49
-3.175
 74
     4
 75
     0
340
0
 46
0.0
 50
0.0
 44
0.0
 45
0.0
  0
ENDTAB
  0
TABLE
  2
LAYER
  5
2
330
0
100
AcDbSymbolTable
 70
    15
  0
LAYER
  5
10
330
2
100
AcDbSymbolTableRecord
100
AcDbLayerTableRecord
  2
0
 70
     0
 62
     7
  6
Continuous
370
    -3
390
F
  0
LAYER
  5
5D
330
2
100
AcDbSymbolTableRecord
100
AcDbLayerTableRecord
  2
Default
 70
     0
 62
     7
  6
Continuous
370
    -3
390
F
  0
LAYER
  5
87
330
2
100
AcDbSymbolTableRecord
100
AcDbLayerTableRecord
  2
$DDT_AUDIT_GENERATED_(87)
 70
     0
 62
     7
  6
Continuous
370
    -3
390
F
  0
LAYER
  5
F1
330
2
100
AcDbSymbolTableRecord
100
AcDbLayerTableRecord
  2
$DDT_AUDIT_GENERATED_(F1)
 70
     0
 62
     7
  6
Continuous
370
    -3
390
F
  0
LAYER
  5
F5
330
2
100
AcDbSymbolTableRecord
100
AcDbLayerTableRecord
  2
$DDT_AUDIT_GENERATED_(F5)
 70
     0
 62
     7
  6
Continuous
370
    -3
390
F
  0
LAYER
  5
F9
330
2
100
AcDbSymbolTableRecord
100
AcDbLayerTableRecord
  2
02555038_GEHÄUSE
 70
     0
 62
     7
  6
Continuous
370
    -3
390
F
  0
LAYER
  5
106
330
2
100
AcDbSymbolTableRecord
100
AcDbLayerTableRecord
  2
$DDT_AUDIT_GENERATED_(106)
 70
     0
 62
     7
  6
Continuous
370
    -3
390
F
  0
LAYER
  5
146
330
2
100
AcDbSymbolTableRecord
100
AcDbLayerTableRecord
  2
$DDT_AUDIT_GENERATED_(146)
 70
     0
 62
     7
  6
Continuous
370
    -3
390
F
  0
LAYER
  5
148
330
2
100
AcDbSymbolTableRecord
100
AcDbLayerTableRecord
  2
$DDT_AUDIT_GENERATED_(148)
 70
     0
 62
     7
  6
Continuous
370
    -3
390
F
  0
LAYER
  5
155
330
2
100
AcDbSymbolTableRecord
100
AcDbLayerTableRecord
  2
$DDT_AUDIT_GENERATED_(155)
 70
     0
 62
     7
  6
Continuous
370
    -3
390
F
  0
LAYER
  5
166
330
2
100
AcDbSymbolTableRecord
100
AcDbLayerTableRecord
  2
$DDT_AUDIT_GENERATED_(166)
 70
     0
 62
     7
  6
Continuous
370
    -3
390
F
  0
LAYER
  5
171
330
2
100
AcDbSymbolTableRecord
100
AcDbLayerTableRecord
  2
$DDT_AUDIT_GENERATED_(171)
 70
     0
 62
     7
  6
Continuous
370
    -3
390
F
  0
LAYER
  5
1B6
330
2
100
AcDbSymbolTableRecord
100
AcDbLayerTableRecord
  2
$DDT_AUDIT_GENERATED_(1B6)
 70
     0
 62
     7
  6
Continuous
370
    -3
390
F
  0
LAYER
  5
1BB
330
2
100
AcDbSymbolTableRecord
100
AcDbLayerTableRecord
  2
$DDT_AUDIT_GENERATED_(1BB)
 70
     0
 62
     7
  6
Continuous
370
    -3
390
F
  0
LAYER
  5
21F
330
2
100
AcDbSymbolTableRecord
100
AcDbLayerTableRecord
  2
$DDT_AUDIT_GENERATED_(21F)
 70
     0
 62
     7
  6
Continuous
370
    -3
390
F
  0
ENDTAB
  0
TABLE
  2
STYLE
  5
3
330
0
100
AcDbSymbolTable
 70
     2
  0
STYLE
  5
11
330
3
100
AcDbSymbolTableRecord
100
AcDbTextStyleTableRecord
  2
Standard
 70
     0
 40
0.0
 41
1.0
 50
0.0
 71
     0
 42
2.5
  3
txt
  4

  0
STYLE
  5
311
330
3
100
AcDbSymbolTableRecord
100
AcDbTextStyleTableRecord
  2
SEACAD_seiso_ttf
 70
     0
 40
0.0
 41
1.0
 50
0.0
 71
     0
 42
0.2
  3
seiso.ttf
  4

  0
ENDTAB
  0
TABLE
  2
VIEW
  5
6
330
0
100
AcDbSymbolTable
 70
     0
  0
ENDTAB
  0
TABLE
  2
UCS
  5
7
330
0
100
AcDbSymbolTable
 70
     0
  0
ENDTAB
  0
TABLE
  2
APPID
  5
9
330
0
100
AcDbSymbolTable
 70
     1
  0
APPID
  5
12
330
9
100
AcDbSymbolTableRecord
100
AcDbRegAppTableRecord
  2
ACAD
 70
     0
  0
ENDTAB
  0
TABLE
  2
DIMSTYLE
  5
A
330
0
100
AcDbSymbolTable
 70
     1
100
AcDbDimStyleTable
  0
DIMSTYLE
105
27
330
A
100
AcDbSymbolTableRecord
100
AcDbDimStyleTableRecord
  2
ISO-25
 70
     0
 41
2.5
 42
0.625
 43
3.75
 44
1.25
 73
     0
 74
     0
 77
     1
 78
     8
140
2.5
141
2.5
143
0.0393700787
147
0.625
171
     3
172
     1
271
     2
272
     2
274
     3
278
    44
283
     0
284
     8
340
11
  0
ENDTAB
  0
TABLE
  2
BLOCK_RECORD
  5
1
330
0
100
AcDbSymbolTable
 70
     9
  0
BLOCK_RECORD
  5
1F
330
1
100
AcDbSymbolTableRecord
100
AcDbBlockTableRecord
  2
*Model_Space
340
22
  0
BLOCK_RECORD
  5
1B
330
1
100
AcDbSymbolTableRecord
100
AcDbBlockTableRecord
  2
*Paper_Space
340
1E
  0
BLOCK_RECORD
  5
5E
330
1
100
AcDbSymbolTableRecord
100
AcDbBlockTableRecord
  2
SEANNOT_GROUP
340
0
102
{BLKREFS
331
5F
102
}
  0
BLOCK_RECORD
  5
69
330
1
100
AcDbSymbolTableRecord
100
AcDbBlockTableRecord
  2
SEANNOT_GROUP1
340
0
102
{BLKREFS
331
6A
102
}
  0
BLOCK_RECORD
  5
73
330
1
100
AcDbSymbolTableRecord
100
AcDbBlockTableRecord
  2
SEANNOT_GROUP2
340
0
102
{BLKREFS
331
74
102
}
  0
BLOCK_RECORD
  5
79
330
1
100
AcDbSymbolTableRecord
100
AcDbBlockTableRecord
  2
SEANNOT_GROUP3
340
0
102
{BLKREFS
331
7A
102
}
  0
BLOCK_RECORD
  5
7F
330
1
100
AcDbSymbolTableRecord
100
AcDbBlockTableRecord
  2
SEANNOT_GROUP4
340
0
102
{BLKREFS
331
80
102
}
  0
BLOCK_RECORD
  5
85
330
1
100
AcDbSymbolTableRecord
100
AcDbBlockTableRecord
  2
SE
340
0
102
{BLKREFS
331
86
102
}
  0
BLOCK_RECORD
  5
17A
330
1
100
AcDbSymbolTableRecord
100
AcDbBlockTableRecord
  2
SE1
340
0
102
{BLKREFS
331
17B
102
}
  0
BLOCK_RECORD
  5
249
330
1
100
AcDbSymbolTableRecord
100
AcDbBlockTableRecord
  2
SE2
340
0
102
{BLKREFS
331
24A
102
}
  0
ENDTAB
  0
ENDSEC
  0
SECTION
  2
BLOCKS
  0
BLOCK
  5
20
330
1F
100
AcDbEntity
  8
0
100
AcDbBlockBegin
  2
*Model_Space
 70
     0
 10
0.0
 20
0.0
 30
0.0
  3
*Model_Space
  1

  0
ENDBLK
  5
21
330
1F
100
AcDbEntity
  8
0
100
AcDbBlockEnd
  0
BLOCK
  5
1C
330
1B
100
AcDbEntity
 67
     1
  8
0
100
AcDbBlockBegin
  2
*Paper_Space
 70
     0
 10
0.0
 20
0.0
 30
0.0
  3
*Paper_Space
  1

  0
ENDBLK
  5
1D
330
1B
100
AcDbEntity
 67
     1
  8
0
100
AcDbBlockEnd
  0
BLOCK
  5
67
330
5E
100
AcDbEntity
  8
0
100
AcDbBlockBegin
  2
SEANNOT_GROUP
 70
     0
 10
0.0
 20
0.0
 30
0.0
  3
SEANNOT_GROUP
  1

  0
LINE
  5
61
330
5E
100
AcDbEntity
  8
Default
  6
CENTER2
 62
     7
100
AcDbLine
 10
101.8823638259
 20
493.052935922
 30
0.0
 11
61.88236472
 21
493.052935922
 31
0.0
  0
LINE
  5
62
330
5E
100
AcDbEntity
  8
Default
  6
CENTER2
 62
     7
100
AcDbLine
 10
81.8823642729
 20
513.052935475
 30
0.0
 11
81.8823642729
 21
473.052936369
 31
0.0
  0
LINE
  5
63
330
5E
100
AcDbEntity
  8
Default
  6
CENTER2
 62
     7
100
AcDbLine
 10
106.8823637141
 20
493.052935922
 30
0.0
 11
120.3823642729
 21
493.052935922
 31
0.0
  0
LINE
  5
64
330
5E
100
AcDbEntity
  8
Default
  6
CENTER2
 62
     7
100
AcDbLine
 10
81.8823642729
 20
518.0529353632
 30
0.0
 11
81.8823642729
 21
531.552935922
 31
0.0
  0
LINE
  5
65
330
5E
100
AcDbEntity
  8
Default
  6
CENTER2
 62
     7
100
AcDbLine
 10
56.8823648317
 20
493.052935922
 30
0.0
 11
43.3823642729
 21
493.052935922
 31
0.0
  0
LINE
  5
66
330
5E
100
AcDbEntity
  8
Default
  6
CENTER2
 62
     7
100
AcDbLine
 10
81.8823642729
 20
468.0529364808
 30
0.0
 11
81.8823642729
 21
454.552935922
 31
0.0
  0
ENDBLK
  5
68
330
5E
100
AcDbEntity
  8
0
100
AcDbBlockEnd
  0
BLOCK
  5
71
330
69
100
AcDbEntity
  8
0
100
AcDbBlockBegin
  2
SEANNOT_GROUP1
 70
     0
 10
0.0
 20
0.0
 30
0.0
  3
SEANNOT_GROUP1
  1

  0
LINE
  5
6B
330
69
100
AcDbEntity
  8
Default
  6
CENTER2
 62
     7
100
AcDbLine
 10
251.8823638259
 20
493.052935922
 30
0.0
 11
211.88236472
 21
493.052935922
 31
0.0
  0
LINE
  5
6C
330
69
100
AcDbEntity
  8
Default
  6
CENTER2
 62
     7
100
AcDbLine
 10
231.8823642729
 20
513.052935475
 30
0.0
 11
231.8823642729
 21
473.052936369
 31
0.0
  0
LINE
  5
6D
330
69
100
AcDbEntity
  8
Default
  6
CENTER2
 62
     7
100
AcDbLine
 10
256.8823637141
 20
493.052935922
 30
0.0
 11
270.3823642729
 21
493.052935922
 31
0.0
  0
LINE
  5
6E
330
69
100
AcDbEntity
  8
Default
  6
CENTER2
 62
     7
100
AcDbLine
 10
231.8823642729
 20
518.0529353632
 30
0.0
 11
231.8823642729
 21
531.552935922
 31
0.0
  0
LINE
  5
6F
330
69
100
AcDbEntity
  8
Default
  6
CENTER2
 62
     7
100
AcDbLine
 10
206.8823648317
 20
493.052935922
 30
0.0
 11
193.3823642729
 21
493.052935922
 31
0.0
  0
LINE
  5
70
330
69
100
AcDbEntity
  8
Default
  6
CENTER2
 62
     7
100
AcDbLine
 10
231.8823642729
 20
468.0529364808
 30
0.0
 11
231.8823642729
 21
454.552935922
 31
0.0
  0
ENDBLK
  5
72
330
69
100
AcDbEntity
  8
0
100
AcDbBlockEnd
  0
BLOCK
  5
77
330
73
100
AcDbEntity
  8
0
100
AcDbBlockBegin
  2
SEANNOT_GROUP2
 70
     0
 10
0.0
 20
0.0
 30
0.0
  3
SEANNOT_GROUP2
  1

  0
LINE
  5
75
330
73
100
AcDbEntity
  8
Default
  6
CENTER2
 62
     7
100
AcDbLine
 10
433.8251257816
 20
493.052935922
 30
0.0
 11
393.8251266756
 21
493.052935922
 31
0.0
  0
LINE
  5
76
330
73
100
AcDbEntity
  8
Default
  6
CENTER2
 62
     7
100
AcDbLine
 10
413.8251262286
 20
513.052935475
 30
0.0
 11
413.8251262286
 21
473.052936369
 31
0.0
  0
ENDBLK
  5
78
330
73
100
AcDbEntity
  8
0
100
AcDbBlockEnd
  0
BLOCK
  5
7D
330
79
100
AcDbEntity
  8
0
100
AcDbBlockBegin
  2
SEANNOT_GROUP3
 70
     0
 10
0.0
 20
0.0
 30
0.0
  3
SEANNOT_GROUP3
  1

  0
LINE
  5
7B
330
79
100
AcDbEntity
  8
Default
  6
CENTER2
 62
     7
100
AcDbLine
 10
101.8823638259
 20
311.9344418168
 30
0.0
 11
61.88236472
 21
311.9344418168
 31
0.0
  0
LINE
  5
7C
330
79
100
AcDbEntity
  8
Default
  6
CENTER2
 62
     7
100
AcDbLine
 10
81.8823642729
 20
331.9344413698
 30
0.0
 11
81.8823642729
 21
291.9344422638
 31
0.0
  0
ENDBLK
  5
7E
330
79
100
AcDbEntity
  8
0
100
AcDbBlockEnd
  0
BLOCK
  5
83
330
7F
100
AcDbEntity
  8
0
100
AcDbBlockBegin
  2
SEANNOT_GROUP4
 70
     0
 10
0.0
 20
0.0
 30
0.0
  3
SEANNOT_GROUP4
  1

  0
LINE
  5
81
330
7F
100
AcDbEntity
  8
Default
  6
CENTER2
 62
     7
100
AcDbLine
 10
251.8823638259
 20
311.9344418168
 30
0.0
 11
211.88236472
 21
311.9344418168
 31
0.0
  0
LINE
  5
82
330
7F
100
AcDbEntity
  8
Default
  6
CENTER2
 62
     7
100
AcDbLine
 10
231.8823642729
 20
331.9344413698
 30
0.0
 11
231.8823642729
 21
291.9344422638
 31
0.0
  0
ENDBLK
  5
84
330
7F
100
AcDbEntity
  8
0
100
AcDbBlockEnd
  0
BLOCK
  5
178
330
85
100
AcDbEntity
  8
0
100
AcDbBlockBegin
  2
SE
 70
     0
 10
0.0
 20
0.0
 30
0.0
  3
SE
  1

  0
LINE
  5
88
330
85
100
AcDbEntity
  8
$DDT_AUDIT_GENERATED_(87)
  6
Continuous
 62
     7
100
AcDbLine
 10
201.1067491262
 20
515.8910374787
 30
0.0
 11
201.1067491262
 21
515.8883083482
 31
0.0
  0
ARC
  5
89
330
85
100
AcDbEntity
  8
$DDT_AUDIT_GENERATED_(87)
  6
Continuous
 62
     7
100
AcDbCircle
 10
157.2200177687
 20
-413.0930473508
 30
0.0
 40
930.0201476611875
100
AcDbArc
 50
87.0328702399
 51
87.1436284754
  0
ELLIPSE
  5
8A
330
85
100
AcDbEntity
  8
$DDT_AUDIT_GENERATED_(87)
  6
Continuous
 62
     7
100
AcDbEllipse
 10
156.8851809054
 20
544.3202044531
 30
0.0
 11
26.07029891016231
 21
-0.01413288342797664
 31
0.0
210
0.0
220
0.0
230
1.0
 40
0.1736320571
 41
-3.157559838132871
 42
-3.155005529370111
  0
ELLIPSE
  5
8B
330
85
100
AcDbEntity
  8
$DDT_AUDIT_GENERATED_(87)
  6
Continuous
 62
     7
100
AcDbEllipse
 10
156.8851809054
 20
544.3202044531
 30
0.0
 11
26.07029891016231
 21
-0.01413288342797664
 31
0.0
210
0.0
220
0.0
230
1.0
 40
0.1736320571
 41
0.0134128757802439
 42
0.0159685655256416
  0
LINE
  5
8C
330
85
100
AcDbEntity
  8
$DDT_AUDIT_GENERATED_(87)
  6
Continuous
 62
     7
100
AcDbLine
 10
217.8784033965
 20
472.3432985575
 30
0.0
 11
217.9209485002
 21
472.3145929404
 31
0.0
  0
ARC
  5
8D
330
85
100
AcDbEntity
  8
$DDT_AUDIT_GENERATED_(87)
  6
Continuous
 62
     7
100
AcDbCircle
 10
94.0479879491
 20
509.2171403492
 30
0.0
 40
26.5533635087185
100
AcDbArc
 50
257.567421275
 51
269.7853351882
  0
ARC
  5
8E
330
85
100
AcDbEntity
  8
$DDT_AUDIT_GENERATED_(87)
  6
Continuous
 62
     7
100
AcDbCircle
 10
96.8994159547
 20
770.0826333095
 30
0.0
 40
287.4338181399135
100
AcDbArc
 50
269.4117678252
 51
272.0261028871
  0
ARC
  5
8F
330
85
100
AcDbEntity
  8
$DDT_AUDIT_GENERATED_(87)
  6
Continuous
 62
     7
100
AcDbCircle
 10
115.360234916
 20
240.9059751408
 30
0.0
 40
242.0648291149628
100
AcDbArc
 50
86.2042582696
 51
91.9646434405
  0
SPLINE
  5
90
330
85
100
AcDbEntity
  8
$DDT_AUDIT_GENERATED_(87)
  6
Continuous
 62
     7
100
AcDbSpline
210
0.0
220
0.0
230
1.0
 70
     8
 71
     3
 72
    14
 73
    10
 74
     0
 42
0.0000000004526457
 43
0.0000000001
 40
0.0
 40
0.0
 40
0.0
 40
0.0
 40
0.25
 40
0.25
 40
0.5
 40
0.5
 40
0.75
 40
0.75
 40
1.0
 40
1.0
 40
1.0
 40
1.0
 10
130.7821378171886
 20
510.8295732656264
 30
0.0
 10
129.9875900965211
 20
511.2176944168219
 30
0.0
 10
128.9322117867596
 20
511.4652086149271
 30
0.0
 10
126.2843962453008
 20
511.7222922940165
 30
0.0
 10
124.7055135330948
 20
511.7322379983412
 30
0.0
 10
121.0194078007036
 20
511.6361405878588
 30
0.0
 10
118.888123552147
 20
511.530181233092
 30
0.0
 10
114.1725676719602
 20
511.3420028396454
 30
0.0
 10
111.6020804444981
 20
511.2609010684033
 30
0.0
 10
108.8296031733554
 20
511.2744757416279
 30
0.0
  0
ARC
  5
91
330
85
100
AcDbEntity
  8
$DDT_AUDIT_GENERATED_(87)
  6
Continuous
 62
     7
100
AcDbCircle
 10
109.7669206047
 20
232.1201336487
 30
0.0
 40
279.1713464577871
100
AcDbArc
 50
90.9383036441
 51
94.4036781441
  0
SPLINE
  5
92
330
85
100
AcDbEntity
  8
$DDT_AUDIT_GENERATED_(87)
  6
Continuous
 62
     7
100
AcDbSpline
210
0.0
220
0.0
230
1.0
 70
     8
 71
     3
 72
    18
 73
    14
 74
     0
 42
0.0000000003913966
 43
0.0000000001
 40
0.0
 40
0.0
 40
0.0
 40
0.0
 40
0.125
 40
0.125
 40
0.2500000000000001
 40
0.2500000000000001
 40
0.5000000000000001
 40
0.5000000000000001
 40
0.7500000000000002
 40
0.7500000000000002
 40
0.8750000000000001
 40
0.8750000000000001
 40
1.0
 40
1.0
 40
1.0
 40
1.0
 10
71.44788106015355
 20
499.7674802816586
 30
0.0
 10
71.43579282083759
 20
498.7398610228906
 30
0.0
 10
71.55900842820175
 20
497.7382034130093
 30
0.0
 10
72.03856018253958
 20
495.7791893078325
 30
0.0
 10
72.40112024958734
 20
494.812683520349
 30
0.0
 10
73.77928056384035
 20
492.0700522649457
 30
0.0
 10
75.09815991508162
 20
490.4125859035627
 30
0.0
 10
78.22663599599335
 20
487.5764638109707
 30
0.0
 10
80.06106674053444
 20
486.3750224656277
 30
0.0
 10
83.00943718889806
 20
484.9507408982944
 30
0.0
 10
84.02850422788975
 20
484.5357405692604
 30
0.0
 10
86.13650592968956
 20
483.8213398998893
 30
0.0
 10
87.23725924117664
 20
483.5201642651959
 30
0.0
 10
88.33129748030115
 20
483.2864526662628
 30
0.0
  0
SPLINE
  5
93
330
85
100
AcDbEntity
  8
$DDT_AUDIT_GENERATED_(87)
  6
Continuous
 62
     7
100
AcDbSpline
210
0.0
220
0.0
230
1.0
 70
     8
 71
     3
 72
    16
 73
    12
 74
     0
 42
0.000000000639491
 43
0.0000000001
 40
0.0
 40
0.0
 40
0.0
 40
0.0
 40
0.1131634077234598
 40
0.2288258132429653
 40
0.3516888571792033
 40
0.4705144432657652
 40
0.6001668562157528
 40
0.7291198461674346
 40
0.8216081043981285
 40
0.9110679152692482
 40
1.0
 40
1.0
 40
1.0
 40
1.0
 10
83.30749098553015
 20
510.0836359917351
 30
0.0
 10
82.70402318709607
 20
510.0368768368789
 30
0.0
 10
81.48376115610402
 20
509.9423259405091
 30
0.0
 10
79.61274728520081
 20
509.6706700107535
 30
0.0
 10
77.75983640060946
 20
509.126798479788
 30
0.0
 10
75.96589807426786
 20
508.2574336015653
 30
0.0
 10
74.3511166798167
 20
507.0791832045293
 30
0.0
 10
73.13680854981668
 20
505.731360917291
 30
0.0
 10
72.31478542913217
 20
504.4060432592888
 30
0.0
 10
71.79476953937554
 20
503.1732557029009
 30
0.0
 10
71.65253660087191
 20
502.3293772968207
 30
0.0
 10
71.58163051124355
 20
501.9086862914431
 30
0.0
  0
ARC
  5
94
330
85
100
AcDbEntity
  8
$DDT_AUDIT_GENERATED_(87)
  6
Continuous
 62
     7
100
AcDbCircle
 10
156.5193951671
 20
-415.4484344724
 30
0.0
 40
928.4231774204817
100
AcDbArc
 50
94.2118844818
 51
94.5228218999
  0
ARC
  5
95
330
85
100
AcDbEntity
  8
$DDT_AUDIT_GENERATED_(87)
  6
Continuous
 62
     7
100
AcDbCircle
 10
83.9399830837
 20
500.1525552012
 30
0.0
 40
13.90331188410385
100
AcDbArc
 50
91.2369486698
 51
92.9018557432
  0
ARC
  5
96
330
85
100
AcDbEntity
  8
$DDT_AUDIT_GENERATED_(87)
  6
Continuous
 62
     7
100
AcDbCircle
 10
132.8639450881
 20
58.4074631829
 30
0.0
 40
457.9282165714789
100
AcDbArc
 50
92.5328442364
 51
93.0657390763
  0
LINE
  5
97
330
85
100
AcDbEntity
  8
$DDT_AUDIT_GENERATED_(87)
  6
Continuous
 62
     7
100
AcDbLine
 10
83.6398502047
 20
514.052627201
 30
0.0
 11
88.6419386339
 21
514.4331760628
 31
0.0
  0
ARC
  5
98
330
85
100
AcDbEntity
  8
$DDT_AUDIT_GENERATED_(87)
  6
Continuous
 62
     7
100
AcDbCircle
 10
160.5747664624
 20
-466.9273727828
 30
0.0
 40
983.9933224112984
100
AcDbArc
 50
93.0410129732
 51
94.1922308522
  0
ARC
  5
99
330
85
100
AcDbEntity
  8
$DDT_AUDIT_GENERATED_(87)
  6
Continuous
 62
     7
100
AcDbCircle
 10
603.5169056165
 20
770.0866250745
 30
0.0
 40
529.8117889521426
100
AcDbArc
 50
208.6465182745
 51
211.3449821076
  0
ELLIPSE
  5
9A
330
85
100
AcDbEntity
  8
$DDT_AUDIT_GENERATED_(87)
  6
Continuous
 62
     7
100
AcDbEllipse
 10
84.2668037719
 20
506.0772477755
 30
0.0
 11
0.6284362041889258
 21
-7.975278549195783
 31
0.0
210
0.0
220
0.0
230
0.9999999999999998
 40
0.0931558339
 41
3.139598708875691
 42
3.266413322807208
  0
LINE
  5
9B
330
85
100
AcDbEntity
  8
$DDT_AUDIT_GENERATED_(87)
  6
Continuous
 62
     7
100
AcDbLine
 10
225.4025444994
 20
510.4657244191
 30
0.0
 11
225.4025444994
 21
483.2857493231
 31
0.0
  0
SPLINE
  5
9C
330
85
100
AcDbEntity
  8
$DDT_AUDIT_GENERATED_(87)
  6
Continuous
 62
     7
100
AcDbSpline
210
0.0
220
0.0
230
1.0
 70
     8
 71
     3
 72
    19
 73
    15
 74
     0
 42
0.0000000004529443
 43
0.0000000001
 40
0.0
 40
0.0
 40
0.0
 40
0.0
 40
0.0596743241212337
 40
0.1148240746424569
 40
0.1654422097290309
 40
0.2115226580071078
 40
0.2530605984431858
 40
0.3818407741192565
 40
0.5032175729510917
 40
0.6031091085433061
 40
0.7026031665422718
 40
0.8018281351504642
 40
0.900914906529021
 40
1.0
 40
1.0
 40
1.0
 40
1.0
 10
204.9042850248886
 20
511.2744787223906
 30
0.0
 10
204.2528967942857
 20
511.2740847772261
 30
0.0
 10
202.9995093129292
 20
511.2733267562575
 30
0.0
 10
201.2643098043141
 20
511.3022960881854
 30
0.0
 10
199.7187164862964
 20
511.3429802413245
 30
0.0
 10
198.3568725425082
 20
511.3903652949108
 30
0.0
 10
196.2914970941119
 20
511.4715860903101
 30
0.0
 10
193.689272526458
 20
511.5862086405437
 30
0.0
 10
190.9171054513269
 20
511.6942425902174
 30
0.0
 10
188.6762142082574
 20
511.7206475563922
 30
0.0
 10
186.8454024247533
 20
511.6630712178917
 30
0.0
 10
185.2815293474567
 20
511.506394110875
 30
0.0
 10
183.9593591225965
 20
511.248520248255
 30
0.0
 10
183.287618072765
 20
510.9692497786868
 30
0.0
 10
182.9517503916419
 20
510.8296157261846
 30
0.0
  0
ARC
  5
9D
330
85
100
AcDbEntity
  8
$DDT_AUDIT_GENERATED_(87)
  6
Continuous
 62
     7
100
AcDbCircle
 10
203.715613995
 20
227.307661763
 30
0.0
 40
283.9873437352784
100
AcDbArc
 50
85.6202960437
 51
89.0268996228
  0
SPLINE
  5
9E
330
85
100
AcDbEntity
  8
$DDT_AUDIT_GENERATED_(87)
  6
Continuous
 62
     7
100
AcDbSpline
210
0.0
220
0.0
230
1.0
 70
     8
 71
     3
 72
    19
 73
    15
 74
     0
 42
0.0000000004108901
 43
0.0000000001
 40
0.0
 40
0.0
 40
0.0
 40
0.0
 40
0.0547811076759752
 40
0.1144022789673924
 40
0.1788498036095355
 40
0.2481094111178678
 40
0.2908981766901845
 40
0.3722559451295644
 40
0.496501706612262
 40
0.6327791306243004
 40
0.7474593246045617
 40
0.8367589432818486
 40
0.9208974335877732
 40
1.0
 40
1.0
 40
1.0
 40
1.0
 10
182.3483438561929
 20
482.439835907906
 30
0.0
 10
182.5314049941433
 20
482.429937157108
 30
0.0
 10
182.9137012320316
 20
482.4092650732771
 30
0.0
 10
183.6484146283815
 20
482.404442104253
 30
0.0
 10
184.5596443778484
 20
482.4177964141252
 30
0.0
 10
185.5158225850331
 20
482.4481853116455
 30
0.0
 10
186.6723345154328
 20
482.4992625268771
 30
0.0
 10
188.3128838222551
 20
482.5751053598697
 30
0.0
 10
190.9122401446337
 20
482.704440640397
 30
0.0
 10
194.2277478691172
 20
482.834179026331
 30
0.0
 10
197.6236678757453
 20
482.9235392763707
 30
0.0
 10
200.7603970331694
 20
482.9430779814677
 30
0.0
 10
203.6804050330045
 20
482.9193836673897
 30
0.0
 10
205.6961768887964
 20
482.857883568947
 30
0.0
 10
206.6729699229776
 20
482.8280821469321
 30
0.0
  0
ARC
  5
9F
330
85
100
AcDbEntity
  8
$DDT_AUDIT_GENERATED_(87)
  6
Continuous
 62
     7
100
AcDbCircle
 10
216.8257573302
 20
768.9918701125
 30
0.0
 40
286.3438363837319
100
AcDbArc
 50
267.9680588538
 51
270.5922116263
  0
ARC
  5
A0
330
85
100
AcDbEntity
  8
$DDT_AUDIT_GENERATED_(87)
  6
Continuous
 62
     7
100
AcDbCircle
 10
219.6571245733
 20
509.4786658907
 30
0.0
 40
26.81564335316748
100
AcDbArc
 50
270.27401037
 51
282.3718984139
  0
ARC
  5
A1
330
85
100
AcDbEntity
  8
$DDT_AUDIT_GENERATED_(87)
  6
Continuous
 62
     7
100
AcDbCircle
 10
-143.2931346445
 20
673.3694750464
 30
0.0
 40
363.8330340976238
100
AcDbArc
 50
329.7681025581
 51
333.0916148086
  0
ARC
  5
A2
330
85
100
AcDbEntity
  8
$DDT_AUDIT_GENERATED_(87)
  6
Continuous
 62
     7
100
AcDbCircle
 10
180.8736820251
 20
58.4843124781
 30
0.0
 40
457.8512776461814
100
AcDbArc
 50
86.9342188989
 51
87.1781163983
  0
ARC
  5
A3
330
85
100
AcDbEntity
  8
$DDT_AUDIT_GENERATED_(87)
  6
Continuous
 62
     7
100
AcDbCircle
 10
144.8885785756
 20
-512.1519877582
 30
0.0
 40
1029.735831879762
100
AcDbArc
 50
84.9307347235
 51
85.2536353295
  0
LINE
  5
A4
330
85
100
AcDbEntity
  8
$DDT_AUDIT_GENERATED_(87)
  6
Continuous
 62
     7
100
AcDbLine
 10
225.0919035807
 20
514.4331800298
 30
0.0
 11
230.0940460852
 21
514.052627201
 31
0.0
  0
ARC
  5
A5
330
85
100
AcDbEntity
  8
$DDT_AUDIT_GENERATED_(87)
  6
Continuous
 62
     7
100
AcDbCircle
 10
153.1122139608
 20
-467.6696956399
 30
0.0
 40
984.7370888295263
100
AcDbArc
 50
85.8082072653
 51
86.9585552869
  0
SPLINE
  5
A6
330
85
100
AcDbEntity
  8
$DDT_AUDIT_GENERATED_(87)
  6
Continuous
 62
     7
100
AcDbSpline
210
0.0
220
0.0
230
1.0
 70
     8
 71
     3
 72
    18
 73
    14
 74
     0
 42
0.0000000003915956
 43
0.0000000001
 40
0.0
 40
0.0
 40
0.0
 40
0.0
 40
0.0631454292125122
 40
0.1256547218395587
 40
0.1877728287597804
 40
0.2497485205269867
 40
0.3764423280878449
 40
0.4996441614089043
 40
0.6268975761107478
 40
0.7498274853275596
 40
0.8355033358458803
 40
0.9183217304015524
 40
1.0
 40
1.0
 40
1.0
 40
1.0
 10
225.402544499378
 20
483.285749323123
 30
0.0
 10
225.9554815885107
 20
483.4133012322866
 30
0.0
 10
227.0557853950763
 20
483.6671200722133
 30
0.0
 10
228.6565664193886
 20
484.1629522103614
 30
0.0
 10
230.2070478492118
 20
484.7402166387618
 30
0.0
 10
232.2238513358285
 20
485.6375110591756
 30
0.0
 10
234.5948035974242
 20
486.9740302454833
 30
0.0
 10
237.1514767006287
 20
488.9531715118447
 30
0.0
 10
239.3059723335833
 20
491.2454735388837
 30
0.0
 10
240.8009597089959
 20
493.5931261071618
 30
0.0
 10
241.7130452780296
 20
495.7891522570367
 30
0.0
 10
242.2130126612246
 20
497.7652881844269
 30
0.0
 10
242.2618065813671
 20
499.1020787287201
 30
0.0
 10
242.286034446319
 20
499.7658413590136
 30
0.0
  0
SPLINE
  5
A7
330
85
100
AcDbEntity
  8
$DDT_AUDIT_GENERATED_(87)
  6
Continuous
 62
     7
100
AcDbSpline
210
0.0
220
0.0
230
1.0
 70
     8
 71
     3
 72
    18
 73
    14
 74
     0
 42
0.0000000006400116
 43
0.0000000001
 40
0.0
 40
0.0
 40
0.0
 40
0.0
 40
0.0531640679864836
 40
0.1062398359970212
 40
0.1597775234165905
 40
0.2143131534937741
 40
0.270353913654144
 40
0.3985403072003802
 40
0.5285725010508469
 40
0.6470366916532072
 40
0.7707467601919014
 40
0.8868626651985686
 40
1.0
 40
1.0
 40
1.0
 40
1.0
 10
242.1522657786017
 20
501.908686291438
 30
0.0
 10
242.1153522854896
 20
502.1601789089219
 30
0.0
 10
242.0415866087301
 20
502.6627464408629
 30
0.0
 10
241.8225755475995
 20
503.4066593282769
 30
0.0
 10
241.5247526624234
 20
504.1384263413364
 30
0.0
 10
241.1400720626623
 20
504.8576020200859
 30
0.0
 10
240.4780408546178
 20
505.8588243906633
 30
0.0
 10
239.391996394711
 20
507.0659486676958
 30
0.0
 10
237.7826495679035
 20
508.2441759678601
 30
0.0
 10
235.9864182208333
 20
509.1186137015475
 30
0.0
 10
234.1297824744955
 20
509.6674981559432
 30
0.0
 10
232.2523522496148
 20
509.9443083260186
 30
0.0
 10
231.0297594448802
 20
510.0375974558309
 30
0.0
 10
230.4264053043198
 20
510.0836359917388
 30
0.0
  0
ARC
  5
A8
330
85
100
AcDbEntity
  8
$DDT_AUDIT_GENERATED_(87)
  6
Continuous
 62
     7
100
AcDbCircle
 10
229.8049308198
 20
500.1644916952
 30
0.0
 40
13.89114449804427
100
AcDbArc
 50
87.1353794401
 51
88.8074214713
  0
SPLINE
  5
A9
330
85
100
AcDbEntity
  8
$DDT_AUDIT_GENERATED_(87)
  6
Continuous
 62
     7
100
AcDbSpline
210
0.0
220
0.0
230
1.0
 70
     8
 71
     3
 72
    23
 73
    19
 74
     0
 42
0.000000000356345
 43
0.0000000001
 40
0.0
 40
0.0
 40
0.0
 40
0.0
 40
0.0432256457473279
 40
0.0867577840947101
 40
0.1306892080954715
 40
0.175106398349678
 40
0.2200889788211959
 40
0.2657093846507191
 40
0.3120325464228405
 40
0.3591148228611135
 40
0.4070063426342894
 40
0.4557507484453219
 40
0.5053853698640625
 40
0.5949596098561548
 40
0.689086600863233
 40
0.7879072310189649
 40
0.8915206600459243
 40
1.0
 40
1.0
 40
1.0
 40
1.0
 10
243.7926020443442
 20
499.2756370036582
 30
0.0
 10
243.792507249358
 20
498.8896909629293
 30
0.0
 10
243.7921666467827
 20
498.1151754068773
 30
0.0
 10
243.6656480686375
 20
496.9548332643296
 30
0.0
 10
243.447965666864
 20
495.7971731357262
 30
0.0
 10
243.1305659138154
 20
494.6463109972593
 30
0.0
 10
242.7167542516751
 20
493.506353636799
 30
0.0
 10
242.2067043013747
 20
492.3813558212115
 30
0.0
 10
241.6015559723947
 20
491.2753990122498
 30
0.0
 10
240.9023386969011
 20
490.1925639115856
 30
0.0
 10
240.1102728681076
 20
489.1370188934954
 30
0.0
 10
239.2266309287999
 20
488.1131342850634
 30
0.0
 10
237.9981407824641
 20
486.866102162692
 30
0.0
 10
236.3213361887985
 20
485.4459707202333
 30
0.0
 10
234.089379968946
 20
483.9390538709919
 30
0.0
 10
231.5606044699217
 20
482.6023859411804
 30
0.0
 10
228.7533272740243
 20
481.4503183265272
 30
0.0
 10
226.7327813018223
 20
480.9191355303616
 30
0.0
 10
225.6993302583799
 20
480.6474508359742
 30
0.0
  0
ARC
  5
AA
330
85
100
AcDbEntity
  8
$DDT_AUDIT_GENERATED_(87)
  6
Continuous
 62
     7
100
AcDbCircle
 10
217.7671232517
 20
756.4027182004
 30
0.0
 40
276.4954542353432
100
AcDbArc
 50
267.5181940692
 51
270.3445539912
  0
SPLINE
  5
AB
330
85
100
AcDbEntity
  8
$DDT_AUDIT_GENERATED_(87)
  6
Continuous
 62
     7
100
AcDbSpline
210
0.0
220
0.0
230
1.0
 70
     8
 71
     3
 72
    20
 73
    16
 74
     0
 42
0.0000000004029557
 43
0.0000000001
 40
0.0
 40
0.0
 40
0.0
 40
0.0
 40
0.0414823839714417
 40
0.0830857975377625
 40
0.1248665550137396
 40
0.1668796694715728
 40
0.2091786840055065
 40
0.2518155257678772
 40
0.3764080074622261
 40
0.5024727884070663
 40
0.6267939308751845
 40
0.7510449720794398
 40
0.8342632033812277
 40
0.9171412981052188
 40
1.0
 40
1.0
 40
1.0
 40
1.0
 10
205.7942781082067
 20
480.1666105099112
 30
0.0
 10
205.2666740366641
 20
480.1895228027036
 30
0.0
 10
204.209926548418
 20
480.235414229398
 30
0.0
 10
202.6721116344548
 20
480.286367145919
 30
0.0
 10
201.1674261034556
 20
480.3258661797839
 30
0.0
 10
199.6995438857468
 20
480.3536711786987
 30
0.0
 10
198.2676974049934
 20
480.3712622036392
 30
0.0
 10
195.9827674205595
 20
480.3848229036061
 30
0.0
 10
193.0020661668643
 20
480.3672973608305
 30
0.0
 10
189.641942624388
 20
480.3112546224992
 30
0.0
 10
186.7360128654453
 20
480.2515801224259
 30
0.0
 10
184.5757621694424
 20
480.224509650902
 30
0.0
 10
183.0000741834187
 20
480.2382772537225
 30
0.0
 10
181.8523969685128
 20
480.2804241819602
 30
0.0
 10
181.2761979653863
 20
480.3429559770055
 30
0.0
 10
180.9881321742877
 20
480.3742181511872
 30
0.0
  0
ELLIPSE
  5
AC
330
85
100
AcDbEntity
  8
$DDT_AUDIT_GENERATED_(87)
  6
Continuous
 62
     7
100
AcDbEllipse
 10
229.467092518
 20
506.0772477755
 30
0.0
 11
-0.6284362041817648
 21
-7.975278549195647
 31
0.0
210
0.0
220
0.0
230
0.9999999999999998
 40
0.0931558339
 41
3.016771812680611
 42
3.14358659830796
  0
ARC
  5
AD
330
85
100
AcDbEntity
  8
$DDT_AUDIT_GENERATED_(87)
  6
Continuous
 62
     7
100
AcDbCircle
 10
234.4700697568
 20
495.2174001046
 30
0.0
 40
18.39255763936597
100
AcDbArc
 50
58.8736059123
 51
85.6159560062
  0
ARC
  5
AE
330
85
100
AcDbEntity
  8
$DDT_AUDIT_GENERATED_(87)
  6
Continuous
 62
     7
100
AcDbCircle
 10
168.8453177139
 20
-512.1519877538
 30
0.0
 40
1029.735831875377
100
AcDbArc
 50
94.7463646705
 51
95.0692652765
  0
ARC
  5
AF
330
85
100
AcDbEntity
  8
$DDT_AUDIT_GENERATED_(87)
  6
Continuous
 62
     7
100
AcDbCircle
 10
79.2637340656
 20
495.2175107601
 30
0.0
 40
18.39244023950421
100
AcDbArc
 50
94.3837831344
 51
121.1008492751
  0
LINE
  5
B0
330
85
100
AcDbEntity
  8
$DDT_AUDIT_GENERATED_(87)
  6
Continuous
 62
     7
100
AcDbLine
 10
252.2672935195
 20
499.8590595989
 30
0.0
 11
252.2879112247
 21
499.8642658406
 31
0.0
  0
LINE
  5
B1
330
85
100
AcDbEntity
  8
$DDT_AUDIT_GENERATED_(87)
  6
Continuous
 62
     7
100
AcDbLine
 10
252.4559071626
 20
486.9906142313
 30
0.0
 11
252.4768930634
 21
486.9859633571
 31
0.0
  0
LINE
  5
B2
330
85
100
AcDbEntity
  8
$DDT_AUDIT_GENERATED_(87)
  6
Continuous
 62
     7
100
AcDbLine
 10
95.8419530896
 20
472.3133631186
 30
0.0
 11
95.8851957689
 21
472.3425349096
 31
0.0
  0
ARC
  5
B3
330
85
100
AcDbEntity
  8
$DDT_AUDIT_GENERATED_(87)
  6
Continuous
 62
     7
100
AcDbCircle
 10
81.8823349311
 20
493.0529134533
 30
0.0
 40
24.99999999998391
100
AcDbArc
 50
303.8470039371
 51
303.9441677324
  0
ARC
  5
B4
330
85
100
AcDbEntity
  8
$DDT_AUDIT_GENERATED_(87)
  6
Continuous
 62
     7
100
AcDbCircle
 10
231.8823933581
 20
493.0529136462
 30
0.0
 40
25.0000000000747
100
AcDbArc
 50
236.0507856476
 51
236.1480337706
  0
ARC
  5
B5
330
85
100
AcDbEntity
  8
$DDT_AUDIT_GENERATED_(87)
  6
Continuous
 62
     7
100
AcDbCircle
 10
156.8618795728
 20
411.5969771979
 30
0.0
 40
108.2921826509438
100
AcDbArc
 50
78.9988531584
 51
83.8882448233
  0
SPLINE
  5
B6
330
85
100
AcDbEntity
  8
$DDT_AUDIT_GENERATED_(87)
  6
Continuous
 62
     7
100
AcDbSpline
210
0.0
220
0.0
230
1.0
 70
     8
 71
     3
 72
    14
 73
    10
 74
     0
 42
0.0000000009229189
 43
0.0000000001
 40
0.0
 40
0.0
 40
0.0
 40
0.0
 40
0.25
 40
0.25
 40
0.5
 40
0.5
 40
0.75
 40
0.75
 40
1.0
 40
1.0
 40
1.0
 40
1.0
 10
129.5989600041588
 20
528.2704379899837
 30
0.0
 10
129.7084425138407
 20
528.3918622097015
 30
0.0
 10
130.0059547255578
 20
528.2474869800519
 30
0.0
 10
131.0174193573827
 20
528.0009672916676
 30
0.0
 10
131.7452742291576
 20
527.9195461622905
 30
0.0
 10
133.5353225054182
 20
528.2462878632042
 30
0.0
 10
134.6039306680669
 20
528.6534872695022
 30
0.0
 10
136.9871171836028
 20
529.7055872104945
 30
0.0
 10
138.2920870997893
 20
530.3301483691092
 30
0.0
 10
139.7576713250092
 20
530.8424085683988
 30
0.0
  0
SPLINE
  5
B7
330
85
100
AcDbEntity
  8
$DDT_AUDIT_GENERATED_(87)
  6
Continuous
 62
     7
100
AcDbSpline
210
0.0
220
0.0
230
1.0
 70
     8
 71
     3
 72
    14
 73
    10
 74
     0
 42
0.0000000009213393
 43
0.0000000001
 40
0.0
 40
0.0
 40
0.0
 40
0.0
 40
0.25
 40
0.25
 40
0.5
 40
0.5
 40
0.75
 40
0.75
 40
1.0
 40
1.0
 40
1.0
 40
1.0
 10
173.9789075064412
 20
530.8517714277156
 30
0.0
 10
175.4449852821357
 20
530.3393668821321
 30
0.0
 10
176.7542930846559
 20
529.7130409199267
 30
0.0
 10
179.1351166693889
 20
528.6609143238243
 30
0.0
 10
180.1888472103707
 20
528.256212140885
 30
0.0
 10
181.9976024078821
 20
527.9230137737368
 30
0.0
 10
182.7315059529195
 20
528.0061082248592
 30
0.0
 10
183.7463397470496
 20
528.2569389064772
 30
0.0
 10
184.0440157953087
 20
528.4030360376054
 30
0.0
 10
184.1520818551572
 20
528.2812013896146
 30
0.0
  0
ARC
  5
B8
330
85
100
AcDbEntity
  8
$DDT_AUDIT_GENERATED_(87)
  6
Continuous
 62
     7
100
AcDbCircle
 10
194.961254612
 20
609.9158244839
 30
0.0
 40
93.69049761976099
100
AcDbArc
 50
260.0156618366
 51
270.5149591957
  0
ARC
  5
B9
330
85
100
AcDbEntity
  8
$DDT_AUDIT_GENERATED_(87)
  6
Continuous
 62
     7
100
AcDbCircle
 10
118.7495265418
 20
610.2015091581
 30
0.0
 40
93.9740977932432
100
AcDbArc
 50
269.5134881659
 51
279.9634482125
  0
ARC
  5
BA
330
85
100
AcDbEntity
  8
$DDT_AUDIT_GENERATED_(87)
  6
Continuous
 62
     7
100
AcDbCircle
 10
196.8462848239
 20
529.1670211361
 30
0.0
 40
12.92327497227463
100
AcDbArc
 50
254.7815212383
 51
263.8511222285
  0
ARC
  5
BB
330
85
100
AcDbEntity
  8
$DDT_AUDIT_GENERATED_(87)
  6
Continuous
 62
     7
100
AcDbCircle
 10
197.1250003257
 20
529.1647352858
 30
0.0
 40
13.00297065251089
100
AcDbArc
 50
183.8961711257
 51
264.1660736296
  0
SPLINE
  5
BC
330
85
100
AcDbEntity
  8
$DDT_AUDIT_GENERATED_(87)
  6
Continuous
 62
     7
100
AcDbSpline
210
0.0
220
0.0
230
1.0
 70
     8
 71
     3
 72
    14
 73
    10
 74
     0
 42
0.0000000006642634
 43
0.0000000001
 40
0.0
 40
0.0
 40
0.0
 40
0.0
 40
0.25
 40
0.25
 40
0.5
 40
0.5
 40
0.75
 40
0.75
 40
1.0
 40
1.0
 40
1.0
 40
1.0
 10
178.7172923195988
 20
517.6442523000926
 30
0.0
 10
177.8337167671897
 20
518.0185769482734
 30
0.0
 10
177.0202303950468
 20
518.639616929627
 30
0.0
 10
175.6276745577238
 20
520.3031830158794
 30
0.0
 10
175.0489258697549
 20
521.3453259159719
 30
0.0
 10
174.1935322518053
 20
523.7296041070014
 30
0.0
 10
173.9170843629571
 20
525.0711901760768
 30
0.0
 10
173.6987116051616
 20
527.8978398642341
 30
0.0
 10
173.7568370386887
 20
529.3822523605529
 30
0.0
 10
173.9789075064412
 20
530.8517714277156
 30
0.0
  0
ELLIPSE
  5
BD
330
85
100
AcDbEntity
  8
$DDT_AUDIT_GENERATED_(87)
  6
Continuous
 62
     7
100
AcDbEllipse
 10
131.4874023718
 20
530.084849013
 30
0.0
 11
2.442500000367713
 21
-12.76848439511143
 31
0.0
210
0.0
220
0.0
230
0.9999999999999998
 40
0.6370308338
 41
0.1358394498437928
 42
1.508464584343689
  0
SPLINE
  5
BE
330
85
100
AcDbEntity
  8
$DDT_AUDIT_GENERATED_(87)
  6
Continuous
 62
     7
100
AcDbSpline
210
0.0
220
0.0
230
1.0
 70
     8
 71
     3
 72
    18
 73
    14
 74
     0
 42
0.0000000018813331
 43
0.0000000001
 40
0.0
 40
0.0
 40
0.0
 40
0.0
 40
0.2499999999999998
 40
0.2499999999999998
 40
0.4999999999999996
 40
0.4999999999999996
 40
0.6249999999999997
 40
0.6249999999999997
 40
0.7499999999999998
 40
0.7499999999999998
 40
0.8749999999999999
 40
0.8749999999999999
 40
1.0
 40
1.0
 40
1.0
 40
1.0
 10
167.9436287007932
 20
486.0690008983594
 30
0.0
 10
167.7530366260569
 20
486.2084839827318
 30
0.0
 10
167.5039990969191
 20
486.3357595424295
 30
0.0
 10
166.9023730938255
 20
486.5636122728125
 30
0.0
 10
166.5496028812154
 20
486.6650021253693
 30
0.0
 10
165.9228011098115
 20
486.7963779001486
 30
0.0
 10
165.69618999437
 20
486.8367571053698
 30
0.0
 10
165.213674046204
 20
486.9073290606332
 30
0.0
 10
164.9569348142768
 20
486.9378058185251
 30
0.0
 10
164.4038514656333
 20
486.9866931578111
 30
0.0
 10
164.1040908728647
 20
487.0052142017626
 30
0.0
 10
163.4739529087991
 20
487.023970317142
 30
0.0
 10
163.1427889032546
 20
487.0246073177441
 30
0.0
 10
162.7878160466636
 20
487.0119809787364
 30
0.0
  0
ARC
  5
BF
330
85
100
AcDbEntity
  8
$DDT_AUDIT_GENERATED_(87)
  6
Continuous
 62
     7
100
AcDbCircle
 10
156.8697249402
 20
653.2320975945
 30
0.0
 40
166.3254369304849
100
AcDbArc
 50
267.9581432139
 51
272.0390941907
  0
ARC
  5
C0
330
85
100
AcDbEntity
  8
$DDT_AUDIT_GENERATED_(87)
  6
Continuous
 62
     7
100
AcDbCircle
 10
150.0154525421
 20
477.5267563412
 30
0.0
 40
9.530813024824823
100
AcDbArc
 50
84.4113415067
 51
116.3212786155
  0
ARC
  5
C1
330
85
100
AcDbEntity
  8
$DDT_AUDIT_GENERATED_(87)
  6
Continuous
 62
     7
100
AcDbCircle
 10
41.5443776003
 20
629.1323837235
 30
0.0
 40
177.0142465303276
100
AcDbArc
 50
302.3646242673
 51
306.0795417826
  0
ARC
  5
C2
330
85
100
AcDbEntity
  8
$DDT_AUDIT_GENERATED_(87)
  6
Continuous
 62
     7
100
AcDbCircle
 10
598.2336993701
 20
750.1533634147
 30
0.0
 40
524.5173623873281
100
AcDbArc
 50
207.4063025093
 51
209.7121962324
  0
SPLINE
  5
C3
330
85
100
AcDbEntity
  8
$DDT_AUDIT_GENERATED_(87)
  6
Continuous
 62
     7
100
AcDbSpline
210
0.0
220
0.0
230
1.0
 70
     8
 71
     3
 72
    20
 73
    16
 74
     0
 42
0.0000000010189884
 43
0.0000000001
 40
0.0
 40
0.0
 40
0.0
 40
0.0
 40
0.2499999999999984
 40
0.2499999999999984
 40
0.4999999999999968
 40
0.4999999999999968
 40
0.624999999999998
 40
0.624999999999998
 40
0.7499999999999991
 40
0.7499999999999991
 40
0.8750000000000003
 40
0.8750000000000003
 40
0.9375000000000002
 40
0.9375000000000002
 40
1.0
 40
1.0
 40
1.0
 40
1.0
 10
142.6767173474712
 20
490.1797117185394
 30
0.0
 10
142.9317703319091
 20
490.7093599346347
 30
0.0
 10
143.3040716167392
 20
491.2086508552291
 30
0.0
 10
144.281143295163
 20
492.1531451281929
 30
0.0
 10
144.8939639245163
 20
492.6004042622712
 30
0.0
 10
145.9661223726282
 20
493.1869567003397
 30
0.0
 10
146.3481636079443
 20
493.3685396897367
 30
0.0
 10
147.1666609496062
 20
493.7014664360148
 30
0.0
 10
147.6066845978423
 20
493.8536006077336
 30
0.0
 10
148.5205818979014
 20
494.1136897488204
 30
0.0
 10
148.9964795341777
 20
494.2229194105561
 30
0.0
 10
149.7429254094256
 20
494.3508685884566
 30
0.0
 10
149.9978244813115
 20
494.3875005288372
 30
0.0
 10
150.5105618684202
 20
494.4464169629138
 30
0.0
 10
150.7693726247698
 20
494.4689050520531
 30
0.0
 10
151.0307765382818
 20
494.4839496439361
 30
0.0
  0
ARC
  5
C4
330
85
100
AcDbEntity
  8
$DDT_AUDIT_GENERATED_(87)
  6
Continuous
 62
     7
100
AcDbCircle
 10
-41.2031981836
 20
626.6122197008
 30
0.0
 40
242.9708387406248
100
AcDbArc
 50
327.0570288438
 51
332.9435379735
  0
ARC
  5
C5
330
85
100
AcDbEntity
  8
$DDT_AUDIT_GENERATED_(87)
  6
Continuous
 62
     7
100
AcDbCircle
 10
156.8703314957
 20
708.8322458164
 30
0.0
 40
214.4278257925595
100
AcDbArc
 50
268.4394598844
 51
271.558139905
  0
SPLINE
  5
C6
330
85
100
AcDbEntity
  8
$DDT_AUDIT_GENERATED_(87)
  6
Continuous
 62
     7
100
AcDbSpline
210
0.0
220
0.0
230
1.0
 70
     8
 71
     3
 72
    14
 73
    10
 74
     0
 42
0.0000000010178218
 43
0.0000000001
 40
0.0
 40
0.0
 40
0.0
 40
0.0
 40
0.25
 40
0.25
 40
0.5
 40
0.5
 40
0.75
 40
0.75
 40
1.0
 40
1.0
 40
1.0
 40
1.0
 10
162.7009070598976
 20
494.4837052038492
 30
0.0
 10
163.7350882915266
 20
494.4243013770163
 30
0.0
 10
164.7541261114474
 20
494.2440394908248
 30
0.0
 10
166.5855588500757
 20
493.7228548840937
 30
0.0
 10
167.4029531597489
 20
493.3856695306152
 30
0.0
 10
168.8373477892327
 20
492.6018831452439
 30
0.0
 10
169.4346143526537
 20
492.1674406972774
 30
0.0
 10
170.4206352701879
 20
491.2193276051791
 30
0.0
 10
170.8039246785084
 20
490.7042224630783
 30
0.0
 10
171.0566527023349
 20
490.179169910757
 30
0.0
  0
ARC
  5
C7
330
85
100
AcDbEntity
  8
$DDT_AUDIT_GENERATED_(87)
  6
Continuous
 62
     7
100
AcDbCircle
 10
367.5583346781
 20
741.1190388007
 30
0.0
 40
318.7220243689321
100
AcDbArc
 50
231.9368246368
 51
234.1588693813
  0
ARC
  5
C8
330
85
100
AcDbEntity
  8
$DDT_AUDIT_GENERATED_(87)
  6
Continuous
 62
     7
100
AcDbCircle
 10
272.4584987458
 20
629.5170201827
 30
0.0
 40
177.4843438085
100
AcDbArc
 50
233.9232730873
 51
237.6284353019
  0
ARC
  5
C9
330
85
100
AcDbEntity
  8
$DDT_AUDIT_GENERATED_(87)
  6
Continuous
 62
     7
100
AcDbCircle
 10
178.8415245552
 20
482.7589028453
 30
0.0
 40
2.092416244398439
100
AcDbArc
 50
289.6515344708
 51
295.2914626448
  0
ARC
  5
CA
330
85
100
AcDbEntity
  8
$DDT_AUDIT_GENERATED_(87)
  6
Continuous
 62
     7
100
AcDbCircle
 10
156.623101176
 20
560.0668027352
 30
0.0
 40
82.85332515884426
100
AcDbArc
 50
253.7822428844
 51
253.9204056621
  0
SPLINE
  5
CB
330
85
100
AcDbEntity
  8
$DDT_AUDIT_GENERATED_(87)
  6
Continuous
 62
     7
100
AcDbSpline
210
0.0
220
0.0
230
1.0
 70
     8
 71
     3
 72
    15
 73
    11
 74
     0
 42
0.0000000038811432
 43
0.0000000001
 40
0.0
 40
0.0
 40
0.0
 40
0.0
 40
0.172017195694577
 40
0.2758216377430526
 40
0.3826409576829223
 40
0.4891859530140468
 40
0.5422475714184469
 40
0.5658426202000812
 40
0.7874815050678834
 40
1.0
 40
1.0
 40
1.0
 40
1.0
 10
133.4831031231918
 20
480.5104454782908
 30
0.0
 10
133.5061631593888
 20
480.5378905930772
 30
0.0
 10
133.5431446914953
 20
480.5818958734157
 30
0.0
 10
133.5016911790158
 20
480.6770978718905
 30
0.0
 10
133.3642758655108
 20
480.8065880958436
 30
0.0
 10
133.1901866679018
 20
480.9769884669844
 30
0.0
 10
133.0762953111752
 20
481.1147916766459
 30
0.0
 10
132.7652404511403
 20
481.4681380986399
 30
0.0
 10
132.537785733804
 20
482.0729948497312
 30
0.0
 10
132.5706203863073
 20
482.508600129441
 30
0.0
 10
132.5863508746289
 20
482.722419492621
 30
0.0
  0
ARC
  5
CC
330
85
100
AcDbEntity
  8
$DDT_AUDIT_GENERATED_(87)
  6
Continuous
 62
     7
100
AcDbCircle
 10
-53.1985319175
 20
740.2948795737
 30
0.0
 40
317.6864971411744
100
AcDbArc
 50
305.8364028666
 51
308.065924441
  0
SPLINE
  5
CD
330
85
100
AcDbEntity
  8
$DDT_AUDIT_GENERATED_(87)
  6
Continuous
 62
     7
100
AcDbSpline
210
0.0
220
0.0
230
1.0
 70
     8
 71
     3
 72
    10
 73
     6
 74
     0
 42
0.0000000000820316
 43
0.0000000001
 40
0.0
 40
0.0
 40
0.0
 40
0.0
 40
0.03125
 40
0.03125
 40
0.0537704836028023
 40
0.0537704836028023
 40
0.0537704836028023
 40
0.0537704836028023
 10
137.383388644125
 20
542.3870111383233
 30
0.0
 10
138.4533228143365
 20
542.163906780238
 30
0.0
 10
139.6497973165334
 20
541.9597641271803
 30
0.0
 10
141.8614558181909
 20
541.6497348067435
 30
0.0
 10
142.8372326068505
 20
541.5315094759737
 30
0.0
 10
143.8636794544783
 20
541.4251876070911
 30
0.0
  0
SPLINE
  5
CE
330
85
100
AcDbEntity
  8
$DDT_AUDIT_GENERATED_(87)
  6
Continuous
 62
     7
100
AcDbSpline
210
0.0
220
0.0
230
1.0
 70
     8
 71
     3
 72
    18
 73
    14
 74
     0
 42
0.0000000001294444
 43
0.0000000001
 40
0.2256266660739539
 40
0.2256266660739539
 40
0.2256266660739539
 40
0.2256266660739539
 40
0.2499999999999999
 40
0.2499999999999999
 40
0.28125
 40
0.28125
 40
0.3125000000000001
 40
0.3125000000000001
 40
0.3437500000000001
 40
0.3437500000000001
 40
0.3750000000000001
 40
0.3750000000000001
 40
0.4025559711245087
 40
0.4025559711245087
 40
0.4025559711245087
 40
0.4025559711245087
 10
169.8939326361207
 20
541.4356333384382
 30
0.0
 10
171.0012887696325
 20
541.5514055001036
 30
0.0
 10
172.0568566186957
 20
541.6816097015294
 30
0.0
 10
174.3094724306277
 20
542.0080140032034
 30
0.0
 10
175.4824422988951
 20
542.2147371785621
 30
0.0
 10
177.5711981102284
 20
542.6643339893174
 30
0.0
 10
178.4753855445375
 20
542.9038632448855
 30
0.0
 10
180.0094560229826
 20
543.4117449480636
 30
0.0
 10
180.6420457632594
 20
543.6829864178447
 30
0.0
 10
181.5759367242382
 20
544.2338514785754
 30
0.0
 10
181.8854147019185
 20
544.5150244571978
 30
0.0
 10
182.1682769805053
 20
545.0550518625369
 30
0.0
 10
182.173239639857
 20
545.3115560293562
 30
0.0
 10
182.0531165128013
 20
545.5638619367396
 30
0.0
  0
SPLINE
  5
CF
330
85
100
AcDbEntity
  8
$DDT_AUDIT_GENERATED_(87)
  6
Continuous
 62
     7
100
AcDbSpline
210
0.0
220
0.0
230
1.0
 70
     8
 71
     3
 72
    12
 73
     8
 74
     0
 42
0.0000000001716539
 43
0.0000000001
 40
0.875218343802559
 40
0.875218343802559
 40
0.875218343802559
 40
0.875218343802559
 40
0.90625
 40
0.90625
 40
0.9375
 40
0.9375
 40
1.0
 40
1.0
 40
1.0
 40
1.0
 10
131.6231263867837
 20
545.5958056402878
 30
0.0
 10
131.474984605816
 20
545.3108542737879
 30
0.0
 10
131.4872035665113
 20
545.0266037963302
 30
0.0
 10
131.8300677255004
 20
544.4574941790978
 30
0.0
 10
132.1693973541326
 20
544.1708426105979
 30
0.0
 10
133.6381555984041
 20
543.349252686599
 30
0.0
 10
135.243520303702
 20
542.8332198544938
 30
0.0
 10
137.383388644125
 20
542.3870111383233
 30
0.0
  0
SPLINE
  5
D0
330
85
100
AcDbEntity
  8
$DDT_AUDIT_GENERATED_(87)
  6
Continuous
 62
     7
100
AcDbSpline
210
0.0
220
0.0
230
1.0
 70
     8
 71
     3
 72
    34
 73
    30
 74
     0
 42
0.0000000001797784
 43
0.0000000001
 40
0.2218772770075043
 40
0.2218772770075043
 40
0.2218772770075043
 40
0.2218772770075043
 40
0.2499999999999992
 40
0.2499999999999992
 40
0.2812499999999991
 40
0.2812499999999991
 40
0.312499999999999
 40
0.312499999999999
 40
0.3749999999999988
 40
0.3749999999999988
 40
0.4062499999999987
 40
0.4062499999999987
 40
0.4374999999999986
 40
0.4374999999999986
 40
0.4687499999999985
 40
0.4687499999999985
 40
0.4999999999999984
 40
0.4999999999999984
 40
0.5624999999999982
 40
0.5624999999999982
 40
0.624999999999998
 40
0.624999999999998
 40
0.656249999999998
 40
0.656249999999998
 40
0.6874999999999979
 40
0.6874999999999979
 40
0.7499999999999981
 40
0.7499999999999981
 40
0.7783729120460293
 40
0.7783729120460293
 40
0.7783729120460293
 40
0.7783729120460293
 10
142.8616850920116
 20
515.0328516848599
 30
0.0
 10
142.7119789713786
 20
514.8388483793382
 30
0.0
 10
142.6343149472073
 20
514.6522214067162
 30
0.0
 10
142.6302752349254
 20
514.2844594453277
 30
0.0
 10
142.7214133898419
 20
514.1019356872198
 30
0.0
 10
143.0826727940014
 20
513.775547069469
 30
0.0
 10
143.3508623180437
 20
513.6301502550394
 30
0.0
 10
144.4205873481604
 20
513.2408404326899
 30
0.0
 10
145.4663062623278
 20
513.053078801243
 30
0.0
 10
147.4596169727786
 20
512.8503916851581
 30
0.0
 10
148.1786898269989
 20
512.7972986793027
 30
0.0
 10
149.7224324577738
 20
512.7112634735282
 30
0.0
 10
150.557212858634
 20
512.678133057675
 30
0.0
 10
152.2825641654876
 20
512.6282509546143
 30
0.0
 10
153.1714214294287
 20
512.6112484076147
 30
0.0
 10
155.001487378328
 20
512.5886758850917
 30
0.0
 10
155.9469072475503
 20
512.5832338772822
 30
0.0
 10
158.7393212819271
 20
512.582595478637
 30
0.0
 10
160.6178472730458
 20
512.6018378366977
 30
0.0
 10
164.0514173536842
 20
512.6993869513337
 30
0.0
 10
165.6411019984353
 20
512.7796957575559
 30
0.0
 10
167.6151873206121
 20
512.9788392718626
 30
0.0
 10
168.2175034822195
 20
513.0598821635087
 30
0.0
 10
169.2516796570618
 20
513.2513908065929
 30
0.0
 10
169.6898968963797
 20
513.3620981346177
 30
0.0
 10
170.7644572320916
 20
513.7502194193622
 30
0.0
 10
171.1341865575901
 20
514.0768444730907
 30
0.0
 10
171.1315272370385
 20
514.645709043934
 30
0.0
 10
171.0545927995156
 20
514.8323482957701
 30
0.0
 10
170.9042788519891
 20
515.0270722216693
 30
0.0
  0
SPLINE
  5
D1
330
85
100
AcDbEntity
  8
$DDT_AUDIT_GENERATED_(87)
  6
Continuous
 62
     7
100
AcDbSpline
210
0.0
220
0.0
230
1.0
 70
     8
 71
     3
 72
    34
 73
    30
 74
     0
 42
0.0000000001797943
 43
0.0000000001
 40
0.2231480467992138
 40
0.2231480467992138
 40
0.2231480467992138
 40
0.2231480467992138
 40
0.2500000000000009
 40
0.2500000000000009
 40
0.2812500000000009
 40
0.2812500000000009
 40
0.3125000000000009
 40
0.3125000000000009
 40
0.3750000000000009
 40
0.3750000000000009
 40
0.4062500000000009
 40
0.4062500000000009
 40
0.4375000000000009
 40
0.4375000000000009
 40
0.5000000000000004
 40
0.5000000000000004
 40
0.5625000000000001
 40
0.5625000000000001
 40
0.5937500000000001
 40
0.5937500000000001
 40
0.6250000000000001
 40
0.6250000000000001
 40
0.6562500000000001
 40
0.6562500000000001
 40
0.6875000000000001
 40
0.6875000000000001
 40
0.7500000000000001
 40
0.7500000000000001
 40
0.7757185576170574
 40
0.7757185576170574
 40
0.7757185576170574
 40
0.7757185576170574
 10
142.8652427303192
 20
481.6337891509008
 30
0.0
 10
142.7231838649755
 20
481.8195503020654
 30
0.0
 10
142.6448078372156
 20
481.9953736966683
 30
0.0
 10
142.6208818947763
 20
482.3443779830644
 30
0.0
 10
142.6996269740933
 20
482.5162407838988
 30
0.0
 10
143.0364149383075
 20
482.8116209090875
 30
0.0
 10
143.2928384298227
 20
482.9371877407403
 30
0.0
 10
144.3349806718962
 20
483.2547632101118
 30
0.0
 10
145.3734186661331
 20
483.3787595041061
 30
0.0
 10
147.3698228371034
 20
483.4834081986247
 30
0.0
 10
148.092586795244
 20
483.5044331923582
 30
0.0
 10
149.6490346886293
 20
483.5309566294942
 30
0.0
 10
150.4928601437472
 20
483.5363772227522
 30
0.0
 10
153.1033439478105
 20
483.5425081211679
 30
0.0
 10
154.998302048828
 20
483.5356756488164
 30
0.0
 10
158.7594725256337
 20
483.5366204646864
 30
0.0
 10
160.6592407368941
 20
483.5443746400367
 30
0.0
 10
163.2607264693862
 20
483.5396374583783
 30
0.0
 10
164.1036116792782
 20
483.5347370912044
 30
0.0
 10
165.6676748034163
 20
483.509004698489
 30
0.0
 10
166.3889574056631
 20
483.4883403954842
 30
0.0
 10
167.7105844124869
 20
483.4201036926208
 30
0.0
 10
168.3110476533666
 20
483.3718855435911
 30
0.0
 10
169.3354325834331
 20
483.2408090388378
 30
0.0
 10
169.767615439192
 20
483.1577495543298
 30
0.0
 10
170.8184085892501
 20
482.8399192616351
 30
0.0
 10
171.1560752097056
 20
482.5426563277624
 30
0.0
 10
171.1207809322943
 20
482.0100233706137
 30
0.0
 10
171.0498513367949
 20
481.8436377386548
 30
0.0
 10
170.9199019349757
 20
481.6671697636726
 30
0.0
  0
LINE
  5
D2
330
85
100
AcDbEntity
  8
$DDT_AUDIT_GENERATED_(87)
  6
Continuous
 62
     7
100
AcDbLine
 10
112.6271471636
 20
515.8922460275
 30
0.0
 11
111.3202944013
 21
515.8274937112
 31
0.0
  0
ARC
  5
D3
330
85
100
AcDbEntity
  8
$DDT_AUDIT_GENERATED_(87)
  6
Continuous
 62
     7
100
AcDbCircle
 10
108.1386592317
 20
611.879138451
 30
0.0
 40
96.09415434604962
100
AcDbArc
 50
272.6772182219
 51
275.9060743988
  0
LINE
  5
D4
330
85
100
AcDbEntity
  8
$DDT_AUDIT_GENERATED_(87)
  6
Continuous
 62
     7
100
AcDbLine
 10
202.4113313242
 20
515.8276062527
 30
0.0
 11
201.1067491262
 21
515.892246032
 31
0.0
  0
LINE
  5
D5
330
85
100
AcDbEntity
  8
$DDT_AUDIT_GENERATED_(87)
  6
Continuous
 62
     7
100
AcDbLine
 10
184.1936749856
 20
528.1950081525
 30
0.0
 11
182.9531676723
 21
544.3667862755
 31
0.0
  0
LINE
  5
D6
330
85
100
AcDbEntity
  8
$DDT_AUDIT_GENERATED_(87)
  6
Continuous
 62
     7
100
AcDbLine
 10
130.8172599649
 20
544.3950494998
 30
0.0
 11
129.5558946063
 21
528.1818858707
 31
0.0
  0
SPLINE
  5
D7
330
85
100
AcDbEntity
  8
$DDT_AUDIT_GENERATED_(87)
  6
Continuous
 62
     7
100
AcDbSpline
210
0.0
220
0.0
230
1.0
 70
     8
 71
     3
 72
    11
 73
     7
 74
     0
 42
0.0000000017531338
 43
0.0000000001
 40
0.0
 40
0.0
 40
0.0
 40
0.0
 40
0.0578180012465545
 40
0.1256993197455694
 40
0.1973134113531811
 40
0.2616845513838358
 40
0.2616845513838358
 40
0.2616845513838358
 40
0.2616845513838358
 10
182.945511051729
 20
544.3911601283108
 30
0.0
 10
182.9298506188879
 20
544.5171057495883
 30
0.0
 10
182.8990897121963
 20
544.7468907145591
 30
0.0
 10
182.7461842733656
 20
545.1063070442959
 30
0.0
 10
182.5400116547563
 20
545.4212228718363
 30
0.0
 10
182.3740169992072
 20
545.6066199420901
 30
0.0
 10
182.2903078091873
 20
545.6898930327523
 30
0.0
  0
SPLINE
  5
D8
330
85
100
AcDbEntity
  8
$DDT_AUDIT_GENERATED_(87)
  6
Continuous
 62
     7
100
AcDbSpline
210
0.0
220
0.0
230
1.0
 70
     8
 71
     3
 72
    11
 73
     7
 74
     0
 42
0.000000002416475
 43
0.0000000001
 40
0.646186531791269
 40
0.646186531791269
 40
0.646186531791269
 40
0.646186531791269
 40
0.727269097538379
 40
0.829308970026584
 40
0.9225974224084718
 40
1.0
 40
1.0
 40
1.0
 40
1.0
 10
131.4615638375418
 20
545.6974216916602
 30
0.0
 10
131.3857848329215
 20
545.6207893431841
 30
0.0
 10
131.2245496550653
 20
545.4391092068688
 30
0.0
 10
131.0217968479
 20
545.1293779019026
 30
0.0
 10
130.870329322359
 20
544.768022446423
 30
0.0
 10
130.8395249792109
 20
544.5417966957533
 30
0.0
 10
130.8240527960285
 20
544.4196036090167
 30
0.0
  0
LINE
  5
D9
330
85
100
AcDbEntity
  8
$DDT_AUDIT_GENERATED_(87)
  6
Continuous
 62
     7
100
AcDbLine
 10
83.5507395217
 20
513.9831534359
 30
0.0
 11
83.2339721254
 21
514.0158665421
 31
0.0
  0
LINE
  5
DA
330
85
100
AcDbEntity
  8
$DDT_AUDIT_GENERATED_(87)
  6
Continuous
 62
     7
100
AcDbLine
 10
230.500878946
 20
514.0158799833
 30
0.0
 11
230.1831567701
 21
513.9831534328
 31
0.0
  0
SPLINE
  5
DB
330
85
100
AcDbEntity
  8
$DDT_AUDIT_GENERATED_(87)
  6
Continuous
 62
     7
100
AcDbSpline
210
0.0
220
0.0
230
1.0
 70
     8
 71
     3
 72
    19
 73
    15
 74
     0
 42
0.0000000007042374
 43
0.0000000001
 40
0.0088901739127462
 40
0.0088901739127462
 40
0.0088901739127462
 40
0.0088901739127462
 40
0.0224249530211857
 40
0.1130571878137204
 40
0.2042601777621791
 40
0.2959003972639278
 40
0.3878186303550715
 40
0.4798239655420485
 40
0.5717068308674726
 40
0.6633184006888438
 40
0.7545430833822924
 40
0.8452428719034323
 40
0.9350890789590189
 40
0.9850670692444624
 40
0.9850670692444624
 40
0.9850670692444624
 40
0.9850670692444624
 10
252.2282868663516
 20
499.9858388130435
 30
0.0
 10
252.2136360572499
 20
500.0483659787641
 30
0.0
 10
252.1044616020003
 20
500.5032403347504
 30
0.0
 10
251.8054009654917
 20
501.4100522607104
 30
0.0
 10
251.3377812813515
 20
502.6070867201435
 30
0.0
 10
250.7732081963954
 20
503.7841142510707
 30
0.0
 10
250.1276094882196
 20
504.9186099511811
 30
0.0
 10
249.4015658485335
 20
506.006006026516
 30
0.0
 10
248.6006273682482
 20
507.0375435487674
 30
0.0
 10
247.7304895358209
 20
508.0055588494509
 30
0.0
 10
246.7947389351037
 20
508.9062484682122
 30
0.0
 10
245.8089339061729
 20
509.7230281905979
 30
0.0
 10
244.903156730318
 20
510.3777634417464
 30
0.0
 10
244.3722516843519
 20
510.7026391798923
 30
0.0
 10
244.1624214177473
 20
510.8282846236824
 30
0.0
  0
SPLINE
  5
DC
330
85
100
AcDbEntity
  8
$DDT_AUDIT_GENERATED_(87)
  6
Continuous
 62
     7
100
AcDbSpline
210
0.0
220
0.0
230
1.0
 70
     8
 71
     3
 72
    16
 73
    12
 74
     0
 42
0.0000000007691785
 43
0.0000000001
 40
0.0
 40
0.0
 40
0.0
 40
0.0
 40
0.0186834593990582
 40
0.1429380867652369
 40
0.2671687819155407
 40
0.39128201760603
 40
0.5151990630281682
 40
0.638595749647672
 40
0.7616130953246129
 40
0.8853148292663438
 40
1.0
 40
1.0
 40
1.0
 40
1.0
 10
252.4680031756811
 20
486.9879970708379
 30
0.0
 10
252.4893226801003
 20
487.0744208702822
 30
0.0
 10
252.6289686100212
 20
487.6421328384538
 30
0.0
 10
252.8279502452579
 20
488.8217010576558
 30
0.0
 10
253.0295883584849
 20
490.4089735800624
 30
0.0
 10
253.1340013476916
 20
492.0230042356559
 30
0.0
 10
253.1463662342673
 20
493.6308849641633
 30
0.0
 10
253.0642849804321
 20
495.2363435891742
 30
0.0
 10
252.8906327721834
 20
496.8219196018778
 30
0.0
 10
252.6293150400659
 20
498.3986874276682
 30
0.0
 10
252.4077439521263
 20
499.3310721007686
 30
0.0
 10
252.2793347286775
 20
499.862169625728
 30
0.0
  0
SPLINE
  5
DD
330
85
100
AcDbEntity
  8
$DDT_AUDIT_GENERATED_(87)
  6
Continuous
 62
     7
100
AcDbSpline
210
0.0
220
0.0
230
1.0
 70
     8
 71
     3
 72
    26
 73
    22
 74
     0
 42
0.0000000004354232
 43
0.0000000001
 40
0.0081581674571666
 40
0.0081581674571666
 40
0.0081581674571666
 40
0.0081581674571666
 40
0.0169460166958803
 40
0.0737185092067118
 40
0.1304987762335524
 40
0.1871636935666527
 40
0.2436129158444663
 40
0.2997635846074069
 40
0.3555575891390207
 40
0.4109670002314171
 40
0.4659974290863214
 40
0.5206242782537683
 40
0.5746001983570241
 40
0.6288373031581376
 40
0.6835749441142847
 40
0.7388267324003421
 40
0.7945755714726848
 40
0.8507739252877036
 40
0.9073473162292027
 40
0.9641997610101142
 40
0.9813599177469282
 40
0.9813599177469282
 40
0.9813599177469282
 40
0.9813599177469282
 10
236.3333529325641
 20
473.2305423650926
 30
0.0
 10
236.3997588541387
 20
473.232876940853
 30
0.0
 10
236.8759909966173
 20
473.2526209431824
 30
0.0
 10
237.8344827515724
 20
473.3686853773488
 30
0.0
 10
239.1079236764961
 20
473.5956132889424
 30
0.0
 10
240.371625947253
 20
473.9201684558959
 30
0.0
 10
241.6008808777993
 20
474.3312729619231
 30
0.0
 10
242.7917590646872
 20
474.828549968974
 30
0.0
 10
243.9356663737522
 20
475.4080453100341
 30
0.0
 10
245.0262581184797
 20
476.0662556340343
 30
0.0
 10
246.0573669404823
 20
476.7988969239901
 30
0.0
 10
247.0217761042349
 20
477.6002889016664
 30
0.0
 10
247.9193513650959
 20
478.467059415354
 30
0.0
 10
248.7518833619494
 20
479.397603023555
 30
0.0
 10
249.5209176522394
 20
480.3935669009982
 30
0.0
 10
250.2230272936185
 20
481.4519438189567
 30
0.0
 10
250.8530097968139
 20
482.5667508527741
 30
0.0
 10
251.4081572689979
 20
483.7350747079761
 30
0.0
 10
251.8766924286701
 20
484.9382145780904
 30
0.0
 10
252.1873144147452
 20
485.914751562493
 30
0.0
 10
252.3151770418605
 20
486.4380986875994
 30
0.0
 10
252.3444659306675
 20
486.563542972148
 30
0.0
  0
SPLINE
  5
DE
330
85
100
AcDbEntity
  8
$DDT_AUDIT_GENERATED_(87)
  6
Continuous
 62
     7
100
AcDbSpline
210
0.0
220
0.0
230
1.0
 70
     8
 71
     3
 72
     8
 73
     4
 74
     0
 42
0.0000000005480032
 43
0.0000000001
 40
0.0
 40
0.0
 40
0.0
 40
0.0
 40
1.0
 40
1.0
 40
1.0
 40
1.0
 10
217.9132071658598
 20
472.3189721941662
 30
0.0
 10
218.7410512228415
 20
472.3595801869396
 30
0.0
 10
224.816889262386
 20
472.6481891298567
 30
0.0
 10
236.1407212844934
 20
473.1847990229174
 30
0.0
  0
SPLINE
  5
DF
330
85
100
AcDbEntity
  8
$DDT_AUDIT_GENERATED_(87)
  6
Continuous
 62
     7
100
AcDbSpline
210
0.0
220
0.0
230
1.0
 70
     8
 71
     3
 72
    18
 73
    14
 74
     0
 42
0.0000000007038355
 43
0.0000000001
 40
0.0
 40
0.0
 40
0.0
 40
0.0
 40
0.0905291422166709
 40
0.1822441527719993
 40
0.2729797116210906
 40
0.3621170509893877
 40
0.452217919582141
 40
0.5431557695819507
 40
0.634771980483194
 40
0.7268662393077614
 40
0.8192102527072788
 40
0.9115079826764473
 40
0.9421825910808369
 40
0.9421825910808369
 40
0.9421825910808369
 40
0.9421825910808369
 10
69.76870609755844
 20
510.9544857373485
 30
0.0
 10
69.36683347070479
 20
510.7073830180211
 30
0.0
 10
68.68681967748479
 20
510.2842115120205
 30
0.0
 10
67.63022033699066
 20
509.4925937351725
 30
0.0
 10
66.66332455501609
 20
508.6524232976676
 30
0.0
 10
65.75966283219078
 20
507.7432274217862
 30
0.0
 10
64.92388805410245
 20
506.7730967999157
 30
0.0
 10
64.15129635996108
 20
505.7362672334096
 30
0.0
 10
63.44900015016943
 20
504.640311114136
 30
0.0
 10
62.82137708792585
 20
503.4895377472947
 30
0.0
 10
62.27917854166723
 20
502.302548338179
 30
0.0
 10
61.91244954640131
 20
501.3276770061563
 30
0.0
 10
61.74614277585037
 20
500.7955339753919
 30
0.0
 10
61.70569350626747
 20
500.6608793480913
 30
0.0
  0
SPLINE
  5
E0
330
85
100
AcDbEntity
  8
$DDT_AUDIT_GENERATED_(87)
  6
Continuous
 62
     7
100
AcDbSpline
210
0.0
220
0.0
230
1.0
 70
     8
 71
     3
 72
    16
 73
    12
 74
     0
 42
0.0000000007693139
 43
0.0000000001
 40
0.0
 40
0.0
 40
0.0
 40
0.0
 40
0.0187170791013081
 40
0.1429720210023429
 40
0.2671759429144029
 40
0.3912369977717061
 40
0.5150766289334775
 40
0.6384279105620879
 40
0.7615839781080078
 40
0.885401720112039
 40
1.0
 40
1.0
 40
1.0
 40
1.0
 10
61.45442802384274
 20
499.8623694615051
 30
0.0
 10
61.43053811944067
 20
499.776470624784
 30
0.0
 10
61.27425452629803
 20
499.2130802317395
 30
0.0
 10
61.04074675942492
 20
498.0400458512894
 30
0.0
 10
60.79273628422112
 20
496.4599774411935
 30
0.0
 10
60.64117999332066
 20
494.8506559074285
 30
0.0
 10
60.58192654467565
 20
493.2448597904739
 30
0.0
 10
60.6169606417993
 20
491.6379043795963
 30
0.0
 10
60.74400978380223
 20
490.0473028380506
 30
0.0
 10
60.95890882373879
 20
488.4630512561565
 30
0.0
 10
61.1529567213053
 20
487.5245834507049
 30
0.0
 10
61.26558201670529
 20
486.9904374729739
 30
0.0
  0
SPLINE
  5
E1
330
85
100
AcDbEntity
  8
$DDT_AUDIT_GENERATED_(87)
  6
Continuous
 62
     7
100
AcDbSpline
210
0.0
220
0.0
230
1.0
 70
     8
 71
     3
 72
    26
 73
    22
 74
     0
 42
0.000000000435361
 43
0.0000000001
 40
0.0073739746727482
 40
0.0073739746727482
 40
0.0073739746727482
 40
0.0073739746727482
 40
0.0168226632255187
 40
0.0736712890605418
 40
0.1305694370224326
 40
0.1873826599119097
 40
0.2440074125974838
 40
0.3003556818381849
 40
0.3563625878849022
 40
0.4119922631905945
 40
0.4672416949801852
 40
0.5221045977050136
 40
0.5760503945584918
 40
0.6300168933567379
 40
0.6844999265721645
 40
0.7395161971797601
 40
0.7950527742162303
 40
0.8510651996797933
 40
0.9074807178745805
 40
0.9642034905769541
 40
0.977291829734533
 40
0.977291829734533
 40
0.977291829734533
 40
0.977291829734533
 10
61.32453901300354
 20
486.8224578753899
 30
0.0
 10
61.33913171824943
 20
486.7520242110472
 30
0.0
 10
61.4397764062387
 20
486.2810752663326
 30
0.0
 10
61.71825578651575
 20
485.3494854526842
 30
0.0
 10
62.15790696729852
 20
484.1301984975194
 30
0.0
 10
62.6923871513385
 20
482.9362077207653
 30
0.0
 10
63.30654343199679
 20
481.7901854729342
 30
0.0
 10
63.99936344881837
 20
480.6960164389663
 30
0.0
 10
64.76547282881621
 20
479.6616362436728
 30
0.0
 10
65.6002830214696
 20
478.6928230507613
 30
0.0
 10
66.49864484442891
 20
477.7949931625873
 30
0.0
 10
67.45206392585672
 20
476.9754557612699
 30
0.0
 10
68.45664024296175
 20
476.2360481306464
 30
0.0
 10
69.51029414441817
 20
475.5739509758816
 30
0.0
 10
70.6164012789839
 20
474.9862393611672
 30
0.0
 10
71.77312157794468
 20
474.4747458073902
 30
0.0
 10
72.9737560720824
 20
474.0435862006143
 30
0.0
 10
74.21502584929122
 20
473.6949602559345
 30
0.0
 10
75.47659928641771
 20
473.4373181330281
 30
0.0
 10
76.45775721709002
 20
473.3011108412893
 30
0.0
 10
76.96667362673313
 20
473.2635802682555
 30
0.0
 10
77.06357317610936
 20
473.2573246693086
 30
0.0
  0
SPLINE
  5
E2
330
85
100
AcDbEntity
  8
$DDT_AUDIT_GENERATED_(87)
  6
Continuous
 62
     7
100
AcDbSpline
210
0.0
220
0.0
230
1.0
 70
     8
 71
     3
 72
     8
 73
     4
 74
     0
 42
0.0000000005470746
 43
0.0000000001
 40
0.0
 40
0.0
 40
0.0
 40
0.0
 40
1.0
 40
1.0
 40
1.0
 40
1.0
 10
77.59298309670017
 20
473.1862068916026
 30
0.0
 10
80.42532703507624
 20
473.0540101026547
 30
0.0
 10
86.51144370554715
 20
472.7641777909236
 30
0.0
 10
95.85133310811293
 20
472.3167099564092
 30
0.0
  0
ARC
  5
E3
330
85
100
AcDbEntity
  8
$DDT_AUDIT_GENERATED_(87)
  6
Continuous
 62
     7
100
AcDbCircle
 10
32.7180101939
 20
3275.7575592308
 30
0.0
 40
2809.578160383683
100
AcDbArc
 50
273.5320886643
 51
273.7802994178
  0
ARC
  5
E4
330
85
100
AcDbEntity
  8
$DDT_AUDIT_GENERATED_(87)
  6
Continuous
 62
     7
100
AcDbCircle
 10
211.4662386553
 20
373.7772795128
 30
0.0
 40
97.87077793756539
100
AcDbArc
 50
93.3119219599
 51
108.1293919469
  0
ARC
  5
E5
330
85
100
AcDbEntity
  8
$DDT_AUDIT_GENERATED_(87)
  6
Continuous
 62
     7
100
AcDbCircle
 10
156.8759287957
 20
541.6896785739
 30
0.0
 40
78.66193939983468
100
AcDbArc
 50
252.1251234091
 51
262.3483041171
  0
ARC
  5
E6
330
85
100
AcDbEntity
  8
$DDT_AUDIT_GENERATED_(87)
  6
Continuous
 62
     7
100
AcDbCircle
 10
156.8759287957
 20
541.6896785739
 30
0.0
 40
78.66193939983468
100
AcDbArc
 50
277.6622896933
 51
287.8605194414
  0
ARC
  5
E7
330
85
100
AcDbEntity
  8
$DDT_AUDIT_GENERATED_(87)
  6
Continuous
 62
     7
100
AcDbCircle
 10
102.2288482943
 20
373.3077610542
 30
0.0
 40
98.33559291423458
100
AcDbArc
 50
71.9349108875
 51
86.680815406
  0
ARC
  5
E8
330
85
100
AcDbEntity
  8
$DDT_AUDIT_GENERATED_(87)
  6
Continuous
 62
     7
100
AcDbCircle
 10
301.0382526409
 20
3587.5594932842
 30
0.0
 40
3122.020915630462
100
AcDbArc
 50
266.2309130353
 51
266.4537005725
  0
ARC
  5
E9
330
85
100
AcDbEntity
  8
$DDT_AUDIT_GENERATED_(87)
  6
Continuous
 62
     7
100
AcDbCircle
 10
205.5587835868
 20
611.312933922
 30
0.0
 40
95.52684278464008
100
AcDbArc
 50
264.071850966
 51
267.3287590263
  0
ARC
  5
EA
330
85
100
AcDbEntity
  8
$DDT_AUDIT_GENERATED_(87)
  6
Continuous
 62
     7
100
AcDbCircle
 10
116.6390658637
 20
529.163456216
 30
0.0
 40
12.94546260998947
100
AcDbArc
 50
276.7804337698
 51
355.6602091998
  0
ARC
  5
EB
330
85
100
AcDbEntity
  8
$DDT_AUDIT_GENERATED_(87)
  6
Continuous
 62
     7
100
AcDbCircle
 10
156.868932694
 20
541.5647858908
 30
0.0
 40
65.30083640692672
100
AcDbArc
 50
251.4657016712
 51
258.5243264934
  0
ARC
  5
EC
330
85
100
AcDbEntity
  8
$DDT_AUDIT_GENERATED_(87)
  6
Continuous
 62
     7
100
AcDbCircle
 10
156.868932694
 20
541.5647858908
 30
0.0
 40
65.30083640692672
100
AcDbArc
 50
281.4800848838
 51
288.529003957
  0
ARC
  5
ED
330
85
100
AcDbEntity
  8
$DDT_AUDIT_GENERATED_(87)
  6
Continuous
 62
     7
100
AcDbCircle
 10
176.6964616996
 20
482.8186499182
 30
0.0
 40
3.295015443098035
100
AcDbArc
 50
286.2053547124
 51
296.6577205179
  0
SPLINE
  5
EE
330
85
100
AcDbEntity
  8
$DDT_AUDIT_GENERATED_(87)
  6
Continuous
 62
     7
100
AcDbSpline
210
0.0
220
0.0
230
1.0
 70
     8
 71
     3
 72
    17
 73
    13
 74
     0
 42
0.0000000040936413
 43
0.0000000001
 40
0.0
 40
0.0
 40
0.0
 40
0.0
 40
0.0138995731669843
 40
0.0602678555737867
 40
0.1095996399271825
 40
0.1921094448497139
 40
0.2774651120807831
 40
0.3646351836375339
 40
0.4754316848960912
 40
0.5744773055210948
 40
0.679425763664733
 40
0.7552934825909929
 40
0.7552934825909929
 40
0.7552934825909929
 40
0.7552934825909929
 10
178.1917057918771
 20
479.8789739477542
 30
0.0
 10
178.2200769414131
 20
479.8927814824102
 30
0.0
 10
178.3258945191945
 20
479.9443074394889
 30
0.0
 10
178.4671526710251
 20
480.0233618397237
 30
0.0
 10
178.7181211607409
 20
480.164559313282
 30
0.0
 10
178.9683416646263
 20
480.3239424264607
 30
0.0
 10
179.1844746320257
 20
480.4718308878078
 30
0.0
 10
179.3912105571391
 20
480.6196190207641
 30
0.0
 10
179.5619114857922
 20
480.747727298929
 30
0.0
 10
179.6779763946476
 20
480.8351344871823
 30
0.0
 10
179.7262475904481
 20
480.8695436826857
 30
0.0
 10
179.7392539042634
 20
480.8771056775302
 30
0.0
 10
179.7394012242988
 20
480.8772746264088
 30
0.0
  0
ARC
  5
EF
330
85
100
AcDbEntity
  8
$DDT_AUDIT_GENERATED_(87)
  6
Continuous
 62
     7
100
AcDbCircle
 10
136.9518911813
 20
482.6060730857
 30
0.0
 40
3.06589080903043
100
AcDbArc
 50
242.9642479432
 51
254.2025155073
  0
SPLINE
  5
F0
330
85
100
AcDbEntity
  8
$DDT_AUDIT_GENERATED_(87)
  6
Continuous
 62
     7
100
AcDbSpline
210
0.0
220
0.0
230
1.0
 70
     8
 71
     3
 72
    16
 73
    12
 74
     0
 42
0.0000000039032837
 43
0.0000000001
 40
0.2801575572458229
 40
0.2801575572458229
 40
0.2801575572458229
 40
0.2801575572458229
 40
0.3815482083617295
 40
0.4817012253991399
 40
0.5905244005423645
 40
0.6966063041139009
 40
0.7822968872976389
 40
0.8580059862293024
 40
0.9386843807332081
 40
0.9843052325784732
 40
1.0
 40
1.0
 40
1.0
 40
1.0
 10
133.9953042692848
 20
480.8772373872329
 30
0.0
 10
133.9954107547113
 20
480.876996622362
 30
0.0
 10
134.0159030790418
 20
480.8639928716692
 30
0.0
 10
134.0850811998118
 20
480.8137331751813
 30
0.0
 10
134.235238038257
 20
480.6999153728163
 30
0.0
 10
134.4414358878906
 20
480.5481261945889
 30
0.0
 10
134.6586117082395
 20
480.3969433716279
 30
0.0
 10
134.9136449007718
 20
480.2269430365337
 30
0.0
 10
135.2040325086569
 20
480.0583416400353
 30
0.0
 10
135.396503564842
 20
479.9508842742966
 30
0.0
 10
135.508912195603
 20
479.8960125071619
 30
0.0
 10
135.5424139269776
 20
479.8796775119444
 30
0.0
  0
ARC
  5
F2
330
85
100
AcDbEntity
  8
$DDT_AUDIT_GENERATED_(F1)
  6
Continuous
 62
     7
100
AcDbCircle
 10
231.8823642729
 20
493.052935922
 30
0.0
 40
35.0
100
AcDbArc
 50
218.3333204186
 51
0.0
  0
ARC
  5
F3
330
85
100
AcDbEntity
  8
$DDT_AUDIT_GENERATED_(F1)
  6
Continuous
 62
     7
100
AcDbCircle
 10
231.8823642729
 20
493.052935922
 30
0.0
 40
35.0
100
AcDbArc
 50
0.0
 51
139.7028435438
  0
ARC
  5
F4
330
85
100
AcDbEntity
  8
$DDT_AUDIT_GENERATED_(F1)
  6
Continuous
 62
     7
100
AcDbCircle
 10
81.8823642729
 20
493.052935922
 30
0.0
 40
35.0
100
AcDbArc
 50
40.3004299237
 51
321.6637150188
  0
ELLIPSE
  5
F6
330
85
100
AcDbEntity
  8
$DDT_AUDIT_GENERATED_(F5)
  6
Continuous
 62
     7
100
AcDbEllipse
 10
156.8823642729
 20
545.2007662093
 30
0.0
 11
25.02159067685345
 21
6.938893903907228E-15
 31
0.0
210
0.0
220
0.0
230
1.0
 40
0.1736481777
 41
0.0
 42
0.0571116875880198
  0
ELLIPSE
  5
F7
330
85
100
AcDbEntity
  8
$DDT_AUDIT_GENERATED_(F5)
  6
Continuous
 62
     7
100
AcDbEllipse
 10
156.8823642729
 20
545.2007662093
 30
0.0
 11
25.02159067685345
 21
6.938893903907228E-15
 31
0.0
210
0.0
220
0.0
230
1.0
 40
0.1736481777
 41
3.084480966001797
 42
4.166063251637637
  0
ELLIPSE
  5
F8
330
85
100
AcDbEntity
  8
$DDT_AUDIT_GENERATED_(F5)
  6
Continuous
 62
     7
100
AcDbEllipse
 10
156.8823642729
 20
545.2007662093
 30
0.0
 11
25.02159067685345
 21
6.938893903907228E-15
 31
0.0
210
0.0
220
0.0
230
1.0
 40
0.1736481777
 41
5.258714709131739
 42
6.283185307179586
  0
LINE
  5
FA
330
85
100
AcDbEntity
  8
02555038_GEHÄUSE
  6
Continuous
 62
     7
100
AcDbLine
 10
144.1323642729
 20
472.752935922
 30
0.0
 11
169.6323642729
 21
472.752935922
 31
0.0
  0
LINE
  5
FB
330
85
100
AcDbEntity
  8
02555038_GEHÄUSE
  6
Continuous
 62
     7
100
AcDbLine
 10
143.8823642729
 20
473.4746237585
 30
0.0
 11
143.8823642729
 21
472.8972747902
 31
0.0
  0
LINE
  5
FC
330
85
100
AcDbEntity
  8
02555038_GEHÄUSE
  6
Continuous
 62
     7
100
AcDbLine
 10
143.8823642729
 20
477.752935922
 30
0.0
 11
142.8823642729
 21
478.752935922
 31
0.0
  0
LINE
  5
FD
330
85
100
AcDbEntity
  8
02555038_GEHÄUSE
  6
Continuous
 62
     7
100
AcDbLine
 10
143.8823642729
 20
473.4746237585
 30
0.0
 11
143.8823642729
 21
477.752935922
 31
0.0
  0
LINE
  5
FE
330
85
100
AcDbEntity
  8
02555038_GEHÄUSE
  6
Continuous
 62
     7
100
AcDbLine
 10
169.8823642729
 20
473.4746237585
 30
0.0
 11
143.8823642729
 21
473.4746237585
 31
0.0
  0
LINE
  5
FF
330
85
100
AcDbEntity
  8
02555038_GEHÄUSE
  6
Continuous
 62
     7
100
AcDbLine
 10
169.8823642729
 20
473.4746237585
 30
0.0
 11
169.8823642729
 21
472.8972747902
 31
0.0
  0
LINE
  5
100
330
85
100
AcDbEntity
  8
02555038_GEHÄUSE
  6
Continuous
 62
     7
100
AcDbLine
 10
169.8823642729
 20
477.752935922
 30
0.0
 11
170.8823642729
 21
478.752935922
 31
0.0
  0
LINE
  5
101
330
85
100
AcDbEntity
  8
02555038_GEHÄUSE
  6
Continuous
 62
     7
100
AcDbLine
 10
169.8823642729
 20
473.4746237585
 30
0.0
 11
169.8823642729
 21
477.752935922
 31
0.0
  0
LINE
  5
102
330
85
100
AcDbEntity
  8
02555038_GEHÄUSE
  6
Continuous
 62
     7
100
AcDbLine
 10
143.8823642729
 20
472.8972734893
 30
0.0
 11
144.1323642729
 21
472.752935922
 31
0.0
  0
LINE
  5
103
330
85
100
AcDbEntity
  8
02555038_GEHÄUSE
  6
Continuous
 62
     7
100
AcDbLine
 10
169.6323642729
 20
472.752935922
 30
0.0
 11
169.8823642729
 21
472.8972734893
 31
0.0
  0
LINE
  5
104
330
85
100
AcDbEntity
  8
02555038_GEHÄUSE
  6
Continuous
 62
     7
100
AcDbLine
 10
170.8823642729
 20
478.752935922
 30
0.0
 11
170.8823642729
 21
482.6589589067
 31
0.0
  0
LINE
  5
105
330
85
100
AcDbEntity
  8
02555038_GEHÄUSE
  6
Continuous
 62
     7
100
AcDbLine
 10
142.8823642729
 20
482.664278694
 30
0.0
 11
142.8823642729
 21
478.752935922
 31
0.0
  0
SPLINE
  5
107
330
85
100
AcDbEntity
  8
$DDT_AUDIT_GENERATED_(106)
  6
Continuous
 62
     7
100
AcDbSpline
210
0.0
220
0.0
230
1.0
 70
     8
 71
     3
 72
    10
 73
     6
 74
     0
 42
0.0000000005065728
 43
0.0000000001
 40
0.1997784572344081
 40
0.1997784572344081
 40
0.1997784572344081
 40
0.1997784572344081
 40
0.25
 40
0.25
 40
0.3115582557581483
 40
0.3115582557581483
 40
0.3115582557581483
 40
0.3115582557581483
 10
132.7387600590457
 20
574.1729037876935
 30
0.0
 10
132.942438852018
 20
574.4320470221882
 30
0.0
 10
133.1561212903701
 20
574.6835842199671
 30
0.0
 10
133.6541882132916
 20
575.223361830278
 30
0.0
 10
133.9440233372999
 20
575.5073322548915
 30
0.0
 10
134.2494016163482
 20
575.775958083372
 30
0.0
  0
SPLINE
  5
108
330
85
100
AcDbEntity
  8
$DDT_AUDIT_GENERATED_(106)
  6
Continuous
 62
     7
100
AcDbSpline
210
0.0
220
0.0
230
1.0
 70
     8
 71
     3
 72
    10
 73
     6
 74
     0
 42
0.0000000003957948
 43
0.0000000001
 40
0.3115582557581483
 40
0.3115582557581483
 40
0.3115582557581483
 40
0.3115582557581483
 40
0.5000000000000001
 40
0.5000000000000001
 40
1.0
 40
1.0
 40
1.0
 40
1.0
 10
134.2494016163482
 20
575.775958083372
 30
0.0
 10
135.1842236779659
 20
576.5982737751317
 30
0.0
 10
136.2646991971892
 20
577.2767966863021
 30
0.0
 10
140.7440057312556
 20
579.015079533746
 30
0.0
 10
144.9938716732315
 20
578.9030889075359
 30
0.0
 10
150.3167364933567
 20
576.5571389255878
 30
0.0
  0
ARC
  5
109
330
85
100
AcDbEntity
  8
$DDT_AUDIT_GENERATED_(106)
  6
Continuous
 62
     7
100
AcDbCircle
 10
156.8823642729
 20
558.5577295662
 30
0.0
 40
19.39303331523165
100
AcDbArc
 50
26.2444886641
 51
42.9747662991
  0
ARC
  5
10A
330
85
100
AcDbEntity
  8
$DDT_AUDIT_GENERATED_(106)
  6
Continuous
 62
     7
100
AcDbCircle
 10
156.8823642729
 20
558.5577295662
 30
0.0
 40
19.39303331523165
100
AcDbArc
 50
137.0297256796
 51
153.7555113358
  0
SPLINE
  5
10B
330
85
100
AcDbEntity
  8
$DDT_AUDIT_GENERATED_(106)
  6
Continuous
 62
     7
100
AcDbSpline
210
0.0
220
0.0
230
1.0
 70
     8
 71
     3
 72
     8
 73
     4
 74
     0
 42
0.0000000008034425
 43
0.0000000001
 40
0.0
 40
0.0
 40
0.0
 40
0.0
 40
0.1960720004921263
 40
0.1960720004921263
 40
0.1960720004921263
 40
0.1960720004921263
 10
180.1659450668992
 20
568.8432405490058
 30
0.0
 10
179.7332727055578
 20
569.5842140262786
 30
0.0
 10
179.2452091602577
 20
570.2333316753234
 30
0.0
 10
178.6986052751228
 20
570.7759723244701
 30
0.0
  0
ARC
  5
10C
330
85
100
AcDbEntity
  8
$DDT_AUDIT_GENERATED_(106)
  6
Continuous
 62
     7
100
AcDbCircle
 10
156.8823642729
 20
553.181413793
 30
0.0
 40
28.06096847802172
100
AcDbArc
 50
142.2452675782
 51
146.073036982
  0
ARC
  5
10D
330
85
100
AcDbEntity
  8
$DDT_AUDIT_GENERATED_(106)
  6
Continuous
 62
     7
100
AcDbCircle
 10
156.8823642729
 20
553.181413793
 30
0.0
 40
28.06096847802172
100
AcDbArc
 50
33.9269630179
 51
37.4489678613
  0
ARC
  5
10E
330
85
100
AcDbEntity
  8
$DDT_AUDIT_GENERATED_(106)
  6
Continuous
 62
     7
100
AcDbCircle
 10
156.882364272
 20
483.2476189658
 30
0.0
 40
91.71977417882458
100
AcDbArc
 50
85.8956722386
 51
94.1043277601
  0
SPLINE
  5
10F
330
85
100
AcDbEntity
  8
$DDT_AUDIT_GENERATED_(106)
  6
Continuous
 62
     7
100
AcDbSpline
210
0.0
220
0.0
230
1.0
 70
     8
 71
     3
 72
    18
 73
    14
 74
     0
 42
0.0000000015198268
 43
0.0000000001
 40
0.0
 40
0.0
 40
0.0
 40
0.0
 40
0.2500000000000014
 40
0.2500000000000014
 40
0.5000000000000029
 40
0.5000000000000029
 40
0.6250000000000021
 40
0.6250000000000021
 40
0.7500000000000014
 40
0.7500000000000014
 40
0.8750000000000007
 40
0.8750000000000007
 40
1.0
 40
1.0
 40
1.0
 40
1.0
 10
169.2278585031621
 20
572.0523290105177
 30
0.0
 10
169.0122415651572
 20
572.3969949810082
 30
0.0
 10
168.72333740824
 20
572.6998530021601
 30
0.0
 10
168.0347460826902
 20
573.2558313273964
 30
0.0
 10
167.6341771723737
 20
573.508168346257
 30
0.0
 10
166.9376037598376
 20
573.853767617328
 30
0.0
 10
166.6880109593928
 20
573.9637714953491
 30
0.0
 10
166.1558255941553
 20
574.1690946765498
 30
0.0
 10
165.8735724747045
 20
574.2644830578482
 30
0.0
 10
165.2680099553732
 20
574.4380306363427
 30
0.0
 10
164.9450513383144
 20
574.5163462252283
 30
0.0
 10
164.2393255119534
 20
574.6485226410333
 30
0.0
 10
163.8618331369689
 20
574.7018394338365
 30
0.0
 10
163.4470039043656
 20
574.7321667425608
 30
0.0
  0
SPLINE
  5
110
330
85
100
AcDbEntity
  8
$DDT_AUDIT_GENERATED_(106)
  6
Continuous
 62
     7
100
AcDbSpline
210
0.0
220
0.0
230
1.0
 70
     8
 71
     3
 72
    18
 73
    14
 74
     0
 42
0.0000000015199093
 43
0.0000000001
 40
0.0
 40
0.0
 40
0.0
 40
0.0
 40
0.1250000000000006
 40
0.1250000000000006
 40
0.2500000000000012
 40
0.2500000000000012
 40
0.5
 40
0.5
 40
0.6249999999999991
 40
0.6249999999999991
 40
0.7499999999999983
 40
0.7499999999999983
 40
1.0
 40
1.0
 40
1.0
 40
1.0
 10
150.3177246416809
 20
574.7321667427068
 30
0.0
 10
149.902101459627
 20
574.70178138998
 30
0.0
 10
149.5286040621305
 20
574.6488985569495
 30
0.0
 10
148.8293796112358
 20
574.5183829232233
 30
0.0
 10
148.5030344580141
 20
574.4396832728804
 30
0.0
 10
147.5901392049419
 20
574.1785260733442
 30
0.0
 10
147.0700254855995
 20
573.9733624782328
 30
0.0
 10
146.3745920478886
 20
573.6296894886948
 30
0.0
 10
146.1576343168678
 20
573.5088675681704
 30
0.0
 10
145.7512791818926
 20
573.2540433635573
 30
0.0
 10
145.5620252006144
 20
573.1200257399504
 30
0.0
 10
145.0411080084723
 20
572.7000089571377
 30
0.0
 10
144.7518295234237
 20
572.3959440285149
 30
0.0
 10
144.5368700427847
 20
572.0523290106228
 30
0.0
  0
SPLINE
  5
111
330
85
100
AcDbEntity
  8
$DDT_AUDIT_GENERATED_(106)
  6
Continuous
 62
     7
100
AcDbSpline
210
0.0
220
0.0
230
1.0
 70
     8
 71
     3
 72
    10
 73
     6
 74
     0
 42
0.0000000005903947
 43
0.0000000001
 40
0.0
 40
0.0
 40
0.0
 40
0.0
 40
0.5
 40
0.5
 40
1.0
 40
1.0
 40
1.0
 40
1.0
 10
143.9686850279209
 20
572.8261233044393
 30
0.0
 10
140.2560616734425
 20
574.3736723488292
 30
0.0
 10
137.2815329111484
 20
574.4218032544509
 30
0.0
 10
132.690677434791
 20
572.552184962674
 30
0.0
 10
131.096229619783
 20
570.5984361782547
 30
0.0
 10
130.1283076561029
 20
568.3347802413593
 30
0.0
  0
ARC
  5
112
330
85
100
AcDbEntity
  8
$DDT_AUDIT_GENERATED_(106)
  6
Continuous
 62
     7
100
AcDbCircle
 10
150.7558689875
 20
568.5441054261
 30
0.0
 40
8.025057209218405
100
AcDbArc
 50
93.1368015401
 51
147.75227204
  0
SPLINE
  5
113
330
85
100
AcDbEntity
  8
$DDT_AUDIT_GENERATED_(106)
  6
Continuous
 62
     7
100
AcDbSpline
210
0.0
220
0.0
230
1.0
 70
     8
 71
     3
 72
     8
 73
     4
 74
     0
 42
0.0000000008031831
 43
0.0000000001
 40
0.8034500675757505
 40
0.8034500675757505
 40
0.8034500675757505
 40
0.8034500675757505
 40
1.0
 40
1.0
 40
1.0
 40
1.0
 10
135.0711016282756
 20
570.7804742392879
 30
0.0
 10
134.5224222438788
 20
570.2368550424467
 30
0.0
 10
134.0325875908064
 20
569.5861522067202
 30
0.0
 10
133.5987834789835
 20
568.8432405490322
 30
0.0
  0
SPLINE
  5
114
330
85
100
AcDbEntity
  8
$DDT_AUDIT_GENERATED_(106)
  6
Continuous
 62
     7
100
AcDbSpline
210
0.0
220
0.0
230
1.0
 70
     8
 71
     3
 72
    12
 73
     8
 74
     0
 42
0.0000000005426848
 43
0.0000000001
 40
0.0
 40
0.0
 40
0.0
 40
0.0
 40
0.25
 40
0.25
 40
0.5
 40
0.5
 40
1.0
 40
1.0
 40
1.0
 40
1.0
 10
170.3005158908991
 20
571.9854773063553
 30
0.0
 10
172.1276665352014
 20
572.8835576676818
 30
0.0
 10
173.7681111729817
 20
573.3344428020613
 30
0.0
 10
176.6952084693575
 20
573.4610592153165
 30
0.0
 10
177.9843873438015
 20
573.1295871337434
 30
0.0
 10
181.3031252507389
 20
571.1331860181564
 30
0.0
 10
182.8083373813678
 20
568.455471677447
 30
0.0
 10
183.7146825775037
 20
565.0913974672492
 30
0.0
  0
SPLINE
  5
115
330
85
100
AcDbEntity
  8
$DDT_AUDIT_GENERATED_(106)
  6
Continuous
 62
     7
100
AcDbSpline
210
0.0
220
0.0
230
1.0
 70
     8
 71
     3
 72
    12
 73
     8
 74
     0
 42
0.0000000004014273
 43
0.0000000001
 40
0.0
 40
0.0
 40
0.0
 40
0.0
 40
0.2500000000000001
 40
0.2500000000000001
 40
0.5000000000000001
 40
0.5000000000000001
 40
0.6878968595145047
 40
0.6878968595145047
 40
0.6878968595145047
 40
0.6878968595145047
 10
163.4479920527039
 20
576.5571389254349
 30
0.0
 10
166.1079213096581
 20
577.7294514307353
 30
0.0
 10
168.5083513820241
 20
578.3376245595215
 30
0.0
 10
172.7891449037131
 20
578.6621624311886
 30
0.0
 10
174.674805036382
 20
578.3772333822553
 30
0.0
 10
177.5146835766072
 20
577.2680148315708
 30
0.0
 10
178.5867754503257
 20
576.5933065831204
 30
0.0
 10
179.5157704653368
 20
575.7757655904772
 30
0.0
  0
SPLINE
  5
116
330
85
100
AcDbEntity
  8
$DDT_AUDIT_GENERATED_(106)
  6
Continuous
 62
     7
100
AcDbSpline
210
0.0
220
0.0
230
1.0
 70
     8
 71
     3
 72
    10
 73
     6
 74
     0
 42
0.0000000005078376
 43
0.0000000001
 40
0.6878968595145047
 40
0.6878968595145047
 40
0.6878968595145047
 40
0.6878968595145047
 40
0.7500000000000002
 40
0.7500000000000002
 40
0.8042214799086379
 40
0.8042214799086379
 40
0.8042214799086379
 40
0.8042214799086379
 10
179.5157704653368
 20
575.7757655904772
 30
0.0
 10
179.8228192796525
 20
575.5055542455407
 30
0.0
 10
180.1142359630948
 20
575.219739622025
 30
0.0
 10
180.6310326815274
 20
574.6589394875132
 30
0.0
 10
180.8602479584242
 20
574.3870311126777
 30
0.0
 10
181.0778893223319
 20
574.1063871760134
 30
0.0
  0
SPLINE
  5
117
330
85
100
AcDbEntity
  8
$DDT_AUDIT_GENERATED_(106)
  6
Continuous
 62
     7
100
AcDbSpline
210
0.0
220
0.0
230
1.0
 70
     8
 71
     3
 72
    20
 73
    16
 74
     0
 42
0.0000000013051021
 43
0.0000000001
 40
0.0
 40
0.0
 40
0.0
 40
0.0
 40
0.1250000000000009
 40
0.1250000000000009
 40
0.2500000000000021
 40
0.2500000000000021
 40
0.3750000000000032
 40
0.3750000000000032
 40
0.5000000000000042
 40
0.5000000000000042
 40
0.7500000000000034
 40
0.7500000000000034
 40
0.8750000000000017
 40
0.8750000000000017
 40
1.0
 40
1.0
 40
1.0
 40
1.0
 10
163.4479920527039
 20
576.5571389254349
 30
0.0
 10
163.9072392681318
 20
576.5053681285157
 30
0.0
 10
164.3300102912791
 20
576.425194626904
 30
0.0
 10
165.1236692029992
 20
576.2301279558982
 30
0.0
 10
165.4867556932538
 20
576.1168395123236
 30
0.0
 10
166.1661278760613
 20
575.8680555861647
 30
0.0
 10
166.482061619791
 20
575.7323804542393
 30
0.0
 10
167.0758245711797
 20
575.4418788031835
 30
0.0
 10
167.3534905087702
 20
575.2868129820415
 30
0.0
 10
168.1223643730357
 20
574.8032648408678
 30
0.0
 10
168.5572868279512
 20
574.454197227475
 30
0.0
 10
169.1066120175216
 20
573.8842408113575
 30
0.0
 10
169.2721493138889
 20
573.6863765158695
 30
0.0
 10
169.5651076969404
 20
573.2713091142471
 30
0.0
 10
169.6926908901958
 20
573.0536923279861
 30
0.0
 10
169.7960435180231
 20
572.8261233043359
 30
0.0
  0
ARC
  5
118
330
85
100
AcDbEntity
  8
$DDT_AUDIT_GENERATED_(106)
  6
Continuous
 62
     7
100
AcDbCircle
 10
156.8823642721
 20
498.9159623096
 30
0.0
 40
77.91828908823824
100
AcDbArc
 50
85.1663549108
 51
94.8336450879
  0
ELLIPSE
  5
119
330
85
100
AcDbEntity
  8
$DDT_AUDIT_GENERATED_(106)
  6
Continuous
 62
     7
100
AcDbEllipse
 10
163.2341374083
 20
575.6033238593
 30
0.0
 11
-0.08179262442343377
 21
-0.9966493699340578
 31
0.0
210
0.0
220
0.0
230
1.0
 40
0.5393661289
 41
0.5532385945642334
 42
2.888373284243282
  0
ELLIPSE
  5
11A
330
85
100
AcDbEntity
  8
$DDT_AUDIT_GENERATED_(106)
  6
Continuous
 62
     7
100
AcDbEllipse
 10
150.5305911377
 20
575.6033238595
 30
0.0
 11
0.08179262441584782
 21
-0.9966493699346546
 31
0.0
210
0.0
220
0.0
230
1.0
 40
0.5393661288
 41
3.394812022923099
 42
5.729946712622276
  0
SPLINE
  5
11B
330
85
100
AcDbEntity
  8
$DDT_AUDIT_GENERATED_(106)
  6
Continuous
 62
     7
100
AcDbSpline
210
0.0
220
0.0
230
1.0
 70
     8
 71
     3
 72
    12
 73
     8
 74
     0
 42
0.0000000005966832
 43
0.0000000001
 40
0.0
 40
0.0
 40
0.0
 40
0.0
 40
0.5000000000000001
 40
0.5000000000000001
 40
0.75
 40
0.75
 40
1.0
 40
1.0
 40
1.0
 40
1.0
 10
183.6363390531583
 20
568.3349716265162
 30
0.0
 10
182.6686888808293
 20
570.5978929763997
 30
0.0
 10
181.0752557212182
 20
572.5483416174649
 30
0.0
 10
177.6439156807457
 20
573.9507683725049
 30
0.0
 10
176.3213094344154
 20
574.1729101824122
 30
0.0
 10
173.3256426824387
 20
573.9962754409979
 30
0.0
 10
171.6526330495034
 20
573.6000136457685
 30
0.0
 10
169.7960435180231
 20
572.8261233043359
 30
0.0
  0
ARC
  5
11C
330
85
100
AcDbEntity
  8
$DDT_AUDIT_GENERATED_(106)
  6
Continuous
 62
     7
100
AcDbCircle
 10
178.4708751733
 20
568.3899209389
 30
0.0
 40
5.165756142274336
100
AcDbArc
 50
359.3905203849
 51
20.7780746204
  0
LINE
  5
11D
330
85
100
AcDbEntity
  8
$DDT_AUDIT_GENERATED_(106)
  6
Continuous
 62
     7
100
AcDbLine
 10
183.7146825775
 20
565.0913974672
 30
0.0
 11
183.6363390532
 21
568.3349716265
 31
0.0
  0
ARC
  5
11E
330
85
100
AcDbEntity
  8
$DDT_AUDIT_GENERATED_(106)
  6
Continuous
 62
     7
100
AcDbCircle
 10
191.5744567611
 20
564.6890280222
 30
0.0
 40
7.870618349889408
100
AcDbArc
 50
177.5208868232
 51
181.7175105638
  0
ARC
  5
11F
330
85
100
AcDbEntity
  8
$DDT_AUDIT_GENERATED_(106)
  6
Continuous
 62
     7
100
AcDbCircle
 10
-432.4913901649
 20
549.7048091912
 30
0.0
 40
616.3752350372171
100
AcDbArc
 50
359.8595580587
 51
1.3710760224
  0
ARC
  5
120
330
85
100
AcDbEntity
  8
$DDT_AUDIT_GENERATED_(106)
  6
Continuous
 62
     7
100
AcDbCircle
 10
192.3955456839
 20
564.7004610138
 30
0.0
 40
8.693035022476167
100
AcDbArc
 50
178.5910212242
 51
181.9157596631
  0
ELLIPSE
  5
121
330
85
100
AcDbEntity
  8
$DDT_AUDIT_GENERATED_(106)
  6
Continuous
 62
     7
100
AcDbEllipse
 10
183.2157739102
 20
565.0971308602
 30
0.0
 11
-0.4998838026330117
 21
-0.01077886208054879
 31
0.0
210
0.0
220
0.0
230
1.0
 40
0.4522437359
 41
3.146921367116167
 42
3.242296452391189
  0
ELLIPSE
  5
122
330
85
100
AcDbEntity
  8
$DDT_AUDIT_GENERATED_(106)
  6
Continuous
 62
     7
100
AcDbEllipse
 10
183.1375128869
 20
568.3409175385
 30
0.0
 11
-0.4998204889301965
 21
-0.01339697151549191
 31
0.0
210
0.0
220
0.0
230
0.9999999999999998
 40
0.4969183675
 41
3.063798034502269
 42
3.262151197726304
  0
ARC
  5
123
330
85
100
AcDbEntity
  8
$DDT_AUDIT_GENERATED_(106)
  6
Continuous
 62
     7
100
AcDbCircle
 10
135.2952233892
 20
568.3894345633
 30
0.0
 40
5.167204784754458
100
AcDbArc
 50
159.3012478456
 51
180.6060375968
  0
ARC
  5
124
330
85
100
AcDbEntity
  8
$DDT_AUDIT_GENERATED_(106)
  6
Continuous
 62
     7
100
AcDbCircle
 10
122.2202173256
 20
564.6893309629
 30
0.0
 40
7.840558337305495
100
AcDbArc
 50
358.2754666964
 51
2.4842329745
  0
SPLINE
  5
125
330
85
100
AcDbEntity
  8
$DDT_AUDIT_GENERATED_(106)
  6
Continuous
 62
     7
100
AcDbSpline
210
0.0
220
0.0
230
1.0
 70
     8
 71
     3
 72
    12
 73
     8
 74
     0
 42
0.0000000005426647
 43
0.0000000001
 40
0.0
 40
0.0
 40
0.0
 40
0.0
 40
0.5
 40
0.5
 40
0.75
 40
0.75
 40
1.0
 40
1.0
 40
1.0
 40
1.0
 10
130.0499251895079
 20
565.0909491561978
 30
0.0
 10
130.9562538871431
 20
568.4552187039801
 30
0.0
 10
132.461569836441
 20
571.1338788945541
 30
0.0
 10
135.7823843295372
 20
573.130459357787
 30
0.0
 10
137.0714199606553
 20
573.461199064358
 30
0.0
 10
139.9972682418572
 20
573.3341924221734
 30
0.0
 10
141.6371988096102
 20
572.8834904282844
 30
0.0
 10
143.4642126549677
 20
571.9854773063468
 30
0.0
  0
ARC
  5
126
330
85
100
AcDbEntity
  8
$DDT_AUDIT_GENERATED_(106)
  6
Continuous
 62
     7
100
AcDbCircle
 10
121.378060381
 20
564.7004537694
 30
0.0
 40
8.684015380037359
100
AcDbArc
 50
358.0836768232
 51
1.4087615939
  0
ARC
  5
127
330
85
100
AcDbEntity
  8
$DDT_AUDIT_GENERATED_(106)
  6
Continuous
 62
     7
100
AcDbCircle
 10
724.4701407894
 20
549.9034829609
 30
0.0
 40
594.5899110643538
100
AcDbArc
 50
178.6019806866
 51
180.1643696046
  0
LINE
  5
128
330
85
100
AcDbEntity
  8
$DDT_AUDIT_GENERATED_(106)
  6
Continuous
 62
     7
100
AcDbLine
 10
130.1283076561
 20
568.3347802413
 30
0.0
 11
130.0499251895
 21
565.0909491562
 31
0.0
  0
ELLIPSE
  5
129
330
85
100
AcDbEntity
  8
$DDT_AUDIT_GENERATED_(106)
  6
Continuous
 62
     7
100
AcDbEllipse
 10
130.548833984
 20
565.0966822154
 30
0.0
 11
0.4998837024492997
 21
-0.0107835073214213
 31
0.0
210
0.0
220
0.0
230
1.0
 40
0.452358563
 41
3.040757855218545
 42
3.140028868641985
  0
ELLIPSE
  5
12A
330
85
100
AcDbEntity
  8
$DDT_AUDIT_GENERATED_(106)
  6
Continuous
 62
     7
100
AcDbEllipse
 10
130.6271339086
 20
568.3407259353
 30
0.0
 11
0.4998203441884986
 21
-0.01340237038018055
 31
0.0
210
0.0
220
0.0
230
0.9999999999999998
 40
0.4970322526
 41
3.020885141355545
 42
3.219390273491206
  0
ARC
  5
12B
330
85
100
AcDbEntity
  8
$DDT_AUDIT_GENERATED_(106)
  6
Continuous
 62
     7
100
AcDbCircle
 10
-428.6590905826
 20
549.7064768329
 30
0.0
 40
612.542954209353
100
AcDbArc
 50
359.8583570779
 51
1.3754501037
  0
SPLINE
  5
12C
330
85
100
AcDbEntity
  8
$DDT_AUDIT_GENERATED_(106)
  6
Continuous
 62
     7
100
AcDbSpline
210
0.0
220
0.0
230
1.0
 70
     8
 71
     3
 72
     8
 73
     4
 74
     0
 42
0.0000000041519097
 43
0.0000000001
 40
0.0
 40
0.0
 40
0.0
 40
0.0
 40
0.2430366108677689
 40
0.2430366108677689
 40
0.2430366108677689
 40
0.2430366108677689
 10
129.8826764490935
 20
548.197731239334
 30
0.0
 10
129.8848650555062
 20
547.986923432596
 30
0.0
 10
129.8985415532196
 20
547.7927342758387
 30
0.0
 10
129.923967286068
 20
547.6146686865676
 30
0.0
  0
SPLINE
  5
12D
330
85
100
AcDbEntity
  8
$DDT_AUDIT_GENERATED_(106)
  6
Continuous
 62
     7
100
AcDbSpline
210
0.0
220
0.0
230
1.0
 70
     8
 71
     3
 72
     8
 73
     4
 74
     0
 42
0.0000000038934772
 43
0.0000000001
 40
0.9698969825436915
 40
0.9698969825436915
 40
0.9698969825436915
 40
0.9698969825436915
 40
1.0
 40
1.0
 40
1.0
 40
1.0
 10
183.8805782737921
 20
548.1148869328582
 30
0.0
 10
183.8812253432019
 20
548.1404011382783
 30
0.0
 10
183.8816963758174
 20
548.1661682765391
 30
0.0
 10
183.8819918638872
 20
548.1921892825357
 30
0.0
  0
LINE
  5
12E
330
85
100
AcDbEntity
  8
$DDT_AUDIT_GENERATED_(106)
  6
Continuous
 62
     7
100
AcDbLine
 10
183.8819918639
 20
548.1921892825
 30
0.0
 11
183.8819932033
 21
548.1939675784
 31
0.0
  0
ARC
  5
12F
330
85
100
AcDbEntity
  8
$DDT_AUDIT_GENERATED_(106)
  6
Continuous
 62
     7
100
AcDbCircle
 10
728.2472764025
 20
549.9016360514
 30
0.0
 40
598.3670206683041
100
AcDbArc
 50
178.6064816066
 51
180.1629869697
  0
LINE
  5
130
330
85
100
AcDbEntity
  8
$DDT_AUDIT_GENERATED_(106)
  6
Continuous
 62
     7
100
AcDbLine
 10
129.8826767513
 20
548.1994880617
 30
0.0
 11
129.8826764491
 21
548.1977312393
 31
0.0
  0
ELLIPSE
  5
131
330
85
100
AcDbEntity
  8
$DDT_AUDIT_GENERATED_(106)
  6
Continuous
 62
     7
100
AcDbEllipse
 10
156.8823642729
 20
547.1703817153
 30
0.0
 11
26.75000000000006
 21
0.0
 31
0.0
210
0.0
220
0.0
230
1.0
 40
0.1736481777
 41
-0.9886615489010939
 42
-0.4532971047756176
  0
ELLIPSE
  5
132
330
85
100
AcDbEntity
  8
$DDT_AUDIT_GENERATED_(106)
  6
Continuous
 62
     7
100
AcDbEllipse
 10
156.8823642729
 20
547.1703817153
 30
0.0
 11
26.75000000000006
 21
0.0
 31
0.0
210
0.0
220
0.0
230
1.0
 40
0.1736481777
 41
3.57854248687913
 42
4.129607949023273
  0
SPLINE
  5
133
330
85
100
AcDbEntity
  8
$DDT_AUDIT_GENERATED_(106)
  6
Continuous
 62
     7
100
AcDbSpline
210
0.0
220
0.0
230
1.0
 70
    11
 71
     3
 72
    22
 73
    18
 74
     0
 42
0.0000000004611765
 43
0.0000000001
 40
0.0
 40
0.0
 40
0.0
 40
0.0
 40
0.125
 40
0.125
 40
0.2499999999999999
 40
0.2499999999999999
 40
0.3749999999999999
 40
0.3749999999999999
 40
0.4999999999999999
 40
0.4999999999999999
 40
0.6249999999999999
 40
0.6249999999999999
 40
0.7499999999999998
 40
0.7499999999999998
 40
0.8749999999999999
 40
0.8749999999999999
 40
1.0
 40
1.0
 40
1.0
 40
1.0
 10
156.8823642729397
 20
557.981993421077
 30
0.0
 10
155.9850360635145
 20
557.981993421077
 30
0.0
 10
155.1140974361024
 20
557.5944141545458
 30
0.0
 10
153.9312214490512
 20
556.3195734740684
 30
0.0
 10
153.6196777896856
 20
555.4429768667544
 30
0.0
 10
153.6458817030583
 20
553.6880042502371
 30
0.0
 10
153.9651542428082
 20
552.8188607072066
 30
0.0
 10
155.1320824764783
 20
551.4708501038398
 30
0.0
 10
155.9845622240501
 20
551.030550386696
 30
0.0
 10
157.7634540489864
 20
551.0253313820435
 30
0.0
 10
158.6246357160425
 20
551.4652449780071
 30
0.0
 10
159.7951150776143
 20
552.8100999552952
 30
0.0
 10
160.1182270611017
 20
553.6856619690619
 30
0.0
 10
160.1455947297288
 20
555.4403526969478
 30
0.0
 10
159.8375921961399
 20
556.3134941323369
 30
0.0
 10
158.6522338451246
 20
557.5943554308591
 30
0.0
 10
157.779692482365
 20
557.981993421077
 30
0.0
 10
156.8823642729397
 20
557.981993421077
 30
0.0
  0
ARC
  5
134
330
85
100
AcDbEntity
  8
$DDT_AUDIT_GENERATED_(106)
  6
Continuous
 62
     7
100
AcDbCircle
 10
156.8693015509
 20
555.0537538945
 30
0.0
 40
30.67386428068249
100
AcDbArc
 50
42.4570718615
 51
137.5066623624
  0
ARC
  5
135
330
85
100
AcDbEntity
  8
$DDT_AUDIT_GENERATED_(106)
  6
Continuous
 62
     7
100
AcDbCircle
 10
168.4370148446
 20
564.3087319773
 30
0.0
 40
15.99068926824332
100
AcDbArc
 50
21.6948410978
 51
37.8764651843
  0
ARC
  5
136
330
85
100
AcDbEntity
  8
$DDT_AUDIT_GENERATED_(106)
  6
Continuous
 62
     7
100
AcDbCircle
 10
144.9384584185
 20
564.4899479773
 30
0.0
 40
15.55963691639379
100
AcDbArc
 50
141.5574541898
 51
158.4478747425
  0
SPLINE
  5
137
330
85
100
AcDbEntity
  8
$DDT_AUDIT_GENERATED_(106)
  6
Continuous
 62
     7
100
AcDbSpline
210
0.0
220
0.0
230
1.0
 70
     8
 71
     3
 72
    21
 73
    17
 74
     0
 42
0.0000000010300239
 43
0.0000000001
 40
0.0
 40
0.0
 40
0.0
 40
0.0
 40
0.0214967673208007
 40
0.0930925769557906
 40
0.1655679940267511
 40
0.2391183218548416
 40
0.3139904953514001
 40
0.3904925617981975
 40
0.4673081366168342
 40
0.5466592062318467
 40
0.6287591176692018
 40
0.7137444720118503
 40
0.8013104692106925
 40
0.8906238325740321
 40
0.9806333975563242
 40
1.0
 40
1.0
 40
1.0
 40
1.0
 10
169.7684381064556
 20
571.1270235814839
 30
0.0
 10
169.8692905158749
 20
571.1787215675528
 30
0.0
 10
170.2420190354635
 20
571.3692347961196
 30
0.0
 10
170.9297036920074
 20
571.6589853279323
 30
0.0
 10
171.7695792345609
 20
571.9647242403362
 30
0.0
 10
172.5867244501304
 20
572.1950962143351
 30
0.0
 10
173.3731819939753
 20
572.3522812259474
 30
0.0
 10
174.1273133891978
 20
572.4364312046483
 30
0.0
 10
174.8441613891446
 20
572.4460494491562
 30
0.0
 10
175.5340299260816
 20
572.3813830196154
 30
0.0
 10
176.202541485072
 20
572.239728098597
 30
0.0
 10
176.8504275340577
 20
572.0169335330227
 30
0.0
 10
177.4794148595235
 20
571.7089812998681
 30
0.0
 10
178.0756226034753
 20
571.3114172010271
 30
0.0
 10
178.5174822328875
 20
570.95582708298
 30
0.0
 10
178.7230254436682
 20
570.7347175404963
 30
0.0
 10
178.7654701827062
 20
570.6888950347324
 30
0.0
  0
SPLINE
  5
138
330
85
100
AcDbEntity
  8
$DDT_AUDIT_GENERATED_(106)
  6
Continuous
 62
     7
100
AcDbSpline
210
0.0
220
0.0
230
1.0
 70
     8
 71
     3
 72
    21
 73
    17
 74
     0
 42
0.0000000010314207
 43
0.0000000001
 40
0.0
 40
0.0
 40
0.0
 40
0.0
 40
0.004026545449736
 40
0.0940659063083845
 40
0.1841754057914535
 40
0.2743167884261227
 40
0.3637704895344756
 40
0.4514394840751046
 40
0.5363423575560365
 40
0.6181039624123451
 40
0.6958168101905117
 40
0.7737940102834312
 40
0.8498490770093269
 40
0.9243731025349735
 40
0.9976940758709631
 40
1.0
 40
1.0
 40
1.0
 40
1.0
 10
135.0015968800758
 20
570.698169751882
 30
0.0
 10
135.0103668093721
 20
570.7078242935415
 30
0.0
 10
135.1869981105496
 20
570.9021386598026
 30
0.0
 10
135.5961995404624
 20
571.2381311481025
 30
0.0
 10
136.1925533301018
 20
571.6556674802328
 30
0.0
 10
136.8346706193675
 20
571.9845176142898
 30
0.0
 10
137.5091499861527
 20
572.2271850047111
 30
0.0
 10
138.2168257849499
 20
572.3818046518268
 30
0.0
 10
138.9525828492922
 20
572.4496172470004
 30
0.0
 10
139.7103054313206
 20
572.4321686161735
 30
0.0
 10
140.5006400628357
 20
572.3358584652276
 30
0.0
 10
141.3168664978014
 20
572.161855333908
 30
0.0
 10
142.1702821446049
 20
571.908657792018
 30
0.0
 10
143.042948952688
 20
571.5734675843047
 30
0.0
 10
143.6738738984808
 20
571.3018449046513
 30
0.0
 10
143.9818832804653
 20
571.140105293182
 30
0.0
 10
143.9927738183459
 20
571.1343849850609
 30
0.0
  0
ARC
  5
139
330
85
100
AcDbEntity
  8
$DDT_AUDIT_GENERATED_(106)
  6
Continuous
 62
     7
100
AcDbCircle
 10
169.3309505891
 20
572.027992085
 30
0.0
 40
1.000000000001002
100
AcDbArc
 50
261.0124051135
 51
270.0
  0
ARC
  5
13A
330
85
100
AcDbEntity
  8
$DDT_AUDIT_GENERATED_(106)
  6
Continuous
 62
     7
100
AcDbCircle
 10
169.3309505891
 20
572.027992085
 30
0.0
 40
1.000000000000001
100
AcDbArc
 50
270.0
 51
296.1559142165
  0
ARC
  5
13B
330
85
100
AcDbEntity
  8
$DDT_AUDIT_GENERATED_(106)
  6
Continuous
 62
     7
100
AcDbCircle
 10
156.8816234518
 20
481.868170066
 30
0.0
 40
90.01489575690327
100
AcDbArc
 50
82.1519329863
 51
97.847640967
  0
ARC
  5
13C
330
85
100
AcDbEntity
  8
$DDT_AUDIT_GENERATED_(106)
  6
Continuous
 62
     7
100
AcDbCircle
 10
144.4337779568
 20
572.027992085
 30
0.0
 40
0.999999999999995
100
AcDbArc
 50
243.8440857841
 51
270.0
  0
ARC
  5
13D
330
85
100
AcDbEntity
  8
$DDT_AUDIT_GENERATED_(106)
  6
Continuous
 62
     7
100
AcDbCircle
 10
144.4337779568
 20
572.027992085
 30
0.0
 40
1.000000000000001
100
AcDbArc
 50
270.0
 51
278.9875948868
  0
ARC
  5
13E
330
85
100
AcDbEntity
  8
$DDT_AUDIT_GENERATED_(106)
  6
Continuous
 62
     7
100
AcDbCircle
 10
181.9941514845
 20
565.058439117
 30
0.0
 40
1.721894912758276
100
AcDbArc
 50
356.7934115198
 51
1.6863452731
  0
LINE
  5
13F
330
85
100
AcDbEntity
  8
$DDT_AUDIT_GENERATED_(106)
  6
Continuous
 62
     7
100
AcDbLine
 10
183.8786084525
 20
549.9530312683
 30
0.0
 11
183.8786084469
 21
550.755725302
 31
0.0
  0
ARC
  5
140
330
85
100
AcDbEntity
  8
$DDT_AUDIT_GENERATED_(106)
  6
Continuous
 62
     7
100
AcDbCircle
 10
131.848093768
 20
565.0657065365
 30
0.0
 40
1.799538962524948
100
AcDbArc
 50
178.6586227633
 51
182.8775280899
  0
ARC
  5
141
330
85
100
AcDbEntity
  8
$DDT_AUDIT_GENERATED_(106)
  6
Continuous
 62
     7
100
AcDbCircle
 10
131.8488647583
 20
547.684484362
 30
0.0
 40
1.916100261807778
100
AcDbArc
 50
182.7628584088
 51
229.6184917557
  0
ARC
  5
142
330
85
100
AcDbEntity
  8
$DDT_AUDIT_GENERATED_(106)
  6
Continuous
 62
     7
100
AcDbCircle
 10
178.6939475578
 20
552.4886268301
 30
0.0
 40
7.696413089141275
100
AcDbArc
 50
287.5003974212
 51
305.4933548913
  0
ARC
  5
143
330
85
100
AcDbEntity
  8
$DDT_AUDIT_GENERATED_(106)
  6
Continuous
 62
     7
100
AcDbCircle
 10
134.8753268793
 20
552.1444834676
 30
0.0
 40
7.302848425893851
100
AcDbArc
 50
234.1875034486
 51
251.527866819
  0
LINE
  5
144
330
85
100
AcDbEntity
  8
$DDT_AUDIT_GENERATED_(106)
  6
Continuous
 62
     7
100
AcDbLine
 10
183.8819387113
 20
548.186989819
 30
0.0
 11
183.8819792065
 21
548.1920200978
 31
0.0
  0
SPLINE
  5
145
330
85
100
AcDbEntity
  8
$DDT_AUDIT_GENERATED_(106)
  6
Continuous
 62
     7
100
AcDbSpline
210
0.0
220
0.0
230
1.0
 70
     8
 71
     3
 72
    13
 73
     9
 74
     0
 42
0.0000000047832262
 43
0.0000000001
 40
0.0
 40
0.0
 40
0.0
 40
0.0
 40
0.1154683298581711
 40
0.3192723417366203
 40
0.5237932997169127
 40
0.7325145860820653
 40
0.949394632616616
 40
0.9807526946002694
 40
0.9807526946002694
 40
0.9807526946002694
 40
0.9807526946002694
 10
183.1506448704339
 20
546.2339011219788
 30
0.0
 10
183.2130652645427
 20
546.2794057180413
 30
0.0
 10
183.3583260646845
 20
546.3876454348876
 30
0.0
 10
183.5554003903283
 20
546.6623958750771
 30
0.0
 10
183.7241876297859
 20
547.0300705356963
 30
0.0
 10
183.8282604731838
 20
547.4688193562642
 30
0.0
 10
183.8733767812692
 20
547.8299301443332
 30
0.0
 10
183.8730855067849
 20
548.0365300659299
 30
0.0
 10
183.8728565839565
 20
548.0644004862437
 30
0.0
  0
ELLIPSE
  5
147
330
85
100
AcDbEntity
  8
$DDT_AUDIT_GENERATED_(146)
  6
Continuous
 62
     7
100
AcDbEllipse
 10
156.8823642729
 20
554.6285209518
 30
0.0
 11
0.0
 21
3.449999999999989
 31
0.0
210
0.0
220
0.0
230
1.0
 40
1.0
 41
1.570796326794897
 42
4.71238898038469
  0
ELLIPSE
  5
149
330
85
100
AcDbEntity
  8
$DDT_AUDIT_GENERATED_(148)
  6
Continuous
 62
     7
100
AcDbEllipse
 10
156.8823642729
 20
516.3229057008
 30
0.0
 11
13.71130913087035
 21
0.0
 31
0.0
210
0.0
220
0.0
230
1.0
 40
0.1736481777
 41
0.2872575704552434
 42
0.3877802685008992
  0
ELLIPSE
  5
14A
330
85
100
AcDbEntity
  8
$DDT_AUDIT_GENERATED_(148)
  6
Continuous
 62
     7
100
AcDbEllipse
 10
156.8823642729
 20
516.3229057008
 30
0.0
 11
13.71130913087035
 21
0.0
 31
0.0
210
0.0
220
0.0
230
1.0
 40
0.1736481777
 41
-3.529372922090692
 42
-3.424134617150701
  0
LINE
  5
14B
330
85
100
AcDbEntity
  8
$DDT_AUDIT_GENERATED_(148)
  6
Continuous
 62
     7
100
AcDbLine
 10
142.8823642729
 20
515.8766362332
 30
0.0
 11
142.8823642729
 21
513.9810576229
 31
0.0
  0
LINE
  5
14C
330
85
100
AcDbEntity
  8
$DDT_AUDIT_GENERATED_(148)
  6
Continuous
 62
     7
100
AcDbLine
 10
170.8823642729
 20
513.9779557706
 30
0.0
 11
170.8823642729
 21
515.8766362332
 31
0.0
  0
LINE
  5
14D
330
85
100
AcDbEntity
  8
$DDT_AUDIT_GENERATED_(148)
  6
Continuous
 62
     7
100
AcDbLine
 10
169.5756182543
 20
517.2232225451
 30
0.0
 11
168.4416656875
 21
517.7052956947
 31
0.0
  0
LINE
  5
14E
330
85
100
AcDbEntity
  8
$DDT_AUDIT_GENERATED_(148)
  6
Continuous
 62
     7
100
AcDbLine
 10
145.3184309811
 20
517.7033265615
 30
0.0
 11
144.1891102916
 21
517.2232225451
 31
0.0
  0
LINE
  5
14F
330
85
100
AcDbEntity
  8
$DDT_AUDIT_GENERATED_(148)
  6
Continuous
 62
     7
100
AcDbLine
 10
145.3823642729
 20
522.6380937548
 30
0.0
 11
145.3823642729
 21
517.9657823239
 31
0.0
  0
LINE
  5
150
330
85
100
AcDbEntity
  8
$DDT_AUDIT_GENERATED_(148)
  6
Continuous
 62
     7
100
AcDbLine
 10
168.3823642729
 20
517.9657823239
 30
0.0
 11
168.3823642729
 21
522.6377799676
 31
0.0
  0
SPLINE
  5
151
330
85
100
AcDbEntity
  8
$DDT_AUDIT_GENERATED_(148)
  6
Continuous
 62
     7
100
AcDbSpline
210
0.0
220
0.0
230
1.0
 70
     8
 71
     3
 72
    12
 73
     8
 74
     0
 42
0.000000007079661
 43
0.0000000001
 40
0.0
 40
0.0
 40
0.0
 40
0.0
 40
0.1153741785100976
 40
0.3932190817666418
 40
0.6224979171933016
 40
0.8238999040800968
 40
1.0
 40
1.0
 40
1.0
 40
1.0
 10
143.6705746367331
 20
516.9561580532464
 30
0.0
 10
143.6133510900273
 20
516.924773497954
 30
0.0
 10
143.4481225543746
 20
516.8327659630831
 30
0.0
 10
143.228147762277
 20
516.6461236119854
 30
0.0
 10
143.0282052552503
 20
516.404043892016
 30
0.0
 10
142.9049086902611
 20
516.1389927970986
 30
0.0
 10
142.8896940098458
 20
515.9705498222334
 30
0.0
 10
142.8823642729397
 20
515.8766362332051
 30
0.0
  0
SPLINE
  5
152
330
85
100
AcDbEntity
  8
$DDT_AUDIT_GENERATED_(148)
  6
Continuous
 62
     7
100
AcDbSpline
210
0.0
220
0.0
230
1.0
 70
     8
 71
     3
 72
    13
 73
     9
 74
     0
 42
0.0000000070213859
 43
0.0000000001
 40
0.0
 40
0.0
 40
0.0
 40
0.0
 40
0.0902159141531241
 40
0.2890792895984893
 40
0.4930792766155335
 40
0.7235049862012287
 40
0.9961924649235844
 40
1.0
 40
1.0
 40
1.0
 40
1.0
 10
170.8698429622787
 20
515.88412111781
 30
0.0
 10
170.8728353734222
 20
515.9326544189016
 30
0.0
 10
170.8801576201714
 20
516.0643169735956
 30
0.0
 10
170.7931991909948
 20
516.2974510825175
 30
0.0
 10
170.6377156563931
 20
516.538434688891
 30
0.0
 10
170.4037191632682
 20
516.7596823641655
 30
0.0
 10
170.2113457502085
 20
516.9062004544526
 30
0.0
 10
170.0846597706885
 20
516.9703486626411
 30
0.0
 10
170.0826383083522
 20
516.971371841939
 30
0.0
  0
SPLINE
  5
153
330
85
100
AcDbEntity
  8
$DDT_AUDIT_GENERATED_(148)
  6
Continuous
 62
     7
100
AcDbSpline
210
0.0
220
0.0
230
1.0
 70
     8
 71
     3
 72
    11
 73
     7
 74
     0
 42
0.0000000130658581
 43
0.0000000001
 40
0.5257497448015633
 40
0.5257497448015633
 40
0.5257497448015633
 40
0.5257497448015633
 40
0.5853846588584566
 40
0.752997280038057
 40
0.918148165360617
 40
1.0
 40
1.0
 40
1.0
 40
1.0
 10
168.4910244265319
 20
517.6300477246791
 30
0.0
 10
168.4910105099151
 20
517.6300539257852
 30
0.0
 10
168.4855862546382
 20
517.6355108383308
 30
0.0
 10
168.4437833455037
 20
517.6867998245732
 30
0.0
 10
168.389038009852
 20
517.8325348785
 30
0.0
 10
168.3843103607068
 20
517.92778678868
 30
0.0
 10
168.3823642729398
 20
517.9657823238903
 30
0.0
  0
SPLINE
  5
154
330
85
100
AcDbEntity
  8
$DDT_AUDIT_GENERATED_(148)
  6
Continuous
 62
     7
100
AcDbSpline
210
0.0
220
0.0
230
1.0
 70
     8
 71
     3
 72
    11
 73
     7
 74
     0
 42
0.0000000124608415
 43
0.0000000001
 40
0.0
 40
0.0
 40
0.0
 40
0.0
 40
0.0065409385134735
 40
0.1823340904411646
 40
0.3289108361471901
 40
0.4531801073898843
 40
0.4531801073898843
 40
0.4531801073898843
 40
0.4531801073898843
 10
145.3811299279643
 20
517.9639629884961
 30
0.0
 10
145.3815715326003
 20
517.9610409801376
 30
0.0
 10
145.3922017949959
 20
517.8910092160784
 30
0.0
 10
145.3458309144067
 20
517.7402100256918
 30
0.0
 10
145.2893060360175
 20
517.6453761108573
 30
0.0
 10
145.2741834099993
 20
517.6302256159822
 30
0.0
 10
145.2739007362329
 20
517.6300788923522
 30
0.0
  0
ELLIPSE
  5
156
330
85
100
AcDbEntity
  8
$DDT_AUDIT_GENERATED_(155)
  6
Continuous
 62
     7
100
AcDbEllipse
 10
156.8823642729
 20
471.972463989
 30
0.0
 11
-11.49999999999999
 21
0.0
 31
0.0
210
0.0
220
0.0
230
1.0
 40
0.1736481777
 41
0.1772537090970293
 42
2.964338944492751
  0
ELLIPSE
  5
157
330
85
100
AcDbEntity
  8
$DDT_AUDIT_GENERATED_(155)
  6
Continuous
 62
     7
100
AcDbEllipse
 10
156.8823642729
 20
474.4344833715
 30
0.0
 11
14.0
 21
0.0
 31
0.0
210
0.0
220
0.0
230
1.0
 40
0.1736481777
 41
5.902934100486663
 42
6.283185307179586
  0
ELLIPSE
  5
158
330
85
100
AcDbEntity
  8
$DDT_AUDIT_GENERATED_(155)
  6
Continuous
 62
     7
100
AcDbEllipse
 10
156.8823642729
 20
474.4344833715
 30
0.0
 11
14.0
 21
0.0
 31
0.0
210
0.0
220
0.0
230
1.0
 40
0.1736481777
 41
3.905417779041486
 42
5.51936018172789
  0
ELLIPSE
  5
159
330
85
100
AcDbEntity
  8
$DDT_AUDIT_GENERATED_(155)
  6
Continuous
 62
     7
100
AcDbEllipse
 10
156.8823642729
 20
474.4344833715
 30
0.0
 11
14.0
 21
0.0
 31
0.0
210
0.0
220
0.0
230
1.0
 40
0.1736481777
 41
3.141592653589793
 42
3.521843860282733
  0
ELLIPSE
  5
15A
330
85
100
AcDbEntity
  8
$DDT_AUDIT_GENERATED_(155)
  6
Continuous
 62
     7
100
AcDbEllipse
 10
156.8823642729
 20
462.1243864589
 30
0.0
 11
9.310000000000002
 21
0.0
 31
0.0
210
0.0
220
0.0
230
1.0
 40
0.1736481777
 41
3.318846362686826
 42
6.105931598082553
  0
ELLIPSE
  5
15B
330
85
100
AcDbEntity
  8
$DDT_AUDIT_GENERATED_(155)
  6
Continuous
 62
     7
100
AcDbEllipse
 10
156.8823642729
 20
463.2766115299
 30
0.0
 11
10.48000000000001
 21
0.0
 31
0.0
210
0.0
220
0.0
230
1.0
 40
0.1736481777
 41
3.141592653589793
 42
6.283185307179586
  0
LINE
  5
15C
330
85
100
AcDbEntity
  8
$DDT_AUDIT_GENERATED_(155)
  6
Continuous
 62
     7
100
AcDbLine
 10
170.8823642729
 20
474.4344833715
 30
0.0
 11
170.8823642729
 21
477.7990502745
 31
0.0
  0
LINE
  5
15D
330
85
100
AcDbEntity
  8
$DDT_AUDIT_GENERATED_(155)
  6
Continuous
 62
     7
100
AcDbLine
 10
142.8823642729
 20
477.7916815427
 30
0.0
 11
142.8823642729
 21
474.4344833715
 31
0.0
  0
LINE
  5
15E
330
85
100
AcDbEntity
  8
$DDT_AUDIT_GENERATED_(155)
  6
Continuous
 62
     7
100
AcDbLine
 10
167.3623642729
 20
463.2766115299
 30
0.0
 11
167.3623642729
 21
471.1502513282
 31
0.0
  0
LINE
  5
15F
330
85
100
AcDbEntity
  8
$DDT_AUDIT_GENERATED_(155)
  6
Continuous
 62
     7
100
AcDbLine
 10
146.4023642729
 20
471.1502513282
 30
0.0
 11
146.4023642729
 21
463.2766115299
 31
0.0
  0
LINE
  5
160
330
85
100
AcDbEntity
  8
$DDT_AUDIT_GENERATED_(155)
  6
Continuous
 62
     7
100
AcDbLine
 10
143.1017211823
 20
474.0058193473
 30
0.0
 11
143.8823642729
 21
473.2490815467
 31
0.0
  0
LINE
  5
161
330
85
100
AcDbEntity
  8
$DDT_AUDIT_GENERATED_(155)
  6
Continuous
 62
     7
100
AcDbLine
 10
144.3941831005
 20
472.752935922
 30
0.0
 11
145.5625503056
 21
471.6203471119
 31
0.0
  0
LINE
  5
162
330
85
100
AcDbEntity
  8
$DDT_AUDIT_GENERATED_(155)
  6
Continuous
 62
     7
100
AcDbLine
 10
168.2021782402
 20
471.6203471119
 30
0.0
 11
169.3705454454
 21
472.752935922
 31
0.0
  0
LINE
  5
163
330
85
100
AcDbEntity
  8
$DDT_AUDIT_GENERATED_(155)
  6
Continuous
 62
     7
100
AcDbLine
 10
169.8823642729
 20
473.2490815467
 30
0.0
 11
170.6630073636
 21
474.0058193473
 31
0.0
  0
LINE
  5
164
330
85
100
AcDbEntity
  8
$DDT_AUDIT_GENERATED_(155)
  6
Continuous
 62
     7
100
AcDbLine
 10
146.566568588
 20
462.9557258889
 30
0.0
 11
147.7182366177
 21
461.8393248828
 31
0.0
  0
LINE
  5
165
330
85
100
AcDbEntity
  8
$DDT_AUDIT_GENERATED_(155)
  6
Continuous
 62
     7
100
AcDbLine
 10
166.0464919282
 20
461.8393248828
 30
0.0
 11
167.1981599579
 21
462.9557258889
 31
0.0
  0
ELLIPSE
  5
167
330
85
100
AcDbEntity
  8
$DDT_AUDIT_GENERATED_(166)
  6
Continuous
 62
     7
100
AcDbEllipse
 10
156.8823642729
 20
541.9430548405
 30
0.0
 11
13.09999999999993
 21
6.938893903907229E-15
 31
0.0
210
0.0
220
0.0
230
1.0
 40
0.1736481777
 41
3.425308092480387
 42
6.000088536487228
  0
ELLIPSE
  5
168
330
85
100
AcDbEntity
  8
$DDT_AUDIT_GENERATED_(166)
  6
Continuous
 62
     7
100
AcDbEllipse
 10
156.8823642729
 20
542.6665842969
 30
0.0
 11
-14.19951028214796
 21
-6.938893903907229E-15
 31
0.0
210
0.0
220
0.0
230
1.0
 40
0.1736481777
 41
0.2534293772570178
 42
0.2707315196770386
  0
ELLIPSE
  5
169
330
85
100
AcDbEntity
  8
$DDT_AUDIT_GENERATED_(166)
  6
Continuous
 62
     7
100
AcDbEllipse
 10
156.8823642729
 20
542.6665842969
 30
0.0
 11
-14.19951028214796
 21
-6.938893903907229E-15
 31
0.0
210
0.0
220
0.0
230
1.0
 40
0.1736481777
 41
-3.398997299296679
 42
-3.394304382038795
  0
ARC
  5
16A
330
85
100
AcDbEntity
  8
$DDT_AUDIT_GENERATED_(166)
  6
Continuous
 62
     7
100
AcDbCircle
 10
162.7831200583
 20
553.1180612028
 30
0.0
 40
13.5591368239487
100
AcDbArc
 50
299.4089518896
 51
305.3149600429
  0
ARC
  5
16B
330
85
100
AcDbEntity
  8
$DDT_AUDIT_GENERATED_(166)
  6
Continuous
 62
     7
100
AcDbCircle
 10
150.9237953438
 20
552.9920985536
 30
0.0
 40
13.42194064268102
100
AcDbArc
 50
234.7352772103
 51
240.6473349926
  0
SPLINE
  5
16C
330
85
100
AcDbEntity
  8
$DDT_AUDIT_GENERATED_(166)
  6
Continuous
 62
     7
100
AcDbSpline
210
0.0
220
0.0
230
1.0
 70
     8
 71
     3
 72
    15
 73
    11
 74
     0
 42
0.0000000033249149
 43
0.0000000001
 40
0.0
 40
0.0
 40
0.0
 40
0.0
 40
0.1268940472709753
 40
0.3522629846805698
 40
0.5094369361475289
 40
0.6411078839901654
 40
0.758841343926601
 40
0.8690634698123489
 40
0.9760685797115212
 40
1.0
 40
1.0
 40
1.0
 40
1.0
 10
143.9988514427325
 20
545.816765280486
 30
0.0
 10
143.8713161428351
 20
545.76564913213
 30
0.0
 10
143.5717214359421
 20
545.642939130154
 30
0.0
 10
143.1664808040524
 20
545.4113929563714
 30
0.0
 10
142.7980899996939
 20
545.128365756686
 30
0.0
 10
142.5288560726007
 20
544.8436591318393
 30
0.0
 10
142.3226448857115
 20
544.5277947567579
 30
0.0
 10
142.1828459198802
 20
544.1799850993145
 30
0.0
 10
142.1353178528041
 20
543.8894560793096
 30
0.0
 10
142.1327632376981
 20
543.743786964131
 30
0.0
 10
142.1323642729397
 20
543.7126310974511
 30
0.0
  0
SPLINE
  5
16D
330
85
100
AcDbEntity
  8
$DDT_AUDIT_GENERATED_(166)
  6
Continuous
 62
     7
100
AcDbSpline
210
0.0
220
0.0
230
1.0
 70
     8
 71
     3
 72
    20
 73
    16
 74
     0
 42
0.0000000019684628
 43
0.0000000001
 40
0.0
 40
0.0
 40
0.0
 40
0.0
 40
0.0612237041577778
 40
0.1462610411216992
 40
0.2203082786480426
 40
0.288185183778219
 40
0.3530321492910122
 40
0.4227619820438353
 40
0.4897476402232231
 40
0.5560673656785267
 40
0.6249682784974192
 40
0.7005219630903654
 40
0.7882499786532082
 40
0.8953495126689789
 40
1.0
 40
1.0
 40
1.0
 40
1.0
 10
170.6009454087492
 20
542.0402630958677
 30
0.0
 10
170.6863484883385
 20
542.0941039891874
 30
0.0
 10
170.8582846166246
 20
542.2053352729213
 30
0.0
 10
171.1153827524494
 20
542.4435666024351
 30
0.0
 10
171.3501082613921
 20
542.7399579715538
 30
0.0
 10
171.5236018660766
 20
543.0744206036005
 30
0.0
 10
171.6279847949749
 20
543.4524027193214
 30
0.0
 10
171.6427031651356
 20
543.8549895597436
 30
0.0
 10
171.5620254199302
 20
544.2454739890732
 30
0.0
 10
171.4085455454874
 20
544.5882709523814
 30
0.0
 10
171.200561533101
 20
544.8849982091143
 30
0.0
 10
170.941264413901
 20
545.1489177252562
 30
0.0
 10
170.6172254310436
 20
545.3950262927308
 30
0.0
 10
170.22309418087
 20
545.625691775623
 30
0.0
 10
169.931020200699
 20
545.7503717586011
 30
0.0
 10
169.7591072867756
 20
545.8219225085392
 30
0.0
  0
ARC
  5
16E
330
85
100
AcDbEntity
  8
$DDT_AUDIT_GENERATED_(166)
  6
Continuous
 62
     7
100
AcDbCircle
 10
144.1617697841
 20
543.7990796546
 30
0.0
 40
2.031245943171116
100
AcDbArc
 50
182.4392092822
 51
242.8952600116
  0
ARC
  5
16F
330
85
100
AcDbEntity
  8
$DDT_AUDIT_GENERATED_(166)
  6
Continuous
 62
     7
100
AcDbCircle
 10
156.8823642729
 20
516.5350148128
 30
0.0
 40
32.0
100
AcDbArc
 50
65.8935647703
 51
90.0
  0
ARC
  5
170
330
85
100
AcDbEntity
  8
$DDT_AUDIT_GENERATED_(166)
  6
Continuous
 62
     7
100
AcDbCircle
 10
156.8823642729
 20
516.5350148128
 30
0.0
 40
32.0
100
AcDbArc
 50
90.0
 51
114.1064352297
  0
ELLIPSE
  5
172
330
85
100
AcDbEntity
  8
$DDT_AUDIT_GENERATED_(171)
  6
Continuous
 62
     7
100
AcDbEllipse
 10
156.8823642729
 20
541.9430548405
 30
0.0
 11
13.00000000000001
 21
6.938893903907229E-15
 31
0.0
210
0.0
220
0.0
230
1.0
 40
0.1736481777
 41
3.378829424095693
 42
6.018744287294464
  0
ELLIPSE
  5
173
330
85
100
AcDbEntity
  8
$DDT_AUDIT_GENERATED_(171)
  6
Continuous
 62
     7
100
AcDbEllipse
 10
156.8823642729
 20
523.5271498592
 30
0.0
 11
12.5
 21
0.0
 31
0.0
210
0.0
220
0.0
230
1.0
 40
0.1736481777
 41
4.039547633902625
 42
5.494054430440434
  0
LINE
  5
174
330
85
100
AcDbEntity
  8
$DDT_AUDIT_GENERATED_(171)
  6
Continuous
 62
     7
100
AcDbLine
 10
143.8823642729
 20
541.5673435952
 30
0.0
 11
143.8823642729
 21
524.0195537357
 31
0.0
  0
LINE
  5
175
330
85
100
AcDbEntity
  8
$DDT_AUDIT_GENERATED_(171)
  6
Continuous
 62
     7
100
AcDbLine
 10
169.8823642729
 20
524.0195537357
 30
0.0
 11
169.8823642729
 21
541.574825735
 31
0.0
  0
SPLINE
  5
176
330
85
100
AcDbEntity
  8
$DDT_AUDIT_GENERATED_(171)
  6
Continuous
 62
     7
100
AcDbSpline
210
0.0
220
0.0
230
1.0
 70
     8
 71
     3
 72
    18
 73
    14
 74
     0
 42
0.0000000020748725
 43
0.0000000001
 40
0.0
 40
0.0
 40
0.0
 40
0.0
 40
0.0460348610397062
 40
0.1555197656162382
 40
0.2655465797811682
 40
0.376397301773759
 40
0.488551661509058
 40
0.6028423929958062
 40
0.7205583717410559
 40
0.8161411395213142
 40
0.8958789567828707
 40
0.9687851577376201
 40
1.0
 40
1.0
 40
1.0
 40
1.0
 10
165.831746787937
 20
521.9993034729893
 30
0.0
 10
165.9542221384605
 20
522.0199016138396
 30
0.0
 10
166.3058092584678
 20
522.0793840982785
 30
0.0
 10
166.8947660823568
 20
522.2032631145324
 30
0.0
 10
167.5423320234751
 20
522.3616122105766
 30
0.0
 10
168.1221387935942
 20
522.5345911344372
 30
0.0
 10
168.6286063960413
 20
522.7214460137617
 30
0.0
 10
169.0640453599024
 20
522.9278797584336
 30
0.0
 10
169.4022450736227
 20
523.1471194102824
 30
0.0
 10
169.649255434218
 20
523.3828675753396
 30
0.0
 10
169.8041945423455
 20
523.6281632416088
 30
0.0
 10
169.8836136972567
 20
523.8567128580706
 30
0.0
 10
169.874103460797
 20
523.9796298127462
 30
0.0
 10
169.8704848302606
 20
524.0231232635759
 30
0.0
  0
SPLINE
  5
177
330
85
100
AcDbEntity
  8
$DDT_AUDIT_GENERATED_(171)
  6
Continuous
 62
     7
100
AcDbSpline
210
0.0
220
0.0
230
1.0
 70
     8
 71
     3
 72
    19
 73
    15
 74
     0
 42
0.0000000017052862
 43
0.0000000001
 40
0.0
 40
0.0
 40
0.0
 40
0.0
 40
0.037359392732499
 40
0.1034849769085226
 40
0.1721179004740978
 40
0.2507295521933475
 40
0.3446524135859942
 40
0.4489527584565972
 40
0.5515731455495523
 40
0.6514878943852863
 40
0.7497184500982808
 40
0.8469372892899287
 40
0.9435236345818317
 40
1.0
 40
1.0
 40
1.0
 40
1.0
 10
143.8947727682664
 20
524.0103221972984
 30
0.0
 10
143.8930629536971
 20
523.9507722137197
 30
0.0
 10
143.8900902132567
 20
523.811619971732
 30
0.0
 10
143.986115032043
 20
523.5774577336634
 30
0.0
 10
144.1483654271094
 20
523.3476911400389
 30
0.0
 10
144.3850153374205
 20
523.1323455494064
 30
0.0
 10
144.7120795384694
 20
522.9222032226202
 30
0.0
 10
145.1444534401188
 20
522.7173785490846
 30
0.0
 10
145.6714554186113
 20
522.5246557570597
 30
0.0
 10
146.2710805992365
 20
522.3485436676139
 30
0.0
 10
146.9395210017214
 20
522.1868576504462
 30
0.0
 10
147.6688503929648
 20
522.0402663117746
 30
0.0
 10
148.367012245115
 20
521.9201494792056
 30
0.0
 10
148.7931370166194
 20
521.8610890683539
 30
0.0
 10
148.9788914930678
 20
521.8355564787273
 30
0.0
  0
ENDBLK
  5
179
330
85
100
AcDbEntity
  8
0
100
AcDbBlockEnd
  0
BLOCK
  5
247
330
17A
100
AcDbEntity
  8
0
100
AcDbBlockBegin
  2
SE1
 70
     0
 10
0.0
 20
0.0
 30
0.0
  3
SE1
  1

  0
SPLINE
  5
17C
330
17A
100
AcDbEntity
  8
$DDT_AUDIT_GENERATED_(87)
  6
Continuous
 62
     7
100
AcDbSpline
210
0.0
220
0.0
230
1.0
 70
     8
 71
     3
 72
    10
 73
     6
 74
     0
 42
0.000000000327366
 43
0.0000000001
 40
0.0
 40
0.0
 40
0.0
 40
0.0
 40
0.5460466552868517
 40
0.5460466552868517
 40
1.0
 40
1.0
 40
1.0
 40
1.0
 10
484.4510561379962
 20
510.4673174755704
 30
0.0
 10
487.2571549958546
 20
505.668271074307
 30
0.0
 10
489.9153229286562
 20
500.782735230724
 30
0.0
 10
494.5020915832655
 20
491.6935333001778
 30
0.0
 10
496.4780767314534
 20
487.5139328913622
 30
0.0
 10
498.345683473094
 20
483.2864526662628
 30
0.0
  0
SPLINE
  5
17D
330
17A
100
AcDbEntity
  8
$DDT_AUDIT_GENERATED_(87)
  6
Continuous
 62
     7
100
AcDbSpline
210
0.0
220
0.0
230
1.0
 70
     8
 71
     3
 72
    14
 73
    10
 74
     0
 42
0.0000000002875496
 43
0.0000000001
 40
0.0
 40
0.0
 40
0.0
 40
0.0
 40
0.2500000000000004
 40
0.2500000000000004
 40
0.5000000000000008
 40
0.5000000000000008
 40
0.7500000000000003
 40
0.7500000000000003
 40
1.0
 40
1.0
 40
1.0
 40
1.0
 10
505.0860843275541
 20
482.8285119670415
 30
0.0
 10
506.9485173500433
 20
482.9426820141092
 30
0.0
 10
509.1547195045286
 20
482.956186085906
 30
0.0
 10
514.1528900727906
 20
482.8825054334959
 30
0.0
 10
516.9728741121003
 20
482.7936820574853
 30
0.0
 10
522.943438490166
 20
482.6114005854432
 30
0.0
 10
526.1212873954248
 20
482.5161661632955
 30
0.0
 10
532.8230014107562
 20
482.4009862876329
 30
0.0
 10
536.2828198174135
 20
482.3840497659704
 30
0.0
 10
539.851539693489
 20
482.4398086842645
 30
0.0
  0
ARC
  5
17E
330
17A
100
AcDbEntity
  8
$DDT_AUDIT_GENERATED_(87)
  6
Continuous
 62
     7
100
AcDbCircle
 10
510.4246742835
 20
391.8521002871
 30
0.0
 40
119.8636544090904
100
AcDbArc
 50
77.1618626739
 51
83.0285497954
  0
ARC
  5
17F
330
17A
100
AcDbEntity
  8
$DDT_AUDIT_GENERATED_(87)
  6
Continuous
 62
     7
100
AcDbCircle
 10
505.9417252277
 20
319.2381260916
 30
0.0
 40
192.534349404102
100
AcDbArc
 50
84.3272420901
 51
94.1218457779
  0
SPLINE
  5
180
330
17A
100
AcDbEntity
  8
$DDT_AUDIT_GENERATED_(87)
  6
Continuous
 62
     7
100
AcDbSpline
210
0.0
220
0.0
230
1.0
 70
     8
 71
     3
 72
    18
 73
    14
 74
     0
 42
0.0000000018352839
 43
0.0000000001
 40
0.0
 40
0.0
 40
0.0
 40
0.0
 40
0.4999999999999993
 40
0.4999999999999993
 40
0.7499999999999997
 40
0.7499999999999997
 40
0.8749999999999988
 40
0.8749999999999988
 40
0.9374999999999971
 40
0.9687499999999973
 40
0.9843749999999987
 40
0.9843749999999987
 40
1.0
 40
1.0
 40
1.0
 40
1.0
 10
489.7864779475997
 20
511.2540455510407
 30
0.0
 10
488.3002486261162
 20
511.2140316502873
 30
0.0
 10
487.1041415994926
 20
511.1321350986766
 30
0.0
 10
485.7566686847098
 20
510.9385304773531
 30
0.0
 10
485.3824453059884
 20
510.8621870524386
 30
0.0
 10
484.940145471604
 20
510.7283058416879
 30
0.0
 10
484.8124664378607
 20
510.6803458855464
 30
0.0
 10
484.6530808365937
 20
510.603915191706
 30
0.0
 10
484.5813187864644
 20
510.5645567718512
 30
0.0
 10
484.5115287108349
 20
510.5166160410097
 30
0.0
 10
484.4846123103488
 20
510.4956339350813
 30
0.0
 10
484.467334264823
 20
510.4815486535663
 30
0.0
 10
484.4589007380618
 20
510.4743430549726
 30
0.0
 10
484.4510561379962
 20
510.4673174755704
 30
0.0
  0
ARC
  5
181
330
17A
100
AcDbEntity
  8
$DDT_AUDIT_GENERATED_(87)
  6
Continuous
 62
     7
100
AcDbCircle
 10
569.3547746169
 20
539.4838283168
 30
0.0
 40
90.55625906072333
100
AcDbArc
 50
206.0134441002
 51
218.3584792594
  0
ARC
  5
182
330
17A
100
AcDbEntity
  8
$DDT_AUDIT_GENERATED_(87)
  6
Continuous
 62
     7
100
AcDbCircle
 10
435.4469658288
 20
475.5857093279
 30
0.0
 40
56.71495234695407
100
AcDbArc
 50
27.2600156042
 51
42.7070447474
  0
ARC
  5
183
330
17A
100
AcDbEntity
  8
$DDT_AUDIT_GENERATED_(87)
  6
Continuous
 62
     7
100
AcDbCircle
 10
554.9549271269
 20
51.8224380821
 30
0.0
 40
431.8349781980307
100
AcDbArc
 50
97.5507687918
 51
102.6275232782
  0
ARC
  5
184
330
17A
100
AcDbEntity
  8
$DDT_AUDIT_GENERATED_(87)
  6
Continuous
 62
     7
100
AcDbCircle
 10
477.5266681708
 20
506.4055177865
 30
0.0
 40
8.027787082007075
100
AcDbArc
 50
30.3956009699
 51
89.6754303541
  0
LINE
  5
185
330
17A
100
AcDbEntity
  8
$DDT_AUDIT_GENERATED_(87)
  6
Continuous
 62
     7
100
AcDbLine
 10
459.3251262286
 20
512.5597269202
 30
0.0
 11
459.3251262286
 21
513.8951017811
 31
0.0
  0
LINE
  5
186
330
17A
100
AcDbEntity
  8
$DDT_AUDIT_GENERATED_(87)
  6
Continuous
 62
     7
100
AcDbLine
 10
459.3251262286
 20
499.619437561
 30
0.0
 11
459.3251262286
 21
512.5597269202
 31
0.0
  0
LINE
  5
187
330
17A
100
AcDbEntity
  8
$DDT_AUDIT_GENERATED_(87)
  6
Continuous
 62
     7
100
AcDbLine
 10
459.3251262286
 20
487.2044579438
 30
0.0
 11
459.3251262286
 21
499.619437561
 31
0.0
  0
LINE
  5
188
330
17A
100
AcDbEntity
  8
$DDT_AUDIT_GENERATED_(87)
  6
Continuous
 62
     7
100
AcDbLine
 10
459.3251262286
 20
474.1852972228
 30
0.0
 11
459.3251262286
 21
487.2044579438
 31
0.0
  0
LINE
  5
189
330
17A
100
AcDbEntity
  8
$DDT_AUDIT_GENERATED_(87)
  6
Continuous
 62
     7
100
AcDbLine
 10
459.3251262286
 20
473.2571092699
 30
0.0
 11
459.3251262286
 21
474.1852972228
 31
0.0
  0
ARC
  5
18A
330
17A
100
AcDbEntity
  8
$DDT_AUDIT_GENERATED_(87)
  6
Continuous
 62
     7
100
AcDbCircle
 10
608.7508610583
 20
202.1683370846
 30
0.0
 40
321.082554922786
100
AcDbArc
 50
112.2810439857
 51
117.4919701411
  0
ARC
  5
18B
330
17A
100
AcDbEntity
  8
$DDT_AUDIT_GENERATED_(87)
  6
Continuous
 62
     7
100
AcDbCircle
 10
430.7115413285
 20
1799.9585644994
 30
0.0
 40
1286.743211440946
100
AcDbArc
 50
271.3186950654
 51
272.0670409435
  0
ARC
  5
18C
330
17A
100
AcDbEntity
  8
$DDT_AUDIT_GENERATED_(87)
  6
Continuous
 62
     7
100
AcDbCircle
 10
460.3093799454
 20
473.2975486553
 30
0.0
 40
0.9850841197537874
100
AcDbArc
 50
182.3527507337
 51
284.1932346622
  0
ARC
  5
18D
330
17A
100
AcDbEntity
  8
$DDT_AUDIT_GENERATED_(87)
  6
Continuous
 62
     7
100
AcDbCircle
 10
460.2773198603
 20
513.8472274152
 30
0.0
 40
0.9533963850887112
100
AcDbArc
 50
87.1914070911
 51
177.121708018
  0
LINE
  5
18E
330
17A
100
AcDbEntity
  8
$DDT_AUDIT_GENERATED_(87)
  6
Continuous
 62
     7
100
AcDbLine
 10
460.416330185
 20
472.3133631186
 30
0.0
 11
460.5509155919
 21
472.3425349096
 31
0.0
  0
ARC
  5
18F
330
17A
100
AcDbEntity
  8
$DDT_AUDIT_GENERATED_(87)
  6
Continuous
 62
     7
100
AcDbCircle
 10
748.345389335
 20
492.8192966961
 30
0.0
 40
289.9098572766752
100
AcDbArc
 50
182.03246699
 51
183.8795931312
  0
ARC
  5
190
330
17A
100
AcDbEntity
  8
$DDT_AUDIT_GENERATED_(87)
  6
Continuous
 62
     7
100
AcDbCircle
 10
748.345389335
 20
492.8192966961
 30
0.0
 40
289.9098572766752
100
AcDbArc
 50
175.830192296
 51
177.8754882881
  0
SPLINE
  5
191
330
17A
100
AcDbEntity
  8
$DDT_AUDIT_GENERATED_(87)
  6
Continuous
 62
     7
100
AcDbSpline
210
0.0
220
0.0
230
1.0
 70
     8
 71
     3
 72
    10
 73
     6
 74
     0
 42
0.0000000016981779
 43
0.0000000001
 40
0.0
 40
0.0
 40
0.0
 40
0.0
 40
0.5
 40
0.5
 40
0.5015075273817249
 40
0.5015075273817249
 40
0.5015075273817249
 40
0.5015075273817249
 10
457.1802551828628
 20
518.8664615435243
 30
0.0
 10
457.0152028207128
 20
520.8291053411247
 30
0.0
 10
456.928098699577
 20
521.8028062776727
 30
0.0
 10
456.9275748273086
 20
521.8088229951126
 30
0.0
 10
456.9275740546543
 20
521.8088319287788
 30
0.0
 10
456.9275740838322
 20
521.8088317119057
 30
0.0
  0
SPLINE
  5
192
330
17A
100
AcDbEntity
  8
$DDT_AUDIT_GENERATED_(87)
  6
Continuous
 62
     7
100
AcDbSpline
210
0.0
220
0.0
230
1.0
 70
     8
 71
     3
 72
    12
 73
     8
 74
     0
 42
0.0000000013311986
 43
0.0000000001
 40
0.4988988591099136
 40
0.4988988591099136
 40
0.4988988591099136
 40
0.4988988591099136
 40
0.5
 40
0.5
 40
0.75
 40
0.75
 40
1.0
 40
1.0
 40
1.0
 40
1.0
 10
456.9275740820479
 20
464.02899462736
 30
0.0
 10
456.927574053897
 20
464.0289946684032
 30
0.0
 10
456.9275746204931
 20
464.0290008977401
 30
0.0
 10
456.927839500871
 20
464.0318327338779
 30
0.0
 10
456.9582533498274
 20
464.3547611292161
 30
0.0
 10
457.0749184394142
 20
465.606754888442
 30
0.0
 10
457.1611765360057
 20
466.5357457056901
 30
0.0
 10
457.273130444729
 20
467.7773815281523
 30
0.0
  0
LINE
  5
193
330
17A
100
AcDbEntity
  8
$DDT_AUDIT_GENERATED_(87)
  6
Continuous
 62
     7
100
AcDbLine
 10
460.3102281008
 20
514.7994650896
 30
0.0
 11
460.3240358682
 21
514.7994785804
 31
0.0
  0
ARC
  5
194
330
17A
100
AcDbEntity
  8
$DDT_AUDIT_GENERATED_(87)
  6
Continuous
 62
     7
100
AcDbCircle
 10
460.28110591
 20
513.7041510766
 30
0.0
 40
1.095701094752739
100
AcDbArc
 50
88.4769795843
 51
169.7348101234
  0
ARC
  5
195
330
17A
100
AcDbEntity
  8
$DDT_AUDIT_GENERATED_(87)
  6
Continuous
 62
     7
100
AcDbCircle
 10
460.1760491983
 20
473.3764450119
 30
0.0
 40
1.089898190022768
100
AcDbArc
 50
189.1030272226
 51
282.7361619369
  0
SPLINE
  5
196
330
17A
100
AcDbEntity
  8
$DDT_AUDIT_GENERATED_(87)
  6
Continuous
 62
     7
100
AcDbSpline
210
0.0
220
0.0
230
1.0
 70
     8
 71
     3
 72
    14
 73
    10
 74
     0
 42
0.0000000004788963
 43
0.0000000001
 40
0.0
 40
0.0
 40
0.0
 40
0.0
 40
0.25
 40
0.25
 40
0.5
 40
0.5
 40
0.75
 40
0.75
 40
1.0
 40
1.0
 40
1.0
 40
1.0
 10
490.2978369343737
 20
528.2704379899837
 30
0.0
 10
492.2909488449337
 20
528.3918622097015
 30
0.0
 10
494.2355254785866
 20
528.2474869800519
 30
0.0
 10
498.0374313220429
 20
528.0009672916676
 30
0.0
 10
499.9147932728416
 20
527.9195461622905
 30
0.0
 10
503.4060944313221
 20
528.2462878632042
 30
0.0
 10
505.0499903657575
 20
528.6534872695022
 30
0.0
 10
508.0623495503753
 20
529.7055872104945
 30
0.0
 10
509.4295603876946
 20
530.3301483691092
 30
0.0
 10
510.6802649133161
 20
530.8424085683988
 30
0.0
  0
SPLINE
  5
197
330
17A
100
AcDbEntity
  8
$DDT_AUDIT_GENERATED_(87)
  6
Continuous
 62
     7
100
AcDbSpline
210
0.0
220
0.0
230
1.0
 70
     8
 71
     3
 72
    12
 73
     8
 74
     0
 42
0.00000000057033
 43
0.0000000001
 40
0.0
 40
0.0
 40
0.0
 40
0.0
 40
0.25
 40
0.25
 40
0.5
 40
0.5
 40
1.0
 40
1.0
 40
1.0
 40
1.0
 10
467.8707826476607
 20
529.165991396113
 30
0.0
 10
468.8793061746977
 20
528.7198658860154
 30
0.0
 10
470.0548006397378
 20
528.3971601044127
 30
0.0
 10
472.6202512532537
 20
527.9476576295142
 30
0.0
 10
474.0228978566235
 20
527.8158368078653
 30
0.0
 10
478.5564805498072
 20
527.6152510393105
 30
0.0
 10
481.8040127211395
 20
527.7324325444505
 30
0.0
 10
485.2079931858291
 20
527.9497138789359
 30
0.0
  0
ARC
  5
198
330
17A
100
AcDbEntity
  8
$DDT_AUDIT_GENERATED_(87)
  6
Continuous
 62
     7
100
AcDbCircle
 10
464.5335541286
 20
523.9476324295
 30
0.0
 40
6.115587503460138
100
AcDbArc
 50
64.6978598302
 51
121.1494726048
  0
ARC
  5
199
330
17A
100
AcDbEntity
  8
$DDT_AUDIT_GENERATED_(87)
  6
Continuous
 62
     7
100
AcDbCircle
 10
462.829316736
 20
635.6120997213
 30
0.0
 40
115.1930839502333
100
AcDbArc
 50
294.8651400183
 51
298.1532855988
  0
SPLINE
  5
19A
330
17A
100
AcDbEntity
  8
$DDT_AUDIT_GENERATED_(87)
  6
Continuous
 62
     7
100
AcDbSpline
210
0.0
220
0.0
230
1.0
 70
     8
 71
     3
 72
     8
 73
     4
 74
     0
 42
0.000000087566442
 43
0.0000000001
 40
0.491195525404607
 40
0.491195525404607
 40
0.491195525404607
 40
0.491195525404607
 40
0.4999521696044198
 40
0.4999521696044198
 40
0.4999521696044198
 40
0.4999521696044198
 10
457.2741304730605
 20
522.5648474952038
 30
0.0
 10
457.273957838577
 20
522.5653391130439
 30
0.0
 10
457.2738704903575
 20
522.5655830112833
 30
0.0
 10
457.2738684493806
 20
522.5655810106615
 30
0.0
  0
ARC
  5
19B
330
17A
100
AcDbEntity
  8
$DDT_AUDIT_GENERATED_(87)
  6
Continuous
 62
     7
100
AcDbCircle
 10
494.3589106493
 20
192.4485898831
 30
0.0
 40
319.140128397191
100
AcDbArc
 50
68.8941215353
 51
82.311086612
  0
LINE
  5
19C
330
17A
100
AcDbEntity
  8
$DDT_AUDIT_GENERATED_(87)
  6
Continuous
 62
     7
100
AcDbLine
 10
543.4330154737
 20
480.4548771512
 30
0.0
 11
543.4196484463
 21
480.5104454783
 31
0.0
  0
SPLINE
  5
19D
330
17A
100
AcDbEntity
  8
$DDT_AUDIT_GENERATED_(87)
  6
Continuous
 62
     7
100
AcDbSpline
210
0.0
220
0.0
230
1.0
 70
     8
 71
     3
 72
    15
 73
    11
 74
     0
 42
0.0000000019114959
 43
0.0000000001
 40
0.0
 40
0.0
 40
0.0
 40
0.0
 40
0.172017195694577
 40
0.2758216377430526
 40
0.3826409576829223
 40
0.4891859530140468
 40
0.5422475714184469
 40
0.5658426202000812
 40
0.7874815050678834
 40
1.0
 40
1.0
 40
1.0
 40
1.0
 10
543.419648446268
 20
480.5104454782908
 30
0.0
 10
543.7262330808012
 20
480.5378905930772
 30
0.0
 10
544.2178278065747
 20
480.5818958734157
 30
0.0
 10
544.8981063861514
 20
480.6770978718905
 30
0.0
 10
545.4415309063587
 20
480.8065880958436
 30
0.0
 10
545.8467539358483
 20
480.9769884669844
 30
0.0
 10
546.1350195743383
 20
481.1147916766459
 30
0.0
 10
546.3993513575359
 20
481.4681380986399
 30
0.0
 10
546.970239844944
 20
482.0729948497312
 30
0.0
 10
547.6161656801785
 20
482.508600129441
 30
0.0
 10
547.9222828109939
 20
482.722419492621
 30
0.0
  0
ARC
  5
19E
330
17A
100
AcDbEntity
  8
$DDT_AUDIT_GENERATED_(87)
  6
Continuous
 62
     7
100
AcDbCircle
 10
525.6640985647
 20
914.8052818569
 30
0.0
 40
432.7797447053255
100
AcDbArc
 50
273.3133392559
 51
281.1398265807
  0
LINE
  5
19F
330
17A
100
AcDbEntity
  8
$DDT_AUDIT_GENERATED_(87)
  6
Continuous
 62
     7
100
AcDbLine
 10
517.1640121772
 20
540.8042960089
 30
0.0
 11
467.3004560399
 21
549.5965863099
 31
0.0
  0
ARC
  5
1A0
330
17A
100
AcDbEntity
  8
$DDT_AUDIT_GENERATED_(87)
  6
Continuous
 62
     7
100
AcDbCircle
 10
548.5258792196
 20
444.5834039157
 30
0.0
 40
34.127508678698
100
AcDbArc
 50
71.8506141827
 51
97.7429115762
  0
ARC
  5
1A1
330
17A
100
AcDbEntity
  8
$DDT_AUDIT_GENERATED_(87)
  6
Continuous
 62
     7
100
AcDbCircle
 10
570.737960629
 20
606.3505613941
 30
0.0
 40
93.91774591000105
100
AcDbArc
 50
249.2944506085
 51
266.759106561
  0
ARC
  5
1A2
330
17A
100
AcDbEntity
  8
$DDT_AUDIT_GENERATED_(87)
  6
Continuous
 62
     7
100
AcDbCircle
 10
552.6456674974
 20
395.0980362305
 30
0.0
 40
83.75124796366863
100
AcDbArc
 50
95.9742834241
 51
105.6947035388
  0
ARC
  5
1A3
330
17A
100
AcDbEntity
  8
$DDT_AUDIT_GENERATED_(87)
  6
Continuous
 62
     7
100
AcDbCircle
 10
603.1862441877
 20
411.2708358366
 30
0.0
 40
72.26637177227474
100
AcDbArc
 50
89.6897361319
 51
112.8897531266
  0
LINE
  5
1A4
330
17A
100
AcDbEntity
  8
$DDT_AUDIT_GENERATED_(87)
  6
Continuous
 62
     7
100
AcDbLine
 10
456.9275740397
 20
521.7955595651
 30
0.0
 11
456.9275740397
 21
508.4627781262
 31
0.0
  0
LINE
  5
1A5
330
17A
100
AcDbEntity
  8
$DDT_AUDIT_GENERATED_(87)
  6
Continuous
 62
     7
100
AcDbLine
 10
456.9275740397
 20
477.6430937178
 30
0.0
 11
456.9275740397
 21
464.0457781121
 31
0.0
  0
SPLINE
  5
1A6
330
17A
100
AcDbEntity
  8
$DDT_AUDIT_GENERATED_(87)
  6
Continuous
 62
     7
100
AcDbSpline
210
0.0
220
0.0
230
1.0
 70
     8
 71
     3
 72
     8
 73
     4
 74
     0
 42
0.0000000010767355
 43
0.0000000001
 40
0.0
 40
0.0
 40
0.0
 40
0.0
 40
1.0
 40
1.0
 40
1.0
 40
1.0
 10
537.5234035994217
 20
518.4524044248982
 30
0.0
 10
533.2345067367916
 20
519.202191152258
 30
0.0
 10
530.1752910577258
 20
519.6690453962902
 30
0.0
 10
528.3457565622243
 20
519.8529671569944
 30
0.0
  0
SPLINE
  5
1A7
330
17A
100
AcDbEntity
  8
$DDT_AUDIT_GENERATED_(87)
  6
Continuous
 62
     7
100
AcDbSpline
210
0.0
220
0.0
230
1.0
 70
     8
 71
     3
 72
    12
 73
     8
 74
     0
 42
0.0000000001823444
 43
0.0000000001
 40
0.0
 40
0.0
 40
0.0
 40
0.0
 40
0.1946033375699161
 40
0.4024760334006885
 40
0.6103481445803633
 40
0.8182223960826572
 40
1.0
 40
1.0
 40
1.0
 40
1.0
 10
617.0452343335976
 20
494.3970918731995
 30
0.0
 10
613.4675717777634
 20
495.9805654689362
 30
0.0
 10
607.2234103289113
 20
498.7262829843438
 30
0.0
 10
596.6007481796012
 20
502.8668569000399
 30
0.0
 10
585.9623602872542
 20
506.5986774447623
 30
0.0
 10
575.3047998600651
 20
509.9365123207635
 30
0.0
 10
568.917671207021
 20
511.6385453921363
 30
0.0
 10
565.3842034867662
 20
512.571533816346
 30
0.0
  0
LINE
  5
1A8
330
17A
100
AcDbEntity
  8
$DDT_AUDIT_GENERATED_(87)
  6
Continuous
 62
     7
100
AcDbLine
 10
517.1807485725
 20
534.0440546972
 30
0.0
 11
517.7494341901
 21
539.7935640736
 31
0.0
  0
LINE
  5
1A9
330
17A
100
AcDbEntity
  8
$DDT_AUDIT_GENERATED_(87)
  6
Continuous
 62
     7
100
AcDbLine
 10
466.4008137328
 20
548.846845946
 30
0.0
 11
461.374335087
 21
529.1979216741
 31
0.0
  0
ARC
  5
1AA
330
17A
100
AcDbEntity
  8
$DDT_AUDIT_GENERATED_(87)
  6
Continuous
 62
     7
100
AcDbCircle
 10
467.3646242603
 20
548.6019861017
 30
0.0
 40
0.9945695667249693
100
AcDbArc
 50
91.7299063612
 51
170.1197509895
  0
ARC
  5
1AB
330
17A
100
AcDbEntity
  8
$DDT_AUDIT_GENERATED_(87)
  6
Continuous
 62
     7
100
AcDbCircle
 10
516.7711483123
 20
539.9081158067
 30
0.0
 40
0.9774425562772151
100
AcDbArc
 50
353.2793821095
 51
68.5962022895
  0
SPLINE
  5
1AC
330
17A
100
AcDbEntity
  8
$DDT_AUDIT_GENERATED_(87)
  6
Continuous
 62
     7
100
AcDbSpline
210
0.0
220
0.0
230
1.0
 70
     8
 71
     3
 72
    13
 73
     9
 74
     0
 42
0.0000000001369409
 43
0.0000000001
 40
0.0
 40
0.0
 40
0.0
 40
0.0
 40
0.1927663903714624
 40
0.3932678363028859
 40
0.5937691996519752
 40
0.7441467547775977
 40
0.8945241637503427
 40
1.0
 40
1.0
 40
1.0
 40
1.0
 10
458.1705932095569
 20
463.0521121396049
 30
0.0
 10
463.1956143993643
 20
464.2291638208316
 30
0.0
 10
471.8432562163908
 20
466.239138821353
 30
0.0
 10
486.2883367267088
 20
469.1525493429603
 30
0.0
 10
499.4552462348276
 20
471.4866140774627
 30
0.0
 10
511.456308532527
 20
473.3467126054391
 30
0.0
 10
521.4709057118193
 20
474.7274617273895
 30
0.0
 10
527.2320765534813
 20
475.3908162142546
 30
0.0
 10
530.0378193876504
 20
475.71106049486
 30
0.0
  0
LINE
  5
1AD
330
17A
100
AcDbEntity
  8
$DDT_AUDIT_GENERATED_(87)
  6
Continuous
 62
     7
100
AcDbLine
 10
559.1348293775
 20
476.9900704541
 30
0.0
 11
562.8763176715
 21
476.3461685596
 31
0.0
  0
ARC
  5
1AE
330
17A
100
AcDbEntity
  8
$DDT_AUDIT_GENERATED_(87)
  6
Continuous
 62
     7
100
AcDbCircle
 10
457.9275740397
 20
464.0289946894
 30
0.0
 40
0.9999999999997677
100
AcDbArc
 50
179.0269000237
 51
283.7679880791
  0
ARC
  5
1AF
330
17A
100
AcDbEntity
  8
$DDT_AUDIT_GENERATED_(87)
  6
Continuous
 62
     7
100
AcDbCircle
 10
457.9275740397
 20
521.8088320411
 30
0.0
 40
0.9999999999996175
100
AcDbArc
 50
131.2206761477
 51
180.7830553204
  0
ARC
  5
1B0
330
17A
100
AcDbEntity
  8
$DDT_AUDIT_GENERATED_(87)
  6
Continuous
 62
     7
100
AcDbCircle
 10
540.8615280066
 20
752.3608560932
 30
0.0
 40
276.0130759590914
100
AcDbArc
 50
283.1265458006
 51
285.901886597
  0
ARC
  5
1B1
330
17A
100
AcDbEntity
  8
$DDT_AUDIT_GENERATED_(87)
  6
Continuous
 62
     7
100
AcDbCircle
 10
539.2964681076
 20
688.6915024588
 30
0.0
 40
213.8286210592153
100
AcDbArc
 50
276.6921535618
 51
279.631957663
  0
ARC
  5
1B2
330
17A
100
AcDbEntity
  8
$DDT_AUDIT_GENERATED_(87)
  6
Continuous
 62
     7
100
AcDbCircle
 10
448.8157779985
 20
532.3857835695
 30
0.0
 40
12.95475589137349
100
AcDbArc
 50
310.6738770795
 51
345.756911009
  0
ARC
  5
1B3
330
17A
100
AcDbEntity
  8
$DDT_AUDIT_GENERATED_(87)
  6
Continuous
 62
     7
100
AcDbCircle
 10
530.1115314644
 20
532.7623657548
 30
0.0
 40
12.98854218967704
100
AcDbArc
 50
174.340604515
 51
262.2109873398
  0
ARC
  5
1B4
330
17A
100
AcDbEntity
  8
$DDT_AUDIT_GENERATED_(87)
  6
Continuous
 62
     7
100
AcDbCircle
 10
615.4158352773
 20
490.7566722102
 30
0.0
 40
3.996663124552017
100
AcDbArc
 50
285.5571155725
 51
65.8886557941
  0
ARC
  5
1B5
330
17A
100
AcDbEntity
  8
$DDT_AUDIT_GENERATED_(87)
  6
Continuous
 62
     7
100
AcDbCircle
 10
563.7243928767
 20
479.8897284018
 30
0.0
 40
3.627653085430696
100
AcDbArc
 50
256.5232397768
 51
277.8387647167
  0
LINE
  5
1B7
330
17A
100
AcDbEntity
  8
$DDT_AUDIT_GENERATED_(1B6)
  6
Continuous
 62
     7
100
AcDbLine
 10
459.3251262286
 20
503.552935922
 30
0.0
 11
458.3251262286
 21
503.552935922
 31
0.0
  0
LINE
  5
1B8
330
17A
100
AcDbEntity
  8
$DDT_AUDIT_GENERATED_(1B6)
  6
Continuous
 62
     7
100
AcDbLine
 10
458.3251262286
 20
482.552935922
 30
0.0
 11
459.3251262286
 21
482.552935922
 31
0.0
  0
ARC
  5
1B9
330
17A
100
AcDbEntity
  8
$DDT_AUDIT_GENERATED_(1B6)
  6
Continuous
 62
     7
100
AcDbCircle
 10
460.3251262286
 20
501.902935922
 30
0.0
 40
1.000000000000001
100
AcDbArc
 50
180.0
 51
205.8419327632
  0
ARC
  5
1BA
330
17A
100
AcDbEntity
  8
$DDT_AUDIT_GENERATED_(1B6)
  6
Continuous
 62
     7
100
AcDbCircle
 10
460.3251262286
 20
484.202935922
 30
0.0
 40
1.000000000000001
100
AcDbArc
 50
154.1580672368
 51
180.0
  0
LINE
  5
1BC
330
17A
100
AcDbEntity
  8
$DDT_AUDIT_GENERATED_(1BB)
  6
Continuous
 62
     7
100
AcDbLine
 10
440.3251262286
 20
482.052935922
 30
0.0
 11
441.1996074845
 21
479.832935922
 31
0.0
  0
LINE
  5
1BD
330
17A
100
AcDbEntity
  8
$DDT_AUDIT_GENERATED_(1BB)
  6
Continuous
 62
     7
100
AcDbLine
 10
439.8251262286
 20
482.052935922
 30
0.0
 11
440.3251262286
 21
482.052935922
 31
0.0
  0
LINE
  5
1BE
330
17A
100
AcDbEntity
  8
$DDT_AUDIT_GENERATED_(1BB)
  6
Continuous
 62
     7
100
AcDbLine
 10
440.3251262286
 20
504.052935922
 30
0.0
 11
441.1996074845
 21
506.272935922
 31
0.0
  0
LINE
  5
1BF
330
17A
100
AcDbEntity
  8
$DDT_AUDIT_GENERATED_(1BB)
  6
Continuous
 62
     7
100
AcDbLine
 10
439.8251262286
 20
504.052935922
 30
0.0
 11
440.3251262286
 21
504.052935922
 31
0.0
  0
LINE
  5
1C0
330
17A
100
AcDbEntity
  8
$DDT_AUDIT_GENERATED_(1BB)
  6
Continuous
 62
     7
100
AcDbLine
 10
441.3251262287
 20
506.272935922
 30
0.0
 11
441.1996074845
 21
506.272935922
 31
0.0
  0
LINE
  5
1C1
330
17A
100
AcDbEntity
  8
$DDT_AUDIT_GENERATED_(1BB)
  6
Continuous
 62
     7
100
AcDbLine
 10
441.1996074845
 20
479.832935922
 30
0.0
 11
441.3251262287
 21
479.832935922
 31
0.0
  0
LINE
  5
1C2
330
17A
100
AcDbEntity
  8
$DDT_AUDIT_GENERATED_(1BB)
  6
Continuous
 62
     7
100
AcDbLine
 10
440.738732228
 20
505.102935922
 30
0.0
 11
441.3251262287
 21
505.102935922
 31
0.0
  0
LINE
  5
1C3
330
17A
100
AcDbEntity
  8
$DDT_AUDIT_GENERATED_(1BB)
  6
Continuous
 62
     7
100
AcDbLine
 10
440.738732228
 20
481.002935922
 30
0.0
 11
441.3251262287
 21
481.002935922
 31
0.0
  0
LINE
  5
1C4
330
17A
100
AcDbEntity
  8
$DDT_AUDIT_GENERATED_(F1)
  6
Continuous
 62
     7
100
AcDbLine
 10
413.8251262286
 20
528.052935922
 30
0.0
 11
413.8251262286
 21
458.052935922
 31
0.0
  0
LINE
  5
1C5
330
17A
100
AcDbEntity
  8
$DDT_AUDIT_GENERATED_(F1)
  6
Continuous
 62
     7
100
AcDbLine
 10
439.8251262286
 20
478.1854075805
 30
0.0
 11
439.8251262286
 21
507.9204642635
 31
0.0
  0
LINE
  5
1C6
330
17A
100
AcDbEntity
  8
$DDT_AUDIT_GENERATED_(F1)
  6
Continuous
 62
     7
100
AcDbLine
 10
420.4076900448
 20
458.6209356428
 30
0.0
 11
420.4076900448
 21
527.4849362012
 31
0.0
  0
LINE
  5
1C7
330
17A
100
AcDbEntity
  8
$DDT_AUDIT_GENERATED_(F1)
  6
Continuous
 62
     7
100
AcDbLine
 10
413.8251262286
 20
458.052935922
 30
0.0
 11
419.0114897725
 21
458.052935922
 31
0.0
  0
LINE
  5
1C8
330
17A
100
AcDbEntity
  8
$DDT_AUDIT_GENERATED_(F1)
  6
Continuous
 62
     7
100
AcDbLine
 10
419.0114897725
 20
528.052935922
 30
0.0
 11
413.8251262286
 21
528.052935922
 31
0.0
  0
LINE
  5
1C9
330
17A
100
AcDbEntity
  8
$DDT_AUDIT_GENERATED_(F1)
  6
Continuous
 62
     7
100
AcDbLine
 10
420.4076900448
 20
458.6209356428
 30
0.0
 11
439.3722764328
 21
477.1114073711
 31
0.0
  0
LINE
  5
1CA
330
17A
100
AcDbEntity
  8
$DDT_AUDIT_GENERATED_(F1)
  6
Continuous
 62
     7
100
AcDbLine
 10
439.3722764328
 20
508.9944644729
 30
0.0
 11
420.4076900448
 21
527.4849362012
 31
0.0
  0
ARC
  5
1CB
330
17A
100
AcDbEntity
  8
$DDT_AUDIT_GENERATED_(F1)
  6
Continuous
 62
     7
100
AcDbCircle
 10
438.3251262286
 20
478.1854075805
 30
0.0
 40
1.499999999999999
100
AcDbArc
 50
314.2747757009
 51
0.0
  0
ARC
  5
1CC
330
17A
100
AcDbEntity
  8
$DDT_AUDIT_GENERATED_(F1)
  6
Continuous
 62
     7
100
AcDbCircle
 10
438.3251262286
 20
507.9204642635
 30
0.0
 40
1.500000000000001
100
AcDbArc
 50
0.0
 51
45.7252242991
  0
ARC
  5
1CD
330
17A
100
AcDbEntity
  8
$DDT_AUDIT_GENERATED_(F1)
  6
Continuous
 62
     7
100
AcDbCircle
 10
419.0114897725
 20
526.052935922
 30
0.0
 40
2.0
100
AcDbArc
 50
45.7252242991
 51
90.0
  0
ARC
  5
1CE
330
17A
100
AcDbEntity
  8
$DDT_AUDIT_GENERATED_(F1)
  6
Continuous
 62
     7
100
AcDbCircle
 10
419.0114897725
 20
460.052935922
 30
0.0
 40
2.000000000000002
100
AcDbArc
 50
270.0
 51
314.2747757009
  0
LINE
  5
1CF
330
17A
100
AcDbEntity
  8
$DDT_AUDIT_GENERATED_(F5)
  6
Continuous
 62
     7
100
AcDbLine
 10
467.5889341679
 20
549.5457198326
 30
0.0
 11
508.3108926179
 21
542.3653398506
 31
0.0
  0
ARC
  5
1D0
330
17A
100
AcDbEntity
  8
$DDT_AUDIT_GENERATED_(F5)
  6
Continuous
 62
     7
100
AcDbCircle
 10
490.82384042
 20
537.2238234099
 30
0.0
 40
26.29999999999999
100
AcDbArc
 50
7.9378265217
 51
12.5835606255
  0
ARC
  5
1D1
330
17A
100
AcDbEntity
  8
$DDT_AUDIT_GENERATED_(F5)
  6
Continuous
 62
     7
100
AcDbCircle
 10
490.82384042
 20
537.2238234099
 30
0.0
 40
26.3
100
AcDbArc
 50
118.6108755251
 51
152.0621734783
  0
LINE
  5
1D2
330
17A
100
AcDbEntity
  8
02555038_GEHÄUSE
  6
Continuous
 62
     7
100
AcDbLine
 10
602.0775742116
 20
472.752935922
 30
0.0
 11
576.5775742116
 21
472.752935922
 31
0.0
  0
LINE
  5
1D3
330
17A
100
AcDbEntity
  8
02555038_GEHÄUSE
  6
Continuous
 62
     7
100
AcDbLine
 10
575.3275742116
 20
473.4746237585
 30
0.0
 11
584.1314217889
 21
473.4746237585
 31
0.0
  0
SPLINE
  5
1D4
330
17A
100
AcDbEntity
  8
02555038_GEHÄUSE
  6
Continuous
 62
     7
100
AcDbSpline
210
0.0
220
0.0
230
1.0
 70
     8
 71
     3
 72
    14
 73
    10
 74
     0
 42
0.0000000009541162
 43
0.0000000001
 40
0.0
 40
0.0
 40
0.0
 40
0.0
 40
0.25
 40
0.25
 40
0.5
 40
0.5
 40
0.75
 40
0.75
 40
1.0
 40
1.0
 40
1.0
 40
1.0
 10
584.1314217888864
 20
473.4746237584811
 30
0.0
 10
584.9814446165349
 20
473.2924760096993
 30
0.0
 10
585.8418309110294
 20
473.1466489994139
 30
0.0
 10
587.5891187144116
 20
472.9479225852548
 30
0.0
 10
588.4648311240685
 20
472.8969789212064
 30
0.0
 10
590.2056252147164
 20
472.8975706591419
 30
0.0
 10
591.0730245874014
 20
472.9487912872863
 30
0.0
 10
592.8022848267674
 20
473.1453212311739
 30
0.0
 10
593.6643610129258
 20
473.2904739824725
 30
0.0
 10
594.5237266342997
 20
473.4746237584811
 30
0.0
  0
ARC
  5
1D5
330
17A
100
AcDbEntity
  8
02555038_GEHÄUSE
  6
Continuous
 62
     7
100
AcDbCircle
 10
589.3275742116
 20
464.752935922
 30
0.0
 40
13.99999999999999
100
AcDbArc
 50
68.2132107017
 51
111.7867892983
  0
LINE
  5
1D6
330
17A
100
AcDbEntity
  8
02555038_GEHÄUSE
  6
Continuous
 62
     7
100
AcDbLine
 10
584.1314217889
 20
477.752935922
 30
0.0
 11
594.5237266343
 21
477.752935922
 31
0.0
  0
LINE
  5
1D7
330
17A
100
AcDbEntity
  8
02555038_GEHÄUSE
  6
Continuous
 62
     7
100
AcDbLine
 10
584.1314217889
 20
477.752935922
 30
0.0
 11
584.1314217889
 21
473.4746237585
 31
0.0
  0
LINE
  5
1D8
330
17A
100
AcDbEntity
  8
02555038_GEHÄUSE
  6
Continuous
 62
     7
100
AcDbLine
 10
594.5237266343
 20
473.4746237585
 30
0.0
 11
594.5237266343
 21
477.752935922
 31
0.0
  0
LINE
  5
1D9
330
17A
100
AcDbEntity
  8
02555038_GEHÄUSE
  6
Continuous
 62
     7
100
AcDbLine
 10
594.5237266343
 20
473.4746237585
 30
0.0
 11
603.3275742116
 21
473.4746237585
 31
0.0
  0
LINE
  5
1DA
330
17A
100
AcDbEntity
  8
02555038_GEHÄUSE
  6
Continuous
 62
     7
100
AcDbLine
 10
575.3275742116
 20
473.4746237585
 30
0.0
 11
576.5775742116
 21
472.752935922
 31
0.0
  0
LINE
  5
1DB
330
17A
100
AcDbEntity
  8
02555038_GEHÄUSE
  6
Continuous
 62
     7
100
AcDbLine
 10
602.0775742116
 20
472.752935922
 30
0.0
 11
603.3275742116
 21
473.4746237585
 31
0.0
  0
LINE
  5
1DC
330
17A
100
AcDbEntity
  8
02555038_GEHÄUSE
  6
Continuous
 62
     7
100
AcDbLine
 10
603.3275742116
 20
473.4746237585
 30
0.0
 11
603.3275742116
 21
483.5378801285
 31
0.0
  0
LINE
  5
1DD
330
17A
100
AcDbEntity
  8
02555038_GEHÄUSE
  6
Continuous
 62
     7
100
AcDbLine
 10
575.3275742116
 20
477.9471888959
 30
0.0
 11
575.3275742116
 21
473.4746237585
 31
0.0
  0
SPLINE
  5
1DE
330
17A
100
AcDbEntity
  8
$DDT_AUDIT_GENERATED_(106)
  6
Continuous
 62
     7
100
AcDbSpline
210
0.0
220
0.0
230
1.0
 70
     8
 71
     3
 72
    12
 73
     8
 74
     0
 42
0.0000000001002791
 43
0.0000000001
 40
0.0
 40
0.0
 40
0.0
 40
0.0
 40
0.25
 40
0.25
 40
0.5000000000000001
 40
0.5000000000000001
 40
1.0
 40
1.0
 40
1.0
 40
1.0
 10
499.1985417313979
 20
570.8082960603252
 30
0.0
 10
507.5507970865305
 20
572.2881043605804
 30
0.0
 10
515.8788127436102
 20
573.7188666264328
 30
0.0
 10
532.5331388926982
 20
576.1333351504398
 30
0.0
 10
540.8741665471135
 20
577.1213650016346
 30
0.0
 10
565.8433876651717
 20
579.015079533746
 30
0.0
 10
582.1897091611099
 20
578.9030889075359
 30
0.0
 10
598.1925719553111
 20
576.5571389255878
 30
0.0
  0
ARC
  5
1DF
330
17A
100
AcDbEntity
  8
$DDT_AUDIT_GENERATED_(106)
  6
Continuous
 62
     7
100
AcDbCircle
 10
513.6806714364
 20
602.1097287991
 30
0.0
 40
34.48929938827332
100
AcDbArc
 50
211.1401033944
 51
245.1715923412
  0
SPLINE
  5
1E0
330
17A
100
AcDbEntity
  8
$DDT_AUDIT_GENERATED_(106)
  6
Continuous
 62
     7
100
AcDbSpline
210
0.0
220
0.0
230
1.0
 70
     8
 71
     3
 72
    14
 73
    10
 74
     0
 42
0.0000000005061153
 43
0.0000000001
 40
0.0
 40
0.0
 40
0.0
 40
0.0
 40
0.2500000000000001
 40
0.2500000000000001
 40
0.5000000000000002
 40
0.5000000000000002
 40
0.7500000000000001
 40
0.7500000000000001
 40
1.0
 40
1.0
 40
1.0
 40
1.0
 10
517.0669854918127
 20
567.1333757736334
 30
0.0
 10
516.1317022868594
 20
565.7276414298578
 30
0.0
 10
514.9097032132842
 20
564.7895999150311
 30
0.0
 10
512.1800438922689
 20
563.6082851343072
 30
0.0
 10
510.6471953392514
 20
563.3532921961333
 30
0.0
 10
507.4585597946587
 20
563.2328046248781
 30
0.0
 10
505.7556282686913
 20
563.3646607595118
 30
0.0
 10
502.3041273416388
 20
563.7961961360406
 30
0.0
 10
500.5422669037992
 20
564.0964170367595
 30
0.0
 10
498.7326643070361
 20
564.4100610454544
 30
0.0
  0
ARC
  5
1E1
330
17A
100
AcDbEntity
  8
$DDT_AUDIT_GENERATED_(106)
  6
Continuous
 62
     7
100
AcDbCircle
 10
561.9268428651
 20
238.2189403064
 30
0.0
 40
335.688094095651
100
AcDbArc
 50
85.4008110416
 51
100.4541255672
  0
SPLINE
  5
1E2
330
17A
100
AcDbEntity
  8
$DDT_AUDIT_GENERATED_(106)
  6
Continuous
 62
     7
100
AcDbSpline
210
0.0
220
0.0
230
1.0
 70
     8
 71
     3
 72
    18
 73
    14
 74
     0
 42
0.0000000040915797
 43
0.0000000001
 40
0.0
 40
0.0
 40
0.0
 40
0.0
 40
0.2500000000000012
 40
0.2500000000000012
 40
0.5000000000000031
 40
0.5000000000000031
 40
0.6250000000000023
 40
0.6250000000000023
 40
0.7500000000000016
 40
0.7500000000000016
 40
0.8750000000000009
 40
0.8750000000000009
 40
1.0
 40
1.0
 40
1.0
 40
1.0
 10
500.0415315642086
 20
570.2768033393992
 30
0.0
 10
500.2144421199227
 20
570.174537152422
 30
0.0
 10
500.3812360518764
 20
570.0631131132452
 30
0.0
 10
500.6927281962737
 20
569.8084503910493
 30
0.0
 10
500.8382157849277
 20
569.6651215769417
 30
0.0
 10
501.0098728194967
 20
569.4126654874931
 30
0.0
 10
501.0584632066843
 20
569.3228069328688
 30
0.0
 10
501.1295113018865
 20
569.131935150869
 30
0.0
 10
501.1514675263623
 20
569.030625603619
 30
0.0
 10
501.1623451570155
 20
568.8275646891738
 30
0.0
 10
501.151299750653
 20
568.723435789695
 30
0.0
 10
501.1019412174661
 20
568.5240957078788
 30
0.0
 10
501.063758272718
 20
568.4271237628135
 30
0.0
 10
501.0168375980887
 20
568.3347802413593
 30
0.0
  0
LINE
  5
1E3
330
17A
100
AcDbEntity
  8
$DDT_AUDIT_GENERATED_(106)
  6
Continuous
 62
     7
100
AcDbLine
 10
499.1867150715
 20
565.1301737653
 30
0.0
 11
500.9308740864
 21
568.3839450038
 31
0.0
  0
ARC
  5
1E4
330
17A
100
AcDbEntity
  8
$DDT_AUDIT_GENERATED_(106)
  6
Continuous
 62
     7
100
AcDbCircle
 10
498.9126341927
 20
565.2855460325
 30
0.0
 40
0.3150569306141658
100
AcDbArc
 50
305.5383273986
 51
330.4517610061
  0
SPLINE
  5
1E5
330
17A
100
AcDbEntity
  8
$DDT_AUDIT_GENERATED_(106)
  6
Continuous
 62
     7
100
AcDbSpline
210
0.0
220
0.0
230
1.0
 70
     8
 71
     3
 72
    18
 73
    14
 74
     0
 42
0.0000000043541442
 43
0.0000000001
 40
0.0
 40
0.0
 40
0.0
 40
0.0
 40
0.1249999999999997
 40
0.1249999999999997
 40
0.2499999999999993
 40
0.2499999999999993
 40
0.374999999999999
 40
0.374999999999999
 40
0.4999999999999987
 40
0.4999999999999987
 40
0.7499999999999993
 40
0.7499999999999993
 40
1.0
 40
1.0
 40
1.0
 40
1.0
 10
500.930874086412
 20
568.3839450038263
 30
0.0
 10
500.9789868484619
 20
568.4684955984492
 30
0.0
 10
501.0187745672445
 20
568.5580462188116
 30
0.0
 10
501.0704493436454
 20
568.7436062941803
 30
0.0
 10
501.0820839278596
 20
568.8415746945102
 30
0.0
 10
501.0698655872857
 20
569.0314902360972
 30
0.0
 10
501.0458986639733
 20
569.1263149685655
 30
0.0
 10
500.9708570802233
 20
569.3017264108445
 30
0.0
 10
500.9200911749395
 20
569.3835348071996
 30
0.0
 10
500.7449614471799
 20
569.610014208005
 30
0.0
 10
500.6000354924116
 20
569.7361378200776
 30
0.0
 10
500.2942348143875
 20
569.9590658768561
 30
0.0
 10
500.1321211994453
 20
570.0559806536647
 30
0.0
 10
499.9650079577401
 20
570.1447103236578
 30
0.0
  0
ARC
  5
1E6
330
17A
100
AcDbEntity
  8
$DDT_AUDIT_GENERATED_(106)
  6
Continuous
 62
     7
100
AcDbCircle
 10
500.0050084703
 20
563.8191765886
 30
0.0
 40
1.513548916630673
100
AcDbArc
 50
126.9228613006
 51
155.2276244242
  0
ARC
  5
1E7
330
17A
100
AcDbEntity
  8
$DDT_AUDIT_GENERATED_(106)
  6
Continuous
 62
     7
100
AcDbCircle
 10
561.6913318705
 20
331.215490404
 30
0.0
 40
242.0638085133534
100
AcDbArc
 50
84.0734284735
 51
104.9452369251
  0
ARC
  5
1E8
330
17A
100
AcDbEntity
  8
$DDT_AUDIT_GENERATED_(106)
  6
Continuous
 62
     7
100
AcDbCircle
 10
488.1721179176
 20
680.5567284733
 30
0.0
 40
116.1665047395781
100
AcDbArc
 50
275.4426818595
 51
282.6572803303
  0
ARC
  5
1E9
330
17A
100
AcDbEntity
  8
$DDT_AUDIT_GENERATED_(106)
  6
Continuous
 62
     7
100
AcDbCircle
 10
498.7923337103
 20
565.1833599724
 30
0.0
 40
0.4807483880178757
100
AcDbArc
 50
325.9168449687
 51
348.9174654098
  0
ARC
  5
1EA
330
17A
100
AcDbEntity
  8
$DDT_AUDIT_GENERATED_(106)
  6
Continuous
 62
     7
100
AcDbCircle
 10
499.9388755974
 20
563.7740317207
 30
0.0
 40
1.363627140714315
100
AcDbArc
 50
123.2855017831
 51
152.1975374098
  0
ARC
  5
1EB
330
17A
100
AcDbEntity
  8
$DDT_AUDIT_GENERATED_(106)
  6
Continuous
 62
     7
100
AcDbCircle
 10
628.7516980382
 20
508.3999756942
 30
0.0
 40
141.5700490691108
100
AcDbArc
 50
156.6944083638
 51
163.6731145344
  0
LINE
  5
1EC
330
17A
100
AcDbEntity
  8
$DDT_AUDIT_GENERATED_(106)
  6
Continuous
 62
     7
100
AcDbLine
 10
501.0168375981
 20
568.3347802413
 30
0.0
 11
499.264116768
 21
565.0909491562
 31
0.0
  0
ARC
  5
1ED
330
17A
100
AcDbEntity
  8
$DDT_AUDIT_GENERATED_(106)
  6
Continuous
 62
     7
100
AcDbCircle
 10
491.1379714
 20
546.6797727997
 30
0.0
 40
19.28840277718395
100
AcDbArc
 50
66.8123362993
 51
67.1413139367
  0
ELLIPSE
  5
1EE
330
17A
100
AcDbEntity
  8
$DDT_AUDIT_GENERATED_(106)
  6
Continuous
 62
     7
100
AcDbEllipse
 10
499.1408979294
 20
564.9956289607
 30
0.0
 11
-0.3171251716762094
 21
0.3865638698809931
 31
0.0
210
0.0
220
0.0
230
1.0
 40
0.0274039862
 41
1.461449447495578
 42
1.761161729289593
  0
ELLIPSE
  5
1EF
330
17A
100
AcDbEntity
  8
$DDT_AUDIT_GENERATED_(106)
  6
Continuous
 62
     7
100
AcDbEllipse
 10
499.2316029733
 20
565.0966822154
 30
0.0
 11
-0.4458968487825316
 21
0.2262211312954732
 31
0.0
210
0.0
220
0.0
230
1.0
 40
0.0192342435
 41
4.649167922969075
 42
4.82298176251542
  0
ELLIPSE
  5
1F0
330
17A
100
AcDbEntity
  8
$DDT_AUDIT_GENERATED_(106)
  6
Continuous
 62
     7
100
AcDbEllipse
 10
500.9831178919
 20
568.3407259353
 30
0.0
 11
-0.4338275058025087
 21
0.2485833767721102
 31
0.0
210
0.0
220
0.0
230
0.9999999999999997
 40
0.0232593331
 41
4.647918180906006
 42
4.846423313043759
  0
ARC
  5
1F1
330
17A
100
AcDbEntity
  8
$DDT_AUDIT_GENERATED_(106)
  6
Continuous
 62
     7
100
AcDbCircle
 10
633.6433253063
 20
507.5943366424
 30
0.0
 40
146.4969259129313
100
AcDbArc
 50
157.1621526128
 51
163.9083825622
  0
LINE
  5
1F2
330
17A
100
AcDbEntity
  8
$DDT_AUDIT_GENERATED_(106)
  6
Continuous
 62
     7
100
AcDbLine
 10
488.1717217704
 20
551.147883194
 30
0.0
 11
471.8378735762
 21
566.1705204145
 31
0.0
  0
ARC
  5
1F3
330
17A
100
AcDbEntity
  8
$DDT_AUDIT_GENERATED_(106)
  6
Continuous
 62
     7
100
AcDbCircle
 10
501.7106542454
 20
565.8685254163
 30
0.0
 40
20.00000000001157
100
AcDbArc
 50
243.4716131567
 51
260.0
  0
LINE
  5
1F4
330
17A
100
AcDbEntity
  8
$DDT_AUDIT_GENERATED_(106)
  6
Continuous
 62
     7
100
AcDbLine
 10
492.7778312838
 20
547.9742617003
 30
0.0
 11
492.7756222791
 21
547.9753646066
 31
0.0
  0
ARC
  5
1F5
330
17A
100
AcDbEntity
  8
$DDT_AUDIT_GENERATED_(106)
  6
Continuous
 62
     7
100
AcDbCircle
 10
501.7106542454
 20
565.8685254163
 30
0.0
 40
20.00000000000795
100
AcDbArc
 50
227.3945002384
 51
243.4645399097
  0
LINE
  5
1F6
330
17A
100
AcDbEntity
  8
$DDT_AUDIT_GENERATED_(106)
  6
Continuous
 62
     7
100
AcDbLine
 10
518.9212944076
 20
542.5252929627
 30
0.0
 11
498.2376906921
 21
546.172370356
 31
0.0
  0
ARC
  5
1F7
330
17A
100
AcDbEntity
  8
$DDT_AUDIT_GENERATED_(106)
  6
Continuous
 62
     7
100
AcDbCircle
 10
552.350280534
 20
549.0277524855
 30
0.0
 40
31.73897330344806
100
AcDbArc
 50
163.6131476053
 51
170.3259258181
  0
ARC
  5
1F8
330
17A
100
AcDbEntity
  8
$DDT_AUDIT_GENERATED_(106)
  6
Continuous
 62
     7
100
AcDbCircle
 10
552.350280534
 20
549.0277524855
 30
0.0
 40
31.73897330344806
100
AcDbArc
 50
175.6633701726
 51
176.3868496035
  0
LINE
  5
1F9
330
17A
100
AcDbEntity
  8
$DDT_AUDIT_GENERATED_(106)
  6
Continuous
 62
     7
100
AcDbLine
 10
594.5925086273
 20
571.9933700919
 30
0.0
 11
600.4062474111
 21
574.9461805551
 31
0.0
  0
SPLINE
  5
1FA
330
17A
100
AcDbEntity
  8
$DDT_AUDIT_GENERATED_(106)
  6
Continuous
 62
     7
100
AcDbSpline
210
0.0
220
0.0
230
1.0
 70
     8
 71
     3
 72
    17
 73
    13
 74
     0
 42
0.0000000000856243
 43
0.0000000001
 40
0.0
 40
0.0
 40
0.0
 40
0.0
 40
0.0947375027690621
 40
0.1960807913047748
 40
0.297425304791286
 40
0.3987718870433497
 40
0.5001162099168894
 40
0.6014594650862187
 40
0.7028029099878399
 40
0.8041471752059843
 40
0.9054925841673486
 40
1.0
 40
1.0
 40
1.0
 40
1.0
 10
600.2118812343472
 20
576.8233325171215
 30
0.0
 10
596.2504702666279
 20
577.6953183912084
 30
0.0
 10
589.3317959929467
 20
579.2022449298414
 30
0.0
 10
577.7001937377246
 20
581.2674858649274
 30
0.0
 10
566.0514137252715
 20
582.9647983175249
 30
0.0
 10
554.2729473832034
 20
584.2924461734118
 30
0.0
 10
542.4779765406312
 20
585.2364447613594
 30
0.0
 10
530.6589019272681
 20
585.8008321651812
 30
0.0
 10
518.8074690406564
 20
585.9851324680905
 30
0.0
 10
507.0374596358499
 20
585.7894393547418
 30
0.0
 10
495.2460582051407
 20
585.2290170670253
 30
0.0
 10
488.199440438225
 20
584.620110475225
 30
0.0
 10
484.1688417384835
 20
584.2629149637634
 30
0.0
  0
ARC
  5
1FB
330
17A
100
AcDbEntity
  8
$DDT_AUDIT_GENERATED_(106)
  6
Continuous
 62
     7
100
AcDbCircle
 10
484.2178030787
 20
583.3356651885
 30
0.0
 40
0.9245945826342041
100
AcDbArc
 50
92.9951207624
 51
141.4894556034
  0
ARC
  5
1FC
330
17A
100
AcDbEntity
  8
$DDT_AUDIT_GENERATED_(106)
  6
Continuous
 62
     7
100
AcDbCircle
 10
561.841918058
 20
344.8415240289
 30
0.0
 40
227.5096910741877
100
AcDbArc
 50
83.8238138115
 51
102.2337075559
  0
ARC
  5
1FD
330
17A
100
AcDbEntity
  8
$DDT_AUDIT_GENERATED_(106)
  6
Continuous
 62
     7
100
AcDbCircle
 10
647.6903367398
 20
58.0506171637
 30
0.0
 40
516.613210872398
100
AcDbArc
 50
96.7376429143
 51
96.7958137737
  0
ARC
  5
1FE
330
17A
100
AcDbEntity
  8
$DDT_AUDIT_GENERATED_(106)
  6
Continuous
 62
     7
100
AcDbCircle
 10
594.142937259
 20
572.8866220404
 30
0.0
 40
0.9999999956115543
100
AcDbArc
 50
276.052480924
 51
296.7099468329
  0
ARC
  5
1FF
330
17A
100
AcDbEntity
  8
$DDT_AUDIT_GENERATED_(106)
  6
Continuous
 62
     7
100
AcDbCircle
 10
648.2713410194
 20
52.7165015132
 30
0.0
 40
521.9788127362623
100
AcDbArc
 50
95.9408188385
 51
96.7895209687
  0
ARC
  5
200
330
17A
100
AcDbEntity
  8
$DDT_AUDIT_GENERATED_(106)
  6
Continuous
 62
     7
100
AcDbCircle
 10
586.4442338441
 20
572.027992085
 30
0.0
 40
0.9999999999999943
100
AcDbArc
 50
262.8853109517
 51
276.8065524939
  0
ARC
  5
201
330
17A
100
AcDbEntity
  8
$DDT_AUDIT_GENERATED_(106)
  6
Continuous
 62
     7
100
AcDbCircle
 10
599.9951262638
 20
575.8589615061
 30
0.0
 40
1.000000002220599
100
AcDbArc
 50
294.0957341307
 51
77.3100387587
  0
SPLINE
  5
202
330
17A
100
AcDbEntity
  8
$DDT_AUDIT_GENERATED_(106)
  6
Continuous
 62
     7
100
AcDbSpline
210
0.0
220
0.0
230
1.0
 70
     8
 71
     3
 72
    12
 73
     8
 74
     0
 42
0.0000000004748526
 43
0.0000000001
 40
0.0
 40
0.0
 40
0.0
 40
0.0
 40
0.2066162813605814
 40
0.4480565161833082
 40
0.6895043867246395
 40
0.9309637525346344
 40
1.0
 40
1.0
 40
1.0
 40
1.0
 10
483.499994976648
 20
583.9081713500689
 30
0.0
 10
482.4809293934207
 20
582.6815470324508
 30
0.0
 10
480.6236042950176
 20
580.4301114885354
 30
0.0
 10
477.7195877999421
 20
576.4166737073824
 30
0.0
 10
474.9976298386783
 20
572.2057393355551
 30
0.0
 10
472.9676569558021
 20
568.7625014144045
 30
0.0
 10
472.0476877814746
 20
566.9328727466559
 30
0.0
 10
471.8088819150399
 20
566.456545956614
 30
0.0
  0
ARC
  5
203
330
17A
100
AcDbEntity
  8
$DDT_AUDIT_GENERATED_(106)
  6
Continuous
 62
     7
100
AcDbCircle
 10
472.006995992
 20
566.35463254
 30
0.0
 40
0.2499992870061192
100
AcDbArc
 50
152.5233424913
 51
227.4565772332
  0
ARC
  5
204
330
17A
100
AcDbEntity
  8
$DDT_AUDIT_GENERATED_(106)
  6
Continuous
 62
     7
100
AcDbCircle
 10
518.964706452
 20
542.771494901
 30
0.0
 40
0.2499999999999751
100
AcDbArc
 50
260.0
 51
350.0
  0
LINE
  5
205
330
17A
100
AcDbEntity
  8
$DDT_AUDIT_GENERATED_(106)
  6
Continuous
 62
     7
100
AcDbLine
 10
521.9005843841
 20
557.9819934211
 30
0.0
 11
523.8498888295
 21
569.0370482837
 31
0.0
  0
LINE
  5
206
330
17A
100
AcDbEntity
  8
$DDT_AUDIT_GENERATED_(106)
  6
Continuous
 62
     7
100
AcDbLine
 10
519.2109083902
 20
542.7280828566
 30
0.0
 11
520.6796981619
 21
551.0580035857
 31
0.0
  0
LINE
  5
207
330
17A
100
AcDbEntity
  8
$DDT_AUDIT_GENERATED_(146)
  6
Continuous
 62
     7
100
AcDbLine
 10
521.0649395573
 20
554.365583999
 30
0.0
 11
520.6294315211
 21
550.8186556804
 31
0.0
  0
LINE
  5
208
330
17A
100
AcDbEntity
  8
$DDT_AUDIT_GENERATED_(148)
  6
Continuous
 62
     7
100
AcDbLine
 10
565.1772471085
 20
512.5983215285
 30
0.0
 11
565.3266384179
 21
513.4455617459
 31
0.0
  0
LINE
  5
209
330
17A
100
AcDbEntity
  8
$DDT_AUDIT_GENERATED_(148)
  6
Continuous
 62
     7
100
AcDbLine
 10
565.1210227596
 20
513.9419618568
 30
0.0
 11
563.6442231745
 21
514.9760280588
 31
0.0
  0
LINE
  5
20A
330
17A
100
AcDbEntity
  8
$DDT_AUDIT_GENERATED_(148)
  6
Continuous
 62
     7
100
AcDbLine
 10
539.8564248306
 20
519.1704587184
 30
0.0
 11
538.1150156875
 21
518.7038495449
 31
0.0
  0
LINE
  5
20B
330
17A
100
AcDbEntity
  8
$DDT_AUDIT_GENERATED_(148)
  6
Continuous
 62
     7
100
AcDbLine
 10
541.5630326847
 20
525.5241039023
 30
0.0
 11
540.5824135385
 21
519.9627363671
 31
0.0
  0
LINE
  5
20C
330
17A
100
AcDbEntity
  8
$DDT_AUDIT_GENERATED_(148)
  6
Continuous
 62
     7
100
AcDbLine
 10
563.2329918578
 20
515.9688282807
 30
0.0
 11
564.2136110039
 21
521.530195816
 31
0.0
  0
ARC
  5
20D
330
17A
100
AcDbEntity
  8
$DDT_AUDIT_GENERATED_(148)
  6
Continuous
 62
     7
100
AcDbCircle
 10
564.8342345414
 20
513.5323858347
 30
0.0
 40
0.5000000000000019
100
AcDbArc
 50
350.0
 51
55.0
  0
ARC
  5
20E
330
17A
100
AcDbEntity
  8
$DDT_AUDIT_GENERATED_(148)
  6
Continuous
 62
     7
100
AcDbCircle
 10
538.2444252101
 20
518.2208866317
 30
0.0
 40
0.5000000000000022
100
AcDbArc
 50
105.0
 51
158.1522070879
  0
ARC
  5
20F
330
17A
100
AcDbEntity
  8
$DDT_AUDIT_GENERATED_(148)
  6
Continuous
 62
     7
100
AcDbCircle
 10
539.5976057855
 20
520.1363845447
 30
0.0
 40
0.99999999999999
100
AcDbArc
 50
285.0
 51
350.0
  0
ARC
  5
210
330
17A
100
AcDbEntity
  8
$DDT_AUDIT_GENERATED_(148)
  6
Continuous
 62
     7
100
AcDbCircle
 10
564.2177996108
 20
515.7951801031
 30
0.0
 40
0.9999999999999972
100
AcDbArc
 50
170.0
 51
235.0
  0
LINE
  5
211
330
17A
100
AcDbEntity
  8
$DDT_AUDIT_GENERATED_(155)
  6
Continuous
 62
     7
100
AcDbLine
 10
555.1231289031
 20
469.9755099458
 30
0.0
 11
532.4725505838
 21
473.9694180322
 31
0.0
  0
LINE
  5
212
330
17A
100
AcDbEntity
  8
$DDT_AUDIT_GENERATED_(155)
  6
Continuous
 62
     7
100
AcDbLine
 10
558.0192687298
 20
472.0034088842
 30
0.0
 11
532.751705417
 21
476.458762033
 31
0.0
  0
LINE
  5
213
330
17A
100
AcDbEntity
  8
$DDT_AUDIT_GENERATED_(155)
  6
Continuous
 62
     7
100
AcDbLine
 10
551.2299181473
 20
460.5077219248
 30
0.0
 11
532.8927977862
 21
463.7410509929
 31
0.0
  0
LINE
  5
214
330
17A
100
AcDbEntity
  8
$DDT_AUDIT_GENERATED_(155)
  6
Continuous
 62
     7
100
AcDbLine
 10
531.9437410831
 20
465.0964444318
 30
0.0
 11
552.5853115862
 21
461.4567786279
 31
0.0
  0
LINE
  5
215
330
17A
100
AcDbEntity
  8
$DDT_AUDIT_GENERATED_(155)
  6
Continuous
 62
     7
100
AcDbLine
 10
558.0192687298
 20
472.0034088842
 30
0.0
 11
558.9161433249
 21
477.0898374702
 31
0.0
  0
LINE
  5
216
330
17A
100
AcDbEntity
  8
$DDT_AUDIT_GENERATED_(155)
  6
Continuous
 62
     7
100
AcDbLine
 10
552.5853115862
 20
461.4567786279
 30
0.0
 11
554.118624995
 21
470.152631087
 31
0.0
  0
LINE
  5
217
330
17A
100
AcDbEntity
  8
$DDT_AUDIT_GENERATED_(155)
  6
Continuous
 62
     7
100
AcDbLine
 10
533.4770544919
 20
473.7922968909
 30
0.0
 11
531.9437410831
 21
465.0964444318
 31
0.0
  0
LINE
  5
218
330
17A
100
AcDbEntity
  8
$DDT_AUDIT_GENERATED_(155)
  6
Continuous
 62
     7
100
AcDbLine
 10
531.0426235154
 20
476.0115655247
 30
0.0
 11
532.4725505838
 21
473.9694180322
 31
0.0
  0
LINE
  5
219
330
17A
100
AcDbEntity
  8
$DDT_AUDIT_GENERATED_(155)
  6
Continuous
 62
     7
100
AcDbLine
 10
555.1231289031
 20
469.9755099458
 30
0.0
 11
558.0192687298
 21
472.0034088842
 31
0.0
  0
LINE
  5
21A
330
17A
100
AcDbEntity
  8
$DDT_AUDIT_GENERATED_(155)
  6
Continuous
 62
     7
100
AcDbLine
 10
531.9437410831
 20
465.0964444318
 30
0.0
 11
532.8927977862
 21
463.7410509929
 31
0.0
  0
LINE
  5
21B
330
17A
100
AcDbEntity
  8
$DDT_AUDIT_GENERATED_(155)
  6
Continuous
 62
     7
100
AcDbLine
 10
551.2299181473
 20
460.5077219248
 30
0.0
 11
552.5853115862
 21
461.4567786279
 31
0.0
  0
LINE
  5
21C
330
17A
100
AcDbEntity
  8
$DDT_AUDIT_GENERATED_(155)
  6
Continuous
 62
     7
100
AcDbLine
 10
552.7976757851
 20
469.370123461
 30
0.0
 11
551.235710427
 21
460.5117777227
 31
0.0
  0
LINE
  5
21D
330
17A
100
AcDbEntity
  8
$DDT_AUDIT_GENERATED_(155)
  6
Continuous
 62
     7
100
AcDbLine
 10
534.4507073465
 20
472.6051890109
 30
0.0
 11
532.8887419883
 21
463.7468432726
 31
0.0
  0
LINE
  5
21E
330
17A
100
AcDbEntity
  8
$DDT_AUDIT_GENERATED_(155)
  6
Continuous
 62
     7
100
AcDbLine
 10
533.3034063142
 20
472.8074891379
 30
0.0
 11
553.9449768173
 21
469.167823334
 31
0.0
  0
LINE
  5
220
330
17A
100
AcDbEntity
  8
$DDT_AUDIT_GENERATED_(21F)
  6
Continuous
 62
     7
100
AcDbLine
 10
458.3251262287
 20
478.552935922
 30
0.0
 11
458.3251262287
 21
507.552935922
 31
0.0
  0
LINE
  5
221
330
17A
100
AcDbEntity
  8
$DDT_AUDIT_GENERATED_(21F)
  6
Continuous
 62
     7
100
AcDbLine
 10
441.3251262287
 20
478.552935922
 30
0.0
 11
441.3251262287
 21
507.552935922
 31
0.0
  0
LINE
  5
222
330
17A
100
AcDbEntity
  8
$DDT_AUDIT_GENERATED_(21F)
  6
Continuous
 62
     7
100
AcDbLine
 10
444.8251262287
 20
509.1683169788
 30
0.0
 11
444.8251262287
 21
509.302935922
 31
0.0
  0
LINE
  5
223
330
17A
100
AcDbEntity
  8
$DDT_AUDIT_GENERATED_(21F)
  6
Continuous
 62
     7
100
AcDbLine
 10
444.8251262287
 20
502.9183169788
 30
0.0
 11
444.8251262287
 21
499.302935922
 31
0.0
  0
LINE
  5
224
330
17A
100
AcDbEntity
  8
$DDT_AUDIT_GENERATED_(21F)
  6
Continuous
 62
     7
100
AcDbLine
 10
444.8251262287
 20
486.802935922
 30
0.0
 11
444.8251262287
 21
483.1875548652
 31
0.0
  0
LINE
  5
225
330
17A
100
AcDbEntity
  8
$DDT_AUDIT_GENERATED_(21F)
  6
Continuous
 62
     7
100
AcDbLine
 10
444.8251262287
 20
476.802935922
 30
0.0
 11
444.8251262287
 21
476.9375548652
 31
0.0
  0
SPLINE
  5
226
330
17A
100
AcDbEntity
  8
$DDT_AUDIT_GENERATED_(21F)
  6
Continuous
 62
     7
100
AcDbSpline
210
0.0
220
0.0
230
1.0
 70
     8
 71
     3
 72
    14
 73
    10
 74
     0
 42
0.0000000011014719
 43
0.0000000001
 40
0.0
 40
0.0
 40
0.0
 40
0.0
 40
0.25
 40
0.25
 40
0.5
 40
0.5
 40
0.75
 40
0.75
 40
1.0
 40
1.0
 40
1.0
 40
1.0
 10
444.8251262286682
 20
483.1875548652271
 30
0.0
 10
443.8473196602151
 20
482.8402370165999
 30
0.0
 10
443.1504611660342
 20
482.3423097040165
 30
0.0
 10
442.2437792141645
 20
481.2524016394482
 30
0.0
 10
442.0298321138454
 20
480.6585274580432
 30
0.0
 10
442.0289649608036
 20
479.4701223546543
 30
0.0
 10
442.2362835190726
 20
478.8845685722573
 30
0.0
 10
443.146882014996
 20
477.7842868291508
 30
0.0
 10
443.8483968275118
 20
477.284490102977
 30
0.0
 10
444.8251262286682
 20
476.9375548652271
 30
0.0
  0
SPLINE
  5
227
330
17A
100
AcDbEntity
  8
$DDT_AUDIT_GENERATED_(21F)
  6
Continuous
 62
     7
100
AcDbSpline
210
0.0
220
0.0
230
1.0
 70
     8
 71
     3
 72
    14
 73
    10
 74
     0
 42
0.0000000006969408
 43
0.0000000001
 40
0.0
 40
0.0
 40
0.0
 40
0.0
 40
0.25
 40
0.25
 40
0.5
 40
0.5
 40
0.75
 40
0.75
 40
1.0
 40
1.0
 40
1.0
 40
1.0
 10
444.8251262286682
 20
499.3029359219937
 30
0.0
 10
443.8494977858985
 20
498.6098475694816
 30
0.0
 10
443.1435190972512
 20
497.6022874016508
 30
0.0
 10
442.2378053328549
 20
495.4116419492769
 30
0.0
 10
442.0275029361649
 20
494.2274276457876
 30
0.0
 10
442.031317774302
 20
491.8473396369631
 30
0.0
 10
442.2466170168516
 20
490.6643160274195
 30
0.0
 10
443.1518033314899
 20
488.492312987577
 30
0.0
 10
443.8568372929619
 20
487.4908102743437
 30
0.0
 10
444.8251262286682
 20
486.8029359219938
 30
0.0
  0
SPLINE
  5
228
330
17A
100
AcDbEntity
  8
$DDT_AUDIT_GENERATED_(21F)
  6
Continuous
 62
     7
100
AcDbSpline
210
0.0
220
0.0
230
1.0
 70
     8
 71
     3
 72
    14
 73
    10
 74
     0
 42
0.0000000011014719
 43
0.0000000001
 40
0.0
 40
0.0
 40
0.0
 40
0.0
 40
0.25
 40
0.25
 40
0.5
 40
0.5
 40
0.75
 40
0.75
 40
1.0
 40
1.0
 40
1.0
 40
1.0
 10
444.8251262286682
 20
509.1683169787603
 30
0.0
 10
443.8473196602151
 20
508.820999130133
 30
0.0
 10
443.1504611660342
 20
508.3230718175496
 30
0.0
 10
442.2437792141646
 20
507.2331637529815
 30
0.0
 10
442.0298321138454
 20
506.6392895715763
 30
0.0
 10
442.0289649608036
 20
505.4508844681876
 30
0.0
 10
442.2362835190726
 20
504.8653306857904
 30
0.0
 10
443.146882014996
 20
503.7650489426839
 30
0.0
 10
443.8483968275118
 20
503.2652522165101
 30
0.0
 10
444.8251262286682
 20
502.9183169787603
 30
0.0
  0
LINE
  5
229
330
17A
100
AcDbEntity
  8
$DDT_AUDIT_GENERATED_(21F)
  6
Continuous
 62
     7
100
AcDbLine
 10
454.8251262287
 20
509.302935922
 30
0.0
 11
454.8251262287
 21
509.1683169788
 31
0.0
  0
LINE
  5
22A
330
17A
100
AcDbEntity
  8
$DDT_AUDIT_GENERATED_(21F)
  6
Continuous
 62
     7
100
AcDbLine
 10
454.8251262287
 20
502.9183169788
 30
0.0
 11
454.8251262287
 21
499.302935922
 31
0.0
  0
LINE
  5
22B
330
17A
100
AcDbEntity
  8
$DDT_AUDIT_GENERATED_(21F)
  6
Continuous
 62
     7
100
AcDbLine
 10
454.8251262287
 20
486.802935922
 30
0.0
 11
454.8251262287
 21
483.1875548652
 31
0.0
  0
LINE
  5
22C
330
17A
100
AcDbEntity
  8
$DDT_AUDIT_GENERATED_(21F)
  6
Continuous
 62
     7
100
AcDbLine
 10
454.8251262287
 20
476.9375548652
 30
0.0
 11
454.8251262287
 21
476.802935922
 31
0.0
  0
LINE
  5
22D
330
17A
100
AcDbEntity
  8
$DDT_AUDIT_GENERATED_(21F)
  6
Continuous
 62
     7
100
AcDbLine
 10
444.8251262287
 20
509.1683169788
 30
0.0
 11
454.8251262287
 21
509.1683169788
 31
0.0
  0
SPLINE
  5
22E
330
17A
100
AcDbEntity
  8
$DDT_AUDIT_GENERATED_(21F)
  6
Continuous
 62
     7
100
AcDbSpline
210
0.0
220
0.0
230
1.0
 70
     8
 71
     3
 72
    14
 73
    10
 74
     0
 42
0.0000000011014719
 43
0.0000000001
 40
0.0
 40
0.0
 40
0.0
 40
0.0
 40
0.2499999999999999
 40
0.2499999999999999
 40
0.4999999999999999
 40
0.4999999999999999
 40
0.7499999999999999
 40
0.7499999999999999
 40
1.0
 40
1.0
 40
1.0
 40
1.0
 10
454.8251262286682
 20
509.1683169787603
 30
0.0
 10
455.8029327971213
 20
508.820999130133
 30
0.0
 10
456.4997912913022
 20
508.3230718175496
 30
0.0
 10
457.4064732431719
 20
507.2331637529813
 30
0.0
 10
457.620420343491
 20
506.6392895715763
 30
0.0
 10
457.6212874965329
 20
505.4508844681874
 30
0.0
 10
457.4139689382638
 20
504.8653306857904
 30
0.0
 10
456.5033704423404
 20
503.7650489426839
 30
0.0
 10
455.8018556298246
 20
503.2652522165101
 30
0.0
 10
454.8251262286682
 20
502.9183169787603
 30
0.0
  0
LINE
  5
22F
330
17A
100
AcDbEntity
  8
$DDT_AUDIT_GENERATED_(21F)
  6
Continuous
 62
     7
100
AcDbLine
 10
454.8251262287
 20
502.9183169788
 30
0.0
 11
444.8251262287
 21
502.9183169788
 31
0.0
  0
LINE
  5
230
330
17A
100
AcDbEntity
  8
$DDT_AUDIT_GENERATED_(21F)
  6
Continuous
 62
     7
100
AcDbLine
 10
444.8251262287
 20
499.302935922
 30
0.0
 11
454.8251262287
 21
499.302935922
 31
0.0
  0
SPLINE
  5
231
330
17A
100
AcDbEntity
  8
$DDT_AUDIT_GENERATED_(21F)
  6
Continuous
 62
     7
100
AcDbSpline
210
0.0
220
0.0
230
1.0
 70
     8
 71
     3
 72
    14
 73
    10
 74
     0
 42
0.0000000006969408
 43
0.0000000001
 40
0.0
 40
0.0
 40
0.0
 40
0.0
 40
0.25
 40
0.25
 40
0.5
 40
0.5
 40
0.75
 40
0.75
 40
1.0
 40
1.0
 40
1.0
 40
1.0
 10
454.8251262286682
 20
499.3029359219937
 30
0.0
 10
455.8007546714379
 20
498.6098475694816
 30
0.0
 10
456.5067333600853
 20
497.6022874016508
 30
0.0
 10
457.4124471244816
 20
495.4116419492769
 30
0.0
 10
457.6227495211716
 20
494.2274276457876
 30
0.0
 10
457.6189346830345
 20
491.8473396369631
 30
0.0
 10
457.4036354404848
 20
490.6643160274195
 30
0.0
 10
456.4984491258465
 20
488.492312987577
 30
0.0
 10
455.7934151643746
 20
487.4908102743437
 30
0.0
 10
454.8251262286682
 20
486.8029359219937
 30
0.0
  0
LINE
  5
232
330
17A
100
AcDbEntity
  8
$DDT_AUDIT_GENERATED_(21F)
  6
Continuous
 62
     7
100
AcDbLine
 10
454.8251262287
 20
486.802935922
 30
0.0
 11
444.8251262287
 21
486.802935922
 31
0.0
  0
LINE
  5
233
330
17A
100
AcDbEntity
  8
$DDT_AUDIT_GENERATED_(21F)
  6
Continuous
 62
     7
100
AcDbLine
 10
444.8251262287
 20
483.1875548652
 30
0.0
 11
454.8251262287
 21
483.1875548652
 31
0.0
  0
SPLINE
  5
234
330
17A
100
AcDbEntity
  8
$DDT_AUDIT_GENERATED_(21F)
  6
Continuous
 62
     7
100
AcDbSpline
210
0.0
220
0.0
230
1.0
 70
     8
 71
     3
 72
    14
 73
    10
 74
     0
 42
0.0000000011014719
 43
0.0000000001
 40
0.0
 40
0.0
 40
0.0
 40
0.0
 40
0.2500000000000001
 40
0.2500000000000001
 40
0.5000000000000001
 40
0.5000000000000001
 40
0.7500000000000002
 40
0.7500000000000002
 40
1.0
 40
1.0
 40
1.0
 40
1.0
 10
454.8251262286682
 20
483.1875548652271
 30
0.0
 10
455.8029327971213
 20
482.8402370165999
 30
0.0
 10
456.4997912913022
 20
482.3423097040165
 30
0.0
 10
457.4064732431719
 20
481.2524016394482
 30
0.0
 10
457.620420343491
 20
480.6585274580432
 30
0.0
 10
457.6212874965329
 20
479.4701223546543
 30
0.0
 10
457.4139689382638
 20
478.8845685722573
 30
0.0
 10
456.5033704423404
 20
477.7842868291508
 30
0.0
 10
455.8018556298246
 20
477.284490102977
 30
0.0
 10
454.8251262286682
 20
476.9375548652271
 30
0.0
  0
LINE
  5
235
330
17A
100
AcDbEntity
  8
$DDT_AUDIT_GENERATED_(21F)
  6
Continuous
 62
     7
100
AcDbLine
 10
454.8251262287
 20
476.9375548652
 30
0.0
 11
444.8251262287
 21
476.9375548652
 31
0.0
  0
LINE
  5
236
330
17A
100
AcDbEntity
  8
$DDT_AUDIT_GENERATED_(21F)
  6
Continuous
 62
     7
100
AcDbLine
 10
444.8251262287
 20
476.802935922
 30
0.0
 11
454.8251262287
 21
476.802935922
 31
0.0
  0
ARC
  5
237
330
17A
100
AcDbEntity
  8
$DDT_AUDIT_GENERATED_(21F)
  6
Continuous
 62
     7
100
AcDbCircle
 10
452.1894250305
 20
499.6565335256
 30
0.0
 40
10.0
100
AcDbArc
 50
52.1519040322
 51
74.7179936136
  0
ARC
  5
238
330
17A
100
AcDbEntity
  8
$DDT_AUDIT_GENERATED_(21F)
  6
Continuous
 62
     7
100
AcDbCircle
 10
452.1894250305
 20
486.4493383184
 30
0.0
 40
9.999999999999993
100
AcDbArc
 50
285.2820063864
 51
307.8480959678
  0
ARC
  5
239
330
17A
100
AcDbEntity
  8
$DDT_AUDIT_GENERATED_(21F)
  6
Continuous
 62
     7
100
AcDbCircle
 10
447.4608274269
 20
499.6565335256
 30
0.0
 40
9.999999999999996
100
AcDbArc
 50
105.2820063864
 51
127.8480959678
  0
ARC
  5
23A
330
17A
100
AcDbEntity
  8
$DDT_AUDIT_GENERATED_(21F)
  6
Continuous
 62
     7
100
AcDbCircle
 10
447.4608274269
 20
486.4493383184
 30
0.0
 40
10.0
100
AcDbArc
 50
232.1519040322
 51
254.7179936136
  0
LINE
  5
23B
330
17A
100
AcDbEntity
  8
$DDT_AUDIT_GENERATED_(21F)
  6
Continuous
 62
     7
100
AcDbLine
 10
454.8251262287
 20
509.302935922
 30
0.0
 11
444.8251262287
 21
509.302935922
 31
0.0
  0
LINE
  5
23C
330
17A
100
AcDbEntity
  8
$DDT_AUDIT_GENERATED_(166)
  6
Continuous
 62
     7
100
AcDbLine
 10
543.2345612022
 20
544.2178459679
 30
0.0
 11
569.0365243311
 21
539.6682637131
 31
0.0
  0
ARC
  5
23D
330
17A
100
AcDbEntity
  8
$DDT_AUDIT_GENERATED_(166)
  6
Continuous
 62
     7
100
AcDbCircle
 10
559.17336309
 20
563.7248231165
 30
0.0
 40
26.0
100
AcDbArc
 50
292.2935718357
 51
295.2079975724
  0
ARC
  5
23E
330
17A
100
AcDbEntity
  8
$DDT_AUDIT_GENERATED_(166)
  6
Continuous
 62
     7
100
AcDbCircle
 10
560.7307289332
 20
563.4502174995
 30
0.0
 40
26.0
100
AcDbArc
 50
224.7920024276
 51
227.7064281643
  0
ARC
  5
23F
330
17A
100
AcDbEntity
  8
$DDT_AUDIT_GENERATED_(166)
  6
Continuous
 62
     7
100
AcDbCircle
 10
543.2019025272
 20
546.0481990871
 30
0.0
 40
1.3
100
AcDbArc
 50
105.9834015034
 51
224.7920024276
  0
ARC
  5
240
330
17A
100
AcDbEntity
  8
$DDT_AUDIT_GENERATED_(166)
  6
Continuous
 62
     7
100
AcDbCircle
 10
569.6932310832
 20
541.3770631078
 30
0.0
 40
1.300000000000002
100
AcDbArc
 50
295.2079975724
 51
54.0165984966
  0
ARC
  5
241
330
17A
100
AcDbEntity
  8
$DDT_AUDIT_GENERATED_(166)
  6
Continuous
 62
     7
100
AcDbCircle
 10
551.6554197829
 20
516.5350148128
 30
0.0
 40
31.99999999999999
100
AcDbArc
 50
54.0165984966
 51
105.9834015034
  0
LINE
  5
242
330
17A
100
AcDbEntity
  8
$DDT_AUDIT_GENERATED_(171)
  6
Continuous
 62
     7
100
AcDbLine
 10
565.1984187569
 20
521.3565476383
 30
0.0
 11
540.5782249316
 21
525.69775208
 31
0.0
  0
LINE
  5
243
330
17A
100
AcDbEntity
  8
$DDT_AUDIT_GENERATED_(171)
  6
Continuous
 62
     7
100
AcDbLine
 10
543.3330419775
 20
544.2004811502
 30
0.0
 11
540.172645144
 21
526.2769800454
 31
0.0
  0
LINE
  5
244
330
17A
100
AcDbEntity
  8
$DDT_AUDIT_GENERATED_(171)
  6
Continuous
 62
     7
100
AcDbLine
 10
565.7776467223
 20
521.762127426
 30
0.0
 11
568.9380435558
 21
539.6856285308
 31
0.0
  0
ARC
  5
245
330
17A
100
AcDbEntity
  8
$DDT_AUDIT_GENERATED_(171)
  6
Continuous
 62
     7
100
AcDbCircle
 10
540.6650490205
 20
526.1901559565
 30
0.0
 40
0.5000000000000026
100
AcDbArc
 50
170.0
 51
260.0
  0
ARC
  5
246
330
17A
100
AcDbEntity
  8
$DDT_AUDIT_GENERATED_(171)
  6
Continuous
 62
     7
100
AcDbCircle
 10
565.2852428458
 20
521.8489515148
 30
0.0
 40
0.5000000000000026
100
AcDbArc
 50
260.0
 51
350.0
  0
ENDBLK
  5
248
330
17A
100
AcDbEntity
  8
0
100
AcDbBlockEnd
  0
BLOCK
  5
30F
330
249
100
AcDbEntity
  8
0
100
AcDbBlockBegin
  2
SE2
 70
     0
 10
0.0
 20
0.0
 30
0.0
  3
SE2
  1

  0
LINE
  5
24B
330
249
100
AcDbEntity
  8
$DDT_AUDIT_GENERATED_(87)
  6
Continuous
 62
     7
100
AcDbLine
 10
219.5467082978
 20
265.435532147
 30
0.0
 11
219.5466881367
 21
265.4472383965
 31
0.0
  0
ELLIPSE
  5
24C
330
249
100
AcDbEntity
  8
$DDT_AUDIT_GENERATED_(87)
  6
Continuous
 62
     7
100
AcDbEllipse
 10
156.8851809054
 20
233.6844441821
 30
0.0
 11
-26.07017950764734
 21
-0.08015885881134527
 31
0.0
210
0.0
220
0.0
230
0.9999999999999999
 40
0.9848104507
 41
5.703327952704553
 42
5.973103419848258
  0
ELLIPSE
  5
24D
330
249
100
AcDbEntity
  8
$DDT_AUDIT_GENERATED_(87)
  6
Continuous
 62
     7
100
AcDbEllipse
 10
156.8851809054
 20
233.6844441821
 30
0.0
 11
-26.07017950764734
 21
-0.08015885881134527
 31
0.0
210
0.0
220
0.0
230
0.9999999999999999
 40
0.9848104507
 41
3.440328056311188
 42
3.743850935779538
  0
LINE
  5
24E
330
249
100
AcDbEntity
  8
$DDT_AUDIT_GENERATED_(87)
  6
Continuous
 62
     7
100
AcDbLine
 10
131.3848643418
 20
185.9080283519
 30
0.0
 11
132.0785920037
 21
182.2483552916
 31
0.0
  0
ARC
  5
24F
330
249
100
AcDbEntity
  8
$DDT_AUDIT_GENERATED_(87)
  6
Continuous
 62
     7
100
AcDbCircle
 10
79.1059478856
 20
173.915907937
 30
0.0
 40
53.6239750836865
100
AcDbArc
 50
4.1936298193
 51
8.9392186695
  0
ARC
  5
250
330
249
100
AcDbEntity
  8
$DDT_AUDIT_GENERATED_(87)
  6
Continuous
 62
     7
100
AcDbCircle
 10
76.8767222783
 20
188.5512610254
 30
0.0
 40
55.27652499226441
100
AcDbArc
 50
12.7880740825
 51
54.6861306007
  0
LINE
  5
251
330
249
100
AcDbEntity
  8
$DDT_AUDIT_GENERATED_(87)
  6
Continuous
 62
     7
100
AcDbLine
 10
108.8296031734
 20
233.6567775143
 30
0.0
 11
105.1952787578
 21
235.9730900978
 31
0.0
  0
ARC
  5
252
330
249
100
AcDbEntity
  8
$DDT_AUDIT_GENERATED_(87)
  6
Continuous
 62
     7
100
AcDbCircle
 10
84.6995439652
 20
200.5102158666
 30
0.0
 40
40.95962150001962
100
AcDbArc
 50
59.9742755734
 51
84.9130933808
  0
SPLINE
  5
253
330
249
100
AcDbEntity
  8
$DDT_AUDIT_GENERATED_(87)
  6
Continuous
 62
     7
100
AcDbSpline
210
0.0
220
0.0
230
1.0
 70
     8
 71
     3
 72
    18
 73
    14
 74
     0
 42
0.0000000004774035
 43
0.0000000001
 40
0.0
 40
0.0
 40
0.0
 40
0.0
 40
0.1250000000000002
 40
0.1250000000000002
 40
0.2500000000000004
 40
0.2500000000000004
 40
0.5000000000000003
 40
0.5000000000000003
 40
0.7500000000000002
 40
0.7500000000000002
 40
0.8750000000000001
 40
0.8750000000000001
 40
1.0
 40
1.0
 40
1.0
 40
1.0
 10
71.44788106015355
 20
237.7869029724749
 30
0.0
 10
71.43579282083755
 20
237.2433204911704
 30
0.0
 10
71.5590084282019
 20
236.7005262162915
 30
0.0
 10
72.03856018253977
 20
235.6170784987388
 30
0.0
 10
72.4011202495873
 20
235.0709827203201
 30
0.0
 10
73.77928056384039
 20
233.4893657654776
 30
0.0
 10
75.09815991508164
 20
232.4891220961013
 30
0.0
 10
78.22663599599338
 20
230.6920945398587
 30
0.0
 10
80.06106674053446
 20
229.8806804339273
 30
0.0
 10
83.00943718889808
 20
228.83662836756
 30
0.0
 10
84.02850422788973
 20
228.5154452843304
 30
0.0
 10
86.13650592968956
 20
227.9240854726049
 30
0.0
 10
87.23725924117663
 20
227.6517193664877
 30
0.0
 10
88.33129748030115
 20
227.4138845722992
 30
0.0
  0
SPLINE
  5
254
330
249
100
AcDbEntity
  8
$DDT_AUDIT_GENERATED_(87)
  6
Continuous
 62
     7
100
AcDbSpline
210
0.0
220
0.0
230
1.0
 70
     8
 71
     3
 72
    23
 73
    19
 74
     0
 42
0.0000000007771193
 43
0.0000000001
 40
0.0
 40
0.0
 40
0.0
 40
0.0
 40
0.0681440629081172
 40
0.1131310014042522
 40
0.1743060635933854
 40
0.2288069383961267
 40
0.3516315239109413
 40
0.4704199153755957
 40
0.6000317447051873
 40
0.7289443699689003
 40
0.7641509287849055
 40
0.798725787599933
 40
0.8327898919837954
 40
0.8664697256982837
 40
0.8998961711790825
 40
0.9332031350236554
 40
0.9665260016198446
 40
1.0
 40
1.0
 40
1.0
 40
1.0
 10
83.30749098553015
 20
241.7630649957676
 30
0.0
 10
82.94399915720624
 20
241.7969981842039
 30
0.0
 10
82.34053947509146
 20
241.8533331813378
 30
0.0
 10
81.41128725230628
 20
241.9353561290295
 30
0.0
 10
80.55650271743086
 20
241.9933795114641
 30
0.0
 10
79.29582444984659
 20
242.0436612221521
 30
0.0
 10
77.75979382567853
 20
242.0091238707741
 30
0.0
 10
75.96591910439544
 20
241.7782281248078
 30
0.0
 10
74.35107499143882
 20
241.3521307503301
 30
0.0
 10
73.3349859058384
 20
240.8722325232724
 30
0.0
 10
72.76741214274203
 20
240.4994160973199
 30
0.0
 10
72.497978686788
 20
240.2940633149582
 30
0.0
 10
72.26166647852224
 20
240.0816849418713
 30
0.0
 10
72.05841415197631
 20
239.8622858498679
 30
0.0
 10
71.888054222553
 20
239.6358993537368
 30
0.0
 10
71.75139397808833
 20
239.4024249354936
 30
0.0
 10
71.64543691861107
 20
239.1623139780114
 30
0.0
 10
71.60293137078908
 20
238.9973508273558
 30
0.0
 10
71.58163051124355
 20
238.9146826326765
 30
0.0
  0
ARC
  5
255
330
249
100
AcDbEntity
  8
$DDT_AUDIT_GENERATED_(87)
  6
Continuous
 62
     7
100
AcDbCircle
 10
157.5839816055
 20
1034.6915481652
 30
0.0
 40
796.3997592165662
100
AcDbArc
 50
264.6485124525
 51
265.0114196664
  0
SPLINE
  5
256
330
249
100
AcDbEntity
  8
$DDT_AUDIT_GENERATED_(87)
  6
Continuous
 62
     7
100
AcDbSpline
210
0.0
220
0.0
230
1.0
 70
     8
 71
     3
 72
     8
 73
     4
 74
     0
 42
0.0000000006703759
 43
0.0000000001
 40
0.8532455050789197
 40
0.8532455050789197
 40
0.8532455050789197
 40
0.8532455050789197
 40
0.8566661344233535
 40
0.8566661344233535
 40
0.8566661344233535
 40
0.8566661344233535
 10
70.40424793724186
 20
236.780258272608
 30
0.0
 10
70.39646544449461
 20
236.7954283158103
 30
0.0
 10
70.38877807352722
 20
236.8106005362345
 30
0.0
 10
70.38118632236856
 20
236.8257744636785
 30
0.0
  0
ELLIPSE
  5
257
330
249
100
AcDbEntity
  8
$DDT_AUDIT_GENERATED_(87)
  6
Continuous
 62
     7
100
AcDbEllipse
 10
94.3971881349
 20
227.8777276495
 30
0.0
 11
0.4913740411069331
 21
1.938698416909163
 31
0.0
210
0.0
220
0.0
230
1.0
 40
0.0049479526
 41
3.144911254177822
 42
3.173542372620711
  0
ARC
  5
258
330
249
100
AcDbEntity
  8
$DDT_AUDIT_GENERATED_(87)
  6
Continuous
 62
     7
100
AcDbCircle
 10
130.5559557198
 20
194.1721647623
 30
0.0
 40
8.310567875494806
100
AcDbArc
 50
275.6885039461
 51
275.7277192194
  0
ARC
  5
259
330
249
100
AcDbEntity
  8
$DDT_AUDIT_GENERATED_(87)
  6
Continuous
 62
     7
100
AcDbCircle
 10
236.7934861124
 20
188.5937525472
 30
0.0
 40
55.20507262395327
100
AcDbArc
 50
125.2854137499
 51
167.2400909104
  0
LINE
  5
25A
330
249
100
AcDbEntity
  8
$DDT_AUDIT_GENERATED_(87)
  6
Continuous
 62
     7
100
AcDbLine
 10
208.5385679443
 20
235.9730894245
 30
0.0
 11
204.9042849858
 21
233.6568072032
 31
0.0
  0
ARC
  5
25B
330
249
100
AcDbEntity
  8
$DDT_AUDIT_GENERATED_(87)
  6
Continuous
 62
     7
100
AcDbCircle
 10
229.0804209513
 20
200.3572513353
 30
0.0
 40
41.11515107292689
100
AcDbArc
 50
95.13214335
 51
119.9747036888
  0
SPLINE
  5
25C
330
249
100
AcDbEntity
  8
$DDT_AUDIT_GENERATED_(87)
  6
Continuous
 62
     7
100
AcDbSpline
210
0.0
220
0.0
230
1.0
 70
     8
 71
     3
 72
    32
 73
    28
 74
     0
 42
0.0000000007778782
 43
0.0000000001
 40
0.0
 40
0.0
 40
0.0
 40
0.0
 40
0.0177608127362059
 40
0.035471070460709
 40
0.0531510926325738
 40
0.070821300228014
 40
0.088502145449049
 40
0.106214040879483
 40
0.1239772893096093
 40
0.1418120154245416
 40
0.1597381004775285
 40
0.1777751209544581
 40
0.1959422920865763
 40
0.214258416895214
 40
0.2327418412655512
 40
0.2514104153568402
 40
0.2702814614735775
 40
0.3558778199085679
 40
0.4413879146991713
 40
0.5286167098873137
 40
0.6072402278634268
 40
0.6875646488767598
 40
0.7708330448684363
 40
0.82566326024937
 40
0.8869302508008637
 40
0.9308132302164703
 40
1.0
 40
1.0
 40
1.0
 40
1.0
 10
242.1522657786017
 20
238.9146826327224
 30
0.0
 10
242.1417485874371
 20
238.9586651710044
 30
0.0
 10
242.1207441416165
 20
239.0465050541001
 30
0.0
 10
242.0772862120889
 20
239.1762468235108
 30
0.0
 10
242.0251367643526
 20
239.3041903983975
 30
0.0
 10
241.9634404426001
 20
239.4302103797938
 30
0.0
 10
241.8924257766721
 20
239.554337591794
 30
0.0
 10
241.8120314541936
 20
239.6765616256843
 30
0.0
 10
241.7222739387955
 20
239.7968836947138
 30
0.0
 10
241.6231488778393
 20
239.9153024681057
 30
0.0
 10
241.5146576516626
 20
240.0318179070266
 30
0.0
 10
241.3967998450817
 20
240.1464301431879
 30
0.0
 10
241.2695766081867
 20
240.2591401347225
 30
0.0
 10
241.1329845881262
 20
240.3699481564182
 30
0.0
 10
240.9870369399828
 20
240.4788592332104
 30
0.0
 10
240.8316842003886
 20
240.5858626269329
 30
0.0
 10
240.4738428166785
 20
240.8144938667935
 30
0.0
 10
239.8485632782942
 20
241.1374965857078
 30
0.0
 10
238.8467834460652
 20
241.4946381981478
 30
0.0
 10
237.7500610791413
 20
241.7578265360561
 30
0.0
 10
236.5850140281003
 20
241.9333308715921
 30
0.0
 10
235.3699261384194
 20
242.0230639363262
 30
0.0
 10
234.2338679021587
 20
242.0343709138345
 30
0.0
 10
233.1799527029952
 20
241.9940654225645
 30
0.0
 10
232.3286120617188
 20
241.9366624631297
 30
0.0
 10
231.3988709696016
 20
241.8539338781586
 30
0.0
 10
230.7955649836652
 20
241.7975599180288
 30
0.0
 10
230.4264053043198
 20
241.7630649958333
 30
0.0
  0
SPLINE
  5
25D
330
249
100
AcDbEntity
  8
$DDT_AUDIT_GENERATED_(87)
  6
Continuous
 62
     7
100
AcDbSpline
210
0.0
220
0.0
230
1.0
 70
     8
 71
     3
 72
    11
 73
     7
 74
     0
 42
0.0000000007174594
 43
0.0000000001
 40
0.0
 40
0.0
 40
0.0
 40
0.0
 40
0.0432256457473069
 40
0.0867577840947119
 40
0.1306892080954899
 40
0.1427306644150177
 40
0.1427306644150177
 40
0.1427306644150177
 40
0.1427306644150177
 10
243.7926020443442
 20
238.7461497474654
 30
0.0
 10
243.7925072493579
 20
238.5530321098499
 30
0.0
 10
243.7921666467825
 20
238.1651503420385
 30
0.0
 10
243.6656480686375
 20
237.5790615135792
 30
0.0
 10
243.5014050610365
 20
237.1346530196535
 30
0.0
 10
243.383131674009
 20
236.8860180098906
 30
0.0
 10
243.3565134301638
 20
236.8326012984182
 30
0.0
  0
ELLIPSE
  5
25E
330
249
100
AcDbEntity
  8
$DDT_AUDIT_GENERATED_(87)
  6
Continuous
 62
     7
100
AcDbEllipse
 10
179.1542009675
 20
177.9919739569
 30
0.0
 11
-1.994559728747129
 21
0.1474160842082212
 31
0.0
210
0.0
220
0.0
230
1.0
 40
0.0310347022
 41
3.000361438835892
 42
3.168286305320072
  0
LINE
  5
25F
330
249
100
AcDbEntity
  8
$DDT_AUDIT_GENERATED_(87)
  6
Continuous
 62
     7
100
AcDbLine
 10
218.5099264758
 20
266.4344418168
 30
0.0
 11
235.7914363548
 21
266.4344418168
 31
0.0
  0
LINE
  5
260
330
249
100
AcDbEntity
  8
$DDT_AUDIT_GENERATED_(87)
  6
Continuous
 62
     7
100
AcDbLine
 10
235.7914363548
 20
266.4344418168
 30
0.0
 11
251.3183447683
 21
266.4344418168
 31
0.0
  0
LINE
  5
261
330
249
100
AcDbEntity
  8
$DDT_AUDIT_GENERATED_(87)
  6
Continuous
 62
     7
100
AcDbLine
 10
251.3183447683
 20
266.4344418168
 30
0.0
 11
252.1371456705
 21
266.4344418168
 31
0.0
  0
LINE
  5
262
330
249
100
AcDbEntity
  8
$DDT_AUDIT_GENERATED_(87)
  6
Continuous
 62
     7
100
AcDbLine
 10
77.9424599351
 20
266.4344418168
 30
0.0
 11
95.1459314395
 21
266.4344418168
 31
0.0
  0
LINE
  5
263
330
249
100
AcDbEntity
  8
$DDT_AUDIT_GENERATED_(87)
  6
Continuous
 62
     7
100
AcDbLine
 10
62.4155515216
 20
266.4344418168
 30
0.0
 11
77.9424599351
 21
266.4344418168
 31
0.0
  0
LINE
  5
264
330
249
100
AcDbEntity
  8
$DDT_AUDIT_GENERATED_(87)
  6
Continuous
 62
     7
100
AcDbLine
 10
61.59678556
 20
266.4344418168
 30
0.0
 11
62.4155515216
 21
266.4344418168
 31
0.0
  0
ARC
  5
265
330
249
100
AcDbEntity
  8
$DDT_AUDIT_GENERATED_(87)
  6
Continuous
 62
     7
100
AcDbCircle
 10
131.8805793242
 20
273.6695251494
 30
0.0
 40
71.10590893762705
100
AcDbArc
 50
196.9251165872
 51
197.0686479861
  0
ARC
  5
266
330
249
100
AcDbEntity
  8
$DDT_AUDIT_GENERATED_(87)
  6
Continuous
 62
     7
100
AcDbCircle
 10
131.8805793242
 20
273.6695251494
 30
0.0
 40
71.10590893762705
100
AcDbArc
 50
197.4665166923
 51
198.0923244885
  0
LINE
  5
267
330
249
100
AcDbEntity
  8
$DDT_AUDIT_GENERATED_(87)
  6
Continuous
 62
     7
100
AcDbLine
 10
60.6264483766
 20
265.2244386085
 30
0.0
 11
60.6190926282
 21
265.2243959259
 31
0.0
  0
SPLINE
  5
268
330
249
100
AcDbEntity
  8
$DDT_AUDIT_GENERATED_(87)
  6
Continuous
 62
     7
100
AcDbSpline
210
0.0
220
0.0
230
1.0
 70
     8
 71
     3
 72
    14
 73
    10
 74
     0
 42
0.0000000004905689
 43
0.0000000001
 40
0.0
 40
0.0
 40
0.0
 40
0.0
 40
0.1250000000000001
 40
0.1250000000000001
 40
0.2500000000000001
 40
0.2500000000000001
 40
0.375
 40
0.375
 40
0.4818512716422589
 40
0.4818512716422589
 40
0.4818512716422589
 40
0.4818512716422589
 10
97.08171352178915
 20
266.6596902588782
 30
0.0
 10
98.64706187380395
 20
266.7735948846617
 30
0.0
 10
100.0825062679495
 20
266.873492494196
 30
0.0
 10
102.5801288348452
 20
267.0422555387174
 30
0.0
 10
103.6292970655981
 20
267.1103617760121
 30
0.0
 10
105.3289292473381
 20
267.218668409131
 30
0.0
 10
105.9650412779678
 20
267.2579530806595
 30
0.0
 10
106.706385103587
 20
267.3034872560559
 30
0.0
 10
106.8812890131812
 20
267.3140866439332
 30
0.0
 10
106.8821163356959
 20
267.3141220561766
 30
0.0
  0
ARC
  5
269
330
249
100
AcDbEntity
  8
$DDT_AUDIT_GENERATED_(87)
  6
Continuous
 62
     7
100
AcDbCircle
 10
156.8666121133
 20
-554.9462366034
 30
0.0
 40
823.7782556481172
100
AcDbArc
 50
85.8360731007
 51
86.5191528227
  0
ARC
  5
26A
330
249
100
AcDbEntity
  8
$DDT_AUDIT_GENERATED_(87)
  6
Continuous
 62
     7
100
AcDbCircle
 10
156.8669481449
 20
-554.9462616364
 30
0.0
 40
823.7782556421131
100
AcDbArc
 50
88.5808444945
 51
91.4191555055
  0
ARC
  5
26B
330
249
100
AcDbEntity
  8
$DDT_AUDIT_GENERATED_(87)
  6
Continuous
 62
     7
100
AcDbCircle
 10
156.8669481447
 20
-554.9462616396
 30
0.0
 40
823.7782556453161
100
AcDbArc
 50
86.9210794634
 51
88.5808444945
  0
ARC
  5
26C
330
249
100
AcDbEntity
  8
$DDT_AUDIT_GENERATED_(87)
  6
Continuous
 62
     7
100
AcDbCircle
 10
156.8669481451
 20
-554.9462616388
 30
0.0
 40
823.7782556444715
100
AcDbArc
 50
91.4191555055
 51
93.0789205358
  0
LINE
  5
26D
330
249
100
AcDbEntity
  8
$DDT_AUDIT_GENERATED_(87)
  6
Continuous
 62
     7
100
AcDbLine
 10
95.6818035552
 20
266.5566248772
 30
0.0
 11
112.6206304376
 21
267.6428689981
 31
0.0
  0
LINE
  5
26E
330
249
100
AcDbEntity
  8
$DDT_AUDIT_GENERATED_(87)
  6
Continuous
 62
     7
100
AcDbLine
 10
201.1132658634
 20
267.6428689975
 30
0.0
 11
218.080152896
 21
266.5545344879
 31
0.0
  0
LINE
  5
26F
330
249
100
AcDbEntity
  8
$DDT_AUDIT_GENERATED_(87)
  6
Continuous
 62
     7
100
AcDbLine
 10
94.2147796553
 20
265.4493399446
 30
0.0
 11
94.214755866
 21
265.4355321772
 31
0.0
  0
SPLINE
  5
270
330
249
100
AcDbEntity
  8
$DDT_AUDIT_GENERATED_(87)
  6
Continuous
 62
     7
100
AcDbSpline
210
0.0
220
0.0
230
1.0
 70
     8
 71
     3
 72
    16
 73
    12
 74
     0
 42
0.0000000050001812
 43
0.0000000001
 40
0.0
 40
0.0
 40
0.0
 40
0.0
 40
0.1250000000000021
 40
0.1250000000000021
 40
0.2500000000000042
 40
0.2500000000000042
 40
0.5000000000000028
 40
0.5000000000000028
 40
0.7500000000000013
 40
0.7500000000000013
 40
1.0
 40
1.0
 40
1.0
 40
1.0
 10
94.21477965532794
 20
265.4493399445893
 30
0.0
 10
94.21494105520487
 20
265.5430261978353
 30
0.0
 10
94.23616947367674
 20
265.6342138388482
 30
0.0
 10
94.3055638518113
 20
265.8007525954696
 30
0.0
 10
94.3534765204133
 20
265.8766565653291
 30
0.0
 10
94.5159317581034
 20
266.0799365485865
 30
0.0
 10
94.64939754712421
 20
266.1860866084003
 30
0.0
 10
94.92737124343849
 20
266.3560010124772
 30
0.0
 10
95.07410460305998
 20
266.4205512013856
 30
0.0
 10
95.37563895766057
 20
266.5155526809318
 30
0.0
 10
95.52797303191784
 20
266.5451676529587
 30
0.0
 10
95.68180355515297
 20
266.5566248772255
 30
0.0
  0
SPLINE
  5
271
330
249
100
AcDbEntity
  8
$DDT_AUDIT_GENERATED_(87)
  6
Continuous
 62
     7
100
AcDbSpline
210
0.0
220
0.0
230
1.0
 70
     8
 71
     3
 72
    16
 73
    12
 74
     0
 42
0.0000000050012261
 43
0.0000000001
 40
0.0
 40
0.0
 40
0.0
 40
0.0
 40
0.2499999999999986
 40
0.2499999999999986
 40
0.4999999999999971
 40
0.4999999999999971
 40
0.7499999999999957
 40
0.7499999999999957
 40
0.8749999999999978
 40
0.8749999999999978
 40
1.0
 40
1.0
 40
1.0
 40
1.0
 10
218.0801528959537
 20
266.5545344878611
 30
0.0
 10
218.2341634803148
 20
266.5430585629701
 30
0.0
 10
218.3857060811308
 20
266.5134448056517
 30
0.0
 10
218.6839322936362
 20
266.4198039661904
 30
0.0
 10
218.8324055702685
 20
266.3549512175226
 30
0.0
 10
219.1119724426942
 20
266.1842777827742
 30
0.0
 10
219.2455785076291
 20
266.0778261575807
 30
0.0
 10
219.4077250590465
 20
265.874996867068
 30
0.0
 10
219.4558528627937
 20
265.7987993054548
 30
0.0
 10
219.5252486143847
 20
265.6323035709836
 30
0.0
 10
219.5465269473419
 20
265.5408364632558
 30
0.0
 10
219.5466881366769
 20
265.4472383965336
 30
0.0
  0
LINE
  5
272
330
249
100
AcDbEntity
  8
$DDT_AUDIT_GENERATED_(87)
  6
Continuous
 62
     7
100
AcDbLine
 10
180.9339290458
 20
175.0619972044
 30
0.0
 11
181.148172235
 21
177.8462624257
 31
0.0
  0
ARC
  5
273
330
249
100
AcDbEntity
  8
$DDT_AUDIT_GENERATED_(87)
  6
Continuous
 62
     7
100
AcDbCircle
 10
-157.0597069531
 20
201.925665563
 30
0.0
 40
339.0595034670161
100
AcDbArc
 50
351.9301731849
 51
355.4555999596
  0
ELLIPSE
  5
274
330
249
100
AcDbEntity
  8
$DDT_AUDIT_GENERATED_(87)
  6
Continuous
 62
     7
100
AcDbEllipse
 10
146.5492560366
 20
117.4335485828
 30
0.0
 11
3.868850897407253
 21
1.015870431517379
 31
0.0
210
0.0
220
0.0
230
1.0
 40
0.1963362558
 41
3.062723722264733
 42
3.141904155469714
  0
ARC
  5
275
330
249
100
AcDbEntity
  8
$DDT_AUDIT_GENERATED_(87)
  6
Continuous
 62
     7
100
AcDbCircle
 10
470.8330075035
 20
201.9311029984
 30
0.0
 40
339.0992850812421
100
AcDbArc
 50
184.5412449296
 51
194.5954396676
  0
LINE
  5
276
330
249
100
AcDbEntity
  8
$DDT_AUDIT_GENERATED_(87)
  6
Continuous
 62
     7
100
AcDbLine
 10
132.5870933303
 20
177.8269707234
 30
0.0
 11
132.7982921125
 21
175.0823351835
 31
0.0
  0
ARC
  5
277
330
249
100
AcDbEntity
  8
$DDT_AUDIT_GENERATED_(87)
  6
Continuous
 62
     7
100
AcDbCircle
 10
156.8380108178
 20
233.5231782921
 30
0.0
 40
25.12269710522615
100
AcDbArc
 50
25.9348159762
 51
154.9475999682
  0
ARC
  5
278
330
249
100
AcDbEntity
  8
$DDT_AUDIT_GENERATED_(87)
  6
Continuous
 62
     7
100
AcDbCircle
 10
194.2714375034
 20
293.92301503
 30
0.0
 40
136.6915984892086
100
AcDbArc
 50
192.048682929
 51
198.0420157618
  0
ARC
  5
279
330
249
100
AcDbEntity
  8
$DDT_AUDIT_GENERATED_(87)
  6
Continuous
 62
     7
100
AcDbCircle
 10
119.4305327797
 20
293.9371427716
 30
0.0
 40
136.7257830347176
100
AcDbArc
 50
341.9615341955
 51
347.9483288031
  0
ARC
  5
27A
330
249
100
AcDbEntity
  8
$DDT_AUDIT_GENERATED_(87)
  6
Continuous
 62
     7
100
AcDbCircle
 10
148.5468484375
 20
284.5632447186
 30
0.0
 40
106.1341161879879
100
AcDbArc
 50
333.2718630147
 51
342.2776862042
  0
ARC
  5
27B
330
249
100
AcDbEntity
  8
$DDT_AUDIT_GENERATED_(87)
  6
Continuous
 62
     7
100
AcDbCircle
 10
158.3920705259
 20
281.4970846045
 30
0.0
 40
98.6816905455567
100
AcDbArc
 50
197.9808410619
 51
206.9236661546
  0
SPLINE
  5
27C
330
249
100
AcDbEntity
  8
$DDT_AUDIT_GENERATED_(87)
  6
Continuous
 62
     7
100
AcDbSpline
210
0.0
220
0.0
230
1.0
 70
     8
 71
     3
 72
    21
 73
    17
 74
     0
 42
0.0000000004843509
 43
0.0000000001
 40
0.0
 40
0.0
 40
0.0
 40
0.0
 40
0.0277709176874968
 40
0.0919408946552482
 40
0.1594688436640666
 40
0.2310143998617187
 40
0.3055066577205541
 40
0.3823622592928281
 40
0.4610808813951309
 40
0.5412452352803967
 40
0.6230131416675136
 40
0.706297838573183
 40
0.7905699002747006
 40
0.8758698069482691
 40
0.962166401257984
 40
1.0
 40
1.0
 40
1.0
 40
1.0
 10
70.42884768349461
 20
236.7701713626089
 30
0.0
 10
70.49982745839876
 20
236.6212320420952
 30
0.0
 10
70.70178973843039
 20
236.2017998240735
 30
0.0
 10
71.22617569516525
 20
235.4608071310634
 30
0.0
 10
71.97087816837617
 20
234.5945850913159
 30
0.0
 10
72.890284652961
 20
233.7307522606605
 30
0.0
 10
73.96750077890397
 20
232.8846214033145
 30
0.0
 10
75.19794880550783
 20
232.0634141648787
 30
0.0
 10
76.56983769981109
 20
231.2748504337537
 30
0.0
 10
78.07418631373974
 20
230.5236474006275
 30
0.0
 10
79.70150953619198
 20
229.8134878211028
 30
0.0
 10
81.44205313807338
 20
229.1494879586877
 30
0.0
 10
83.28900214170848
 20
228.5334129472294
 30
0.0
 10
85.20945382204525
 20
227.9777612670539
 30
0.0
 10
86.8765282195739
 20
227.5503086778421
 30
0.0
 10
87.8023929455886
 20
227.3538577350725
 30
0.0
 10
88.13403138879988
 20
227.283911244296
 30
0.0
  0
ARC
  5
27D
330
249
100
AcDbEntity
  8
$DDT_AUDIT_GENERATED_(87)
  6
Continuous
 62
     7
100
AcDbCircle
 10
32.5656512085
 20
-20.1057647721
 30
0.0
 40
253.5733692000612
100
AcDbArc
 50
76.0012522582
 51
77.339653243
  0
ARC
  5
27E
330
249
100
AcDbEntity
  8
$DDT_AUDIT_GENERATED_(87)
  6
Continuous
 62
     7
100
AcDbCircle
 10
82.8815073608
 20
179.9781603114
 30
0.0
 40
47.20687601917682
100
AcDbArc
 50
59.2490961043
 51
76.5117069017
  0
ARC
  5
27F
330
249
100
AcDbEntity
  8
$DDT_AUDIT_GENERATED_(87)
  6
Continuous
 62
     7
100
AcDbCircle
 10
78.6605629506
 20
174.7248098366
 30
0.0
 40
53.87996567985501
100
AcDbArc
 50
11.9696387052
 51
58.2491892863
  0
ARC
  5
280
330
249
100
AcDbEntity
  8
$DDT_AUDIT_GENERATED_(87)
  6
Continuous
 62
     7
100
AcDbCircle
 10
84.9441301388
 20
174.6402745427
 30
0.0
 40
47.7568093124255
100
AcDbArc
 50
4.3759679998
 51
9.1416086663
  0
SPLINE
  5
281
330
249
100
AcDbEntity
  8
$DDT_AUDIT_GENERATED_(87)
  6
Continuous
 62
     7
100
AcDbSpline
210
0.0
220
0.0
230
1.0
 70
     8
 71
     3
 72
    24
 73
    20
 74
     0
 42
0.0000000004810487
 43
0.0000000001
 40
0.0
 40
0.0
 40
0.0
 40
0.0
 40
0.1213010761938764
 40
0.224389267960541
 40
0.3092498670835821
 40
0.3760688085960996
 40
0.4250354597980223
 40
0.4591844333193963
 40
0.4962183459915772
 40
0.5391361506280758
 40
0.6054457880898234
 40
0.6683022747181809
 40
0.7193661640396791
 40
0.7423204849335137
 40
0.7737436704259605
 40
0.8149926139979905
 40
0.8663326510715192
 40
0.9279715494536885
 40
1.0
 40
1.0
 40
1.0
 40
1.0
 10
225.5994608823584
 20
227.2763135790705
 30
0.0
 10
226.6631211374587
 20
227.5209134223797
 30
0.0
 10
228.3162493159721
 20
227.9072132314543
 30
0.0
 10
230.7151039799574
 20
228.6172164151273
 30
0.0
 10
232.5671931270784
 20
229.2532264900537
 30
0.0
 10
233.9740533616838
 20
229.7995766995969
 30
0.0
 10
234.9854555290206
 20
230.2313242035392
 30
0.0
 10
235.7775696343591
 20
230.5936392551633
 30
0.0
 10
236.5117603276232
 20
230.9504496956513
 30
0.0
 10
237.4219608714269
 20
231.4247242242708
 30
0.0
 10
238.4367571753938
 20
232.0079393591749
 30
0.0
 10
239.4219427244609
 20
232.651553038721
 30
0.0
 10
240.1193404625363
 20
233.1639998601525
 30
0.0
 10
240.6340501194796
 20
233.5762324627796
 30
0.0
 10
241.0875566388454
 20
233.9650194902484
 30
0.0
 10
241.6369881875342
 20
234.4846747567196
 30
0.0
 10
242.2481757086657
 20
235.1458681290732
 30
0.0
 10
242.8889203551004
 20
235.9780579277402
 30
0.0
 10
243.1931995753177
 20
236.5356257613235
 30
0.0
 10
243.3835266447948
 20
236.8927284914534
 30
0.0
  0
ARC
  5
282
330
249
100
AcDbEntity
  8
$DDT_AUDIT_GENERATED_(87)
  6
Continuous
 62
     7
100
AcDbCircle
 10
261.056844116
 20
61.1538870259
 30
0.0
 40
169.864319686979
100
AcDbArc
 50
102.04850272
 51
104.04687915
  0
ARC
  5
283
330
249
100
AcDbEntity
  8
$DDT_AUDIT_GENERATED_(87)
  6
Continuous
 62
     7
100
AcDbCircle
 10
232.1896712592
 20
177.1504880413
 30
0.0
 40
50.33001937547152
100
AcDbArc
 50
104.2178967146
 51
120.414060486
  0
ARC
  5
284
330
249
100
AcDbEntity
  8
$DDT_AUDIT_GENERATED_(87)
  6
Continuous
 62
     7
100
AcDbCircle
 10
235.2873948689
 20
174.5632787638
 30
0.0
 40
54.14653435064402
100
AcDbArc
 50
121.8550913333
 51
167.9187200517
  0
LINE
  5
285
330
249
100
AcDbEntity
  8
$DDT_AUDIT_GENERATED_(87)
  6
Continuous
 62
     7
100
AcDbLine
 10
181.1284490038
 20
177.8373395479
 30
0.0
 11
181.6394734542
 21
182.2276376246
 31
0.0
  0
LINE
  5
286
330
249
100
AcDbEntity
  8
$DDT_AUDIT_GENERATED_(87)
  6
Continuous
 62
     7
100
AcDbLine
 10
181.6394712726
 20
182.227623095
 30
0.0
 11
182.3401156645
 21
185.8960988041
 31
0.0
  0
ARC
  5
287
330
249
100
AcDbEntity
  8
$DDT_AUDIT_GENERATED_(87)
  6
Continuous
 62
     7
100
AcDbCircle
 10
252.1371038581
 20
265.4344417003
 30
0.0
 40
1.000000118452166
100
AcDbArc
 50
347.6470782396
 51
90.0007703835
  0
ARC
  5
288
330
249
100
AcDbEntity
  8
$DDT_AUDIT_GENERATED_(87)
  6
Continuous
 62
     7
100
AcDbCircle
 10
61.5967924097
 20
265.4344417024
 30
0.0
 40
0.9999996930493578
100
AcDbArc
 50
89.9992321896
 51
192.1729290945
  0
ARC
  5
289
330
249
100
AcDbEntity
  8
$DDT_AUDIT_GENERATED_(87)
  6
Continuous
 62
     7
100
AcDbCircle
 10
-142.5247975576
 20
198.7739280214
 30
0.0
 40
324.201326051227
100
AcDbArc
 50
345.2846837518
 51
352.0874109499
  0
ARC
  5
28A
330
249
100
AcDbEntity
  8
$DDT_AUDIT_GENERATED_(87)
  6
Continuous
 62
     7
100
AcDbCircle
 10
158.992834162
 20
118.6526732428
 30
0.0
 40
12.25836965846547
100
AcDbArc
 50
291.1330513696
 51
349.4863980219
  0
ARC
  5
28B
330
249
100
AcDbEntity
  8
$DDT_AUDIT_GENERATED_(87)
  6
Continuous
 62
     7
100
AcDbCircle
 10
156.878841221
 20
130.7214106811
 30
0.0
 40
24.37141068110884
100
AcDbArc
 50
254.4029260897
 51
285.5362680224
  0
SPLINE
  5
28C
330
249
100
AcDbEntity
  8
$DDT_AUDIT_GENERATED_(87)
  6
Continuous
 62
     7
100
AcDbSpline
210
0.0
220
0.0
230
1.0
 70
     8
 71
     3
 72
    17
 73
    13
 74
     0
 42
0.0000000007994755
 43
0.0000000001
 40
0.0
 40
0.0
 40
0.0
 40
0.0
 40
0.1096587952789895
 40
0.2439905380981365
 40
0.3758224579050533
 40
0.4869924976985461
 40
0.5906334648467835
 40
0.6878525186174417
 40
0.7783631706602422
 40
0.8643674268849555
 40
0.946163363301045
 40
1.0
 40
1.0
 40
1.0
 40
1.0
 10
142.689167584024
 20
116.4194201164358
 30
0.0
 10
142.8210758279443
 20
115.9388160505565
 30
0.0
 10
143.0752064950653
 20
115.0358961801883
 30
0.0
 10
143.6782418166605
 20
113.560126289797
 30
0.0
 10
144.4061542831317
 20
112.1801422303091
 30
0.0
 10
145.2037722976697
 20
110.9737576511366
 30
0.0
 10
146.0259192457486
 20
109.9637430684107
 30
0.0
 10
146.8897804762998
 20
109.1057367144094
 30
0.0
 10
147.7891557489424
 20
108.3921974923184
 30
0.0
 10
148.7065614607064
 20
107.8328562787292
 30
0.0
 10
149.5706788107207
 20
107.4334797837441
 30
0.0
 10
150.0814599763671
 20
107.2944572987463
 30
0.0
 10
150.3206482880753
 20
107.2309670307808
 30
0.0
  0
ARC
  5
28D
330
249
100
AcDbEntity
  8
$DDT_AUDIT_GENERATED_(87)
  6
Continuous
 62
     7
100
AcDbCircle
 10
455.8240931343
 20
198.742051625
 30
0.0
 40
323.7679750500214
100
AcDbArc
 50
187.7087553461
 51
189.9088102352
  0
LINE
  5
28E
330
249
100
AcDbEntity
  8
$DDT_AUDIT_GENERATED_(1B6)
  6
Continuous
 62
     7
100
AcDbLine
 10
242.3823642729
 20
266.4344418168
 30
0.0
 11
242.3823642729
 21
267.4344418168
 31
0.0
  0
LINE
  5
28F
330
249
100
AcDbEntity
  8
$DDT_AUDIT_GENERATED_(1B6)
  6
Continuous
 62
     7
100
AcDbLine
 10
221.3823642729
 20
267.4344418168
 30
0.0
 11
221.3823642729
 21
266.4344418168
 31
0.0
  0
ARC
  5
290
330
249
100
AcDbEntity
  8
$DDT_AUDIT_GENERATED_(1B6)
  6
Continuous
 62
     7
100
AcDbCircle
 10
240.7323642729
 20
265.4344418168
 30
0.0
 40
1.000000000000001
100
AcDbArc
 50
90.0
 51
115.8419327632
  0
LINE
  5
291
330
249
100
AcDbEntity
  8
$DDT_AUDIT_GENERATED_(1B6)
  6
Continuous
 62
     7
100
AcDbLine
 10
92.3823642729
 20
266.4344418168
 30
0.0
 11
92.3823642729
 21
267.4344418168
 31
0.0
  0
LINE
  5
292
330
249
100
AcDbEntity
  8
$DDT_AUDIT_GENERATED_(1B6)
  6
Continuous
 62
     7
100
AcDbLine
 10
71.3823642729
 20
267.4344418168
 30
0.0
 11
71.3823642729
 21
266.4344418168
 31
0.0
  0
ARC
  5
293
330
249
100
AcDbEntity
  8
$DDT_AUDIT_GENERATED_(1B6)
  6
Continuous
 62
     7
100
AcDbCircle
 10
73.0323642729
 20
265.4344418168
 30
0.0
 40
1.000000000000001
100
AcDbArc
 50
64.1580672368
 51
90.0
  0
ELLIPSE
  5
294
330
249
100
AcDbEntity
  8
$DDT_AUDIT_GENERATED_(1BB)
  6
Continuous
 62
     7
100
AcDbEllipse
 10
231.8823642729
 20
289.7674570486
 30
0.0
 11
-13.22000000000002
 21
-3.469446951953614E-15
 31
0.0
210
0.0
220
0.0
230
1.0
 40
0.3939104756
 41
0.9828339676581145
 42
2.158758685931678
  0
LINE
  5
295
330
249
100
AcDbEntity
  8
$DDT_AUDIT_GENERATED_(1BB)
  6
Continuous
 62
     7
100
AcDbLine
 10
239.2150581845
 20
285.4344418168
 30
0.0
 11
239.2150581845
 21
285.9344418168
 31
0.0
  0
LINE
  5
296
330
249
100
AcDbEntity
  8
$DDT_AUDIT_GENERATED_(1BB)
  6
Continuous
 62
     7
100
AcDbLine
 10
224.5496703614
 20
285.9344418168
 30
0.0
 11
224.5496703614
 21
285.4344418168
 31
0.0
  0
LINE
  5
297
330
249
100
AcDbEntity
  8
$DDT_AUDIT_GENERATED_(1BB)
  6
Continuous
 62
     7
100
AcDbLine
 10
224.5496703614
 20
285.4344418168
 30
0.0
 11
239.2150581845
 21
285.4344418168
 31
0.0
  0
LINE
  5
298
330
249
100
AcDbEntity
  8
$DDT_AUDIT_GENERATED_(1BB)
  6
Continuous
 62
     7
100
AcDbLine
 10
245.1023642729
 20
284.4344418167
 30
0.0
 11
245.1023642729
 21
285.9344418168
 31
0.0
  0
LINE
  5
299
330
249
100
AcDbEntity
  8
$DDT_AUDIT_GENERATED_(1BB)
  6
Continuous
 62
     7
100
AcDbLine
 10
218.6623642729
 20
285.9344418168
 30
0.0
 11
218.6623642729
 21
284.4344418167
 31
0.0
  0
LINE
  5
29A
330
249
100
AcDbEntity
  8
$DDT_AUDIT_GENERATED_(1BB)
  6
Continuous
 62
     7
100
AcDbLine
 10
243.9323642729
 20
285.9344418168
 30
0.0
 11
243.9323642729
 21
284.4344418167
 31
0.0
  0
LINE
  5
29B
330
249
100
AcDbEntity
  8
$DDT_AUDIT_GENERATED_(1BB)
  6
Continuous
 62
     7
100
AcDbLine
 10
219.8323642729
 20
285.9344418168
 30
0.0
 11
219.8323642729
 21
284.4344418167
 31
0.0
  0
LINE
  5
29C
330
249
100
AcDbEntity
  8
$DDT_AUDIT_GENERATED_(F1)
  6
Continuous
 62
     7
100
AcDbLine
 10
196.8823642729
 20
311.9344418168
 30
0.0
 11
266.8823642729
 21
311.9344418168
 31
0.0
  0
LINE
  5
29D
330
249
100
AcDbEntity
  8
$DDT_AUDIT_GENERATED_(F1)
  6
Continuous
 62
     7
100
AcDbLine
 10
246.7498926144
 20
285.9344418168
 30
0.0
 11
217.0148359315
 21
285.9344418168
 31
0.0
  0
LINE
  5
29E
330
249
100
AcDbEntity
  8
$DDT_AUDIT_GENERATED_(F1)
  6
Continuous
 62
     7
100
AcDbLine
 10
196.8823642729
 20
311.9344418168
 30
0.0
 11
196.8823642729
 21
306.7480782729
 31
0.0
  0
LINE
  5
29F
330
249
100
AcDbEntity
  8
$DDT_AUDIT_GENERATED_(F1)
  6
Continuous
 62
     7
100
AcDbLine
 10
266.8823642729
 20
306.7480782729
 30
0.0
 11
266.8823642729
 21
311.9344418168
 31
0.0
  0
LINE
  5
2A0
330
249
100
AcDbEntity
  8
$DDT_AUDIT_GENERATED_(F1)
  6
Continuous
 62
     7
100
AcDbLine
 10
197.4503639937
 20
305.3518780006
 30
0.0
 11
215.940835722
 21
286.3872916126
 31
0.0
  0
LINE
  5
2A1
330
249
100
AcDbEntity
  8
$DDT_AUDIT_GENERATED_(F1)
  6
Continuous
 62
     7
100
AcDbLine
 10
247.8238928239
 20
286.3872916126
 30
0.0
 11
266.3143645522
 21
305.3518780006
 31
0.0
  0
ARC
  5
2A2
330
249
100
AcDbEntity
  8
$DDT_AUDIT_GENERATED_(F1)
  6
Continuous
 62
     7
100
AcDbCircle
 10
217.0148359315
 20
287.4344418168
 30
0.0
 40
1.500000000000002
100
AcDbArc
 50
224.2747757009
 51
270.0
  0
ARC
  5
2A3
330
249
100
AcDbEntity
  8
$DDT_AUDIT_GENERATED_(F1)
  6
Continuous
 62
     7
100
AcDbCircle
 10
246.7498926144
 20
287.4344418168
 30
0.0
 40
1.500000000000001
100
AcDbArc
 50
270.0
 51
315.7252242991
  0
ARC
  5
2A4
330
249
100
AcDbEntity
  8
$DDT_AUDIT_GENERATED_(F1)
  6
Continuous
 62
     7
100
AcDbCircle
 10
264.8823642729
 20
306.7480782729
 30
0.0
 40
2.0
100
AcDbArc
 50
315.7252242991
 51
0.0
  0
ARC
  5
2A5
330
249
100
AcDbEntity
  8
$DDT_AUDIT_GENERATED_(F1)
  6
Continuous
 62
     7
100
AcDbCircle
 10
198.8823642729
 20
306.7480782729
 30
0.0
 40
2.000000000000002
100
AcDbArc
 50
180.0
 51
224.2747757009
  0
LINE
  5
2A6
330
249
100
AcDbEntity
  8
$DDT_AUDIT_GENERATED_(21F)
  6
Continuous
 62
     7
100
AcDbLine
 10
246.3823642729
 20
267.4344418167
 30
0.0
 11
217.3823642729
 21
267.4344418167
 31
0.0
  0
LINE
  5
2A7
330
249
100
AcDbEntity
  8
$DDT_AUDIT_GENERATED_(21F)
  6
Continuous
 62
     7
100
AcDbLine
 10
246.3823642729
 20
284.4344418167
 30
0.0
 11
217.3823642729
 21
284.4344418167
 31
0.0
  0
LINE
  5
2A8
330
249
100
AcDbEntity
  8
$DDT_AUDIT_GENERATED_(21F)
  6
Continuous
 62
     7
100
AcDbLine
 10
246.8823642729
 20
280.9344418167
 30
0.0
 11
244.7950230466
 21
280.9344418167
 31
0.0
  0
LINE
  5
2A9
330
249
100
AcDbEntity
  8
$DDT_AUDIT_GENERATED_(21F)
  6
Continuous
 62
     7
100
AcDbLine
 10
233.9697054993
 20
280.9344418167
 30
0.0
 11
229.7950230466
 21
280.9344418167
 31
0.0
  0
LINE
  5
2AA
330
249
100
AcDbEntity
  8
$DDT_AUDIT_GENERATED_(21F)
  6
Continuous
 62
     7
100
AcDbLine
 10
218.9697054993
 20
280.9344418167
 30
0.0
 11
216.8823642729
 21
280.9344418167
 31
0.0
  0
LINE
  5
2AB
330
249
100
AcDbEntity
  8
$DDT_AUDIT_GENERATED_(21F)
  6
Continuous
 62
     7
100
AcDbLine
 10
216.8823642729
 20
280.9344418167
 30
0.0
 11
216.8823642729
 21
283.7301705458
 31
0.0
  0
ARC
  5
2AC
330
249
100
AcDbEntity
  8
$DDT_AUDIT_GENERATED_(21F)
  6
Continuous
 62
     7
100
AcDbCircle
 10
224.3823642729
 20
277.1558822975
 30
0.0
 40
6.601089837288617
100
AcDbArc
 50
34.9187681796
 51
145.0812318204
  0
ARC
  5
2AD
330
249
100
AcDbEntity
  8
$DDT_AUDIT_GENERATED_(21F)
  6
Continuous
 62
     7
100
AcDbCircle
 10
239.3823642729
 20
277.1558822975
 30
0.0
 40
6.601089837288623
100
AcDbArc
 50
34.9187681796
 51
145.0812318204
  0
LINE
  5
2AE
330
249
100
AcDbEntity
  8
$DDT_AUDIT_GENERATED_(21F)
  6
Continuous
 62
     7
100
AcDbLine
 10
246.8823642729
 20
283.7301705458
 30
0.0
 11
246.8823642729
 21
280.9344418167
 31
0.0
  0
LINE
  5
2AF
330
249
100
AcDbEntity
  8
$DDT_AUDIT_GENERATED_(21F)
  6
Continuous
 62
     7
100
AcDbLine
 10
246.8823642729
 20
270.9344418167
 30
0.0
 11
244.7950230466
 21
270.9344418167
 31
0.0
  0
LINE
  5
2B0
330
249
100
AcDbEntity
  8
$DDT_AUDIT_GENERATED_(21F)
  6
Continuous
 62
     7
100
AcDbLine
 10
233.9697054993
 20
270.9344418167
 30
0.0
 11
229.7950230466
 21
270.9344418167
 31
0.0
  0
LINE
  5
2B1
330
249
100
AcDbEntity
  8
$DDT_AUDIT_GENERATED_(21F)
  6
Continuous
 62
     7
100
AcDbLine
 10
218.9697054993
 20
270.9344418167
 30
0.0
 11
216.8823642729
 21
270.9344418167
 31
0.0
  0
LINE
  5
2B2
330
249
100
AcDbEntity
  8
$DDT_AUDIT_GENERATED_(21F)
  6
Continuous
 62
     7
100
AcDbLine
 10
246.8823642729
 20
270.9344418167
 30
0.0
 11
246.8823642729
 21
268.1387130876
 31
0.0
  0
LINE
  5
2B3
330
249
100
AcDbEntity
  8
$DDT_AUDIT_GENERATED_(21F)
  6
Continuous
 62
     7
100
AcDbLine
 10
246.8823642729
 20
270.9344418167
 30
0.0
 11
246.8823642729
 21
280.9344418167
 31
0.0
  0
LINE
  5
2B4
330
249
100
AcDbEntity
  8
$DDT_AUDIT_GENERATED_(21F)
  6
Continuous
 62
     7
100
AcDbLine
 10
244.7950230466
 20
280.9344418167
 30
0.0
 11
244.7950230466
 21
270.9344418167
 31
0.0
  0
ARC
  5
2B5
330
249
100
AcDbEntity
  8
$DDT_AUDIT_GENERATED_(21F)
  6
Continuous
 62
     7
100
AcDbCircle
 10
239.3823642729
 20
274.7130013359
 30
0.0
 40
6.601089837288599
100
AcDbArc
 50
214.9187681795
 51
325.0812318205
  0
LINE
  5
2B6
330
249
100
AcDbEntity
  8
$DDT_AUDIT_GENERATED_(21F)
  6
Continuous
 62
     7
100
AcDbLine
 10
233.9697054993
 20
270.9344418167
 30
0.0
 11
233.9697054993
 21
280.9344418167
 31
0.0
  0
LINE
  5
2B7
330
249
100
AcDbEntity
  8
$DDT_AUDIT_GENERATED_(21F)
  6
Continuous
 62
     7
100
AcDbLine
 10
229.7950230466
 20
280.9344418167
 30
0.0
 11
229.7950230466
 21
270.9344418167
 31
0.0
  0
ARC
  5
2B8
330
249
100
AcDbEntity
  8
$DDT_AUDIT_GENERATED_(21F)
  6
Continuous
 62
     7
100
AcDbCircle
 10
224.3823642729
 20
274.7130013359
 30
0.0
 40
6.601089837288614
100
AcDbArc
 50
214.9187681796
 51
325.0812318204
  0
LINE
  5
2B9
330
249
100
AcDbEntity
  8
$DDT_AUDIT_GENERATED_(21F)
  6
Continuous
 62
     7
100
AcDbLine
 10
218.9697054993
 20
270.9344418167
 30
0.0
 11
218.9697054993
 21
280.9344418167
 31
0.0
  0
LINE
  5
2BA
330
249
100
AcDbEntity
  8
$DDT_AUDIT_GENERATED_(21F)
  6
Continuous
 62
     7
100
AcDbLine
 10
216.8823642729
 20
280.9344418167
 30
0.0
 11
216.8823642729
 21
270.9344418167
 31
0.0
  0
LINE
  5
2BB
330
249
100
AcDbEntity
  8
$DDT_AUDIT_GENERATED_(21F)
  6
Continuous
 62
     7
100
AcDbLine
 10
216.8823642729
 20
268.1387130876
 30
0.0
 11
216.8823642729
 21
270.9344418167
 31
0.0
  0
ARC
  5
2BC
330
249
100
AcDbEntity
  8
$DDT_AUDIT_GENERATED_(21F)
  6
Continuous
 62
     7
100
AcDbCircle
 10
238.4859618765
 20
273.5701430149
 30
0.0
 40
9.999999999999998
100
AcDbArc
 50
322.1519040322
 51
327.1116909832
  0
ARC
  5
2BD
330
249
100
AcDbEntity
  8
$DDT_AUDIT_GENERATED_(21F)
  6
Continuous
 62
     7
100
AcDbCircle
 10
225.2787666694
 20
273.5701430149
 30
0.0
 40
9.999999999999995
100
AcDbArc
 50
212.8919656868
 51
217.8480959678
  0
ARC
  5
2BE
330
249
100
AcDbEntity
  8
$DDT_AUDIT_GENERATED_(21F)
  6
Continuous
 62
     7
100
AcDbCircle
 10
238.4859618765
 20
278.2987406185
 30
0.0
 40
9.999999999999998
100
AcDbArc
 50
32.8919656868
 51
37.8480959678
  0
ARC
  5
2BF
330
249
100
AcDbEntity
  8
$DDT_AUDIT_GENERATED_(21F)
  6
Continuous
 62
     7
100
AcDbCircle
 10
225.2787666694
 20
278.2987406185
 30
0.0
 40
9.999999999999998
100
AcDbArc
 50
142.1519040322
 51
147.1116909832
  0
ELLIPSE
  5
2C0
330
249
100
AcDbEntity
  8
$DDT_AUDIT_GENERATED_(1BB)
  6
Continuous
 62
     7
100
AcDbEllipse
 10
81.8823642729
 20
289.7674570486
 30
0.0
 11
-13.22000000000002
 21
-1.387778780781446E-14
 31
0.0
210
0.0
220
0.0
230
1.0
 40
0.3939104756
 41
0.9828339676581129
 42
2.158758685931674
  0
LINE
  5
2C1
330
249
100
AcDbEntity
  8
$DDT_AUDIT_GENERATED_(1BB)
  6
Continuous
 62
     7
100
AcDbLine
 10
89.2150581845
 20
285.4344418168
 30
0.0
 11
89.2150581845
 21
285.9344418168
 31
0.0
  0
LINE
  5
2C2
330
249
100
AcDbEntity
  8
$DDT_AUDIT_GENERATED_(1BB)
  6
Continuous
 62
     7
100
AcDbLine
 10
74.5496703614
 20
285.9344418168
 30
0.0
 11
74.5496703614
 21
285.4344418168
 31
0.0
  0
LINE
  5
2C3
330
249
100
AcDbEntity
  8
$DDT_AUDIT_GENERATED_(1BB)
  6
Continuous
 62
     7
100
AcDbLine
 10
74.5496703614
 20
285.4344418168
 30
0.0
 11
89.2150581845
 21
285.4344418168
 31
0.0
  0
LINE
  5
2C4
330
249
100
AcDbEntity
  8
$DDT_AUDIT_GENERATED_(1BB)
  6
Continuous
 62
     7
100
AcDbLine
 10
95.1023642729
 20
284.4344418167
 30
0.0
 11
95.1023642729
 21
285.9344418168
 31
0.0
  0
LINE
  5
2C5
330
249
100
AcDbEntity
  8
$DDT_AUDIT_GENERATED_(1BB)
  6
Continuous
 62
     7
100
AcDbLine
 10
68.6623642729
 20
285.9344418168
 30
0.0
 11
68.6623642729
 21
284.4344418167
 31
0.0
  0
LINE
  5
2C6
330
249
100
AcDbEntity
  8
$DDT_AUDIT_GENERATED_(1BB)
  6
Continuous
 62
     7
100
AcDbLine
 10
93.9323642729
 20
285.9344418168
 30
0.0
 11
93.9323642729
 21
284.4344418167
 31
0.0
  0
LINE
  5
2C7
330
249
100
AcDbEntity
  8
$DDT_AUDIT_GENERATED_(1BB)
  6
Continuous
 62
     7
100
AcDbLine
 10
69.8323642729
 20
285.9344418168
 30
0.0
 11
69.8323642729
 21
284.4344418167
 31
0.0
  0
LINE
  5
2C8
330
249
100
AcDbEntity
  8
$DDT_AUDIT_GENERATED_(F1)
  6
Continuous
 62
     7
100
AcDbLine
 10
46.8823642729
 20
311.9344418168
 30
0.0
 11
116.8823642729
 21
311.9344418168
 31
0.0
  0
LINE
  5
2C9
330
249
100
AcDbEntity
  8
$DDT_AUDIT_GENERATED_(F1)
  6
Continuous
 62
     7
100
AcDbLine
 10
96.7498926144
 20
285.9344418168
 30
0.0
 11
67.0148359315
 21
285.9344418168
 31
0.0
  0
LINE
  5
2CA
330
249
100
AcDbEntity
  8
$DDT_AUDIT_GENERATED_(F1)
  6
Continuous
 62
     7
100
AcDbLine
 10
46.8823642729
 20
311.9344418168
 30
0.0
 11
46.8823642729
 21
306.7480782729
 31
0.0
  0
LINE
  5
2CB
330
249
100
AcDbEntity
  8
$DDT_AUDIT_GENERATED_(F1)
  6
Continuous
 62
     7
100
AcDbLine
 10
116.8823642729
 20
306.7480782729
 30
0.0
 11
116.8823642729
 21
311.9344418168
 31
0.0
  0
LINE
  5
2CC
330
249
100
AcDbEntity
  8
$DDT_AUDIT_GENERATED_(F1)
  6
Continuous
 62
     7
100
AcDbLine
 10
47.4503639937
 20
305.3518780006
 30
0.0
 11
65.940835722
 21
286.3872916126
 31
0.0
  0
LINE
  5
2CD
330
249
100
AcDbEntity
  8
$DDT_AUDIT_GENERATED_(F1)
  6
Continuous
 62
     7
100
AcDbLine
 10
97.8238928239
 20
286.3872916126
 30
0.0
 11
116.3143645522
 21
305.3518780006
 31
0.0
  0
ARC
  5
2CE
330
249
100
AcDbEntity
  8
$DDT_AUDIT_GENERATED_(F1)
  6
Continuous
 62
     7
100
AcDbCircle
 10
67.0148359315
 20
287.4344418168
 30
0.0
 40
1.500000000000002
100
AcDbArc
 50
224.2747757009
 51
270.0
  0
ARC
  5
2CF
330
249
100
AcDbEntity
  8
$DDT_AUDIT_GENERATED_(F1)
  6
Continuous
 62
     7
100
AcDbCircle
 10
96.7498926144
 20
287.4344418168
 30
0.0
 40
1.500000000000001
100
AcDbArc
 50
270.0
 51
315.7252242991
  0
ARC
  5
2D0
330
249
100
AcDbEntity
  8
$DDT_AUDIT_GENERATED_(F1)
  6
Continuous
 62
     7
100
AcDbCircle
 10
114.8823642729
 20
306.7480782729
 30
0.0
 40
2.0
100
AcDbArc
 50
315.7252242991
 51
0.0
  0
ARC
  5
2D1
330
249
100
AcDbEntity
  8
$DDT_AUDIT_GENERATED_(F1)
  6
Continuous
 62
     7
100
AcDbCircle
 10
48.8823642729
 20
306.7480782729
 30
0.0
 40
2.000000000000002
100
AcDbArc
 50
180.0
 51
224.2747757009
  0
ELLIPSE
  5
2D2
330
249
100
AcDbEntity
  8
$DDT_AUDIT_GENERATED_(F5)
  6
Continuous
 62
     7
100
AcDbEllipse
 10
156.8823642729
 20
233.5291773863
 30
0.0
 11
-25.02159067685348
 21
1.255939796607208E-12
 31
0.0
210
0.0
220
0.0
230
1.0
 40
0.984807753
 41
3.632247840576252
 42
5.778359243622415
  0
ARC
  5
2D3
330
249
100
AcDbEntity
  8
$DDT_AUDIT_GENERATED_(106)
  6
Continuous
 62
     7
100
AcDbCircle
 10
606.0264318387
 20
254.7338459691
 30
0.0
 40
476.8422082940331
100
AcDbArc
 50
183.6060131748
 51
191.7563964765
  0
ARC
  5
2D4
330
249
100
AcDbEntity
  8
$DDT_AUDIT_GENERATED_(106)
  6
Continuous
 62
     7
100
AcDbCircle
 10
155.5319888777
 20
139.771830683
 30
0.0
 40
14.54720226359153
100
AcDbArc
 50
345.7965648082
 51
347.2380332308
  0
ARC
  5
2D5
330
249
100
AcDbEntity
  8
$DDT_AUDIT_GENERATED_(106)
  6
Continuous
 62
     7
100
AcDbCircle
 10
-291.6280140971
 20
254.6339656799
 30
0.0
 40
476.2034919143884
100
AcDbArc
 50
348.4272226653
 51
356.4010349785
  0
LINE
  5
2D6
330
249
100
AcDbEntity
  8
$DDT_AUDIT_GENERATED_(106)
  6
Continuous
 62
     7
100
AcDbLine
 10
183.7146825775
 20
226.4935189876
 30
0.0
 11
183.6363390532
 21
224.7414860883
 31
0.0
  0
LINE
  5
2D7
330
249
100
AcDbEntity
  8
$DDT_AUDIT_GENERATED_(106)
  6
Continuous
 62
     7
100
AcDbLine
 10
183.6329048473
 20
224.827390596
 30
0.0
 11
183.7126350609
 21
226.5708673854
 31
0.0
  0
ARC
  5
2D8
330
249
100
AcDbEntity
  8
$DDT_AUDIT_GENERATED_(106)
  6
Continuous
 62
     7
100
AcDbCircle
 10
189.2902304716
 20
226.940694227
 30
0.0
 40
5.585983770345783
100
AcDbArc
 50
178.0825929726
 51
182.8600936136
  0
ARC
  5
2D9
330
249
100
AcDbEntity
  8
$DDT_AUDIT_GENERATED_(106)
  6
Continuous
 62
     7
100
AcDbCircle
 10
95.5500814314
 20
232.6819512002
 30
0.0
 40
88.33209589085043
100
AcDbArc
 50
356.3948406644
 51
0.1169843085
  0
ARC
  5
2DA
330
249
100
AcDbEntity
  8
$DDT_AUDIT_GENERATED_(106)
  6
Continuous
 62
     7
100
AcDbCircle
 10
190.327631239
 20
226.7642643842
 30
0.0
 40
6.62542167872465
100
AcDbArc
 50
177.738566295
 51
178.1468557483
  0
ELLIPSE
  5
2DB
330
249
100
AcDbEntity
  8
$DDT_AUDIT_GENERATED_(106)
  6
Continuous
 62
     7
100
AcDbEllipse
 10
183.2143700952
 20
226.6168856893
 30
0.0
 11
-0.4996860809976627
 21
-0.01771497827965374
 31
0.0
210
0.0
220
0.0
230
0.9999999999999999
 40
0.6337447631
 41
3.142463149797167
 42
3.228334904333929
  0
LINE
  5
2DC
330
249
100
AcDbEntity
  8
$DDT_AUDIT_GENERATED_(106)
  6
Continuous
 62
     7
100
AcDbLine
 10
130.0519804921
 20
226.5728529738
 30
0.0
 11
130.1317525434
 21
224.828693959
 31
0.0
  0
ARC
  5
2DD
330
249
100
AcDbEntity
  8
$DDT_AUDIT_GENERATED_(106)
  6
Continuous
 62
     7
100
AcDbCircle
 10
124.7145531797
 20
226.9401620649
 30
0.0
 40
5.346001481901022
100
AcDbArc
 50
357.0368522815
 51
2.0224809352
  0
ARC
  5
2DE
330
249
100
AcDbEntity
  8
$DDT_AUDIT_GENERATED_(106)
  6
Continuous
 62
     7
100
AcDbCircle
 10
123.4701840556
 20
226.7658686942
 30
0.0
 40
6.592205192463771
100
AcDbArc
 50
1.3435093878
 51
2.2693646698
  0
ARC
  5
2DF
330
249
100
AcDbEntity
  8
$DDT_AUDIT_GENERATED_(106)
  6
Continuous
 62
     7
100
AcDbCircle
 10
220.2839294061
 20
232.6462321677
 30
0.0
 40
90.40152716543564
100
AcDbArc
 50
179.8588794503
 51
183.5637838138
  0
LINE
  5
2E0
330
249
100
AcDbEntity
  8
$DDT_AUDIT_GENERATED_(106)
  6
Continuous
 62
     7
100
AcDbLine
 10
130.1283076561
 20
224.7427304473
 30
0.0
 11
130.0499251895
 21
226.4954512773
 31
0.0
  0
ARC
  5
2E1
330
249
100
AcDbEntity
  8
$DDT_AUDIT_GENERATED_(106)
  6
Continuous
 62
     7
100
AcDbCircle
 10
92.3956651322
 20
232.6783768551
 30
0.0
 40
91.48650250064186
100
AcDbArc
 50
356.4576080552
 51
0.1123130711
  0
ARC
  5
2E2
330
249
100
AcDbEntity
  8
$DDT_AUDIT_GENERATED_(106)
  6
Continuous
 62
     7
100
AcDbCircle
 10
217.1494428474
 20
232.6500473098
 30
0.0
 40
87.26705186515632
100
AcDbArc
 50
179.8533708906
 51
183.6274149803
  0
ARC
  5
2E3
330
249
100
AcDbEntity
  8
$DDT_AUDIT_GENERATED_(106)
  6
Continuous
 62
     7
100
AcDbCircle
 10
147.8945464059
 20
232.9120136614
 30
0.0
 40
18.01191109264925
100
AcDbArc
 50
165.3544205399
 51
180.1229015558
  0
SPLINE
  5
2E4
330
249
100
AcDbEntity
  8
$DDT_AUDIT_GENERATED_(106)
  6
Continuous
 62
     7
100
AcDbSpline
210
0.0
220
0.0
230
1.0
 70
     8
 71
     3
 72
    26
 73
    22
 74
     0
 42
0.0000000001492628
 43
0.0000000001
 40
0.0
 40
0.0
 40
0.0
 40
0.0
 40
0.1249999999999999
 40
0.1249999999999999
 40
0.2499999999999999
 40
0.2499999999999999
 40
0.3749999999999998
 40
0.3749999999999998
 40
0.4999999999999998
 40
0.4999999999999998
 40
0.6249999999999998
 40
0.6249999999999998
 40
0.6874999999999999
 40
0.6874999999999999
 40
0.7499999999999999
 40
0.7499999999999999
 40
0.8124999999999999
 40
0.8124999999999999
 40
0.8749999999999998
 40
0.8749999999999998
 40
1.0
 40
1.0
 40
1.0
 40
1.0
 10
183.2969584319842
 20
237.4660954629472
 30
0.0
 10
182.6803316453546
 20
239.7479084040124
 30
0.0
 10
181.6007804860736
 20
241.8997515776339
 30
0.0
 10
178.4688896956625
 20
245.9305232762931
 30
0.0
 10
176.494346196075
 20
247.7104490658283
 30
0.0
 10
171.7286161136508
 20
250.7362327232658
 30
0.0
 10
169.0398808183188
 20
251.9221164007092
 30
0.0
 10
163.147366105741
 20
253.5530441053217
 30
0.0
 10
160.0657819060852
 20
253.972048357195
 30
0.0
 10
153.7541508215269
 20
253.9763393550668
 30
0.0
 10
150.6691946831642
 20
253.5631482211593
 30
0.0
 10
146.2419339732425
 20
252.3444099267498
 30
0.0
 10
144.8361935251891
 20
251.8456725742694
 30
0.0
 10
142.1563138759623
 20
250.6743562939896
 30
0.0
 10
140.8723688041157
 20
249.9955164563642
 30
0.0
 10
138.4896008858065
 20
248.4869617918096
 30
0.0
 10
137.40050479438
 20
247.6648198926492
 30
0.0
 10
135.4187970383202
 20
245.8902432046233
 30
0.0
 10
134.5188361993211
 20
244.9289936943723
 30
0.0
 10
132.1780691604069
 20
241.9216982031089
 30
0.0
 10
131.085165522479
 20
239.7487175474817
 30
0.0
 10
130.4678722010251
 20
237.4661290931969
 30
0.0
  0
ARC
  5
2E5
330
249
100
AcDbEntity
  8
$DDT_AUDIT_GENERATED_(106)
  6
Continuous
 62
     7
100
AcDbCircle
 10
165.8313332978
 20
232.9075530249
 30
0.0
 40
18.05071661979284
100
AcDbArc
 50
359.8563728409
 51
14.627914801
  0
ARC
  5
2E6
330
249
100
AcDbEntity
  8
$DDT_AUDIT_GENERATED_(106)
  6
Continuous
 62
     7
100
AcDbCircle
 10
-243.885426218
 20
243.8997624368
 30
0.0
 40
427.2922127011213
100
AcDbArc
 50
345.4510146958
 51
348.552521014
  0
ARC
  5
2E7
330
249
100
AcDbEntity
  8
$DDT_AUDIT_GENERATED_(106)
  6
Continuous
 62
     7
100
AcDbCircle
 10
554.5471417675
 20
243.3316195907
 30
0.0
 40
424.1415812823999
100
AcDbArc
 50
191.6477671657
 51
194.5787487669
  0
ARC
  5
2E8
330
249
100
AcDbEntity
  8
$DDT_AUDIT_GENERATED_(106)
  6
Continuous
 62
     7
100
AcDbCircle
 10
152.5426481784
 20
140.5506440596
 30
0.0
 40
17.65919115402874
100
AcDbArc
 50
309.5216731728
 51
345.6973924395
  0
ARC
  5
2E9
330
249
100
AcDbEntity
  8
$DDT_AUDIT_GENERATED_(106)
  6
Continuous
 62
     7
100
AcDbCircle
 10
156.8788345487
 20
136.7409030221
 30
0.0
 40
11.97077495145786
100
AcDbArc
 50
234.9055487297
 51
305.1235447283
  0
ARC
  5
2EA
330
249
100
AcDbEntity
  8
$DDT_AUDIT_GENERATED_(106)
  6
Continuous
 62
     7
100
AcDbCircle
 10
160.6938740598
 20
140.1818063004
 30
0.0
 40
17.01502366889846
100
AcDbArc
 50
192.3727755528
 51
231.0527358698
  0
ARC
  5
2EB
330
249
100
AcDbEntity
  8
$DDT_AUDIT_GENERATED_(106)
  6
Continuous
 62
     7
100
AcDbCircle
 10
182.0179257263
 20
226.55748585
 30
0.0
 40
1.698062790369608
100
AcDbArc
 50
358.3191899302
 51
3.0675994465
  0
ARC
  5
2EC
330
249
100
AcDbEntity
  8
$DDT_AUDIT_GENERATED_(106)
  6
Continuous
 62
     7
100
AcDbCircle
 10
228.1801055219
 20
235.9072828157
 30
0.0
 40
45.99114660984919
100
AcDbArc
 50
192.5435833537
 51
193.652793206
  0
LINE
  5
2ED
330
249
100
AcDbEntity
  8
$DDT_AUDIT_GENERATED_(106)
  6
Continuous
 62
     7
100
AcDbLine
 10
183.6345953526
 20
224.7236127303
 30
0.0
 11
183.6353539181
 21
224.7558416851
 31
0.0
  0
LINE
  5
2EE
330
249
100
AcDbEntity
  8
$DDT_AUDIT_GENERATED_(106)
  6
Continuous
 62
     7
100
AcDbLine
 10
183.8786093253
 20
232.1753964903
 30
0.0
 11
183.8786093708
 21
233.2061480251
 31
0.0
  0
ARC
  5
2EF
330
249
100
AcDbEntity
  8
$DDT_AUDIT_GENERATED_(106)
  6
Continuous
 62
     7
100
AcDbCircle
 10
131.4118143025
 20
226.5528727334
 30
0.0
 40
1.363259460934471
100
AcDbArc
 50
176.7508373922
 51
182.0756638457
  0
SPLINE
  5
2F0
330
249
100
AcDbEntity
  8
$DDT_AUDIT_GENERATED_(106)
  6
Continuous
 62
     7
100
AcDbSpline
210
0.0
220
0.0
230
1.0
 70
     8
 71
     3
 72
    11
 73
     7
 74
     0
 42
0.0000000077734089
 43
0.0000000001
 40
0.0
 40
0.0
 40
0.0
 40
0.0
 40
0.0063429244200867
 40
0.0805256609242034
 40
0.1213635453391478
 40
0.1243716249157292
 40
0.1243716249157292
 40
0.1243716249157292
 40
0.1243716249157292
 10
130.2662151128407
 20
225.0117829839522
 30
0.0
 10
130.2650099046351
 20
225.006797946687
 30
0.0
 10
130.2518671566332
 20
224.9524546129622
 30
0.0
 10
130.2340721570409
 20
224.8905933209656
 30
0.0
 10
130.2230886172298
 20
224.8585206471242
 30
0.0
 10
130.2228323588401
 20
224.8578990033517
 30
0.0
 10
130.2228358022062
 20
224.857912632456
 30
0.0
  0
ARC
  5
2F1
330
249
100
AcDbEntity
  8
$DDT_AUDIT_GENERATED_(106)
  6
Continuous
 62
     7
100
AcDbCircle
 10
97.6414173275
 20
233.0682965739
 30
0.0
 40
33.60483360710812
100
AcDbArc
 50
346.1286451043
 51
347.5230734489
  0
LINE
  5
2F2
330
249
100
AcDbEntity
  8
$DDT_AUDIT_GENERATED_(106)
  6
Continuous
 62
     7
100
AcDbLine
 10
130.1301248616
 20
224.7597232667
 30
0.0
 11
130.1309441026
 21
224.7136817533
 31
0.0
  0
ARC
  5
2F3
330
249
100
AcDbEntity
  8
$DDT_AUDIT_GENERATED_(106)
  6
Continuous
 62
     7
100
AcDbCircle
 10
130.0746513716
 20
232.8721992453
 30
0.0
 40
0.1919884112231267
100
AcDbArc
 50
179.0046667052
 51
179.6150275248
  0
ARC
  5
2F4
330
249
100
AcDbEntity
  8
$DDT_AUDIT_GENERATED_(106)
  6
Continuous
 62
     7
100
AcDbCircle
 10
130.0746513716
 20
232.8721992453
 30
0.0
 40
0.1919884112231267
100
AcDbArc
 50
180.8385821718
 51
181.5910069724
  0
LINE
  5
2F5
330
249
100
AcDbEntity
  8
$DDT_AUDIT_GENERATED_(21F)
  6
Continuous
 62
     7
100
AcDbLine
 10
96.3823642729
 20
267.4344418167
 30
0.0
 11
67.3823642729
 21
267.4344418167
 31
0.0
  0
LINE
  5
2F6
330
249
100
AcDbEntity
  8
$DDT_AUDIT_GENERATED_(21F)
  6
Continuous
 62
     7
100
AcDbLine
 10
96.3823642729
 20
284.4344418167
 30
0.0
 11
67.3823642729
 21
284.4344418167
 31
0.0
  0
LINE
  5
2F7
330
249
100
AcDbEntity
  8
$DDT_AUDIT_GENERATED_(21F)
  6
Continuous
 62
     7
100
AcDbLine
 10
96.8823642729
 20
280.9344418167
 30
0.0
 11
94.7950230466
 21
280.9344418167
 31
0.0
  0
LINE
  5
2F8
330
249
100
AcDbEntity
  8
$DDT_AUDIT_GENERATED_(21F)
  6
Continuous
 62
     7
100
AcDbLine
 10
83.9697054993
 20
280.9344418167
 30
0.0
 11
79.7950230466
 21
280.9344418167
 31
0.0
  0
LINE
  5
2F9
330
249
100
AcDbEntity
  8
$DDT_AUDIT_GENERATED_(21F)
  6
Continuous
 62
     7
100
AcDbLine
 10
68.9697054993
 20
280.9344418167
 30
0.0
 11
66.8823642729
 21
280.9344418167
 31
0.0
  0
LINE
  5
2FA
330
249
100
AcDbEntity
  8
$DDT_AUDIT_GENERATED_(21F)
  6
Continuous
 62
     7
100
AcDbLine
 10
66.8823642729
 20
280.9344418167
 30
0.0
 11
66.8823642729
 21
283.7301705458
 31
0.0
  0
ARC
  5
2FB
330
249
100
AcDbEntity
  8
$DDT_AUDIT_GENERATED_(21F)
  6
Continuous
 62
     7
100
AcDbCircle
 10
74.3823642729
 20
277.1558822975
 30
0.0
 40
6.601089837288617
100
AcDbArc
 50
34.9187681796
 51
145.0812318204
  0
ARC
  5
2FC
330
249
100
AcDbEntity
  8
$DDT_AUDIT_GENERATED_(21F)
  6
Continuous
 62
     7
100
AcDbCircle
 10
89.3823642729
 20
277.1558822975
 30
0.0
 40
6.601089837288622
100
AcDbArc
 50
34.9187681796
 51
145.0812318205
  0
LINE
  5
2FD
330
249
100
AcDbEntity
  8
$DDT_AUDIT_GENERATED_(21F)
  6
Continuous
 62
     7
100
AcDbLine
 10
96.8823642729
 20
283.7301705458
 30
0.0
 11
96.8823642729
 21
280.9344418167
 31
0.0
  0
LINE
  5
2FE
330
249
100
AcDbEntity
  8
$DDT_AUDIT_GENERATED_(21F)
  6
Continuous
 62
     7
100
AcDbLine
 10
96.8823642729
 20
270.9344418167
 30
0.0
 11
94.7950230466
 21
270.9344418167
 31
0.0
  0
LINE
  5
2FF
330
249
100
AcDbEntity
  8
$DDT_AUDIT_GENERATED_(21F)
  6
Continuous
 62
     7
100
AcDbLine
 10
83.9697054993
 20
270.9344418167
 30
0.0
 11
79.7950230466
 21
270.9344418167
 31
0.0
  0
LINE
  5
300
330
249
100
AcDbEntity
  8
$DDT_AUDIT_GENERATED_(21F)
  6
Continuous
 62
     7
100
AcDbLine
 10
68.9697054993
 20
270.9344418167
 30
0.0
 11
66.8823642729
 21
270.9344418167
 31
0.0
  0
LINE
  5
301
330
249
100
AcDbEntity
  8
$DDT_AUDIT_GENERATED_(21F)
  6
Continuous
 62
     7
100
AcDbLine
 10
96.8823642729
 20
270.9344418167
 30
0.0
 11
96.8823642729
 21
268.1387130876
 31
0.0
  0
LINE
  5
302
330
249
100
AcDbEntity
  8
$DDT_AUDIT_GENERATED_(21F)
  6
Continuous
 62
     7
100
AcDbLine
 10
96.8823642729
 20
270.9344418167
 30
0.0
 11
96.8823642729
 21
280.9344418167
 31
0.0
  0
LINE
  5
303
330
249
100
AcDbEntity
  8
$DDT_AUDIT_GENERATED_(21F)
  6
Continuous
 62
     7
100
AcDbLine
 10
94.7950230466
 20
280.9344418167
 30
0.0
 11
94.7950230466
 21
270.9344418167
 31
0.0
  0
ARC
  5
304
330
249
100
AcDbEntity
  8
$DDT_AUDIT_GENERATED_(21F)
  6
Continuous
 62
     7
100
AcDbCircle
 10
89.3823642729
 20
274.7130013359
 30
0.0
 40
6.601089837288599
100
AcDbArc
 50
214.9187681795
 51
325.0812318205
  0
LINE
  5
305
330
249
100
AcDbEntity
  8
$DDT_AUDIT_GENERATED_(21F)
  6
Continuous
 62
     7
100
AcDbLine
 10
83.9697054993
 20
270.9344418167
 30
0.0
 11
83.9697054993
 21
280.9344418167
 31
0.0
  0
LINE
  5
306
330
249
100
AcDbEntity
  8
$DDT_AUDIT_GENERATED_(21F)
  6
Continuous
 62
     7
100
AcDbLine
 10
79.7950230466
 20
280.9344418167
 30
0.0
 11
79.7950230466
 21
270.9344418167
 31
0.0
  0
ARC
  5
307
330
249
100
AcDbEntity
  8
$DDT_AUDIT_GENERATED_(21F)
  6
Continuous
 62
     7
100
AcDbCircle
 10
74.3823642729
 20
274.7130013359
 30
0.0
 40
6.601089837288614
100
AcDbArc
 50
214.9187681795
 51
325.0812318205
  0
LINE
  5
308
330
249
100
AcDbEntity
  8
$DDT_AUDIT_GENERATED_(21F)
  6
Continuous
 62
     7
100
AcDbLine
 10
68.9697054993
 20
270.9344418167
 30
0.0
 11
68.9697054993
 21
280.9344418167
 31
0.0
  0
LINE
  5
309
330
249
100
AcDbEntity
  8
$DDT_AUDIT_GENERATED_(21F)
  6
Continuous
 62
     7
100
AcDbLine
 10
66.8823642729
 20
280.9344418167
 30
0.0
 11
66.8823642729
 21
270.9344418167
 31
0.0
  0
LINE
  5
30A
330
249
100
AcDbEntity
  8
$DDT_AUDIT_GENERATED_(21F)
  6
Continuous
 62
     7
100
AcDbLine
 10
66.8823642729
 20
268.1387130876
 30
0.0
 11
66.8823642729
 21
270.9344418167
 31
0.0
  0
ARC
  5
30B
330
249
100
AcDbEntity
  8
$DDT_AUDIT_GENERATED_(21F)
  6
Continuous
 62
     7
100
AcDbCircle
 10
88.4859618765
 20
273.5701430149
 30
0.0
 40
9.999999999999998
100
AcDbArc
 50
322.1519040322
 51
327.1116909832
  0
ARC
  5
30C
330
249
100
AcDbEntity
  8
$DDT_AUDIT_GENERATED_(21F)
  6
Continuous
 62
     7
100
AcDbCircle
 10
75.2787666694
 20
273.5701430149
 30
0.0
 40
9.999999999999988
100
AcDbArc
 50
212.8919656868
 51
217.8480959678
  0
ARC
  5
30D
330
249
100
AcDbEntity
  8
$DDT_AUDIT_GENERATED_(21F)
  6
Continuous
 62
     7
100
AcDbCircle
 10
88.4859618765
 20
278.2987406185
 30
0.0
 40
9.999999999999993
100
AcDbArc
 50
32.8919656868
 51
37.8480959678
  0
ARC
  5
30E
330
249
100
AcDbEntity
  8
$DDT_AUDIT_GENERATED_(21F)
  6
Continuous
 62
     7
100
AcDbCircle
 10
75.2787666694
 20
278.2987406185
 30
0.0
 40
9.999999999999998
100
AcDbArc
 50
142.1519040322
 51
147.1116909832
  0
ENDBLK
  5
310
330
249
100
AcDbEntity
  8
0
100
AcDbBlockEnd
  0
ENDSEC
  0
SECTION
  2
ENTITIES
  0
INSERT
  5
5F
330
1F
100
AcDbEntity
  8
Default
100
AcDbBlockReference
  2
SEANNOT_GROUP
 10
0.0
 20
0.0
 30
0.0
  0
INSERT
  5
6A
330
1F
100
AcDbEntity
  8
Default
100
AcDbBlockReference
  2
SEANNOT_GROUP1
 10
0.0
 20
0.0
 30
0.0
  0
INSERT
  5
74
330
1F
100
AcDbEntity
  8
Default
100
AcDbBlockReference
  2
SEANNOT_GROUP2
 10
0.0
 20
0.0
 30
0.0
  0
INSERT
  5
7A
330
1F
100
AcDbEntity
  8
Default
100
AcDbBlockReference
  2
SEANNOT_GROUP3
 10
0.0
 20
0.0
 30
0.0
  0
INSERT
  5
80
330
1F
100
AcDbEntity
  8
Default
100
AcDbBlockReference
  2
SEANNOT_GROUP4
 10
0.0
 20
0.0
 30
0.0
  0
INSERT
  5
86
330
1F
100
AcDbEntity
  8
Default
100
AcDbBlockReference
  2
SE
 10
0.0
 20
0.0
 30
0.0
  0
INSERT
  5
17B
330
1F
100
AcDbEntity
  8
Default
100
AcDbBlockReference
  2
SE1
 10
0.0
 20
0.0
 30
0.0
  0
INSERT
  5
24A
330
1F
100
AcDbEntity
  8
Default
100
AcDbBlockReference
  2
SE2
 10
0.0
 20
0.0
 30
0.0
  0
TEXT
  5
312
330
1F
100
AcDbEntity
  8
Default
  6
Continuous
 62
     7
100
AcDbText
 10
5.9362635081
 20
53.4225120485
 30
0.0
 40
10.0
  1
Grohe AG^J
  7
SEACAD_seiso_ttf
 11
5.9362635081
 21
63.4225120485
 31
0.0
100
AcDbText
 73
     3
  0
TEXT
  5
313
330
1F
100
AcDbEntity
  8
Default
  6
Continuous
 62
     7
100
AcDbText
 10
5.9362635081
 20
37.0588756849
 30
0.0
 40
10.0
  1
 
  7
SEACAD_seiso_ttf
 11
5.9362635081
 21
47.0588756849
 31
0.0
100
AcDbText
 73
     3
  0
TEXT
  5
314
330
1F
100
AcDbEntity
  8
Default
  6
Continuous
 62
     7
100
AcDbText
 10
5.9362635081
 20
20.6952393213
 30
0.0
 40
10.0
  1
ecn: 
  7
SEACAD_seiso_ttf
 11
5.9362635081
 21
30.6952393213
 31
0.0
100
AcDbText
 73
     3
  0
TEXT
  5
315
330
1F
100
AcDbEntity
  8
Default
  6
Continuous
 62
     7
100
AcDbText
 10
5.9362635081
 20
4.3316029576
 30
0.0
 40
10.0
  1
unit: mm
  7
SEACAD_seiso_ttf
 11
5.9362635081
 21
14.3316029576
 31
0.0
100
AcDbText
 73
     3
  0
LINE
  5
316
330
1F
100
AcDbEntity
  8
Default
  6
Continuous
 62
     7
100
AcDbLine
 10
0.0
 20
0.0
 30
0.0
 11
100.0
 21
0.0
 31
0.0
  0
LINE
  5
317
330
1F
100
AcDbEntity
  8
Default
  6
Continuous
 62
     7
100
AcDbLine
 10
0.0
 20
0.0
 30
0.0
 11
0.0
 21
100.0
 31
0.0
  0
TEXT
  5
318
330
1F
100
AcDbEntity
  8
Default
  6
Continuous
 62
     7
100
AcDbText
 10
24.3923665681
 20
-18.2375342018
 30
0.0
 40
10.0
  1
100 mm
  7
SEACAD_seiso_ttf
 11
24.3923665681
 21
-8.2375342018
 31
0.0
100
AcDbText
 73
     3
  0
TEXT
  5
319
330
1F
100
AcDbEntity
  8
Default
  6
Continuous
 62
     7
100
AcDbText
 10
-7.6150308803
 20
24.6231930421
 30
0.0
 40
10.0
  1
100 mm
 50
90.0
  7
SEACAD_seiso_ttf
 11
-17.6150308803
 21
24.6231930421
 31
0.0
100
AcDbText
 73
     3
  0
TEXT
  5
31A
330
1F
100
AcDbEntity
  8
Default
  6
Continuous
 62
     7
100
AcDbText
 10
28.4878128572
 20
20.0907663715
 30
0.0
 40
10.0
  1
207296
  7
SEACAD_seiso_ttf
 11
28.4878128572
 21
30.0907663715
 31
0.0
100
AcDbText
 73
     3
  0
TEXT
  5
31B
330
1F
100
AcDbEntity
  8
Default
  6
Continuous
 62
     7
100
AcDbText
 10
5.9012241913
 20
36.7242780188
 30
0.0
 40
10.0
  1
33390001
  7
SEACAD_seiso_ttf
 11
5.9012241913
 21
46.7242780188
 31
0.0
100
AcDbText
 73
     3
  0
ENDSEC
  0
SECTION
  2
OBJECTS
  0
DICTIONARY
  5
C
330
0
100
AcDbDictionary
281
     1
  3
ACAD_GROUP
350
D
  3
ACAD_LAYOUT
350
1A
  3
ACAD_MLEADERSTYLE
350
31F
  3
ACAD_MLINESTYLE
350
17
  3
ACAD_PLOTSETTINGS
350
19
  3
ACAD_PLOTSTYLENAME
350
E
  3
ACAD_SCALELIST
350
3B
  3
ACAD_TABLESTYLE
350
31E
  3
ACAD_VISUALSTYLE
350
2A
  3
AcDbVariableDictionary
350
31C
  0
DICTIONARY
  5
D
102
{ACAD_REACTORS
330
C
102
}
330
C
100
AcDbDictionary
281
     1
  0
DICTIONARY
  5
1A
102
{ACAD_REACTORS
330
C
102
}
330
C
100
AcDbDictionary
281
     1
  3
Layout1
350
1E
  3
Model
350
22
  0
DICTIONARY
  5
31F
102
{ACAD_REACTORS
330
C
102
}
330
C
100
AcDbDictionary
281
     1
  0
DICTIONARY
  5
17
102
{ACAD_REACTORS
330
C
102
}
330
C
100
AcDbDictionary
281
     1
  3
Standard
350
18
  0
DICTIONARY
  5
19
102
{ACAD_REACTORS
330
C
102
}
330
C
100
AcDbDictionary
281
     1
  0
ACDBDICTIONARYWDFLT
  5
E
102
{ACAD_REACTORS
330
C
102
}
330
C
100
AcDbDictionary
281
     1
  3
Normal
350
F
100
AcDbDictionaryWithDefault
340
F
  0
DICTIONARY
  5
3B
102
{ACAD_REACTORS
330
C
102
}
330
C
100
AcDbDictionary
281
     1
  3
A0
350
3C
  3
A1
350
3D
  3
A2
350
3E
  3
A3
350
3F
  3
A4
350
40
  3
A5
350
41
  3
A6
350
42
  3
A7
350
43
  3
A8
350
44
  3
A9
350
45
  3
B0
350
46
  3
B1
350
47
  3
B2
350
48
  3
B3
350
49
  3
B4
350
4A
  3
B5
350
4B
  3
B6
350
4C
  3
B7
350
4D
  3
B8
350
4E
  3
B9
350
4F
  3
C0
350
50
  3
C1
350
51
  3
C2
350
52
  3
C3
350
53
  3
C4
350
54
  3
C5
350
55
  3
C6
350
56
  3
C7
350
57
  3
C8
350
58
  3
C9
350
59
  3
D0
350
5A
  3
D1
350
5B
  3
D2
350
5C
  0
DICTIONARY
  5
31E
102
{ACAD_REACTORS
330
C
102
}
330
C
100
AcDbDictionary
281
     1
  0
DICTIONARY
  5
2A
102
{ACAD_REACTORS
330
C
102
}
330
C
100
AcDbDictionary
281
     1
  3
2dWireframe
350
2F
  3
3D Hidden
350
31
  3
3dWireframe
350
30
  3
Basic
350
32
  3
Brighten
350
36
  3
ColorChange
350
3A
  3
Conceptual
350
34
  3
Dim
350
35
  3
Facepattern
350
39
  3
Flat
350
2B
  3
FlatWithEdges
350
2C
  3
Gouraud
350
2D
  3
GouraudWithEdges
350
2E
  3
Linepattern
350
38
  3
Realistic
350
33
  3
Thicken
350
37
  0
DICTIONARY
  5
31C
102
{ACAD_REACTORS
330
C
102
}
330
C
100
AcDbDictionary
281
     1
  3
CANNOSCALE
350
31D
  3
PSOLHEIGHT
350
321
  3
PSOLWIDTH
350
320
  0
LAYOUT
  5
1E
102
{ACAD_REACTORS
330
1A
102
}
330
1A
100
AcDbPlotSettings
  1

  2
none_device
  4

  6

 40
0.0
 41
0.0
 42
0.0
 43
0.0
 44
0.0
 45
0.0
 46
0.0
 47
0.0
 48
0.0
 49
0.0
140
0.0
141
0.0
142
1.0
143
1.0
 70
   688
 72
     0
 73
     0
 74
     5
  7

 75
    16
147
1.0
148
0.0
149
0.0
100
AcDbLayout
  1
Layout1
 70
     1
 71
     1
 10
0.0
 20
0.0
 11
1682.0
 21
2378.0
 12
0.0
 22
0.0
 32
0.0
 14
0.0
 24
0.0
 34
0.0
 15
1682.0
 25
2378.0
 35
0.0
146
0.0
 13
0.0
 23
0.0
 33
0.0
 16
1.0
 26
0.0
 36
0.0
 17
0.0
 27
1.0
 37
0.0
 76
     0
330
1B
  0
LAYOUT
  5
22
102
{ACAD_REACTORS
330
1A
102
}
330
1A
100
AcDbPlotSettings
  1

  2
none_device
  4

  6

 40
0.0
 41
0.0
 42
0.0
 43
0.0
 44
0.0
 45
0.0
 46
0.0
 47
0.0
 48
0.0
 49
0.0
140
0.0
141
0.0
142
1.0
143
1.0
 70
  1712
 72
     0
 73
     0
 74
     0
  7

 75
     0
147
1.0
148
0.0
149
0.0
100
AcDbLayout
  1
Model
 70
     1
 71
     0
 10
0.0
 20
0.0
 11
1682.0
 21
2378.0
 12
0.0
 22
0.0
 32
0.0
 14
0.0
 24
0.0
 34
0.0
 15
1682.0
 25
2378.0
 35
0.0
146
0.0
 13
0.0
 23
0.0
 33
0.0
 16
1.0
 26
0.0
 36
0.0
 17
0.0
 27
1.0
 37
0.0
 76
     0
330
1F
331
29
  0
MLINESTYLE
  5
18
102
{ACAD_REACTORS
330
17
102
}
330
17
100
AcDbMlineStyle
  2
Standard
 70
     0
  3

 62
   256
 51
90.0
 52
90.0
 71
     2
 49
0.5
 62
   256
  6
BYLAYER
 49
-0.5
 62
   256
  6
BYLAYER
  0
ACDBPLACEHOLDER
  5
F
102
{ACAD_REACTORS
330
E
102
}
330
E
  0
SCALE
  5
3C
102
{ACAD_REACTORS
330
3B
102
}
330
3B
100
AcDbScale
 70
     0
300
1:1
140
1.0
141
1.0
290
     1
  0
SCALE
  5
3D
102
{ACAD_REACTORS
330
3B
102
}
330
3B
100
AcDbScale
 70
     0
300
1:2
140
1.0
141
2.0
290
     0
  0
SCALE
  5
3E
102
{ACAD_REACTORS
330
3B
102
}
330
3B
100
AcDbScale
 70
     0
300
1:4
140
1.0
141
4.0
290
     0
  0
SCALE
  5
3F
102
{ACAD_REACTORS
330
3B
102
}
330
3B
100
AcDbScale
 70
     0
300
1:5
140
1.0
141
5.0
290
     0
  0
SCALE
  5
40
102
{ACAD_REACTORS
330
3B
102
}
330
3B
100
AcDbScale
 70
     0
300
1:8
140
1.0
141
8.0
290
     0
  0
SCALE
  5
41
102
{ACAD_REACTORS
330
3B
102
}
330
3B
100
AcDbScale
 70
     0
300
1:10
140
1.0
141
10.0
290
     0
  0
SCALE
  5
42
102
{ACAD_REACTORS
330
3B
102
}
330
3B
100
AcDbScale
 70
     0
300
1:16
140
1.0
141
16.0
290
     0
  0
SCALE
  5
43
102
{ACAD_REACTORS
330
3B
102
}
330
3B
100
AcDbScale
 70
     0
300
1:20
140
1.0
141
20.0
290
     0
  0
SCALE
  5
44
102
{ACAD_REACTORS
330
3B
102
}
330
3B
100
AcDbScale
 70
     0
300
1:30
140
1.0
141
30.0
290
     0
  0
SCALE
  5
45
102
{ACAD_REACTORS
330
3B
102
}
330
3B
100
AcDbScale
 70
     0
300
1:40
140
1.0
141
40.0
290
     0
  0
SCALE
  5
46
102
{ACAD_REACTORS
330
3B
102
}
330
3B
100
AcDbScale
 70
     0
300
1:50
140
1.0
141
50.0
290
     0
  0
SCALE
  5
47
102
{ACAD_REACTORS
330
3B
102
}
330
3B
100
AcDbScale
 70
     0
300
1:100
140
1.0
141
100.0
290
     0
  0
SCALE
  5
48
102
{ACAD_REACTORS
330
3B
102
}
330
3B
100
AcDbScale
 70
     0
300
2:1
140
2.0
141
1.0
290
     0
  0
SCALE
  5
49
102
{ACAD_REACTORS
330
3B
102
}
330
3B
100
AcDbScale
 70
     0
300
4:1
140
4.0
141
1.0
290
     0
  0
SCALE
  5
4A
102
{ACAD_REACTORS
330
3B
102
}
330
3B
100
AcDbScale
 70
     0
300
8:1
140
8.0
141
1.0
290
     0
  0
SCALE
  5
4B
102
{ACAD_REACTORS
330
3B
102
}
330
3B
100
AcDbScale
 70
     0
300
10:1
140
10.0
141
1.0
290
     0
  0
SCALE
  5
4C
102
{ACAD_REACTORS
330
3B
102
}
330
3B
100
AcDbScale
 70
     0
300
100:1
140
100.0
141
1.0
290
     0
  0
SCALE
  5
4D
102
{ACAD_REACTORS
330
3B
102
}
330
3B
100
AcDbScale
 70
     0
300
1/128" = 1'-0"
140
0.0078125
141
12.0
290
     0
  0
SCALE
  5
4E
102
{ACAD_REACTORS
330
3B
102
}
330
3B
100
AcDbScale
 70
     0
300
1/64" = 1'-0"
140
0.015625
141
12.0
290
     0
  0
SCALE
  5
4F
102
{ACAD_REACTORS
330
3B
102
}
330
3B
100
AcDbScale
 70
     0
300
1/32" = 1'-0"
140
0.03125
141
12.0
290
     0
  0
SCALE
  5
50
102
{ACAD_REACTORS
330
3B
102
}
330
3B
100
AcDbScale
 70
     0
300
1/16" = 1'-0"
140
0.0625
141
12.0
290
     0
  0
SCALE
  5
51
102
{ACAD_REACTORS
330
3B
102
}
330
3B
100
AcDbScale
 70
     0
300
3/32" = 1'-0"
140
0.09375
141
12.0
290
     0
  0
SCALE
  5
52
102
{ACAD_REACTORS
330
3B
102
}
330
3B
100
AcDbScale
 70
     0
300
1/8" = 1'-0"
140
0.125
141
12.0
290
     0
  0
SCALE
  5
53
102
{ACAD_REACTORS
330
3B
102
}
330
3B
100
AcDbScale
 70
     0
300
3/16" = 1'-0"
140
0.1875
141
12.0
290
     0
  0
SCALE
  5
54
102
{ACAD_REACTORS
330
3B
102
}
330
3B
100
AcDbScale
 70
     0
300
1/4" = 1'-0"
140
0.25
141
12.0
290
     0
  0
SCALE
  5
55
102
{ACAD_REACTORS
330
3B
102
}
330
3B
100
AcDbScale
 70
     0
300
3/8" = 1'-0"
140
0.375
141
12.0
290
     0
  0
SCALE
  5
56
102
{ACAD_REACTORS
330
3B
102
}
330
3B
100
AcDbScale
 70
     0
300
1/2" = 1'-0"
140
0.5
141
12.0
290
     0
  0
SCALE
  5
57
102
{ACAD_REACTORS
330
3B
102
}
330
3B
100
AcDbScale
 70
     0
300
3/4" = 1'-0"
140
0.75
141
12.0
290
     0
  0
SCALE
  5
58
102
{ACAD_REACTORS
330
3B
102
}
330
3B
100
AcDbScale
 70
     0
300
1" = 1'-0"
140
1.0
141
12.0
290
     0
  0
SCALE
  5
59
102
{ACAD_REACTORS
330
3B
102
}
330
3B
100
AcDbScale
 70
     0
300
1-1/2" = 1'-0"
140
1.5
141
12.0
290
     0
  0
SCALE
  5
5A
102
{ACAD_REACTORS
330
3B
102
}
330
3B
100
AcDbScale
 70
     0
300
3" = 1'-0"
140
3.0
141
12.0
290
     0
  0
SCALE
  5
5B
102
{ACAD_REACTORS
330
3B
102
}
330
3B
100
AcDbScale
 70
     0
300
6" = 1'-0"
140
6.0
141
12.0
290
     0
  0
SCALE
  5
5C
102
{ACAD_REACTORS
330
3B
102
}
330
3B
100
AcDbScale
 70
     0
300
1'-0" = 1'-0"
140
12.0
141
12.0
290
     0
  0
VISUALSTYLE
  5
2F
102
{ACAD_REACTORS
330
2A
102
}
330
2A
100
AcDbVisualStyle
  2
2dWireframe
 70
     4
 71
     0
 72
     2
 73
     0
 90
        0
 40
-0.6
 41
-30.0
 62
     5
 63
     7
 74
     1
 91
        4
 64
     7
 65
   257
 75
     1
175
     1
 42
1.0
 92
        0
 66
   257
 43
1.0
 76
     1
 77
     6
 78
     2
 67
     7
 79
     5
170
     0
171
     0
290
     0
174
     0
 93
        1
 44
0.0
173
     0
291
     0
 45
0.0
1001
ACAD
1000
AcDbSavedByObjectVersion
1070
     0
  0
VISUALSTYLE
  5
31
102
{ACAD_REACTORS
330
2A
102
}
330
2A
100
AcDbVisualStyle
  2
3D Hidden
 70
     6
 71
     1
 72
     2
 73
     2
 90
        0
 40
-0.6
 41
-30.0
 62
     5
 63
     7
 74
     2
 91
        2
 64
     7
 65
   257
 75
     2
175
     1
 42
40.0
 92
        0
 66
   257
 43
1.0
 76
     1
 77
     6
 78
     2
 67
     7
 79
     3
170
     0
171
     0
290
     0
174
     0
 93
        1
 44
0.0
173
     0
291
     0
 45
0.0
1001
ACAD
1000
AcDbSavedByObjectVersion
1070
     0
  0
VISUALSTYLE
  5
30
102
{ACAD_REACTORS
330
2A
102
}
330
2A
100
AcDbVisualStyle
  2
3dWireframe
 70
     5
 71
     0
 72
     2
 73
     0
 90
        0
 40
-0.6
 41
-30.0
 62
     5
 63
     7
 74
     1
 91
        4
 64
     7
 65
   257
 75
     1
175
     1
 42
1.0
 92
        0
 66
   257
 43
1.0
 76
     1
 77
     6
 78
     2
 67
     7
 79
     5
170
     0
171
     0
290
     0
174
     0
 93
        1
 44
0.0
173
     0
291
     0
 45
0.0
1001
ACAD
1000
AcDbSavedByObjectVersion
1070
     0
  0
VISUALSTYLE
  5
32
102
{ACAD_REACTORS
330
2A
102
}
330
2A
100
AcDbVisualStyle
  2
Basic
 70
     7
 71
     1
 72
     0
 73
     1
 90
        0
 40
-0.6
 41
-30.0
 62
     5
 63
     7
 74
     0
 91
        4
 64
     7
 65
   257
 75
     1
175
     1
 42
1.0
 92
        8
 66
     7
 43
1.0
 76
     1
 77
     6
 78
     2
 67
     7
 79
     5
170
     0
171
     0
290
     0
174
     0
 93
        1
 44
0.0
173
     0
291
     1
 45
0.0
1001
ACAD
1000
AcDbSavedByObjectVersion
1070
     0
  0
VISUALSTYLE
  5
36
102
{ACAD_REACTORS
330
2A
102
}
330
2A
100
AcDbVisualStyle
  2
Brighten
 70
    12
 71
     2
 72
     2
 73
     0
 90
        0
 40
-0.6
 41
-30.0
 62
     5
 63
     7
 74
     1
 91
        4
 64
     7
 65
   257
 75
     1
175
     1
 42
1.0
 92
        8
 66
     7
 43
1.0
 76
     1
 77
     6
 78
     2
 67
     7
 79
     5
170
     0
171
     0
290
     0
174
     0
 93
        1
 44
50.0
173
     0
291
     1
 45
0.0
1001
ACAD
1000
AcDbSavedByObjectVersion
1070
     0
  0
VISUALSTYLE
  5
3A
102
{ACAD_REACTORS
330
2A
102
}
330
2A
100
AcDbVisualStyle
  2
ColorChange
 70
    16
 71
     2
 72
     2
 73
     3
 90
        0
 40
-0.6
 41
-30.0
 62
     5
 63
     8
 74
     1
 91
        4
 64
     7
 65
   257
 75
     1
175
     1
 42
1.0
 92
        8
 66
     8
 43
1.0
 76
     1
 77
     6
 78
     2
 67
     7
 79
     5
170
     0
171
     0
290
     0
174
     0
 93
        1
 44
0.0
173
     0
291
     1
 45
0.0
1001
ACAD
1000
AcDbSavedByObjectVersion
1070
     0
  0
VISUALSTYLE
  5
34
102
{ACAD_REACTORS
330
2A
102
}
330
2A
100
AcDbVisualStyle
  2
Conceptual
 70
     9
 71
     3
 72
     2
 73
     0
 90
        0
 40
-0.6
 41
-30.0
 62
     5
 63
     7
 74
     2
 91
        2
 64
     7
 65
   257
 75
     1
175
     1
 42
40.0
 92
        8
 66
     7
 43
1.0
 76
     1
 77
     6
 78
     2
 67
     7
 79
     3
170
     0
171
     0
290
     0
174
     0
 93
        1
 44
0.0
173
     0
291
     0
 45
0.0
1001
ACAD
1000
AcDbSavedByObjectVersion
1070
     0
  0
VISUALSTYLE
  5
35
102
{ACAD_REACTORS
330
2A
102
}
330
2A
100
AcDbVisualStyle
  2
Dim
 70
    11
 71
     2
 72
     2
 73
     0
 90
        0
 40
-0.6
 41
-30.0
 62
     5
 63
     7
 74
     1
 91
        4
 64
     7
 65
   257
 75
     1
175
     1
 42
1.0
 92
        8
 66
     7
 43
1.0
 76
     1
 77
     6
 78
     2
 67
     7
 79
     5
170
     0
171
     0
290
     0
174
     0
 93
        1
 44
-50.0
173
     0
291
     1
 45
0.0
1001
ACAD
1000
AcDbSavedByObjectVersion
1070
     0
  0
VISUALSTYLE
  5
39
102
{ACAD_REACTORS
330
2A
102
}
330
2A
100
AcDbVisualStyle
  2
Facepattern
 70
    15
 71
     2
 72
     2
 73
     0
 90
        0
 40
-0.6
 41
-30.0
 62
     5
 63
     7
 74
     1
 91
        4
 64
     7
 65
   257
 75
     1
175
     1
 42
1.0
 92
        8
 66
     7
 43
1.0
 76
     1
 77
     6
 78
     2
 67
     7
 79
     5
170
     0
171
     0
290
     0
174
     0
 93
        1
 44
0.0
173
     0
291
     1
 45
0.0
1001
ACAD
1000
AcDbSavedByObjectVersion
1070
     0
  0
VISUALSTYLE
  5
2B
102
{ACAD_REACTORS
330
2A
102
}
330
2A
100
AcDbVisualStyle
  2
Flat
 70
     0
 71
     2
 72
     1
 73
     1
 90
        2
 40
-0.6
 41
30.0
 62
     5
 63
     7
 74
     0
 91
        4
 64
     7
 65
   257
 75
     1
175
     1
 42
1.0
 92
        8
 66
     7
 43
1.0
 76
     1
 77
     6
 78
     2
 67
     7
 79
     5
170
     0
171
     0
290
     0
174
     0
 93
       13
 44
0.0
173
     0
291
     1
 45
0.0
1001
ACAD
1000
AcDbSavedByObjectVersion
1070
     0
  0
VISUALSTYLE
  5
2C
102
{ACAD_REACTORS
330
2A
102
}
330
2A
100
AcDbVisualStyle
  2
FlatWithEdges
 70
     1
 71
     2
 72
     1
 73
     1
 90
        2
 40
-0.6
 41
30.0
 62
     5
 63
     7
 74
     1
 91
        4
 64
     7
 65
   257
 75
     1
175
     1
 42
1.0
 92
        0
 66
   257
 43
1.0
 76
     1
 77
     6
 78
     2
 67
     7
 79
     5
170
     0
171
     0
290
     0
174
     0
 93
       13
 44
0.0
173
     0
291
     1
 45
0.0
1001
ACAD
1000
AcDbSavedByObjectVersion
1070
     0
  0
VISUALSTYLE
  5
2D
102
{ACAD_REACTORS
330
2A
102
}
330
2A
100
AcDbVisualStyle
  2
Gouraud
 70
     2
 71
     2
 72
     2
 73
     1
 90
        2
 40
-0.6
 41
30.0
 62
     5
 63
     7
 74
     0
 91
        4
 64
     7
 65
   257
 75
     1
175
     1
 42
1.0
 92
        0
 66
     7
 43
1.0
 76
     1
 77
     6
 78
     2
 67
     7
 79
     5
170
     0
171
     0
290
     0
174
     0
 93
       13
 44
0.0
173
     0
291
     1
 45
0.0
1001
ACAD
1000
AcDbSavedByObjectVersion
1070
     0
  0
VISUALSTYLE
  5
2E
102
{ACAD_REACTORS
330
2A
102
}
330
2A
100
AcDbVisualStyle
  2
GouraudWithEdges
 70
     3
 71
     2
 72
     2
 73
     1
 90
        2
 40
-0.6
 41
30.0
 62
     5
 63
     7
 74
     1
 91
        4
 64
     7
 65
   257
 75
     1
175
     1
 42
1.0
 92
        0
 66
   257
 43
1.0
 76
     1
 77
     6
 78
     2
 67
     7
 79
     5
170
     0
171
     0
290
     0
174
     0
 93
       13
 44
0.0
173
     0
291
     1
 45
0.0
1001
ACAD
1000
AcDbSavedByObjectVersion
1070
     0
  0
VISUALSTYLE
  5
38
102
{ACAD_REACTORS
330
2A
102
}
330
2A
100
AcDbVisualStyle
  2
Linepattern
 70
    14
 71
     2
 72
     2
 73
     0
 90
        0
 40
-0.6
 41
-30.0
 62
     5
 63
     7
 74
     1
 91
        4
 64
     7
 65
   257
 75
     7
175
     7
 42
1.0
 92
        8
 66
     7
 43
1.0
 76
     1
 77
     6
 78
     2
 67
     7
 79
     5
170
     0
171
     0
290
     0
174
     0
 93
        1
 44
0.0
173
     0
291
     1
 45
0.0
1001
ACAD
1000
AcDbSavedByObjectVersion
1070
     0
  0
VISUALSTYLE
  5
33
102
{ACAD_REACTORS
330
2A
102
}
330
2A
100
AcDbVisualStyle
  2
Realistic
 70
     8
 71
     2
 72
     2
 73
     0
 90
        0
 40
-0.6
 41
-30.0
 62
     5
 63
     7
 74
     1
 91
        0
 64
     7
 65
   257
 75
     1
175
     1
 42
1.0
 92
        8
 66
     8
 43
1.0
 76
     1
 77
     6
 78
     2
 67
     7
 79
     5
170
     0
171
     0
290
     0
174
     0
 93
       13
 44
0.0
173
     0
291
     0
 45
0.0
1001
ACAD
1000
AcDbSavedByObjectVersion
1070
     0
  0
VISUALSTYLE
  5
37
102
{ACAD_REACTORS
330
2A
102
}
330
2A
100
AcDbVisualStyle
  2
Thicken
 70
    13
 71
     2
 72
     2
 73
     0
 90
        0
 40
-0.6
 41
-30.0
 62
     5
 63
     7
 74
     1
 91
        4
 64
     7
 65
   257
 75
     1
175
     1
 42
1.0
 92
       12
 66
     7
 43
1.0
 76
     1
 77
     6
 78
     2
 67
     7
 79
     5
170
     0
171
     0
290
     0
174
     0
 93
        1
 44
0.0
173
     0
291
     1
 45
0.0
1001
ACAD
1000
AcDbSavedByObjectVersion
1070
     0
  0
DICTIONARYVAR
  5
31D
102
{ACAD_REACTORS
330
31C
102
}
330
31C
100
DictionaryVariables
280
     0
  1
1:1
  0
DICTIONARYVAR
  5
321
102
{ACAD_REACTORS
330
31C
102
}
330
31C
100
DictionaryVariables
280
     0
  1
80.000000
  0
DICTIONARYVAR
  5
320
102
{ACAD_REACTORS
330
31C
102
}
330
31C
100
DictionaryVariables
280
     0
  1
5.000000
  0
ENDSEC
  0
EOF
