  0
SECTION
  2
HEADER
  9
$ACADVER
  1
AC1021
  9
$ACADMAINTVER
 70
    25
  9
$DWGCODEPAGE
  3
UNDEFINED
  9
$INSBASE
 10
0.0
 20
0.0
 30
0.0
  9
$EXTMIN
 10
1.000000000000000E+20
 20
1.000000000000000E+20
 30
1.000000000000000E+20
  9
$EXTMAX
 10
-1.000000000000000E+20
 20
-1.000000000000000E+20
 30
-1.000000000000000E+20
  9
$LIMMIN
 10
0.0
 20
0.0
  9
$LIMMAX
 10
12.0
 20
9.0
  9
$ORTHOMODE
 70
     0
  9
$REGENMODE
 70
     1
  9
$FILLMODE
 70
     1
  9
$QTEXTMODE
 70
     0
  9
$MIRRTEXT
 70
     1
  9
$LTSCALE
 40
1.0
  9
$ATTMODE
 70
     1
  9
$TEXTSIZE
 40
0.2
  9
$TRACEWID
 40
0.05
  9
$TEXTSTYLE
  7
Standard
  9
$CLAYER
  8
0
  9
$CELTYPE
  6
ByLayer
  9
$CECOLOR
 62
   256
  9
$CELTSCALE
 40
1.0
  9
$DISPSILH
 70
     0
  9
$DIMSCALE
 40
1.0
  9
$DIMASZ
 40
0.18
  9
$DIMEXO
 40
0.0625
  9
$DIMDLI
 40
0.38
  9
$DIMRND
 40
0.0
  9
$DIMDLE
 40
0.0
  9
$DIMEXE
 40
0.18
  9
$DIMTP
 40
0.0
  9
$DIMTM
 40
0.0
  9
$DIMTXT
 40
0.18
  9
$DIMCEN
 40
0.09
  9
$DIMTSZ
 40
0.0
  9
$DIMTOL
 70
     0
  9
$DIMLIM
 70
     0
  9
$DIMTIH
 70
     1
  9
$DIMTOH
 70
     1
  9
$DIMSE1
 70
     0
  9
$DIMSE2
 70
     0
  9
$DIMTAD
 70
     0
  9
$DIMZIN
 70
     0
  9
$DIMBLK
  1

  9
$DIMASO
 70
     1
  9
$DIMSHO
 70
     1
  9
$DIMPOST
  1

  9
$DIMAPOST
  1

  9
$DIMALT
 70
     0
  9
$DIMALTD
 70
     2
  9
$DIMALTF
 40
25.4
  9
$DIMLFAC
 40
1.0
  9
$DIMTOFL
 70
     0
  9
$DIMTVP
 40
0.0
  9
$DIMTIX
 70
     0
  9
$DIMSOXD
 70
     0
  9
$DIMSAH
 70
     0
  9
$DIMBLK1
  1

  9
$DIMBLK2
  1

  9
$DIMSTYLE
  2
Standard
  9
$DIMCLRD
 70
     0
  9
$DIMCLRE
 70
     0
  9
$DIMCLRT
 70
     0
  9
$DIMTFAC
 40
1.0
  9
$DIMGAP
 40
0.09
  9
$DIMJUST
 70
     0
  9
$DIMSD1
 70
     0
  9
$DIMSD2
 70
     0
  9
$DIMTOLJ
 70
     1
  9
$DIMTZIN
 70
     0
  9
$DIMALTZ
 70
     0
  9
$DIMALTTZ
 70
     0
  9
$DIMUPT
 70
     0
  9
$DIMDEC
 70
     4
  9
$DIMTDEC
 70
     4
  9
$DIMALTU
 70
     2
  9
$DIMALTTD
 70
     2
  9
$DIMTXSTY
  7
Standard
  9
$DIMAUNIT
 70
     0
  9
$DIMADEC
 70
     0
  9
$DIMALTRND
 40
0.0
  9
$DIMAZIN
 70
     0
  9
$DIMDSEP
 70
    46
  9
$DIMATFIT
 70
     3
  9
$DIMFRAC
 70
     0
  9
$DIMLDRBLK
  1

  9
$DIMLUNIT
 70
     2
  9
$DIMLWD
 70
    -2
  9
$DIMLWE
 70
    -2
  9
$DIMTMOVE
 70
     0
  9
$DIMFXL
 40
1.0
  9
$DIMFXLON
 70
     0
  9
$DIMJOGANG
 40
0.7853981633974483
  9
$DIMTFILL
 70
     0
  9
$DIMTFILLCLR
 70
     0
  9
$DIMARCSYM
 70
     0
  9
$DIMLTYPE
  6

  9
$DIMLTEX1
  6

  9
$DIMLTEX2
  6

  9
$LUNITS
 70
     2
  9
$LUPREC
 70
     4
  9
$SKETCHINC
 40
0.1
  9
$FILLETRAD
 40
0.5
  9
$AUNITS
 70
     0
  9
$AUPREC
 70
     0
  9
$MENU
  1
.
  9
$ELEVATION
 40
0.0
  9
$PELEVATION
 40
0.0
  9
$THICKNESS
 40
0.0
  9
$LIMCHECK
 70
     0
  9
$CHAMFERA
 40
0.5
  9
$CHAMFERB
 40
0.5
  9
$CHAMFERC
 40
1.0
  9
$CHAMFERD
 40
0.0
  9
$SKPOLY
 70
     0
  9
$TDCREATE
 40
2459600.396215266
  9
$TDUCREATE
 40
2459600.354548611
  9
$TDUPDATE
 40
2459600.396215266
  9
$TDUUPDATE
 40
2459600.354548611
  9
$TDINDWG
 40
0.0000000116
  9
$TDUSRTIMER
 40
0.0000000116
  9
$USRTIMER
 70
     1
  9
$ANGBASE
 50
0.0
  9
$ANGDIR
 70
     0
  9
$PDMODE
 70
     0
  9
$PDSIZE
 40
0.0
  9
$PLINEWID
 40
0.0
  9
$SPLFRAME
 70
     0
  9
$SPLINETYPE
 70
     6
  9
$SPLINESEGS
 70
     8
  9
$HANDSEED
  5
422
  9
$SURFTAB1
 70
     6
  9
$SURFTAB2
 70
     6
  9
$SURFTYPE
 70
     6
  9
$SURFU
 70
     6
  9
$SURFV
 70
     6
  9
$UCSBASE
  2

  9
$UCSNAME
  2

  9
$UCSORG
 10
0.0
 20
0.0
 30
0.0
  9
$UCSXDIR
 10
1.0
 20
0.0
 30
0.0
  9
$UCSYDIR
 10
0.0
 20
1.0
 30
0.0
  9
$UCSORTHOREF
  2

  9
$UCSORTHOVIEW
 70
     0
  9
$UCSORGTOP
 10
0.0
 20
0.0
 30
0.0
  9
$UCSORGBOTTOM
 10
0.0
 20
0.0
 30
0.0
  9
$UCSORGLEFT
 10
0.0
 20
0.0
 30
0.0
  9
$UCSORGRIGHT
 10
0.0
 20
0.0
 30
0.0
  9
$UCSORGFRONT
 10
0.0
 20
0.0
 30
0.0
  9
$UCSORGBACK
 10
0.0
 20
0.0
 30
0.0
  9
$PUCSBASE
  2

  9
$PUCSNAME
  2

  9
$PUCSORG
 10
0.0
 20
0.0
 30
0.0
  9
$PUCSXDIR
 10
1.0
 20
0.0
 30
0.0
  9
$PUCSYDIR
 10
0.0
 20
1.0
 30
0.0
  9
$PUCSORTHOREF
  2

  9
$PUCSORTHOVIEW
 70
     0
  9
$PUCSORGTOP
 10
0.0
 20
0.0
 30
0.0
  9
$PUCSORGBOTTOM
 10
0.0
 20
0.0
 30
0.0
  9
$PUCSORGLEFT
 10
0.0
 20
0.0
 30
0.0
  9
$PUCSORGRIGHT
 10
0.0
 20
0.0
 30
0.0
  9
$PUCSORGFRONT
 10
0.0
 20
0.0
 30
0.0
  9
$PUCSORGBACK
 10
0.0
 20
0.0
 30
0.0
  9
$USERI1
 70
     0
  9
$USERI2
 70
     0
  9
$USERI3
 70
     0
  9
$USERI4
 70
     0
  9
$USERI5
 70
     0
  9
$USERR1
 40
0.0
  9
$USERR2
 40
0.0
  9
$USERR3
 40
0.0
  9
$USERR4
 40
0.0
  9
$USERR5
 40
0.0
  9
$WORLDVIEW
 70
     1
  9
$SHADEDGE
 70
     3
  9
$SHADEDIF
 70
    70
  9
$TILEMODE
 70
     1
  9
$MAXACTVP
 70
    64
  9
$PINSBASE
 10
0.0
 20
0.0
 30
0.0
  9
$PLIMCHECK
 70
     0
  9
$PEXTMIN
 10
1.000000000000000E+20
 20
1.000000000000000E+20
 30
1.000000000000000E+20
  9
$PEXTMAX
 10
-1.000000000000000E+20
 20
-1.000000000000000E+20
 30
-1.000000000000000E+20
  9
$PLIMMIN
 10
0.0
 20
0.0
  9
$PLIMMAX
 10
12.0
 20
9.0
  9
$UNITMODE
 70
     0
  9
$VISRETAIN
 70
     1
  9
$PLINEGEN
 70
     0
  9
$PSLTSCALE
 70
     1
  9
$TREEDEPTH
 70
  3020
  9
$CMLSTYLE
  2
Standard
  9
$CMLJUST
 70
     0
  9
$CMLSCALE
 40
1.0
  9
$PROXYGRAPHICS
 70
     1
  9
$MEASUREMENT
 70
     0
  9
$CELWEIGHT
370
    -1
  9
$ENDCAPS
280
     0
  9
$JOINSTYLE
280
     0
  9
$LWDISPLAY
290
     1
  9
$INSUNITS
 70
     1
  9
$HYPERLINKBASE
  1

  9
$STYLESHEET
  1

  9
$XEDIT
290
     1
  9
$CEPSNTYPE
380
     0
  9
$PSTYLEMODE
290
     1
  9
$FINGERPRINTGUID
  2
{B1F821EA-6F5F-D6E0-456C-2B79A5FA9D7D}
  9
$VERSIONGUID
  2
{FAEB1C32-E019-11D5-929B-00C0DF256EC4}
  9
$EXTNAMES
290
     1
  9
$PSVPSCALE
 40
0.0
  9
$OLESTARTUP
290
     0
  9
$SORTENTS
280
   127
  9
$INDEXCTL
280
     0
  9
$HIDETEXT
280
     1
  9
$XCLIPFRAME
290
     0
  9
$HALOGAP
280
     0
  9
$OBSCOLOR
 70
   257
  9
$OBSLTYPE
280
     0
  9
$INTERSECTIONDISPLAY
280
     0
  9
$INTERSECTIONCOLOR
 70
   257
  9
$DIMASSOC
280
     2
  9
$PROJECTNAME
  1

  9
$CAMERADISPLAY
290
     0
  9
$LENSLENGTH
 40
50.0
  9
$CAMERAHEIGHT
 40
0.0
  9
$STEPSPERSEC
 40
2.0
  9
$STEPSIZE
 40
6.0
  9
$3DDWFPREC
 40
2.0
  9
$PSOLWIDTH
 40
0.25
  9
$PSOLHEIGHT
 40
4.0
  9
$LOFTANG1
 40
1.570796326794897
  9
$LOFTANG2
 40
1.570796326794897
  9
$LOFTMAG1
 40
0.0
  9
$LOFTMAG2
 40
0.0
  9
$LOFTPARAM
 70
     7
  9
$LOFTNORMALS
280
     1
  9
$LATITUDE
 40
37.795
  9
$LONGITUDE
 40
-122.394
  9
$NORTHDIRECTION
 40
0.0
  9
$TIMEZONE
 70
 -8000
  9
$LIGHTGLYPHDISPLAY
280
     1
  9
$TILEMODELIGHTSYNCH
280
     1
  9
$CMATERIAL
347
3C
  9
$SOLIDHIST
280
     1
  9
$SHOWHIST
280
     1
  9
$DWFFRAME
280
     2
  9
$DGNFRAME
280
     2
  9
$REALWORLDSCALE
290
     1
  9
$INTERFERECOLOR
 62
   256
  9
$CSHADOW
280
     0
  9
$SHADOWPLANELOCATION
 40
0.0
  0
ENDSEC
  0
SECTION
  2
CLASSES
  0
CLASS
  1
ACDBDICTIONARYWDFLT
  2
AcDbDictionaryWithDefault
  3
ObjectDBX Classes
 90
        0
 91
        4
280
     0
281
     0
  0
CLASS
  1
VISUALSTYLE
  2
AcDbVisualStyle
  3
ObjectDBX Classes
 90
     4095
 91
        4
280
     0
281
     0
  0
CLASS
  1
MATERIAL
  2
AcDbMaterial
  3
ObjectDBX Classes
 90
     1153
 91
        4
280
     0
281
     0
  0
CLASS
  1
SUN
  2
AcDbSun
  3
SCENEOE
 90
     1024
 91
        4
280
     0
281
     0
  0
ENDSEC
  0
SECTION
  2
TABLES
  0
TABLE
  2
VPORT
  5
8
330
0
100
AcDbSymbolTable
 70
     1
  0
VPORT
  5
29
330
8
100
AcDbSymbolTableRecord
100
AcDbViewportTableRecord
  2
*Active
 70
     0
 10
0.0
 20
0.0
 11
1.0
 21
1.0
 12
0.0
 22
0.0
 13
0.0
 23
0.0
 14
0.5
 24
0.5
 15
0.5
 25
0.5
 16
0.0
 26
0.0
 36
1.0
 17
105.0007777515277
 27
148.5000416295417
 37
0.0
 40
297.0000832590835
 41
0.7070757462376325
 42
50.0
 43
0.0
 44
0.0
 50
0.0
 51
0.0
 71
     0
 72
   100
 73
     1
 74
     3
 75
     0
 76
     0
 77
     0
 78
     0
281
     0
 65
     1
110
0.0
120
0.0
130
0.0
111
1.0
121
0.0
131
0.0
112
0.0
122
1.0
132
0.0
 79
     0
146
0.0
 60
     3
 61
     5
292
     1
282
     1
141
0.0
142
0.0
 63
   250
361
3F
  0
ENDTAB
  0
TABLE
  2
LTYPE
  5
5
330
0
100
AcDbSymbolTable
 70
    27
  0
LTYPE
  5
14
330
5
100
AcDbSymbolTableRecord
100
AcDbLinetypeTableRecord
  2
ByBlock
 70
     0
  3

 72
    65
 73
     0
 40
0.0
  0
LTYPE
  5
15
330
5
100
AcDbSymbolTableRecord
100
AcDbLinetypeTableRecord
  2
ByLayer
 70
     0
  3

 72
    65
 73
     0
 40
0.0
  0
LTYPE
  5
16
330
5
100
AcDbSymbolTableRecord
100
AcDbLinetypeTableRecord
  2
Continuous
 70
     0
  3
Solid line
 72
    65
 73
     0
 40
0.0
  0
LTYPE
  5
19A
330
5
100
AcDbSymbolTableRecord
100
AcDbLinetypeTableRecord
  2
AI-Linetype-1
 70
     0
  3
Adobe Illustrator Linetype No. 1
 72
    65
 73
     2
 40
224.9990381102203
 49
179.9992304881762
 74
     0
 49
-44.99980762204405
 74
     0
  0
LTYPE
  5
1A1
330
5
100
AcDbSymbolTableRecord
100
AcDbLinetypeTableRecord
  2
AI-Linetype-2
 70
     0
  3
Adobe Illustrator Linetype No. 2
 72
    65
 73
     2
 40
224.9990381102203
 49
179.9992304881762
 74
     0
 49
-44.99980762204405
 74
     0
  0
LTYPE
  5
1B5
330
5
100
AcDbSymbolTableRecord
100
AcDbLinetypeTableRecord
  2
AI-Linetype-3
 70
     0
  3
Adobe Illustrator Linetype No. 3
 72
    65
 73
     2
 40
224.9990381102203
 49
179.9992304881762
 74
     0
 49
-44.99980762204405
 74
     0
  0
LTYPE
  5
1CD
330
5
100
AcDbSymbolTableRecord
100
AcDbLinetypeTableRecord
  2
AI-Linetype-4
 70
     0
  3
Adobe Illustrator Linetype No. 4
 72
    65
 73
     2
 40
224.9990381102203
 49
179.9992304881762
 74
     0
 49
-44.99980762204405
 74
     0
  0
LTYPE
  5
1F7
330
5
100
AcDbSymbolTableRecord
100
AcDbLinetypeTableRecord
  2
AI-Linetype-5
 70
     0
  3
Adobe Illustrator Linetype No. 5
 72
    65
 73
     2
 40
224.9990381102203
 49
179.9992304881762
 74
     0
 49
-44.99980762204405
 74
     0
  0
LTYPE
  5
1FE
330
5
100
AcDbSymbolTableRecord
100
AcDbLinetypeTableRecord
  2
AI-Linetype-6
 70
     0
  3
Adobe Illustrator Linetype No. 6
 72
    65
 73
     2
 40
224.9990381102203
 49
179.9992304881762
 74
     0
 49
-44.99980762204405
 74
     0
  0
LTYPE
  5
25C
330
5
100
AcDbSymbolTableRecord
100
AcDbLinetypeTableRecord
  2
AI-Linetype-7
 70
     0
  3
Adobe Illustrator Linetype No. 7
 72
    65
 73
     2
 40
7.148194978834289
 49
3.574097489417145
 74
     0
 49
-3.574097489417145
 74
     0
  0
LTYPE
  5
261
330
5
100
AcDbSymbolTableRecord
100
AcDbLinetypeTableRecord
  2
AI-Linetype-8
 70
     0
  3
Adobe Illustrator Linetype No. 8
 72
    65
 73
     4
 40
32.1670348563839
 49
21.44474238813247
 74
     0
 49
-3.574097489417145
 74
     0
 49
3.574097489417145
 74
     0
 49
-3.574097489417145
 74
     0
  0
LTYPE
  5
27A
330
5
100
AcDbSymbolTableRecord
100
AcDbLinetypeTableRecord
  2
AI-Linetype-9
 70
     0
  3
Adobe Illustrator Linetype No. 9
 72
    65
 73
     2
 40
7.148180175689626
 49
3.574090087844813
 74
     0
 49
-3.574090087844813
 74
     0
  0
LTYPE
  5
27F
330
5
100
AcDbSymbolTableRecord
100
AcDbLinetypeTableRecord
  2
AI-Linetype-10
 70
     0
  3
Adobe Illustrator Linetype No. 10
 72
    65
 73
     4
 40
32.16696958797334
 49
21.4446993244389
 74
     0
 49
-3.574090087844813
 74
     0
 49
3.574090087844813
 74
     0
 49
-3.574090087844813
 74
     0
  0
LTYPE
  5
28F
330
5
100
AcDbSymbolTableRecord
100
AcDbLinetypeTableRecord
  2
AI-Linetype-11
 70
     0
  3
Adobe Illustrator Linetype No. 11
 72
    65
 73
     2
 40
15.30208465405548
 49
7.651042327027738
 74
     0
 49
-7.651042327027738
 74
     0
  0
LTYPE
  5
29F
330
5
100
AcDbSymbolTableRecord
100
AcDbLinetypeTableRecord
  2
AI-Linetype-12
 70
     0
  3
Adobe Illustrator Linetype No. 12
 72
    65
 73
     2
 40
15.49501672993159
 49
7.747508364965793
 74
     0
 49
-7.747508364965793
 74
     0
  0
LTYPE
  5
2AF
330
5
100
AcDbSymbolTableRecord
100
AcDbLinetypeTableRecord
  2
AI-Linetype-13
 70
     0
  3
Adobe Illustrator Linetype No. 13
 72
    65
 73
     2
 40
15.02982252592937
 49
7.514911262964683
 74
     0
 49
-7.514911262964683
 74
     0
  0
LTYPE
  5
2BF
330
5
100
AcDbSymbolTableRecord
100
AcDbLinetypeTableRecord
  2
AI-Linetype-14
 70
     0
  3
Adobe Illustrator Linetype No. 14
 72
    65
 73
     2
 40
13.18514480261192
 49
6.592572401305959
 74
     0
 49
-6.592572401305959
 74
     0
  0
LTYPE
  5
2CF
330
5
100
AcDbSymbolTableRecord
100
AcDbLinetypeTableRecord
  2
AI-Linetype-15
 70
     0
  3
Adobe Illustrator Linetype No. 15
 72
    65
 73
     2
 40
15.30208465405548
 49
7.651042327027738
 74
     0
 49
-7.651042327027738
 74
     0
  0
LTYPE
  5
2DF
330
5
100
AcDbSymbolTableRecord
100
AcDbLinetypeTableRecord
  2
AI-Linetype-16
 70
     0
  3
Adobe Illustrator Linetype No. 16
 72
    65
 73
     2
 40
15.49501672993159
 49
7.747508364965793
 74
     0
 49
-7.747508364965793
 74
     0
  0
LTYPE
  5
2EF
330
5
100
AcDbSymbolTableRecord
100
AcDbLinetypeTableRecord
  2
AI-Linetype-17
 70
     0
  3
Adobe Illustrator Linetype No. 17
 72
    65
 73
     2
 40
15.02982252592937
 49
7.514911262964683
 74
     0
 49
-7.514911262964683
 74
     0
  0
LTYPE
  5
2FF
330
5
100
AcDbSymbolTableRecord
100
AcDbLinetypeTableRecord
  2
AI-Linetype-18
 70
     0
  3
Adobe Illustrator Linetype No. 18
 72
    65
 73
     2
 40
13.18514480261192
 49
6.592572401305959
 74
     0
 49
-6.592572401305959
 74
     0
  0
LTYPE
  5
30F
330
5
100
AcDbSymbolTableRecord
100
AcDbLinetypeTableRecord
  2
AI-Linetype-19
 70
     0
  3
Adobe Illustrator Linetype No. 19
 72
    65
 73
     2
 40
15.30208465405548
 49
7.651042327027738
 74
     0
 49
-7.651042327027738
 74
     0
  0
LTYPE
  5
31F
330
5
100
AcDbSymbolTableRecord
100
AcDbLinetypeTableRecord
  2
AI-Linetype-20
 70
     0
  3
Adobe Illustrator Linetype No. 20
 72
    65
 73
     2
 40
15.49501672993159
 49
7.747508364965793
 74
     0
 49
-7.747508364965793
 74
     0
  0
LTYPE
  5
32F
330
5
100
AcDbSymbolTableRecord
100
AcDbLinetypeTableRecord
  2
AI-Linetype-21
 70
     0
  3
Adobe Illustrator Linetype No. 21
 72
    65
 73
     2
 40
15.02982252592937
 49
7.514911262964683
 74
     0
 49
-7.514911262964683
 74
     0
  0
LTYPE
  5
33F
330
5
100
AcDbSymbolTableRecord
100
AcDbLinetypeTableRecord
  2
AI-Linetype-22
 70
     0
  3
Adobe Illustrator Linetype No. 22
 72
    65
 73
     2
 40
13.18514480261192
 49
6.592572401305959
 74
     0
 49
-6.592572401305959
 74
     0
  0
LTYPE
  5
34F
330
5
100
AcDbSymbolTableRecord
100
AcDbLinetypeTableRecord
  2
AI-Linetype-23
 70
     0
  3
Adobe Illustrator Linetype No. 23
 72
    65
 73
     2
 40
15.30208465405548
 49
7.651042327027738
 74
     0
 49
-7.651042327027738
 74
     0
  0
LTYPE
  5
35F
330
5
100
AcDbSymbolTableRecord
100
AcDbLinetypeTableRecord
  2
AI-Linetype-24
 70
     0
  3
Adobe Illustrator Linetype No. 24
 72
    65
 73
     2
 40
15.49501672993159
 49
7.747508364965793
 74
     0
 49
-7.747508364965793
 74
     0
  0
LTYPE
  5
36F
330
5
100
AcDbSymbolTableRecord
100
AcDbLinetypeTableRecord
  2
AI-Linetype-25
 70
     0
  3
Adobe Illustrator Linetype No. 25
 72
    65
 73
     2
 40
15.02982252592937
 49
7.514911262964683
 74
     0
 49
-7.514911262964683
 74
     0
  0
LTYPE
  5
37F
330
5
100
AcDbSymbolTableRecord
100
AcDbLinetypeTableRecord
  2
AI-Linetype-26
 70
     0
  3
Adobe Illustrator Linetype No. 26
 72
    65
 73
     2
 40
13.18514480261192
 49
6.592572401305959
 74
     0
 49
-6.592572401305959
 74
     0
  0
ENDTAB
  0
TABLE
  2
LAYER
  5
2
330
0
100
AcDbSymbolTable
 70
     1
  0
LAYER
  5
10
330
2
100
AcDbSymbolTableRecord
100
AcDbLayerTableRecord
  2
0
 70
     0
 62
     7
  6
Continuous
370
    -3
390
F
347
3E
  0
ENDTAB
  0
TABLE
  2
STYLE
  5
3
330
0
100
AcDbSymbolTable
 70
     1
  0
STYLE
  5
11
330
3
100
AcDbSymbolTableRecord
100
AcDbTextStyleTableRecord
  2
Standard
 70
     0
 40
0.0
 41
1.0
 50
0.0
 71
     0
 42
0.2
  3
txt
  4

  0
ENDTAB
  0
TABLE
  2
VIEW
  5
6
330
0
100
AcDbSymbolTable
 70
     0
  0
ENDTAB
  0
TABLE
  2
UCS
  5
7
330
0
100
AcDbSymbolTable
 70
     0
  0
ENDTAB
  0
TABLE
  2
APPID
  5
9
330
0
100
AcDbSymbolTable
 70
     1
  0
APPID
  5
12
330
9
100
AcDbSymbolTableRecord
100
AcDbRegAppTableRecord
  2
ACAD
 70
     0
  0
ENDTAB
  0
TABLE
  2
DIMSTYLE
  5
A
330
0
100
AcDbSymbolTable
 70
     1
100
AcDbDimStyleTable
  0
DIMSTYLE
105
27
330
A
100
AcDbSymbolTableRecord
100
AcDbDimStyleTableRecord
  2
Standard
 70
     0
178
     0
340
11
  0
ENDTAB
  0
TABLE
  2
BLOCK_RECORD
  5
1
330
0
100
AcDbSymbolTable
 70
    99
  0
BLOCK_RECORD
  5
1F
330
1
100
AcDbSymbolTableRecord
100
AcDbBlockTableRecord
  2
*Model_Space
340
22
 70
     0
280
     1
281
     0
  0
BLOCK_RECORD
  5
1B
330
1
100
AcDbSymbolTableRecord
100
AcDbBlockTableRecord
  2
*Paper_Space
340
1E
 70
     0
280
     1
281
     0
  0
BLOCK_RECORD
  5
23
330
1
100
AcDbSymbolTableRecord
100
AcDbBlockTableRecord
  2
*Paper_Space0
340
26
 70
     0
280
     1
281
     0
  0
BLOCK_RECORD
  5
40
330
1
100
AcDbSymbolTableRecord
100
AcDbBlockTableRecord
  2
block 2
340
0
102
{BLKREFS
331
41
102
}
 70
     0
280
     1
281
     0
  0
BLOCK_RECORD
  5
45
330
1
100
AcDbSymbolTableRecord
100
AcDbBlockTableRecord
  2
block 3
340
0
102
{BLKREFS
331
46
102
}
 70
     0
280
     1
281
     0
  0
BLOCK_RECORD
  5
4A
330
1
100
AcDbSymbolTableRecord
100
AcDbBlockTableRecord
  2
block 4
340
0
102
{BLKREFS
331
4B
102
}
 70
     0
280
     1
281
     0
  0
BLOCK_RECORD
  5
4F
330
1
100
AcDbSymbolTableRecord
100
AcDbBlockTableRecord
  2
block 5
340
0
102
{BLKREFS
331
50
102
}
 70
     0
280
     1
281
     0
  0
BLOCK_RECORD
  5
54
330
1
100
AcDbSymbolTableRecord
100
AcDbBlockTableRecord
  2
block 6
340
0
102
{BLKREFS
331
55
102
}
 70
     0
280
     1
281
     0
  0
BLOCK_RECORD
  5
59
330
1
100
AcDbSymbolTableRecord
100
AcDbBlockTableRecord
  2
block 7
340
0
102
{BLKREFS
331
5A
102
}
 70
     0
280
     1
281
     0
  0
BLOCK_RECORD
  5
5E
330
1
100
AcDbSymbolTableRecord
100
AcDbBlockTableRecord
  2
block 8
340
0
102
{BLKREFS
331
5F
102
}
 70
     0
280
     1
281
     0
  0
BLOCK_RECORD
  5
7D
330
1
100
AcDbSymbolTableRecord
100
AcDbBlockTableRecord
  2
block 9
340
0
102
{BLKREFS
331
7E
102
}
 70
     0
280
     1
281
     0
  0
BLOCK_RECORD
  5
8E
330
1
100
AcDbSymbolTableRecord
100
AcDbBlockTableRecord
  2
block 10
340
0
102
{BLKREFS
331
8F
102
}
 70
     0
280
     1
281
     0
  0
BLOCK_RECORD
  5
B1
330
1
100
AcDbSymbolTableRecord
100
AcDbBlockTableRecord
  2
block 11
340
0
102
{BLKREFS
331
B2
102
}
 70
     0
280
     1
281
     0
  0
BLOCK_RECORD
  5
C8
330
1
100
AcDbSymbolTableRecord
100
AcDbBlockTableRecord
  2
block 12
340
0
102
{BLKREFS
331
C9
102
}
 70
     0
280
     1
281
     0
  0
BLOCK_RECORD
  5
D8
330
1
100
AcDbSymbolTableRecord
100
AcDbBlockTableRecord
  2
block 13
340
0
102
{BLKREFS
331
D9
102
}
 70
     0
280
     1
281
     0
  0
BLOCK_RECORD
  5
DF
330
1
100
AcDbSymbolTableRecord
100
AcDbBlockTableRecord
  2
block 14
340
0
102
{BLKREFS
331
E0
102
}
 70
     0
280
     1
281
     0
  0
BLOCK_RECORD
  5
E6
330
1
100
AcDbSymbolTableRecord
100
AcDbBlockTableRecord
  2
block 15
340
0
102
{BLKREFS
331
E7
102
}
 70
     0
280
     1
281
     0
  0
BLOCK_RECORD
  5
ED
330
1
100
AcDbSymbolTableRecord
100
AcDbBlockTableRecord
  2
block 16
340
0
102
{BLKREFS
331
EE
102
}
 70
     0
280
     1
281
     0
  0
BLOCK_RECORD
  5
F4
330
1
100
AcDbSymbolTableRecord
100
AcDbBlockTableRecord
  2
block 17
340
0
102
{BLKREFS
331
F5
102
}
 70
     0
280
     1
281
     0
  0
BLOCK_RECORD
  5
FB
330
1
100
AcDbSymbolTableRecord
100
AcDbBlockTableRecord
  2
block 18
340
0
102
{BLKREFS
331
FC
102
}
 70
     0
280
     1
281
     0
  0
BLOCK_RECORD
  5
10C
330
1
100
AcDbSymbolTableRecord
100
AcDbBlockTableRecord
  2
block 19
340
0
102
{BLKREFS
331
10D
102
}
 70
     0
280
     1
281
     0
  0
BLOCK_RECORD
  5
135
330
1
100
AcDbSymbolTableRecord
100
AcDbBlockTableRecord
  2
block 20
340
0
102
{BLKREFS
331
136
102
}
 70
     0
280
     1
281
     0
  0
BLOCK_RECORD
  5
15E
330
1
100
AcDbSymbolTableRecord
100
AcDbBlockTableRecord
  2
block 21
340
0
102
{BLKREFS
331
15F
102
}
 70
     0
280
     1
281
     0
  0
BLOCK_RECORD
  5
16F
330
1
100
AcDbSymbolTableRecord
100
AcDbBlockTableRecord
  2
block 22
340
0
102
{BLKREFS
331
170
102
}
 70
     0
280
     1
281
     0
  0
BLOCK_RECORD
  5
180
330
1
100
AcDbSymbolTableRecord
100
AcDbBlockTableRecord
  2
block 23
340
0
102
{BLKREFS
331
181
102
}
 70
     0
280
     1
281
     0
  0
BLOCK_RECORD
  5
19C
330
1
100
AcDbSymbolTableRecord
100
AcDbBlockTableRecord
  2
block 24
340
0
102
{BLKREFS
331
19D
102
}
 70
     0
280
     1
281
     0
  0
BLOCK_RECORD
  5
1A2
330
1
100
AcDbSymbolTableRecord
100
AcDbBlockTableRecord
  2
block 25
340
0
102
{BLKREFS
331
1A3
102
}
 70
     0
280
     1
281
     0
  0
BLOCK_RECORD
  5
1B7
330
1
100
AcDbSymbolTableRecord
100
AcDbBlockTableRecord
  2
block 26
340
0
102
{BLKREFS
331
1B8
102
}
 70
     0
280
     1
281
     0
  0
BLOCK_RECORD
  5
1C8
330
1
100
AcDbSymbolTableRecord
100
AcDbBlockTableRecord
  2
block 27
340
0
102
{BLKREFS
331
1C9
102
}
 70
     0
280
     1
281
     0
  0
BLOCK_RECORD
  5
1CE
330
1
100
AcDbSymbolTableRecord
100
AcDbBlockTableRecord
  2
block 28
340
0
102
{BLKREFS
331
1CF
102
}
 70
     0
280
     1
281
     0
  0
BLOCK_RECORD
  5
1D3
330
1
100
AcDbSymbolTableRecord
100
AcDbBlockTableRecord
  2
block 29
340
0
102
{BLKREFS
331
1D4
102
}
 70
     0
280
     1
281
     0
  0
BLOCK_RECORD
  5
1E4
330
1
100
AcDbSymbolTableRecord
100
AcDbBlockTableRecord
  2
block 30
340
0
102
{BLKREFS
331
1E5
102
}
 70
     0
280
     1
281
     0
  0
BLOCK_RECORD
  5
1F9
330
1
100
AcDbSymbolTableRecord
100
AcDbBlockTableRecord
  2
block 31
340
0
102
{BLKREFS
331
1FA
102
}
 70
     0
280
     1
281
     0
  0
BLOCK_RECORD
  5
1FF
330
1
100
AcDbSymbolTableRecord
100
AcDbBlockTableRecord
  2
block 32
340
0
102
{BLKREFS
331
200
102
}
 70
     0
280
     1
281
     0
  0
BLOCK_RECORD
  5
21A
330
1
100
AcDbSymbolTableRecord
100
AcDbBlockTableRecord
  2
block 33
340
0
102
{BLKREFS
331
21B
102
}
 70
     0
280
     1
281
     0
  0
BLOCK_RECORD
  5
22B
330
1
100
AcDbSymbolTableRecord
100
AcDbBlockTableRecord
  2
block 34
340
0
102
{BLKREFS
331
22C
102
}
 70
     0
280
     1
281
     0
  0
BLOCK_RECORD
  5
230
330
1
100
AcDbSymbolTableRecord
100
AcDbBlockTableRecord
  2
block 35
340
0
102
{BLKREFS
331
231
102
}
 70
     0
280
     1
281
     0
  0
BLOCK_RECORD
  5
235
330
1
100
AcDbSymbolTableRecord
100
AcDbBlockTableRecord
  2
block 36
340
0
102
{BLKREFS
331
236
102
}
 70
     0
280
     1
281
     0
  0
BLOCK_RECORD
  5
23A
330
1
100
AcDbSymbolTableRecord
100
AcDbBlockTableRecord
  2
block 37
340
0
102
{BLKREFS
331
23B
102
}
 70
     0
280
     1
281
     0
  0
BLOCK_RECORD
  5
23F
330
1
100
AcDbSymbolTableRecord
100
AcDbBlockTableRecord
  2
block 38
340
0
102
{BLKREFS
331
240
102
}
 70
     0
280
     1
281
     0
  0
BLOCK_RECORD
  5
244
330
1
100
AcDbSymbolTableRecord
100
AcDbBlockTableRecord
  2
block 39
340
0
102
{BLKREFS
331
245
102
}
 70
     0
280
     1
281
     0
  0
BLOCK_RECORD
  5
249
330
1
100
AcDbSymbolTableRecord
100
AcDbBlockTableRecord
  2
block 40
340
0
102
{BLKREFS
331
24A
102
}
 70
     0
280
     1
281
     0
  0
BLOCK_RECORD
  5
24D
330
1
100
AcDbSymbolTableRecord
100
AcDbBlockTableRecord
  2
block 41
340
0
102
{BLKREFS
331
24E
102
}
 70
     0
280
     1
281
     0
  0
BLOCK_RECORD
  5
251
330
1
100
AcDbSymbolTableRecord
100
AcDbBlockTableRecord
  2
block 42
340
0
102
{BLKREFS
331
252
102
}
 70
     0
280
     1
281
     0
  0
BLOCK_RECORD
  5
267
330
1
100
AcDbSymbolTableRecord
100
AcDbBlockTableRecord
  2
block 43
340
0
102
{BLKREFS
331
268
102
}
 70
     0
280
     1
281
     0
  0
BLOCK_RECORD
  5
26B
330
1
100
AcDbSymbolTableRecord
100
AcDbBlockTableRecord
  2
block 44
340
0
102
{BLKREFS
331
26C
102
}
 70
     0
280
     1
281
     0
  0
BLOCK_RECORD
  5
26F
330
1
100
AcDbSymbolTableRecord
100
AcDbBlockTableRecord
  2
block 45
340
0
102
{BLKREFS
331
270
102
}
 70
     0
280
     1
281
     0
  0
BLOCK_RECORD
  5
285
330
1
100
AcDbSymbolTableRecord
100
AcDbBlockTableRecord
  2
block 46
340
0
102
{BLKREFS
331
286
102
}
 70
     0
280
     1
281
     0
  0
BLOCK_RECORD
  5
28A
330
1
100
AcDbSymbolTableRecord
100
AcDbBlockTableRecord
  2
block 47
340
0
102
{BLKREFS
331
28B
102
}
 70
     0
280
     1
281
     0
  0
BLOCK_RECORD
  5
290
330
1
100
AcDbSymbolTableRecord
100
AcDbBlockTableRecord
  2
block 48
340
0
102
{BLKREFS
331
291
102
}
 70
     0
280
     1
281
     0
  0
BLOCK_RECORD
  5
295
330
1
100
AcDbSymbolTableRecord
100
AcDbBlockTableRecord
  2
block 49
340
0
102
{BLKREFS
331
296
102
}
 70
     0
280
     1
281
     0
  0
BLOCK_RECORD
  5
29A
330
1
100
AcDbSymbolTableRecord
100
AcDbBlockTableRecord
  2
block 50
340
0
102
{BLKREFS
331
29B
102
}
 70
     0
280
     1
281
     0
  0
BLOCK_RECORD
  5
2A0
330
1
100
AcDbSymbolTableRecord
100
AcDbBlockTableRecord
  2
block 51
340
0
102
{BLKREFS
331
2A1
102
}
 70
     0
280
     1
281
     0
  0
BLOCK_RECORD
  5
2A5
330
1
100
AcDbSymbolTableRecord
100
AcDbBlockTableRecord
  2
block 52
340
0
102
{BLKREFS
331
2A6
102
}
 70
     0
280
     1
281
     0
  0
BLOCK_RECORD
  5
2AA
330
1
100
AcDbSymbolTableRecord
100
AcDbBlockTableRecord
  2
block 53
340
0
102
{BLKREFS
331
2AB
102
}
 70
     0
280
     1
281
     0
  0
BLOCK_RECORD
  5
2B0
330
1
100
AcDbSymbolTableRecord
100
AcDbBlockTableRecord
  2
block 54
340
0
102
{BLKREFS
331
2B1
102
}
 70
     0
280
     1
281
     0
  0
BLOCK_RECORD
  5
2B5
330
1
100
AcDbSymbolTableRecord
100
AcDbBlockTableRecord
  2
block 55
340
0
102
{BLKREFS
331
2B6
102
}
 70
     0
280
     1
281
     0
  0
BLOCK_RECORD
  5
2BA
330
1
100
AcDbSymbolTableRecord
100
AcDbBlockTableRecord
  2
block 56
340
0
102
{BLKREFS
331
2BB
102
}
 70
     0
280
     1
281
     0
  0
BLOCK_RECORD
  5
2C0
330
1
100
AcDbSymbolTableRecord
100
AcDbBlockTableRecord
  2
block 57
340
0
102
{BLKREFS
331
2C1
102
}
 70
     0
280
     1
281
     0
  0
BLOCK_RECORD
  5
2C5
330
1
100
AcDbSymbolTableRecord
100
AcDbBlockTableRecord
  2
block 58
340
0
102
{BLKREFS
331
2C6
102
}
 70
     0
280
     1
281
     0
  0
BLOCK_RECORD
  5
2CA
330
1
100
AcDbSymbolTableRecord
100
AcDbBlockTableRecord
  2
block 59
340
0
102
{BLKREFS
331
2CB
102
}
 70
     0
280
     1
281
     0
  0
BLOCK_RECORD
  5
2D0
330
1
100
AcDbSymbolTableRecord
100
AcDbBlockTableRecord
  2
block 60
340
0
102
{BLKREFS
331
2D1
102
}
 70
     0
280
     1
281
     0
  0
BLOCK_RECORD
  5
2D5
330
1
100
AcDbSymbolTableRecord
100
AcDbBlockTableRecord
  2
block 61
340
0
102
{BLKREFS
331
2D6
102
}
 70
     0
280
     1
281
     0
  0
BLOCK_RECORD
  5
2DA
330
1
100
AcDbSymbolTableRecord
100
AcDbBlockTableRecord
  2
block 62
340
0
102
{BLKREFS
331
2DB
102
}
 70
     0
280
     1
281
     0
  0
BLOCK_RECORD
  5
2E0
330
1
100
AcDbSymbolTableRecord
100
AcDbBlockTableRecord
  2
block 63
340
0
102
{BLKREFS
331
2E1
102
}
 70
     0
280
     1
281
     0
  0
BLOCK_RECORD
  5
2E5
330
1
100
AcDbSymbolTableRecord
100
AcDbBlockTableRecord
  2
block 64
340
0
102
{BLKREFS
331
2E6
102
}
 70
     0
280
     1
281
     0
  0
BLOCK_RECORD
  5
2EA
330
1
100
AcDbSymbolTableRecord
100
AcDbBlockTableRecord
  2
block 65
340
0
102
{BLKREFS
331
2EB
102
}
 70
     0
280
     1
281
     0
  0
BLOCK_RECORD
  5
2F0
330
1
100
AcDbSymbolTableRecord
100
AcDbBlockTableRecord
  2
block 66
340
0
102
{BLKREFS
331
2F1
102
}
 70
     0
280
     1
281
     0
  0
BLOCK_RECORD
  5
2F5
330
1
100
AcDbSymbolTableRecord
100
AcDbBlockTableRecord
  2
block 67
340
0
102
{BLKREFS
331
2F6
102
}
 70
     0
280
     1
281
     0
  0
BLOCK_RECORD
  5
2FA
330
1
100
AcDbSymbolTableRecord
100
AcDbBlockTableRecord
  2
block 68
340
0
102
{BLKREFS
331
2FB
102
}
 70
     0
280
     1
281
     0
  0
BLOCK_RECORD
  5
300
330
1
100
AcDbSymbolTableRecord
100
AcDbBlockTableRecord
  2
block 69
340
0
102
{BLKREFS
331
301
102
}
 70
     0
280
     1
281
     0
  0
BLOCK_RECORD
  5
305
330
1
100
AcDbSymbolTableRecord
100
AcDbBlockTableRecord
  2
block 70
340
0
102
{BLKREFS
331
306
102
}
 70
     0
280
     1
281
     0
  0
BLOCK_RECORD
  5
30A
330
1
100
AcDbSymbolTableRecord
100
AcDbBlockTableRecord
  2
block 71
340
0
102
{BLKREFS
331
30B
102
}
 70
     0
280
     1
281
     0
  0
BLOCK_RECORD
  5
310
330
1
100
AcDbSymbolTableRecord
100
AcDbBlockTableRecord
  2
block 72
340
0
102
{BLKREFS
331
311
102
}
 70
     0
280
     1
281
     0
  0
BLOCK_RECORD
  5
315
330
1
100
AcDbSymbolTableRecord
100
AcDbBlockTableRecord
  2
block 73
340
0
102
{BLKREFS
331
316
102
}
 70
     0
280
     1
281
     0
  0
BLOCK_RECORD
  5
31A
330
1
100
AcDbSymbolTableRecord
100
AcDbBlockTableRecord
  2
block 74
340
0
102
{BLKREFS
331
31B
102
}
 70
     0
280
     1
281
     0
  0
BLOCK_RECORD
  5
320
330
1
100
AcDbSymbolTableRecord
100
AcDbBlockTableRecord
  2
block 75
340
0
102
{BLKREFS
331
321
102
}
 70
     0
280
     1
281
     0
  0
BLOCK_RECORD
  5
325
330
1
100
AcDbSymbolTableRecord
100
AcDbBlockTableRecord
  2
block 76
340
0
102
{BLKREFS
331
326
102
}
 70
     0
280
     1
281
     0
  0
BLOCK_RECORD
  5
32A
330
1
100
AcDbSymbolTableRecord
100
AcDbBlockTableRecord
  2
block 77
340
0
102
{BLKREFS
331
32B
102
}
 70
     0
280
     1
281
     0
  0
BLOCK_RECORD
  5
330
330
1
100
AcDbSymbolTableRecord
100
AcDbBlockTableRecord
  2
block 78
340
0
102
{BLKREFS
331
331
102
}
 70
     0
280
     1
281
     0
  0
BLOCK_RECORD
  5
335
330
1
100
AcDbSymbolTableRecord
100
AcDbBlockTableRecord
  2
block 79
340
0
102
{BLKREFS
331
336
102
}
 70
     0
280
     1
281
     0
  0
BLOCK_RECORD
  5
33A
330
1
100
AcDbSymbolTableRecord
100
AcDbBlockTableRecord
  2
block 80
340
0
102
{BLKREFS
331
33B
102
}
 70
     0
280
     1
281
     0
  0
BLOCK_RECORD
  5
340
330
1
100
AcDbSymbolTableRecord
100
AcDbBlockTableRecord
  2
block 81
340
0
102
{BLKREFS
331
341
102
}
 70
     0
280
     1
281
     0
  0
BLOCK_RECORD
  5
345
330
1
100
AcDbSymbolTableRecord
100
AcDbBlockTableRecord
  2
block 82
340
0
102
{BLKREFS
331
346
102
}
 70
     0
280
     1
281
     0
  0
BLOCK_RECORD
  5
34A
330
1
100
AcDbSymbolTableRecord
100
AcDbBlockTableRecord
  2
block 83
340
0
102
{BLKREFS
331
34B
102
}
 70
     0
280
     1
281
     0
  0
BLOCK_RECORD
  5
350
330
1
100
AcDbSymbolTableRecord
100
AcDbBlockTableRecord
  2
block 84
340
0
102
{BLKREFS
331
351
102
}
 70
     0
280
     1
281
     0
  0
BLOCK_RECORD
  5
355
330
1
100
AcDbSymbolTableRecord
100
AcDbBlockTableRecord
  2
block 85
340
0
102
{BLKREFS
331
356
102
}
 70
     0
280
     1
281
     0
  0
BLOCK_RECORD
  5
35A
330
1
100
AcDbSymbolTableRecord
100
AcDbBlockTableRecord
  2
block 86
340
0
102
{BLKREFS
331
35B
102
}
 70
     0
280
     1
281
     0
  0
BLOCK_RECORD
  5
360
330
1
100
AcDbSymbolTableRecord
100
AcDbBlockTableRecord
  2
block 87
340
0
102
{BLKREFS
331
361
102
}
 70
     0
280
     1
281
     0
  0
BLOCK_RECORD
  5
365
330
1
100
AcDbSymbolTableRecord
100
AcDbBlockTableRecord
  2
block 88
340
0
102
{BLKREFS
331
366
102
}
 70
     0
280
     1
281
     0
  0
BLOCK_RECORD
  5
36A
330
1
100
AcDbSymbolTableRecord
100
AcDbBlockTableRecord
  2
block 89
340
0
102
{BLKREFS
331
36B
102
}
 70
     0
280
     1
281
     0
  0
BLOCK_RECORD
  5
370
330
1
100
AcDbSymbolTableRecord
100
AcDbBlockTableRecord
  2
block 90
340
0
102
{BLKREFS
331
371
102
}
 70
     0
280
     1
281
     0
  0
BLOCK_RECORD
  5
375
330
1
100
AcDbSymbolTableRecord
100
AcDbBlockTableRecord
  2
block 91
340
0
102
{BLKREFS
331
376
102
}
 70
     0
280
     1
281
     0
  0
BLOCK_RECORD
  5
37A
330
1
100
AcDbSymbolTableRecord
100
AcDbBlockTableRecord
  2
block 92
340
0
102
{BLKREFS
331
37B
102
}
 70
     0
280
     1
281
     0
  0
BLOCK_RECORD
  5
380
330
1
100
AcDbSymbolTableRecord
100
AcDbBlockTableRecord
  2
block 93
340
0
102
{BLKREFS
331
381
102
}
 70
     0
280
     1
281
     0
  0
BLOCK_RECORD
  5
385
330
1
100
AcDbSymbolTableRecord
100
AcDbBlockTableRecord
  2
block 94
340
0
102
{BLKREFS
331
386
102
}
 70
     0
280
     1
281
     0
  0
BLOCK_RECORD
  5
38A
330
1
100
AcDbSymbolTableRecord
100
AcDbBlockTableRecord
  2
block 95
340
0
102
{BLKREFS
331
38B
102
}
 70
     0
280
     1
281
     0
  0
BLOCK_RECORD
  5
3A5
330
1
100
AcDbSymbolTableRecord
100
AcDbBlockTableRecord
  2
block 96
340
0
102
{BLKREFS
331
3A6
102
}
 70
     0
280
     1
281
     0
  0
BLOCK_RECORD
  5
3C0
330
1
100
AcDbSymbolTableRecord
100
AcDbBlockTableRecord
  2
block 97
340
0
102
{BLKREFS
331
3C1
102
}
 70
     0
280
     1
281
     0
  0
BLOCK_RECORD
  5
3C5
330
1
100
AcDbSymbolTableRecord
100
AcDbBlockTableRecord
  2
block 98
340
0
102
{BLKREFS
331
3C6
102
}
 70
     0
280
     1
281
     0
  0
BLOCK_RECORD
  5
3E0
330
1
100
AcDbSymbolTableRecord
100
AcDbBlockTableRecord
  2
block 99
340
0
102
{BLKREFS
331
3E1
102
}
 70
     0
280
     1
281
     0
  0
ENDTAB
  0
ENDSEC
  0
SECTION
  2
BLOCKS
  0
BLOCK
  5
20
330
1F
100
AcDbEntity
  8
0
100
AcDbBlockBegin
  2
*Model_Space
 70
     0
 10
0.0
 20
0.0
 30
0.0
  3
*Model_Space
  1

  0
ENDBLK
  5
21
330
1F
100
AcDbEntity
  8
0
100
AcDbBlockEnd
  0
BLOCK
  5
1C
330
1B
100
AcDbEntity
 67
     1
  8
0
100
AcDbBlockBegin
  2
*Paper_Space
 70
     0
 10
0.0
 20
0.0
 30
0.0
  3
*Paper_Space
  1

  0
ENDBLK
  5
1D
330
1B
100
AcDbEntity
 67
     1
  8
0
100
AcDbBlockEnd
  0
BLOCK
  5
24
330
23
100
AcDbEntity
  8
0
100
AcDbBlockBegin
  2
*Paper_Space0
 70
     0
 10
0.0
 20
0.0
 30
0.0
  3
*Paper_Space0
  1

  0
ENDBLK
  5
25
330
23
100
AcDbEntity
  8
0
100
AcDbBlockEnd
  0
BLOCK
  5
42
330
40
100
AcDbEntity
  8
0
100
AcDbBlockBegin
  2
block 2
 70
     0
 10
0.0
 20
0.0
 30
0.0
  3
block 2
  1

  0
SPLINE
  5
44
330
40
100
AcDbEntity
  8
0
 62
   250
370
    25
100
AcDbSpline
210
0.0
220
0.0
230
1.0
 70
     8
 71
     3
 72
   269
 73
   265
 74
     0
 42
0.0000000001
 43
0.0000000001
 12
1.0
 22
0.0
 32
0.0
 13
1.0
 23
0.0
 33
0.0
 40
0.0
 40
0.0
 40
0.0
 40
0.0
 40
1.0
 40
1.0
 40
1.0
 40
2.0
 40
2.0
 40
2.0
 40
3.0
 40
3.0
 40
3.0
 40
4.0
 40
4.0
 40
4.0
 40
5.0
 40
5.0
 40
5.0
 40
6.0
 40
6.0
 40
6.0
 40
7.0
 40
7.0
 40
7.0
 40
8.0
 40
8.0
 40
8.0
 40
9.0
 40
9.0
 40
9.0
 40
10.0
 40
10.0
 40
10.0
 40
11.0
 40
11.0
 40
11.0
 40
12.0
 40
12.0
 40
12.0
 40
13.0
 40
13.0
 40
13.0
 40
14.0
 40
14.0
 40
14.0
 40
15.0
 40
15.0
 40
15.0
 40
16.0
 40
16.0
 40
16.0
 40
17.0
 40
17.0
 40
17.0
 40
18.0
 40
18.0
 40
18.0
 40
19.0
 40
19.0
 40
19.0
 40
20.0
 40
20.0
 40
20.0
 40
21.0
 40
21.0
 40
21.0
 40
22.0
 40
22.0
 40
22.0
 40
23.0
 40
23.0
 40
23.0
 40
24.0
 40
24.0
 40
24.0
 40
25.0
 40
25.0
 40
25.0
 40
26.0
 40
26.0
 40
26.0
 40
27.0
 40
27.0
 40
27.0
 40
28.0
 40
28.0
 40
28.0
 40
29.0
 40
29.0
 40
29.0
 40
30.0
 40
30.0
 40
30.0
 40
31.0
 40
31.0
 40
31.0
 40
32.0
 40
32.0
 40
32.0
 40
33.0
 40
33.0
 40
33.0
 40
34.0
 40
34.0
 40
34.0
 40
35.0
 40
35.0
 40
35.0
 40
36.0
 40
36.0
 40
36.0
 40
37.0
 40
37.0
 40
37.0
 40
38.0
 40
38.0
 40
38.0
 40
39.0
 40
39.0
 40
39.0
 40
40.0
 40
40.0
 40
40.0
 40
41.0
 40
41.0
 40
41.0
 40
42.0
 40
42.0
 40
42.0
 40
43.0
 40
43.0
 40
43.0
 40
44.0
 40
44.0
 40
44.0
 40
45.0
 40
45.0
 40
45.0
 40
46.0
 40
46.0
 40
46.0
 40
47.0
 40
47.0
 40
47.0
 40
48.0
 40
48.0
 40
48.0
 40
49.0
 40
49.0
 40
49.0
 40
50.0
 40
50.0
 40
50.0
 40
51.0
 40
51.0
 40
51.0
 40
52.0
 40
52.0
 40
52.0
 40
53.0
 40
53.0
 40
53.0
 40
54.0
 40
54.0
 40
54.0
 40
55.0
 40
55.0
 40
55.0
 40
56.0
 40
56.0
 40
56.0
 40
57.0
 40
57.0
 40
57.0
 40
58.0
 40
58.0
 40
58.0
 40
59.0
 40
59.0
 40
59.0
 40
60.0
 40
60.0
 40
60.0
 40
61.0
 40
61.0
 40
61.0
 40
62.0
 40
62.0
 40
62.0
 40
63.0
 40
63.0
 40
63.0
 40
64.0
 40
64.0
 40
64.0
 40
65.0
 40
65.0
 40
65.0
 40
66.0
 40
66.0
 40
66.0
 40
67.0
 40
67.0
 40
67.0
 40
68.0
 40
68.0
 40
68.0
 40
69.0
 40
69.0
 40
69.0
 40
70.0
 40
70.0
 40
70.0
 40
71.0
 40
71.0
 40
71.0
 40
72.0
 40
72.0
 40
72.0
 40
73.0
 40
73.0
 40
73.0
 40
74.0
 40
74.0
 40
74.0
 40
75.0
 40
75.0
 40
75.0
 40
76.0
 40
76.0
 40
76.0
 40
77.0
 40
77.0
 40
77.0
 40
78.0
 40
78.0
 40
78.0
 40
79.0
 40
79.0
 40
79.0
 40
80.0
 40
80.0
 40
80.0
 40
81.0
 40
81.0
 40
81.0
 40
82.0
 40
82.0
 40
82.0
 40
83.0
 40
83.0
 40
83.0
 40
84.0
 40
84.0
 40
84.0
 40
85.0
 40
85.0
 40
85.0
 40
86.0
 40
86.0
 40
86.0
 40
87.0
 40
87.0
 40
87.0
 40
88.0
 40
88.0
 40
88.0
 40
88.0
 10
652.1418775870802
 20
595.9525227053558
 30
0.0
 10
647.8156650569812
 20
602.7150794670341
 30
0.0
 10
643.2543674736195
 20
609.3237745132061
 30
0.0
 10
638.4578787959979
 20
615.7585334735372
 30
0.0
 10
633.6531564954813
 20
622.2043383014175
 30
0.0
 10
628.6124349525201
 20
628.4756093756943
 30
0.0
 10
623.344440132813
 20
634.5496271030173
 30
0.0
 10
618.0715198193486
 20
640.6293239430665
 30
0.0
 10
612.5709010364549
 20
646.5113984060688
 30
0.0
 10
606.8562318972324
 20
652.1776772586453
 30
0.0
 10
601.1407914926954
 20
657.8447208456694
 30
0.0
 10
595.211242950424
 20
663.2959105697722
 30
0.0
 10
589.0864082186281
 20
668.5178058011888
 30
0.0
 10
582.9672315122308
 20
673.7348771284245
 30
0.0
 10
576.6531292542365
 20
678.7230774045454
 30
0.0
 10
570.1662406604673
 20
683.474994388184
 30
0.0
 10
563.6925929666482
 20
688.2172118592583
 30
0.0
 10
557.0468635928013
 20
692.7241096463238
 30
0.0
 10
550.2525903572227
 20
696.9940371944233
 30
0.0
 10
543.4774820095297
 20
701.251920381046
 30
0.0
 10
536.5546666258596
 20
705.2741683067687
 30
0.0
 10
529.5076690885222
 20
709.0647714417643
 30
0.0
 10
522.4848712330402
 20
712.8423574883952
 30
0.0
 10
515.3387426528038
 20
716.3898869682232
 30
0.0
 10
508.0914713197602
 20
719.7161216262195
 30
0.0
 10
500.8724369548349
 20
723.0293965401117
 30
0.0
 10
493.5530464506515
 20
726.1230976997012
 30
0.0
 10
486.1533179086235
 20
729.0098186533643
 30
0.0
 10
478.7838984198889
 20
731.8847156896024
 30
0.0
 10
471.3347976695686
 20
734.5543246161369
 30
0.0
 10
463.8234008675068
 20
737.0341261714793
 30
0.0
 10
456.3427185861458
 20
739.5037876798784
 30
0.0
 10
448.8002486755045
 20
741.785190909304
 30
0.0
 10
441.2103852799395
 20
743.8949751680888
 30
0.0
 10
433.6521323359304
 20
745.9959725450112
 30
0.0
 10
426.0468798560479
 20
747.9267775003253
 30
0.0
 10
418.4062590597633
 20
749.7044326135886
 30
0.0
 10
410.7981916670162
 20
751.4745139019124
 30
0.0
 10
403.1550566942667
 20
753.0927475795212
 30
0.0
 10
395.4860627519966
 20
754.5761676200507
 30
0.0
 10
387.849946406922
 20
756.0532281188955
 30
0.0
 10
380.188192336064
 20
757.3966284168384
 30
0.0
 10
372.5079249804071
 20
758.6229772961597
 30
0.0
 10
364.8595834087163
 20
759.8442284168206
 30
0.0
 10
357.1928821465493
 20
760.9493992286207
 30
0.0
 10
349.5132014855058
 20
761.9543180897031
 30
0.0
 10
341.8625683544905
 20
762.9554359579951
 30
0.0
 10
334.199053825132
 20
763.8570588248471
 30
0.0
 10
326.5266141624908
 20
764.6738371300138
 30
0.0
 10
318.8785991115146
 20
765.4880152853356
 30
0.0
 10
311.2217156617281
 20
766.217888211216
 30
0.0
 10
303.5588121236459
 20
766.8768484279332
 30
0.0
 10
295.9200857642271
 20
767.5337295634158
 30
0.0
 10
288.2753772444808
 20
768.1201447563026
 30
0.0
 10
280.6266362217924
 20
768.6472785058085
 30
0.0
 10
273.0011994334183
 20
769.1728061807537
 30
0.0
 10
265.3717546771697
 20
769.6394131001762
 30
0.0
 10
257.7396340631354
 20
770.0563631488061
 30
0.0
 10
250.1260298024272
 20
770.4723016313291
 30
0.0
 10
242.5097626520156
 20
770.8388238966782
 30
0.0
 10
234.8917417084835
 20
771.1636117611765
 30
0.0
 10
227.2858808766841
 20
771.4878811896158
 30
0.0
 10
219.6782718461984
 20
771.7705493462369
 30
0.0
 10
212.069532173025
 20
772.017899921716
 30
0.0
 10
204.4675626215907
 20
772.2650304090361
 30
0.0
 10
196.8644644386306
 20
772.4769061371524
 30
0.0
 10
189.2606559745327
 20
772.6585598352204
 30
0.0
 10
181.6614685888033
 20
772.8401031364831
 30
0.0
 10
174.0615717850085
 20
772.9914611303175
 30
0.0
 10
166.4612493945658
 20
773.1164819118022
 30
0.0
 10
158.8586883888702
 20
773.2415395171671
 30
0.0
 10
151.2557015457628
 20
773.3402443930461
 30
0.0
 10
143.6524864931347
 20
773.4153969685275
 30
0.0
 10
136.0376741304658
 20
773.4906641754698
 30
0.0
 10
128.4226328615573
 20
773.5423071777761
 30
0.0
 10
120.807507784688
 20
773.5719430162138
 30
0.0
 10
113.18114911581
 20
773.6016225725099
 30
0.0
 10
105.554706391545
 20
773.6092299885074
 30
0.0
 10
97.92830340292718
 20
773.5950528610939
 30
0.0
 10
90.29720857064189
 20
773.5808670117648
 30
0.0
 10
82.66615352291385
 20
773.5448698065991
 30
0.0
 10
75.03527163695321
 20
773.485982613598
 30
0.0
 10
67.40791920822458
 20
773.4271226572818
 30
0.0
 10
59.78073978112064
 20
773.3453938824863
 30
0.0
 10
52.15390838158299
 20
773.2383772603772
 30
0.0
 10
44.53600610337233
 20
773.1314859280933
 30
0.0
 10
36.91845103830889
 20
772.9993659253715
 30
0.0
 10
29.30149658790205
 20
772.8383362362098
 30
0.0
 10
21.69154067074943
 20
772.6774545027291
 30
0.0
 10
14.08218426505693
 20
772.4877161834232
 30
0.0
 10
6.473795713748232
 20
772.2644789959478
 30
0.0
 10
-1.140516670487306
 20
772.0410679977165
 30
0.0
 10
-8.75385969261614
 20
771.7841059470472
 30
0.0
 10
-16.36569648956202
 20
771.4878715283234
 30
0.0
 10
-23.99889162816361
 20
771.1908058941947
 30
0.0
 10
-31.63057207696904
 20
770.8542471911131
 30
0.0
 10
-39.25993940487432
 20
770.4709873451247
 30
0.0
 10
-46.91653130125621
 20
770.0863598779815
 30
0.0
 10
-54.57079353905029
 20
769.6546973773098
 30
0.0
 10
-62.22154100324507
 20
769.1671276988689
 30
0.0
 10
-69.89776684867424
 20
768.6779343246833
 30
0.0
 10
-77.57045447184615
 20
768.1324607905456
 30
0.0
 10
-85.23785798771357
 20
767.5199734031879
 30
0.0
 10
-92.9253572165045
 20
766.9058807304375
 30
0.0
 10
-100.6075446031813
 20
766.2244224671492
 30
0.0
 10
-108.2818890759596
 20
765.4629480945403
 30
0.0
 10
-115.9713851266624
 20
764.6999703311909
 30
0.0
 10
-123.6530072641415
 20
763.8566601925163
 30
0.0
 10
-131.3231682054564
 20
762.918581048486
 30
0.0
 10
-139.0081395499365
 20
761.9786905565005
 30
0.0
 10
-146.6816053944206
 20
760.9436647246836
 30
0.0
 10
-154.3386577386688
 20
759.7978699958414
 30
0.0
 10
-162.0181235193588
 20
758.6487213396666
 30
0.0
 10
-169.6810795692196
 20
757.3881543602415
 30
0.0
 10
-177.3210532547544
 20
755.9999969858139
 30
0.0
 10
-184.991812050342
 20
754.6062460610256
 30
0.0
 10
-192.6394028945531
 20
753.0838744240655
 30
0.0
 10
-200.2553576514982
 20
751.4159222844727
 30
0.0
 10
-207.9051668252637
 20
749.740555769568
 30
0.0
 10
-215.5230580293657
 20
747.9183116074621
 30
0.0
 10
-223.0982194556466
 20
745.9319873578207
 30
0.0
 10
-230.7071730787941
 20
743.9368022725687
 30
0.0
 10
-238.2730148454681
 20
741.7760699379828
 30
0.0
 10
-245.7822852739679
 20
739.4329325325309
 30
0.0
 10
-253.3234926347675
 20
737.0798297620813
 30
0.0
 10
-260.8076464382432
 20
734.5427670836277
 30
0.0
 10
-268.2183856837331
 20
731.8058619362749
 30
0.0
 10
-275.6589152487604
 20
729.0579547449769
 30
0.0
 10
-283.0254388332922
 20
726.1085951679561
 30
0.0
 10
-290.2987797885557
 20
722.9441004095953
 30
0.0
 10
-297.6005628804211
 20
719.7672310089947
 30
0.0
 10
-304.8084331434978
 20
716.3735405805822
 30
0.0
 10
-311.9008224473436
 20
712.7528169256151
 30
0.0
 10
-319.019238127624
 20
709.1188065892702
 30
0.0
 10
-326.0213237510351
 20
705.2560937175674
 30
0.0
 10
-332.8839207311565
 20
701.159073395958
 30
0.0
 10
-339.7683338406175
 20
697.0490286864201
 30
0.0
 10
-346.5123700310306
 20
692.7031844368122
 30
0.0
 10
-353.0923214796711
 20
688.1212202387247
 30
0.0
 10
-359.6873165641861
 20
683.528780370492
 30
0.0
 10
-366.1174757606958
 20
678.6991396451604
 30
0.0
 10
-372.3599326953313
 20
673.6377168543403
 30
0.0
 10
-378.609815535404
 20
668.5702730933504
 30
0.0
 10
-384.6715492740545
 20
663.2704954919816
 30
0.0
 10
-390.5251037960511
 20
657.7499096999635
 30
0.0
 10
-396.3806888726274
 20
652.2274088577551
 30
0.0
 10
-402.0279502758352
 20
646.4839466048912
 30
0.0
 10
-407.4512253973855
 20
640.5363571176284
 30
0.0
 10
-412.8719974895795
 20
634.5915126489795
 30
0.0
 10
-418.0689900072587
 20
628.4427293260535
 30
0.0
 10
-423.0322184708664
 20
622.1109724761026
 30
0.0
 10
-427.9877080587983
 20
615.7890883691636
 30
0.0
 10
-432.7101620139226
 20
609.2848008904558
 30
0.0
 10
-437.195600718564
 20
602.6213242556748
 30
0.0
 10
-441.6691167755959
 20
595.9755596640119
 30
0.0
 10
-445.9068759177695
 20
589.1714510660398
 30
0.0
 10
-449.9103601540535
 20
582.2325767063634
 30
0.0
 10
-453.9005286313497
 20
575.3167813381829
 30
0.0
 10
-457.6579780276876
 20
568.2671151907617
 30
0.0
 10
-461.1893798993592
 20
561.1063951728921
 30
0.0
 10
-464.7076639031775
 20
553.9722746138876
 30
0.0
 10
-468.0015766311591
 20
546.7279237011587
 30
0.0
 10
-471.0821195774479
 20
539.39435874879
 30
0.0
 10
-474.1505241337722
 20
532.0896905437766
 30
0.0
 10
-477.0072370950044
 20
524.6965099814555
 30
0.0
 10
-479.666419645898
 20
517.2333310277696
 30
0.0
 10
-482.3149296097384
 20
509.8001054246095
 30
0.0
 10
-484.7674915517649
 20
502.2974421773791
 30
0.0
 10
-487.0402701307785
 20
494.7410403130965
 30
0.0
 10
-489.3037416588081
 20
487.2155819899448
 30
0.0
 10
-491.3888992383524
 20
479.6368242689211
 30
0.0
 10
-493.3125991781889
 20
472.0175850753874
 30
0.0
 10
-495.2281086171453
 20
464.4307861726272
 30
0.0
 10
-496.9835323598025
 20
456.803849777901
 30
0.0
 10
-498.5958350383879
 20
449.147013234755
 30
0.0
 10
-500.2012008239038
 20
441.5231200445648
 30
0.0
 10
-501.6646744457947
 20
433.8695834417387
 30
0.0
 10
-503.0030401573706
 20
426.1944259899295
 30
0.0
 10
-504.3357890940476
 20
418.551479189725
 30
0.0
 10
-505.5444780080491
 20
410.8870926339364
 30
0.0
 10
-506.6453369788404
 20
403.2074053666199
 30
0.0
 10
-507.7418805918749
 20
395.5578224076606
 30
0.0
 10
-508.7314379896642
 20
387.8930584593944
 30
0.0
 10
-509.6293061433044
 20
380.2176899354646
 30
0.0
 10
-510.5240724957184
 20
372.568836961089
 30
0.0
 10
-511.3277820143262
 20
364.9094525542491
 30
0.0
 10
-512.0543846873164
 20
357.2428505300493
 30
0.0
 10
-512.7789278680516
 20
349.5979788241775
 30
0.0
 10
-513.4268006890183
 20
341.9459303583856
 30
0.0
 10
-514.0102267351612
 20
334.2890353516507
 30
0.0
 10
-514.5922378773641
 20
326.6507095723953
 30
0.0
 10
-515.1101144537085
 20
319.0075607310414
 30
0.0
 10
-515.574116473988
 20
311.3611868705855
 30
0.0
 10
-516.0371013257493
 20
303.7315751156014
 30
0.0
 10
-516.4464475662575
 20
296.0987524655563
 30
0.0
 10
-516.8106290969083
 20
288.4638058467093
 30
0.0
 10
-517.1740938148173
 20
280.8438869725924
 30
0.0
 10
-517.492571441871
 20
273.2218524826065
 30
0.0
 10
-517.7729496717462
 20
265.5984373848634
 30
0.0
 10
-518.0528485953109
 20
257.9880545080314
 30
0.0
 10
-518.2947782721292
 20
250.3762957397441
 30
0.0
 10
-518.5042569781139
 20
242.7636579492809
 30
0.0
 10
-518.7134456087066
 20
235.1615617504943
 30
0.0
 10
-518.8902730791292
 20
227.5585889623156
 30
0.0
 10
-519.0391068969033
 20
219.95507784877
 30
0.0
 10
-519.1877955911219
 20
212.3589806992727
 30
0.0
 10
-519.3085451976767
 20
204.7623462737006
 30
0.0
 10
-519.4048128268728
 20
197.1654077818815
 30
0.0
 10
-519.5010226454408
 20
189.5730314009734
 30
0.0
 10
-519.5727798816511
 20
181.9803513188743
 30
0.0
 10
-519.6222519779324
 20
174.3875288890623
 30
0.0
 10
-519.6717075324445
 20
166.7972452374612
 30
0.0
 10
-519.6988928472986
 20
159.2068193333239
 30
0.0
 10
-519.7045905428334
 20
151.6163775246567
 30
0.0
 10
-519.7102880504402
 20
144.0261860653662
 30
0.0
 10
-519.6944993561126
 20
136.435978702611
 30
0.0
 10
-519.6567049353544
 20
128.8458786942569
 30
0.0
 10
-519.6188996531853
 20
121.2535974348885
 30
0.0
 10
-519.5590759947082
 20
113.6614235916771
 30
0.0
 10
-519.4754574162994
 20
106.0695068335967
 30
0.0
 10
-519.3917890340174
 20
98.47306827126212
 30
0.0
 10
-519.2842973784792
 20
90.87688710038002
 30
0.0
 10
-519.1499954034143
 20
83.281171613802
 30
0.0
 10
-519.0155777624955
 20
75.67891441504938
 30
0.0
 10
-518.854303602055
 20
68.07712370308398
 30
0.0
 10
-518.6620507812129
 20
60.47610374679507
 30
0.0
 10
-518.469589536651
 20
52.86684342833386
 30
0.0
 10
-518.2460824265669
 20
45.25835553766282
 30
0.0
 10
-517.9862052387681
 20
37.65109109993347
 30
0.0
 10
-517.7257366223953
 20
30.02651404741422
 30
0.0
 10
-517.428732197878
 20
22.40316602283963
 30
0.0
 10
-517.0885921579165
 20
14.7817155435217
 30
0.0
 10
-516.7471685787217
 20
7.131505054860303
 30
0.0
 10
-516.3622832200691
 20
-0.5167935404876066
 30
0.0
 10
-515.9259078814996
 20
-8.162193463330155
 30
0.0
 10
-515.4878906247936
 20
-15.83636018325461
 30
0.0
 10
-514.9979951839048
 20
-23.50760637643219
 30
0.0
 10
-514.4463810327321
 20
-31.17447079668887
 30
0.0
 10
-513.8931946528563
 20
-38.86318756477984
 30
0.0
 10
-513.2779372359335
 20
-46.54749754626467
 30
0.0
 10
-512.5887707618351
 20
-54.22525725818453
 30
0.0
 10
-511.8983580547872
 20
-61.91690081035675
 30
0.0
 10
-511.133768746547
 20
-69.60197038156976
 30
0.0
 10
-510.2812016288183
 20
-77.27738267015695
 30
0.0
 10
-509.4274324432818
 20
-84.96361682340437
 30
0.0
 10
-508.4854371866415
 20
-92.64016644242818
 30
0.0
 10
-507.4399984861271
 20
-100.3027489700655
 30
0.0
 10
-506.3920842064409
 20
-107.9834763489575
 30
0.0
 10
-505.2402359985897
 20
-115.6501704104784
 30
0.0
 10
-503.9687100433123
 20
-123.297143661524
 30
0.0
 10
-502.6923723994481
 20
-130.9730544688204
 30
0.0
 10
-501.295449529055
 20
-138.6290949288074
 30
0.0
 10
-499.7612713778878
 20
-146.2577653466968
 30
0.0
 10
-498.2204317231768
 20
-153.9195599588283
 30
0.0
 10
-496.5411422568317
 20
-161.5537463277928
 30
0.0
 10
-494.7063018282022
 20
-169.1506062554232
 30
0.0
 10
-492.8632311429475
 20
-176.7815422290154
 30
0.0
 10
-490.8632109044721
 20
-184.3748161515209
 30
0.0
 10
-488.6891927034531
 20
-191.9183720854751
 30
0.0
 10
-486.5056435697845
 20
-199.4949990966241
 30
0.0
 10
-484.1465675093544
 20
-207.0214712345889
 30
0.0
 10
-481.5958633190685
 20
-214.4823843167339
 30
0.0
 10
-479.0345237898877
 20
-221.9744061959742
 30
0.0
 10
-476.2799547856378
 20
-229.4003211735114
 30
0.0
 10
-473.3165897030468
 20
-236.7439802975089
 30
0.0
  0
ENDBLK
  5
43
330
40
100
AcDbEntity
  8
0
100
AcDbBlockEnd
  0
BLOCK
  5
47
330
45
100
AcDbEntity
  8
0
100
AcDbBlockBegin
  2
block 3
 70
     0
 10
0.0
 20
0.0
 30
0.0
  3
block 3
  1

  0
SPLINE
  5
49
330
45
100
AcDbEntity
  8
0
 62
   250
370
    25
100
AcDbSpline
210
0.0
220
0.0
230
1.0
 70
     8
 71
     3
 72
   293
 73
   289
 74
     0
 42
0.0000000001
 43
0.0000000001
 12
1.0
 22
0.0
 32
0.0
 13
1.0
 23
0.0
 33
0.0
 40
0.0
 40
0.0
 40
0.0
 40
0.0
 40
1.0
 40
1.0
 40
1.0
 40
2.0
 40
2.0
 40
2.0
 40
3.0
 40
3.0
 40
3.0
 40
4.0
 40
4.0
 40
4.0
 40
5.0
 40
5.0
 40
5.0
 40
6.0
 40
6.0
 40
6.0
 40
7.0
 40
7.0
 40
7.0
 40
8.0
 40
8.0
 40
8.0
 40
9.0
 40
9.0
 40
9.0
 40
10.0
 40
10.0
 40
10.0
 40
11.0
 40
11.0
 40
11.0
 40
12.0
 40
12.0
 40
12.0
 40
13.0
 40
13.0
 40
13.0
 40
14.0
 40
14.0
 40
14.0
 40
15.0
 40
15.0
 40
15.0
 40
16.0
 40
16.0
 40
16.0
 40
17.0
 40
17.0
 40
17.0
 40
18.0
 40
18.0
 40
18.0
 40
19.0
 40
19.0
 40
19.0
 40
20.0
 40
20.0
 40
20.0
 40
21.0
 40
21.0
 40
21.0
 40
22.0
 40
22.0
 40
22.0
 40
23.0
 40
23.0
 40
23.0
 40
24.0
 40
24.0
 40
24.0
 40
25.0
 40
25.0
 40
25.0
 40
26.0
 40
26.0
 40
26.0
 40
27.0
 40
27.0
 40
27.0
 40
28.0
 40
28.0
 40
28.0
 40
29.0
 40
29.0
 40
29.0
 40
30.0
 40
30.0
 40
30.0
 40
31.0
 40
31.0
 40
31.0
 40
32.0
 40
32.0
 40
32.0
 40
33.0
 40
33.0
 40
33.0
 40
34.0
 40
34.0
 40
34.0
 40
35.0
 40
35.0
 40
35.0
 40
36.0
 40
36.0
 40
36.0
 40
37.0
 40
37.0
 40
37.0
 40
38.0
 40
38.0
 40
38.0
 40
39.0
 40
39.0
 40
39.0
 40
40.0
 40
40.0
 40
40.0
 40
41.0
 40
41.0
 40
41.0
 40
42.0
 40
42.0
 40
42.0
 40
43.0
 40
43.0
 40
43.0
 40
44.0
 40
44.0
 40
44.0
 40
45.0
 40
45.0
 40
45.0
 40
46.0
 40
46.0
 40
46.0
 40
47.0
 40
47.0
 40
47.0
 40
48.0
 40
48.0
 40
48.0
 40
49.0
 40
49.0
 40
49.0
 40
50.0
 40
50.0
 40
50.0
 40
51.0
 40
51.0
 40
51.0
 40
52.0
 40
52.0
 40
52.0
 40
53.0
 40
53.0
 40
53.0
 40
54.0
 40
54.0
 40
54.0
 40
55.0
 40
55.0
 40
55.0
 40
56.0
 40
56.0
 40
56.0
 40
57.0
 40
57.0
 40
57.0
 40
58.0
 40
58.0
 40
58.0
 40
59.0
 40
59.0
 40
59.0
 40
60.0
 40
60.0
 40
60.0
 40
61.0
 40
61.0
 40
61.0
 40
62.0
 40
62.0
 40
62.0
 40
63.0
 40
63.0
 40
63.0
 40
64.0
 40
64.0
 40
64.0
 40
65.0
 40
65.0
 40
65.0
 40
66.0
 40
66.0
 40
66.0
 40
67.0
 40
67.0
 40
67.0
 40
68.0
 40
68.0
 40
68.0
 40
69.0
 40
69.0
 40
69.0
 40
70.0
 40
70.0
 40
70.0
 40
71.0
 40
71.0
 40
71.0
 40
72.0
 40
72.0
 40
72.0
 40
73.0
 40
73.0
 40
73.0
 40
74.0
 40
74.0
 40
74.0
 40
75.0
 40
75.0
 40
75.0
 40
76.0
 40
76.0
 40
76.0
 40
77.0
 40
77.0
 40
77.0
 40
78.0
 40
78.0
 40
78.0
 40
79.0
 40
79.0
 40
79.0
 40
80.0
 40
80.0
 40
80.0
 40
81.0
 40
81.0
 40
81.0
 40
82.0
 40
82.0
 40
82.0
 40
83.0
 40
83.0
 40
83.0
 40
84.0
 40
84.0
 40
84.0
 40
85.0
 40
85.0
 40
85.0
 40
86.0
 40
86.0
 40
86.0
 40
87.0
 40
87.0
 40
87.0
 40
88.0
 40
88.0
 40
88.0
 40
89.0
 40
89.0
 40
89.0
 40
90.0
 40
90.0
 40
90.0
 40
91.0
 40
91.0
 40
91.0
 40
92.0
 40
92.0
 40
92.0
 40
93.0
 40
93.0
 40
93.0
 40
94.0
 40
94.0
 40
94.0
 40
95.0
 40
95.0
 40
95.0
 40
96.0
 40
96.0
 40
96.0
 40
96.0
 10
-473.3165897030468
 20
-236.7439802975089
 30
0.0
 10
-470.4055118279127
 20
-243.9580640728912
 30
0.0
 10
-467.2942792630809
 20
-251.0894164898177
 30
0.0
 10
-463.9708010452225
 20
-258.1214822734656
 30
0.0
 10
-460.6357513405125
 20
-265.1780318814168
 30
0.0
 10
-457.0869754414945
 20
-272.1346022720103
 30
0.0
 10
-453.3172669799212
 20
-278.9695200025906
 30
0.0
 10
-449.5358515153756
 20
-285.8256638844906
 30
0.0
 10
-445.5321291250511
 20
-292.5593983371988
 30
0.0
 10
-441.3030165193528
 20
-299.1488677621109
 30
0.0
 10
-437.0626107412315
 20
-305.7559333168344
 30
0.0
 10
-432.5956094031179
 20
-312.2179623413786
 30
0.0
 10
-427.9041445234657
 20
-318.5129607239497
 30
0.0
 10
-423.2027666942118
 20
-324.821260282866
 30
0.0
 10
-418.2759757494178
 20
-330.9618225908316
 30
0.0
 10
-413.1312644579505
 20
-336.9142008412322
 30
0.0
 10
-407.9800819464945
 20
-342.8740662268436
 30
0.0
 10
-402.6104305260377
 20
-348.6452738465746
 30
0.0
 10
-397.0349543578002
 20
-354.2102739514007
 30
0.0
 10
-391.4594641188294
 20
-359.7752881005162
 30
0.0
 10
-385.6781480932053
 20
-365.1340936939167
 30
0.0
 10
-379.708435505603
 20
-370.2738945274179
 30
0.0
 10
-373.7454278858992
 20
-375.407922520213
 30
0.0
 10
-367.5944466671315
 20
-380.3234374334752
 30
0.0
 10
-361.2760960793669
 20
-385.0130844735779
 30
0.0
 10
-354.9701141515321
 20
-389.6935511669612
 30
0.0
 10
-348.4974174902898
 20
-394.1490334293197
 30
0.0
 10
-341.8800493695694
 20
-398.3775763259158
 30
0.0
 10
-335.2801542516175
 20
-402.5949538557655
 30
0.0
 10
-328.536350668604
 20
-406.5865888935689
 30
0.0
 10
-321.6706929431737
 20
-410.3555600143647
 30
0.0
 10
-314.8270142619557
 20
-414.1124655201302
 30
0.0
 10
-307.8622603733567
 20
-417.6481304559061
 30
0.0
 10
-300.7974361338674
 20
-420.9701467795579
 30
0.0
 10
-293.7577920259174
 20
-424.2803229207726
 30
0.0
 10
-286.6187896284223
 20
-427.3783706895617
 30
0.0
 10
-279.3996139645774
 20
-430.2757137939785
 30
0.0
 10
-272.2080071579599
 20
-433.1619924165174
 30
0.0
 10
-264.9368382531014
 20
-435.8490963646132
 30
0.0
 10
-257.6028299504559
 20
-438.3509912939918
 30
0.0
 10
-250.2996324578582
 20
-440.842375544037
 30
0.0
 10
-242.93412244602
 20
-443.1501036651715
 30
0.0
 10
-235.5203580804206
 20
-445.2895858145182
 30
0.0
 10
-228.1399596958977
 20
-447.4194391278859
 30
0.0
 10
-220.7117403220201
 20
-449.3825574588916
 30
0.0
 10
-213.2471747424863
 20
-451.1949404117366
 30
0.0
 10
-205.8152726384998
 20
-452.9993927320547
 30
0.0
 10
-198.3473417206455
 20
-454.6544259649622
 30
0.0
 10
-190.8525283850987
 20
-456.1760113105196
 30
0.0
 10
-183.3862765847832
 20
-457.6917981376042
 30
0.0
 10
-175.8933468655552
 20
-459.0751522364919
 30
0.0
 10
-168.3809157914757
 20
-460.3418240004005
 30
0.0
 10
-160.8967776401689
 20
-461.6037252917566
 30
0.0
 10
-153.3932847473535
 20
-462.7498214789039
 30
0.0
 10
-145.8759195323461
 20
-463.7951696539722
 30
0.0
 10
-138.386718818782
 20
-464.8366013357941
 30
0.0
 10
-130.883749536167
 20
-465.7780385147945
 30
0.0
 10
-123.3711076610976
 20
-466.6336026906141
 30
0.0
 10
-115.8851091418621
 20
-467.4861326341077
 30
0.0
 10
-108.3895065156174
 20
-468.2533975863395
 30
0.0
 10
-100.8872800103058
 20
-468.9482825499476
 30
0.0
 10
-93.40883690323236
 20
-469.640964604081
 30
0.0
 10
-85.92381184827377
 20
-470.2617248571303
 30
0.0
 10
-78.43431375786709
 20
-470.8219223780874
 30
0.0
 10
-70.96451404896311
 20
-471.380646504622
 30
0.0
 10
-63.4902648030135
 20
-471.879126056246
 30
0.0
 10
-56.01300899306806
 20
-472.3267377134932
 30
0.0
 10
-48.55107685854345
 20
-472.7734320481542
 30
0.0
 10
-41.08615047053749
 20
-473.1694667691748
 30
0.0
 10
-33.61921774999822
 20
-473.5224928889307
 30
0.0
 10
-26.16864788372006
 20
-473.8747453958837
 30
0.0
 10
-18.71608046851038
 20
-474.1841775909961
 30
0.0
 10
-11.26219909933603
 20
-474.457218428666
 30
0.0
 10
-3.82508123505109
 20
-474.7296452075457
 30
0.0
 10
3.613344679785867
 20
-474.9658441305612
 30
0.0
 10
11.05261255962245
 20
-475.1710469867422
 30
0.0
 10
18.47880309858967
 20
-475.3758891209203
 30
0.0
 10
25.90583264500446
 20
-475.5498440671879
 30
0.0
 10
33.33338327359498
 20
-475.6970699613968
 30
0.0
 10
40.75369235193447
 20
-475.8441523165657
 30
0.0
 10
48.17452149689069
 20
-475.9645577136253
 30
0.0
 10
55.59565282017053
 20
-476.061389628232
 30
0.0
 10
63.01549845834298
 20
-476.1582047670803
 30
0.0
 10
70.43564617013976
 20
-476.2314545907901
 30
0.0
 10
77.85594104411197
 20
-476.2831695241898
 30
0.0
 10
85.27897191957473
 20
-476.3349035258562
 30
0.0
 10
92.70215006577588
 20
-476.3650867536213
 30
0.0
 10
100.1253541937933
 20
-476.3746848317076
 30
0.0
 10
107.5512909141987
 20
-476.3842864429375
 30
0.0
 10
114.977253635569
 20
-476.3732877462998
 30
0.0
 10
122.4031282149432
 20
-476.3413498720307
 30
0.0
 10
129.8271075445209
 20
-476.3094201490336
 30
0.0
 10
137.2509987770855
 20
-476.2565619352868
 30
0.0
 10
144.6746652334625
 20
-476.1811507359441
 30
0.0
 10
152.0947624693021
 20
-476.1057757935213
 30
0.0
 10
159.5146351450532
 20
-476.0078695466909
 30
0.0
 10
166.9340977311104
 20
-475.8848128841393
 30
0.0
 10
174.3540212472768
 20
-475.7617485767189
 30
0.0
 10
181.7735346227991
 20
-475.6135307285288
 30
0.0
 10
189.1923715234165
 20
-475.436510534824
 30
0.0
 10
196.6187728923724
 20
-475.259309846054
 30
0.0
 10
204.0444964062378
 20
-475.0532480463061
 30
0.0
 10
211.469153179025
 20
-474.8136433974018
 30
0.0
 10
218.9087739214181
 20
-474.5735558390148
 30
0.0
 10
226.347323618511
 20
-474.2997900878393
 30
0.0
 10
233.7842339278729
 20
-473.9865619478682
 30
0.0
 10
241.2410585560596
 20
-473.6724950557114
 30
0.0
 10
248.6962350049427
 20
-473.3187541495772
 30
0.0
 10
256.1489335695176
 20
-472.9182927049517
 30
0.0
 10
263.621366773567
 20
-472.5167708441547
 30
0.0
 10
271.0913089531395
 20
-472.0682806866383
 30
0.0
 10
278.5575498969468
 20
-471.5642615535903
 30
0.0
 10
286.0403946233449
 20
-471.0591215587724
 30
0.0
 10
293.5195216337213
 20
-470.498205337843
 30
0.0
 10
300.993161797475
 20
-469.8710857308061
 30
0.0
 10
308.4863926909023
 20
-469.2423222486881
 30
0.0
 10
315.9741079345579
 20
-468.5470078463761
 30
0.0
 10
323.4537612645869
 20
-467.7728928080035
 30
0.0
 10
330.9572358027757
 20
-466.9963123672346
 30
0.0
 10
338.4525969943636
 20
-466.1404285624839
 30
0.0
 10
345.9362997754728
 20
-465.1916266854503
 30
0.0
 10
353.4475810624542
 20
-464.239328338994
 30
0.0
 10
360.9471178548241
 20
-463.1934258258833
 30
0.0
 10
368.4301144689977
 20
-462.0392858480636
 30
0.0
 10
375.9434244350269
 20
-460.880470490443
 30
0.0
 10
383.440059944101
 20
-459.6125389597028
 30
0.0
 10
390.9136963844858
 20
-458.2201471815671
 30
0.0
 10
398.4188646427039
 20
-456.8218808008725
 30
0.0
 10
405.900839353339
 20
-455.2981017435435
 30
0.0
 10
413.3514587005427
 20
-453.6329897887265
 30
0.0
 10
420.832882418813
 20
-451.9609934764967
 30
0.0
 10
428.2826909619924
 20
-450.1464931773002
 30
0.0
 10
435.690508838679
 20
-448.1733180236481
 30
0.0
 10
443.1284907476535
 20
-446.1921082611512
 30
0.0
 10
450.5241393287761
 20
-444.0509287910992
 30
0.0
 10
457.8646569543701
 20
-441.7340713876015
 30
0.0
 10
465.2376180391139
 20
-439.4069739884409
 30
0.0
 10
472.5549597582016
 20
-436.9026423091057
 30
0.0
 10
479.8012244398019
 20
-434.2063205434431
 30
0.0
 10
487.0779831116658
 20
-431.4986520201185
 30
0.0
 10
494.2830652694395
 20
-428.5973741313501
 30
0.0
 10
501.3983217777697
 20
-425.4895556748511
 30
0.0
 10
508.540428287031
 20
-422.3700096118739
 30
0.0
 10
515.5920299389093
 20
-419.0423612446285
 30
0.0
 10
522.5329068136894
 20
-415.4971911329758
 30
0.0
 10
529.4984180471158
 20
-411.9394386065019
 30
0.0
 10
536.3524171463854
 20
-408.1626175518388
 30
0.0
 10
543.0733616949303
 20
-404.161671595037
 30
0.0
 10
549.8147844061903
 20
-400.1485350864555
 30
0.0
 10
556.4223405190769
 20
-395.9099058148676
 30
0.0
 10
562.8735931180934
 20
-391.4449775242401
 30
0.0
 10
569.338445698187
 20
-386.970636652212
 30
0.0
 10
575.6463350582948
 20
-382.2690416268016
 30
0.0
 10
581.7758364118034
 20
-377.3451219961236
 30
0.0
 10
587.9130570293239
 20
-372.4150013658144
 30
0.0
 10
593.8714400470064
 20
-367.261995803154
 30
0.0
 10
599.632081692031
 20
-361.896601720966
 30
0.0
 10
605.3956698343507
 20
-356.5284633057491
 30
0.0
 10
610.9613142677699
 20
-350.9477190472273
 30
0.0
 10
616.3138729191606
 20
-345.1696602011075
 30
0.0
 10
621.6647474424853
 20
-339.3934193623159
 30
0.0
 10
626.8026702532296
 20
-333.419988082385
 30
0.0
 10
631.7174513279401
 20
-327.2685045175981
 30
0.0
 10
636.6253007779824
 20
-321.1256967766733
 30
0.0
 10
641.3106374697325
 20
-314.8053386333355
 30
0.0
 10
645.7691557623162
 20
-308.3291503890547
 30
0.0
 10
650.216220987138
 20
-301.8695982148561
 30
0.0
 10
654.4376316209131
 20
-295.2550155060095
 30
0.0
 10
658.4340389226235
 20
-288.5075294553867
 30
0.0
 10
662.4173767602499
 20
-281.7821097308903
 30
0.0
 10
666.1771805177459
 20
-274.9246545117717
 30
0.0
 10
669.7188035735317
 20
-267.9566892019499
 30
0.0
 10
673.2475765084378
 20
-261.0140058589502
 30
0.0
 10
676.5597491256256
 20
-253.9616129011121
 30
0.0
 10
679.6648286650228
 20
-246.8195672400895
 30
0.0
 10
682.7580618144829
 20
-239.7047696597425
 30
0.0
 10
685.6457790602245
 20
-232.5010021509591
 30
0.0
 10
688.3406995656111
 20
-225.226173203749
 30
0.0
 10
691.025091015316
 20
-217.9797670166786
 30
0.0
 10
693.5181892956015
 20
-210.6628535805949
 30
0.0
 10
695.8347557315145
 20
-203.2907873102787
 30
0.0
 10
698.1422511497584
 20
-195.9475879622441
 30
0.0
 10
700.274594514247
 20
-188.54966686007
 30
0.0
 10
702.2475543666801
 20
-181.1097530052132
 30
0.0
 10
704.2124953980158
 20
-173.7000776460939
 30
0.0
 10
706.0193458686942
 20
-166.2487501880558
 30
0.0
 10
707.6840105726409
 20
-158.7660197219084
 30
0.0
 10
709.3416502868773
 20
-151.3148668486178
 30
0.0
 10
710.8583017679565
 20
-143.8325754533349
 30
0.0
 10
712.2497186174902
 20
-136.3272567583255
 30
0.0
 10
713.6353154584607
 20
-128.8533312573315
 30
0.0
 10
714.8967231378721
 20
-121.3565706905989
 30
0.0
 10
716.049313077352
 20
-113.8432716543342
 30
0.0
 10
717.1973274716181
 20
-106.3597988713798
 30
0.0
 10
718.2373863791723
 20
-98.85991866690216
 30
0.0
 10
719.1841660950236
 20
-91.34840391277953
 30
0.0
 10
720.1275306276128
 20
-83.86398437306863
 30
0.0
 10
720.9782877001959
 20
-76.36801406763554
 30
0.0
 10
721.7500691377027
 20
-68.86401480007831
 30
0.0
 10
722.5194378896856
 20
-61.38347397476375
 30
0.0
 10
723.2103240102576
 20
-53.89495430789719
 30
0.0
 10
723.8349147546878
 20
-46.4009771466319
 30
0.0
 10
724.457896520311
 20
-38.92630486702036
 30
0.0
 10
725.014924030649
 20
-31.44620317435173
 30
0.0
 10
725.5163678400784
 20
-23.96242439520824
 30
0.0
 10
726.0165258034871
 20
-16.49783617503043
 30
0.0
 10
726.4613847656483
 20
-9.029589702385747
 30
0.0
 10
726.8594886473006
 20
-1.558884254859128
 30
0.0
 10
727.2564503664968
 20
5.890387693488004
 30
0.0
 10
727.6069249015322
 20
13.34210452736762
 30
0.0
 10
727.9179281519113
 20
20.79544575265136
 30
0.0
 10
728.2281864121778
 20
28.23093293440495
 30
0.0
 10
728.4991622635708
 20
35.66803673461087
 30
0.0
 10
728.736638881719
 20
43.10619433636622
 30
0.0
 10
728.9737715478736
 20
50.53357879720866
 30
0.0
 10
729.1775019484886
 20
57.9620140092726
 30
0.0
 10
729.3525148646171
 20
65.39111502323358
 30
0.0
 10
729.5274468100314
 20
72.81677892098018
 30
0.0
 10
729.6736878374277
 20
80.24310800469543
 30
0.0
 10
729.7948866002491
 20
87.66983872662023
 30
0.0
 10
729.9160993635068
 20
95.09742735791126
 30
0.0
 10
730.0122640762729
 20
102.5254177202272
 30
0.0
 10
730.0860160315088
 20
109.9536263151203
 30
0.0
 10
730.1597533331878
 20
117.3803590234245
 30
0.0
 10
730.2110867826946
 20
124.8073098775866
 30
0.0
 10
730.2415948267831
 20
132.2343445297876
 30
0.0
 10
730.2720564924073
 20
139.6500885724548
 30
0.0
 10
730.281756022239
 20
147.0659161585361
 30
0.0
 10
730.2709347215424
 20
154.4817145005119
 30
0.0
 10
730.2601357855974
 20
161.8821863593323
 30
0.0
 10
730.2289007536732
 20
169.2826290947702
 30
0.0
 10
730.1762663865096
 20
176.6829225434184
 30
0.0
 10
730.1237080504676
 20
184.072526158742
 30
0.0
 10
730.0498121578372
 20
191.4619809182795
 30
0.0
 10
729.9525127152225
 20
198.8511329643678
 30
0.0
 10
729.8552227845254
 20
206.2395626539543
 30
0.0
 10
729.7345338794534
 20
213.6276896892369
 30
0.0
 10
729.5873401413475
 20
221.015297272996
 30
0.0
 10
729.4399235721983
 20
228.4140886772784
 30
0.0
 10
729.2659218599441
 20
235.8123590560407
 30
0.0
 10
729.0612122061113
 20
243.2097925373776
 30
0.0
 10
728.8559033781725
 20
250.6288779064427
 30
0.0
 10
728.6197065846095
 20
258.0471214717798
 30
0.0
 10
728.3474431259127
 20
265.4640597390627
 30
0.0
 10
728.0741763926883
 20
272.9083289794187
 30
0.0
 10
727.7645766975963
 20
280.3512832840426
 30
0.0
 10
727.4122513598436
 20
287.7922421279395
 30
0.0
 10
727.0587464425348
 20
295.2581131822261
 30
0.0
 10
726.6622293140967
 20
302.7219753918874
 30
0.0
 10
726.2148131777213
 20
310.1828242546793
 30
0.0
 10
725.7664132912045
 20
317.6600775576028
 30
0.0
 10
725.2668903236464
 20
325.1343042480231
 30
0.0
 10
724.706937496689
 20
332.6040573621527
 30
0.0
 10
724.1456451124371
 20
340.0916801284677
 30
0.0
 10
723.5236333940885
 20
347.5748078889071
 30
0.0
 10
722.8295161205551
 20
355.0513218496387
 30
0.0
 10
722.1333346091329
 20
362.5500702426316
 30
0.0
 10
721.3646180348524
 20
370.0421654398116
 30
0.0
 10
720.5103933173001
 20
377.5246058670603
 30
0.0
 10
719.6531953214513
 20
385.0330902347327
 30
0.0
 10
718.7098928943304
 20
392.5318525052816
 30
0.0
 10
717.6662945455153
 20
400.0167682916251
 30
0.0
 10
716.6186547730056
 20
407.5306700532995
 30
0.0
 10
715.4699407656432
 20
415.0306178797133
 30
0.0
 10
714.2051060908691
 20
422.511102299278
 30
0.0
 10
712.9350639264753
 20
430.0223848504258
 30
0.0
 10
711.5479429584205
 20
437.5140433980271
 30
0.0
 10
710.0281547023433
 20
444.9788989356892
 30
0.0
 10
708.5020018932064
 20
452.4750157157686
 30
0.0
 10
706.8420683040617
 20
459.9441045251427
 30
0.0
 10
705.0324872287866
 20
467.377010687704
 30
0.0
 10
703.2155481955514
 20
474.840139873593
 30
0.0
 10
701.2477422353518
 20
482.2667915691062
 30
0.0
 10
699.1131337552504
 20
489.6454806485333
 30
0.0
 10
696.969934800979
 20
497.053864371512
 30
0.0
 10
694.6585880720962
 20
504.4138986620754
 30
0.0
 10
692.1636779209992
 20
511.7115278085371
 30
0.0
 10
689.6582451446353
 20
519.0399357053977
 30
0.0
 10
686.9676972729893
 20
526.305410943571
 30
0.0
 10
684.0782153965612
 20
533.4912154516527
 30
0.0
 10
681.1767409875006
 20
540.7068439900258
 30
0.0
 10
678.0746778317372
 20
547.8421390936093
 30
0.0
 10
674.7607321489215
 20
554.8782091169951
 30
0.0
 10
671.4340203403192
 20
561.9413837955587
 30
0.0
 10
667.8937904141875
 20
568.9045674431045
 30
0.0
 10
664.1329563383738
 20
575.7461361270349
 30
0.0
 10
660.3595799808035
 20
582.6105212608036
 30
0.0
 10
656.364125601987
 20
589.3524789130071
 30
0.0
 10
652.1418775870802
 20
595.9525227053558
 30
0.0
  0
ENDBLK
  5
48
330
45
100
AcDbEntity
  8
0
100
AcDbBlockEnd
  0
BLOCK
  5
4C
330
4A
100
AcDbEntity
  8
0
100
AcDbBlockBegin
  2
block 4
 70
     0
 10
0.0
 20
0.0
 30
0.0
  3
block 4
  1

  0
SPLINE
  5
4E
330
4A
100
AcDbEntity
  8
0
 62
   250
370
    25
100
AcDbSpline
210
0.0
220
0.0
230
1.0
 70
     8
 71
     3
 72
   257
 73
   253
 74
     0
 42
0.0000000001
 43
0.0000000001
 12
1.0
 22
0.0
 32
0.0
 13
1.0
 23
0.0
 33
0.0
 40
0.0
 40
0.0
 40
0.0
 40
0.0
 40
1.0
 40
1.0
 40
1.0
 40
2.0
 40
2.0
 40
2.0
 40
3.0
 40
3.0
 40
3.0
 40
4.0
 40
4.0
 40
4.0
 40
5.0
 40
5.0
 40
5.0
 40
6.0
 40
6.0
 40
6.0
 40
7.0
 40
7.0
 40
7.0
 40
8.0
 40
8.0
 40
8.0
 40
9.0
 40
9.0
 40
9.0
 40
10.0
 40
10.0
 40
10.0
 40
11.0
 40
11.0
 40
11.0
 40
12.0
 40
12.0
 40
12.0
 40
13.0
 40
13.0
 40
13.0
 40
14.0
 40
14.0
 40
14.0
 40
15.0
 40
15.0
 40
15.0
 40
16.0
 40
16.0
 40
16.0
 40
17.0
 40
17.0
 40
17.0
 40
18.0
 40
18.0
 40
18.0
 40
19.0
 40
19.0
 40
19.0
 40
20.0
 40
20.0
 40
20.0
 40
21.0
 40
21.0
 40
21.0
 40
22.0
 40
22.0
 40
22.0
 40
23.0
 40
23.0
 40
23.0
 40
24.0
 40
24.0
 40
24.0
 40
25.0
 40
25.0
 40
25.0
 40
26.0
 40
26.0
 40
26.0
 40
27.0
 40
27.0
 40
27.0
 40
28.0
 40
28.0
 40
28.0
 40
29.0
 40
29.0
 40
29.0
 40
30.0
 40
30.0
 40
30.0
 40
31.0
 40
31.0
 40
31.0
 40
32.0
 40
32.0
 40
32.0
 40
33.0
 40
33.0
 40
33.0
 40
34.0
 40
34.0
 40
34.0
 40
35.0
 40
35.0
 40
35.0
 40
36.0
 40
36.0
 40
36.0
 40
37.0
 40
37.0
 40
37.0
 40
38.0
 40
38.0
 40
38.0
 40
39.0
 40
39.0
 40
39.0
 40
40.0
 40
40.0
 40
40.0
 40
41.0
 40
41.0
 40
41.0
 40
42.0
 40
42.0
 40
42.0
 40
43.0
 40
43.0
 40
43.0
 40
44.0
 40
44.0
 40
44.0
 40
45.0
 40
45.0
 40
45.0
 40
46.0
 40
46.0
 40
46.0
 40
47.0
 40
47.0
 40
47.0
 40
48.0
 40
48.0
 40
48.0
 40
49.0
 40
49.0
 40
49.0
 40
50.0
 40
50.0
 40
50.0
 40
51.0
 40
51.0
 40
51.0
 40
52.0
 40
52.0
 40
52.0
 40
53.0
 40
53.0
 40
53.0
 40
54.0
 40
54.0
 40
54.0
 40
55.0
 40
55.0
 40
55.0
 40
56.0
 40
56.0
 40
56.0
 40
57.0
 40
57.0
 40
57.0
 40
58.0
 40
58.0
 40
58.0
 40
59.0
 40
59.0
 40
59.0
 40
60.0
 40
60.0
 40
60.0
 40
61.0
 40
61.0
 40
61.0
 40
62.0
 40
62.0
 40
62.0
 40
63.0
 40
63.0
 40
63.0
 40
64.0
 40
64.0
 40
64.0
 40
65.0
 40
65.0
 40
65.0
 40
66.0
 40
66.0
 40
66.0
 40
67.0
 40
67.0
 40
67.0
 40
68.0
 40
68.0
 40
68.0
 40
69.0
 40
69.0
 40
69.0
 40
70.0
 40
70.0
 40
70.0
 40
71.0
 40
71.0
 40
71.0
 40
72.0
 40
72.0
 40
72.0
 40
73.0
 40
73.0
 40
73.0
 40
74.0
 40
74.0
 40
74.0
 40
75.0
 40
75.0
 40
75.0
 40
76.0
 40
76.0
 40
76.0
 40
77.0
 40
77.0
 40
77.0
 40
78.0
 40
78.0
 40
78.0
 40
79.0
 40
79.0
 40
79.0
 40
80.0
 40
80.0
 40
80.0
 40
81.0
 40
81.0
 40
81.0
 40
82.0
 40
82.0
 40
82.0
 40
83.0
 40
83.0
 40
83.0
 40
84.0
 40
84.0
 40
84.0
 40
84.0
 10
721.2822332116643
 20
148.6621446208661
 30
0.0
 10
721.2822974826744
 20
141.9645644569554
 30
0.0
 10
721.2656488334943
 20
135.2669969801213
 30
0.0
 10
721.2318277869106
 20
128.5695113201201
 30
0.0
 10
721.1980834498513
 20
121.8872162248545
 30
0.0
 10
721.1472445244644
 20
115.205002575698
 30
0.0
 10
721.0780962482996
 20
108.5229764866234
 30
0.0
 10
721.0091565692928
 20
101.8611078306128
 30
0.0
 10
720.9220178392438
 20
95.19942560478032
 30
0.0
 10
720.8147666161627
 20
88.53806244903612
 30
0.0
 10
720.707781364602
 20
81.89321875957428
 30
0.0
 10
720.5807832499838
 20
75.24869255967033
 30
0.0
 10
720.431187295867
 20
68.6046686381389
 30
0.0
 10
720.2817516351284
 20
61.96776384597957
 30
0.0
 10
720.1097665365044
 20
55.3313602563715
 30
0.0
 10
719.9119822258898
 20
48.69571632671913
 30
0.0
 10
719.7140425525197
 20
42.05485999259724
 30
0.0
 10
719.4902631198652
 20
35.41476451235192
 30
0.0
 10
719.2367060236213
 20
28.7757933697663
 30
0.0
 10
718.9824744088587
 20
22.11916108035823
 30
0.0
 10
718.6983064893237
 20
15.46365911855083
 30
0.0
 10
718.3794991314495
 20
8.809798944377496
 30
0.0
 10
718.0593770817978
 20
2.128499706470085
 30
0.0
 10
717.704329313821
 20
-4.551144175154076
 30
0.0
 10
717.3087429647446
 20
-11.22841171006777
 30
0.0
 10
716.9112732241877
 20
-17.93746979780531
 30
0.0
 10
716.472877974271
 20
-24.64412885736381
 30
0.0
 10
715.9867167559438
 20
-31.34735984095117
 30
0.0
 10
715.4988573793014
 20
-38.074005171713
 30
0.0
 10
714.9628977589474
 20
-44.79719843620008
 30
0.0
 10
714.3706895569334
 20
-51.51548285857059
 30
0.0
 10
713.7782835612779
 20
-58.23601114362166
 30
0.0
 10
713.1295914043726
 20
-64.95162730698765
 30
0.0
 10
712.4154053805568
 20
-71.66033554246235
 30
0.0
 10
711.702142377589
 20
-78.36037337922839
 30
0.0
 10
710.9235546881332
 20
-85.053521132316
 30
0.0
 10
710.0695815857417
 20
-91.73711765748179
 30
0.0
 10
709.2166838838612
 20
-98.41229759061676
 30
0.0
 10
708.2885905138419
 20
-105.077950336186
 30
0.0
 10
707.2746375582863
 20
-111.7306156729339
 30
0.0
 10
706.2606672382648
 20
-118.3833949399324
 30
0.0
 10
705.1608343918899
 20
-125.0231863532582
 30
0.0
 10
703.9640863825479
 20
-131.6455820325161
 30
0.0
 10
702.7647912429545
 20
-138.2820726625156
 30
0.0
 10
701.4681679574716
 20
-144.9010934302726
 30
0.0
 10
700.0629265131128
 20
-151.4971144240862
 30
0.0
 10
698.6511228096592
 20
-158.1239378105967
 30
0.0
 10
697.1296841188345
 20
-164.7275461108189
 30
0.0
 10
695.4870334464313
 20
-171.3010350496821
 30
0.0
 10
693.832823564124
 20
-177.9207811384108
 30
0.0
 10
692.0556897787495
 20
-184.5099824789697
 30
0.0
 10
690.1438448931285
 20
-191.0600646405124
 30
0.0
 10
688.2207428982557
 20
-197.6487142565022
 30
0.0
 10
686.1613387513598
 20
-204.1977826630063
 30
0.0
 10
683.9542290612067
 20
-210.6969163880746
 30
0.0
 10
681.7409408642826
 20
-217.2142435640519
 30
0.0
 10
679.3791190029821
 20
-223.6813560964426
 30
0.0
 10
676.8582726325678
 20
-230.0861250869865
 30
0.0
 10
674.3353910538439
 20
-236.4960649753531
 30
0.0
 10
671.6532280850638
 20
-242.8435606149847
 30
0.0
 10
668.8029181389833
 20
-249.1148899288718
 30
0.0
 10
665.9530445338756
 20
-255.3852591934891
 30
0.0
 10
662.935075429219
 20
-261.5794854504971
 30
0.0
 10
659.7424406485965
 20
-267.6825945641282
 30
0.0
 10
656.5505712276419
 20
-273.784240599804
 30
0.0
 10
653.1841198647201
 20
-279.7948131732752
 30
0.0
 10
649.6393770213909
 20
-285.6985703103255
 30
0.0
 10
646.0933114751982
 20
-291.6045304044774
 30
0.0
 10
642.3688213666344
 20
-297.4035953320911
 30
0.0
 10
638.4654551648762
 20
-303.0798593602814
 30
0.0
 10
634.5562730862625
 20
-308.7645808200776
 30
0.0
 10
630.4676814793099
 20
-314.3261351698288
 30
0.0
 10
626.2025232895297
 20
-319.7489779907103
 30
0.0
 10
621.9259575848674
 20
-325.1863246488031
 30
0.0
 10
617.4718795507715
 20
-330.4842167950828
 30
0.0
 10
612.846781996752
 20
-335.6284292596842
 30
0.0
 10
608.2108798465015
 20
-340.784659014296
 30
0.0
 10
603.4031582126288
 20
-345.7864902326193
 30
0.0
 10
598.4336681772679
 20
-350.6220550870664
 30
0.0
 10
593.4577984013334
 20
-355.4638277514068
 30
0.0
 10
588.3197446066731
 20
-360.1389068783647
 30
0.0
 10
583.0324462862616
 20
-364.6384859305473
 30
0.0
 10
577.7452320294251
 20
-369.1379934432205
 30
0.0
 10
572.3087779925098
 20
-373.4620064615898
 30
0.0
 10
566.738089442157
 20
-377.6052941300667
 30
0.0
 10
561.1779073050456
 20
-381.7407674875718
 30
0.0
 10
555.4839965141659
 20
-385.6961965544771
 30
0.0
 10
549.6724488315193
 20
-389.4701123887636
 30
0.0
 10
543.8873654114975
 20
-393.2268428010298
 30
0.0
 10
537.9857140353981
 20
-396.8037093439661
 30
0.0
 10
531.9836019080295
 20
-400.2027324963742
 30
0.0
 10
526.0100783596055
 20
-403.5855658076774
 30
0.0
 10
519.9370487872258
 20
-406.7922458605755
 30
0.0
 10
513.779833534238
 20
-409.8276461275937
 30
0.0
 10
507.6328622507107
 20
-412.8579962954527
 30
0.0
 10
501.4019851787419
 20
-415.7176361314267
 30
0.0
 10
495.1015029708084
 20
-418.414053184892
 30
0.0
 10
488.7990700224618
 20
-421.1113050966363
 30
0.0
 10
482.4269888295148
 20
-423.6452331369675
 30
0.0
 10
475.998214133867
 20
-426.0253939154063
 30
0.0
 10
469.5660481496219
 20
-428.4068102693679
 30
0.0
 10
463.0771288332886
 20
-430.6342970889163
 30
0.0
 10
456.5428225466015
 20
-432.7188346096625
 30
0.0
 10
450.017450594148
 20
-434.8005219495083
 30
0.0
 10
443.4468157013958
 20
-436.7396506313618
 30
0.0
 10
436.8405473842285
 20
-438.5478964825565
 30
0.0
 10
430.2703585206922
 20
-440.3462667853467
 30
0.0
 10
423.6649243864548
 20
-442.0151799597627
 30
0.0
 10
417.0321498073194
 20
-443.5665063904087
 30
0.0
 10
410.4450894454119
 20
-445.1071408138592
 30
0.0
 10
403.8310642099235
 20
-446.5318037638465
 30
0.0
 10
397.1963926412428
 20
-447.8520466776566
 30
0.0
 10
390.5926985230786
 20
-449.1661253436593
 30
0.0
 10
383.9685504181473
 20
-450.3767567768181
 30
0.0
 10
377.3289734147719
 20
-451.4951392641182
 30
0.0
 10
370.7047559448823
 20
-452.6109345635282
 30
0.0
 10
364.0651808782829
 20
-453.6349072279625
 30
0.0
 10
357.4142144410125
 20
-454.577900020987
 30
0.0
 10
350.7649693275856
 20
-455.5206487598758
 30
0.0
 10
344.1043387391096
 20
-456.3824595384131
 30
0.0
 10
337.4354050619054
 20
-457.1736730086597
 30
0.0
 10
330.758760263607
 20
-457.965801339242
 30
0.0
 10
324.0737931641618
 20
-458.6871690073663
 30
0.0
 10
317.3828518962051
 20
-459.3474160251246
 30
0.0
 10
310.6812882296513
 20
-460.0087112372417
 30
0.0
 10
303.9737314105874
 20
-460.6086915772278
 30
0.0
 10
297.2619290873977
 20
-461.1560861543512
 30
0.0
 10
290.5454913522083
 20
-461.7038587818412
 30
0.0
 10
283.8248022466347
 20
-462.1989729861676
 30
0.0
 10
277.1011285518434
 20
-462.649025314653
 30
0.0
 10
270.3897353685689
 20
-463.0982556411971
 30
0.0
 10
263.6753684885595
 20
-463.5025885488914
 30
0.0
 10
256.9589275902686
 20
-463.8684311237367
 30
0.0
 10
250.2720322753943
 20
-464.2326643592812
 30
0.0
 10
243.5830811492818
 20
-464.5587451546378
 30
0.0
 10
236.8927043722469
 20
-464.8519335203235
 30
0.0
 10
230.2352228400545
 20
-465.1436803374546
 30
0.0
 10
223.5763296417558
 20
-465.4028573807146
 30
0.0
 10
216.9164680990722
 20
-465.6337836154219
 30
0.0
 10
210.2840446463572
 20
-465.8637584527079
 30
0.0
 10
203.6506608118185
 20
-466.0657147839628
 30
0.0
 10
197.0166313209464
 20
-466.2432430212183
 30
0.0
 10
190.3989617516487
 20
-466.4203334630004
 30
0.0
 10
183.7806497065476
 20
-466.5731161446252
 30
0.0
 10
177.1619189755267
 20
-466.7045272885416
 30
0.0
 10
170.5457654790283
 20
-466.8358872629403
 30
0.0
 10
163.9291936226054
 20
-466.9458923399133
 30
0.0
 10
157.3123635942699
 20
-467.03684059932
 30
0.0
 10
150.6845624361868
 20
-467.1279396567946
 30
0.0
 10
144.0565022493695
 20
-467.1999186494338
 30
0.0
 10
137.4283005088451
 20
-467.2544104593468
 30
0.0
 10
130.7787664255125
 20
-467.3090776469164
 30
0.0
 10
124.1290898758746
 20
-467.3461449083956
 30
0.0
 10
117.4793630574205
 20
-467.3665223909948
 30
0.0
 10
110.8040910562977
 20
-467.3869781544855
 30
0.0
 10
104.1287683993757
 20
-467.3906156639667
 30
0.0
 10
97.45347779117532
 20
-467.3775546256222
 30
0.0
 10
90.75754258125382
 20
-467.3644531935552
 30
0.0
 10
84.06163961859532
 20
-467.3345497671314
 30
0.0
 10
77.36585968056474
 20
-467.2870127964666
 30
0.0
 10
70.66533193187787
 20
-467.2394421185321
 30
0.0
 10
63.96492738236072
 20
-467.174212880528
 30
0.0
 10
57.26476142434981
 20
-467.0897724448488
 30
0.0
 10
50.57670887992602
 20
-467.0054846713346
 30
0.0
 10
43.88889406506515
 20
-466.9020551023092
 30
0.0
 10
37.20147131878173
 20
-466.7773240295304
 30
0.0
 10
30.53295821058927
 20
-466.6529456515872
 30
0.0
 10
23.8648349568684
 20
-466.5073860656417
 30
0.0
 10
17.19731454406311
 20
-466.3378248623435
 30
0.0
 10
10.54669531516594
 20
-466.1686934717827
 30
0.0
 10
3.896675874852719
 20
-465.9756819908097
 30
0.0
 10
-2.752446481702635
 20
-465.7552867671052
 30
0.0
 10
-9.392891010971743
 20
-465.5351791831342
 30
0.0
 10
-16.03244079652805
 20
-465.2877592872885
 30
0.0
 10
-22.67067938070086
 20
-465.0087893739211
 30
0.0
 10
-29.3121095050346
 20
-464.7296853370867
 30
0.0
 10
-35.95222716687874
 20
-464.4190009380793
 30
0.0
 10
-42.59044909360971
 20
-464.0716934137457
 30
0.0
 10
-49.24483891970186
 20
-463.7235399952571
 30
0.0
 10
-55.89732376501626
 20
-463.3385848373123
 30
0.0
 10
-62.54708515782954
 20
-462.9108540128908
 30
0.0
 10
-69.22460226931533
 20
-462.4813378648239
 30
0.0
 10
-75.89937314577632
 20
-462.0086882187336
 30
0.0
 10
-82.57024898559673
 20
-461.4858339874067
 30
0.0
 10
-89.27664914533779
 20
-460.9601954079052
 30
0.0
 10
-95.97911267359667
 20
-460.3838161118591
 30
0.0
 10
-102.6760011422645
 20
-459.748117137642
 30
0.0
 10
-109.4061251877531
 20
-459.1092632919876
 30
0.0
 10
-116.1306187000909
 20
-458.41049951914
 30
0.0
 10
-122.8472225666954
 20
-457.6421429746231
 30
0.0
 10
-129.5775266471379
 20
-456.8722191724274
 30
0.0
 10
-136.2999088631524
 20
-456.0324184048682
 30
0.0
 10
-143.0113805722036
 20
-455.1123802664505
 30
0.0
 10
-149.7217461897794
 20
-454.1924937559459
 30
0.0
 10
-156.4212048963195
 20
-453.1923963196674
 30
0.0
 10
-163.105882578666
 20
-452.1010947866864
 30
0.0
 10
-169.7835088678507
 20
-451.0109444230747
 30
0.0
 10
-176.4463853001837
 20
-449.829782276215
 30
0.0
 10
-183.089600454964
 20
-448.54619412085
 30
0.0
 10
-189.7271701662606
 20
-447.2636967662986
 30
0.0
 10
-196.3451120023387
 20
-445.8789474137201
 30
0.0
 10
-202.9373198619423
 20
-444.3803311864605
 30
0.0
 10
-209.5311779059532
 20
-442.881339820351
 30
0.0
 10
-216.0992890882493
 20
-441.2684245652939
 30
0.0
 10
-222.6341895949847
 20
-439.5300077526811
 30
0.0
 10
-229.1825289059085
 20
-437.7880159440604
 30
0.0
 10
-235.6975208075267
 20
-435.9200058675976
 30
0.0
 10
-242.170170926562
 20
-433.9146779603875
 30
0.0
 10
-248.6712376227038
 20
-431.9005461546049
 30
0.0
 10
-255.1295899378162
 20
-429.7478881510669
 30
0.0
 10
-261.5344869488133
 20
-427.4458518419406
 30
0.0
 10
-267.9838977600656
 20
-425.1278164645858
 30
0.0
 10
-274.3791076603921
 20
-422.6583192188716
 30
0.0
 10
-280.7074342345505
 20
-420.0273295064161
 30
0.0
 10
-287.0746069659788
 20
-417.3801895781424
 30
0.0
 10
-293.3740727302573
 20
-414.5695684690176
 30
0.0
 10
-299.5915112637974
 20
-411.5873880790189
 30
0.0
 10
-305.8246269782904
 20
-408.5976881644737
 30
0.0
 10
-311.9753012795879
 20
-405.4355627097722
 30
0.0
 10
-318.0279995721997
 20
-402.095434371799
 30
0.0
 10
-324.0825780385501
 20
-398.7542684764499
 30
0.0
 10
-330.0391196174179
 20
-395.2349890931453
 30
0.0
 10
-335.8814949286915
 20
-391.5350755998236
 30
0.0
 10
-341.7205892739351
 20
-387.8372399070208
 30
0.0
 10
-347.4456455427678
 20
-383.958972928596
 30
0.0
 10
-353.0406868627285
 20
-379.9011819848824
 30
0.0
 10
-358.6336604697369
 20
-375.8448906452753
 30
0.0
 10
-364.0967152072241
 20
-371.6092080062141
 30
0.0
 10
-369.4147656159266
 20
-367.1985331370145
 30
0.0
 10
-374.7360841444603
 20
-362.7851477605777
 30
0.0
 10
-379.9122200694228
 20
-358.1965550107825
 30
0.0
 10
-384.9297336230821
 20
-353.4405711776392
 30
0.0
 10
-389.9545877841738
 20
-348.6776293542359
 30
0.0
 10
-394.8203551063324
 20
-343.746806303859
 30
0.0
 10
-399.5165014365857
 20
-338.6594670358367
 30
0.0
 10
-404.2188332201816
 20
-333.5654270610217
 30
0.0
 10
-408.7510968904962
 20
-328.3144582913735
 30
0.0
 10
-413.1060609122567
 20
-322.9204868591912
 30
0.0
 10
-417.4653212702746
 20
-317.5211940707312
 30
0.0
 10
-421.6469319816172
 20
-311.9786163255246
 30
0.0
 10
-425.6472724854674
 20
-306.3083467761786
 30
0.0
 10
-429.6490809139099
 20
-300.6359965218554
 30
0.0
 10
-433.4694860762929
 20
-294.8358607332119
 30
0.0
 10
-437.1084236697585
 20
-288.9242961464155
 30
0.0
 10
-440.7446581372133
 20
-283.0171228698817
 30
0.0
 10
-444.1996945361221
 20
-276.9986862798289
 30
0.0
 10
-447.4768278763356
 20
-270.8850194043663
 30
0.0
 10
-450.7457434822122
 20
-264.7866831501774
 30
0.0
 10
-453.8376471295772
 20
-258.5935936103983
 30
0.0
 10
-456.7584232336399
 20
-252.3215379027215
 30
0.0
 10
-459.6644263964976
 20
-246.0812055133896
 30
0.0
 10
-462.4010287241036
 20
-239.7627037392265
 30
0.0
 10
-464.977371405085
 20
-233.3781117548007
 30
0.0
  0
ENDBLK
  5
4D
330
4A
100
AcDbEntity
  8
0
100
AcDbBlockEnd
  0
BLOCK
  5
51
330
4F
100
AcDbEntity
  8
0
100
AcDbBlockBegin
  2
block 5
 70
     0
 10
0.0
 20
0.0
 30
0.0
  3
block 5
  1

  0
SPLINE
  5
53
330
4F
100
AcDbEntity
  8
0
 62
   250
370
    25
100
AcDbSpline
210
0.0
220
0.0
230
1.0
 70
     8
 71
     3
 72
    77
 73
    73
 74
     0
 42
0.0000000001
 43
0.0000000001
 12
1.0
 22
0.0
 32
0.0
 13
1.0
 23
0.0
 33
0.0
 40
0.0
 40
0.0
 40
0.0
 40
0.0
 40
1.0
 40
1.0
 40
1.0
 40
2.0
 40
2.0
 40
2.0
 40
3.0
 40
3.0
 40
3.0
 40
4.0
 40
4.0
 40
4.0
 40
5.0
 40
5.0
 40
5.0
 40
6.0
 40
6.0
 40
6.0
 40
7.0
 40
7.0
 40
7.0
 40
8.0
 40
8.0
 40
8.0
 40
9.0
 40
9.0
 40
9.0
 40
10.0
 40
10.0
 40
10.0
 40
11.0
 40
11.0
 40
11.0
 40
12.0
 40
12.0
 40
12.0
 40
13.0
 40
13.0
 40
13.0
 40
14.0
 40
14.0
 40
14.0
 40
15.0
 40
15.0
 40
15.0
 40
16.0
 40
16.0
 40
16.0
 40
17.0
 40
17.0
 40
17.0
 40
18.0
 40
18.0
 40
18.0
 40
19.0
 40
19.0
 40
19.0
 40
20.0
 40
20.0
 40
20.0
 40
21.0
 40
21.0
 40
21.0
 40
22.0
 40
22.0
 40
22.0
 40
23.0
 40
23.0
 40
23.0
 40
24.0
 40
24.0
 40
24.0
 40
24.0
 10
-464.9773713557576
 20
530.7024011187381
 30
0.0
 10
-467.0172125473633
 20
525.647346492626
 30
0.0
 10
-468.9560576588884
 20
520.5522211539464
 30
0.0
 10
-470.799239872065
 20
515.4226613471002
 30
0.0
 10
-472.6347579151154
 20
510.3144308579259
 30
0.0
 10
-474.3754069611679
 20
505.1720516704266
 30
0.0
 10
-476.0265536568351
 20
500.0012169780993
 30
0.0
 10
-477.6745694027198
 20
494.8401873647315
 30
0.0
 10
-479.2334219100381
 20
489.6508100604313
 30
0.0
 10
-480.7088342806015
 20
484.437881730783
 30
0.0
 10
-482.1838950339345
 20
479.2261957354874
 30
0.0
 10
-483.5755554163197
 20
473.9909699387625
 30
0.0
 10
-484.8896930456918
 20
468.7364266486363
 30
0.0
 10
-486.2047126244336
 20
463.4783569080933
 30
0.0
 10
-487.4421053604695
 20
458.2009437365648
 30
0.0
 10
-488.6078327608893
 20
452.907806946236
 30
0.0
 10
-489.7743567697822
 20
447.6110530515442
 30
0.0
 10
-490.869117463515
 20
442.298554040974
 30
0.0
 10
-491.8980495161281
 20
436.9733888561343
 30
0.0
 10
-492.9266160051897
 20
431.650115619678
 30
0.0
 10
-493.8894006206068
 20
426.3141852075685
 30
0.0
 10
-494.7922344571339
 20
420.9681764754649
 30
0.0
 10
-495.6927155757466
 20
415.6360990451518
 30
0.0
 10
-496.5335579629061
 20
410.2939957531128
 30
0.0
 10
-497.3203826032237
 20
404.9439874556189
 30
0.0
 10
-498.1037031917257
 20
399.6178049323583
 30
0.0
 10
-498.8334860882768
 20
394.2837876553141
 30
0.0
 10
-499.5150981536829
 20
388.9436550617795
 30
0.0
 10
-500.1948471272826
 20
383.6181189781677
 30
0.0
 10
-500.8266882463712
 20
378.2865009631057
 30
0.0
 10
-501.4158156106454
 20
372.95019502379
 30
0.0
 10
-502.0043406550571
 20
367.6193448878473
 30
0.0
 10
-502.550239240519
 20
362.2838164085449
 30
0.0
 10
-503.0583289753554
 20
356.9447119926258
 30
0.0
 10
-503.5664175811995
 20
351.6056194402011
 30
0.0
 10
-504.0366975044535
 20
346.2629509670418
 30
0.0
 10
-504.4735332084571
 20
340.9175667770629
 30
0.0
 10
-504.9105444217489
 20
335.5700349499581
 30
0.0
 10
-505.3140845363459
 20
330.2197852233843
 30
0.0
 10
-505.6880296760668
 20
324.8674813193701
 30
0.0
 10
-506.0620742339631
 20
319.5137544356791
 30
0.0
 10
-506.4065080784739
 20
314.1579722820993
 30
0.0
 10
-506.7247315957753
 20
308.800643670867
 30
0.0
 10
-507.0428481421484
 20
303.4451159270595
 30
0.0
 10
-507.3347719795637
 20
298.0880427650883
 30
0.0
 10
-507.6034694827717
 20
292.7298129675429
 30
0.0
 10
-507.8718087312263
 20
287.3787273052582
 30
0.0
 10
-508.116983539592
 20
282.0264880896343
 30
0.0
 10
-508.3415978880859
 20
276.6733924491187
 30
0.0
 10
-508.5657330202932
 20
271.3317176755481
 30
0.0
 10
-508.7693953308077
 20
265.9891901275768
 30
0.0
 10
-508.9548489702617
 20
260.6460353799355
 30
0.0
 10
-509.1399712334119
 20
255.3124280041374
 30
0.0
 10
-509.3069498393809
 20
249.9781956681092
 30
0.0
 10
-509.4577248031148
 20
244.643508996494
 30
0.0
 10
-509.6083272429497
 20
239.3149265274824
 30
0.0
 10
-509.7427631013001
 20
233.9858907620449
 30
0.0
 10
-509.8626724343097
 20
228.6565308814427
 30
0.0
 10
-509.9825269415737
 20
223.3296077265986
 30
0.0
 10
-510.0878682043186
 20
218.0023607529278
 30
0.0
 10
-510.1800473276813
 20
212.6748879954209
 30
0.0
 10
-510.2722419844217
 20
207.3465174898436
 30
0.0
 10
-510.3512700654384
 20
202.0179211243453
 30
0.0
 10
-510.4181999204723
 20
196.6891743277732
 30
0.0
 10
-510.48517169345
 20
191.357090155109
 30
0.0
 10
-510.5400300815498
 20
186.0248553628784
 30
0.0
 10
-510.5835621804993
 20
180.6925285470912
 30
0.0
 10
-510.6271295223366
 20
175.3558847643006
 30
0.0
 10
-510.6593522284373
 20
170.0191488088996
 30
0.0
 10
-510.6807341633194
 20
164.6823716518128
 30
0.0
 10
-510.7021291952917
 20
159.3423255578001
 30
0.0
 10
-510.71267017138
 20
154.0022382116257
 30
0.0
 10
-510.7125705694797
 20
148.6621446207891
 30
0.0
  0
ENDBLK
  5
52
330
4F
100
AcDbEntity
  8
0
100
AcDbBlockEnd
  0
BLOCK
  5
56
330
54
100
AcDbEntity
  8
0
100
AcDbBlockBegin
  2
block 6
 70
     0
 10
0.0
 20
0.0
 30
0.0
  3
block 6
  1

  0
SPLINE
  5
58
330
54
100
AcDbEntity
  8
0
 62
   250
370
    25
100
AcDbSpline
210
0.0
220
0.0
230
1.0
 70
     8
 71
     3
 72
   257
 73
   253
 74
     0
 42
0.0000000001
 43
0.0000000001
 12
1.0
 22
0.0
 32
0.0
 13
1.0
 23
0.0
 33
0.0
 40
0.0
 40
0.0
 40
0.0
 40
0.0
 40
1.0
 40
1.0
 40
1.0
 40
2.0
 40
2.0
 40
2.0
 40
3.0
 40
3.0
 40
3.0
 40
4.0
 40
4.0
 40
4.0
 40
5.0
 40
5.0
 40
5.0
 40
6.0
 40
6.0
 40
6.0
 40
7.0
 40
7.0
 40
7.0
 40
8.0
 40
8.0
 40
8.0
 40
9.0
 40
9.0
 40
9.0
 40
10.0
 40
10.0
 40
10.0
 40
11.0
 40
11.0
 40
11.0
 40
12.0
 40
12.0
 40
12.0
 40
13.0
 40
13.0
 40
13.0
 40
14.0
 40
14.0
 40
14.0
 40
15.0
 40
15.0
 40
15.0
 40
16.0
 40
16.0
 40
16.0
 40
17.0
 40
17.0
 40
17.0
 40
18.0
 40
18.0
 40
18.0
 40
19.0
 40
19.0
 40
19.0
 40
20.0
 40
20.0
 40
20.0
 40
21.0
 40
21.0
 40
21.0
 40
22.0
 40
22.0
 40
22.0
 40
23.0
 40
23.0
 40
23.0
 40
24.0
 40
24.0
 40
24.0
 40
25.0
 40
25.0
 40
25.0
 40
26.0
 40
26.0
 40
26.0
 40
27.0
 40
27.0
 40
27.0
 40
28.0
 40
28.0
 40
28.0
 40
29.0
 40
29.0
 40
29.0
 40
30.0
 40
30.0
 40
30.0
 40
31.0
 40
31.0
 40
31.0
 40
32.0
 40
32.0
 40
32.0
 40
33.0
 40
33.0
 40
33.0
 40
34.0
 40
34.0
 40
34.0
 40
35.0
 40
35.0
 40
35.0
 40
36.0
 40
36.0
 40
36.0
 40
37.0
 40
37.0
 40
37.0
 40
38.0
 40
38.0
 40
38.0
 40
39.0
 40
39.0
 40
39.0
 40
40.0
 40
40.0
 40
40.0
 40
41.0
 40
41.0
 40
41.0
 40
42.0
 40
42.0
 40
42.0
 40
43.0
 40
43.0
 40
43.0
 40
44.0
 40
44.0
 40
44.0
 40
45.0
 40
45.0
 40
45.0
 40
46.0
 40
46.0
 40
46.0
 40
47.0
 40
47.0
 40
47.0
 40
48.0
 40
48.0
 40
48.0
 40
49.0
 40
49.0
 40
49.0
 40
50.0
 40
50.0
 40
50.0
 40
51.0
 40
51.0
 40
51.0
 40
52.0
 40
52.0
 40
52.0
 40
53.0
 40
53.0
 40
53.0
 40
54.0
 40
54.0
 40
54.0
 40
55.0
 40
55.0
 40
55.0
 40
56.0
 40
56.0
 40
56.0
 40
57.0
 40
57.0
 40
57.0
 40
58.0
 40
58.0
 40
58.0
 40
59.0
 40
59.0
 40
59.0
 40
60.0
 40
60.0
 40
60.0
 40
61.0
 40
61.0
 40
61.0
 40
62.0
 40
62.0
 40
62.0
 40
63.0
 40
63.0
 40
63.0
 40
64.0
 40
64.0
 40
64.0
 40
65.0
 40
65.0
 40
65.0
 40
66.0
 40
66.0
 40
66.0
 40
67.0
 40
67.0
 40
67.0
 40
68.0
 40
68.0
 40
68.0
 40
69.0
 40
69.0
 40
69.0
 40
70.0
 40
70.0
 40
70.0
 40
71.0
 40
71.0
 40
71.0
 40
72.0
 40
72.0
 40
72.0
 40
73.0
 40
73.0
 40
73.0
 40
74.0
 40
74.0
 40
74.0
 40
75.0
 40
75.0
 40
75.0
 40
76.0
 40
76.0
 40
76.0
 40
77.0
 40
77.0
 40
77.0
 40
78.0
 40
78.0
 40
78.0
 40
79.0
 40
79.0
 40
79.0
 40
80.0
 40
80.0
 40
80.0
 40
81.0
 40
81.0
 40
81.0
 40
82.0
 40
82.0
 40
82.0
 40
83.0
 40
83.0
 40
83.0
 40
84.0
 40
84.0
 40
84.0
 40
84.0
 10
721.2822332116643
 20
148.6621446208661
 30
0.0
 10
721.2822974826744
 20
155.3597247848153
 30
0.0
 10
721.2656488334943
 20
162.0572922616237
 30
0.0
 10
721.2318277869106
 20
168.7547779216057
 30
0.0
 10
721.1980834498513
 20
175.4370730168598
 30
0.0
 10
721.1472445244644
 20
182.1192866660162
 30
0.0
 10
721.0780962482996
 20
188.8013127550908
 30
0.0
 10
721.0091565692928
 20
195.4631814111207
 30
0.0
 10
720.9220178392438
 20
202.1248636369467
 30
0.0
 10
720.8147666161627
 20
208.7862267926781
 30
0.0
 10
720.707781364602
 20
215.4310704821399
 30
0.0
 10
720.5807832499838
 20
222.0755966820426
 30
0.0
 10
720.431187295867
 20
228.7196206035869
 30
0.0
 10
720.2817516351284
 20
235.3565253957333
 30
0.0
 10
720.1097665365044
 20
241.9929289853478
 30
0.0
 10
719.9119822258898
 20
248.6285729150066
 30
0.0
 10
719.7140425525197
 20
255.2694292491157
 30
0.0
 10
719.4902631198652
 20
261.9095247293687
 30
0.0
 10
719.2367060236213
 20
268.5484958719736
 30
0.0
 10
718.9824744088587
 20
275.205128161356
 30
0.0
 10
718.6983064893237
 20
281.8606301231634
 30
0.0
 10
718.3794991314495
 20
288.5144902973752
 30
0.0
 10
718.0593770817978
 20
295.1957895352569
 30
0.0
 10
717.704329313821
 20
301.8754334168933
 30
0.0
 10
717.3087429647446
 20
308.5527009517942
 30
0.0
 10
716.9112732241877
 20
315.2617590395253
 30
0.0
 10
716.472877974271
 20
321.9684180990768
 30
0.0
 10
715.9867167559438
 20
328.6716490826898
 30
0.0
 10
715.4988573793014
 20
335.3982944134323
 30
0.0
 10
714.9628977589474
 20
342.121487677913
 30
0.0
 10
714.3706895569334
 20
348.8397721002963
 30
0.0
 10
713.7782835612779
 20
355.5603003853487
 30
0.0
 10
713.1295914043726
 20
362.2759165487018
 30
0.0
 10
712.4154053805568
 20
368.984624784183
 30
0.0
 10
711.702142377589
 20
375.6846626209683
 30
0.0
 10
710.9235546881332
 20
382.3778103740559
 30
0.0
 10
710.0695815857417
 20
389.061406899196
 30
0.0
 10
709.2166838838612
 20
395.7365868323367
 30
0.0
 10
708.2885905138419
 20
402.4022395779317
 30
0.0
 10
707.2746375582863
 20
409.0549049146411
 30
0.0
 10
706.2606672382648
 20
415.7076841816646
 30
0.0
 10
705.1608343918899
 20
422.3474755949839
 30
0.0
 10
703.9640863825479
 20
428.9698712742226
 30
0.0
 10
702.7647912429545
 20
435.6063619042221
 30
0.0
 10
701.4681679574716
 20
442.225382671992
 30
0.0
 10
700.0629265131128
 20
448.821403665794
 30
0.0
 10
698.6511228096592
 20
455.4482270523173
 30
0.0
 10
697.1296841188345
 20
462.0518353525395
 30
0.0
 10
695.4870334464313
 20
468.6253242913963
 30
0.0
 10
693.832823564124
 20
475.2450703801571
 30
0.0
 10
692.0556897787495
 20
481.8342717206839
 30
0.0
 10
690.1438448931285
 20
488.3843538822067
 30
0.0
 10
688.2207428982429
 20
494.9730034982286
 30
0.0
 10
686.1613387513598
 20
501.5220719047198
 30
0.0
 10
683.9542290612067
 20
508.0212056297939
 30
0.0
 10
681.7409408642826
 20
514.5385328057713
 30
0.0
 10
679.3791190029821
 20
521.0056453381812
 30
0.0
 10
676.8582726325678
 20
527.4104143287059
 30
0.0
 10
674.3353910538439
 20
533.8203542170788
 30
0.0
 10
671.6532280850638
 20
540.1678498566926
 30
0.0
 10
668.8029181389833
 20
546.4391791705796
 30
0.0
 10
665.9530445338756
 20
552.7095484352033
 30
0.0
 10
662.935075429219
 20
558.9037746922241
 30
0.0
 10
659.7424406485965
 20
565.0068838058681
 30
0.0
 10
656.5505712276419
 20
571.1085298415247
 30
0.0
 10
653.1841198647201
 20
577.1191024149888
 30
0.0
 10
649.6393770213909
 20
583.0228595520455
 30
0.0
 10
646.0933114751982
 20
588.9288196462167
 30
0.0
 10
642.3688213666344
 20
594.7278845738304
 30
0.0
 10
638.4654551648762
 20
600.4041486020201
 30
0.0
 10
634.5562730862625
 20
606.0888700617841
 30
0.0
 10
630.4676814793099
 20
611.6504244115546
 30
0.0
 10
626.2025232895297
 20
617.0732672324168
 30
0.0
 10
621.9259575848674
 20
622.5106138905481
 30
0.0
 10
617.4718795507715
 20
627.8085060368227
 30
0.0
 10
612.846781996752
 20
632.9527185014177
 30
0.0
 10
608.2108798465015
 20
638.1089482560294
 30
0.0
 10
603.4031582126288
 20
643.1107794743399
 30
0.0
 10
598.4336681772679
 20
647.9463443287999
 30
0.0
 10
593.4577984013334
 20
652.788116993121
 30
0.0
 10
588.3197446066731
 20
657.4631961201046
 30
0.0
 10
583.0324462862616
 20
661.9627751722679
 30
0.0
 10
577.7452320294251
 20
666.4622826849276
 30
0.0
 10
572.3087779925098
 20
670.7862957033226
 30
0.0
 10
566.738089442157
 20
674.9295833717739
 30
0.0
 10
561.1779073050456
 20
679.065056729311
 30
0.0
 10
555.4839965141659
 20
683.0204857961971
 30
0.0
 10
549.6724488315193
 20
686.7944016305029
 30
0.0
 10
543.8873654115102
 20
690.5511320427491
 30
0.0
 10
537.9857140353981
 20
694.1279985856854
 30
0.0
 10
531.9836019080295
 20
697.5270217380935
 30
0.0
 10
526.0100783596055
 20
700.9098550493839
 30
0.0
 10
519.9370487872258
 20
704.1165351022947
 30
0.0
 10
513.779833534238
 20
707.1519353693259
 30
0.0
 10
507.6328622507107
 20
710.1822855371977
 30
0.0
 10
501.4019851787419
 20
713.0419253731396
 30
0.0
 10
495.1015029708084
 20
715.7383424266113
 30
0.0
 10
488.7990700224618
 20
718.4355943383556
 30
0.0
 10
482.4269888295148
 20
720.9695223786817
 30
0.0
 10
475.9982141338542
 20
723.3496831571268
 30
0.0
 10
469.5660481496091
 20
725.731099511095
 30
0.0
 10
463.0771288332886
 20
727.9585863306626
 30
0.0
 10
456.5428225466015
 20
730.0431238513767
 30
0.0
 10
450.017450594148
 20
732.1248111912097
 30
0.0
 10
443.4468157013958
 20
734.0639398731145
 30
0.0
 10
436.8405473842285
 20
735.8721857242707
 30
0.0
 10
430.2703585206922
 20
737.6705560270674
 30
0.0
 10
423.6649243864548
 20
739.3394692015025
 30
0.0
 10
417.0321498073194
 20
740.8907956321422
 30
0.0
 10
410.4450894454119
 20
742.4314300555923
 30
0.0
 10
403.8310642099235
 20
743.8560930055604
 30
0.0
 10
397.1963926412428
 20
745.1763359193641
 30
0.0
 10
390.5926985230786
 20
746.490414585386
 30
0.0
 10
383.9685504181473
 20
747.701046018532
 30
0.0
 10
377.3289734147719
 20
748.8194285058513
 30
0.0
 10
370.7047559448823
 20
749.9352238052677
 30
0.0
 10
364.0651808782829
 20
750.9591964696828
 30
0.0
 10
357.4142144410125
 20
751.9021892627138
 30
0.0
 10
350.7649693275856
 20
752.8449380015833
 30
0.0
 10
344.1043387391096
 20
753.7067487801334
 30
0.0
 10
337.4354050619054
 20
754.49796225038
 30
0.0
 10
330.758760263607
 20
755.2900905809687
 30
0.0
 10
324.0737931641618
 20
756.011458249093
 30
0.0
 10
317.3828518962051
 20
756.6717052668446
 30
0.0
 10
310.6812882296513
 20
757.3330004789809
 30
0.0
 10
303.9737314105874
 20
757.9329808189607
 30
0.0
 10
297.2619290873977
 20
758.4803753960904
 30
0.0
 10
290.5454913522083
 20
759.0281480235741
 30
0.0
 10
283.8248022466347
 20
759.5232622278876
 30
0.0
 10
277.1011285518434
 20
759.973314556373
 30
0.0
 10
270.3897353685689
 20
760.422544882917
 30
0.0
 10
263.6753684885595
 20
760.8268777906114
 30
0.0
 10
256.9589275902686
 20
761.1927203654631
 30
0.0
 10
250.2720322753943
 20
761.5569536010075
 30
0.0
 10
243.5830811492818
 20
761.8830343963577
 30
0.0
 10
236.8927043722469
 20
762.1762227620435
 30
0.0
 10
230.2352228400545
 20
762.4679695791681
 30
0.0
 10
223.5763296417558
 20
762.7271466224602
 30
0.0
 10
216.9164680990722
 20
762.958072857129
 30
0.0
 10
210.2840446463572
 20
763.1880476944343
 30
0.0
 10
203.6506608118185
 20
763.3900040256892
 30
0.0
 10
197.0166313209464
 20
763.5675322629576
 30
0.0
 10
190.3989617516487
 20
763.7446227047525
 30
0.0
 10
183.7806497065476
 20
763.8974053863452
 30
0.0
 10
177.1619189755267
 20
764.028816530268
 30
0.0
 10
170.5457654790283
 20
764.1601765046603
 30
0.0
 10
163.9291936226054
 20
764.2701815816397
 30
0.0
 10
157.3123635942699
 20
764.3611298410528
 30
0.0
 10
150.6845624361868
 20
764.452228898521
 30
0.0
 10
144.0565022493695
 20
764.5242078911538
 30
0.0
 10
137.4283005088451
 20
764.5786997011053
 30
0.0
 10
130.7787664255125
 20
764.6333668886299
 30
0.0
 10
124.1290898758746
 20
764.6704341501156
 30
0.0
 10
117.4793630574205
 20
764.6908116327277
 30
0.0
 10
110.8040910562977
 20
764.7112673962183
 30
0.0
 10
104.1287683993757
 20
764.7149049056738
 30
0.0
 10
97.45347779117532
 20
764.7018438673487
 30
0.0
 10
90.75754258125382
 20
764.6887424352752
 30
0.0
 10
84.06163961859532
 20
764.6588390088385
 30
0.0
 10
77.36585968056474
 20
764.6113020382058
 30
0.0
 10
70.66533193187787
 20
764.5637313602778
 30
0.0
 10
63.96492738236072
 20
764.498502122248
 30
0.0
 10
57.26476142434981
 20
764.4140616865687
 30
0.0
 10
50.57670887992602
 20
764.3297739130675
 30
0.0
 10
43.88889406506515
 20
764.2263443440163
 30
0.0
 10
37.20147131878173
 20
764.1016132712567
 30
0.0
 10
30.53295821058927
 20
763.9772348932943
 30
0.0
 10
23.8648349568684
 20
763.8316753073552
 30
0.0
 10
17.19731454406311
 20
763.6621141040699
 30
0.0
 10
10.54669531516594
 20
763.4929827135219
 30
0.0
 10
3.896675874852719
 20
763.2999712325297
 30
0.0
 10
-2.752446481702635
 20
763.0795760088251
 30
0.0
 10
-9.392891010971743
 20
762.8594684248413
 30
0.0
 10
-16.03244079652805
 20
762.6120485290149
 30
0.0
 10
-22.67067938070086
 20
762.3330786156475
 30
0.0
 10
-29.3121095050346
 20
762.0539745787875
 30
0.0
 10
-35.95222716687874
 20
761.7432901798186
 30
0.0
 10
-42.59044909360971
 20
761.3959826554784
 30
0.0
 10
-49.24483891970186
 20
761.0478292369899
 30
0.0
 10
-55.89732376501626
 20
760.6628740790387
 30
0.0
 10
-62.54708515782954
 20
760.2351432546236
 30
0.0
 10
-69.22460226931533
 20
759.8056271065375
 30
0.0
 10
-75.89937314577632
 20
759.3329774604729
 30
0.0
 10
-82.57024898559673
 20
758.8101232291394
 30
0.0
 10
-89.27664914533779
 20
758.2844846496251
 30
0.0
 10
-95.97911267359667
 20
757.7081053535919
 30
0.0
 10
-102.6760011422645
 20
757.072406379362
 30
0.0
 10
-109.4061251877531
 20
756.4335525337076
 30
0.0
 10
-116.1306187000909
 20
755.7347887608731
 30
0.0
 10
-122.8472225666954
 20
754.9664322163562
 30
0.0
 10
-129.5775266471379
 20
754.1965084141605
 30
0.0
 10
-136.2999088631524
 20
753.3567076465821
 30
0.0
 10
-143.0113805722036
 20
752.4366695081836
 30
0.0
 10
-149.7217461897794
 20
751.5167829976854
 30
0.0
 10
-156.4212048963195
 20
750.5166855613942
 30
0.0
 10
-163.105882578666
 20
749.4253840284067
 30
0.0
 10
-169.7835088678507
 20
748.3352336647822
 30
0.0
 10
-176.4463853001837
 20
747.1540715179353
 30
0.0
 10
-183.089600454964
 20
745.8704833625895
 30
0.0
 10
-189.7271701662606
 20
744.5879860080317
 30
0.0
 10
-196.3451120023387
 20
743.2032366554532
 30
0.0
 10
-202.9373198619423
 20
741.7046204281746
 30
0.0
 10
-209.5311779059532
 20
740.2056290620716
 30
0.0
 10
-216.0992890882493
 20
738.5927138070338
 30
0.0
 10
-222.6341895949847
 20
736.8542969944017
 30
0.0
 10
-229.1825289059085
 20
735.1123051857875
 30
0.0
 10
-235.6975208075267
 20
733.244295109331
 30
0.0
 10
-242.170170926562
 20
731.2389672021017
 30
0.0
 10
-248.6712376227038
 20
729.2248353963062
 30
0.0
 10
-255.1295899378162
 20
727.0721773927747
 30
0.0
 10
-261.5344869488133
 20
724.7701410836804
 30
0.0
 10
-267.9838977600656
 20
722.4521057063129
 30
0.0
 10
-274.3791076603921
 20
719.9826084605794
 30
0.0
 10
-280.7074342345505
 20
717.3516187481418
 30
0.0
 10
-287.0746069659788
 20
714.7044788198554
 30
0.0
 10
-293.3740727302573
 20
711.8938577107369
 30
0.0
 10
-299.5915112637974
 20
708.9116773207318
 30
0.0
 10
-305.8246269782904
 20
705.9219774061802
 30
0.0
 10
-311.9753012795879
 20
702.7598519515108
 30
0.0
 10
-318.0279995721997
 20
699.4197236135119
 30
0.0
 10
-324.0825780385501
 20
696.0785577181757
 30
0.0
 10
-330.0391196174179
 20
692.5592783348583
 30
0.0
 10
-335.8814949286915
 20
688.8593648415622
 30
0.0
 10
-341.7205892739351
 20
685.1615291487665
 30
0.0
 10
-347.4456455427678
 20
681.2832621703224
 30
0.0
 10
-353.0406868627285
 20
677.2254712266025
 30
0.0
 10
-358.6336604697369
 20
673.1691798869824
 30
0.0
 10
-364.0967152072241
 20
668.9334972479277
 30
0.0
 10
-369.4147656159266
 20
664.5228223787287
 30
0.0
 10
-374.7360841444603
 20
660.1094370023047
 30
0.0
 10
-379.9122200694228
 20
655.5208442525095
 30
0.0
 10
-384.9297336230821
 20
650.764860419347
 30
0.0
 10
-389.9545877841738
 20
646.0019185959501
 30
0.0
 10
-394.8203551063324
 20
641.071095545599
 30
0.0
 10
-399.5165014365857
 20
635.9837562775766
 30
0.0
 10
-404.2188332201816
 20
630.8897163027423
 30
0.0
 10
-408.7510968904962
 20
625.6387475330929
 30
0.0
 10
-413.1060609122567
 20
620.2447761009041
 30
0.0
 10
-417.4653212702746
 20
614.8454833124762
 30
0.0
 10
-421.6469319816172
 20
609.3029055672631
 30
0.0
 10
-425.6472724854674
 20
603.6326360178914
 30
0.0
 10
-429.6490809139099
 20
597.9602857636004
 30
0.0
 10
-433.4694860762929
 20
592.1601499749447
 30
0.0
 10
-437.1084236697585
 20
586.2485853881483
 30
0.0
 10
-440.7446581372133
 20
580.3414121115825
 30
0.0
 10
-444.1996945361221
 20
574.3229755215617
 30
0.0
 10
-447.4768278763356
 20
568.2093086460806
 30
0.0
 10
-450.7457434822122
 20
562.1109723919172
 30
0.0
 10
-453.8376471295772
 20
555.9178828520996
 30
0.0
 10
-456.7584232336399
 20
549.6458271444421
 30
0.0
 10
-459.6644263964976
 20
543.4054947551231
 30
0.0
 10
-462.4010287241036
 20
537.0869929809536
 30
0.0
 10
-464.977371405085
 20
530.7024009965137
 30
0.0
  0
ENDBLK
  5
57
330
54
100
AcDbEntity
  8
0
100
AcDbBlockEnd
  0
BLOCK
  5
5B
330
59
100
AcDbEntity
  8
0
100
AcDbBlockBegin
  2
block 7
 70
     0
 10
0.0
 20
0.0
 30
0.0
  3
block 7
  1

  0
SPLINE
  5
5D
330
59
100
AcDbEntity
  8
0
 62
   250
370
    25
100
AcDbSpline
210
0.0
220
0.0
230
1.0
 70
     8
 71
     3
 72
    77
 73
    73
 74
     0
 42
0.0000000001
 43
0.0000000001
 12
1.0
 22
0.0
 32
0.0
 13
1.0
 23
0.0
 33
0.0
 40
0.0
 40
0.0
 40
0.0
 40
0.0
 40
1.0
 40
1.0
 40
1.0
 40
2.0
 40
2.0
 40
2.0
 40
3.0
 40
3.0
 40
3.0
 40
4.0
 40
4.0
 40
4.0
 40
5.0
 40
5.0
 40
5.0
 40
6.0
 40
6.0
 40
6.0
 40
7.0
 40
7.0
 40
7.0
 40
8.0
 40
8.0
 40
8.0
 40
9.0
 40
9.0
 40
9.0
 40
10.0
 40
10.0
 40
10.0
 40
11.0
 40
11.0
 40
11.0
 40
12.0
 40
12.0
 40
12.0
 40
13.0
 40
13.0
 40
13.0
 40
14.0
 40
14.0
 40
14.0
 40
15.0
 40
15.0
 40
15.0
 40
16.0
 40
16.0
 40
16.0
 40
17.0
 40
17.0
 40
17.0
 40
18.0
 40
18.0
 40
18.0
 40
19.0
 40
19.0
 40
19.0
 40
20.0
 40
20.0
 40
20.0
 40
21.0
 40
21.0
 40
21.0
 40
22.0
 40
22.0
 40
22.0
 40
23.0
 40
23.0
 40
23.0
 40
24.0
 40
24.0
 40
24.0
 40
24.0
 10
-464.977371405085
 20
-233.3781117548007
 30
0.0
 10
-467.0172125802376
 20
-228.3230571694237
 30
0.0
 10
-468.9560576741801
 20
-223.2279318710557
 30
0.0
 10
-470.799239872065
 20
-218.098372105368
 30
0.0
 10
-472.6347579146919
 20
-212.9901416160141
 30
0.0
 10
-474.3754069610524
 20
-207.8477624286624
 30
0.0
 10
-476.0265536568351
 20
-202.6769277363857
 30
0.0
 10
-477.6745694028353
 20
-197.5158981230629
 30
0.0
 10
-479.2334219100766
 20
-192.3265208187241
 30
0.0
 10
-480.7088342806015
 20
-187.1135924890631
 30
0.0
 10
-482.183895033896
 20
-181.9019064937475
 30
0.0
 10
-483.5755554163133
 20
-176.6666806970419
 30
0.0
 10
-484.8896930456918
 20
-171.4121374069092
 30
0.0
 10
-486.2047126244465
 20
-166.1540676663791
 30
0.0
 10
-487.4421053604695
 20
-160.8766544948441
 30
0.0
 10
-488.6078327608893
 20
-155.5835177045218
 30
0.0
 10
-489.7743567697822
 20
-150.2867638097979
 30
0.0
 10
-490.869117463515
 20
-144.9742647992418
 30
0.0
 10
-491.8980495161281
 20
-139.649099614415
 30
0.0
 10
-492.9266160051897
 20
-134.3258263779458
 30
0.0
 10
-493.8894006206068
 20
-128.9898959658555
 30
0.0
 10
-494.7922344571339
 20
-123.6438872337391
 30
0.0
 10
-495.6927155757466
 20
-118.3118098034003
 30
0.0
 10
-496.5335579629061
 20
-112.9697065113928
 30
0.0
 10
-497.3203826032237
 20
-107.6196982139053
 30
0.0
 10
-498.1037031917257
 20
-102.2935156906511
 30
0.0
 10
-498.8334860882768
 20
-96.95949841358768
 30
0.0
 10
-499.5150981536829
 20
-91.61936582006531
 30
0.0
 10
-500.1948471272826
 20
-86.29382973644071
 30
0.0
 10
-500.8266882463712
 20
-80.96221172139143
 30
0.0
 10
-501.4158156106454
 20
-75.62590578206938
 30
0.0
 10
-502.0043406550571
 20
-70.2950556461138
 30
0.0
 10
-502.550239240519
 20
-64.95952716681144
 30
0.0
 10
-503.0583289753554
 20
-59.62042275089876
 30
0.0
 10
-503.5664175811995
 20
-54.2813301984882
 30
0.0
 10
-504.0366975044535
 20
-48.93866172532883
 30
0.0
 10
-504.4735332084571
 20
-43.59327753534994
 30
0.0
 10
-504.9105444217489
 20
-38.2457457082323
 30
0.0
 10
-505.3140845363459
 20
-32.89549598167137
 30
0.0
 10
-505.6880296760668
 20
-27.54319207763792
 30
0.0
 10
-506.0620742339631
 20
-22.18946519394627
 30
0.0
 10
-506.4065080784739
 20
-16.83368304037933
 30
0.0
 10
-506.7247315957753
 20
-11.47635442914058
 30
0.0
 10
-507.0428481421484
 20
-6.120826685345899
 30
0.0
 10
-507.3347719795637
 20
-0.7637535233291802
 30
0.0
 10
-507.6034694827717
 20
4.594476274177737
 30
0.0
 10
-507.8718087312263
 20
9.945561936481713
 30
0.0
 10
-508.116983539592
 20
15.29780115209273
 30
0.0
 10
-508.3415978880859
 20
20.6508967925891
 30
0.0
 10
-508.5657330202932
 20
25.99257156616614
 30
0.0
 10
-508.7693953308077
 20
31.33509911415672
 30
0.0
 10
-508.9548489702617
 20
36.67825386179029
 30
0.0
 10
-509.1399712334119
 20
42.01186123758834
 30
0.0
 10
-509.3069498393809
 20
47.3460935736037
 30
0.0
 10
-509.4577248031148
 20
52.68078024523179
 30
0.0
 10
-509.6083272429497
 20
58.00936271424331
 30
0.0
 10
-509.7427631013001
 20
63.33839847966162
 30
0.0
 10
-509.8626724343097
 20
68.66775836028306
 30
0.0
 10
-509.9825269415737
 20
73.99468151511432
 30
0.0
 10
-510.0878682043186
 20
79.3219284888121
 30
0.0
 10
-510.1800473276813
 20
84.64940124629334
 30
0.0
 10
-510.2722419844217
 20
89.97777175187062
 30
0.0
 10
-510.3512700654384
 20
95.30636811738819
 30
0.0
 10
-510.4181999204723
 20
100.6351149139475
 30
0.0
 10
-510.48517169345
 20
105.967199086618
 30
0.0
 10
-510.5400300815498
 20
111.2994338788486
 30
0.0
 10
-510.5835621804993
 20
116.631760694623
 30
0.0
 10
-510.6271295223366
 20
121.9684044774264
 30
0.0
 10
-510.6593522284373
 20
127.3051404328275
 30
0.0
 10
-510.6807341633194
 20
132.6419175899001
 30
0.0
 10
-510.7021291952917
 20
137.9819636838936
 30
0.0
 10
-510.71267017138
 20
143.3220510300231
 30
0.0
 10
-510.7125705694797
 20
148.6621446207891
 30
0.0
  0
ENDBLK
  5
5C
330
59
100
AcDbEntity
  8
0
100
AcDbBlockEnd
  0
BLOCK
  5
60
330
5E
100
AcDbEntity
  8
0
100
AcDbBlockBegin
  2
block 8
 70
     0
 10
0.0
 20
0.0
 30
0.0
  3
block 8
  1

  0
POLYLINE
  5
62
330
5E
100
AcDbEntity
  8
0
 62
   250
370
    25
100
AcDb2dPolyline
 66
     1
 10
0.0
 20
0.0
 30
0.0
  0
VERTEX
  5
63
330
62
100
AcDbEntity
  8
0
 62
   250
370
    25
100
AcDbVertex
100
AcDb2dVertex
 10
688.6412875384507
 20
148.6621446208661
 30
0.0
  0
VERTEX
  5
64
330
62
100
AcDbEntity
  8
0
 62
   250
370
    25
100
AcDbVertex
100
AcDb2dVertex
 10
687.6112947690108
 20
61.48600793919768
 30
0.0
  0
VERTEX
  5
65
330
62
100
AcDbEntity
  8
0
 62
   250
370
    25
100
AcDbVertex
100
AcDb2dVertex
 10
683.6677113234155
 20
-25.67141614300482
 30
0.0
  0
VERTEX
  5
66
330
62
100
AcDbEntity
  8
0
 62
   250
370
    25
100
AcDbVertex
100
AcDb2dVertex
 10
674.1015775535375
 20
-112.5961195752885
 30
0.0
  0
VERTEX
  5
67
330
62
100
AcDbEntity
  8
0
 62
   250
370
    25
100
AcDbVertex
100
AcDb2dVertex
 10
665.7178951630798
 20
-155.5366058235435
 30
0.0
  0
VERTEX
  5
68
330
62
100
AcDbEntity
  8
0
 62
   250
370
    25
100
AcDbVertex
100
AcDb2dVertex
 10
653.8934859873435
 20
-197.6808018911605
 30
0.0
  0
VERTEX
  5
69
330
62
100
AcDbEntity
  8
0
 62
   250
370
    25
100
AcDbVertex
100
AcDb2dVertex
 10
637.8050041547536
 20
-238.3972503617758
 30
0.0
  0
VERTEX
  5
6A
330
62
100
AcDbEntity
  8
0
 62
   250
370
    25
100
AcDbVertex
100
AcDb2dVertex
 10
616.7610335493697
 20
-276.7761625248558
 30
0.0
  0
VERTEX
  5
6B
330
62
100
AcDbEntity
  8
0
 62
   250
370
    25
100
AcDbVertex
100
AcDb2dVertex
 10
590.4180838305809
 20
-311.733455556674
 30
0.0
  0
VERTEX
  5
6C
330
62
100
AcDbEntity
  8
0
 62
   250
370
    25
100
AcDbVertex
100
AcDb2dVertex
 10
558.995976976284
 20
-342.2008680913735
 30
0.0
  0
VERTEX
  5
6D
330
62
100
AcDbEntity
  8
0
 62
   250
370
    25
100
AcDbVertex
100
AcDb2dVertex
 10
523.2676749840067
 20
-367.494027528783
 30
0.0
  0
VERTEX
  5
6E
330
62
100
AcDbEntity
  8
0
 62
   250
370
    25
100
AcDbVertex
100
AcDb2dVertex
 10
484.3377695340134
 20
-387.5088538496141
 30
0.0
  0
VERTEX
  5
6F
330
62
100
AcDbEntity
  8
0
 62
   250
370
    25
100
AcDbVertex
100
AcDb2dVertex
 10
443.276324081758
 20
-402.6749289395982
 30
0.0
  0
VERTEX
  5
70
330
62
100
AcDbEntity
  8
0
 62
   250
370
    25
100
AcDbVertex
100
AcDb2dVertex
 10
400.9367708487121
 20
-413.7360648013217
 30
0.0
  0
VERTEX
  5
71
330
62
100
AcDbEntity
  8
0
 62
   250
370
    25
100
AcDbVertex
100
AcDb2dVertex
 10
357.8926705930219
 20
-421.5262001483877
 30
0.0
  0
VERTEX
  5
72
330
62
100
AcDbEntity
  8
0
 62
   250
370
    25
100
AcDbVertex
100
AcDb2dVertex
 10
314.490567239651
 20
-426.8334917770925
 30
0.0
  0
VERTEX
  5
73
330
62
100
AcDbEntity
  8
0
 62
   250
370
    25
100
AcDbVertex
100
AcDb2dVertex
 10
227.2565554940127
 20
-432.585683063318
 30
0.0
  0
VERTEX
  5
74
330
62
100
AcDbEntity
  8
0
 62
   250
370
    25
100
AcDbVertex
100
AcDb2dVertex
 10
139.8155162285084
 20
-434.5918642377922
 30
0.0
  0
VERTEX
  5
75
330
62
100
AcDbEntity
  8
0
 62
   250
370
    25
100
AcDbVertex
100
AcDb2dVertex
 10
52.2183586399855
 20
-434.3783547829176
 30
0.0
  0
VERTEX
  5
76
330
62
100
AcDbEntity
  8
0
 62
   250
370
    25
100
AcDbVertex
100
AcDb2dVertex
 10
-35.09473991253362
 20
-431.7693363195572
 30
0.0
  0
VERTEX
  5
77
330
62
100
AcDbEntity
  8
0
 62
   250
370
    25
100
AcDbVertex
100
AcDb2dVertex
 10
-122.1924334883529
 20
-424.8581655684329
 30
0.0
  0
VERTEX
  5
78
330
62
100
AcDbEntity
  8
0
 62
   250
370
    25
100
AcDbVertex
100
AcDb2dVertex
 10
-165.4518886077311
 20
-418.6018634187578
 30
0.0
  0
VERTEX
  5
79
330
62
100
AcDbEntity
  8
0
 62
   250
370
    25
100
AcDbVertex
100
AcDb2dVertex
 10
-208.2462125719936
 20
-409.5414751945597
 30
0.0
  0
VERTEX
  5
7A
330
62
100
AcDbEntity
  8
0
 62
   250
370
    25
100
AcDbVertex
100
AcDb2dVertex
 10
-250.1622127531404
 20
-396.8474169269338
 30
0.0
  0
VERTEX
  5
7B
330
62
100
AcDbEntity
  8
0
 62
   250
370
    25
100
AcDbVertex
100
AcDb2dVertex
 10
-290.4798482481995
 20
-379.7060506842957
 30
0.0
  0
SEQEND
  5
7C
330
62
100
AcDbEntity
  8
0
 62
   250
370
    25
  0
ENDBLK
  5
61
330
5E
100
AcDbEntity
  8
0
100
AcDbBlockEnd
  0
BLOCK
  5
7F
330
7D
100
AcDbEntity
  8
0
100
AcDbBlockBegin
  2
block 9
 70
     0
 10
0.0
 20
0.0
 30
0.0
  3
block 9
  1

  0
POLYLINE
  5
81
330
7D
100
AcDbEntity
  8
0
 62
   250
370
    25
100
AcDb2dPolyline
 66
     1
 10
0.0
 20
0.0
 30
0.0
  0
VERTEX
  5
82
330
81
100
AcDbEntity
  8
0
 62
   250
370
    25
100
AcDbVertex
100
AcDb2dVertex
 10
-434.7077567315523
 20
518.488149182473
 30
0.0
  0
VERTEX
  5
83
330
81
100
AcDbEntity
  8
0
 62
   250
370
    25
100
AcDbVertex
100
AcDb2dVertex
 10
-442.6857118730757
 20
496.9110179295386
 30
0.0
  0
VERTEX
  5
84
330
81
100
AcDbEntity
  8
0
 62
   250
370
    25
100
AcDbVertex
100
AcDb2dVertex
 10
-449.4886574429004
 20
474.8860639218572
 30
0.0
  0
VERTEX
  5
85
330
81
100
AcDbEntity
  8
0
 62
   250
370
    25
100
AcDbVertex
100
AcDb2dVertex
 10
-455.2405144896381
 20
452.465489742291
 30
0.0
  0
VERTEX
  5
86
330
81
100
AcDbEntity
  8
0
 62
   250
370
    25
100
AcDbVertex
100
AcDb2dVertex
 10
-460.054931088657
 20
429.7144686223922
 30
0.0
  0
VERTEX
  5
87
330
81
100
AcDbEntity
  8
0
 62
   250
370
    25
100
AcDbVertex
100
AcDb2dVertex
 10
-464.0374497122291
 20
406.7235688057349
 30
0.0
  0
VERTEX
  5
88
330
81
100
AcDbEntity
  8
0
 62
   250
370
    25
100
AcDbVertex
100
AcDb2dVertex
 10
-467.290193505298
 20
383.6018460139426
 30
0.0
  0
VERTEX
  5
89
330
81
100
AcDbEntity
  8
0
 62
   250
370
    25
100
AcDbVertex
100
AcDb2dVertex
 10
-472.0417808796154
 20
337.0171571884848
 30
0.0
  0
VERTEX
  5
8A
330
81
100
AcDbEntity
  8
0
 62
   250
370
    25
100
AcDbVertex
100
AcDb2dVertex
 10
-475.0550443169436
 20
290.0591593103613
 30
0.0
  0
VERTEX
  5
8B
330
81
100
AcDbEntity
  8
0
 62
   250
370
    25
100
AcDbVertex
100
AcDb2dVertex
 10
-476.8505267512713
 20
242.9826453211959
 30
0.0
  0
VERTEX
  5
8C
330
81
100
AcDbEntity
  8
0
 62
   250
370
    25
100
AcDbVertex
100
AcDb2dVertex
 10
-478.0654714769878
 20
141.6519852374994
 30
0.0
  0
SEQEND
  5
8D
330
81
100
AcDbEntity
  8
0
 62
   250
370
    25
  0
ENDBLK
  5
80
330
7D
100
AcDbEntity
  8
0
100
AcDbBlockEnd
  0
BLOCK
  5
90
330
8E
100
AcDbEntity
  8
0
100
AcDbBlockBegin
  2
block 10
 70
     0
 10
0.0
 20
0.0
 30
0.0
  3
block 10
  1

  0
POLYLINE
  5
92
330
8E
100
AcDbEntity
  8
0
 62
   250
370
    25
100
AcDb2dPolyline
 66
     1
 10
0.0
 20
0.0
 30
0.0
  0
VERTEX
  5
93
330
92
100
AcDbEntity
  8
0
 62
   250
370
    25
100
AcDbVertex
100
AcDb2dVertex
 10
688.6412875384507
 20
148.6621446208661
 30
0.0
  0
VERTEX
  5
94
330
92
100
AcDbEntity
  8
0
 62
   250
370
    25
100
AcDbVertex
100
AcDb2dVertex
 10
687.0198541226227
 20
256.1005795108803
 30
0.0
  0
VERTEX
  5
95
330
92
100
AcDbEntity
  8
0
 62
   250
370
    25
100
AcDbVertex
100
AcDb2dVertex
 10
680.8844341670615
 20
356.4436837971047
 30
0.0
  0
VERTEX
  5
96
330
92
100
AcDbEntity
  8
0
 62
   250
370
    25
100
AcDbVertex
100
AcDb2dVertex
 10
674.6639302559092
 20
406.3637256993161
 30
0.0
  0
VERTEX
  5
97
330
92
100
AcDbEntity
  8
0
 62
   250
370
    25
100
AcDbVertex
100
AcDb2dVertex
 10
665.0333256716856
 20
455.7547784578574
 30
0.0
  0
VERTEX
  5
98
330
92
100
AcDbEntity
  8
0
 62
   250
370
    25
100
AcDbVertex
100
AcDb2dVertex
 10
650.7805801816207
 20
504.0215151724231
 30
0.0
  0
VERTEX
  5
99
330
92
100
AcDbEntity
  8
0
 62
   250
370
    25
100
AcDbVertex
100
AcDb2dVertex
 10
630.6759592645617
 20
550.1517782088572
 30
0.0
  0
VERTEX
  5
9A
330
92
100
AcDbEntity
  8
0
 62
   250
370
    25
100
AcDbVertex
100
AcDb2dVertex
 10
603.7920189851219
 20
592.6879448836038
 30
0.0
  0
VERTEX
  5
9B
330
92
100
AcDbEntity
  8
0
 62
   250
370
    25
100
AcDbVertex
100
AcDb2dVertex
 10
587.7228330935599
 20
612.072003440467
 30
0.0
  0
VERTEX
  5
9C
330
92
100
AcDbEntity
  8
0
 62
   250
370
    25
100
AcDbVertex
100
AcDb2dVertex
 10
569.9799221372577
 20
629.9365784403692
 30
0.0
  0
VERTEX
  5
9D
330
92
100
AcDbEntity
  8
0
 62
   250
370
    25
100
AcDbVertex
100
AcDb2dVertex
 10
530.0674921441952
 20
660.5966366479593
 30
0.0
  0
VERTEX
  5
9E
330
92
100
AcDbEntity
  8
0
 62
   250
370
    25
100
AcDbVertex
100
AcDb2dVertex
 10
485.649894521674
 20
684.2588571996303
 30
0.0
  0
VERTEX
  5
9F
330
92
100
AcDbEntity
  8
0
 62
   250
370
    25
100
AcDbVertex
100
AcDb2dVertex
 10
438.3562413705912
 20
701.4950573962932
 30
0.0
  0
VERTEX
  5
A0
330
92
100
AcDbEntity
  8
0
 62
   250
370
    25
100
AcDbVertex
100
AcDb2dVertex
 10
389.4600219314044
 20
713.433784219007
 30
0.0
  0
VERTEX
  5
A1
330
92
100
AcDbEntity
  8
0
 62
   250
370
    25
100
AcDbVertex
100
AcDb2dVertex
 10
339.7632222848458
 20
721.3306821935005
 30
0.0
  0
VERTEX
  5
A2
330
92
100
AcDbEntity
  8
0
 62
   250
370
    25
100
AcDbVertex
100
AcDb2dVertex
 10
289.7080223454815
 20
726.3376292908586
 30
0.0
  0
VERTEX
  5
A3
330
92
100
AcDbEntity
  8
0
 62
   250
370
    25
100
AcDbVertex
100
AcDb2dVertex
 10
189.239630541045
 20
731.1145692707994
 30
0.0
  0
VERTEX
  5
A4
330
92
100
AcDbEntity
  8
0
 62
   250
370
    25
100
AcDbVertex
100
AcDb2dVertex
 10
88.50777415824399
 20
732.032977361114
 30
0.0
  0
VERTEX
  5
A5
330
92
100
AcDbEntity
  8
0
 62
   250
370
    25
100
AcDbVertex
100
AcDb2dVertex
 10
-12.05532346359108
 20
730.089773026582
 30
0.0
  0
VERTEX
  5
A6
330
92
100
AcDbEntity
  8
0
 62
   250
370
    25
100
AcDbVertex
100
AcDb2dVertex
 10
-112.3759760131306
 20
723.2863004877051
 30
0.0
  0
VERTEX
  5
A7
330
92
100
AcDbEntity
  8
0
 62
   250
370
    25
100
AcDbVertex
100
AcDb2dVertex
 10
-162.2392559563289
 20
716.4795683249062
 30
0.0
  0
VERTEX
  5
A8
330
92
100
AcDbEntity
  8
0
 62
   250
370
    25
100
AcDbVertex
100
AcDb2dVertex
 10
-211.4936180382578
 20
706.0330136098834
 30
0.0
  0
VERTEX
  5
A9
330
92
100
AcDbEntity
  8
0
 62
   250
370
    25
100
AcDbVertex
100
AcDb2dVertex
 10
-259.4397242850422
 20
690.7164975633195
 30
0.0
  0
VERTEX
  5
AA
330
92
100
AcDbEntity
  8
0
 62
   250
370
    25
100
AcDbVertex
100
AcDb2dVertex
 10
-304.9849066239951
 20
669.3196445975791
 30
0.0
  0
VERTEX
  5
AB
330
92
100
AcDbEntity
  8
0
 62
   250
370
    25
100
AcDbVertex
100
AcDb2dVertex
 10
-346.5967260794616
 20
641.0259448549854
 30
0.0
  0
VERTEX
  5
AC
330
92
100
AcDbEntity
  8
0
 62
   250
370
    25
100
AcDbVertex
100
AcDb2dVertex
 10
-365.3925116461305
 20
624.2684943661833
 30
0.0
  0
VERTEX
  5
AD
330
92
100
AcDbEntity
  8
0
 62
   250
370
    25
100
AcDbVertex
100
AcDb2dVertex
 10
-382.6007605991362
 20
605.8879353613455
 30
0.0
  0
VERTEX
  5
AE
330
92
100
AcDbEntity
  8
0
 62
   250
370
    25
100
AcDbVertex
100
AcDb2dVertex
 10
-411.8487567405178
 20
564.9417775990241
 30
0.0
  0
VERTEX
  5
AF
330
92
100
AcDbEntity
  8
0
 62
   250
370
    25
100
AcDbVertex
100
AcDb2dVertex
 10
-434.1614484563933
 20
519.8347525204207
 30
0.0
  0
SEQEND
  5
B0
330
92
100
AcDbEntity
  8
0
 62
   250
370
    25
  0
ENDBLK
  5
91
330
8E
100
AcDbEntity
  8
0
100
AcDbBlockEnd
  0
BLOCK
  5
B3
330
B1
100
AcDbEntity
  8
0
100
AcDbBlockBegin
  2
block 11
 70
     0
 10
0.0
 20
0.0
 30
0.0
  3
block 11
  1

  0
POLYLINE
  5
B5
330
B1
100
AcDbEntity
  8
0
 62
   250
370
    25
100
AcDb2dPolyline
 66
     1
 10
0.0
 20
0.0
 30
0.0
  0
VERTEX
  5
B6
330
B5
100
AcDbEntity
  8
0
 62
   250
370
    25
100
AcDbVertex
100
AcDb2dVertex
 10
-428.6183824247793
 20
-235.3880143870565
 30
0.0
  0
VERTEX
  5
B7
330
B5
100
AcDbEntity
  8
0
 62
   250
370
    25
100
AcDbVertex
100
AcDb2dVertex
 10
-423.1421539963072
 20
-246.8928662656496
 30
0.0
  0
VERTEX
  5
B8
330
B5
100
AcDbEntity
  8
0
 62
   250
370
    25
100
AcDbVertex
100
AcDb2dVertex
 10
-417.2341486722133
 20
-258.1828042124227
 30
0.0
  0
VERTEX
  5
B9
330
B5
100
AcDbEntity
  8
0
 62
   250
370
    25
100
AcDbVertex
100
AcDb2dVertex
 10
-410.8838200812543
 20
-269.2310412888134
 30
0.0
  0
VERTEX
  5
BA
330
B5
100
AcDbEntity
  8
0
 62
   250
370
    25
100
AcDbVertex
100
AcDb2dVertex
 10
-404.0841391165982
 20
-280.0095798820366
 30
0.0
  0
VERTEX
  5
BB
330
B5
100
AcDbEntity
  8
0
 62
   250
370
    25
100
AcDbVertex
100
AcDb2dVertex
 10
-396.8319700008001
 20
-290.4898791015122
 30
0.0
  0
VERTEX
  5
BC
330
B5
100
AcDbEntity
  8
0
 62
   250
370
    25
100
AcDbVertex
100
AcDb2dVertex
 10
-389.1284463505151
 20
-300.643522175603
 30
0.0
  0
VERTEX
  5
BD
330
B5
100
AcDbEntity
  8
0
 62
   250
370
    25
100
AcDbVertex
100
AcDb2dVertex
 10
-380.9793468227707
 20
-310.4428842529429
 30
0.0
  0
VERTEX
  5
BE
330
B5
100
AcDbEntity
  8
0
 62
   250
370
    25
100
AcDbVertex
100
AcDb2dVertex
 10
-372.3952028288356
 20
-319.8620769102949
 30
0.0
  0
VERTEX
  5
BF
330
B5
100
AcDbEntity
  8
0
 62
   250
370
    25
100
AcDbVertex
100
AcDb2dVertex
 10
-363.3902826845986
 20
-328.8788997667274
 30
0.0
  0
VERTEX
  5
C0
330
B5
100
AcDbEntity
  8
0
 62
   250
370
    25
100
AcDbVertex
100
AcDb2dVertex
 10
-353.9823225058303
 20
-337.4754141541861
 30
0.0
  0
VERTEX
  5
C1
330
B5
100
AcDbEntity
  8
0
 62
   250
370
    25
100
AcDbVertex
100
AcDb2dVertex
 10
-344.1930388889977
 20
-345.6374121508674
 30
0.0
  0
VERTEX
  5
C2
330
B5
100
AcDbEntity
  8
0
 62
   250
370
    25
100
AcDbVertex
100
AcDb2dVertex
 10
-334.0486758384322
 20
-353.3538172025569
 30
0.0
  0
VERTEX
  5
C3
330
B5
100
AcDbEntity
  8
0
 62
   250
370
    25
100
AcDbVertex
100
AcDb2dVertex
 10
-323.5781190729743
 20
-360.6175027508428
 30
0.0
  0
VERTEX
  5
C4
330
B5
100
AcDbEntity
  8
0
 62
   250
370
    25
100
AcDbVertex
100
AcDb2dVertex
 10
-312.8087424070259
 20
-367.4274714580557
 30
0.0
  0
VERTEX
  5
C5
330
B5
100
AcDbEntity
  8
0
 62
   250
370
    25
100
AcDbVertex
100
AcDb2dVertex
 10
-301.7669739289049
 20
-373.7878241829537
 30
0.0
  0
VERTEX
  5
C6
330
B5
100
AcDbEntity
  8
0
 62
   250
370
    25
100
AcDbVertex
100
AcDb2dVertex
 10
-290.4798482481995
 20
-379.7060506842957
 30
0.0
  0
SEQEND
  5
C7
330
B5
100
AcDbEntity
  8
0
 62
   250
370
    25
  0
ENDBLK
  5
B4
330
B1
100
AcDbEntity
  8
0
100
AcDbBlockEnd
  0
BLOCK
  5
CA
330
C8
100
AcDbEntity
  8
0
100
AcDbBlockBegin
  2
block 12
 70
     0
 10
0.0
 20
0.0
 30
0.0
  3
block 12
  1

  0
POLYLINE
  5
CC
330
C8
100
AcDbEntity
  8
0
 62
   250
370
    25
100
AcDb2dPolyline
 66
     1
 10
0.0
 20
0.0
 30
0.0
  0
VERTEX
  5
CD
330
CC
100
AcDbEntity
  8
0
 62
   250
370
    25
100
AcDbVertex
100
AcDb2dVertex
 10
-428.6183824247793
 20
-235.3880143870565
 30
0.0
  0
VERTEX
  5
CE
330
CC
100
AcDbEntity
  8
0
 62
   250
370
    25
100
AcDbVertex
100
AcDb2dVertex
 10
-442.5486781809648
 20
-199.991608877022
 30
0.0
  0
VERTEX
  5
CF
330
CC
100
AcDbEntity
  8
0
 62
   250
370
    25
100
AcDbVertex
100
AcDb2dVertex
 10
-449.2555407498165
 20
-178.3871147199286
 30
0.0
  0
VERTEX
  5
D0
330
CC
100
AcDbEntity
  8
0
 62
   250
370
    25
100
AcDbVertex
100
AcDb2dVertex
 10
-454.9457713000203
 20
-156.3995112679761
 30
0.0
  0
VERTEX
  5
D1
330
CC
100
AcDbEntity
  8
0
 62
   250
370
    25
100
AcDbVertex
100
AcDb2dVertex
 10
-459.7272030171823
 20
-134.0895173352169
 30
0.0
  0
VERTEX
  5
D2
330
CC
100
AcDbEntity
  8
0
 62
   250
370
    25
100
AcDbVertex
100
AcDb2dVertex
 10
-466.9605010448954
 20
-88.8585356893179
 30
0.0
  0
VERTEX
  5
D3
330
CC
100
AcDbEntity
  8
0
 62
   250
370
    25
100
AcDbVertex
100
AcDb2dVertex
 10
-471.7563328840197
 20
-43.16848644805252
 30
0.0
  0
VERTEX
  5
D4
330
CC
100
AcDbEntity
  8
0
 62
   250
370
    25
100
AcDbVertex
100
AcDb2dVertex
 10
-474.8331846284182
 20
2.89676564544408
 30
0.0
  0
VERTEX
  5
D5
330
CC
100
AcDbEntity
  8
0
 62
   250
370
    25
100
AcDbVertex
100
AcDb2dVertex
 10
-476.6984225258165
 20
49.09677428663492
 30
0.0
  0
VERTEX
  5
D6
330
CC
100
AcDbEntity
  8
0
 62
   250
370
    25
100
AcDbVertex
100
AcDb2dVertex
 10
-478.0654714769878
 20
141.6519852374994
 30
0.0
  0
SEQEND
  5
D7
330
CC
100
AcDbEntity
  8
0
 62
   250
370
    25
  0
ENDBLK
  5
CB
330
C8
100
AcDbEntity
  8
0
100
AcDbBlockEnd
  0
BLOCK
  5
DA
330
D8
100
AcDbEntity
  8
0
100
AcDbBlockBegin
  2
block 13
 70
     0
 10
0.0
 20
0.0
 30
0.0
  3
block 13
  1

  0
POLYLINE
  5
DC
330
D8
100
AcDbEntity
  8
0
 62
   250
370
    25
100
AcDb2dPolyline
 66
     1
 10
0.0
 20
0.0
 30
0.0
  0
VERTEX
  5
DD
330
DC
100
AcDbEntity
  8
0
 62
   250
370
    25
100
AcDbVertex
100
AcDb2dVertex
 10
503.7342329196537
 20
148.6621446198586
 30
0.0
  0
VERTEX
  5
3FB
330
DC
100
AcDbEntity
  8
0
100
AcDbVertex
100
AcDb2dVertex
 10
503.7342329196537
 20
148.6621446198586
 30
0.0
  0
SEQEND
  5
DE
330
DC
100
AcDbEntity
  8
0
 62
   250
370
    25
  0
ENDBLK
  5
DB
330
D8
100
AcDbEntity
  8
0
100
AcDbBlockEnd
  0
BLOCK
  5
E1
330
DF
100
AcDbEntity
  8
0
100
AcDbBlockBegin
  2
block 14
 70
     0
 10
0.0
 20
0.0
 30
0.0
  3
block 14
  1

  0
POLYLINE
  5
E3
330
DF
100
AcDbEntity
  8
0
 62
   250
370
    25
100
AcDb2dPolyline
 66
     1
 10
0.0
 20
0.0
 30
0.0
  0
VERTEX
  5
E4
330
E3
100
AcDbEntity
  8
0
 62
   250
370
    25
100
AcDbVertex
100
AcDb2dVertex
 10
-293.1639265505314
 20
148.6621446198586
 30
0.0
  0
VERTEX
  5
3FC
330
E3
100
AcDbEntity
  8
0
100
AcDbVertex
100
AcDb2dVertex
 10
-293.1639265505314
 20
148.6621446198586
 30
0.0
  0
SEQEND
  5
E5
330
E3
100
AcDbEntity
  8
0
 62
   250
370
    25
  0
ENDBLK
  5
E2
330
DF
100
AcDbEntity
  8
0
100
AcDbBlockEnd
  0
BLOCK
  5
E8
330
E6
100
AcDbEntity
  8
0
100
AcDbBlockBegin
  2
block 15
 70
     0
 10
0.0
 20
0.0
 30
0.0
  3
block 15
  1

  0
POLYLINE
  5
EA
330
E6
100
AcDbEntity
  8
0
 62
   250
370
    25
100
AcDb2dPolyline
 66
     1
 10
0.0
 20
0.0
 30
0.0
  0
VERTEX
  5
EB
330
EA
100
AcDbEntity
  8
0
 62
   250
370
    25
100
AcDbVertex
100
AcDb2dVertex
 10
503.6257739043344
 20
148.6621446198586
 30
0.0
  0
VERTEX
  5
3FD
330
EA
100
AcDbEntity
  8
0
100
AcDbVertex
100
AcDb2dVertex
 10
503.6257739043344
 20
148.6621446198586
 30
0.0
  0
SEQEND
  5
EC
330
EA
100
AcDbEntity
  8
0
 62
   250
370
    25
  0
ENDBLK
  5
E9
330
E6
100
AcDbEntity
  8
0
100
AcDbBlockEnd
  0
BLOCK
  5
EF
330
ED
100
AcDbEntity
  8
0
100
AcDbBlockBegin
  2
block 16
 70
     0
 10
0.0
 20
0.0
 30
0.0
  3
block 16
  1

  0
POLYLINE
  5
F1
330
ED
100
AcDbEntity
  8
0
 62
   250
370
    25
100
AcDb2dPolyline
 66
     1
 10
0.0
 20
0.0
 30
0.0
  0
VERTEX
  5
F2
330
F1
100
AcDbEntity
  8
0
 62
   250
370
    25
100
AcDbVertex
100
AcDb2dVertex
 10
437.0082569609186
 20
-203.3113318762664
 30
0.0
  0
VERTEX
  5
3FE
330
F1
100
AcDbEntity
  8
0
100
AcDbVertex
100
AcDb2dVertex
 10
437.0082569609186
 20
-203.3113318762664
 30
0.0
  0
SEQEND
  5
F3
330
F1
100
AcDbEntity
  8
0
 62
   250
370
    25
  0
ENDBLK
  5
F0
330
ED
100
AcDbEntity
  8
0
100
AcDbBlockEnd
  0
BLOCK
  5
F6
330
F4
100
AcDbEntity
  8
0
100
AcDbBlockBegin
  2
block 17
 70
     0
 10
0.0
 20
0.0
 30
0.0
  3
block 17
  1

  0
POLYLINE
  5
F8
330
F4
100
AcDbEntity
  8
0
 62
   250
370
    25
100
AcDb2dPolyline
 66
     1
 10
0.0
 20
0.0
 30
0.0
  0
VERTEX
  5
F9
330
F8
100
AcDbEntity
  8
0
 62
   250
370
    25
100
AcDbVertex
100
AcDb2dVertex
 10
-226.9696866308705
 20
500.2393513420686
 30
0.0
  0
VERTEX
  5
3FF
330
F8
100
AcDbEntity
  8
0
100
AcDbVertex
100
AcDb2dVertex
 10
-226.9696866308705
 20
500.2393513420686
 30
0.0
  0
SEQEND
  5
FA
330
F8
100
AcDbEntity
  8
0
 62
   250
370
    25
  0
ENDBLK
  5
F7
330
F4
100
AcDbEntity
  8
0
100
AcDbBlockEnd
  0
BLOCK
  5
FD
330
FB
100
AcDbEntity
  8
0
100
AcDbBlockBegin
  2
block 18
 70
     0
 10
0.0
 20
0.0
 30
0.0
  3
block 18
  1

  0
POLYLINE
  5
FF
330
FB
100
AcDbEntity
  8
0
 62
   250
370
    25
100
AcDb2dPolyline
 66
     1
 10
0.0
 20
0.0
 30
0.0
  0
VERTEX
  5
100
330
FF
100
AcDbEntity
  8
0
 62
   250
370
    25
100
AcDbVertex
100
AcDb2dVertex
 10
-263.133648095687
 20
449.9572437177711
 30
0.0
  0
VERTEX
  5
101
330
FF
100
AcDbEntity
  8
0
 62
   250
370
    25
100
AcDbVertex
100
AcDb2dVertex
 10
-268.5605376082785
 20
434.8666620990939
 30
0.0
  0
VERTEX
  5
102
330
FF
100
AcDbEntity
  8
0
 62
   250
370
    25
100
AcDbVertex
100
AcDb2dVertex
 10
-273.2300037773496
 20
418.5827759537262
 30
0.0
  0
VERTEX
  5
103
330
FF
100
AcDbEntity
  8
0
 62
   250
370
    25
100
AcDbVertex
100
AcDb2dVertex
 10
-277.1788947946932
 20
401.3817244693534
 30
0.0
  0
VERTEX
  5
104
330
FF
100
AcDbEntity
  8
0
 62
   250
370
    25
100
AcDbVertex
100
AcDb2dVertex
 10
-280.4856645492115
 20
383.4125047152954
 30
0.0
  0
VERTEX
  5
105
330
FF
100
AcDbEntity
  8
0
 62
   250
370
    25
100
AcDbVertex
100
AcDb2dVertex
 10
-283.2149808101784
 20
364.9048159357397
 30
0.0
  0
VERTEX
  5
106
330
FF
100
AcDbEntity
  8
0
 62
   250
370
    25
100
AcDbVertex
100
AcDb2dVertex
 10
-285.4470102967908
 20
346.0137000225542
 30
0.0
  0
VERTEX
  5
107
330
FF
100
AcDbEntity
  8
0
 62
   250
370
    25
100
AcDbVertex
100
AcDb2dVertex
 10
-288.7297898192375
 20
307.4747692972413
 30
0.0
  0
VERTEX
  5
108
330
FF
100
AcDbEntity
  8
0
 62
   250
370
    25
100
AcDbVertex
100
AcDb2dVertex
 10
-290.8539108859278
 20
268.1571625656262
 30
0.0
  0
VERTEX
  5
109
330
FF
100
AcDbEntity
  8
0
 62
   250
370
    25
100
AcDbVertex
100
AcDb2dVertex
 10
-292.1502369934756
 20
228.4775490804854
 30
0.0
  0
VERTEX
  5
10A
330
FF
100
AcDbEntity
  8
0
 62
   250
370
    25
100
AcDbVertex
100
AcDb2dVertex
 10
-293.0554827100083
 20
148.6621446208661
 30
0.0
  0
SEQEND
  5
10B
330
FF
100
AcDbEntity
  8
0
 62
   250
370
    25
  0
ENDBLK
  5
FE
330
FB
100
AcDbEntity
  8
0
100
AcDbBlockEnd
  0
BLOCK
  5
10E
330
10C
100
AcDbEntity
  8
0
100
AcDbBlockBegin
  2
block 19
 70
     0
 10
0.0
 20
0.0
 30
0.0
  3
block 19
  1

  0
POLYLINE
  5
110
330
10C
100
AcDbEntity
  8
0
 62
   250
370
    25
100
AcDb2dPolyline
 66
     1
 10
0.0
 20
0.0
 30
0.0
  0
VERTEX
  5
111
330
110
100
AcDbEntity
  8
0
 62
   250
370
    25
100
AcDbVertex
100
AcDb2dVertex
 10
503.6257806184571
 20
148.6621446208661
 30
0.0
  0
VERTEX
  5
112
330
110
100
AcDbEntity
  8
0
 62
   250
370
    25
100
AcDbVertex
100
AcDb2dVertex
 10
502.7535428789532
 20
227.1232667829303
 30
0.0
  0
VERTEX
  5
113
330
110
100
AcDbEntity
  8
0
 62
   250
370
    25
100
AcDbVertex
100
AcDb2dVertex
 10
499.4842695943379
 20
304.7006686437718
 30
0.0
  0
VERTEX
  5
114
330
110
100
AcDbEntity
  8
0
 62
   250
370
    25
100
AcDbVertex
100
AcDb2dVertex
 10
496.3478432242584
 20
342.823618730984
 30
0.0
  0
VERTEX
  5
115
330
110
100
AcDbEntity
  8
0
 62
   250
370
    25
100
AcDbVertex
100
AcDb2dVertex
 10
491.6685422216885
 20
379.6008170437703
 30
0.0
  0
VERTEX
  5
116
330
110
100
AcDbEntity
  8
0
 62
   250
370
    25
100
AcDbVertex
100
AcDb2dVertex
 10
484.8394645976722
 20
414.4144548089365
 30
0.0
  0
VERTEX
  5
117
330
110
100
AcDbEntity
  8
0
 62
   250
370
    25
100
AcDbVertex
100
AcDb2dVertex
 10
475.3022928394778
 20
445.8629246122065
 30
0.0
  0
VERTEX
  5
118
330
110
100
AcDbEntity
  8
0
 62
   250
370
    25
100
AcDbVertex
100
AcDb2dVertex
 10
469.4686073327774
 20
459.6264773875727
 30
0.0
  0
VERTEX
  5
119
330
110
100
AcDbEntity
  8
0
 62
   250
370
    25
100
AcDbVertex
100
AcDb2dVertex
 10
463.0242449818427
 20
471.6772860746254
 30
0.0
  0
VERTEX
  5
11A
330
110
100
AcDbEntity
  8
0
 62
   250
370
    25
100
AcDbVertex
100
AcDb2dVertex
 10
456.0105925069635
 20
482.0042640218302
 30
0.0
  0
VERTEX
  5
11B
330
110
100
AcDbEntity
  8
0
 62
   250
370
    25
100
AcDbVertex
100
AcDb2dVertex
 10
448.3831806467393
 20
490.7889391679387
 30
0.0
  0
VERTEX
  5
11C
330
110
100
AcDbEntity
  8
0
 62
   250
370
    25
100
AcDbVertex
100
AcDb2dVertex
 10
439.7829072573432
 20
498.5117788229285
 30
0.0
  0
VERTEX
  5
11D
330
110
100
AcDbEntity
  8
0
 62
   250
370
    25
100
AcDbVertex
100
AcDb2dVertex
 10
429.69190270809
 20
505.5904649934424
 30
0.0
  0
VERTEX
  5
11E
330
110
100
AcDbEntity
  8
0
 62
   250
370
    25
100
AcDbVertex
100
AcDb2dVertex
 10
417.8452894901062
 20
512.1217814522671
 30
0.0
  0
VERTEX
  5
11F
330
110
100
AcDbEntity
  8
0
 62
   250
370
    25
100
AcDbVertex
100
AcDb2dVertex
 10
404.2915116838986
 20
518.0335092587692
 30
0.0
  0
VERTEX
  5
120
330
110
100
AcDbEntity
  8
0
 62
   250
370
    25
100
AcDbVertex
100
AcDb2dVertex
 10
373.1916612363021
 20
527.7271227262149
 30
0.0
  0
VERTEX
  5
121
330
110
100
AcDbEntity
  8
0
 62
   250
370
    25
100
AcDbVertex
100
AcDb2dVertex
 10
338.5060578204144
 20
534.7178789877835
 30
0.0
  0
VERTEX
  5
122
330
110
100
AcDbEntity
  8
0
 62
   250
370
    25
100
AcDbVertex
100
AcDb2dVertex
 10
301.8267725137254
 20
539.5151440565274
 30
0.0
  0
VERTEX
  5
123
330
110
100
AcDbEntity
  8
0
 62
   250
370
    25
100
AcDbVertex
100
AcDb2dVertex
 10
263.7615300319958
 20
542.7380744826039
 30
0.0
  0
VERTEX
  5
124
330
110
100
AcDbEntity
  8
0
 62
   250
370
    25
100
AcDbVertex
100
AcDb2dVertex
 10
186.2498998389157
 20
546.1162200476801
 30
0.0
  0
VERTEX
  5
125
330
110
100
AcDbEntity
  8
0
 62
   250
370
    25
100
AcDbVertex
100
AcDb2dVertex
 10
107.9127554007462
 20
547.0519760391231
 30
0.0
  0
VERTEX
  5
126
330
110
100
AcDbEntity
  8
0
 62
   250
370
    25
100
AcDbVertex
100
AcDb2dVertex
 10
29.58190262407901
 20
546.2411771318402
 30
0.0
  0
VERTEX
  5
127
330
110
100
AcDbEntity
  8
0
 62
   250
370
    25
100
AcDbVertex
100
AcDb2dVertex
 10
-48.05677232808041
 20
543.0746757487934
 30
0.0
  0
VERTEX
  5
128
330
110
100
AcDbEntity
  8
0
 62
   250
370
    25
100
AcDbVertex
100
AcDb2dVertex
 10
-86.0499146483625
 20
540.0442544722554
 30
0.0
  0
VERTEX
  5
129
330
110
100
AcDbEntity
  8
0
 62
   250
370
    25
100
AcDbVertex
100
AcDb2dVertex
 10
-123.0058161776633
 20
535.4905977038311
 30
0.0
  0
VERTEX
  5
12A
330
110
100
AcDbEntity
  8
0
 62
   250
370
    25
100
AcDbVertex
100
AcDb2dVertex
 10
-157.9987256930727
 20
528.8456360262899
 30
0.0
  0
VERTEX
  5
12B
330
110
100
AcDbEntity
  8
0
 62
   250
370
    25
100
AcDbVertex
100
AcDb2dVertex
 10
-189.6965857900308
 20
519.5496992479189
 30
0.0
  0
VERTEX
  5
12C
330
110
100
AcDbEntity
  8
0
 62
   250
370
    25
100
AcDbVertex
100
AcDb2dVertex
 10
-203.6540882538018
 20
513.8387792865283
 30
0.0
  0
VERTEX
  5
12D
330
110
100
AcDbEntity
  8
0
 62
   250
370
    25
100
AcDbVertex
100
AcDb2dVertex
 10
-215.9924725883213
 20
507.4713660804638
 30
0.0
  0
VERTEX
  5
12E
330
110
100
AcDbEntity
  8
0
 62
   250
370
    25
100
AcDbVertex
100
AcDb2dVertex
 10
-226.5104256932442
 20
500.5812626799311
 30
0.0
  0
VERTEX
  5
12F
330
110
100
AcDbEntity
  8
0
 62
   250
370
    25
100
AcDbVertex
100
AcDb2dVertex
 10
-235.4847758133637
 20
493.0743667069777
 30
0.0
  0
VERTEX
  5
130
330
110
100
AcDbEntity
  8
0
 62
   250
370
    25
100
AcDbVertex
100
AcDb2dVertex
 10
-243.3463891345387
 20
484.6370747637353
 30
0.0
  0
VERTEX
  5
131
330
110
100
AcDbEntity
  8
0
 62
   250
370
    25
100
AcDbVertex
100
AcDb2dVertex
 10
-250.5068524768095
 20
474.8011936149818
 30
0.0
  0
VERTEX
  5
132
330
110
100
AcDbEntity
  8
0
 62
   250
370
    25
100
AcDbVertex
100
AcDb2dVertex
 10
-257.1374859368257
 20
463.2076905702407
 30
0.0
  0
VERTEX
  5
133
330
110
100
AcDbEntity
  8
0
 62
   250
370
    25
100
AcDbVertex
100
AcDb2dVertex
 10
-263.1336586470095
 20
449.9572226556558
 30
0.0
  0
SEQEND
  5
134
330
110
100
AcDbEntity
  8
0
 62
   250
370
    25
  0
ENDBLK
  5
10F
330
10C
100
AcDbEntity
  8
0
100
AcDbBlockEnd
  0
BLOCK
  5
137
330
135
100
AcDbEntity
  8
0
100
AcDbBlockBegin
  2
block 20
 70
     0
 10
0.0
 20
0.0
 30
0.0
  3
block 20
  1

  0
POLYLINE
  5
139
330
135
100
AcDbEntity
  8
0
 62
   250
370
    25
100
AcDb2dPolyline
 66
     1
 10
0.0
 20
0.0
 30
0.0
  0
VERTEX
  5
13A
330
139
100
AcDbEntity
  8
0
 62
   250
370
    25
100
AcDbVertex
100
AcDb2dVertex
 10
503.6257806184571
 20
148.6621446208661
 30
0.0
  0
VERTEX
  5
13B
330
139
100
AcDbEntity
  8
0
 62
   250
370
    25
100
AcDbVertex
100
AcDb2dVertex
 10
502.7535428783501
 20
70.20102243325584
 30
0.0
  0
VERTEX
  5
13C
330
139
100
AcDbEntity
  8
0
 62
   250
370
    25
100
AcDbVertex
100
AcDb2dVertex
 10
499.4842695910524
 20
-7.376379451988813
 30
0.0
  0
VERTEX
  5
13D
330
139
100
AcDbEntity
  8
0
 62
   250
370
    25
100
AcDbVertex
100
AcDb2dVertex
 10
496.3478432140298
 20
-45.49932958997938
 30
0.0
  0
VERTEX
  5
13E
330
139
100
AcDbEntity
  8
0
 62
   250
370
    25
100
AcDbVertex
100
AcDb2dVertex
 10
491.6685421912078
 20
-82.27652799620215
 30
0.0
  0
VERTEX
  5
13F
330
139
100
AcDbEntity
  8
0
 62
   250
370
    25
100
AcDbVertex
100
AcDb2dVertex
 10
484.8394645515341
 20
-117.0901657575387
 30
0.0
  0
VERTEX
  5
140
330
139
100
AcDbEntity
  8
0
 62
   250
370
    25
100
AcDbVertex
100
AcDb2dVertex
 10
475.3022927905675
 20
-148.5386354998203
 30
0.0
  0
VERTEX
  5
141
330
139
100
AcDbEntity
  8
0
 62
   250
370
    25
100
AcDbVertex
100
AcDb2dVertex
 10
469.4686072755379
 20
-162.3021882661706
 30
0.0
  0
VERTEX
  5
142
330
139
100
AcDbEntity
  8
0
 62
   250
370
    25
100
AcDbVertex
100
AcDb2dVertex
 10
463.0242449147466
 20
-174.3529969444064
 30
0.0
  0
VERTEX
  5
143
330
139
100
AcDbEntity
  8
0
 62
   250
370
    25
100
AcDbVertex
100
AcDb2dVertex
 10
456.0105925911673
 20
-184.6799746705209
 30
0.0
  0
VERTEX
  5
144
330
139
100
AcDbEntity
  8
0
 62
   250
370
    25
100
AcDbVertex
100
AcDb2dVertex
 10
448.3831807384767
 20
-193.4646498329221
 30
0.0
  0
VERTEX
  5
145
330
139
100
AcDbEntity
  8
0
 62
   250
370
    25
100
AcDbVertex
100
AcDb2dVertex
 10
439.7829073502227
 20
-201.1874895074709
 30
0.0
  0
VERTEX
  5
146
330
139
100
AcDbEntity
  8
0
 62
   250
370
    25
100
AcDbVertex
100
AcDb2dVertex
 10
429.691902814997
 20
-208.2661756852623
 30
0.0
  0
VERTEX
  5
147
330
139
100
AcDbEntity
  8
0
 62
   250
370
    25
100
AcDbVertex
100
AcDb2dVertex
 10
417.8452896091285
 20
-214.7974921522301
 30
0.0
  0
VERTEX
  5
148
330
139
100
AcDbEntity
  8
0
 62
   250
370
    25
100
AcDbVertex
100
AcDb2dVertex
 10
404.2915118152929
 20
-220.7092199658808
 30
0.0
  0
VERTEX
  5
149
330
139
100
AcDbEntity
  8
0
 62
   250
370
    25
100
AcDbVertex
100
AcDb2dVertex
 10
373.1916613791187
 20
-230.4028334488685
 30
0.0
  0
VERTEX
  5
14A
330
139
100
AcDbEntity
  8
0
 62
   250
370
    25
100
AcDbVertex
100
AcDb2dVertex
 10
338.5060579530792
 20
-237.3935897246635
 30
0.0
  0
VERTEX
  5
14B
330
139
100
AcDbEntity
  8
0
 62
   250
370
    25
100
AcDbVertex
100
AcDb2dVertex
 10
301.8267720739947
 20
-242.1908548608936
 30
0.0
  0
VERTEX
  5
14C
330
139
100
AcDbEntity
  8
0
 62
   250
370
    25
100
AcDbVertex
100
AcDb2dVertex
 10
263.7615295717051
 20
-245.4137852719543
 30
0.0
  0
VERTEX
  5
14D
330
139
100
AcDbEntity
  8
0
 62
   250
370
    25
100
AcDbVertex
100
AcDb2dVertex
 10
186.2498992640047
 20
-248.7919308203336
 30
0.0
  0
VERTEX
  5
14E
330
139
100
AcDbEntity
  8
0
 62
   250
370
    25
100
AcDbVertex
100
AcDb2dVertex
 10
107.9127547977416
 20
-249.7276867978196
 30
0.0
  0
VERTEX
  5
14F
330
139
100
AcDbEntity
  8
0
 62
   250
370
    25
100
AcDbVertex
100
AcDb2dVertex
 10
29.58190194400637
 20
-248.9168878746675
 30
0.0
  0
VERTEX
  5
150
330
139
100
AcDbEntity
  8
0
 62
   250
370
    25
100
AcDbVertex
100
AcDb2dVertex
 10
-48.05677307213045
 20
-245.750386459786
 30
0.0
  0
VERTEX
  5
151
330
139
100
AcDbEntity
  8
0
 62
   250
370
    25
100
AcDbVertex
100
AcDb2dVertex
 10
-86.04991540798017
 20
-242.7199651557383
 30
0.0
  0
VERTEX
  5
152
330
139
100
AcDbEntity
  8
0
 62
   250
370
    25
100
AcDbVertex
100
AcDb2dVertex
 10
-123.005816954902
 20
-238.1663083438659
 30
0.0
  0
VERTEX
  5
153
330
139
100
AcDbEntity
  8
0
 62
   250
370
    25
100
AcDbVertex
100
AcDb2dVertex
 10
-157.9987264233519
 20
-231.521346613224
 30
0.0
  0
VERTEX
  5
154
330
139
100
AcDbEntity
  8
0
 62
   250
370
    25
100
AcDbVertex
100
AcDb2dVertex
 10
-189.6965864536502
 20
-222.2254097639196
 30
0.0
  0
VERTEX
  5
155
330
139
100
AcDbEntity
  8
0
 62
   250
370
    25
100
AcDbVertex
100
AcDb2dVertex
 10
-203.6540888565433
 20
-216.5144897681468
 30
0.0
  0
VERTEX
  5
156
330
139
100
AcDbEntity
  8
0
 62
   250
370
    25
100
AcDbVertex
100
AcDb2dVertex
 10
-215.9924728568723
 20
-210.1470766825998
 30
0.0
  0
VERTEX
  5
157
330
139
100
AcDbEntity
  8
0
 62
   250
370
    25
100
AcDbVertex
100
AcDb2dVertex
 10
-226.5104256808594
 20
-203.2569734473489
 30
0.0
  0
VERTEX
  5
158
330
139
100
AcDbEntity
  8
0
 62
   250
370
    25
100
AcDbVertex
100
AcDb2dVertex
 10
-235.484775804367
 20
-195.7500774737859
 30
0.0
  0
VERTEX
  5
159
330
139
100
AcDbEntity
  8
0
 62
   250
370
    25
100
AcDbVertex
100
AcDb2dVertex
 10
-243.3463891286735
 20
-187.3127855291638
 30
0.0
  0
VERTEX
  5
15A
330
139
100
AcDbEntity
  8
0
 62
   250
370
    25
100
AcDbVertex
100
AcDb2dVertex
 10
-250.5068524727283
 20
-177.4769043795883
 30
0.0
  0
VERTEX
  5
15B
330
139
100
AcDbEntity
  8
0
 62
   250
370
    25
100
AcDbVertex
100
AcDb2dVertex
 10
-257.1374859351187
 20
-165.8834013318697
 30
0.0
  0
VERTEX
  5
15C
330
139
100
AcDbEntity
  8
0
 62
   250
370
    25
100
AcDbVertex
100
AcDb2dVertex
 10
-263.1336586470095
 20
-152.6329334139287
 30
0.0
  0
SEQEND
  5
15D
330
139
100
AcDbEntity
  8
0
 62
   250
370
    25
  0
ENDBLK
  5
138
330
135
100
AcDbEntity
  8
0
100
AcDbBlockEnd
  0
BLOCK
  5
160
330
15E
100
AcDbEntity
  8
0
100
AcDbBlockBegin
  2
block 21
 70
     0
 10
0.0
 20
0.0
 30
0.0
  3
block 21
  1

  0
POLYLINE
  5
162
330
15E
100
AcDbEntity
  8
0
 62
   250
370
    25
100
AcDb2dPolyline
 66
     1
 10
0.0
 20
0.0
 30
0.0
  0
VERTEX
  5
163
330
162
100
AcDbEntity
  8
0
 62
   250
370
    25
100
AcDbVertex
100
AcDb2dVertex
 10
-263.1336480956934
 20
-152.6329544760569
 30
0.0
  0
VERTEX
  5
164
330
162
100
AcDbEntity
  8
0
 62
   250
370
    25
100
AcDbVertex
100
AcDb2dVertex
 10
-268.560537608009
 20
-137.542372858228
 30
0.0
  0
VERTEX
  5
165
330
162
100
AcDbEntity
  8
0
 62
   250
370
    25
100
AcDbVertex
100
AcDb2dVertex
 10
-273.2300037768876
 20
-121.2584867137973
 30
0.0
  0
VERTEX
  5
166
330
162
100
AcDbEntity
  8
0
 62
   250
370
    25
100
AcDbVertex
100
AcDb2dVertex
 10
-277.1788947941156
 20
-104.0574352304697
 30
0.0
  0
VERTEX
  5
167
330
162
100
AcDbEntity
  8
0
 62
   250
370
    25
100
AcDbVertex
100
AcDb2dVertex
 10
-280.4856645485698
 20
-86.0882154774571
 30
0.0
  0
VERTEX
  5
168
330
162
100
AcDbEntity
  8
0
 62
   250
370
    25
100
AcDbVertex
100
AcDb2dVertex
 10
-283.214980809511
 20
-67.58052669901788
 30
0.0
  0
VERTEX
  5
169
330
162
100
AcDbEntity
  8
0
 62
   250
370
    25
100
AcDbVertex
100
AcDb2dVertex
 10
-285.4470102960785
 20
-48.68941078714282
 30
0.0
  0
VERTEX
  5
16A
330
162
100
AcDbEntity
  8
0
 62
   250
370
    25
100
AcDbVertex
100
AcDb2dVertex
 10
-288.7297898186663
 20
-10.15048006402383
 30
0.0
  0
VERTEX
  5
16B
330
162
100
AcDbEntity
  8
0
 62
   250
370
    25
100
AcDbVertex
100
AcDb2dVertex
 10
-290.8539108848883
 20
29.16712665122861
 30
0.0
  0
VERTEX
  5
16C
330
162
100
AcDbEntity
  8
0
 62
   250
370
    25
100
AcDbVertex
100
AcDb2dVertex
 10
-292.1502369934435
 20
68.84674016036762
 30
0.0
  0
VERTEX
  5
16D
330
162
100
AcDbEntity
  8
0
 62
   250
370
    25
100
AcDbVertex
100
AcDb2dVertex
 10
-293.0554827100083
 20
148.6621446208661
 30
0.0
  0
SEQEND
  5
16E
330
162
100
AcDbEntity
  8
0
 62
   250
370
    25
  0
ENDBLK
  5
161
330
15E
100
AcDbEntity
  8
0
100
AcDbBlockEnd
  0
BLOCK
  5
171
330
16F
100
AcDbEntity
  8
0
100
AcDbBlockBegin
  2
block 22
 70
     0
 10
0.0
 20
0.0
 30
0.0
  3
block 22
  1

  0
POLYLINE
  5
173
330
16F
100
AcDbEntity
  8
0
 62
   250
370
    25
100
AcDb2dPolyline
 66
     1
 10
0.0
 20
0.0
 30
0.0
  0
VERTEX
  5
174
330
173
100
AcDbEntity
  8
0
 62
   250
370
    25
100
AcDbVertex
100
AcDb2dVertex
 10
-263.3351360305546
 20
-152.7977580941597
 30
0.0
  0
VERTEX
  5
175
330
173
100
AcDbEntity
  8
0
 62
   250
370
    25
100
AcDbVertex
100
AcDb2dVertex
 10
-268.7675630314122
 20
-137.6995322229967
 30
0.0
  0
VERTEX
  5
176
330
173
100
AcDbEntity
  8
0
 62
   250
370
    25
100
AcDbVertex
100
AcDb2dVertex
 10
-273.4424709708607
 20
-121.4075186084779
 30
0.0
  0
VERTEX
  5
177
330
173
100
AcDbEntity
  8
0
 62
   250
370
    25
100
AcDbVertex
100
AcDb2dVertex
 10
-277.396738201318
 20
-104.1976456542143
 30
0.0
  0
VERTEX
  5
178
330
173
100
AcDbEntity
  8
0
 62
   250
370
    25
100
AcDbVertex
100
AcDb2dVertex
 10
-280.7087198542813
 20
-86.21931526538039
 30
0.0
  0
VERTEX
  5
179
330
173
100
AcDbEntity
  8
0
 62
   250
370
    25
100
AcDbVertex
100
AcDb2dVertex
 10
-283.4430495186809
 20
-67.70234401664308
 30
0.0
  0
VERTEX
  5
17A
330
173
100
AcDbEntity
  8
0
 62
   250
370
    25
100
AcDbVertex
100
AcDb2dVertex
 10
-285.6798947894088
 20
-48.80164147614545
 30
0.0
  0
VERTEX
  5
17B
330
173
100
AcDbEntity
  8
0
 62
   250
370
    25
100
AcDbVertex
100
AcDb2dVertex
 10
-288.9715728263333
 20
-10.24251536550485
 30
0.0
  0
VERTEX
  5
17C
330
173
100
AcDbEntity
  8
0
 62
   250
370
    25
100
AcDbVertex
100
AcDb2dVertex
 10
-291.103337428258
 20
29.09710123572276
 30
0.0
  0
VERTEX
  5
17D
330
173
100
AcDbEntity
  8
0
 62
   250
370
    25
100
AcDbVertex
100
AcDb2dVertex
 10
-292.4055403635975
 20
68.79948354180152
 30
0.0
  0
VERTEX
  5
17E
330
173
100
AcDbEntity
  8
0
 62
   250
370
    25
100
AcDbVertex
100
AcDb2dVertex
 10
-293.3157856497446
 20
148.6621446208661
 30
0.0
  0
SEQEND
  5
17F
330
173
100
AcDbEntity
  8
0
 62
   250
370
    25
  0
ENDBLK
  5
172
330
16F
100
AcDbEntity
  8
0
100
AcDbBlockEnd
  0
BLOCK
  5
182
330
180
100
AcDbEntity
  8
0
100
AcDbBlockBegin
  2
block 23
 70
     0
 10
0.0
 20
0.0
 30
0.0
  3
block 23
  1

  0
POLYLINE
  5
184
330
180
100
AcDbEntity
  8
0
  6
AI-Linetype-1
 62
   250
370
    25
100
AcDb2dPolyline
 66
     1
 10
0.0
 20
0.0
 30
0.0
  0
VERTEX
  5
185
330
184
100
AcDbEntity
  8
0
  6
AI-Linetype-1
 62
   250
370
    25
100
AcDbVertex
100
AcDb2dVertex
 10
444.8727616664704
 20
-197.2025201362017
 30
0.0
  0
VERTEX
  5
186
330
184
100
AcDbEntity
  8
0
  6
AI-Linetype-1
 62
   250
370
    25
100
AcDbVertex
100
AcDb2dVertex
 10
433.3711602340452
 20
-206.1916938657677
 30
0.0
  0
VERTEX
  5
187
330
184
100
AcDbEntity
  8
0
  6
AI-Linetype-1
 62
   250
370
    25
100
AcDbVertex
100
AcDb2dVertex
 10
419.3275261452343
 20
-214.3435706217666
 30
0.0
  0
VERTEX
  5
188
330
184
100
AcDbEntity
  8
0
  6
AI-Linetype-1
 62
   250
370
    25
100
AcDbVertex
100
AcDb2dVertex
 10
402.7443933048191
 20
-221.5681727939797
 30
0.0
  0
VERTEX
  5
189
330
184
100
AcDbEntity
  8
0
  6
AI-Linetype-1
 62
   250
370
    25
100
AcDbVertex
100
AcDb2dVertex
 10
384.0395910892537
 20
-227.7467734612515
 30
0.0
  0
VERTEX
  5
18A
330
184
100
AcDbEntity
  8
0
  6
AI-Linetype-1
 62
   250
370
    25
100
AcDbVertex
100
AcDb2dVertex
 10
363.7377791714554
 20
-232.8676483787852
 30
0.0
  0
VERTEX
  5
18B
330
184
100
AcDbEntity
  8
0
  6
AI-Linetype-1
 62
   250
370
    25
100
AcDbVertex
100
AcDb2dVertex
 10
342.3163979131569
 20
-237.0088391069144
 30
0.0
  0
VERTEX
  5
18C
330
184
100
AcDbEntity
  8
0
  6
AI-Linetype-1
 62
   250
370
    25
100
AcDbVertex
100
AcDb2dVertex
 10
297.3072043447893
 20
-242.896602547911
 30
0.0
  0
VERTEX
  5
18D
330
184
100
AcDbEntity
  8
0
  6
AI-Linetype-1
 62
   250
370
    25
100
AcDbVertex
100
AcDb2dVertex
 10
250.4778683566452
 20
-246.4928884821289
 30
0.0
  0
VERTEX
  5
18E
330
184
100
AcDbEntity
  8
0
  6
AI-Linetype-1
 62
   250
370
    25
100
AcDbVertex
100
AcDb2dVertex
 10
202.9923843434145
 20
-248.5751948174326
 30
0.0
  0
VERTEX
  5
18F
330
184
100
AcDbEntity
  8
0
  6
AI-Linetype-1
 62
   250
370
    25
100
AcDbVertex
100
AcDb2dVertex
 10
107.0818873562812
 20
-249.9884747377326
 30
0.0
  0
VERTEX
  5
190
330
184
100
AcDbEntity
  8
0
  6
AI-Linetype-1
 62
   250
370
    25
100
AcDbVertex
100
AcDb2dVertex
 10
11.12669376620131
 20
-248.6853324447089
 30
0.0
  0
VERTEX
  5
191
330
184
100
AcDbEntity
  8
0
  6
AI-Linetype-1
 62
   250
370
    25
100
AcDbVertex
100
AcDb2dVertex
 10
-36.43993781103107
 20
-246.6900044224717
 30
0.0
  0
VERTEX
  5
192
330
184
100
AcDbEntity
  8
0
  6
AI-Linetype-1
 62
   250
370
    25
100
AcDbVertex
100
AcDb2dVertex
 10
-83.1201690065596
 20
-243.2490132690604
 30
0.0
  0
VERTEX
  5
193
330
184
100
AcDbEntity
  8
0
  6
AI-Linetype-1
 62
   250
370
    25
100
AcDbVertex
100
AcDb2dVertex
 10
-128.2944860481986
 20
-237.5803420697407
 30
0.0
  0
VERTEX
  5
194
330
184
100
AcDbEntity
  8
0
  6
AI-Linetype-1
 62
   250
370
    25
100
AcDbVertex
100
AcDb2dVertex
 10
-149.8077159923556
 20
-233.5931024552855
 30
0.0
  0
VERTEX
  5
195
330
184
100
AcDbEntity
  8
0
  6
AI-Linetype-1
 62
   250
370
    25
100
AcDbVertex
100
AcDb2dVertex
 10
-170.3366134154479
 20
-228.6302841024771
 30
0.0
  0
VERTEX
  5
196
330
184
100
AcDbEntity
  8
0
  6
AI-Linetype-1
 62
   250
370
    25
100
AcDbVertex
100
AcDb2dVertex
 10
-189.3202841677525
 20
-222.6249342517907
 30
0.0
  0
VERTEX
  5
197
330
184
100
AcDbEntity
  8
0
  6
AI-Linetype-1
 62
   250
370
    25
100
AcDbVertex
100
AcDb2dVertex
 10
-206.2834880251733
 20
-215.5578872969587
 30
0.0
  0
VERTEX
  5
198
330
184
100
AcDbEntity
  8
0
  6
AI-Linetype-1
 62
   250
370
    25
100
AcDbVertex
100
AcDb2dVertex
 10
-220.7682433802339
 20
-207.5284245257783
 30
0.0
  0
VERTEX
  5
199
330
184
100
AcDbEntity
  8
0
  6
AI-Linetype-1
 62
   250
370
    25
100
AcDbVertex
100
AcDb2dVertex
 10
-232.6157756777894
 20
-198.7007673381551
 30
0.0
  0
SEQEND
  5
19B
330
184
100
AcDbEntity
  8
0
  6
AI-Linetype-1
 62
   250
370
    25
  0
ENDBLK
  5
183
330
180
100
AcDbEntity
  8
0
100
AcDbBlockEnd
  0
BLOCK
  5
19E
330
19C
100
AcDbEntity
  8
0
100
AcDbBlockBegin
  2
block 24
 70
     0
 10
0.0
 20
0.0
 30
0.0
  3
block 24
  1

  0
SPLINE
  5
1A0
330
19C
100
AcDbEntity
  8
0
  6
AI-Linetype-2
 62
   250
370
    25
100
AcDbSpline
210
0.0
220
0.0
230
1.0
 70
     8
 71
     3
 72
     8
 73
     4
 74
     0
 42
0.0000000001
 43
0.0000000001
 12
1.0
 22
0.0
 32
0.0
 13
1.0
 23
0.0
 33
0.0
 40
0.0
 40
0.0
 40
0.0
 40
0.0
 40
1.0
 40
1.0
 40
1.0
 40
1.0
 10
444.8727573976316
 20
-197.2025152445555
 30
0.0
 10
447.1277634558573
 20
-195.2340674020216
 30
0.0
 10
449.2438559815636
 20
-193.1119387973922
 30
0.0
 10
451.205872687833
 20
-190.8513349674982
 30
0.0
  0
ENDBLK
  5
19F
330
19C
100
AcDbEntity
  8
0
100
AcDbBlockEnd
  0
BLOCK
  5
1A4
330
1A2
100
AcDbEntity
  8
0
100
AcDbBlockBegin
  2
block 25
 70
     0
 10
0.0
 20
0.0
 30
0.0
  3
block 25
  1

  0
POLYLINE
  5
1A6
330
1A2
100
AcDbEntity
  8
0
  6
AI-Linetype-3
 62
   250
370
    25
100
AcDb2dPolyline
 66
     1
 10
0.0
 20
0.0
 30
0.0
  0
VERTEX
  5
1A7
330
1A6
100
AcDbEntity
  8
0
  6
AI-Linetype-3
 62
   250
370
    25
100
AcDbVertex
100
AcDb2dVertex
 10
503.8860835581934
 20
148.6621446208661
 30
0.0
  0
VERTEX
  5
1A8
330
1A6
100
AcDbEntity
  8
0
  6
AI-Linetype-3
 62
   250
370
    25
100
AcDbVertex
100
AcDb2dVertex
 10
503.5682827753874
 20
100.3731895031171
 30
0.0
  0
VERTEX
  5
1A9
330
1A6
100
AcDbEntity
  8
0
  6
AI-Linetype-3
 62
   250
370
    25
100
AcDbVertex
100
AcDb2dVertex
 10
502.5187838111641
 20
52.25742510826808
 30
0.0
  0
VERTEX
  5
1AA
330
1A6
100
AcDbEntity
  8
0
  6
AI-Linetype-3
 62
   250
370
    25
100
AcDbVertex
100
AcDb2dVertex
 10
500.4642752077112
 20
4.585209221725795
 30
0.0
  0
VERTEX
  5
1AB
330
1A6
100
AcDbEntity
  8
0
  6
AI-Linetype-3
 62
   250
370
    25
100
AcDbVertex
100
AcDb2dVertex
 10
496.8976839808875
 20
-42.45096450417904
 30
0.0
  0
VERTEX
  5
1AC
330
1A6
100
AcDbEntity
  8
0
  6
AI-Linetype-3
 62
   250
370
    25
100
AcDbVertex
100
AcDb2dVertex
 10
494.3143927772674
 20
-65.3895203562543
 30
0.0
  0
VERTEX
  5
1AD
330
1A6
100
AcDbEntity
  8
0
  6
AI-Linetype-3
 62
   250
370
    25
100
AcDbVertex
100
AcDb2dVertex
 10
491.0498817489287
 20
-87.59717519358774
 30
0.0
  0
VERTEX
  5
1AE
330
1A6
100
AcDbEntity
  8
0
  6
AI-Linetype-3
 62
   250
370
    25
100
AcDbVertex
100
AcDb2dVertex
 10
486.9278949117302
 20
-109.0994785969622
 30
0.0
  0
VERTEX
  5
1AF
330
1A6
100
AcDbEntity
  8
0
  6
AI-Linetype-3
 62
   250
370
    25
100
AcDbVertex
100
AcDb2dVertex
 10
481.8087464644271
 20
-129.5442102875013
 30
0.0
  0
VERTEX
  5
1B0
330
1A6
100
AcDbEntity
  8
0
  6
AI-Linetype-3
 62
   250
370
    25
100
AcDbVertex
100
AcDb2dVertex
 10
475.630769524579
 20
-148.3688370913428
 30
0.0
  0
VERTEX
  5
1B1
330
1A6
100
AcDbEntity
  8
0
  6
AI-Linetype-3
 62
   250
370
    25
100
AcDbVertex
100
AcDb2dVertex
 10
468.3860455851526
 20
-165.0977592831011
 30
0.0
  0
VERTEX
  5
1B2
330
1A6
100
AcDbEntity
  8
0
  6
AI-Linetype-3
 62
   250
370
    25
100
AcDbVertex
100
AcDb2dVertex
 10
464.4164455809321
 20
-172.4942666829423
 30
0.0
  0
VERTEX
  5
1B3
330
1A6
100
AcDbEntity
  8
0
  6
AI-Linetype-3
 62
   250
370
    25
100
AcDbVertex
100
AcDb2dVertex
 10
460.2262333009765
 20
-179.2393412737506
 30
0.0
  0
VERTEX
  5
1B4
330
1A6
100
AcDbEntity
  8
0
  6
AI-Linetype-3
 62
   250
370
    25
100
AcDbVertex
100
AcDb2dVertex
 10
451.20599122538
 20
-190.8512408449055
 30
0.0
  0
SEQEND
  5
1B6
330
1A6
100
AcDbEntity
  8
0
  6
AI-Linetype-3
 62
   250
370
    25
  0
ENDBLK
  5
1A5
330
1A2
100
AcDbEntity
  8
0
100
AcDbBlockEnd
  0
BLOCK
  5
1B9
330
1B7
100
AcDbEntity
  8
0
100
AcDbBlockBegin
  2
block 26
 70
     0
 10
0.0
 20
0.0
 30
0.0
  3
block 26
  1

  0
POLYLINE
  5
1BB
330
1B7
100
AcDbEntity
  8
0
 62
   250
370
    25
100
AcDb2dPolyline
 66
     1
 10
0.0
 20
0.0
 30
0.0
  0
VERTEX
  5
1BC
330
1BB
100
AcDbEntity
  8
0
 62
   250
370
    25
100
AcDbVertex
100
AcDb2dVertex
 10
-242.4306554955665
 20
-188.8089140139296
 30
0.0
  0
VERTEX
  5
1BD
330
1BB
100
AcDbEntity
  8
0
 62
   250
370
    25
100
AcDbVertex
100
AcDb2dVertex
 10
-245.3570085706873
 20
-185.2114460917962
 30
0.0
  0
VERTEX
  5
1BE
330
1BB
100
AcDbEntity
  8
0
 62
   250
370
    25
100
AcDbVertex
100
AcDb2dVertex
 10
-248.1855235392469
 20
-181.3820207728292
 30
0.0
  0
VERTEX
  5
1BF
330
1BB
100
AcDbEntity
  8
0
 62
   250
370
    25
100
AcDbVertex
100
AcDb2dVertex
 10
-249.5683285614725
 20
-179.3704599779605
 30
0.0
  0
VERTEX
  5
1C0
330
1BB
100
AcDbEntity
  8
0
 62
   250
370
    25
100
AcDbVertex
100
AcDb2dVertex
 10
-250.9329510575804
 20
-177.2883299727231
 30
0.0
  0
VERTEX
  5
1C1
330
1BB
100
AcDbEntity
  8
0
 62
   250
370
    25
100
AcDbVertex
100
AcDb2dVertex
 10
-252.2785283703374
 20
-175.1353865740508
 30
0.0
  0
VERTEX
  5
1C2
330
1BB
100
AcDbEntity
  8
0
 62
   250
370
    25
100
AcDbVertex
100
AcDb2dVertex
 10
-253.6033124362824
 20
-172.9131571361837
 30
0.0
  0
VERTEX
  5
1C3
330
1BB
100
AcDbEntity
  8
0
 62
   250
370
    25
100
AcDbVertex
100
AcDb2dVertex
 10
-256.1849014845853
 20
-168.2670338069653
 30
0.0
  0
VERTEX
  5
1C4
330
1BB
100
AcDbEntity
  8
0
 62
   250
370
    25
100
AcDbVertex
100
AcDb2dVertex
 10
-258.6696801345788
 20
-163.3606409408327
 30
0.0
  0
VERTEX
  5
1C5
330
1BB
100
AcDbEntity
  8
0
 62
   250
370
    25
100
AcDbVertex
100
AcDb2dVertex
 10
-261.0543475821967
 20
-158.2003954111343
 30
0.0
  0
VERTEX
  5
1C6
330
1BB
100
AcDbEntity
  8
0
 62
   250
370
    25
100
AcDbVertex
100
AcDb2dVertex
 10
-263.3351465898342
 20
-152.7977370223034
 30
0.0
  0
SEQEND
  5
1C7
330
1BB
100
AcDbEntity
  8
0
 62
   250
370
    25
  0
ENDBLK
  5
1BA
330
1B7
100
AcDbEntity
  8
0
100
AcDbBlockEnd
  0
BLOCK
  5
1CA
330
1C8
100
AcDbEntity
  8
0
100
AcDbBlockBegin
  2
block 27
 70
     0
 10
0.0
 20
0.0
 30
0.0
  3
block 27
  1

  0
SPLINE
  5
1CC
330
1C8
100
AcDbEntity
  8
0
  6
AI-Linetype-4
 62
   250
370
    25
100
AcDbSpline
210
0.0
220
0.0
230
1.0
 70
     8
 71
     3
 72
     8
 73
     4
 74
     0
 42
0.0000000001
 43
0.0000000001
 12
1.0
 22
0.0
 32
0.0
 13
1.0
 23
0.0
 33
0.0
 40
0.0
 40
0.0
 40
0.0
 40
0.0
 40
1.0
 40
1.0
 40
1.0
 40
1.0
 10
-242.4305937909034
 20
-188.8088645142411
 30
0.0
 10
-239.5234759604363
 20
-192.4488406229404
 30
0.0
 10
-236.2329138537671
 20
-195.7652472264236
 30
0.0
 10
-232.6157923497978
 20
-198.7007526646414
 30
0.0
  0
ENDBLK
  5
1CB
330
1C8
100
AcDbEntity
  8
0
100
AcDbBlockEnd
  0
BLOCK
  5
1D0
330
1CE
100
AcDbEntity
  8
0
100
AcDbBlockBegin
  2
block 28
 70
     0
 10
0.0
 20
0.0
 30
0.0
  3
block 28
  1

  0
SPLINE
  5
1D2
330
1CE
100
AcDbEntity
  8
0
 62
   250
370
    25
100
AcDbSpline
210
0.0
220
0.0
230
1.0
 70
     8
 71
     3
 72
     8
 73
     4
 74
     0
 42
0.0000000001
 43
0.0000000001
 12
1.0
 22
0.0
 32
0.0
 13
1.0
 23
0.0
 33
0.0
 40
0.0
 40
0.0
 40
0.0
 40
0.0
 40
1.0
 40
1.0
 40
1.0
 40
1.0
 10
-232.6159003654635
 20
496.0249483363999
 30
0.0
 10
-236.2329891469335
 20
493.0894676162237
 30
0.0
 10
-239.5235178881146
 20
489.7730854278361
 30
0.0
 10
-242.4306011463402
 20
486.1331341587548
 30
0.0
  0
ENDBLK
  5
1D1
330
1CE
100
AcDbEntity
  8
0
100
AcDbBlockEnd
  0
BLOCK
  5
1D5
330
1D3
100
AcDbEntity
  8
0
100
AcDbBlockBegin
  2
block 29
 70
     0
 10
0.0
 20
0.0
 30
0.0
  3
block 29
  1

  0
POLYLINE
  5
1D7
330
1D3
100
AcDbEntity
  8
0
 62
   250
370
    25
100
AcDb2dPolyline
 66
     1
 10
0.0
 20
0.0
 30
0.0
  0
VERTEX
  5
1D8
330
1D7
100
AcDbEntity
  8
0
 62
   250
370
    25
100
AcDbVertex
100
AcDb2dVertex
 10
-242.4305993358505
 20
486.1332690228131
 30
0.0
  0
VERTEX
  5
1D9
330
1D7
100
AcDbEntity
  8
0
 62
   250
370
    25
100
AcDbVertex
100
AcDb2dVertex
 10
-245.3569611854934
 20
482.5357964647249
 30
0.0
  0
VERTEX
  5
1DA
330
1D7
100
AcDbEntity
  8
0
 62
   250
370
    25
100
AcDbVertex
100
AcDb2dVertex
 10
-248.1854841911409
 20
478.7063658991566
 30
0.0
  0
VERTEX
  5
1DB
330
1D7
100
AcDbEntity
  8
0
 62
   250
370
    25
100
AcDbVertex
100
AcDb2dVertex
 10
-249.5682929854531
 20
476.6948022209673
 30
0.0
  0
VERTEX
  5
1DC
330
1D7
100
AcDbEntity
  8
0
 62
   250
370
    25
100
AcDbVertex
100
AcDb2dVertex
 10
-250.9329191440455
 20
474.6126690781168
 30
0.0
  0
VERTEX
  5
1DD
330
1D7
100
AcDbEntity
  8
0
 62
   250
370
    25
100
AcDbVertex
100
AcDb2dVertex
 10
-252.2785000718526
 20
472.4597221768843
 30
0.0
  0
VERTEX
  5
1DE
330
1D7
100
AcDbEntity
  8
0
 62
   250
370
    25
100
AcDbVertex
100
AcDb2dVertex
 10
-253.6032876886007
 20
470.2374888782221
 30
0.0
  0
VERTEX
  5
1DF
330
1D7
100
AcDbEntity
  8
0
 62
   250
370
    25
100
AcDbVertex
100
AcDb2dVertex
 10
-256.1848835847371
 20
465.591356797217
 30
0.0
  0
VERTEX
  5
1E0
330
1D7
100
AcDbEntity
  8
0
 62
   250
370
    25
100
AcDbVertex
100
AcDb2dVertex
 10
-258.6696686712222
 20
460.684953881994
 30
0.0
  0
VERTEX
  5
1E1
330
1D7
100
AcDbEntity
  8
0
 62
   250
370
    25
100
AcDbVertex
100
AcDb2dVertex
 10
-261.0543420928015
 20
455.5246970831877
 30
0.0
  0
VERTEX
  5
1E2
330
1D7
100
AcDbEntity
  8
0
 62
   250
370
    25
100
AcDbVertex
100
AcDb2dVertex
 10
-263.3351465898342
 20
450.1220262640497
 30
0.0
  0
SEQEND
  5
1E3
330
1D7
100
AcDbEntity
  8
0
 62
   250
370
    25
  0
ENDBLK
  5
1D6
330
1D3
100
AcDbEntity
  8
0
100
AcDbBlockEnd
  0
BLOCK
  5
1E6
330
1E4
100
AcDbEntity
  8
0
100
AcDbBlockBegin
  2
block 30
 70
     0
 10
0.0
 20
0.0
 30
0.0
  3
block 30
  1

  0
POLYLINE
  5
1E8
330
1E4
100
AcDbEntity
  8
0
  6
AI-Linetype-5
 62
   250
370
    25
100
AcDb2dPolyline
 66
     1
 10
0.0
 20
0.0
 30
0.0
  0
VERTEX
  5
1E9
330
1E8
100
AcDbEntity
  8
0
  6
AI-Linetype-5
 62
   250
370
    25
100
AcDbVertex
100
AcDb2dVertex
 10
503.8860835581934
 20
148.6621446208661
 30
0.0
  0
VERTEX
  5
1EA
330
1E8
100
AcDbEntity
  8
0
  6
AI-Linetype-5
 62
   250
370
    25
100
AcDbVertex
100
AcDb2dVertex
 10
503.5682826726899
 20
196.9511073490002
 30
0.0
  0
VERTEX
  5
1EB
330
1E8
100
AcDbEntity
  8
0
  6
AI-Linetype-5
 62
   250
370
    25
100
AcDbVertex
100
AcDb2dVertex
 10
502.5187833406832
 20
245.0668792547747
 30
0.0
  0
VERTEX
  5
1EC
330
1E8
100
AcDbEntity
  8
0
  6
AI-Linetype-5
 62
   250
370
    25
100
AcDbVertex
100
AcDb2dVertex
 10
500.4642739292286
 20
292.7391024635406
 30
0.0
  0
VERTEX
  5
1ED
330
1E8
100
AcDbEntity
  8
0
  6
AI-Linetype-5
 62
   250
370
    25
100
AcDbVertex
100
AcDb2dVertex
 10
496.8976811037015
 20
339.7752830254384
 30
0.0
  0
VERTEX
  5
1EE
330
1E8
100
AcDbEntity
  8
0
  6
AI-Linetype-5
 62
   250
370
    25
100
AcDbVertex
100
AcDb2dVertex
 10
494.3143886506549
 20
362.7138417318372
 30
0.0
  0
VERTEX
  5
1EF
330
1E8
100
AcDbEntity
  8
0
  6
AI-Linetype-5
 62
   250
370
    25
100
AcDbVertex
100
AcDb2dVertex
 10
491.0498759615093
 20
384.9214989906348
 30
0.0
  0
VERTEX
  5
1F0
330
1E8
100
AcDbEntity
  8
0
  6
AI-Linetype-5
 62
   250
370
    25
100
AcDbVertex
100
AcDb2dVertex
 10
486.9278869253878
 20
406.4238043783731
 30
0.0
  0
VERTEX
  5
1F1
330
1E8
100
AcDbEntity
  8
0
  6
AI-Linetype-5
 62
   250
370
    25
100
AcDbVertex
100
AcDb2dVertex
 10
481.8087356981675
 20
426.8685371607432
 30
0.0
  0
VERTEX
  5
1F2
330
1E8
100
AcDbEntity
  8
0
  6
AI-Linetype-5
 62
   250
370
    25
100
AcDbVertex
100
AcDb2dVertex
 10
475.6307557080415
 20
445.6931630597389
 30
0.0
  0
VERTEX
  5
1F3
330
1E8
100
AcDbEntity
  8
0
  6
AI-Linetype-5
 62
   250
370
    25
100
AcDbVertex
100
AcDb2dVertex
 10
468.386028556475
 20
462.4220826214424
 30
0.0
  0
VERTEX
  5
1F4
330
1E8
100
AcDbEntity
  8
0
  6
AI-Linetype-5
 62
   250
370
    25
100
AcDbVertex
100
AcDb2dVertex
 10
464.4164269010474
 20
469.818588284814
 30
0.0
  0
VERTEX
  5
1F5
330
1E8
100
AcDbEntity
  8
0
  6
AI-Linetype-5
 62
   250
370
    25
100
AcDbVertex
100
AcDb2dVertex
 10
460.2262129434595
 20
476.5636609350088
 30
0.0
  0
VERTEX
  5
1F6
330
1E8
100
AcDbEntity
  8
0
  6
AI-Linetype-5
 62
   250
370
    25
100
AcDbVertex
100
AcDb2dVertex
 10
451.2059672030043
 20
488.1755566321939
 30
0.0
  0
SEQEND
  5
1F8
330
1E8
100
AcDbEntity
  8
0
  6
AI-Linetype-5
 62
   250
370
    25
  0
ENDBLK
  5
1E7
330
1E4
100
AcDbEntity
  8
0
100
AcDbBlockEnd
  0
BLOCK
  5
1FB
330
1F9
100
AcDbEntity
  8
0
100
AcDbBlockBegin
  2
block 31
 70
     0
 10
0.0
 20
0.0
 30
0.0
  3
block 31
  1

  0
SPLINE
  5
1FD
330
1F9
100
AcDbEntity
  8
0
  6
AI-Linetype-6
 62
   250
370
    25
100
AcDbSpline
210
0.0
220
0.0
230
1.0
 70
     8
 71
     3
 72
     8
 73
     4
 74
     0
 42
0.0000000001
 43
0.0000000001
 12
1.0
 22
0.0
 32
0.0
 13
1.0
 23
0.0
 33
0.0
 40
0.0
 40
0.0
 40
0.0
 40
0.0
 40
1.0
 40
1.0
 40
1.0
 40
1.0
 10
451.2059499401323
 20
488.1755412481204
 30
0.0
 10
449.2439197671667
 20
490.4361658811786
 30
0.0
 10
447.1278111472508
 20
492.5583132115934
 30
0.0
 10
444.872786722713
 20
494.5267773275701
 30
0.0
  0
ENDBLK
  5
1FC
330
1F9
100
AcDbEntity
  8
0
100
AcDbBlockEnd
  0
BLOCK
  5
201
330
1FF
100
AcDbEntity
  8
0
100
AcDbBlockBegin
  2
block 32
 70
     0
 10
0.0
 20
0.0
 30
0.0
  3
block 32
  1

  0
POLYLINE
  5
203
330
1FF
100
AcDbEntity
  8
0
 62
   250
370
    25
100
AcDb2dPolyline
 66
     1
 10
0.0
 20
0.0
 30
0.0
  0
VERTEX
  5
204
330
203
100
AcDbEntity
  8
0
 62
   250
370
    25
100
AcDbVertex
100
AcDb2dVertex
 10
444.8727317782082
 20
494.5268365805385
 30
0.0
  0
VERTEX
  5
205
330
203
100
AcDbEntity
  8
0
 62
   250
370
    25
100
AcDbVertex
100
AcDb2dVertex
 10
433.3711208953144
 20
503.5160096013031
 30
0.0
  0
VERTEX
  5
206
330
203
100
AcDbEntity
  8
0
 62
   250
370
    25
100
AcDbVertex
100
AcDb2dVertex
 10
419.3274749058741
 20
511.6678856025156
 30
0.0
  0
VERTEX
  5
207
330
203
100
AcDbEntity
  8
0
 62
   250
370
    25
100
AcDbVertex
100
AcDb2dVertex
 10
402.7443531873994
 20
518.8924772264351
 30
0.0
  0
VERTEX
  5
208
330
203
100
AcDbEntity
  8
0
 62
   250
370
    25
100
AcDbVertex
100
AcDb2dVertex
 10
384.039542583018
 20
525.0710766752487
 30
0.0
  0
VERTEX
  5
209
330
203
100
AcDbEntity
  8
0
 62
   250
370
    25
100
AcDbVertex
100
AcDb2dVertex
 10
363.7377230603673
 20
530.1919499832794
 30
0.0
  0
VERTEX
  5
20A
330
203
100
AcDbEntity
  8
0
 62
   250
370
    25
100
AcDbVertex
100
AcDb2dVertex
 10
342.3163346502689
 20
534.3331390394039
 30
0.0
  0
VERTEX
  5
20B
330
203
100
AcDbEntity
  8
0
 62
   250
370
    25
100
AcDbVertex
100
AcDb2dVertex
 10
297.3071373717129
 20
540.2208984439544
 30
0.0
  0
VERTEX
  5
20C
330
203
100
AcDbEntity
  8
0
 62
   250
370
    25
100
AcDbVertex
100
AcDb2dVertex
 10
250.4777891641047
 20
543.8171823026867
 30
0.0
  0
VERTEX
  5
20D
330
203
100
AcDbEntity
  8
0
 62
   250
370
    25
100
AcDbVertex
100
AcDb2dVertex
 10
202.9922935011873
 20
545.899486946677
 30
0.0
  0
VERTEX
  5
20E
330
203
100
AcDbEntity
  8
0
 62
   250
370
    25
100
AcDbVertex
100
AcDb2dVertex
 10
107.081773618104
 20
547.3127640337731
 30
0.0
  0
VERTEX
  5
20F
330
203
100
AcDbEntity
  8
0
 62
   250
370
    25
100
AcDbVertex
100
AcDb2dVertex
 10
11.12655745464327
 20
546.0096175663751
 30
0.0
  0
VERTEX
  5
210
330
203
100
AcDbEntity
  8
0
 62
   250
370
    25
100
AcDbVertex
100
AcDb2dVertex
 10
-36.44008311374238
 20
544.0142856013081
 30
0.0
  0
VERTEX
  5
211
330
203
100
AcDbEntity
  8
0
 62
   250
370
    25
100
AcDbVertex
100
AcDb2dVertex
 10
-83.12038626877234
 20
540.5732818081391
 30
0.0
  0
VERTEX
  5
212
330
203
100
AcDbEntity
  8
0
 62
   250
370
    25
100
AcDbVertex
100
AcDb2dVertex
 10
-128.2947023171253
 20
534.9045962671911
 30
0.0
  0
VERTEX
  5
213
330
203
100
AcDbEntity
  8
0
 62
   250
370
    25
100
AcDbVertex
100
AcDb2dVertex
 10
-149.8079287764973
 20
530.9173467625237
 30
0.0
  0
VERTEX
  5
214
330
203
100
AcDbEntity
  8
0
 62
   250
370
    25
100
AcDbVertex
100
AcDb2dVertex
 10
-170.3368183076089
 20
525.9545167939616
 30
0.0
  0
VERTEX
  5
215
330
203
100
AcDbEntity
  8
0
 62
   250
370
    25
100
AcDbVertex
100
AcDb2dVertex
 10
-189.3204774848308
 20
519.9491534585924
 30
0.0
  0
VERTEX
  5
216
330
203
100
AcDbEntity
  8
0
 62
   250
370
    25
100
AcDbVertex
100
AcDb2dVertex
 10
-206.2836610684506
 20
512.8820935021614
 30
0.0
  0
VERTEX
  5
217
330
203
100
AcDbEntity
  8
0
 62
   250
370
    25
100
AcDbVertex
100
AcDb2dVertex
 10
-220.7683919063215
 20
504.8526183080854
 30
0.0
  0
VERTEX
  5
218
330
203
100
AcDbEntity
  8
0
 62
   250
370
    25
100
AcDbVertex
100
AcDb2dVertex
 10
-232.6159004553591
 20
496.0249484097397
 30
0.0
  0
SEQEND
  5
219
330
203
100
AcDbEntity
  8
0
 62
   250
370
    25
  0
ENDBLK
  5
202
330
1FF
100
AcDbEntity
  8
0
100
AcDbBlockEnd
  0
BLOCK
  5
21C
330
21A
100
AcDbEntity
  8
0
100
AcDbBlockBegin
  2
block 33
 70
     0
 10
0.0
 20
0.0
 30
0.0
  3
block 33
  1

  0
POLYLINE
  5
21E
330
21A
100
AcDbEntity
  8
0
 62
   250
370
    25
100
AcDb2dPolyline
 66
     1
 10
0.0
 20
0.0
 30
0.0
  0
VERTEX
  5
21F
330
21E
100
AcDbEntity
  8
0
 62
   250
370
    25
100
AcDbVertex
100
AcDb2dVertex
 10
-263.3351360305546
 20
450.122047335874
 30
0.0
  0
VERTEX
  5
220
330
21E
100
AcDbEntity
  8
0
 62
   250
370
    25
100
AcDbVertex
100
AcDb2dVertex
 10
-268.7675630319127
 20
435.0238214631631
 30
0.0
  0
VERTEX
  5
221
330
21E
100
AcDbEntity
  8
0
 62
   250
370
    25
100
AcDbVertex
100
AcDb2dVertex
 10
-273.4424709717527
 20
418.7318078468796
 30
0.0
  0
VERTEX
  5
222
330
21E
100
AcDbEntity
  8
0
 62
   250
370
    25
100
AcDbVertex
100
AcDb2dVertex
 10
-277.3967382022549
 20
401.5219348914167
 30
0.0
  0
VERTEX
  5
223
330
21E
100
AcDbEntity
  8
0
 62
   250
370
    25
100
AcDbVertex
100
AcDb2dVertex
 10
-280.708719855231
 20
383.543604501268
 30
0.0
  0
VERTEX
  5
224
330
21E
100
AcDbEntity
  8
0
 62
   250
370
    25
100
AcDbVertex
100
AcDb2dVertex
 10
-283.4430495197333
 20
365.0266332504259
 30
0.0
  0
VERTEX
  5
225
330
21E
100
AcDbEntity
  8
0
 62
   250
370
    25
100
AcDbVertex
100
AcDb2dVertex
 10
-285.6798947909681
 20
346.1259307036768
 30
0.0
  0
VERTEX
  5
226
330
21E
100
AcDbEntity
  8
0
 62
   250
370
    25
100
AcDbVertex
100
AcDb2dVertex
 10
-288.9715728276487
 20
307.5668045879675
 30
0.0
  0
VERTEX
  5
227
330
21E
100
AcDbEntity
  8
0
 62
   250
370
    25
100
AcDbVertex
100
AcDb2dVertex
 10
-291.1033374295286
 20
268.2271879756519
 30
0.0
  0
VERTEX
  5
228
330
21E
100
AcDbEntity
  8
0
 62
   250
370
    25
100
AcDbVertex
100
AcDb2dVertex
 10
-292.4055403635911
 20
228.5248057012269
 30
0.0
  0
VERTEX
  5
229
330
21E
100
AcDbEntity
  8
0
 62
   250
370
    25
100
AcDbVertex
100
AcDb2dVertex
 10
-293.3157856497446
 20
148.6621446208661
 30
0.0
  0
SEQEND
  5
22A
330
21E
100
AcDbEntity
  8
0
 62
   250
370
    25
  0
ENDBLK
  5
21D
330
21A
100
AcDbEntity
  8
0
100
AcDbBlockEnd
  0
BLOCK
  5
22D
330
22B
100
AcDbEntity
  8
0
100
AcDbBlockBegin
  2
block 34
 70
     0
 10
0.0
 20
0.0
 30
0.0
  3
block 34
  1

  0
SPLINE
  5
22F
330
22B
100
AcDbEntity
  8
0
 62
   250
370
    25
100
AcDbSpline
210
0.0
220
0.0
230
1.0
 70
     8
 71
     3
 72
    11
 73
     7
 74
     0
 42
0.0000000001
 43
0.0000000001
 12
1.0
 22
0.0
 32
0.0
 13
1.0
 23
0.0
 33
0.0
 40
0.0
 40
0.0
 40
0.0
 40
0.0
 40
1.0
 40
1.0
 40
1.0
 40
2.0
 40
2.0
 40
2.0
 40
2.0
 10
105.8050432340216
 20
174.6558648084079
 30
0.0
 10
120.0467587645388
 20
174.3397052301305
 30
0.0
 10
131.3822191652266
 20
162.6222568905001
 30
0.0
 10
131.2263971554797
 20
148.3779308033324
 30
0.0
 10
131.0705751457199
 20
134.1302886036367
 30
0.0
 10
119.4764226921179
 20
122.6622542574318
 30
0.0
 10
105.2279691032011
 20
122.6622542561484
 30
0.0
  0
ENDBLK
  5
22E
330
22B
100
AcDbEntity
  8
0
100
AcDbBlockEnd
  0
BLOCK
  5
232
330
230
100
AcDbEntity
  8
0
100
AcDbBlockBegin
  2
block 35
 70
     0
 10
0.0
 20
0.0
 30
0.0
  3
block 35
  1

  0
SPLINE
  5
234
330
230
100
AcDbEntity
  8
0
 62
   250
370
    25
100
AcDbSpline
210
0.0
220
0.0
230
1.0
 70
     8
 71
     3
 72
    11
 73
     7
 74
     0
 42
0.0000000001
 43
0.0000000001
 12
1.0
 22
0.0
 32
0.0
 13
1.0
 23
0.0
 33
0.0
 40
0.0
 40
0.0
 40
0.0
 40
0.0
 40
1.0
 40
1.0
 40
1.0
 40
2.0
 40
2.0
 40
2.0
 40
2.0
 10
104.6508596899194
 20
122.6686748143893
 30
0.0
 10
90.40917943720504
 20
122.9848696704757
 30
0.0
 10
79.0736837587278
 20
134.7022827322895
 30
0.0
 10
79.22950576847472
 20
148.9466440972532
 30
0.0
 10
79.38532777822164
 20
163.1942510191528
 30
0.0
 10
90.9794802318233
 20
174.6622853653783
 30
0.0
 10
105.2279690985295
 20
174.6622853666553
 30
0.0
  0
ENDBLK
  5
233
330
230
100
AcDbEntity
  8
0
100
AcDbBlockEnd
  0
BLOCK
  5
237
330
235
100
AcDbEntity
  8
0
100
AcDbBlockBegin
  2
block 36
 70
     0
 10
0.0
 20
0.0
 30
0.0
  3
block 36
  1

  0
SPLINE
  5
239
330
235
100
AcDbEntity
  8
0
 62
   250
370
    25
100
AcDbSpline
210
0.0
220
0.0
230
1.0
 70
     8
 71
     3
 72
     8
 73
     4
 74
     0
 42
0.0000000001
 43
0.0000000001
 12
1.0
 22
0.0
 32
0.0
 13
1.0
 23
0.0
 33
0.0
 40
0.0
 40
0.0
 40
0.0
 40
0.0
 40
1.0
 40
1.0
 40
1.0
 40
1.0
 10
105.2279691032011
 20
122.6622542561484
 30
0.0
 10
105.0355640209863
 20
122.6622542561227
 30
0.0
 10
104.8432294943573
 20
122.6644062014748
 30
0.0
 10
104.6508596899194
 20
122.6686748143893
 30
0.0
  0
ENDBLK
  5
238
330
235
100
AcDbEntity
  8
0
100
AcDbBlockEnd
  0
BLOCK
  5
23C
330
23A
100
AcDbEntity
  8
0
100
AcDbBlockBegin
  2
block 37
 70
     0
 10
0.0
 20
0.0
 30
0.0
  3
block 37
  1

  0
SPLINE
  5
23E
330
23A
100
AcDbEntity
  8
0
 62
   250
370
    25
100
AcDbSpline
210
0.0
220
0.0
230
1.0
 70
     8
 71
     3
 72
     8
 73
     4
 74
     0
 42
0.0000000001
 43
0.0000000001
 12
1.0
 22
0.0
 32
0.0
 13
1.0
 23
0.0
 33
0.0
 40
0.0
 40
0.0
 40
0.0
 40
0.0
 40
1.0
 40
1.0
 40
1.0
 40
1.0
 10
105.2279690985295
 20
174.6622853666553
 30
0.0
 10
105.4203389029611
 20
174.6622853666809
 30
0.0
 10
105.6127087073926
 20
174.6601686991185
 30
0.0
 10
105.8050432340216
 20
174.6558648084079
 30
0.0
  0
ENDBLK
  5
23D
330
23A
100
AcDbEntity
  8
0
100
AcDbBlockEnd
  0
BLOCK
  5
241
330
23F
100
AcDbEntity
  8
0
100
AcDbBlockBegin
  2
block 38
 70
     0
 10
0.0
 20
0.0
 30
0.0
  3
block 38
  1

  0
SPLINE
  5
243
330
23F
100
AcDbEntity
  8
0
 62
   250
370
    25
100
AcDbSpline
210
0.0
220
0.0
230
1.0
 70
     8
 71
     3
 72
    53
 73
    49
 74
     0
 42
0.0000000001
 43
0.0000000001
 12
1.0
 22
0.0
 32
0.0
 13
1.0
 23
0.0
 33
0.0
 40
0.0
 40
0.0
 40
0.0
 40
0.0
 40
1.0
 40
1.0
 40
1.0
 40
2.0
 40
2.0
 40
2.0
 40
3.0
 40
3.0
 40
3.0
 40
4.0
 40
4.0
 40
4.0
 40
5.0
 40
5.0
 40
5.0
 40
6.0
 40
6.0
 40
6.0
 40
7.0
 40
7.0
 40
7.0
 40
8.0
 40
8.0
 40
8.0
 40
9.0
 40
9.0
 40
9.0
 40
10.0
 40
10.0
 40
10.0
 40
11.0
 40
11.0
 40
11.0
 40
12.0
 40
12.0
 40
12.0
 40
13.0
 40
13.0
 40
13.0
 40
14.0
 40
14.0
 40
14.0
 40
15.0
 40
15.0
 40
15.0
 40
16.0
 40
16.0
 40
16.0
 40
16.0
 10
105.2279691049979
 20
102.6542423726125
 30
0.0
 10
102.1695961313777
 20
102.6539954277893
 30
0.0
 10
99.11122315771908
 20
102.965921671911
 30
0.0
 10
96.11571521089671
 20
103.5827538796936
 30
0.0
 10
93.12183004255542
 20
104.1992333095407
 30
0.0
 10
90.19073934545783
 20
105.1203364806797
 30
0.0
 10
87.38202731174067
 20
106.3263431069036
 30
0.0
 10
84.53556803968227
 20
107.5485422400682
 30
0.0
 10
81.81483882130959
 20
109.0633353871422
 30
0.0
 10
79.27561384716152
 20
110.8377730896472
 30
0.0
 10
76.91775200606668
 20
112.4854929602265
 30
0.0
 10
74.71641773184774
 20
114.3571562598657
 30
0.0
 10
72.70971104079439
 20
116.4181907515413
 30
0.0
 10
70.70557962860816
 20
118.4766499643756
 30
0.0
 10
68.89558191046739
 20
120.7240570357184
 30
0.0
 10
67.31062123295737
 20
123.1202305595588
 30
0.0
 10
65.46375822123099
 20
125.9123973081558
 30
0.0
 10
63.92243617341892
 20
128.9065646986341
 30
0.0
 10
62.72161538219284
 20
132.0315068672798
 30
0.0
 10
61.6885052182465
 20
134.7200627383299
 30
0.0
 10
60.90745488422439
 20
137.5054208729991
 30
0.0
 10
60.39091744101131
 20
140.338933194937
 30
0.0
 10
59.87459166454934
 20
143.171175516317
 30
0.0
 10
59.62253183435559
 20
146.0515367471889
 30
0.0
 10
59.63911239673934
 20
148.9303810329876
 30
0.0
 10
59.65572823692564
 20
151.8092605965761
 30
0.0
 10
59.94101974747272
 20
154.686658492894
 30
0.0
 10
60.49011859297045
 20
157.5127624784278
 30
0.0
 10
61.05597439008924
 20
160.4249442785201
 30
0.0
 10
61.90193586245573
 20
163.2826924442681
 30
0.0
 10
63.01346855941245
 20
166.0332313975592
 30
0.0
 10
64.14211098593228
 20
168.8262095356468
 30
0.0
 10
65.54457964056643
 20
171.5086976265392
 30
0.0
 10
67.19508645678965
 20
174.0287667591797
 30
0.0
 10
68.84753355160102
 20
176.5517992264126
 30
0.0
 10
70.74865380825479
 20
178.9120952352286
 30
0.0
 10
72.86295776713095
 20
181.0629469878781
 30
0.0
 10
74.97436894700688
 20
183.21094123933
 30
0.0
 10
77.29836410664161
 20
185.150126234888
 30
0.0
 10
79.790669615994
 20
186.8414141800864
 30
0.0
 10
82.27239178748283
 20
188.5255054555483
 30
0.0
 10
84.92097791919598
 20
189.9638516260027
 30
0.0
 10
87.68538104487696
 20
191.1270662900079
 30
0.0
 10
90.45211250488428
 20
192.2913040099981
 30
0.0
 10
93.33487262561056
 20
193.1799868900241
 30
0.0
 10
96.27711110510377
 20
193.774664644424
 30
0.0
 10
99.22104291865749
 20
194.3697304545364
 30
0.0
 10
102.2244883687939
 20
194.6704736388766
 30
0.0
 10
105.2279690967328
 20
194.6702619723822
 30
0.0
  0
ENDBLK
  5
242
330
23F
100
AcDbEntity
  8
0
100
AcDbBlockEnd
  0
BLOCK
  5
246
330
244
100
AcDbEntity
  8
0
100
AcDbBlockBegin
  2
block 39
 70
     0
 10
0.0
 20
0.0
 30
0.0
  3
block 39
  1

  0
SPLINE
  5
248
330
244
100
AcDbEntity
  8
0
 62
   250
370
    25
100
AcDbSpline
210
0.0
220
0.0
230
1.0
 70
     8
 71
     3
 72
    29
 73
    25
 74
     0
 42
0.0000000001
 43
0.0000000001
 12
1.0
 22
0.0
 32
0.0
 13
1.0
 23
0.0
 33
0.0
 40
0.0
 40
0.0
 40
0.0
 40
0.0
 40
1.0
 40
1.0
 40
1.0
 40
2.0
 40
2.0
 40
2.0
 40
3.0
 40
3.0
 40
3.0
 40
4.0
 40
4.0
 40
4.0
 40
5.0
 40
5.0
 40
5.0
 40
6.0
 40
6.0
 40
6.0
 40
7.0
 40
7.0
 40
7.0
 40
8.0
 40
8.0
 40
8.0
 40
8.0
 10
105.2279691049979
 20
102.6542423726125
 30
0.0
 10
111.2485830667262
 20
102.6493034821427
 30
0.0
 10
117.2679270278068
 20
103.8728078944379
 30
0.0
 10
122.8142663422084
 20
106.2140186176593
 30
0.0
 10
128.3456831502401
 20
108.5489146159449
 30
0.0
 10
133.40667059046
 20
111.9954844225642
 30
0.0
 10
137.6133004432839
 20
116.2793373647034
 30
0.0
 10
141.8063130680727
 20
120.5493614120564
 30
0.0
 10
145.1504714411483
 20
125.6512005370105
 30
0.0
 10
147.4052162930721
 20
131.1950704063236
 30
0.0
 10
149.6540344758109
 20
136.7243705471907
 30
0.0
 10
150.8191541398438
 20
142.6933378202891
 30
0.0
 10
150.8191541393048
 20
148.6623050932849
 30
0.0
 10
150.8191541387658
 20
154.6333184782701
 30
0.0
 10
149.6531878066247
 20
160.6043318631397
 30
0.0
 10
147.4028879556143
 20
166.1352195042744
 30
0.0
 10
145.1480019915178
 20
171.6772902057487
 30
0.0
 10
141.8043727844023
 20
176.7774007182562
 30
0.0
 10
137.6123479370581
 20
181.0461194865107
 30
0.0
 10
133.4045186384984
 20
185.3309602061009
 30
0.0
 10
128.341873141392
 20
188.7780591787188
 30
0.0
 10
122.8087277210997
 20
191.1128493426406
 30
0.0
 10
117.2639053513862
 20
193.4525078419726
 30
0.0
 10
111.2465369464782
 20
194.6751655861404
 30
0.0
 10
105.2279690967328
 20
194.6702619723822
 30
0.0
  0
ENDBLK
  5
247
330
244
100
AcDbEntity
  8
0
100
AcDbBlockEnd
  0
BLOCK
  5
24B
330
249
100
AcDbEntity
  8
0
100
AcDbBlockBegin
  2
block 40
 70
     0
 10
0.0
 20
0.0
 30
0.0
  3
block 40
  1

  0
INSERT
  5
24E
330
249
100
AcDbEntity
  8
0
100
AcDbBlockReference
  2
block 41
 10
0.0
 20
0.0
 30
0.0
  0
ENDBLK
  5
24C
330
249
100
AcDbEntity
  8
0
100
AcDbBlockEnd
  0
BLOCK
  5
24F
330
24D
100
AcDbEntity
  8
0
100
AcDbBlockBegin
  2
block 41
 70
     0
 10
0.0
 20
0.0
 30
0.0
  3
block 41
  1

  0
INSERT
  5
252
330
24D
100
AcDbEntity
  8
0
100
AcDbBlockReference
  2
block 42
 10
0.0
 20
0.0
 30
0.0
  0
ENDBLK
  5
250
330
24D
100
AcDbEntity
  8
0
100
AcDbBlockEnd
  0
BLOCK
  5
253
330
251
100
AcDbEntity
  8
0
100
AcDbBlockBegin
  2
block 42
 70
     0
 10
0.0
 20
0.0
 30
0.0
  3
block 42
  1

  0
POLYLINE
  5
255
330
251
100
AcDbEntity
  8
0
 62
     4
370
    25
100
AcDb2dPolyline
 66
     1
 10
0.0
 20
0.0
 30
0.0
  0
VERTEX
  5
256
330
255
100
AcDbEntity
  8
0
 62
     4
370
    25
100
AcDbVertex
100
AcDb2dVertex
 10
171.5049276982805
 20
147.8638642683183
 30
0.0
  0
VERTEX
  5
257
330
255
100
AcDbEntity
  8
0
 62
     4
370
    25
100
AcDbVertex
100
AcDb2dVertex
 10
160.2548392001164
 20
147.8638642683183
 30
0.0
  0
SEQEND
  5
258
330
255
100
AcDbEntity
  8
0
 62
     4
370
    25
  0
POLYLINE
  5
259
330
251
100
AcDbEntity
  8
0
  6
AI-Linetype-7
 62
     4
370
    25
100
AcDb2dPolyline
 66
     1
 10
0.0
 20
0.0
 30
0.0
  0
VERTEX
  5
25A
330
259
100
AcDbEntity
  8
0
  6
AI-Linetype-7
 62
     4
370
    25
100
AcDbVertex
100
AcDb2dVertex
 10
156.6807464207908
 20
147.8638642683183
 30
0.0
  0
VERTEX
  5
25B
330
259
100
AcDbEntity
  8
0
  6
AI-Linetype-7
 62
     4
370
    25
100
AcDbVertex
100
AcDb2dVertex
 10
151.3195964858789
 20
147.8638642683183
 30
0.0
  0
SEQEND
  5
25D
330
259
100
AcDbEntity
  8
0
  6
AI-Linetype-7
 62
     4
370
    25
  0
POLYLINE
  5
25E
330
251
100
AcDbEntity
  8
0
  6
AI-Linetype-8
 62
     4
370
    25
100
AcDb2dPolyline
 66
     1
 10
0.0
 20
0.0
 30
0.0
  0
VERTEX
  5
25F
330
25E
100
AcDbEntity
  8
0
  6
AI-Linetype-8
 62
     4
370
    25
100
AcDbVertex
100
AcDb2dVertex
 10
149.5325500962161
 20
147.8638642683183
 30
0.0
  0
VERTEX
  5
260
330
25E
100
AcDbEntity
  8
0
  6
AI-Linetype-8
 62
     4
370
    25
100
AcDbVertex
100
AcDb2dVertex
 10
54.81849393533781
 20
147.8638642683183
 30
0.0
  0
SEQEND
  5
262
330
25E
100
AcDbEntity
  8
0
  6
AI-Linetype-8
 62
     4
370
    25
  0
POLYLINE
  5
263
330
251
100
AcDbEntity
  8
0
 62
     4
370
    25
100
AcDb2dPolyline
 66
     1
 10
0.0
 20
0.0
 30
0.0
  0
VERTEX
  5
264
330
263
100
AcDbEntity
  8
0
 62
     4
370
    25
100
AcDbVertex
100
AcDb2dVertex
 10
53.03144754567497
 20
147.8638642683183
 30
0.0
  0
VERTEX
  5
265
330
263
100
AcDbEntity
  8
0
 62
     4
370
    25
100
AcDbVertex
100
AcDb2dVertex
 10
41.78136173899178
 20
147.8638642683183
 30
0.0
  0
SEQEND
  5
266
330
263
100
AcDbEntity
  8
0
 62
     4
370
    25
  0
ENDBLK
  5
254
330
251
100
AcDbEntity
  8
0
100
AcDbBlockEnd
  0
BLOCK
  5
269
330
267
100
AcDbEntity
  8
0
100
AcDbBlockBegin
  2
block 43
 70
     0
 10
0.0
 20
0.0
 30
0.0
  3
block 43
  1

  0
INSERT
  5
26C
330
267
100
AcDbEntity
  8
0
100
AcDbBlockReference
  2
block 44
 10
0.0
 20
0.0
 30
0.0
  0
ENDBLK
  5
26A
330
267
100
AcDbEntity
  8
0
100
AcDbBlockEnd
  0
BLOCK
  5
26D
330
26B
100
AcDbEntity
  8
0
100
AcDbBlockBegin
  2
block 44
 70
     0
 10
0.0
 20
0.0
 30
0.0
  3
block 44
  1

  0
INSERT
  5
270
330
26B
100
AcDbEntity
  8
0
100
AcDbBlockReference
  2
block 45
 10
0.0
 20
0.0
 30
0.0
  0
ENDBLK
  5
26E
330
26B
100
AcDbEntity
  8
0
100
AcDbBlockEnd
  0
BLOCK
  5
271
330
26F
100
AcDbEntity
  8
0
100
AcDbBlockBegin
  2
block 45
 70
     0
 10
0.0
 20
0.0
 30
0.0
  3
block 45
  1

  0
POLYLINE
  5
273
330
26F
100
AcDbEntity
  8
0
 62
     4
370
    25
100
AcDb2dPolyline
 66
     1
 10
0.0
 20
0.0
 30
0.0
  0
VERTEX
  5
274
330
273
100
AcDbEntity
  8
0
 62
     4
370
    25
100
AcDbVertex
100
AcDb2dVertex
 10
105.4137852723119
 20
212.6669716197391
 30
0.0
  0
VERTEX
  5
275
330
273
100
AcDbEntity
  8
0
 62
     4
370
    25
100
AcDbVertex
100
AcDb2dVertex
 10
105.4137852723119
 20
201.416883121575
 30
0.0
  0
SEQEND
  5
276
330
273
100
AcDbEntity
  8
0
 62
     4
370
    25
  0
POLYLINE
  5
277
330
26F
100
AcDbEntity
  8
0
  6
AI-Linetype-9
 62
     4
370
    25
100
AcDb2dPolyline
 66
     1
 10
0.0
 20
0.0
 30
0.0
  0
VERTEX
  5
278
330
277
100
AcDbEntity
  8
0
  6
AI-Linetype-9
 62
     4
370
    25
100
AcDbVertex
100
AcDb2dVertex
 10
105.4137852723119
 20
197.8427903422494
 30
0.0
  0
VERTEX
  5
279
330
277
100
AcDbEntity
  8
0
  6
AI-Linetype-9
 62
     4
370
    25
100
AcDbVertex
100
AcDb2dVertex
 10
105.4137852723119
 20
192.4816619391843
 30
0.0
  0
SEQEND
  5
27B
330
277
100
AcDbEntity
  8
0
  6
AI-Linetype-9
 62
     4
370
    25
  0
POLYLINE
  5
27C
330
26F
100
AcDbEntity
  8
0
  6
AI-Linetype-10
 62
     4
370
    25
100
AcDb2dPolyline
 66
     1
 10
0.0
 20
0.0
 30
0.0
  0
VERTEX
  5
27D
330
27C
100
AcDbEntity
  8
0
  6
AI-Linetype-10
 62
     4
370
    25
100
AcDbVertex
100
AcDb2dVertex
 10
105.4137852723119
 20
190.6946047835981
 30
0.0
  0
VERTEX
  5
27E
330
27C
100
AcDbEntity
  8
0
  6
AI-Linetype-10
 62
     4
370
    25
100
AcDbVertex
100
AcDb2dVertex
 10
105.4137852723119
 20
95.98074779230257
 30
0.0
  0
SEQEND
  5
280
330
27C
100
AcDbEntity
  8
0
  6
AI-Linetype-10
 62
     4
370
    25
  0
POLYLINE
  5
281
330
26F
100
AcDbEntity
  8
0
 62
     4
370
    25
100
AcDb2dPolyline
 66
     1
 10
0.0
 20
0.0
 30
0.0
  0
VERTEX
  5
282
330
281
100
AcDbEntity
  8
0
 62
     4
370
    25
100
AcDbVertex
100
AcDb2dVertex
 10
105.4137852723119
 20
94.19370140263973
 30
0.0
  0
VERTEX
  5
283
330
281
100
AcDbEntity
  8
0
 62
     4
370
    25
100
AcDbVertex
100
AcDb2dVertex
 10
105.4137852723119
 20
82.94361828743739
 30
0.0
  0
SEQEND
  5
284
330
281
100
AcDbEntity
  8
0
 62
     4
370
    25
  0
ENDBLK
  5
272
330
26F
100
AcDbEntity
  8
0
100
AcDbBlockEnd
  0
BLOCK
  5
287
330
285
100
AcDbEntity
  8
0
100
AcDbBlockBegin
  2
block 46
 70
     0
 10
0.0
 20
0.0
 30
0.0
  3
block 46
  1

  0
SPLINE
  5
289
330
285
100
AcDbEntity
  8
0
 62
   250
370
    25
100
AcDbSpline
210
0.0
220
0.0
230
1.0
 70
     8
 71
     3
 72
     8
 73
     4
 74
     0
 42
0.0000000001
 43
0.0000000001
 12
1.0
 22
0.0
 32
0.0
 13
1.0
 23
0.0
 33
0.0
 40
0.0
 40
0.0
 40
0.0
 40
0.0
 40
1.0
 40
1.0
 40
1.0
 40
1.0
 10
430.3777938468036
 20
454.407427604012
 30
0.0
 10
430.0965771618967
 20
455.5656256424595
 30
0.0
 10
429.741430881061
 20
456.6884683884895
 30
0.0
 10
429.3183731554723
 20
457.7717356001328
 30
0.0
  0
ENDBLK
  5
288
330
285
100
AcDbEntity
  8
0
100
AcDbBlockEnd
  0
BLOCK
  5
28C
330
28A
100
AcDbEntity
  8
0
100
AcDbBlockBegin
  2
block 47
 70
     0
 10
0.0
 20
0.0
 30
0.0
  3
block 47
  1

  0
SPLINE
  5
28E
330
28A
100
AcDbEntity
  8
0
  6
AI-Linetype-11
 62
   250
370
    25
100
AcDbSpline
210
0.0
220
0.0
230
1.0
 70
     8
 71
     3
 72
    11
 73
     7
 74
     0
 42
0.0000000001
 43
0.0000000001
 12
1.0
 22
0.0
 32
0.0
 13
1.0
 23
0.0
 33
0.0
 40
0.0
 40
0.0
 40
0.0
 40
0.0
 40
1.0
 40
1.0
 40
1.0
 40
2.0
 40
2.0
 40
2.0
 40
2.0
 10
425.5339895945424
 20
464.3923047852181
 30
0.0
 10
420.0473197588101
 20
471.3707332638337
 30
0.0
 10
411.177555390639
 20
475.3195447727206
 30
0.0
 10
401.8560313451179
 20
474.2040659182903
 30
0.0
 10
391.2036669136447
 20
472.9293375250543
 30
0.0
 10
382.6850869665013
 20
465.3669653616888
 30
0.0
 10
379.8350240670945
 20
455.4998673823848
 30
0.0
  0
ENDBLK
  5
28D
330
28A
100
AcDbEntity
  8
0
100
AcDbBlockEnd
  0
BLOCK
  5
292
330
290
100
AcDbEntity
  8
0
100
AcDbBlockBegin
  2
block 48
 70
     0
 10
0.0
 20
0.0
 30
0.0
  3
block 48
  1

  0
SPLINE
  5
294
330
290
100
AcDbEntity
  8
0
 62
   250
370
    25
100
AcDbSpline
210
0.0
220
0.0
230
1.0
 70
     8
 71
     3
 72
     8
 73
     4
 74
     0
 42
0.0000000001
 43
0.0000000001
 12
1.0
 22
0.0
 32
0.0
 13
1.0
 23
0.0
 33
0.0
 40
0.0
 40
0.0
 40
0.0
 40
0.0
 40
1.0
 40
1.0
 40
1.0
 40
1.0
 10
379.046420178674
 20
451.7558668000959
 30
0.0
 10
378.8909171812086
 20
450.6033531691992
 30
0.0
 10
378.8107325837894
 20
449.4284033539547
 30
0.0
 10
378.8107325837894
 20
448.2365725708325
 30
0.0
  0
ENDBLK
  5
293
330
290
100
AcDbEntity
  8
0
100
AcDbBlockEnd
  0
BLOCK
  5
297
330
295
100
AcDbEntity
  8
0
100
AcDbBlockBegin
  2
block 49
 70
     0
 10
0.0
 20
0.0
 30
0.0
  3
block 49
  1

  0
SPLINE
  5
299
330
295
100
AcDbEntity
  8
0
 62
   250
370
    25
100
AcDbSpline
210
0.0
220
0.0
230
1.0
 70
     8
 71
     3
 72
     8
 73
     4
 74
     0
 42
0.0000000001
 43
0.0000000001
 12
1.0
 22
0.0
 32
0.0
 13
1.0
 23
0.0
 33
0.0
 40
0.0
 40
0.0
 40
0.0
 40
0.0
 40
1.0
 40
1.0
 40
1.0
 40
1.0
 10
379.3588472754926
 20
442.910282695862
 30
0.0
 10
379.6016188479688
 20
441.7431704728465
 30
0.0
 10
379.9193858427896
 20
440.6092172938765
 30
0.0
 10
380.3062485339363
 20
439.5126434009215
 30
0.0
  0
ENDBLK
  5
298
330
295
100
AcDbEntity
  8
0
100
AcDbBlockEnd
  0
BLOCK
  5
29C
330
29A
100
AcDbEntity
  8
0
100
AcDbBlockBegin
  2
block 50
 70
     0
 10
0.0
 20
0.0
 30
0.0
  3
block 50
  1

  0
SPLINE
  5
29E
330
29A
100
AcDbEntity
  8
0
  6
AI-Linetype-12
 62
   250
370
    25
100
AcDbSpline
210
0.0
220
0.0
230
1.0
 70
     8
 71
     3
 72
    11
 73
     7
 74
     0
 42
0.0000000001
 43
0.0000000001
 12
1.0
 22
0.0
 32
0.0
 13
1.0
 23
0.0
 33
0.0
 40
0.0
 40
0.0
 40
0.0
 40
0.0
 40
1.0
 40
1.0
 40
1.0
 40
2.0
 40
2.0
 40
2.0
 40
2.0
 10
383.9265271246111
 20
432.6926462509338
 30
0.0
 10
389.2718080884441
 20
425.4667737890901
 30
0.0
 10
398.1735257172408
 20
421.2469624565947
 30
0.0
 10
407.6406911744009
 20
422.2212354598233
 30
0.0
 10
418.4599489502876
 20
423.3346041932689
 30
0.0
 10
427.1745978942353
 20
430.939049585248
 30
0.0
 10
430.0791148341559
 20
440.9280178173428
 30
0.0
  0
ENDBLK
  5
29D
330
29A
100
AcDbEntity
  8
0
100
AcDbBlockEnd
  0
BLOCK
  5
2A2
330
2A0
100
AcDbEntity
  8
0
100
AcDbBlockBegin
  2
block 51
 70
     0
 10
0.0
 20
0.0
 30
0.0
  3
block 51
  1

  0
SPLINE
  5
2A4
330
2A0
100
AcDbEntity
  8
0
 62
   250
370
    25
100
AcDbSpline
210
0.0
220
0.0
230
1.0
 70
     8
 71
     3
 72
     8
 73
     4
 74
     0
 42
0.0000000001
 43
0.0000000001
 12
1.0
 22
0.0
 32
0.0
 13
1.0
 23
0.0
 33
0.0
 40
0.0
 40
0.0
 40
0.0
 40
0.0
 40
1.0
 40
1.0
 40
1.0
 40
1.0
 10
430.8806485965694
 20
444.7172352778755
 30
0.0
 10
431.0360762325711
 20
445.8695766539981
 30
0.0
 10
431.1162285322201
 20
447.0444834055489
 30
0.0
 10
431.1162285322201
 20
448.2365725708325
 30
0.0
  0
ENDBLK
  5
2A3
330
2A0
100
AcDbEntity
  8
0
100
AcDbBlockEnd
  0
BLOCK
  5
2A7
330
2A5
100
AcDbEntity
  8
0
100
AcDbBlockBegin
  2
block 52
 70
     0
 10
0.0
 20
0.0
 30
0.0
  3
block 52
  1

  0
SPLINE
  5
2A9
330
2A5
100
AcDbEntity
  8
0
 62
   250
370
    25
100
AcDbSpline
210
0.0
220
0.0
230
1.0
 70
     8
 71
     3
 72
     8
 73
     4
 74
     0
 42
0.0000000001
 43
0.0000000001
 12
1.0
 22
0.0
 32
0.0
 13
1.0
 23
0.0
 33
0.0
 40
0.0
 40
0.0
 40
0.0
 40
0.0
 40
1.0
 40
1.0
 40
1.0
 40
1.0
 10
440.0229953790874
 20
456.7494035148849
 30
0.0
 10
439.7427476272857
 20
457.9035966298307
 30
0.0
 10
439.4092839161603
 20
459.0322960381857
 30
0.0
 10
439.0257371294181
 20
460.1333916189651
 30
0.0
  0
ENDBLK
  5
2A8
330
2A5
100
AcDbEntity
  8
0
100
AcDbBlockEnd
  0
BLOCK
  5
2AC
330
2AA
100
AcDbEntity
  8
0
100
AcDbBlockBegin
  2
block 53
 70
     0
 10
0.0
 20
0.0
 30
0.0
  3
block 53
  1

  0
SPLINE
  5
2AE
330
2AA
100
AcDbEntity
  8
0
  6
AI-Linetype-13
 62
   250
370
    25
100
AcDbSpline
210
0.0
220
0.0
230
1.0
 70
     8
 71
     3
 72
    11
 73
     7
 74
     0
 42
0.0000000001
 43
0.0000000001
 12
1.0
 22
0.0
 32
0.0
 13
1.0
 23
0.0
 33
0.0
 40
0.0
 40
0.0
 40
0.0
 40
0.0
 40
1.0
 40
1.0
 40
1.0
 40
2.0
 40
2.0
 40
2.0
 40
2.0
 10
435.8323166352892
 20
466.923330310844
 30
0.0
 10
428.6681975100186
 20
478.7588697230327
 30
0.0
 10
415.0624173145811
 20
485.7807064047624
 30
0.0
 10
400.6767105649765
 20
484.0592352544767
 30
0.0
 10
384.9928703046831
 20
482.1823902978061
 30
0.0
 10
372.6620768846429
 20
470.4252698716004
 30
0.0
 10
369.6123922337126
 20
455.4675696122105
 30
0.0
  0
ENDBLK
  5
2AD
330
2AA
100
AcDbEntity
  8
0
100
AcDbBlockEnd
  0
BLOCK
  5
2B2
330
2B0
100
AcDbEntity
  8
0
100
AcDbBlockBegin
  2
block 54
 70
     0
 10
0.0
 20
0.0
 30
0.0
  3
block 54
  1

  0
SPLINE
  5
2B4
330
2B0
100
AcDbEntity
  8
0
 62
   250
370
    25
100
AcDbSpline
210
0.0
220
0.0
230
1.0
 70
     8
 71
     3
 72
     8
 73
     4
 74
     0
 42
0.0000000001
 43
0.0000000001
 12
1.0
 22
0.0
 32
0.0
 13
1.0
 23
0.0
 33
0.0
 40
0.0
 40
0.0
 40
0.0
 40
0.0
 40
1.0
 40
1.0
 40
1.0
 40
1.0
 10
369.0559016536109
 20
451.7603454242267
 30
0.0
 10
368.942967117235
 20
450.5998219463268
 30
0.0
 10
368.8852617678571
 20
449.424312303066
 30
0.0
 10
368.8852617678571
 20
448.2365725708325
 30
0.0
  0
ENDBLK
  5
2B3
330
2B0
100
AcDbEntity
  8
0
100
AcDbBlockEnd
  0
BLOCK
  5
2B7
330
2B5
100
AcDbEntity
  8
0
100
AcDbBlockBegin
  2
block 55
 70
     0
 10
0.0
 20
0.0
 30
0.0
  3
block 55
  1

  0
SPLINE
  5
2B9
330
2B5
100
AcDbEntity
  8
0
 62
   250
370
    25
100
AcDbSpline
210
0.0
220
0.0
230
1.0
 70
     8
 71
     3
 72
     8
 73
     4
 74
     0
 42
0.0000000001
 43
0.0000000001
 12
1.0
 22
0.0
 32
0.0
 13
1.0
 23
0.0
 33
0.0
 40
0.0
 40
0.0
 40
0.0
 40
0.0
 40
1.0
 40
1.0
 40
1.0
 40
1.0
 10
369.6413956313291
 20
440.8888298561981
 30
0.0
 10
369.8833274617808
 20
439.7258086840713
 30
0.0
 10
370.1792396321169
 20
438.5866447981799
 30
0.0
 10
370.5260530882477
 20
437.4735775105892
 30
0.0
  0
ENDBLK
  5
2B8
330
2B5
100
AcDbEntity
  8
0
100
AcDbBlockEnd
  0
BLOCK
  5
2BC
330
2BA
100
AcDbEntity
  8
0
100
AcDbBlockBegin
  2
block 56
 70
     0
 10
0.0
 20
0.0
 30
0.0
  3
block 56
  1

  0
SPLINE
  5
2BE
330
2BA
100
AcDbEntity
  8
0
  6
AI-Linetype-14
 62
   250
370
    25
100
AcDbSpline
210
0.0
220
0.0
230
1.0
 70
     8
 71
     3
 72
    11
 73
     7
 74
     0
 42
0.0000000001
 43
0.0000000001
 12
1.0
 22
0.0
 32
0.0
 13
1.0
 23
0.0
 33
0.0
 40
0.0
 40
0.0
 40
0.0
 40
0.0
 40
1.0
 40
1.0
 40
1.0
 40
2.0
 40
2.0
 40
2.0
 40
2.0
 10
373.0516956521779
 20
431.3920365778648
 30
0.0
 10
379.7643565459533
 20
418.6681362311109
 30
0.0
 10
393.6989495736112
 20
410.808581518449
 30
0.0
 10
408.656757492235
 20
412.3479363086458
 30
0.0
 10
424.754192231456
 20
414.0045104727282
 30
0.0
 10
437.4743675687166
 20
426.0770724543021
 30
0.0
 10
440.4041844286069
 20
441.4587347768456
 30
0.0
  0
ENDBLK
  5
2BD
330
2BA
100
AcDbEntity
  8
0
100
AcDbBlockEnd
  0
BLOCK
  5
2C2
330
2C0
100
AcDbEntity
  8
0
100
AcDbBlockBegin
  2
block 57
 70
     0
 10
0.0
 20
0.0
 30
0.0
  3
block 57
  1

  0
SPLINE
  5
2C4
330
2C0
100
AcDbEntity
  8
0
 62
   250
370
    25
100
AcDbSpline
210
0.0
220
0.0
230
1.0
 70
     8
 71
     3
 72
     8
 73
     4
 74
     0
 42
0.0000000001
 43
0.0000000001
 12
1.0
 22
0.0
 32
0.0
 13
1.0
 23
0.0
 33
0.0
 40
0.0
 40
0.0
 40
0.0
 40
0.0
 40
1.0
 40
1.0
 40
1.0
 40
1.0
 10
440.8711671216325
 20
444.7127566537447
 30
0.0
 10
440.9840155306213
 20
445.873150940564
 30
0.0
 10
441.0417101140758
 20
447.0486605838248
 30
0.0
 10
441.0417101140758
 20
448.2365725708325
 30
0.0
  0
ENDBLK
  5
2C3
330
2C0
100
AcDbEntity
  8
0
100
AcDbBlockEnd
  0
BLOCK
  5
2C7
330
2C5
100
AcDbEntity
  8
0
100
AcDbBlockBegin
  2
block 58
 70
     0
 10
0.0
 20
0.0
 30
0.0
  3
block 58
  1

  0
SPLINE
  5
2C9
330
2C5
100
AcDbEntity
  8
0
 62
   250
370
    25
100
AcDbSpline
210
0.0
220
0.0
230
1.0
 70
     8
 71
     3
 72
     8
 73
     4
 74
     0
 42
0.0000000001
 43
0.0000000001
 12
1.0
 22
0.0
 32
0.0
 13
1.0
 23
0.0
 33
0.0
 40
0.0
 40
0.0
 40
0.0
 40
0.0
 40
1.0
 40
1.0
 40
1.0
 40
1.0
 10
430.3777938468036
 20
-146.4623127107228
 30
0.0
 10
430.0965771618967
 20
-145.3041577359689
 30
0.0
 10
429.741430881061
 20
-144.1813149899389
 30
0.0
 10
429.3183731554723
 20
-143.0980047146021
 30
0.0
  0
ENDBLK
  5
2C8
330
2C5
100
AcDbEntity
  8
0
100
AcDbBlockEnd
  0
BLOCK
  5
2CC
330
2CA
100
AcDbEntity
  8
0
100
AcDbBlockBegin
  2
block 59
 70
     0
 10
0.0
 20
0.0
 30
0.0
  3
block 59
  1

  0
SPLINE
  5
2CE
330
2CA
100
AcDbEntity
  8
0
  6
AI-Linetype-15
 62
   250
370
    25
100
AcDbSpline
210
0.0
220
0.0
230
1.0
 70
     8
 71
     3
 72
    11
 73
     7
 74
     0
 42
0.0000000001
 43
0.0000000001
 12
1.0
 22
0.0
 32
0.0
 13
1.0
 23
0.0
 33
0.0
 40
0.0
 40
0.0
 40
0.0
 40
0.0
 40
1.0
 40
1.0
 40
1.0
 40
2.0
 40
2.0
 40
2.0
 40
2.0
 10
425.5339895945424
 20
-136.4774785932103
 30
0.0
 10
420.0473197588101
 20
-129.4990070509012
 30
0.0
 10
411.177555390639
 20
-125.5502386057078
 30
0.0
 10
401.8560313451179
 20
-126.6656743964445
 30
0.0
 10
391.2036669136447
 20
-127.940359725987
 30
0.0
 10
382.6850869665013
 20
-135.502774953046
 30
0.0
 10
379.8350240670945
 20
-145.3698729323501
 30
0.0
  0
ENDBLK
  5
2CD
330
2CA
100
AcDbEntity
  8
0
100
AcDbBlockEnd
  0
BLOCK
  5
2D2
330
2D0
100
AcDbEntity
  8
0
100
AcDbBlockBegin
  2
block 60
 70
     0
 10
0.0
 20
0.0
 30
0.0
  3
block 60
  1

  0
SPLINE
  5
2D4
330
2D0
100
AcDbEntity
  8
0
 62
   250
370
    25
100
AcDbSpline
210
0.0
220
0.0
230
1.0
 70
     8
 71
     3
 72
     8
 73
     4
 74
     0
 42
0.0000000001
 43
0.0000000001
 12
1.0
 22
0.0
 32
0.0
 13
1.0
 23
0.0
 33
0.0
 40
0.0
 40
0.0
 40
0.0
 40
0.0
 40
1.0
 40
1.0
 40
1.0
 40
1.0
 10
379.046420178674
 20
-149.1139165783325
 30
0.0
 10
378.8909171812086
 20
-150.2663871455357
 30
0.0
 10
378.8107325837894
 20
-151.4413369607801
 30
0.0
 10
378.8107325837894
 20
-152.6331677439023
 30
0.0
  0
ENDBLK
  5
2D3
330
2D0
100
AcDbEntity
  8
0
100
AcDbBlockEnd
  0
BLOCK
  5
2D7
330
2D5
100
AcDbEntity
  8
0
100
AcDbBlockBegin
  2
block 61
 70
     0
 10
0.0
 20
0.0
 30
0.0
  3
block 61
  1

  0
SPLINE
  5
2D9
330
2D5
100
AcDbEntity
  8
0
 62
   250
370
    25
100
AcDbSpline
210
0.0
220
0.0
230
1.0
 70
     8
 71
     3
 72
     8
 73
     4
 74
     0
 42
0.0000000001
 43
0.0000000001
 12
1.0
 22
0.0
 32
0.0
 13
1.0
 23
0.0
 33
0.0
 40
0.0
 40
0.0
 40
0.0
 40
0.0
 40
1.0
 40
1.0
 40
1.0
 40
1.0
 10
379.3588472754926
 20
-157.9594576188728
 30
0.0
 10
379.6016188479688
 20
-159.1265698418883
 30
0.0
 10
379.9193858427896
 20
-160.2605230208583
 30
0.0
 10
380.3062485339363
 20
-161.3570969138134
 30
0.0
  0
ENDBLK
  5
2D8
330
2D5
100
AcDbEntity
  8
0
100
AcDbBlockEnd
  0
BLOCK
  5
2DC
330
2DA
100
AcDbEntity
  8
0
100
AcDbBlockBegin
  2
block 62
 70
     0
 10
0.0
 20
0.0
 30
0.0
  3
block 62
  1

  0
SPLINE
  5
2DE
330
2DA
100
AcDbEntity
  8
0
  6
AI-Linetype-16
 62
   250
370
    25
100
AcDbSpline
210
0.0
220
0.0
230
1.0
 70
     8
 71
     3
 72
    11
 73
     7
 74
     0
 42
0.0000000001
 43
0.0000000001
 12
1.0
 22
0.0
 32
0.0
 13
1.0
 23
0.0
 33
0.0
 40
0.0
 40
0.0
 40
0.0
 40
0.0
 40
1.0
 40
1.0
 40
1.0
 40
2.0
 40
2.0
 40
2.0
 40
2.0
 10
383.9265271246111
 20
-168.1770940638011
 30
0.0
 10
389.2718080884441
 20
-175.4030095893384
 30
0.0
 10
398.1735257172408
 20
-179.6228209218337
 30
0.0
 10
407.6406911744009
 20
-178.6485479186051
 30
0.0
 10
418.4599489502876
 20
-177.5350930577723
 30
0.0
 10
427.1745978942353
 20
-169.9307337931804
 30
0.0
 10
430.0791148341559
 20
-159.9417655610856
 30
0.0
  0
ENDBLK
  5
2DD
330
2DA
100
AcDbEntity
  8
0
100
AcDbBlockEnd
  0
BLOCK
  5
2E2
330
2E0
100
AcDbEntity
  8
0
100
AcDbBlockBegin
  2
block 63
 70
     0
 10
0.0
 20
0.0
 30
0.0
  3
block 63
  1

  0
SPLINE
  5
2E4
330
2E0
100
AcDbEntity
  8
0
 62
   250
370
    25
100
AcDbSpline
210
0.0
220
0.0
230
1.0
 70
     8
 71
     3
 72
     8
 73
     4
 74
     0
 42
0.0000000001
 43
0.0000000001
 12
1.0
 22
0.0
 32
0.0
 13
1.0
 23
0.0
 33
0.0
 40
0.0
 40
0.0
 40
0.0
 40
0.0
 40
1.0
 40
1.0
 40
1.0
 40
1.0
 10
430.8806485965694
 20
-156.1525050368593
 30
0.0
 10
431.0360762325711
 20
-155.0002067244304
 30
0.0
 10
431.1162285322201
 20
-153.8252569091859
 30
0.0
 10
431.1162285322201
 20
-152.6331677439023
 30
0.0
  0
ENDBLK
  5
2E3
330
2E0
100
AcDbEntity
  8
0
100
AcDbBlockEnd
  0
BLOCK
  5
2E7
330
2E5
100
AcDbEntity
  8
0
100
AcDbBlockBegin
  2
block 64
 70
     0
 10
0.0
 20
0.0
 30
0.0
  3
block 64
  1

  0
SPLINE
  5
2E9
330
2E5
100
AcDbEntity
  8
0
 62
   250
370
    25
100
AcDbSpline
210
0.0
220
0.0
230
1.0
 70
     8
 71
     3
 72
     8
 73
     4
 74
     0
 42
0.0000000001
 43
0.0000000001
 12
1.0
 22
0.0
 32
0.0
 13
1.0
 23
0.0
 33
0.0
 40
0.0
 40
0.0
 40
0.0
 40
0.0
 40
1.0
 40
1.0
 40
1.0
 40
1.0
 10
440.0229953790874
 20
-144.12033679985
 30
0.0
 10
439.7427476272857
 20
-142.9661436849042
 30
0.0
 10
439.4092839161603
 20
-141.8374442765492
 30
0.0
 10
439.0257371294181
 20
-140.7363917594633
 30
0.0
  0
ENDBLK
  5
2E8
330
2E5
100
AcDbEntity
  8
0
100
AcDbBlockEnd
  0
BLOCK
  5
2EC
330
2EA
100
AcDbEntity
  8
0
100
AcDbBlockBegin
  2
block 65
 70
     0
 10
0.0
 20
0.0
 30
0.0
  3
block 65
  1

  0
SPLINE
  5
2EE
330
2EA
100
AcDbEntity
  8
0
  6
AI-Linetype-17
 62
   250
370
    25
100
AcDbSpline
210
0.0
220
0.0
230
1.0
 70
     8
 71
     3
 72
    11
 73
     7
 74
     0
 42
0.0000000001
 43
0.0000000001
 12
1.0
 22
0.0
 32
0.0
 13
1.0
 23
0.0
 33
0.0
 40
0.0
 40
0.0
 40
0.0
 40
0.0
 40
1.0
 40
1.0
 40
1.0
 40
2.0
 40
2.0
 40
2.0
 40
2.0
 10
435.8323166352892
 20
-133.9464530675844
 30
0.0
 10
428.6681975100186
 20
-122.1109136553957
 30
0.0
 10
415.0624173145811
 20
-115.0890339099724
 30
0.0
 10
400.6767105649765
 20
-116.8105481239517
 30
0.0
 10
384.9928703046831
 20
-118.6873500169287
 30
0.0
 10
372.6620768846429
 20
-130.444513506828
 30
0.0
 10
369.6123922337126
 20
-145.4021707025243
 30
0.0
  0
ENDBLK
  5
2ED
330
2EA
100
AcDbEntity
  8
0
100
AcDbBlockEnd
  0
BLOCK
  5
2F2
330
2F0
100
AcDbEntity
  8
0
100
AcDbBlockBegin
  2
block 66
 70
     0
 10
0.0
 20
0.0
 30
0.0
  3
block 66
  1

  0
SPLINE
  5
2F4
330
2F0
100
AcDbEntity
  8
0
 62
   250
370
    25
100
AcDbSpline
210
0.0
220
0.0
230
1.0
 70
     8
 71
     3
 72
     8
 73
     4
 74
     0
 42
0.0000000001
 43
0.0000000001
 12
1.0
 22
0.0
 32
0.0
 13
1.0
 23
0.0
 33
0.0
 40
0.0
 40
0.0
 40
0.0
 40
0.0
 40
1.0
 40
1.0
 40
1.0
 40
1.0
 10
369.0559016536109
 20
-149.1094379542017
 30
0.0
 10
368.942967117235
 20
-150.2699183684081
 30
0.0
 10
368.8852617678571
 20
-151.4454710753624
 30
0.0
 10
368.8852617678571
 20
-152.6331677439023
 30
0.0
  0
ENDBLK
  5
2F3
330
2F0
100
AcDbEntity
  8
0
100
AcDbBlockEnd
  0
BLOCK
  5
2F7
330
2F5
100
AcDbEntity
  8
0
100
AcDbBlockBegin
  2
block 67
 70
     0
 10
0.0
 20
0.0
 30
0.0
  3
block 67
  1

  0
SPLINE
  5
2F9
330
2F5
100
AcDbEntity
  8
0
 62
   250
370
    25
100
AcDbSpline
210
0.0
220
0.0
230
1.0
 70
     8
 71
     3
 72
     8
 73
     4
 74
     0
 42
0.0000000001
 43
0.0000000001
 12
1.0
 22
0.0
 32
0.0
 13
1.0
 23
0.0
 33
0.0
 40
0.0
 40
0.0
 40
0.0
 40
0.0
 40
1.0
 40
1.0
 40
1.0
 40
1.0
 10
369.6413956313291
 20
-159.9809535222303
 30
0.0
 10
369.8833274617808
 20
-161.1439316306635
 30
0.0
 10
370.1792396321169
 20
-162.2830524528614
 30
0.0
 10
370.5260530882477
 20
-163.3961628041456
 30
0.0
  0
ENDBLK
  5
2F8
330
2F5
100
AcDbEntity
  8
0
100
AcDbBlockEnd
  0
BLOCK
  5
2FC
330
2FA
100
AcDbEntity
  8
0
100
AcDbBlockBegin
  2
block 68
 70
     0
 10
0.0
 20
0.0
 30
0.0
  3
block 68
  1

  0
SPLINE
  5
2FE
330
2FA
100
AcDbEntity
  8
0
  6
AI-Linetype-18
 62
   250
370
    25
100
AcDbSpline
210
0.0
220
0.0
230
1.0
 70
     8
 71
     3
 72
    11
 73
     7
 74
     0
 42
0.0000000001
 43
0.0000000001
 12
1.0
 22
0.0
 32
0.0
 13
1.0
 23
0.0
 33
0.0
 40
0.0
 40
0.0
 40
0.0
 40
0.0
 40
1.0
 40
1.0
 40
1.0
 40
2.0
 40
2.0
 40
2.0
 40
2.0
 10
373.0516956521779
 20
-169.47770373687
 30
0.0
 10
379.7643565459533
 20
-182.2016471473175
 30
0.0
 10
393.6989495736112
 20
-190.0612018599793
 30
0.0
 10
408.656757492235
 20
-188.5218470697826
 30
0.0
 10
424.754192231456
 20
-186.8652729057002
 30
0.0
 10
437.4743675687166
 20
-174.7927109241263
 30
0.0
 10
440.4041844286069
 20
-159.4110486015828
 30
0.0
  0
ENDBLK
  5
2FD
330
2FA
100
AcDbEntity
  8
0
100
AcDbBlockEnd
  0
BLOCK
  5
302
330
300
100
AcDbEntity
  8
0
100
AcDbBlockBegin
  2
block 69
 70
     0
 10
0.0
 20
0.0
 30
0.0
  3
block 69
  1

  0
SPLINE
  5
304
330
300
100
AcDbEntity
  8
0
 62
   250
370
    25
100
AcDbSpline
210
0.0
220
0.0
230
1.0
 70
     8
 71
     3
 72
     8
 73
     4
 74
     0
 42
0.0000000001
 43
0.0000000001
 12
1.0
 22
0.0
 32
0.0
 13
1.0
 23
0.0
 33
0.0
 40
0.0
 40
0.0
 40
0.0
 40
0.0
 40
1.0
 40
1.0
 40
1.0
 40
1.0
 10
440.8711671216325
 20
-156.1569836609901
 30
0.0
 10
440.9840155306213
 20
-154.9965893741708
 30
0.0
 10
441.0417101140758
 20
-153.8210366672165
 30
0.0
 10
441.0417101140758
 20
-152.6331677439023
 30
0.0
  0
ENDBLK
  5
303
330
300
100
AcDbEntity
  8
0
100
AcDbBlockEnd
  0
BLOCK
  5
307
330
305
100
AcDbEntity
  8
0
100
AcDbBlockBegin
  2
block 70
 70
     0
 10
0.0
 20
0.0
 30
0.0
  3
block 70
  1

  0
SPLINE
  5
309
330
305
100
AcDbEntity
  8
0
 62
   250
370
    25
100
AcDbSpline
210
0.0
220
0.0
230
1.0
 70
     8
 71
     3
 72
     8
 73
     4
 74
     0
 42
0.0000000001
 43
0.0000000001
 12
1.0
 22
0.0
 32
0.0
 13
1.0
 23
0.0
 33
0.0
 40
0.0
 40
0.0
 40
0.0
 40
0.0
 40
1.0
 40
1.0
 40
1.0
 40
1.0
 10
-169.3564106982224
 20
-146.4623127107228
 30
0.0
 10
-169.637702744593
 20
-145.3041577359689
 30
0.0
 10
-169.9928059617351
 20
-144.1813149899389
 30
0.0
 10
-170.4158636873238
 20
-143.0980047146021
 30
0.0
  0
ENDBLK
  5
308
330
305
100
AcDbEntity
  8
0
100
AcDbBlockEnd
  0
BLOCK
  5
30C
330
30A
100
AcDbEntity
  8
0
100
AcDbBlockBegin
  2
block 71
 70
     0
 10
0.0
 20
0.0
 30
0.0
  3
block 71
  1

  0
SPLINE
  5
30E
330
30A
100
AcDbEntity
  8
0
  6
AI-Linetype-19
 62
   250
370
    25
100
AcDbSpline
210
0.0
220
0.0
230
1.0
 70
     8
 71
     3
 72
    11
 73
     7
 74
     0
 42
0.0000000001
 43
0.0000000001
 12
1.0
 22
0.0
 32
0.0
 13
1.0
 23
0.0
 33
0.0
 40
0.0
 40
0.0
 40
0.0
 40
0.0
 40
1.0
 40
1.0
 40
1.0
 40
2.0
 40
2.0
 40
2.0
 40
2.0
 10
-174.2003010778708
 20
-136.4774785932103
 30
0.0
 10
-179.6869601476797
 20
-129.4990070509012
 30
0.0
 10
-188.5567029840039
 20
-125.5502386057078
 30
0.0
 10
-197.8782700932186
 20
-126.6656743964445
 30
0.0
 10
-208.5305914609983
 20
-127.940359725987
 30
0.0
 10
-217.0491929399884
 20
-135.502774953046
 30
0.0
 10
-219.8992343075485
 20
-145.3698729323501
 30
0.0
  0
ENDBLK
  5
30D
330
30A
100
AcDbEntity
  8
0
100
AcDbBlockEnd
  0
BLOCK
  5
312
330
310
100
AcDbEntity
  8
0
100
AcDbBlockBegin
  2
block 72
 70
     0
 10
0.0
 20
0.0
 30
0.0
  3
block 72
  1

  0
SPLINE
  5
314
330
310
100
AcDbEntity
  8
0
 62
   250
370
    25
100
AcDbSpline
210
0.0
220
0.0
230
1.0
 70
     8
 71
     3
 72
     8
 73
     4
 74
     0
 42
0.0000000001
 43
0.0000000001
 12
1.0
 22
0.0
 32
0.0
 13
1.0
 23
0.0
 33
0.0
 40
0.0
 40
0.0
 40
0.0
 40
0.0
 40
1.0
 40
1.0
 40
1.0
 40
1.0
 10
-220.6878166641222
 20
-149.1139165783325
 30
0.0
 10
-220.8433627252812
 20
-150.2663871455357
 30
0.0
 10
-220.9235473227004
 20
-151.4413369607801
 30
0.0
 10
-220.9235473227004
 20
-152.6331677439023
 30
0.0
  0
ENDBLK
  5
313
330
310
100
AcDbEntity
  8
0
100
AcDbBlockEnd
  0
BLOCK
  5
317
330
315
100
AcDbEntity
  8
0
100
AcDbBlockBegin
  2
block 73
 70
     0
 10
0.0
 20
0.0
 30
0.0
  3
block 73
  1

  0
SPLINE
  5
319
330
315
100
AcDbEntity
  8
0
 62
   250
370
    25
100
AcDbSpline
210
0.0
220
0.0
230
1.0
 70
     8
 71
     3
 72
     8
 73
     4
 74
     0
 42
0.0000000001
 43
0.0000000001
 12
1.0
 22
0.0
 32
0.0
 13
1.0
 23
0.0
 33
0.0
 40
0.0
 40
0.0
 40
0.0
 40
0.0
 40
1.0
 40
1.0
 40
1.0
 40
1.0
 10
-220.3754326309971
 20
-157.9594576188728
 30
0.0
 10
-220.1326395266742
 20
-159.1265698418883
 30
0.0
 10
-219.8148294681598
 20
-160.2605230208583
 30
0.0
 10
-219.4280313725534
 20
-161.3570969138134
 30
0.0
  0
ENDBLK
  5
318
330
315
100
AcDbEntity
  8
0
100
AcDbBlockEnd
  0
BLOCK
  5
31C
330
31A
100
AcDbEntity
  8
0
100
AcDbBlockBegin
  2
block 74
 70
     0
 10
0.0
 20
0.0
 30
0.0
  3
block 74
  1

  0
SPLINE
  5
31E
330
31A
100
AcDbEntity
  8
0
  6
AI-Linetype-20
 62
   250
370
    25
100
AcDbSpline
210
0.0
220
0.0
230
1.0
 70
     8
 71
     3
 72
    11
 73
     7
 74
     0
 42
0.0000000001
 43
0.0000000001
 12
1.0
 22
0.0
 32
0.0
 13
1.0
 23
0.0
 33
0.0
 40
0.0
 40
0.0
 40
0.0
 40
0.0
 40
1.0
 40
1.0
 40
1.0
 40
2.0
 40
2.0
 40
2.0
 40
2.0
 10
-215.8077527818786
 20
-168.1770940638011
 30
0.0
 10
-210.4624287543521
 20
-175.4030095893384
 30
0.0
 10
-201.5607326574022
 20
-179.6228209218337
 30
0.0
 10
-192.0935241365485
 20
-178.6485479186051
 30
0.0
 10
-181.2742878925085
 20
-177.5350930577723
 30
0.0
 10
-172.5596604804077
 20
-169.9307337931804
 30
0.0
 10
-169.6551004767935
 20
-159.9417655610856
 30
0.0
  0
ENDBLK
  5
31D
330
31A
100
AcDbEntity
  8
0
100
AcDbBlockEnd
  0
BLOCK
  5
322
330
320
100
AcDbEntity
  8
0
100
AcDbBlockBegin
  2
block 75
 70
     0
 10
0.0
 20
0.0
 30
0.0
  3
block 75
  1

  0
SPLINE
  5
324
330
320
100
AcDbEntity
  8
0
 62
   250
370
    25
100
AcDbSpline
210
0.0
220
0.0
230
1.0
 70
     8
 71
     3
 72
     8
 73
     4
 74
     0
 42
0.0000000001
 43
0.0000000001
 12
1.0
 22
0.0
 32
0.0
 13
1.0
 23
0.0
 33
0.0
 40
0.0
 40
0.0
 40
0.0
 40
0.0
 40
1.0
 40
1.0
 40
1.0
 40
1.0
 10
-168.8535990121502
 20
-156.1525050368593
 30
0.0
 10
-168.6981390783783
 20
-155.0002067244304
 30
0.0
 10
-168.6180406083462
 20
-153.8252569091859
 30
0.0
 10
-168.6180406083462
 20
-152.6331677439023
 30
0.0
  0
ENDBLK
  5
323
330
320
100
AcDbEntity
  8
0
100
AcDbBlockEnd
  0
BLOCK
  5
327
330
325
100
AcDbEntity
  8
0
100
AcDbBlockBegin
  2
block 76
 70
     0
 10
0.0
 20
0.0
 30
0.0
  3
block 76
  1

  0
SPLINE
  5
329
330
325
100
AcDbEntity
  8
0
 62
   250
370
    25
100
AcDbSpline
210
0.0
220
0.0
230
1.0
 70
     8
 71
     3
 72
     8
 73
     4
 74
     0
 42
0.0000000001
 43
0.0000000001
 12
1.0
 22
0.0
 32
0.0
 13
1.0
 23
0.0
 33
0.0
 40
0.0
 40
0.0
 40
0.0
 40
0.0
 40
1.0
 40
1.0
 40
1.0
 40
1.0
 10
-159.7112629955555
 20
-144.12033679985
 30
0.0
 10
-159.9915215132806
 20
-142.9661436849042
 30
0.0
 10
-160.3249206288657
 20
-141.8374442765492
 30
0.0
 10
-160.7085320111482
 20
-140.7363917594633
 30
0.0
  0
ENDBLK
  5
328
330
325
100
AcDbEntity
  8
0
100
AcDbBlockEnd
  0
BLOCK
  5
32C
330
32A
100
AcDbEntity
  8
0
100
AcDbBlockBegin
  2
block 77
 70
     0
 10
0.0
 20
0.0
 30
0.0
  3
block 77
  1

  0
SPLINE
  5
32E
330
32A
100
AcDbEntity
  8
0
  6
AI-Linetype-21
 62
   250
370
    25
100
AcDbSpline
210
0.0
220
0.0
230
1.0
 70
     8
 71
     3
 72
    11
 73
     7
 74
     0
 42
0.0000000001
 43
0.0000000001
 12
1.0
 22
0.0
 32
0.0
 13
1.0
 23
0.0
 33
0.0
 40
0.0
 40
0.0
 40
0.0
 40
0.0
 40
1.0
 40
1.0
 40
1.0
 40
2.0
 40
2.0
 40
2.0
 40
2.0
 10
-163.9019632712006
 20
-133.9464530675844
 30
0.0
 10
-171.0660393327776
 20
-122.1109136553957
 30
0.0
 10
-184.6718410600619
 20
-115.0890339099724
 30
0.0
 10
-199.0575262778197
 20
-116.8105481239517
 30
0.0
 10
-214.7414096018067
 20
-118.6873500169287
 30
0.0
 10
-227.07218149
 20
-130.444513506828
 30
0.0
 10
-230.1218661409303
 20
-145.4021707025243
 30
0.0
  0
ENDBLK
  5
32D
330
32A
100
AcDbEntity
  8
0
100
AcDbBlockEnd
  0
BLOCK
  5
332
330
330
100
AcDbEntity
  8
0
100
AcDbBlockBegin
  2
block 78
 70
     0
 10
0.0
 20
0.0
 30
0.0
  3
block 78
  1

  0
SPLINE
  5
334
330
330
100
AcDbEntity
  8
0
 62
   250
370
    25
100
AcDbSpline
210
0.0
220
0.0
230
1.0
 70
     8
 71
     3
 72
     8
 73
     4
 74
     0
 42
0.0000000001
 43
0.0000000001
 12
1.0
 22
0.0
 32
0.0
 13
1.0
 23
0.0
 33
0.0
 40
0.0
 40
0.0
 40
0.0
 40
0.0
 40
1.0
 40
1.0
 40
1.0
 40
1.0
 10
-230.6783351891853
 20
-149.1094379542017
 30
0.0
 10
-230.7912481937144
 20
-150.2699183684081
 30
0.0
 10
-230.8489535430923
 20
-151.4454710753624
 30
0.0
 10
-230.8489535430923
 20
-152.6331677439023
 30
0.0
  0
ENDBLK
  5
333
330
330
100
AcDbEntity
  8
0
100
AcDbBlockEnd
  0
BLOCK
  5
337
330
335
100
AcDbEntity
  8
0
100
AcDbBlockBegin
  2
block 79
 70
     0
 10
0.0
 20
0.0
 30
0.0
  3
block 79
  1

  0
SPLINE
  5
339
330
335
100
AcDbEntity
  8
0
 62
   250
370
    25
100
AcDbSpline
210
0.0
220
0.0
230
1.0
 70
     8
 71
     3
 72
     8
 73
     4
 74
     0
 42
0.0000000001
 43
0.0000000001
 12
1.0
 22
0.0
 32
0.0
 13
1.0
 23
0.0
 33
0.0
 40
0.0
 40
0.0
 40
0.0
 40
0.0
 40
1.0
 40
1.0
 40
1.0
 40
1.0
 10
-230.0928412114671
 20
-159.9809535222303
 30
0.0
 10
-229.8509093810154
 20
-161.1439316306635
 30
0.0
 10
-229.5549756788324
 20
-162.2830524528614
 30
0.0
 10
-229.2082268182421
 20
-163.3961628041456
 30
0.0
  0
ENDBLK
  5
338
330
335
100
AcDbEntity
  8
0
100
AcDbBlockEnd
  0
BLOCK
  5
33C
330
33A
100
AcDbEntity
  8
0
100
AcDbBlockBegin
  2
block 80
 70
     0
 10
0.0
 20
0.0
 30
0.0
  3
block 80
  1

  0
SPLINE
  5
33E
330
33A
100
AcDbEntity
  8
0
  6
AI-Linetype-22
 62
   250
370
    25
100
AcDbSpline
210
0.0
220
0.0
230
1.0
 70
     8
 71
     3
 72
    11
 73
     7
 74
     0
 42
0.0000000001
 43
0.0000000001
 12
1.0
 22
0.0
 32
0.0
 13
1.0
 23
0.0
 33
0.0
 40
0.0
 40
0.0
 40
0.0
 40
0.0
 40
1.0
 40
1.0
 40
1.0
 40
2.0
 40
2.0
 40
2.0
 40
2.0
 10
-226.6825411906183
 20
-169.47770373687
 30
0.0
 10
-219.9698587649961
 20
-182.2016471473175
 30
0.0
 10
-206.0353088010318
 20
-190.0612018599793
 30
0.0
 10
-191.0774793505612
 20
-188.5218470697826
 30
0.0
 10
-174.9800984409571
 20
-186.8652729057002
 30
0.0
 10
-162.2598585081562
 20
-174.7927109241263
 30
0.0
 10
-159.3300631801126
 20
-159.4110486015828
 30
0.0
  0
ENDBLK
  5
33D
330
33A
100
AcDbEntity
  8
0
100
AcDbBlockEnd
  0
BLOCK
  5
342
330
340
100
AcDbEntity
  8
0
100
AcDbBlockBegin
  2
block 81
 70
     0
 10
0.0
 20
0.0
 30
0.0
  3
block 81
  1

  0
SPLINE
  5
344
330
340
100
AcDbEntity
  8
0
 62
   250
370
    25
100
AcDbSpline
210
0.0
220
0.0
230
1.0
 70
     8
 71
     3
 72
     8
 73
     4
 74
     0
 42
0.0000000001
 43
0.0000000001
 12
1.0
 22
0.0
 32
0.0
 13
1.0
 23
0.0
 33
0.0
 40
0.0
 40
0.0
 40
0.0
 40
0.0
 40
1.0
 40
1.0
 40
1.0
 40
1.0
 10
-158.863080487087
 20
-156.1569836609901
 30
0.0
 10
-158.7502536099451
 20
-154.9965893741708
 30
0.0
 10
-158.6925482605672
 20
-153.8210366672165
 30
0.0
 10
-158.6925482605672
 20
-152.6331677439023
 30
0.0
  0
ENDBLK
  5
343
330
340
100
AcDbEntity
  8
0
100
AcDbBlockEnd
  0
BLOCK
  5
347
330
345
100
AcDbEntity
  8
0
100
AcDbBlockBegin
  2
block 82
 70
     0
 10
0.0
 20
0.0
 30
0.0
  3
block 82
  1

  0
SPLINE
  5
349
330
345
100
AcDbEntity
  8
0
 62
   250
370
    25
100
AcDbSpline
210
0.0
220
0.0
230
1.0
 70
     8
 71
     3
 72
     8
 73
     4
 74
     0
 42
0.0000000001
 43
0.0000000001
 12
1.0
 22
0.0
 32
0.0
 13
1.0
 23
0.0
 33
0.0
 40
0.0
 40
0.0
 40
0.0
 40
0.0
 40
1.0
 40
1.0
 40
1.0
 40
1.0
 10
-170.3564357902033
 20
454.407427604012
 30
0.0
 10
-170.6376417091868
 20
455.5656256424595
 30
0.0
 10
-170.992831053716
 20
456.6884683884895
 30
0.0
 10
-171.4158887793047
 20
457.7717356001328
 30
0.0
  0
ENDBLK
  5
348
330
345
100
AcDbEntity
  8
0
100
AcDbBlockEnd
  0
BLOCK
  5
34C
330
34A
100
AcDbEntity
  8
0
100
AcDbBlockBegin
  2
block 83
 70
     0
 10
0.0
 20
0.0
 30
0.0
  3
block 83
  1

  0
SPLINE
  5
34E
330
34A
100
AcDbEntity
  8
0
  6
AI-Linetype-23
 62
   250
370
    25
100
AcDbSpline
210
0.0
220
0.0
230
1.0
 70
     8
 71
     3
 72
    11
 73
     7
 74
     0
 42
0.0000000001
 43
0.0000000001
 12
1.0
 22
0.0
 32
0.0
 13
1.0
 23
0.0
 33
0.0
 40
0.0
 40
0.0
 40
0.0
 40
0.0
 40
1.0
 40
1.0
 40
1.0
 40
2.0
 40
2.0
 40
2.0
 40
2.0
 10
-175.2002400424645
 20
464.3923047852181
 30
0.0
 10
-180.6868991122734
 20
471.3707332638337
 30
0.0
 10
-189.5567280759848
 20
475.3195447727206
 30
0.0
 10
-198.8782090578124
 20
474.2040659182903
 30
0.0
 10
-209.5306165529792
 20
472.9293375250543
 30
0.0
 10
-218.0491319045822
 20
465.3669653616888
 30
0.0
 10
-220.8991732721422
 20
455.4998673823848
 30
0.0
  0
ENDBLK
  5
34D
330
34A
100
AcDbEntity
  8
0
100
AcDbBlockEnd
  0
BLOCK
  5
352
330
350
100
AcDbEntity
  8
0
100
AcDbBlockBegin
  2
block 84
 70
     0
 10
0.0
 20
0.0
 30
0.0
  3
block 84
  1

  0
SPLINE
  5
354
330
350
100
AcDbEntity
  8
0
 62
   250
370
    25
100
AcDbSpline
210
0.0
220
0.0
230
1.0
 70
     8
 71
     3
 72
     8
 73
     4
 74
     0
 42
0.0000000001
 43
0.0000000001
 12
1.0
 22
0.0
 32
0.0
 13
1.0
 23
0.0
 33
0.0
 40
0.0
 40
0.0
 40
0.0
 40
0.0
 40
1.0
 40
1.0
 40
1.0
 40
1.0
 10
-221.6878417561031
 20
451.7558668000959
 30
0.0
 10
-221.8433016898749
 20
450.6033531691992
 30
0.0
 10
-221.9234862872941
 20
449.4284033539547
 30
0.0
 10
-221.9234862872941
 20
448.2365725708325
 30
0.0
  0
ENDBLK
  5
353
330
350
100
AcDbEntity
  8
0
100
AcDbBlockEnd
  0
BLOCK
  5
357
330
355
100
AcDbEntity
  8
0
100
AcDbBlockBegin
  2
block 85
 70
     0
 10
0.0
 20
0.0
 30
0.0
  3
block 85
  1

  0
SPLINE
  5
359
330
355
100
AcDbEntity
  8
0
 62
   250
370
    25
100
AcDbSpline
210
0.0
220
0.0
230
1.0
 70
     8
 71
     3
 72
     8
 73
     4
 74
     0
 42
0.0000000001
 43
0.0000000001
 12
1.0
 22
0.0
 32
0.0
 13
1.0
 23
0.0
 33
0.0
 40
0.0
 40
0.0
 40
0.0
 40
0.0
 40
1.0
 40
1.0
 40
1.0
 40
1.0
 10
-221.3753715955909
 20
442.910282695862
 30
0.0
 10
-221.1325784912679
 20
441.7431704728465
 30
0.0
 10
-220.8148545601408
 20
440.6092172938765
 30
0.0
 10
-220.4279703371472
 20
439.5126434009215
 30
0.0
  0
ENDBLK
  5
358
330
355
100
AcDbEntity
  8
0
100
AcDbBlockEnd
  0
BLOCK
  5
35C
330
35A
100
AcDbEntity
  8
0
100
AcDbBlockBegin
  2
block 86
 70
     0
 10
0.0
 20
0.0
 30
0.0
  3
block 86
  1

  0
SPLINE
  5
35E
330
35A
100
AcDbEntity
  8
0
  6
AI-Linetype-24
 62
   250
370
    25
100
AcDbSpline
210
0.0
220
0.0
230
1.0
 70
     8
 71
     3
 72
    11
 73
     7
 74
     0
 42
0.0000000001
 43
0.0000000001
 12
1.0
 22
0.0
 32
0.0
 13
1.0
 23
0.0
 33
0.0
 40
0.0
 40
0.0
 40
0.0
 40
0.0
 40
1.0
 40
1.0
 40
1.0
 40
2.0
 40
2.0
 40
2.0
 40
2.0
 10
-216.8076917464724
 20
432.6926462509338
 30
0.0
 10
-211.462453846333
 20
425.4667737890901
 30
0.0
 10
-202.5607577493831
 20
421.2469624565947
 30
0.0
 10
-193.0935492285294
 20
422.2212354598233
 30
0.0
 10
-182.2743129844894
 20
423.3346041932689
 30
0.0
 10
-173.5596855723886
 20
430.939049585248
 30
0.0
 10
-170.6551255687744
 20
440.9280178173428
 30
0.0
  0
ENDBLK
  5
35D
330
35A
100
AcDbEntity
  8
0
100
AcDbBlockEnd
  0
BLOCK
  5
362
330
360
100
AcDbEntity
  8
0
100
AcDbBlockBegin
  2
block 87
 70
     0
 10
0.0
 20
0.0
 30
0.0
  3
block 87
  1

  0
SPLINE
  5
364
330
360
100
AcDbEntity
  8
0
 62
   250
370
    25
100
AcDbSpline
210
0.0
220
0.0
230
1.0
 70
     8
 71
     3
 72
     8
 73
     4
 74
     0
 42
0.0000000001
 43
0.0000000001
 12
1.0
 22
0.0
 32
0.0
 13
1.0
 23
0.0
 33
0.0
 40
0.0
 40
0.0
 40
0.0
 40
0.0
 40
1.0
 40
1.0
 40
1.0
 40
1.0
 10
-169.8536241041311
 20
444.7172352778755
 30
0.0
 10
-169.6981641703591
 20
445.8695766539981
 30
0.0
 10
-169.61797957294
 20
447.0444834055489
 30
0.0
 10
-169.61797957294
 20
448.2365725708325
 30
0.0
  0
ENDBLK
  5
363
330
360
100
AcDbEntity
  8
0
100
AcDbBlockEnd
  0
BLOCK
  5
367
330
365
100
AcDbEntity
  8
0
100
AcDbBlockBegin
  2
block 88
 70
     0
 10
0.0
 20
0.0
 30
0.0
  3
block 88
  1

  0
SPLINE
  5
369
330
365
100
AcDbEntity
  8
0
 62
   250
370
    25
100
AcDbSpline
210
0.0
220
0.0
230
1.0
 70
     8
 71
     3
 72
     8
 73
     4
 74
     0
 42
0.0000000001
 43
0.0000000001
 12
1.0
 22
0.0
 32
0.0
 13
1.0
 23
0.0
 33
0.0
 40
0.0
 40
0.0
 40
0.0
 40
0.0
 40
1.0
 40
1.0
 40
1.0
 40
1.0
 10
-160.7112880875364
 20
456.7494035148849
 30
0.0
 10
-160.9914604778744
 20
457.9035966298307
 30
0.0
 10
-161.3249457208466
 20
459.0322960381857
 30
0.0
 10
-161.708470975742
 20
460.1333916189651
 30
0.0
  0
ENDBLK
  5
368
330
365
100
AcDbEntity
  8
0
100
AcDbBlockEnd
  0
BLOCK
  5
36C
330
36A
100
AcDbEntity
  8
0
100
AcDbBlockBegin
  2
block 89
 70
     0
 10
0.0
 20
0.0
 30
0.0
  3
block 89
  1

  0
SPLINE
  5
36E
330
36A
100
AcDbEntity
  8
0
  6
AI-Linetype-25
 62
   250
370
    25
100
AcDbSpline
210
0.0
220
0.0
230
1.0
 70
     8
 71
     3
 72
    11
 73
     7
 74
     0
 42
0.0000000001
 43
0.0000000001
 12
1.0
 22
0.0
 32
0.0
 13
1.0
 23
0.0
 33
0.0
 40
0.0
 40
0.0
 40
0.0
 40
0.0
 40
1.0
 40
1.0
 40
1.0
 40
2.0
 40
2.0
 40
2.0
 40
2.0
 10
-164.9019022357943
 20
466.923330310844
 30
0.0
 10
-172.0660644247585
 20
478.7588697230327
 30
0.0
 10
-185.6718661520428
 20
485.7807064047624
 30
0.0
 10
-200.0575513698006
 20
484.0592352544767
 30
0.0
 10
-215.7413485664004
 20
482.1823902978061
 30
0.0
 10
-228.0722065819809
 20
470.4252698716004
 30
0.0
 10
-231.1218051055241
 20
455.4675696122105
 30
0.0
  0
ENDBLK
  5
36D
330
36A
100
AcDbEntity
  8
0
100
AcDbBlockEnd
  0
BLOCK
  5
372
330
370
100
AcDbEntity
  8
0
100
AcDbBlockBegin
  2
block 90
 70
     0
 10
0.0
 20
0.0
 30
0.0
  3
block 90
  1

  0
SPLINE
  5
374
330
370
100
AcDbEntity
  8
0
 62
   250
370
    25
100
AcDbSpline
210
0.0
220
0.0
230
1.0
 70
     8
 71
     3
 72
     8
 73
     4
 74
     0
 42
0.0000000001
 43
0.0000000001
 12
1.0
 22
0.0
 32
0.0
 13
1.0
 23
0.0
 33
0.0
 40
0.0
 40
0.0
 40
0.0
 40
0.0
 40
1.0
 40
1.0
 40
1.0
 40
1.0
 10
-231.6783602811662
 20
451.7603454242267
 30
0.0
 10
-231.7912732856953
 20
450.5998219463268
 30
0.0
 10
-231.8489786350732
 20
449.424312303066
 30
0.0
 10
-231.8489786350732
 20
448.2365725708325
 30
0.0
  0
ENDBLK
  5
373
330
370
100
AcDbEntity
  8
0
100
AcDbBlockEnd
  0
BLOCK
  5
377
330
375
100
AcDbEntity
  8
0
100
AcDbBlockBegin
  2
block 91
 70
     0
 10
0.0
 20
0.0
 30
0.0
  3
block 91
  1

  0
SPLINE
  5
379
330
375
100
AcDbEntity
  8
0
 62
   250
370
    25
100
AcDbSpline
210
0.0
220
0.0
230
1.0
 70
     8
 71
     3
 72
     8
 73
     4
 74
     0
 42
0.0000000001
 43
0.0000000001
 12
1.0
 22
0.0
 32
0.0
 13
1.0
 23
0.0
 33
0.0
 40
0.0
 40
0.0
 40
0.0
 40
0.0
 40
1.0
 40
1.0
 40
1.0
 40
1.0
 10
-231.092866303448
 20
440.8888298561981
 30
0.0
 10
-230.8509344729963
 20
439.7258086840713
 30
0.0
 10
-230.5550007708133
 20
438.5866447981799
 30
0.0
 10
-230.2081657828358
 20
437.4735775105892
 30
0.0
  0
ENDBLK
  5
378
330
375
100
AcDbEntity
  8
0
100
AcDbBlockEnd
  0
BLOCK
  5
37C
330
37A
100
AcDbEntity
  8
0
100
AcDbBlockBegin
  2
block 92
 70
     0
 10
0.0
 20
0.0
 30
0.0
  3
block 92
  1

  0
SPLINE
  5
37E
330
37A
100
AcDbEntity
  8
0
  6
AI-Linetype-26
 62
   250
370
    25
100
AcDbSpline
210
0.0
220
0.0
230
1.0
 70
     8
 71
     3
 72
    11
 73
     7
 74
     0
 42
0.0000000001
 43
0.0000000001
 12
1.0
 22
0.0
 32
0.0
 13
1.0
 23
0.0
 33
0.0
 40
0.0
 40
0.0
 40
0.0
 40
0.0
 40
1.0
 40
1.0
 40
1.0
 40
2.0
 40
2.0
 40
2.0
 40
2.0
 10
-227.6825662825992
 20
431.3920365778648
 30
0.0
 10
-220.969883856977
 20
418.6681362311109
 30
0.0
 10
-207.0352477656256
 20
410.808581518449
 30
0.0
 10
-192.0775044425421
 20
412.3479363086458
 30
0.0
 10
-175.9800374055508
 20
414.0045104727282
 30
0.0
 10
-163.2598836001371
 20
426.0770724543021
 30
0.0
 10
-160.3300882720935
 20
441.4587347768456
 30
0.0
  0
ENDBLK
  5
37D
330
37A
100
AcDbEntity
  8
0
100
AcDbBlockEnd
  0
BLOCK
  5
382
330
380
100
AcDbEntity
  8
0
100
AcDbBlockBegin
  2
block 93
 70
     0
 10
0.0
 20
0.0
 30
0.0
  3
block 93
  1

  0
SPLINE
  5
384
330
380
100
AcDbEntity
  8
0
 62
   250
370
    25
100
AcDbSpline
210
0.0
220
0.0
230
1.0
 70
     8
 71
     3
 72
     8
 73
     4
 74
     0
 42
0.0000000001
 43
0.0000000001
 12
1.0
 22
0.0
 32
0.0
 13
1.0
 23
0.0
 33
0.0
 40
0.0
 40
0.0
 40
0.0
 40
0.0
 40
1.0
 40
1.0
 40
1.0
 40
1.0
 10
-159.8631055790679
 20
444.7127566537447
 30
0.0
 10
-159.7501925745389
 20
445.873150940564
 30
0.0
 10
-159.692573352548
 20
447.0486605838248
 30
0.0
 10
-159.692573352548
 20
448.2365725708325
 30
0.0
  0
ENDBLK
  5
383
330
380
100
AcDbEntity
  8
0
100
AcDbBlockEnd
  0
BLOCK
  5
387
330
385
100
AcDbEntity
  8
0
100
AcDbBlockBegin
  2
block 94
 70
     0
 10
0.0
 20
0.0
 30
0.0
  3
block 94
  1

  0
SPLINE
  5
389
330
385
100
AcDbEntity
  8
0
 62
   250
370
    25
100
AcDbSpline
210
0.0
220
0.0
230
1.0
 70
     8
 71
     3
 72
     8
 73
     4
 74
     0
 42
0.0000000001
 43
0.0000000001
 12
1.0
 22
0.0
 32
0.0
 13
1.0
 23
0.0
 33
0.0
 40
0.0
 40
0.0
 40
0.0
 40
0.0
 40
1.0
 40
1.0
 40
1.0
 40
1.0
 10
151.2277829073147
 20
715.7230646892829
 30
0.0
 10
120.5623025129309
 20
716.0863692101581
 30
0.0
 10
89.89358097959338
 20
716.0841495870735
 30
0.0
 10
59.22815349418063
 20
715.7164062930126
 30
0.0
  0
ENDBLK
  5
388
330
385
100
AcDbEntity
  8
0
100
AcDbBlockEnd
  0
BLOCK
  5
38C
330
38A
100
AcDbEntity
  8
0
100
AcDbBlockBegin
  2
block 95
 70
     0
 10
0.0
 20
0.0
 30
0.0
  3
block 95
  1

  0
POLYLINE
  5
38E
330
38A
100
AcDbEntity
  8
0
 62
   250
370
    25
100
AcDb2dPolyline
 66
     1
 10
0.0
 20
0.0
 30
0.0
  0
VERTEX
  5
38F
330
38E
100
AcDbEntity
  8
0
 62
   250
370
    25
100
AcDbVertex
100
AcDb2dVertex
 10
151.2277752153453
 20
717.5101812180521
 30
0.0
  0
VERTEX
  5
390
330
38E
100
AcDbEntity
  8
0
 62
   250
370
    25
100
AcDbVertex
100
AcDb2dVertex
 10
151.9327122180415
 20
717.4872286721389
 30
0.0
  0
VERTEX
  5
391
330
38E
100
AcDbEntity
  8
0
 62
   250
370
    25
100
AcDbVertex
100
AcDb2dVertex
 10
152.2815325881465
 20
717.4648859637207
 30
0.0
  0
VERTEX
  5
392
330
38E
100
AcDbEntity
  8
0
 62
   250
370
    25
100
AcDbVertex
100
AcDb2dVertex
 10
152.625298104821
 20
717.4352387607352
 30
0.0
  0
VERTEX
  5
393
330
38E
100
AcDbEntity
  8
0
 62
   250
370
    25
100
AcDbVertex
100
AcDb2dVertex
 10
152.9616788714069
 20
717.3982495761256
 30
0.0
  0
VERTEX
  5
394
330
38E
100
AcDbEntity
  8
0
 62
   250
370
    25
100
AcDbVertex
100
AcDb2dVertex
 10
153.2880593686166
 20
717.3539021173139
 30
0.0
  0
VERTEX
  5
395
330
38E
100
AcDbEntity
  8
0
 62
   250
370
    25
100
AcDbVertex
100
AcDb2dVertex
 10
153.6015423171245
 20
717.302213837442
 30
0.0
  0
VERTEX
  5
396
330
38E
100
AcDbEntity
  8
0
 62
   250
370
    25
100
AcDbVertex
100
AcDb2dVertex
 10
153.8989525402749
 20
717.2432484866595
 30
0.0
  0
VERTEX
  5
397
330
38E
100
AcDbEntity
  8
0
 62
   250
370
    25
100
AcDbVertex
100
AcDb2dVertex
 10
154.176840826571
 20
717.1771286633516
 30
0.0
  0
VERTEX
  5
398
330
38E
100
AcDbEntity
  8
0
 62
   250
370
    25
100
AcDbVertex
100
AcDb2dVertex
 10
154.4314877924333
 20
717.1040483654202
 30
0.0
  0
VERTEX
  5
399
330
38E
100
AcDbEntity
  8
0
 62
   250
370
    25
100
AcDbVertex
100
AcDb2dVertex
 10
154.6588758077517
 20
717.0242940632628
 30
0.0
  0
VERTEX
  5
39A
330
38E
100
AcDbEntity
  8
0
 62
   250
370
    25
100
AcDbVertex
100
AcDb2dVertex
 10
154.760948090994
 20
716.9820587386406
 30
0.0
  0
VERTEX
  5
39B
330
38E
100
AcDbEntity
  8
0
 62
   250
370
    25
100
AcDbVertex
100
AcDb2dVertex
 10
154.8544644095504
 20
716.9383709148954
 30
0.0
  0
VERTEX
  5
39C
330
38E
100
AcDbEntity
  8
0
 62
   250
370
    25
100
AcDbVertex
100
AcDb2dVertex
 10
154.9388102998857
 20
716.893347115852
 30
0.0
  0
VERTEX
  5
39D
330
38E
100
AcDbEntity
  8
0
 62
   250
370
    25
100
AcDbVertex
100
AcDb2dVertex
 10
155.0133844354361
 20
716.8471241958367
 30
0.0
  0
VERTEX
  5
39E
330
38E
100
AcDbEntity
  8
0
 62
   250
370
    25
100
AcDbVertex
100
AcDb2dVertex
 10
155.0776151225168
 20
716.7998584087196
 30
0.0
  0
VERTEX
  5
39F
330
38E
100
AcDbEntity
  8
0
 62
   250
370
    25
100
AcDbVertex
100
AcDb2dVertex
 10
155.1309767962736
 20
716.751724477188
 30
0.0
  0
VERTEX
  5
3A0
330
38E
100
AcDbEntity
  8
0
 62
   250
370
    25
100
AcDbVertex
100
AcDb2dVertex
 10
155.1730065167118
 20
716.7029146617626
 30
0.0
  0
VERTEX
  5
3A1
330
38E
100
AcDbEntity
  8
0
 62
   250
370
    25
100
AcDbVertex
100
AcDb2dVertex
 10
155.2033204645775
 20
716.6536378300777
 30
0.0
  0
VERTEX
  5
3A2
330
38E
100
AcDbEntity
  8
0
 62
   250
370
    25
100
AcDbVertex
100
AcDb2dVertex
 10
155.2216304875865
 20
716.60411795895
 30
0.0
  0
VERTEX
  5
3A3
330
38E
100
AcDbEntity
  8
0
 62
   250
370
    25
100
AcDbVertex
100
AcDb2dVertex
 10
155.227758347375
 20
716.5545861739673
 30
0.0
  0
SEQEND
  5
3A4
330
38E
100
AcDbEntity
  8
0
 62
   250
370
    25
  0
ENDBLK
  5
38D
330
38A
100
AcDbEntity
  8
0
100
AcDbBlockEnd
  0
BLOCK
  5
3A7
330
3A5
100
AcDbEntity
  8
0
100
AcDbBlockBegin
  2
block 96
 70
     0
 10
0.0
 20
0.0
 30
0.0
  3
block 96
  1

  0
POLYLINE
  5
3A9
330
3A5
100
AcDbEntity
  8
0
 62
   250
370
    25
100
AcDb2dPolyline
 66
     1
 10
0.0
 20
0.0
 30
0.0
  0
VERTEX
  5
3AA
330
3A9
100
AcDbEntity
  8
0
 62
   250
370
    25
100
AcDbVertex
100
AcDb2dVertex
 10
155.227758347375
 20
716.5545861739673
 30
0.0
  0
VERTEX
  5
3AB
330
3A9
100
AcDbEntity
  8
0
 62
   250
370
    25
100
AcDbVertex
100
AcDb2dVertex
 10
155.2216070987987
 20
716.5051500115296
 30
0.0
  0
VERTEX
  5
3AC
330
3A9
100
AcDbEntity
  8
0
 62
   250
370
    25
100
AcDbVertex
100
AcDb2dVertex
 10
155.2032097700815
 20
716.4561931360745
 30
0.0
  0
VERTEX
  5
3AD
330
3A9
100
AcDbEntity
  8
0
 62
   250
370
    25
100
AcDbVertex
100
AcDb2dVertex
 10
155.1727579324888
 20
716.407942945284
 30
0.0
  0
VERTEX
  5
3AE
330
3A9
100
AcDbEntity
  8
0
 62
   250
370
    25
100
AcDbVertex
100
AcDb2dVertex
 10
155.1305522250238
 20
716.3606083450763
 30
0.0
  0
VERTEX
  5
3AF
330
3A9
100
AcDbEntity
  8
0
 62
   250
370
    25
100
AcDbVertex
100
AcDb2dVertex
 10
155.0769865466847
 20
716.3143790201667
 30
0.0
  0
VERTEX
  5
3B0
330
3A9
100
AcDbEntity
  8
0
 62
   250
370
    25
100
AcDbVertex
100
AcDb2dVertex
 10
155.0125322485429
 20
716.2694247046675
 30
0.0
  0
VERTEX
  5
3B1
330
3A9
100
AcDbEntity
  8
0
 62
   250
370
    25
100
AcDbVertex
100
AcDb2dVertex
 10
154.937722326013
 20
716.2258944528357
 30
0.0
  0
VERTEX
  5
3B2
330
3A9
100
AcDbEntity
  8
0
 62
   250
370
    25
100
AcDbVertex
100
AcDb2dVertex
 10
154.8531356109694
 20
716.1839159095131
 30
0.0
  0
VERTEX
  5
3B3
330
3A9
100
AcDbEntity
  8
0
 62
   250
370
    25
100
AcDbVertex
100
AcDb2dVertex
 10
154.7593809639394
 20
716.1435945808788
 30
0.0
  0
VERTEX
  5
3B4
330
3A9
100
AcDbEntity
  8
0
 62
   250
370
    25
100
AcDbVertex
100
AcDb2dVertex
 10
154.6570732178078
 20
716.1050111985504
 30
0.0
  0
VERTEX
  5
3B5
330
3A9
100
AcDbEntity
  8
0
 62
   250
370
    25
100
AcDbVertex
100
AcDb2dVertex
 10
154.4290661587372
 20
716.0332477369418
 30
0.0
  0
VERTEX
  5
3B6
330
3A9
100
AcDbEntity
  8
0
 62
   250
370
    25
100
AcDbVertex
100
AcDb2dVertex
 10
154.1735420914582
 20
715.9688944753533
 30
0.0
  0
VERTEX
  5
3B7
330
3A9
100
AcDbEntity
  8
0
 62
   250
370
    25
100
AcDbVertex
100
AcDb2dVertex
 10
153.89479389562
 20
715.9120943796144
 30
0.0
  0
VERTEX
  5
3B8
330
3A9
100
AcDbEntity
  8
0
 62
   250
370
    25
100
AcDbVertex
100
AcDb2dVertex
 10
153.5968867760654
 20
715.8628885137599
 30
0.0
  0
VERTEX
  5
3B9
330
3A9
100
AcDbEntity
  8
0
 62
   250
370
    25
100
AcDbVertex
100
AcDb2dVertex
 10
153.2835489985921
 20
715.8212348492493
 30
0.0
  0
VERTEX
  5
3BA
330
3A9
100
AcDbEntity
  8
0
 62
   250
370
    25
100
AcDbVertex
100
AcDb2dVertex
 10
152.9580626255217
 20
715.7870270739354
 30
0.0
  0
VERTEX
  5
3BB
330
3A9
100
AcDbEntity
  8
0
 62
   250
370
    25
100
AcDbVertex
100
AcDb2dVertex
 10
152.623154251435
 20
715.7601134012449
 30
0.0
  0
VERTEX
  5
3BC
330
3A9
100
AcDbEntity
  8
0
 62
   250
370
    25
100
AcDbVertex
100
AcDb2dVertex
 10
152.2808939749992
 20
715.7403162621578
 30
0.0
  0
VERTEX
  5
3BD
330
3A9
100
AcDbEntity
  8
0
 62
   250
370
    25
100
AcDbVertex
100
AcDb2dVertex
 10
151.9329978474603
 20
715.7274861431911
 30
0.0
  0
VERTEX
  5
3BE
330
3A9
100
AcDbEntity
  8
0
 62
   250
370
    25
100
AcDbVertex
100
AcDb2dVertex
 10
151.2277752153453
 20
715.7224154316576
 30
0.0
  0
SEQEND
  5
3BF
330
3A9
100
AcDbEntity
  8
0
 62
   250
370
    25
  0
ENDBLK
  5
3A8
330
3A5
100
AcDbEntity
  8
0
100
AcDbBlockEnd
  0
BLOCK
  5
3C2
330
3C0
100
AcDbEntity
  8
0
100
AcDbBlockBegin
  2
block 97
 70
     0
 10
0.0
 20
0.0
 30
0.0
  3
block 97
  1

  0
SPLINE
  5
3C4
330
3C0
100
AcDbEntity
  8
0
 62
   250
370
    25
100
AcDbSpline
210
0.0
220
0.0
230
1.0
 70
     8
 71
     3
 72
     8
 73
     4
 74
     0
 42
0.0000000001
 43
0.0000000001
 12
1.0
 22
0.0
 32
0.0
 13
1.0
 23
0.0
 33
0.0
 40
0.0
 40
0.0
 40
0.0
 40
0.0
 40
1.0
 40
1.0
 40
1.0
 40
1.0
 10
151.2277829241144
 20
717.5108321200183
 30
0.0
 10
120.5623022347159
 20
717.87401054272
 30
0.0
 10
89.893583069851
 20
717.8718620414694
 30
0.0
 10
59.22815356646161
 20
717.5043870735602
 30
0.0
  0
ENDBLK
  5
3C3
330
3C0
100
AcDbEntity
  8
0
100
AcDbBlockEnd
  0
BLOCK
  5
3C7
330
3C5
100
AcDbEntity
  8
0
100
AcDbBlockBegin
  2
block 98
 70
     0
 10
0.0
 20
0.0
 30
0.0
  3
block 98
  1

  0
POLYLINE
  5
3C9
330
3C5
100
AcDbEntity
  8
0
 62
   250
370
    25
100
AcDb2dPolyline
 66
     1
 10
0.0
 20
0.0
 30
0.0
  0
VERTEX
  5
3CA
330
3C9
100
AcDbEntity
  8
0
 62
   250
370
    25
100
AcDbVertex
100
AcDb2dVertex
 10
59.22816315295756
 20
717.503587090623
 30
0.0
  0
VERTEX
  5
3CB
330
3C9
100
AcDbEntity
  8
0
 62
   250
370
    25
100
AcDbVertex
100
AcDb2dVertex
 10
58.51697027494149
 20
717.4802000204384
 30
0.0
  0
VERTEX
  5
3CC
330
3C9
100
AcDbEntity
  8
0
 62
   250
370
    25
100
AcDbVertex
100
AcDb2dVertex
 10
58.16674855630107
 20
717.4575808125413
 30
0.0
  0
VERTEX
  5
3CD
330
3C9
100
AcDbEntity
  8
0
 62
   250
370
    25
100
AcDbVertex
100
AcDb2dVertex
 10
57.82268449280613
 20
717.4276917215071
 30
0.0
  0
VERTEX
  5
3CE
330
3C9
100
AcDbEntity
  8
0
 62
   250
370
    25
100
AcDbVertex
100
AcDb2dVertex
 10
57.48693572395089
 20
717.390534591579
 30
0.0
  0
VERTEX
  5
3CF
330
3C9
100
AcDbEntity
  8
0
 62
   250
370
    25
100
AcDbVertex
100
AcDb2dVertex
 10
57.16187664895337
 20
717.3461199036786
 30
0.0
  0
VERTEX
  5
3D0
330
3C9
100
AcDbEntity
  8
0
 62
   250
370
    25
100
AcDbVertex
100
AcDb2dVertex
 10
56.85012788746645
 20
717.2944796923396
 30
0.0
  0
VERTEX
  5
3D1
330
3C9
100
AcDbEntity
  8
0
 62
   250
370
    25
100
AcDbVertex
100
AcDb2dVertex
 10
56.554585740417
 20
717.235680462737
 30
0.0
  0
VERTEX
  5
3D2
330
3C9
100
AcDbEntity
  8
0
 62
   250
370
    25
100
AcDbVertex
100
AcDb2dVertex
 10
56.27845165080669
 20
717.1698361077362
 30
0.0
  0
VERTEX
  5
3D3
330
3C9
100
AcDbEntity
  8
0
 62
   250
370
    25
100
AcDbVertex
100
AcDb2dVertex
 10
56.02526166455126
 20
717.0971208248577
 30
0.0
  0
VERTEX
  5
3D4
330
3C9
100
AcDbEntity
  8
0
 62
   250
370
    25
100
AcDbVertex
100
AcDb2dVertex
 10
55.79891152998655
 20
717.0177813055499
 30
0.0
  0
VERTEX
  5
3D5
330
3C9
100
AcDbEntity
  8
0
 62
   250
370
    25
100
AcDbVertex
100
AcDb2dVertex
 10
55.69713711729092
 20
716.9757409765175
 30
0.0
  0
VERTEX
  5
3D6
330
3C9
100
AcDbEntity
  8
0
 62
   250
370
    25
100
AcDbVertex
100
AcDb2dVertex
 10
55.60374755921834
 20
716.9322195045082
 30
0.0
  0
VERTEX
  5
3D7
330
3C9
100
AcDbEntity
  8
0
 62
   250
370
    25
100
AcDbVertex
100
AcDb2dVertex
 10
55.5193579810628
 20
716.8873188994817
 30
0.0
  0
VERTEX
  5
3D8
330
3C9
100
AcDbEntity
  8
0
 62
   250
370
    25
100
AcDbVertex
100
AcDb2dVertex
 10
55.44458442387413
 20
716.841162163253
 30
0.0
  0
VERTEX
  5
3D9
330
3C9
100
AcDbEntity
  8
0
 62
   250
370
    25
100
AcDbVertex
100
AcDb2dVertex
 10
55.38002671683049
 20
716.7938923870139
 30
0.0
  0
VERTEX
  5
3DA
330
3C9
100
AcDbEntity
  8
0
 62
   250
370
    25
100
AcDbVertex
100
AcDb2dVertex
 10
55.32625134958511
 20
716.7456718487061
 30
0.0
  0
VERTEX
  5
3DB
330
3C9
100
AcDbEntity
  8
0
 62
   250
370
    25
100
AcDbVertex
100
AcDb2dVertex
 10
55.28377434454889
 20
716.6966811107092
 30
0.0
  0
VERTEX
  5
3DC
330
3C9
100
AcDbEntity
  8
0
 62
   250
370
    25
100
AcDbVertex
100
AcDb2dVertex
 10
55.25304412931414
 20
716.6471181171494
 30
0.0
  0
VERTEX
  5
3DD
330
3C9
100
AcDbEntity
  8
0
 62
   250
370
    25
100
AcDbVertex
100
AcDb2dVertex
 10
55.23442437157753
 20
716.5971967244217
 30
0.0
  0
VERTEX
  5
3DE
330
3C9
100
AcDbEntity
  8
0
 62
   250
370
    25
100
AcDbVertex
100
AcDb2dVertex
 10
55.22818002135173
 20
716.5471419363693
 30
0.0
  0
SEQEND
  5
3DF
330
3C9
100
AcDbEntity
  8
0
 62
   250
370
    25
  0
ENDBLK
  5
3C8
330
3C5
100
AcDbEntity
  8
0
100
AcDbBlockEnd
  0
BLOCK
  5
3E2
330
3E0
100
AcDbEntity
  8
0
100
AcDbBlockBegin
  2
block 99
 70
     0
 10
0.0
 20
0.0
 30
0.0
  3
block 99
  1

  0
POLYLINE
  5
3E4
330
3E0
100
AcDbEntity
  8
0
 62
   250
370
    25
100
AcDb2dPolyline
 66
     1
 10
0.0
 20
0.0
 30
0.0
  0
VERTEX
  5
3E5
330
3E4
100
AcDbEntity
  8
0
 62
   250
370
    25
100
AcDbVertex
100
AcDb2dVertex
 10
55.22818002135173
 20
716.5471419363693
 30
0.0
  0
VERTEX
  5
3E6
330
3E4
100
AcDbEntity
  8
0
 62
   250
370
    25
100
AcDbVertex
100
AcDb2dVertex
 10
55.23421485631496
 20
716.4982148039148
 30
0.0
  0
VERTEX
  5
3E7
330
3E4
100
AcDbEntity
  8
0
 62
   250
370
    25
100
AcDbVertex
100
AcDb2dVertex
 10
55.25230003688728
 20
716.449642450881
 30
0.0
  0
VERTEX
  5
3E8
330
3E4
100
AcDbEntity
  8
0
 62
   250
370
    25
100
AcDbVertex
100
AcDb2dVertex
 10
55.28233117521648
 20
716.4016560494493
 30
0.0
  0
VERTEX
  5
3E9
330
3E4
100
AcDbEntity
  8
0
 62
   250
370
    25
100
AcDbVertex
100
AcDb2dVertex
 10
55.32408926930256
 20
716.3544718072645
 30
0.0
  0
VERTEX
  5
3EA
330
3E4
100
AcDbEntity
  8
0
 62
   250
370
    25
100
AcDbVertex
100
AcDb2dVertex
 10
55.3772536086435
 20
716.3082898578976
 30
0.0
  0
VERTEX
  5
3EB
330
3E4
100
AcDbEntity
  8
0
 62
   250
370
    25
100
AcDbVertex
100
AcDb2dVertex
 10
55.44141467995795
 20
716.2632931513427
 30
0.0
  0
VERTEX
  5
3EC
330
3E4
100
AcDbEntity
  8
0
 62
   250
370
    25
100
AcDbVertex
100
AcDb2dVertex
 10
55.51608707283103
 20
716.2196463445188
 30
0.0
  0
VERTEX
  5
3ED
330
3E4
100
AcDbEntity
  8
0
 62
   250
370
    25
100
AcDbVertex
100
AcDb2dVertex
 10
55.60072238541134
 20
716.1774946917338
 30
0.0
  0
VERTEX
  5
3EE
330
3E4
100
AcDbEntity
  8
0
 62
   250
370
    25
100
AcDbVertex
100
AcDb2dVertex
 10
55.69472213013376
 20
716.1369629351678
 30
0.0
  0
VERTEX
  5
3EF
330
3E4
100
AcDbEntity
  8
0
 62
   250
370
    25
100
AcDbVertex
100
AcDb2dVertex
 10
55.79746284341564
 20
716.0981511927627
 30
0.0
  0
VERTEX
  5
3F0
330
3E4
100
AcDbEntity
  8
0
 62
   250
370
    25
100
AcDbVertex
100
AcDb2dVertex
 10
56.02684841632818
 20
716.025931862272
 30
0.0
  0
VERTEX
  5
3F1
330
3E4
100
AcDbEntity
  8
0
 62
   250
370
    25
100
AcDbVertex
100
AcDb2dVertex
 10
56.28427999299967
 20
715.9611898018835
 30
0.0
  0
VERTEX
  5
3F2
330
3E4
100
AcDbEntity
  8
0
 62
   250
370
    25
100
AcDbVertex
100
AcDb2dVertex
 10
56.56519249581611
 20
715.9041214359041
 30
0.0
  0
VERTEX
  5
3F3
330
3E4
100
AcDbEntity
  8
0
 62
   250
370
    25
100
AcDbVertex
100
AcDb2dVertex
 10
56.86519360519922
 20
715.8547943631759
 30
0.0
  0
VERTEX
  5
3F4
330
3E4
100
AcDbEntity
  8
0
 62
   250
370
    25
100
AcDbVertex
100
AcDb2dVertex
 10
57.18022229561499
 20
715.8131688437392
 30
0.0
  0
VERTEX
  5
3F5
330
3E4
100
AcDbEntity
  8
0
 62
   250
370
    25
100
AcDbVertex
100
AcDb2dVertex
 10
57.50670737178763
 20
715.779119285304
 30
0.0
  0
VERTEX
  5
3F6
330
3E4
100
AcDbEntity
  8
0
 62
   250
370
    25
100
AcDbVertex
100
AcDb2dVertex
 10
57.84172600468244
 20
715.7524557298619
 30
0.0
  0
VERTEX
  5
3F7
330
3E4
100
AcDbEntity
  8
0
 62
   250
370
    25
100
AcDbVertex
100
AcDb2dVertex
 10
58.18315136988615
 20
715.7329464858851
 30
0.0
  0
VERTEX
  5
3F8
330
3E4
100
AcDbEntity
  8
0
 62
   250
370
    25
100
AcDbVertex
100
AcDb2dVertex
 10
58.52928118384444
 20
715.7203854298242
 30
0.0
  0
VERTEX
  5
3F9
330
3E4
100
AcDbEntity
  8
0
 62
   250
370
    25
100
AcDbVertex
100
AcDb2dVertex
 10
59.22816315295756
 20
715.7156008661638
 30
0.0
  0
SEQEND
  5
3FA
330
3E4
100
AcDbEntity
  8
0
 62
   250
370
    25
  0
ENDBLK
  5
3E3
330
3E0
100
AcDbEntity
  8
0
100
AcDbBlockEnd
  0
ENDSEC
  0
SECTION
  2
ENTITIES
  0
INSERT
  5
41
330
1F
100
AcDbEntity
  8
0
100
AcDbBlockReference
  2
block 2
 10
0.0
 20
0.0
 30
0.0
  0
INSERT
  5
46
330
1F
100
AcDbEntity
  8
0
100
AcDbBlockReference
  2
block 3
 10
0.0
 20
0.0
 30
0.0
  0
INSERT
  5
4B
330
1F
100
AcDbEntity
  8
0
100
AcDbBlockReference
  2
block 4
 10
0.0
 20
0.0
 30
0.0
  0
INSERT
  5
50
330
1F
100
AcDbEntity
  8
0
100
AcDbBlockReference
  2
block 5
 10
0.0
 20
0.0
 30
0.0
  0
INSERT
  5
55
330
1F
100
AcDbEntity
  8
0
100
AcDbBlockReference
  2
block 6
 10
0.0
 20
0.0
 30
0.0
  0
INSERT
  5
5A
330
1F
100
AcDbEntity
  8
0
100
AcDbBlockReference
  2
block 7
 10
0.0
 20
0.0
 30
0.0
  0
INSERT
  5
5F
330
1F
100
AcDbEntity
  8
0
100
AcDbBlockReference
  2
block 8
 10
0.0
 20
0.0
 30
0.0
  0
INSERT
  5
7E
330
1F
100
AcDbEntity
  8
0
100
AcDbBlockReference
  2
block 9
 10
0.0
 20
0.0
 30
0.0
  0
INSERT
  5
8F
330
1F
100
AcDbEntity
  8
0
100
AcDbBlockReference
  2
block 10
 10
0.0
 20
0.0
 30
0.0
  0
INSERT
  5
B2
330
1F
100
AcDbEntity
  8
0
100
AcDbBlockReference
  2
block 11
 10
0.0
 20
0.0
 30
0.0
  0
INSERT
  5
C9
330
1F
100
AcDbEntity
  8
0
100
AcDbBlockReference
  2
block 12
 10
0.0
 20
0.0
 30
0.0
  0
INSERT
  5
D9
330
1F
100
AcDbEntity
  8
0
100
AcDbBlockReference
  2
block 13
 10
0.0
 20
0.0
 30
0.0
  0
INSERT
  5
E0
330
1F
100
AcDbEntity
  8
0
100
AcDbBlockReference
  2
block 14
 10
0.0
 20
0.0
 30
0.0
  0
INSERT
  5
E7
330
1F
100
AcDbEntity
  8
0
100
AcDbBlockReference
  2
block 15
 10
0.0
 20
0.0
 30
0.0
  0
INSERT
  5
EE
330
1F
100
AcDbEntity
  8
0
100
AcDbBlockReference
  2
block 16
 10
0.0
 20
0.0
 30
0.0
  0
INSERT
  5
F5
330
1F
100
AcDbEntity
  8
0
100
AcDbBlockReference
  2
block 17
 10
0.0
 20
0.0
 30
0.0
  0
INSERT
  5
FC
330
1F
100
AcDbEntity
  8
0
100
AcDbBlockReference
  2
block 18
 10
0.0
 20
0.0
 30
0.0
  0
INSERT
  5
10D
330
1F
100
AcDbEntity
  8
0
100
AcDbBlockReference
  2
block 19
 10
0.0
 20
0.0
 30
0.0
  0
INSERT
  5
136
330
1F
100
AcDbEntity
  8
0
100
AcDbBlockReference
  2
block 20
 10
0.0
 20
0.0
 30
0.0
  0
INSERT
  5
15F
330
1F
100
AcDbEntity
  8
0
100
AcDbBlockReference
  2
block 21
 10
0.0
 20
0.0
 30
0.0
  0
INSERT
  5
170
330
1F
100
AcDbEntity
  8
0
100
AcDbBlockReference
  2
block 22
 10
0.0
 20
0.0
 30
0.0
  0
INSERT
  5
181
330
1F
100
AcDbEntity
  8
0
100
AcDbBlockReference
  2
block 23
 10
0.0
 20
0.0
 30
0.0
  0
INSERT
  5
19D
330
1F
100
AcDbEntity
  8
0
100
AcDbBlockReference
  2
block 24
 10
0.0
 20
0.0
 30
0.0
  0
INSERT
  5
1A3
330
1F
100
AcDbEntity
  8
0
100
AcDbBlockReference
  2
block 25
 10
0.0
 20
0.0
 30
0.0
  0
INSERT
  5
1B8
330
1F
100
AcDbEntity
  8
0
100
AcDbBlockReference
  2
block 26
 10
0.0
 20
0.0
 30
0.0
  0
INSERT
  5
1C9
330
1F
100
AcDbEntity
  8
0
100
AcDbBlockReference
  2
block 27
 10
0.0
 20
0.0
 30
0.0
  0
INSERT
  5
1CF
330
1F
100
AcDbEntity
  8
0
100
AcDbBlockReference
  2
block 28
 10
0.0
 20
0.0
 30
0.0
  0
INSERT
  5
1D4
330
1F
100
AcDbEntity
  8
0
100
AcDbBlockReference
  2
block 29
 10
0.0
 20
0.0
 30
0.0
  0
INSERT
  5
1E5
330
1F
100
AcDbEntity
  8
0
100
AcDbBlockReference
  2
block 30
 10
0.0
 20
0.0
 30
0.0
  0
INSERT
  5
1FA
330
1F
100
AcDbEntity
  8
0
100
AcDbBlockReference
  2
block 31
 10
0.0
 20
0.0
 30
0.0
  0
INSERT
  5
200
330
1F
100
AcDbEntity
  8
0
100
AcDbBlockReference
  2
block 32
 10
0.0
 20
0.0
 30
0.0
  0
INSERT
  5
21B
330
1F
100
AcDbEntity
  8
0
100
AcDbBlockReference
  2
block 33
 10
0.0
 20
0.0
 30
0.0
  0
INSERT
  5
22C
330
1F
100
AcDbEntity
  8
0
100
AcDbBlockReference
  2
block 34
 10
0.0
 20
0.0
 30
0.0
  0
INSERT
  5
231
330
1F
100
AcDbEntity
  8
0
100
AcDbBlockReference
  2
block 35
 10
0.0
 20
0.0
 30
0.0
  0
INSERT
  5
236
330
1F
100
AcDbEntity
  8
0
100
AcDbBlockReference
  2
block 36
 10
0.0
 20
0.0
 30
0.0
  0
INSERT
  5
23B
330
1F
100
AcDbEntity
  8
0
100
AcDbBlockReference
  2
block 37
 10
0.0
 20
0.0
 30
0.0
  0
INSERT
  5
240
330
1F
100
AcDbEntity
  8
0
100
AcDbBlockReference
  2
block 38
 10
0.0
 20
0.0
 30
0.0
  0
INSERT
  5
245
330
1F
100
AcDbEntity
  8
0
100
AcDbBlockReference
  2
block 39
 10
0.0
 20
0.0
 30
0.0
  0
INSERT
  5
24A
330
1F
100
AcDbEntity
  8
0
100
AcDbBlockReference
  2
block 40
 10
0.0
 20
0.0
 30
0.0
  0
INSERT
  5
268
330
1F
100
AcDbEntity
  8
0
100
AcDbBlockReference
  2
block 43
 10
0.0
 20
0.0
 30
0.0
  0
INSERT
  5
286
330
1F
100
AcDbEntity
  8
0
100
AcDbBlockReference
  2
block 46
 10
0.0
 20
0.0
 30
0.0
  0
INSERT
  5
28B
330
1F
100
AcDbEntity
  8
0
100
AcDbBlockReference
  2
block 47
 10
0.0
 20
0.0
 30
0.0
  0
INSERT
  5
291
330
1F
100
AcDbEntity
  8
0
100
AcDbBlockReference
  2
block 48
 10
0.0
 20
0.0
 30
0.0
  0
INSERT
  5
296
330
1F
100
AcDbEntity
  8
0
100
AcDbBlockReference
  2
block 49
 10
0.0
 20
0.0
 30
0.0
  0
INSERT
  5
29B
330
1F
100
AcDbEntity
  8
0
100
AcDbBlockReference
  2
block 50
 10
0.0
 20
0.0
 30
0.0
  0
INSERT
  5
2A1
330
1F
100
AcDbEntity
  8
0
100
AcDbBlockReference
  2
block 51
 10
0.0
 20
0.0
 30
0.0
  0
INSERT
  5
2A6
330
1F
100
AcDbEntity
  8
0
100
AcDbBlockReference
  2
block 52
 10
0.0
 20
0.0
 30
0.0
  0
INSERT
  5
2AB
330
1F
100
AcDbEntity
  8
0
100
AcDbBlockReference
  2
block 53
 10
0.0
 20
0.0
 30
0.0
  0
INSERT
  5
2B1
330
1F
100
AcDbEntity
  8
0
100
AcDbBlockReference
  2
block 54
 10
0.0
 20
0.0
 30
0.0
  0
INSERT
  5
2B6
330
1F
100
AcDbEntity
  8
0
100
AcDbBlockReference
  2
block 55
 10
0.0
 20
0.0
 30
0.0
  0
INSERT
  5
2BB
330
1F
100
AcDbEntity
  8
0
100
AcDbBlockReference
  2
block 56
 10
0.0
 20
0.0
 30
0.0
  0
INSERT
  5
2C1
330
1F
100
AcDbEntity
  8
0
100
AcDbBlockReference
  2
block 57
 10
0.0
 20
0.0
 30
0.0
  0
INSERT
  5
2C6
330
1F
100
AcDbEntity
  8
0
100
AcDbBlockReference
  2
block 58
 10
0.0
 20
0.0
 30
0.0
  0
INSERT
  5
2CB
330
1F
100
AcDbEntity
  8
0
100
AcDbBlockReference
  2
block 59
 10
0.0
 20
0.0
 30
0.0
  0
INSERT
  5
2D1
330
1F
100
AcDbEntity
  8
0
100
AcDbBlockReference
  2
block 60
 10
0.0
 20
0.0
 30
0.0
  0
INSERT
  5
2D6
330
1F
100
AcDbEntity
  8
0
100
AcDbBlockReference
  2
block 61
 10
0.0
 20
0.0
 30
0.0
  0
INSERT
  5
2DB
330
1F
100
AcDbEntity
  8
0
100
AcDbBlockReference
  2
block 62
 10
0.0
 20
0.0
 30
0.0
  0
INSERT
  5
2E1
330
1F
100
AcDbEntity
  8
0
100
AcDbBlockReference
  2
block 63
 10
0.0
 20
0.0
 30
0.0
  0
INSERT
  5
2E6
330
1F
100
AcDbEntity
  8
0
100
AcDbBlockReference
  2
block 64
 10
0.0
 20
0.0
 30
0.0
  0
INSERT
  5
2EB
330
1F
100
AcDbEntity
  8
0
100
AcDbBlockReference
  2
block 65
 10
0.0
 20
0.0
 30
0.0
  0
INSERT
  5
2F1
330
1F
100
AcDbEntity
  8
0
100
AcDbBlockReference
  2
block 66
 10
0.0
 20
0.0
 30
0.0
  0
INSERT
  5
2F6
330
1F
100
AcDbEntity
  8
0
100
AcDbBlockReference
  2
block 67
 10
0.0
 20
0.0
 30
0.0
  0
INSERT
  5
2FB
330
1F
100
AcDbEntity
  8
0
100
AcDbBlockReference
  2
block 68
 10
0.0
 20
0.0
 30
0.0
  0
INSERT
  5
301
330
1F
100
AcDbEntity
  8
0
100
AcDbBlockReference
  2
block 69
 10
0.0
 20
0.0
 30
0.0
  0
INSERT
  5
306
330
1F
100
AcDbEntity
  8
0
100
AcDbBlockReference
  2
block 70
 10
0.0
 20
0.0
 30
0.0
  0
INSERT
  5
30B
330
1F
100
AcDbEntity
  8
0
100
AcDbBlockReference
  2
block 71
 10
0.0
 20
0.0
 30
0.0
  0
INSERT
  5
311
330
1F
100
AcDbEntity
  8
0
100
AcDbBlockReference
  2
block 72
 10
0.0
 20
0.0
 30
0.0
  0
INSERT
  5
316
330
1F
100
AcDbEntity
  8
0
100
AcDbBlockReference
  2
block 73
 10
0.0
 20
0.0
 30
0.0
  0
INSERT
  5
31B
330
1F
100
AcDbEntity
  8
0
100
AcDbBlockReference
  2
block 74
 10
0.0
 20
0.0
 30
0.0
  0
INSERT
  5
321
330
1F
100
AcDbEntity
  8
0
100
AcDbBlockReference
  2
block 75
 10
0.0
 20
0.0
 30
0.0
  0
INSERT
  5
326
330
1F
100
AcDbEntity
  8
0
100
AcDbBlockReference
  2
block 76
 10
0.0
 20
0.0
 30
0.0
  0
INSERT
  5
32B
330
1F
100
AcDbEntity
  8
0
100
AcDbBlockReference
  2
block 77
 10
0.0
 20
0.0
 30
0.0
  0
INSERT
  5
331
330
1F
100
AcDbEntity
  8
0
100
AcDbBlockReference
  2
block 78
 10
0.0
 20
0.0
 30
0.0
  0
INSERT
  5
336
330
1F
100
AcDbEntity
  8
0
100
AcDbBlockReference
  2
block 79
 10
0.0
 20
0.0
 30
0.0
  0
INSERT
  5
33B
330
1F
100
AcDbEntity
  8
0
100
AcDbBlockReference
  2
block 80
 10
0.0
 20
0.0
 30
0.0
  0
INSERT
  5
341
330
1F
100
AcDbEntity
  8
0
100
AcDbBlockReference
  2
block 81
 10
0.0
 20
0.0
 30
0.0
  0
INSERT
  5
346
330
1F
100
AcDbEntity
  8
0
100
AcDbBlockReference
  2
block 82
 10
0.0
 20
0.0
 30
0.0
  0
INSERT
  5
34B
330
1F
100
AcDbEntity
  8
0
100
AcDbBlockReference
  2
block 83
 10
0.0
 20
0.0
 30
0.0
  0
INSERT
  5
351
330
1F
100
AcDbEntity
  8
0
100
AcDbBlockReference
  2
block 84
 10
0.0
 20
0.0
 30
0.0
  0
INSERT
  5
356
330
1F
100
AcDbEntity
  8
0
100
AcDbBlockReference
  2
block 85
 10
0.0
 20
0.0
 30
0.0
  0
INSERT
  5
35B
330
1F
100
AcDbEntity
  8
0
100
AcDbBlockReference
  2
block 86
 10
0.0
 20
0.0
 30
0.0
  0
INSERT
  5
361
330
1F
100
AcDbEntity
  8
0
100
AcDbBlockReference
  2
block 87
 10
0.0
 20
0.0
 30
0.0
  0
INSERT
  5
366
330
1F
100
AcDbEntity
  8
0
100
AcDbBlockReference
  2
block 88
 10
0.0
 20
0.0
 30
0.0
  0
INSERT
  5
36B
330
1F
100
AcDbEntity
  8
0
100
AcDbBlockReference
  2
block 89
 10
0.0
 20
0.0
 30
0.0
  0
INSERT
  5
371
330
1F
100
AcDbEntity
  8
0
100
AcDbBlockReference
  2
block 90
 10
0.0
 20
0.0
 30
0.0
  0
INSERT
  5
376
330
1F
100
AcDbEntity
  8
0
100
AcDbBlockReference
  2
block 91
 10
0.0
 20
0.0
 30
0.0
  0
INSERT
  5
37B
330
1F
100
AcDbEntity
  8
0
100
AcDbBlockReference
  2
block 92
 10
0.0
 20
0.0
 30
0.0
  0
INSERT
  5
381
330
1F
100
AcDbEntity
  8
0
100
AcDbBlockReference
  2
block 93
 10
0.0
 20
0.0
 30
0.0
  0
INSERT
  5
386
330
1F
100
AcDbEntity
  8
0
100
AcDbBlockReference
  2
block 94
 10
0.0
 20
0.0
 30
0.0
  0
INSERT
  5
38B
330
1F
100
AcDbEntity
  8
0
100
AcDbBlockReference
  2
block 95
 10
0.0
 20
0.0
 30
0.0
  0
INSERT
  5
3A6
330
1F
100
AcDbEntity
  8
0
100
AcDbBlockReference
  2
block 96
 10
0.0
 20
0.0
 30
0.0
  0
INSERT
  5
3C1
330
1F
100
AcDbEntity
  8
0
100
AcDbBlockReference
  2
block 97
 10
0.0
 20
0.0
 30
0.0
  0
INSERT
  5
3C6
330
1F
100
AcDbEntity
  8
0
100
AcDbBlockReference
  2
block 98
 10
0.0
 20
0.0
 30
0.0
  0
INSERT
  5
3E1
330
1F
100
AcDbEntity
  8
0
100
AcDbBlockReference
  2
block 99
 10
0.0
 20
0.0
 30
0.0
  0
ENDSEC
  0
SECTION
  2
OBJECTS
  0
DICTIONARY
  5
C
330
0
100
AcDbDictionary
281
     1
  3
ACAD_GROUP
350
D
  3
ACAD_LAYOUT
350
1A
  3
ACAD_MATERIAL
350
3B
  3
ACAD_MLEADERSTYLE
350
421
  3
ACAD_MLINESTYLE
350
17
  3
ACAD_PLOTSETTINGS
350
19
  3
ACAD_PLOTSTYLENAME
350
E
  3
ACAD_TABLESTYLE
350
420
  3
ACAD_VISUALSTYLE
350
2A
  0
SUN
  5
3F
330
29
100
AcDbSun
 90
        1
290
     0
 63
     7
421
 16777215
 40
1.0
291
     1
 91
  2455826
 92
 54000000
292
     0
 70
     2
 71
   256
280
     1
  0
DICTIONARY
  5
D
102
{ACAD_REACTORS
330
C
102
}
330
C
100
AcDbDictionary
281
     1
  0
DICTIONARY
  5
1A
102
{ACAD_REACTORS
330
C
102
}
330
C
100
AcDbDictionary
281
     1
  3
Layout1
350
1E
  3
Layout2
350
26
  3
Model
350
22
  0
DICTIONARY
  5
3B
102
{ACAD_REACTORS
330
C
102
}
330
C
100
AcDbDictionary
281
     1
  3
ByBlock
350
3D
  3
ByLayer
350
3C
  3
Global
350
3E
  0
DICTIONARY
  5
421
102
{ACAD_REACTORS
330
C
102
}
330
C
100
AcDbDictionary
281
     1
  0
DICTIONARY
  5
17
102
{ACAD_REACTORS
330
C
102
}
330
C
100
AcDbDictionary
281
     1
  3
Standard
350
18
  0
DICTIONARY
  5
19
102
{ACAD_REACTORS
330
C
102
}
330
C
100
AcDbDictionary
281
     1
  0
ACDBDICTIONARYWDFLT
  5
E
102
{ACAD_REACTORS
330
C
102
}
330
C
100
AcDbDictionary
281
     1
  3
Normal
350
F
100
AcDbDictionaryWithDefault
340
F
  0
DICTIONARY
  5
420
102
{ACAD_REACTORS
330
C
102
}
330
C
100
AcDbDictionary
281
     1
  0
DICTIONARY
  5
2A
102
{ACAD_REACTORS
330
C
102
}
330
C
100
AcDbDictionary
281
     1
  3
2dWireframe
350
2F
  3
3D Hidden
350
31
  3
3dWireframe
350
30
  3
Basic
350
32
  3
Brighten
350
36
  3
ColorChange
350
3A
  3
Conceptual
350
34
  3
Dim
350
35
  3
Facepattern
350
39
  3
Flat
350
2B
  3
FlatWithEdges
350
2C
  3
Gouraud
350
2D
  3
GouraudWithEdges
350
2E
  3
Linepattern
350
38
  3
Realistic
350
33
  3
Thicken
350
37
  0
LAYOUT
  5
1E
102
{ACAD_REACTORS
330
1A
102
}
330
1A
100
AcDbPlotSettings
  1

  2
none_device
  4

  6

 40
0.0
 41
0.0
 42
0.0
 43
0.0
 44
0.0
 45
0.0
 46
0.0
 47
0.0
 48
0.0
 49
0.0
140
0.0
141
0.0
142
1.0
143
1.0
 70
   688
 72
     0
 73
     0
 74
     5
  7

 75
    16
 76
     0
 77
     2
 78
   300
147
1.0
148
0.0
149
0.0
100
AcDbLayout
  1
Layout1
 70
     1
 71
     1
 10
0.0
 20
0.0
 11
12.0
 21
9.0
 12
0.0
 22
0.0
 32
0.0
 14
1.000000000000000E+20
 24
1.000000000000000E+20
 34
1.000000000000000E+20
 15
-1.000000000000000E+20
 25
-1.000000000000000E+20
 35
-1.000000000000000E+20
146
0.0
 13
0.0
 23
0.0
 33
0.0
 16
1.0
 26
0.0
 36
0.0
 17
0.0
 27
1.0
 37
0.0
 76
     0
330
1B
  0
LAYOUT
  5
26
102
{ACAD_REACTORS
330
1A
102
}
330
1A
100
AcDbPlotSettings
  1

  2
none_device
  4

  6

 40
0.0
 41
0.0
 42
0.0
 43
0.0
 44
0.0
 45
0.0
 46
0.0
 47
0.0
 48
0.0
 49
0.0
140
0.0
141
0.0
142
1.0
143
1.0
 70
   688
 72
     0
 73
     0
 74
     5
  7

 75
    16
 76
     0
 77
     2
 78
   300
147
1.0
148
0.0
149
0.0
100
AcDbLayout
  1
Layout2
 70
     1
 71
     2
 10
0.0
 20
0.0
 11
0.0
 21
0.0
 12
0.0
 22
0.0
 32
0.0
 14
0.0
 24
0.0
 34
0.0
 15
0.0
 25
0.0
 35
0.0
146
0.0
 13
0.0
 23
0.0
 33
0.0
 16
1.0
 26
0.0
 36
0.0
 17
0.0
 27
1.0
 37
0.0
 76
     0
330
23
  0
LAYOUT
  5
22
102
{ACAD_REACTORS
330
1A
102
}
330
1A
100
AcDbPlotSettings
  1

  2
none_device
  4

  6

 40
0.0
 41
0.0
 42
0.0
 43
0.0
 44
0.0
 45
0.0
 46
0.0
 47
0.0
 48
0.0
 49
0.0
140
0.0
141
0.0
142
1.0
143
1.0
 70
  1712
 72
     0
 73
     0
 74
     0
  7

 75
     0
 76
     0
 77
     2
 78
   300
147
1.0
148
0.0
149
0.0
100
AcDbLayout
  1
Model
 70
     1
 71
     0
 10
0.0
 20
0.0
 11
12.0
 21
9.0
 12
0.0
 22
0.0
 32
0.0
 14
1.000000000000000E+20
 24
1.000000000000000E+20
 34
1.000000000000000E+20
 15
-1.000000000000000E+20
 25
-1.000000000000000E+20
 35
-1.000000000000000E+20
146
0.0
 13
0.0
 23
0.0
 33
0.0
 16
1.0
 26
0.0
 36
0.0
 17
0.0
 27
1.0
 37
0.0
 76
     0
330
1F
331
29
  0
MATERIAL
  5
3D
102
{ACAD_REACTORS
330
3B
102
}
330
3B
100
AcDbMaterial
  1
ByBlock
 72
     1
 94
      127
  0
MATERIAL
  5
3C
102
{ACAD_REACTORS
330
3B
102
}
330
3B
100
AcDbMaterial
  1
ByLayer
 72
     1
 94
      127
  0
MATERIAL
  5
3E
102
{ACAD_REACTORS
330
3B
102
}
330
3B
100
AcDbMaterial
  1
Global
 72
     1
 94
      127
  0
MLINESTYLE
  5
18
102
{ACAD_REACTORS
330
17
102
}
330
17
100
AcDbMlineStyle
  2
Standard
 70
     0
  3

 62
   256
 51
90.0
 52
90.0
 71
     2
 49
0.5
 62
   256
  6
BYLAYER
 49
-0.5
 62
   256
  6
BYLAYER
  0
ACDBPLACEHOLDER
  5
F
102
{ACAD_REACTORS
330
E
102
}
330
E
  0
VISUALSTYLE
  5
2F
102
{ACAD_REACTORS
330
2A
102
}
102
{ACAD_XDICTIONARY
360
408
102
}
330
2A
100
AcDbVisualStyle
  2
2dWireframe
 70
     4
 71
     0
 72
     2
 73
     0
 90
        0
 40
-0.6
 41
-30.0
 62
     5
 63
     7
421
 16777215
 74
     1
 91
        4
 64
     7
 65
   257
 75
     1
175
     1
 42
1.0
 92
        0
 66
   257
 43
1.0
 76
     1
 77
     6
 78
     2
 67
     7
 79
     5
170
     0
171
     0
290
     0
174
     0
 93
        1
 44
0.0
173
     0
291
     0
 45
0.0
  0
VISUALSTYLE
  5
31
102
{ACAD_REACTORS
330
2A
102
}
102
{ACAD_XDICTIONARY
360
40C
102
}
330
2A
100
AcDbVisualStyle
  2
3D Hidden
 70
     6
 71
     1
 72
     2
 73
     2
 90
        0
 40
-0.6
 41
-30.0
 62
     5
 63
     7
421
 16777215
 74
     2
 91
        2
 64
     7
 65
   257
 75
     2
175
     1
 42
40.0
 92
        0
 66
   257
 43
1.0
 76
     1
 77
     6
 78
     2
 67
     7
 79
     3
170
     0
171
     0
290
     0
174
     0
 93
        1
 44
0.0
173
     0
291
     0
 45
0.0
  0
VISUALSTYLE
  5
30
102
{ACAD_REACTORS
330
2A
102
}
102
{ACAD_XDICTIONARY
360
40A
102
}
330
2A
100
AcDbVisualStyle
  2
3dWireframe
 70
     5
 71
     0
 72
     2
 73
     0
 90
        0
 40
-0.6
 41
-30.0
 62
     5
 63
     7
421
 16777215
 74
     1
 91
        4
 64
     7
 65
   257
 75
     1
175
     1
 42
1.0
 92
        0
 66
   257
 43
1.0
 76
     1
 77
     6
 78
     2
 67
     7
 79
     5
170
     0
171
     0
290
     0
174
     0
 93
        1
 44
0.0
173
     0
291
     0
 45
0.0
  0
VISUALSTYLE
  5
32
102
{ACAD_REACTORS
330
2A
102
}
102
{ACAD_XDICTIONARY
360
40E
102
}
330
2A
100
AcDbVisualStyle
  2
Basic
 70
     7
 71
     1
 72
     0
 73
     1
 90
        0
 40
-0.6
 41
-30.0
 62
     5
 63
     7
421
 16777215
 74
     0
 91
        4
 64
     7
 65
   257
 75
     1
175
     1
 42
1.0
 92
        8
 66
     7
 43
1.0
 76
     1
 77
     6
 78
     2
 67
     7
 79
     5
170
     0
171
     0
290
     0
174
     0
 93
        1
 44
0.0
173
     0
291
     1
 45
0.0
  0
VISUALSTYLE
  5
36
102
{ACAD_REACTORS
330
2A
102
}
102
{ACAD_XDICTIONARY
360
416
102
}
330
2A
100
AcDbVisualStyle
  2
Brighten
 70
    12
 71
     2
 72
     2
 73
     0
 90
        0
 40
-0.6
 41
-30.0
 62
     5
 63
     7
421
 16777215
 74
     1
 91
        4
 64
     7
 65
   257
 75
     1
175
     1
 42
1.0
 92
        8
 66
     7
 43
1.0
 76
     1
 77
     6
 78
     2
 67
     7
 79
     5
170
     0
171
     0
290
     0
174
     0
 93
        1
 44
50.0
173
     0
291
     1
 45
0.0
  0
VISUALSTYLE
  5
3A
102
{ACAD_REACTORS
330
2A
102
}
102
{ACAD_XDICTIONARY
360
41E
102
}
330
2A
100
AcDbVisualStyle
  2
ColorChange
 70
    16
 71
     2
 72
     2
 73
     3
 90
        0
 40
-0.6
 41
-30.0
 62
     5
 63
     8
421
  8421504
 74
     1
 91
        4
 64
     7
 65
   257
 75
     1
175
     1
 42
1.0
 92
        8
 66
     8
424
  8421504
 43
1.0
 76
     1
 77
     6
 78
     2
 67
     7
 79
     5
170
     0
171
     0
290
     0
174
     0
 93
        1
 44
0.0
173
     0
291
     1
 45
0.0
  0
VISUALSTYLE
  5
34
102
{ACAD_REACTORS
330
2A
102
}
102
{ACAD_XDICTIONARY
360
412
102
}
330
2A
100
AcDbVisualStyle
  2
Conceptual
 70
     9
 71
     3
 72
     2
 73
     0
 90
        0
 40
-0.6
 41
-30.0
 62
     5
 63
     7
421
 16777215
 74
     2
 91
        2
 64
     7
 65
   257
 75
     1
175
     1
 42
40.0
 92
        8
 66
     7
 43
1.0
 76
     1
 77
     6
 78
     2
 67
     7
 79
     3
170
     0
171
     0
290
     0
174
     0
 93
        1
 44
0.0
173
     0
291
     0
 45
0.0
  0
VISUALSTYLE
  5
35
102
{ACAD_REACTORS
330
2A
102
}
102
{ACAD_XDICTIONARY
360
414
102
}
330
2A
100
AcDbVisualStyle
  2
Dim
 70
    11
 71
     2
 72
     2
 73
     0
 90
        0
 40
-0.6
 41
-30.0
 62
     5
 63
     7
421
 16777215
 74
     1
 91
        4
 64
     7
 65
   257
 75
     1
175
     1
 42
1.0
 92
        8
 66
     7
 43
1.0
 76
     1
 77
     6
 78
     2
 67
     7
 79
     5
170
     0
171
     0
290
     0
174
     0
 93
        1
 44
-50.0
173
     0
291
     1
 45
0.0
  0
VISUALSTYLE
  5
39
102
{ACAD_REACTORS
330
2A
102
}
102
{ACAD_XDICTIONARY
360
41C
102
}
330
2A
100
AcDbVisualStyle
  2
Facepattern
 70
    15
 71
     2
 72
     2
 73
     0
 90
        0
 40
-0.6
 41
-30.0
 62
     5
 63
     7
421
 16777215
 74
     1
 91
        4
 64
     7
 65
   257
 75
     1
175
     1
 42
1.0
 92
        8
 66
     7
 43
1.0
 76
     1
 77
     6
 78
     2
 67
     7
 79
     5
170
     0
171
     0
290
     0
174
     0
 93
        1
 44
0.0
173
     0
291
     1
 45
0.0
  0
VISUALSTYLE
  5
2B
102
{ACAD_REACTORS
330
2A
102
}
102
{ACAD_XDICTIONARY
360
400
102
}
330
2A
100
AcDbVisualStyle
  2
Flat
 70
     0
 71
     2
 72
     1
 73
     1
 90
        2
 40
-0.6
 41
30.0
 62
     5
 63
     7
421
 16777215
 74
     0
 91
        4
 64
     7
 65
   257
 75
     1
175
     1
 42
1.0
 92
        8
 66
     7
 43
1.0
 76
     1
 77
     6
 78
     2
 67
     7
 79
     5
170
     0
171
     0
290
     0
174
     0
 93
       13
 44
0.0
173
     0
291
     1
 45
0.0
  0
VISUALSTYLE
  5
2C
102
{ACAD_REACTORS
330
2A
102
}
102
{ACAD_XDICTIONARY
360
402
102
}
330
2A
100
AcDbVisualStyle
  2
FlatWithEdges
 70
     1
 71
     2
 72
     1
 73
     1
 90
        2
 40
-0.6
 41
30.0
 62
     5
 63
     7
421
 16777215
 74
     1
 91
        4
 64
     7
 65
   257
 75
     1
175
     1
 42
1.0
 92
        0
 66
   257
 43
1.0
 76
     1
 77
     6
 78
     2
 67
     7
 79
     5
170
     0
171
     0
290
     0
174
     0
 93
       13
 44
0.0
173
     0
291
     1
 45
0.0
  0
VISUALSTYLE
  5
2D
102
{ACAD_REACTORS
330
2A
102
}
102
{ACAD_XDICTIONARY
360
404
102
}
330
2A
100
AcDbVisualStyle
  2
Gouraud
 70
     2
 71
     2
 72
     2
 73
     1
 90
        2
 40
-0.6
 41
30.0
 62
     5
 63
     7
421
 16777215
 74
     0
 91
        4
 64
     7
 65
   257
 75
     1
175
     1
 42
1.0
 92
        0
 66
     7
 43
1.0
 76
     1
 77
     6
 78
     2
 67
     7
 79
     5
170
     0
171
     0
290
     0
174
     0
 93
       13
 44
0.0
173
     0
291
     1
 45
0.0
  0
VISUALSTYLE
  5
2E
102
{ACAD_REACTORS
330
2A
102
}
102
{ACAD_XDICTIONARY
360
406
102
}
330
2A
100
AcDbVisualStyle
  2
GouraudWithEdges
 70
     3
 71
     2
 72
     2
 73
     1
 90
        2
 40
-0.6
 41
30.0
 62
     5
 63
     7
421
 16777215
 74
     1
 91
        4
 64
     7
 65
   257
 75
     1
175
     1
 42
1.0
 92
        0
 66
   257
 43
1.0
 76
     1
 77
     6
 78
     2
 67
     7
 79
     5
170
     0
171
     0
290
     0
174
     0
 93
       13
 44
0.0
173
     0
291
     1
 45
0.0
  0
VISUALSTYLE
  5
38
102
{ACAD_REACTORS
330
2A
102
}
102
{ACAD_XDICTIONARY
360
41A
102
}
330
2A
100
AcDbVisualStyle
  2
Linepattern
 70
    14
 71
     2
 72
     2
 73
     0
 90
        0
 40
-0.6
 41
-30.0
 62
     5
 63
     7
421
 16777215
 74
     1
 91
        4
 64
     7
 65
   257
 75
     7
175
     7
 42
1.0
 92
        8
 66
     7
 43
1.0
 76
     1
 77
     6
 78
     2
 67
     7
 79
     5
170
     0
171
     0
290
     0
174
     0
 93
        1
 44
0.0
173
     0
291
     1
 45
0.0
  0
VISUALSTYLE
  5
33
102
{ACAD_REACTORS
330
2A
102
}
102
{ACAD_XDICTIONARY
360
410
102
}
330
2A
100
AcDbVisualStyle
  2
Realistic
 70
     8
 71
     2
 72
     2
 73
     0
 90
        0
 40
-0.6
 41
-30.0
 62
     5
 63
     7
421
 16777215
 74
     1
 91
        0
 64
     7
 65
   257
 75
     1
175
     1
 42
1.0
 92
        8
 66
     8
424
  7895160
 43
1.0
 76
     1
 77
     6
 78
     2
 67
     7
 79
     5
170
     0
171
     0
290
     0
174
     0
 93
       13
 44
0.0
173
     0
291
     0
 45
0.0
  0
VISUALSTYLE
  5
37
102
{ACAD_REACTORS
330
2A
102
}
102
{ACAD_XDICTIONARY
360
418
102
}
330
2A
100
AcDbVisualStyle
  2
Thicken
 70
    13
 71
     2
 72
     2
 73
     0
 90
        0
 40
-0.6
 41
-30.0
 62
     5
 63
     7
421
 16777215
 74
     1
 91
        4
 64
     7
 65
   257
 75
     1
175
     1
 42
1.0
 92
       12
 66
     7
 43
1.0
 76
     1
 77
     6
 78
     2
 67
     7
 79
     5
170
     0
171
     0
290
     0
174
     0
 93
        1
 44
0.0
173
     0
291
     1
 45
0.0
  0
DICTIONARY
  5
408
330
2F
100
AcDbDictionary
280
     1
281
     1
  3
ACAD_XREC_ROUNDTRIP
360
409
  0
DICTIONARY
  5
40C
330
31
100
AcDbDictionary
280
     1
281
     1
  3
ACAD_XREC_ROUNDTRIP
360
40D
  0
DICTIONARY
  5
40A
330
30
100
AcDbDictionary
280
     1
281
     1
  3
ACAD_XREC_ROUNDTRIP
360
40B
  0
DICTIONARY
  5
40E
330
32
100
AcDbDictionary
280
     1
281
     1
  3
ACAD_XREC_ROUNDTRIP
360
40F
  0
DICTIONARY
  5
416
330
36
100
AcDbDictionary
280
     1
281
     1
  3
ACAD_XREC_ROUNDTRIP
360
417
  0
DICTIONARY
  5
41E
330
3A
100
AcDbDictionary
280
     1
281
     1
  3
ACAD_XREC_ROUNDTRIP
360
41F
  0
DICTIONARY
  5
412
330
34
100
AcDbDictionary
280
     1
281
     1
  3
ACAD_XREC_ROUNDTRIP
360
413
  0
DICTIONARY
  5
414
330
35
100
AcDbDictionary
280
     1
281
     1
  3
ACAD_XREC_ROUNDTRIP
360
415
  0
DICTIONARY
  5
41C
330
39
100
AcDbDictionary
280
     1
281
     1
  3
ACAD_XREC_ROUNDTRIP
360
41D
  0
DICTIONARY
  5
400
330
2B
100
AcDbDictionary
280
     1
281
     1
  3
ACAD_XREC_ROUNDTRIP
360
401
  0
DICTIONARY
  5
402
330
2C
100
AcDbDictionary
280
     1
281
     1
  3
ACAD_XREC_ROUNDTRIP
360
403
  0
DICTIONARY
  5
404
330
2D
100
AcDbDictionary
280
     1
281
     1
  3
ACAD_XREC_ROUNDTRIP
360
405
  0
DICTIONARY
  5
406
330
2E
100
AcDbDictionary
280
     1
281
     1
  3
ACAD_XREC_ROUNDTRIP
360
407
  0
DICTIONARY
  5
41A
330
38
100
AcDbDictionary
280
     1
281
     1
  3
ACAD_XREC_ROUNDTRIP
360
41B
  0
DICTIONARY
  5
410
330
33
100
AcDbDictionary
280
     1
281
     1
  3
ACAD_XREC_ROUNDTRIP
360
411
  0
DICTIONARY
  5
418
330
37
100
AcDbDictionary
280
     1
281
     1
  3
ACAD_XREC_ROUNDTRIP
360
419
  0
XRECORD
  5
409
102
{ACAD_REACTORS
330
408
102
}
330
408
100
AcDbXrecord
280
     1
102
RTVSPropertyOp0
 70
     1
102
RTVSPropertyOp1
 70
     1
102
RTVSPropertyOp2
 70
     1
102
RTVSPropertyOp3
 70
     1
102
RTVSPropertyOp4
 70
     1
102
RTVSPropertyOp5
 70
     1
102
RTVSPropertyOp6
 70
     1
102
RTVSPropertyOp7
 70
     1
102
RTVSPropertyOp8
 70
     1
102
RTVSPropertyOp9
 70
     1
102
RTVSPropertyOp10
 70
     1
102
RTVSPropertyOp11
 70
     1
102
RTVSPropertyOp12
 70
     1
102
RTVSPropertyOp13
 70
     1
102
RTVSPropertyOp14
 70
     1
102
RTVSPropertyOp15
 70
     1
102
RTVSPropertyOp16
 70
     1
102
RTVSPropertyOp17
 70
     1
102
RTVSPropertyOp18
 70
     1
102
RTVSPropertyOp19
 70
     1
102
RTVSPropertyOp20
 70
     1
102
RTVSPropertyOp21
 70
     1
102
RTVSPropertyOp22
 70
     1
102
RTVSPropertyOp23
 70
     1
102
RTVSPropertyOp24
 70
     1
102
RTVSPropertyOp25
 70
     1
102
RTVSPropertyOp26
 70
     1
102
RTVSPropertyOp27
 70
     1
102
RTVSPropertyOp28
 70
     1
102
RTVSPropertyOp29
 70
     1
102
RTVSPropertyOp30
 70
     1
102
RTVSPropertyOp31
 70
     1
102
RTVSPropertyOp32
 70
     1
  0
XRECORD
  5
40D
102
{ACAD_REACTORS
330
40C
102
}
330
40C
100
AcDbXrecord
280
     1
102
RTVSPropertyOp0
 70
     1
102
RTVSPropertyOp1
 70
     1
102
RTVSPropertyOp2
 70
     1
102
RTVSPropertyOp3
 70
     1
102
RTVSPropertyOp4
 70
     1
102
RTVSPropertyOp5
 70
     1
102
RTVSPropertyOp6
 70
     1
102
RTVSPropertyOp7
 70
     1
102
RTVSPropertyOp8
 70
     1
102
RTVSPropertyOp9
 70
     1
102
RTVSPropertyOp10
 70
     1
102
RTVSPropertyOp11
 70
     1
102
RTVSPropertyOp12
 70
     1
102
RTVSPropertyOp13
 70
     1
102
RTVSPropertyOp14
 70
     1
102
RTVSPropertyOp15
 70
     1
102
RTVSPropertyOp16
 70
     1
102
RTVSPropertyOp17
 70
     1
102
RTVSPropertyOp18
 70
     1
102
RTVSPropertyOp19
 70
     1
102
RTVSPropertyOp20
 70
     1
102
RTVSPropertyOp21
 70
     1
102
RTVSPropertyOp22
 70
     1
102
RTVSPropertyOp23
 70
     1
102
RTVSPropertyOp24
 70
     1
102
RTVSPropertyOp25
 70
     1
102
RTVSPropertyOp26
 70
     1
102
RTVSPropertyOp27
 70
     1
102
RTVSPropertyOp28
 70
     1
102
RTVSPropertyOp29
 70
     1
102
RTVSPropertyOp30
 70
     1
102
RTVSPropertyOp31
 70
     1
102
RTVSPropertyOp32
 70
     1
  0
XRECORD
  5
40B
102
{ACAD_REACTORS
330
40A
102
}
330
40A
100
AcDbXrecord
280
     1
102
RTVSPropertyOp0
 70
     1
102
RTVSPropertyOp1
 70
     1
102
RTVSPropertyOp2
 70
     1
102
RTVSPropertyOp3
 70
     1
102
RTVSPropertyOp4
 70
     1
102
RTVSPropertyOp5
 70
     1
102
RTVSPropertyOp6
 70
     1
102
RTVSPropertyOp7
 70
     1
102
RTVSPropertyOp8
 70
     1
102
RTVSPropertyOp9
 70
     1
102
RTVSPropertyOp10
 70
     1
102
RTVSPropertyOp11
 70
     1
102
RTVSPropertyOp12
 70
     1
102
RTVSPropertyOp13
 70
     1
102
RTVSPropertyOp14
 70
     1
102
RTVSPropertyOp15
 70
     1
102
RTVSPropertyOp16
 70
     1
102
RTVSPropertyOp17
 70
     1
102
RTVSPropertyOp18
 70
     1
102
RTVSPropertyOp19
 70
     1
102
RTVSPropertyOp20
 70
     1
102
RTVSPropertyOp21
 70
     1
102
RTVSPropertyOp22
 70
     1
102
RTVSPropertyOp23
 70
     1
102
RTVSPropertyOp24
 70
     1
102
RTVSPropertyOp25
 70
     1
102
RTVSPropertyOp26
 70
     1
102
RTVSPropertyOp27
 70
     1
102
RTVSPropertyOp28
 70
     1
102
RTVSPropertyOp29
 70
     1
102
RTVSPropertyOp30
 70
     1
102
RTVSPropertyOp31
 70
     1
102
RTVSPropertyOp32
 70
     1
  0
XRECORD
  5
40F
102
{ACAD_REACTORS
330
40E
102
}
330
40E
100
AcDbXrecord
280
     1
102
RTVSPropertyOp0
 70
     1
102
RTVSPropertyOp1
 70
     1
102
RTVSPropertyOp2
 70
     1
102
RTVSPropertyOp3
 70
     1
102
RTVSPropertyOp4
 70
     1
102
RTVSPropertyOp5
 70
     1
102
RTVSPropertyOp6
 70
     1
102
RTVSPropertyOp7
 70
     1
102
RTVSPropertyOp8
 70
     1
102
RTVSPropertyOp9
 70
     1
102
RTVSPropertyOp10
 70
     1
102
RTVSPropertyOp11
 70
     1
102
RTVSPropertyOp12
 70
     1
102
RTVSPropertyOp13
 70
     1
102
RTVSPropertyOp14
 70
     1
102
RTVSPropertyOp15
 70
     1
102
RTVSPropertyOp16
 70
     1
102
RTVSPropertyOp17
 70
     1
102
RTVSPropertyOp18
 70
     1
102
RTVSPropertyOp19
 70
     1
102
RTVSPropertyOp20
 70
     1
102
RTVSPropertyOp21
 70
     1
102
RTVSPropertyOp22
 70
     1
102
RTVSPropertyOp23
 70
     1
102
RTVSPropertyOp24
 70
     1
102
RTVSPropertyOp25
 70
     1
102
RTVSPropertyOp26
 70
     1
102
RTVSPropertyOp27
 70
     1
102
RTVSPropertyOp28
 70
     1
102
RTVSPropertyOp29
 70
     1
102
RTVSPropertyOp30
 70
     1
102
RTVSPropertyOp31
 70
     1
102
RTVSPropertyOp32
 70
     1
  0
XRECORD
  5
417
102
{ACAD_REACTORS
330
416
102
}
330
416
100
AcDbXrecord
280
     1
102
RTVSPropertyOp0
 70
     1
102
RTVSPropertyOp1
 70
     1
102
RTVSPropertyOp2
 70
     1
102
RTVSPropertyOp3
 70
     1
102
RTVSPropertyOp4
 70
     1
102
RTVSPropertyOp5
 70
     1
102
RTVSPropertyOp6
 70
     1
102
RTVSPropertyOp7
 70
     1
102
RTVSPropertyOp8
 70
     1
102
RTVSPropertyOp9
 70
     1
102
RTVSPropertyOp10
 70
     1
102
RTVSPropertyOp11
 70
     1
102
RTVSPropertyOp12
 70
     1
102
RTVSPropertyOp13
 70
     1
102
RTVSPropertyOp14
 70
     1
102
RTVSPropertyOp15
 70
     1
102
RTVSPropertyOp16
 70
     1
102
RTVSPropertyOp17
 70
     1
102
RTVSPropertyOp18
 70
     1
102
RTVSPropertyOp19
 70
     1
102
RTVSPropertyOp20
 70
     1
102
RTVSPropertyOp21
 70
     1
102
RTVSPropertyOp22
 70
     1
102
RTVSPropertyOp23
 70
     1
102
RTVSPropertyOp24
 70
     1
102
RTVSPropertyOp25
 70
     1
102
RTVSPropertyOp26
 70
     1
102
RTVSPropertyOp27
 70
     1
102
RTVSPropertyOp28
 70
     1
102
RTVSPropertyOp29
 70
     1
102
RTVSPropertyOp30
 70
     1
102
RTVSPropertyOp31
 70
     1
102
RTVSPropertyOp32
 70
     1
  0
XRECORD
  5
41F
102
{ACAD_REACTORS
330
41E
102
}
330
41E
100
AcDbXrecord
280
     1
102
RTVSPropertyOp0
 70
     1
102
RTVSPropertyOp1
 70
     1
102
RTVSPropertyOp2
 70
     1
102
RTVSPropertyOp3
 70
     1
102
RTVSPropertyOp4
 70
     1
102
RTVSPropertyOp5
 70
     1
102
RTVSPropertyOp6
 70
     1
102
RTVSPropertyOp7
 70
     1
102
RTVSPropertyOp8
 70
     1
102
RTVSPropertyOp9
 70
     1
102
RTVSPropertyOp10
 70
     1
102
RTVSPropertyOp11
 70
     1
102
RTVSPropertyOp12
 70
     1
102
RTVSPropertyOp13
 70
     1
102
RTVSPropertyOp14
 70
     1
102
RTVSPropertyOp15
 70
     1
102
RTVSPropertyOp16
 70
     1
102
RTVSPropertyOp17
 70
     1
102
RTVSPropertyOp18
 70
     1
102
RTVSPropertyOp19
 70
     1
102
RTVSPropertyOp20
 70
     1
102
RTVSPropertyOp21
 70
     1
102
RTVSPropertyOp22
 70
     1
102
RTVSPropertyOp23
 70
     1
102
RTVSPropertyOp24
 70
     1
102
RTVSPropertyOp25
 70
     1
102
RTVSPropertyOp26
 70
     1
102
RTVSPropertyOp27
 70
     1
102
RTVSPropertyOp28
 70
     1
102
RTVSPropertyOp29
 70
     1
102
RTVSPropertyOp30
 70
     1
102
RTVSPropertyOp31
 70
     1
102
RTVSPropertyOp32
 70
     1
  0
XRECORD
  5
413
102
{ACAD_REACTORS
330
412
102
}
330
412
100
AcDbXrecord
280
     1
102
RTVSPropertyOp0
 70
     1
102
RTVSPropertyOp1
 70
     1
102
RTVSPropertyOp2
 70
     1
102
RTVSPropertyOp3
 70
     1
102
RTVSPropertyOp4
 70
     1
102
RTVSPropertyOp5
 70
     1
102
RTVSPropertyOp6
 70
     1
102
RTVSPropertyOp7
 70
     1
102
RTVSPropertyOp8
 70
     1
102
RTVSPropertyOp9
 70
     1
102
RTVSPropertyOp10
 70
     1
102
RTVSPropertyOp11
 70
     1
102
RTVSPropertyOp12
 70
     1
102
RTVSPropertyOp13
 70
     1
102
RTVSPropertyOp14
 70
     1
102
RTVSPropertyOp15
 70
     1
102
RTVSPropertyOp16
 70
     1
102
RTVSPropertyOp17
 70
     1
102
RTVSPropertyOp18
 70
     1
102
RTVSPropertyOp19
 70
     1
102
RTVSPropertyOp20
 70
     1
102
RTVSPropertyOp21
 70
     1
102
RTVSPropertyOp22
 70
     1
102
RTVSPropertyOp23
 70
     1
102
RTVSPropertyOp24
 70
     1
102
RTVSPropertyOp25
 70
     1
102
RTVSPropertyOp26
 70
     1
102
RTVSPropertyOp27
 70
     1
102
RTVSPropertyOp28
 70
     1
102
RTVSPropertyOp29
 70
     1
102
RTVSPropertyOp30
 70
     1
102
RTVSPropertyOp31
 70
     1
102
RTVSPropertyOp32
 70
     1
  0
XRECORD
  5
415
102
{ACAD_REACTORS
330
414
102
}
330
414
100
AcDbXrecord
280
     1
102
RTVSPropertyOp0
 70
     1
102
RTVSPropertyOp1
 70
     1
102
RTVSPropertyOp2
 70
     1
102
RTVSPropertyOp3
 70
     1
102
RTVSPropertyOp4
 70
     1
102
RTVSPropertyOp5
 70
     1
102
RTVSPropertyOp6
 70
     1
102
RTVSPropertyOp7
 70
     1
102
RTVSPropertyOp8
 70
     1
102
RTVSPropertyOp9
 70
     1
102
RTVSPropertyOp10
 70
     1
102
RTVSPropertyOp11
 70
     1
102
RTVSPropertyOp12
 70
     1
102
RTVSPropertyOp13
 70
     1
102
RTVSPropertyOp14
 70
     1
102
RTVSPropertyOp15
 70
     1
102
RTVSPropertyOp16
 70
     1
102
RTVSPropertyOp17
 70
     1
102
RTVSPropertyOp18
 70
     1
102
RTVSPropertyOp19
 70
     1
102
RTVSPropertyOp20
 70
     1
102
RTVSPropertyOp21
 70
     1
102
RTVSPropertyOp22
 70
     1
102
RTVSPropertyOp23
 70
     1
102
RTVSPropertyOp24
 70
     1
102
RTVSPropertyOp25
 70
     1
102
RTVSPropertyOp26
 70
     1
102
RTVSPropertyOp27
 70
     1
102
RTVSPropertyOp28
 70
     1
102
RTVSPropertyOp29
 70
     1
102
RTVSPropertyOp30
 70
     1
102
RTVSPropertyOp31
 70
     1
102
RTVSPropertyOp32
 70
     1
  0
XRECORD
  5
41D
102
{ACAD_REACTORS
330
41C
102
}
330
41C
100
AcDbXrecord
280
     1
102
RTVSPropertyOp0
 70
     1
102
RTVSPropertyOp1
 70
     1
102
RTVSPropertyOp2
 70
     1
102
RTVSPropertyOp3
 70
     1
102
RTVSPropertyOp4
 70
     1
102
RTVSPropertyOp5
 70
     1
102
RTVSPropertyOp6
 70
     1
102
RTVSPropertyOp7
 70
     1
102
RTVSPropertyOp8
 70
     1
102
RTVSPropertyOp9
 70
     1
102
RTVSPropertyOp10
 70
     1
102
RTVSPropertyOp11
 70
     1
102
RTVSPropertyOp12
 70
     1
102
RTVSPropertyOp13
 70
     1
102
RTVSPropertyOp14
 70
     1
102
RTVSPropertyOp15
 70
     1
102
RTVSPropertyOp16
 70
     1
102
RTVSPropertyOp17
 70
     1
102
RTVSPropertyOp18
 70
     1
102
RTVSPropertyOp19
 70
     1
102
RTVSPropertyOp20
 70
     1
102
RTVSPropertyOp21
 70
     1
102
RTVSPropertyOp22
 70
     1
102
RTVSPropertyOp23
 70
     1
102
RTVSPropertyOp24
 70
     1
102
RTVSPropertyOp25
 70
     1
102
RTVSPropertyOp26
 70
     1
102
RTVSPropertyOp27
 70
     1
102
RTVSPropertyOp28
 70
     1
102
RTVSPropertyOp29
 70
     1
102
RTVSPropertyOp30
 70
     1
102
RTVSPropertyOp31
 70
     1
102
RTVSPropertyOp32
 70
     1
  0
XRECORD
  5
401
102
{ACAD_REACTORS
330
400
102
}
330
400
100
AcDbXrecord
280
     1
102
RTVSPropertyOp0
 70
     1
102
RTVSPropertyOp1
 70
     1
102
RTVSPropertyOp2
 70
     1
102
RTVSPropertyOp3
 70
     1
102
RTVSPropertyOp4
 70
     1
102
RTVSPropertyOp5
 70
     1
102
RTVSPropertyOp6
 70
     1
102
RTVSPropertyOp7
 70
     1
102
RTVSPropertyOp8
 70
     1
102
RTVSPropertyOp9
 70
     1
102
RTVSPropertyOp10
 70
     1
102
RTVSPropertyOp11
 70
     1
102
RTVSPropertyOp12
 70
     1
102
RTVSPropertyOp13
 70
     1
102
RTVSPropertyOp14
 70
     1
102
RTVSPropertyOp15
 70
     1
102
RTVSPropertyOp16
 70
     1
102
RTVSPropertyOp17
 70
     1
102
RTVSPropertyOp18
 70
     1
102
RTVSPropertyOp19
 70
     1
102
RTVSPropertyOp20
 70
     1
102
RTVSPropertyOp21
 70
     1
102
RTVSPropertyOp22
 70
     1
102
RTVSPropertyOp23
 70
     1
102
RTVSPropertyOp24
 70
     1
102
RTVSPropertyOp25
 70
     1
102
RTVSPropertyOp26
 70
     1
102
RTVSPropertyOp27
 70
     1
102
RTVSPropertyOp28
 70
     1
102
RTVSPropertyOp29
 70
     1
102
RTVSPropertyOp30
 70
     1
102
RTVSPropertyOp31
 70
     1
102
RTVSPropertyOp32
 70
     1
  0
XRECORD
  5
403
102
{ACAD_REACTORS
330
402
102
}
330
402
100
AcDbXrecord
280
     1
102
RTVSPropertyOp0
 70
     1
102
RTVSPropertyOp1
 70
     1
102
RTVSPropertyOp2
 70
     1
102
RTVSPropertyOp3
 70
     1
102
RTVSPropertyOp4
 70
     1
102
RTVSPropertyOp5
 70
     1
102
RTVSPropertyOp6
 70
     1
102
RTVSPropertyOp7
 70
     1
102
RTVSPropertyOp8
 70
     1
102
RTVSPropertyOp9
 70
     1
102
RTVSPropertyOp10
 70
     1
102
RTVSPropertyOp11
 70
     1
102
RTVSPropertyOp12
 70
     1
102
RTVSPropertyOp13
 70
     1
102
RTVSPropertyOp14
 70
     1
102
RTVSPropertyOp15
 70
     1
102
RTVSPropertyOp16
 70
     1
102
RTVSPropertyOp17
 70
     1
102
RTVSPropertyOp18
 70
     1
102
RTVSPropertyOp19
 70
     1
102
RTVSPropertyOp20
 70
     1
102
RTVSPropertyOp21
 70
     1
102
RTVSPropertyOp22
 70
     1
102
RTVSPropertyOp23
 70
     1
102
RTVSPropertyOp24
 70
     1
102
RTVSPropertyOp25
 70
     1
102
RTVSPropertyOp26
 70
     1
102
RTVSPropertyOp27
 70
     1
102
RTVSPropertyOp28
 70
     1
102
RTVSPropertyOp29
 70
     1
102
RTVSPropertyOp30
 70
     1
102
RTVSPropertyOp31
 70
     1
102
RTVSPropertyOp32
 70
     1
  0
XRECORD
  5
405
102
{ACAD_REACTORS
330
404
102
}
330
404
100
AcDbXrecord
280
     1
102
RTVSPropertyOp0
 70
     1
102
RTVSPropertyOp1
 70
     1
102
RTVSPropertyOp2
 70
     1
102
RTVSPropertyOp3
 70
     1
102
RTVSPropertyOp4
 70
     1
102
RTVSPropertyOp5
 70
     1
102
RTVSPropertyOp6
 70
     1
102
RTVSPropertyOp7
 70
     1
102
RTVSPropertyOp8
 70
     1
102
RTVSPropertyOp9
 70
     1
102
RTVSPropertyOp10
 70
     1
102
RTVSPropertyOp11
 70
     1
102
RTVSPropertyOp12
 70
     1
102
RTVSPropertyOp13
 70
     1
102
RTVSPropertyOp14
 70
     1
102
RTVSPropertyOp15
 70
     1
102
RTVSPropertyOp16
 70
     1
102
RTVSPropertyOp17
 70
     1
102
RTVSPropertyOp18
 70
     1
102
RTVSPropertyOp19
 70
     1
102
RTVSPropertyOp20
 70
     1
102
RTVSPropertyOp21
 70
     1
102
RTVSPropertyOp22
 70
     1
102
RTVSPropertyOp23
 70
     1
102
RTVSPropertyOp24
 70
     1
102
RTVSPropertyOp25
 70
     1
102
RTVSPropertyOp26
 70
     1
102
RTVSPropertyOp27
 70
     1
102
RTVSPropertyOp28
 70
     1
102
RTVSPropertyOp29
 70
     1
102
RTVSPropertyOp30
 70
     1
102
RTVSPropertyOp31
 70
     1
102
RTVSPropertyOp32
 70
     1
  0
XRECORD
  5
407
102
{ACAD_REACTORS
330
406
102
}
330
406
100
AcDbXrecord
280
     1
102
RTVSPropertyOp0
 70
     1
102
RTVSPropertyOp1
 70
     1
102
RTVSPropertyOp2
 70
     1
102
RTVSPropertyOp3
 70
     1
102
RTVSPropertyOp4
 70
     1
102
RTVSPropertyOp5
 70
     1
102
RTVSPropertyOp6
 70
     1
102
RTVSPropertyOp7
 70
     1
102
RTVSPropertyOp8
 70
     1
102
RTVSPropertyOp9
 70
     1
102
RTVSPropertyOp10
 70
     1
102
RTVSPropertyOp11
 70
     1
102
RTVSPropertyOp12
 70
     1
102
RTVSPropertyOp13
 70
     1
102
RTVSPropertyOp14
 70
     1
102
RTVSPropertyOp15
 70
     1
102
RTVSPropertyOp16
 70
     1
102
RTVSPropertyOp17
 70
     1
102
RTVSPropertyOp18
 70
     1
102
RTVSPropertyOp19
 70
     1
102
RTVSPropertyOp20
 70
     1
102
RTVSPropertyOp21
 70
     1
102
RTVSPropertyOp22
 70
     1
102
RTVSPropertyOp23
 70
     1
102
RTVSPropertyOp24
 70
     1
102
RTVSPropertyOp25
 70
     1
102
RTVSPropertyOp26
 70
     1
102
RTVSPropertyOp27
 70
     1
102
RTVSPropertyOp28
 70
     1
102
RTVSPropertyOp29
 70
     1
102
RTVSPropertyOp30
 70
     1
102
RTVSPropertyOp31
 70
     1
102
RTVSPropertyOp32
 70
     1
  0
XRECORD
  5
41B
102
{ACAD_REACTORS
330
41A
102
}
330
41A
100
AcDbXrecord
280
     1
102
RTVSPropertyOp0
 70
     1
102
RTVSPropertyOp1
 70
     1
102
RTVSPropertyOp2
 70
     1
102
RTVSPropertyOp3
 70
     1
102
RTVSPropertyOp4
 70
     1
102
RTVSPropertyOp5
 70
     1
102
RTVSPropertyOp6
 70
     1
102
RTVSPropertyOp7
 70
     1
102
RTVSPropertyOp8
 70
     1
102
RTVSPropertyOp9
 70
     1
102
RTVSPropertyOp10
 70
     1
102
RTVSPropertyOp11
 70
     1
102
RTVSPropertyOp12
 70
     1
102
RTVSPropertyOp13
 70
     1
102
RTVSPropertyOp14
 70
     1
102
RTVSPropertyOp15
 70
     1
102
RTVSPropertyOp16
 70
     1
102
RTVSPropertyOp17
 70
     1
102
RTVSPropertyOp18
 70
     1
102
RTVSPropertyOp19
 70
     1
102
RTVSPropertyOp20
 70
     1
102
RTVSPropertyOp21
 70
     1
102
RTVSPropertyOp22
 70
     1
102
RTVSPropertyOp23
 70
     1
102
RTVSPropertyOp24
 70
     1
102
RTVSPropertyOp25
 70
     1
102
RTVSPropertyOp26
 70
     1
102
RTVSPropertyOp27
 70
     1
102
RTVSPropertyOp28
 70
     1
102
RTVSPropertyOp29
 70
     1
102
RTVSPropertyOp30
 70
     1
102
RTVSPropertyOp31
 70
     1
102
RTVSPropertyOp32
 70
     1
  0
XRECORD
  5
411
102
{ACAD_REACTORS
330
410
102
}
330
410
100
AcDbXrecord
280
     1
102
RTVSPropertyOp0
 70
     1
102
RTVSPropertyOp1
 70
     1
102
RTVSPropertyOp2
 70
     1
102
RTVSPropertyOp3
 70
     1
102
RTVSPropertyOp4
 70
     1
102
RTVSPropertyOp5
 70
     1
102
RTVSPropertyOp6
 70
     1
102
RTVSPropertyOp7
 70
     1
102
RTVSPropertyOp8
 70
     1
102
RTVSPropertyOp9
 70
     1
102
RTVSPropertyOp10
 70
     1
102
RTVSPropertyOp11
 70
     1
102
RTVSPropertyOp12
 70
     1
102
RTVSPropertyOp13
 70
     1
102
RTVSPropertyOp14
 70
     1
102
RTVSPropertyOp15
 70
     1
102
RTVSPropertyOp16
 70
     1
102
RTVSPropertyOp17
 70
     1
102
RTVSPropertyOp18
 70
     1
102
RTVSPropertyOp19
 70
     1
102
RTVSPropertyOp20
 70
     1
102
RTVSPropertyOp21
 70
     1
102
RTVSPropertyOp22
 70
     1
102
RTVSPropertyOp23
 70
     1
102
RTVSPropertyOp24
 70
     1
102
RTVSPropertyOp25
 70
     1
102
RTVSPropertyOp26
 70
     1
102
RTVSPropertyOp27
 70
     1
102
RTVSPropertyOp28
 70
     1
102
RTVSPropertyOp29
 70
     1
102
RTVSPropertyOp30
 70
     1
102
RTVSPropertyOp31
 70
     1
102
RTVSPropertyOp32
 70
     1
  0
XRECORD
  5
419
102
{ACAD_REACTORS
330
418
102
}
330
418
100
AcDbXrecord
280
     1
102
RTVSPropertyOp0
 70
     1
102
RTVSPropertyOp1
 70
     1
102
RTVSPropertyOp2
 70
     1
102
RTVSPropertyOp3
 70
     1
102
RTVSPropertyOp4
 70
     1
102
RTVSPropertyOp5
 70
     1
102
RTVSPropertyOp6
 70
     1
102
RTVSPropertyOp7
 70
     1
102
RTVSPropertyOp8
 70
     1
102
RTVSPropertyOp9
 70
     1
102
RTVSPropertyOp10
 70
     1
102
RTVSPropertyOp11
 70
     1
102
RTVSPropertyOp12
 70
     1
102
RTVSPropertyOp13
 70
     1
102
RTVSPropertyOp14
 70
     1
102
RTVSPropertyOp15
 70
     1
102
RTVSPropertyOp16
 70
     1
102
RTVSPropertyOp17
 70
     1
102
RTVSPropertyOp18
 70
     1
102
RTVSPropertyOp19
 70
     1
102
RTVSPropertyOp20
 70
     1
102
RTVSPropertyOp21
 70
     1
102
RTVSPropertyOp22
 70
     1
102
RTVSPropertyOp23
 70
     1
102
RTVSPropertyOp24
 70
     1
102
RTVSPropertyOp25
 70
     1
102
RTVSPropertyOp26
 70
     1
102
RTVSPropertyOp27
 70
     1
102
RTVSPropertyOp28
 70
     1
102
RTVSPropertyOp29
 70
     1
102
RTVSPropertyOp30
 70
     1
102
RTVSPropertyOp31
 70
     1
102
RTVSPropertyOp32
 70
     1
  0
ENDSEC
  0
EOF
