  0
SECTION
  2
HEADER
  9
$ACADVER
  1
AC1015
  9
$ACADMAINTVER
 70
     6
  9
$DWGCODEPAGE
  3
ANSI_1252
  9
$INSBASE
 10
0.0
 20
0.0
 30
0.0
  9
$EXTMIN
 10
0.0
 20
0.0
 30
0.0
  9
$EXTMAX
 10
3000.0
 20
4500.0
 30
0.0
  9
$LIMMIN
 10
0.0
 20
0.0
  9
$LIMMAX
 10
3000.0
 20
4500.0
  9
$ORTHOMODE
 70
     0
  9
$REGENMODE
 70
     1
  9
$FILLMODE
 70
     1
  9
$QTEXTMODE
 70
     0
  9
$MIRRTEXT
 70
     1
  9
$LTSCALE
 40
1.0
  9
$ATTMODE
 70
     1
  9
$TEXTSIZE
 40
2.5
  9
$TRACEWID
 40
1.0
  9
$TEXTSTYLE
  7
Standard
  9
$CLAYER
  8
0
  9
$CELTYPE
  6
ByLayer
  9
$CECOLOR
 62
   256
  9
$CELTSCALE
 40
1.0
  9
$DISPSILH
 70
     0
  9
$DIMSCALE
 40
1.0
  9
$DIMASZ
 40
2.5
  9
$DIMEXO
 40
0.625
  9
$DIMDLI
 40
3.75
  9
$DIMRND
 40
0.0
  9
$DIMDLE
 40
0.0
  9
$DIMEXE
 40
1.25
  9
$DIMTP
 40
0.0
  9
$DIMTM
 40
0.0
  9
$DIMTXT
 40
2.5
  9
$DIMCEN
 40
2.5
  9
$DIMTSZ
 40
0.0
  9
$DIMTOL
 70
     0
  9
$DIMLIM
 70
     0
  9
$DIMTIH
 70
     0
  9
$DIMTOH
 70
     0
  9
$DIMSE1
 70
     0
  9
$DIMSE2
 70
     0
  9
$DIMTAD
 70
     1
  9
$DIMZIN
 70
     8
  9
$DIMBLK
  1

  9
$DIMASO
 70
     1
  9
$DIMSHO
 70
     1
  9
$DIMPOST
  1

  9
$DIMAPOST
  1

  9
$DIMALT
 70
     0
  9
$DIMALTD
 70
     3
  9
$DIMALTF
 40
0.0393700787
  9
$DIMLFAC
 40
1.0
  9
$DIMTOFL
 70
     1
  9
$DIMTVP
 40
0.0
  9
$DIMTIX
 70
     0
  9
$DIMSOXD
 70
     0
  9
$DIMSAH
 70
     0
  9
$DIMBLK1
  1

  9
$DIMBLK2
  1

  9
$DIMSTYLE
  2
ISO-25
  9
$DIMCLRD
 70
     0
  9
$DIMCLRE
 70
     0
  9
$DIMCLRT
 70
     0
  9
$DIMTFAC
 40
1.0
  9
$DIMGAP
 40
0.625
  9
$DIMJUST
 70
     0
  9
$DIMSD1
 70
     0
  9
$DIMSD2
 70
     0
  9
$DIMTOLJ
 70
     0
  9
$DIMTZIN
 70
     8
  9
$DIMALTZ
 70
     0
  9
$DIMALTTZ
 70
     0
  9
$DIMUPT
 70
     0
  9
$DIMDEC
 70
     2
  9
$DIMTDEC
 70
     2
  9
$DIMALTU
 70
     2
  9
$DIMALTTD
 70
     3
  9
$DIMTXSTY
  7
Standard
  9
$DIMAUNIT
 70
     0
  9
$DIMADEC
 70
     0
  9
$DIMALTRND
 40
0.0
  9
$DIMAZIN
 70
     0
  9
$DIMDSEP
 70
    44
  9
$DIMATFIT
 70
     3
  9
$DIMFRAC
 70
     0
  9
$DIMLDRBLK
  1

  9
$DIMLUNIT
 70
     2
  9
$DIMLWD
 70
    -2
  9
$DIMLWE
 70
    -2
  9
$DIMTMOVE
 70
     0
  9
$LUNITS
 70
     2
  9
$LUPREC
 70
     4
  9
$SKETCHINC
 40
1.0
  9
$FILLETRAD
 40
10.0
  9
$AUNITS
 70
     0
  9
$AUPREC
 70
     0
  9
$MENU
  1
.
  9
$ELEVATION
 40
0.0
  9
$PELEVATION
 40
0.0
  9
$THICKNESS
 40
0.0
  9
$LIMCHECK
 70
     0
  9
$CHAMFERA
 40
10.0
  9
$CHAMFERB
 40
10.0
  9
$CHAMFERC
 40
20.0
  9
$CHAMFERD
 40
0.0
  9
$SKPOLY
 70
     0
  9
$TDCREATE
 40
2456338.383933299
  9
$TDUCREATE
 40
2456338.342266632
  9
$TDUPDATE
 40
2456338.38393331
  9
$TDUUPDATE
 40
2456338.342266643
  9
$TDINDWG
 40
0.0000000116
  9
$TDUSRTIMER
 40
0.0000000116
  9
$USRTIMER
 70
     1
  9
$ANGBASE
 50
0.0
  9
$ANGDIR
 70
     0
  9
$PDMODE
 70
     0
  9
$PDSIZE
 40
0.0
  9
$PLINEWID
 40
0.0
  9
$SPLFRAME
 70
     0
  9
$SPLINETYPE
 70
     6
  9
$SPLINESEGS
 70
     8
  9
$HANDSEED
  5
268
  9
$SURFTAB1
 70
     6
  9
$SURFTAB2
 70
     6
  9
$SURFTYPE
 70
     6
  9
$SURFU
 70
     6
  9
$SURFV
 70
     6
  9
$UCSBASE
  2

  9
$UCSNAME
  2

  9
$UCSORG
 10
0.0
 20
0.0
 30
0.0
  9
$UCSXDIR
 10
1.0
 20
0.0
 30
0.0
  9
$UCSYDIR
 10
0.0
 20
1.0
 30
0.0
  9
$UCSORTHOREF
  2

  9
$UCSORTHOVIEW
 70
     0
  9
$UCSORGTOP
 10
0.0
 20
0.0
 30
0.0
  9
$UCSORGBOTTOM
 10
0.0
 20
0.0
 30
0.0
  9
$UCSORGLEFT
 10
0.0
 20
0.0
 30
0.0
  9
$UCSORGRIGHT
 10
0.0
 20
0.0
 30
0.0
  9
$UCSORGFRONT
 10
0.0
 20
0.0
 30
0.0
  9
$UCSORGBACK
 10
0.0
 20
0.0
 30
0.0
  9
$PUCSBASE
  2

  9
$PUCSNAME
  2

  9
$PUCSORG
 10
0.0
 20
0.0
 30
0.0
  9
$PUCSXDIR
 10
1.0
 20
0.0
 30
0.0
  9
$PUCSYDIR
 10
0.0
 20
1.0
 30
0.0
  9
$PUCSORTHOREF
  2

  9
$PUCSORTHOVIEW
 70
     0
  9
$PUCSORGTOP
 10
0.0
 20
0.0
 30
0.0
  9
$PUCSORGBOTTOM
 10
0.0
 20
0.0
 30
0.0
  9
$PUCSORGLEFT
 10
0.0
 20
0.0
 30
0.0
  9
$PUCSORGRIGHT
 10
0.0
 20
0.0
 30
0.0
  9
$PUCSORGFRONT
 10
0.0
 20
0.0
 30
0.0
  9
$PUCSORGBACK
 10
0.0
 20
0.0
 30
0.0
  9
$USERI1
 70
     0
  9
$USERI2
 70
     0
  9
$USERI3
 70
     0
  9
$USERI4
 70
     0
  9
$USERI5
 70
     0
  9
$USERR1
 40
0.0
  9
$USERR2
 40
0.0
  9
$USERR3
 40
0.0
  9
$USERR4
 40
0.0
  9
$USERR5
 40
0.0
  9
$WORLDVIEW
 70
     1
  9
$SHADEDGE
 70
     3
  9
$SHADEDIF
 70
    70
  9
$TILEMODE
 70
     1
  9
$MAXACTVP
 70
    64
  9
$PINSBASE
 10
0.0
 20
0.0
 30
0.0
  9
$PLIMCHECK
 70
     0
  9
$PEXTMIN
 10
0.0
 20
0.0
 30
0.0
  9
$PEXTMAX
 10
3000.0
 20
4500.0
 30
0.0
  9
$PLIMMIN
 10
0.0
 20
0.0
  9
$PLIMMAX
 10
3000.0
 20
4500.0
  9
$UNITMODE
 70
     0
  9
$VISRETAIN
 70
     1
  9
$PLINEGEN
 70
     0
  9
$PSLTSCALE
 70
     1
  9
$TREEDEPTH
 70
  3020
  9
$CMLSTYLE
  2
Standard
  9
$CMLJUST
 70
     0
  9
$CMLSCALE
 40
20.0
  9
$PROXYGRAPHICS
 70
     1
  9
$MEASUREMENT
 70
     1
  9
$CELWEIGHT
370
    -1
  9
$ENDCAPS
280
     0
  9
$JOINSTYLE
280
     0
  9
$LWDISPLAY
290
     0
  9
$INSUNITS
 70
     4
  9
$HYPERLINKBASE
  1

  9
$STYLESHEET
  1

  9
$XEDIT
290
     1
  9
$CEPSNTYPE
380
     0
  9
$PSTYLEMODE
290
     1
  9
$FINGERPRINTGUID
  2
{8EA2513C-70ED-4623-B8CB-82997AFF2470}
  9
$VERSIONGUID
  2
{FAEB1C32-E019-11D5-929B-00C0DF256EC4}
  9
$EXTNAMES
290
     1
  9
$PSVPSCALE
 40
0.0
  9
$OLESTARTUP
290
     0
  0
ENDSEC
  0
SECTION
  2
CLASSES
  0
CLASS
  1
ACDBDICTIONARYWDFLT
  2
AcDbDictionaryWithDefault
  3
ObjectDBX Classes
 90
        0
280
     0
281
     0
  0
CLASS
  1
VISUALSTYLE
  2
AcDbVisualStyle
  3
ObjectDBX Classes
 90
     4095
280
     0
281
     0
  0
CLASS
  1
SCALE
  2
AcDbScale
  3
ObjectDBX Classes
 90
     1153
280
     0
281
     0
  0
CLASS
  1
DICTIONARYVAR
  2
AcDbDictionaryVar
  3
ObjectDBX Classes
 90
        0
280
     0
281
     0
  0
CLASS
  1
ACDBPLACEHOLDER
  2
AcDbPlaceHolder
  3
ObjectDBX Classes
 90
        0
280
     0
281
     0
  0
CLASS
  1
LAYOUT
  2
AcDbLayout
  3
ObjectDBX Classes
 90
        0
280
     0
281
     0
  0
ENDSEC
  0
SECTION
  2
TABLES
  0
TABLE
  2
VPORT
  5
8
330
0
100
AcDbSymbolTable
 70
     1
  0
VPORT
  5
29
330
8
100
AcDbSymbolTableRecord
100
AcDbViewportTableRecord
  2
*Active
 70
     0
 10
0.0
 20
0.0
 11
1.0
 21
1.0
 12
344.1869158879
 22
148.5
 13
0.0
 23
0.0
 14
10.0
 24
10.0
 15
10.0
 25
10.0
 16
0.0
 26
0.0
 36
1.0
 17
0.0
 27
0.0
 37
0.0
 40
297.0
 41
1.9729729729
 42
50.0
 43
0.0
 44
0.0
 50
0.0
 51
0.0
 71
     0
 72
   100
 73
     1
 74
     3
 75
     0
 76
     0
 77
     0
 78
     0
281
     0
 65
     1
110
0.0
120
0.0
130
0.0
111
1.0
121
0.0
131
0.0
112
0.0
122
1.0
132
0.0
 79
     0
146
0.0
  0
ENDTAB
  0
TABLE
  2
LTYPE
  5
5
330
0
100
AcDbSymbolTable
 70
     2
  0
LTYPE
  5
14
330
5
100
AcDbSymbolTableRecord
100
AcDbLinetypeTableRecord
  2
ByBlock
 70
     0
  3

 72
    65
 73
     0
 40
0.0
  0
LTYPE
  5
15
330
5
100
AcDbSymbolTableRecord
100
AcDbLinetypeTableRecord
  2
ByLayer
 70
     0
  3

 72
    65
 73
     0
 40
0.0
  0
LTYPE
  5
16
330
5
100
AcDbSymbolTableRecord
100
AcDbLinetypeTableRecord
  2
Continuous
 70
     0
  3
Solid line
 72
    65
 73
     0
 40
0.0
  0
LTYPE
  5
60
330
5
100
AcDbSymbolTableRecord
100
AcDbLinetypeTableRecord
  2
CENTER2
 70
     0
  3
Center (.5x) ___ _ ___ _ ___ _ ___ _ ___ _ ___
 72
    65
 73
     4
 40
28.575
 49
19.05
 74
     4
 75
     0
340
0
 46
0.0
 50
0.0
 44
0.0
 45
0.0
 49
-3.175
 74
     4
 75
     0
340
0
 46
0.0
 50
0.0
 44
0.0
 45
0.0
 49
3.175
 74
     4
 75
     0
340
0
 46
0.0
 50
0.0
 44
0.0
 45
0.0
 49
-3.175
 74
     4
 75
     0
340
0
 46
0.0
 50
0.0
 44
0.0
 45
0.0
  0
ENDTAB
  0
TABLE
  2
LAYER
  5
2
330
0
100
AcDbSymbolTable
 70
    11
  0
LAYER
  5
10
330
2
100
AcDbSymbolTableRecord
100
AcDbLayerTableRecord
  2
0
 70
     0
 62
     7
  6
Continuous
370
    -3
390
F
  0
LAYER
  5
5D
330
2
100
AcDbSymbolTableRecord
100
AcDbLayerTableRecord
  2
Default
 70
     0
 62
     7
  6
Continuous
370
    -3
390
F
  0
LAYER
  5
77
330
2
100
AcDbSymbolTableRecord
100
AcDbLayerTableRecord
  2
$DDT_AUDIT_GENERATED_(77)
 70
     0
 62
     7
  6
Continuous
370
    -3
390
F
  0
LAYER
  5
C4
330
2
100
AcDbSymbolTableRecord
100
AcDbLayerTableRecord
  2
$DDT_AUDIT_GENERATED_(C4)
 70
     0
 62
     7
  6
Continuous
370
    -3
390
F
  0
LAYER
  5
C7
330
2
100
AcDbSymbolTableRecord
100
AcDbLayerTableRecord
  2
$DDT_AUDIT_GENERATED_(C7)
 70
     0
 62
     7
  6
Continuous
370
    -3
390
F
  0
LAYER
  5
10A
330
2
100
AcDbSymbolTableRecord
100
AcDbLayerTableRecord
  2
$DDT_AUDIT_GENERATED_(10A)
 70
     0
 62
     7
  6
Continuous
370
    -3
390
F
  0
LAYER
  5
122
330
2
100
AcDbSymbolTableRecord
100
AcDbLayerTableRecord
  2
$DDT_AUDIT_GENERATED_(122)
 70
     0
 62
     7
  6
Continuous
370
    -3
390
F
  0
LAYER
  5
1DF
330
2
100
AcDbSymbolTableRecord
100
AcDbLayerTableRecord
  2
$DDT_AUDIT_GENERATED_(1DF)
 70
     0
 62
     7
  6
Continuous
370
    -3
390
F
  0
LAYER
  5
1E1
330
2
100
AcDbSymbolTableRecord
100
AcDbLayerTableRecord
  2
$DDT_AUDIT_GENERATED_(1E1)
 70
     0
 62
     7
  6
Continuous
370
    -3
390
F
  0
LAYER
  5
22B
330
2
100
AcDbSymbolTableRecord
100
AcDbLayerTableRecord
  2
DV2_Default
 70
     0
 62
     7
  6
Continuous
370
    -3
390
F
  0
LAYER
  5
252
330
2
100
AcDbSymbolTableRecord
100
AcDbLayerTableRecord
  2
$DDT_AUDIT_GENERATED_(252)
 70
     0
 62
     7
  6
Continuous
370
    -3
390
F
  0
ENDTAB
  0
TABLE
  2
STYLE
  5
3
330
0
100
AcDbSymbolTable
 70
     2
  0
STYLE
  5
11
330
3
100
AcDbSymbolTableRecord
100
AcDbTextStyleTableRecord
  2
Standard
 70
     0
 40
0.0
 41
1.0
 50
0.0
 71
     0
 42
2.5
  3
txt
  4

  0
STYLE
  5
257
330
3
100
AcDbSymbolTableRecord
100
AcDbTextStyleTableRecord
  2
SEACAD_seiso_ttf
 70
     0
 40
0.0
 41
1.0
 50
0.0
 71
     0
 42
0.2
  3
seiso.ttf
  4

  0
ENDTAB
  0
TABLE
  2
VIEW
  5
6
330
0
100
AcDbSymbolTable
 70
     0
  0
ENDTAB
  0
TABLE
  2
UCS
  5
7
330
0
100
AcDbSymbolTable
 70
     0
  0
ENDTAB
  0
TABLE
  2
APPID
  5
9
330
0
100
AcDbSymbolTable
 70
     1
  0
APPID
  5
12
330
9
100
AcDbSymbolTableRecord
100
AcDbRegAppTableRecord
  2
ACAD
 70
     0
  0
ENDTAB
  0
TABLE
  2
DIMSTYLE
  5
A
330
0
100
AcDbSymbolTable
 70
     1
100
AcDbDimStyleTable
  0
DIMSTYLE
105
27
330
A
100
AcDbSymbolTableRecord
100
AcDbDimStyleTableRecord
  2
ISO-25
 70
     0
 41
2.5
 42
0.625
 43
3.75
 44
1.25
 73
     0
 74
     0
 77
     1
 78
     8
140
2.5
141
2.5
143
0.0393700787
147
0.625
171
     3
172
     1
271
     2
272
     2
274
     3
278
    44
283
     0
284
     8
340
11
  0
ENDTAB
  0
TABLE
  2
BLOCK_RECORD
  5
1
330
0
100
AcDbSymbolTable
 70
     7
  0
BLOCK_RECORD
  5
1F
330
1
100
AcDbSymbolTableRecord
100
AcDbBlockTableRecord
  2
*Model_Space
340
22
  0
BLOCK_RECORD
  5
1B
330
1
100
AcDbSymbolTableRecord
100
AcDbBlockTableRecord
  2
*Paper_Space
340
1E
  0
BLOCK_RECORD
  5
5E
330
1
100
AcDbSymbolTableRecord
100
AcDbBlockTableRecord
  2
SEANNOT_GROUP
340
0
102
{BLKREFS
331
5F
102
}
  0
BLOCK_RECORD
  5
65
330
1
100
AcDbSymbolTableRecord
100
AcDbBlockTableRecord
  2
SEANNOT_GROUP1
340
0
102
{BLKREFS
331
66
102
}
  0
BLOCK_RECORD
  5
6B
330
1
100
AcDbSymbolTableRecord
100
AcDbBlockTableRecord
  2
SEANNOT_GROUP2
340
0
102
{BLKREFS
331
6C
102
}
  0
BLOCK_RECORD
  5
75
330
1
100
AcDbSymbolTableRecord
100
AcDbBlockTableRecord
  2
SE
340
0
102
{BLKREFS
331
76
102
}
  0
BLOCK_RECORD
  5
1E5
330
1
100
AcDbSymbolTableRecord
100
AcDbBlockTableRecord
  2
SE1
340
0
102
{BLKREFS
331
1E6
102
}
  0
BLOCK_RECORD
  5
22F
330
1
100
AcDbSymbolTableRecord
100
AcDbBlockTableRecord
  2
SE2
340
0
102
{BLKREFS
331
230
102
}
  0
ENDTAB
  0
ENDSEC
  0
SECTION
  2
BLOCKS
  0
BLOCK
  5
20
330
1F
100
AcDbEntity
  8
0
100
AcDbBlockBegin
  2
*Model_Space
 70
     0
 10
0.0
 20
0.0
 30
0.0
  3
*Model_Space
  1

  0
ENDBLK
  5
21
330
1F
100
AcDbEntity
  8
0
100
AcDbBlockEnd
  0
BLOCK
  5
1C
330
1B
100
AcDbEntity
 67
     1
  8
0
100
AcDbBlockBegin
  2
*Paper_Space
 70
     0
 10
0.0
 20
0.0
 30
0.0
  3
*Paper_Space
  1

  0
ENDBLK
  5
1D
330
1B
100
AcDbEntity
 67
     1
  8
0
100
AcDbBlockEnd
  0
BLOCK
  5
63
330
5E
100
AcDbEntity
  8
0
100
AcDbBlockBegin
  2
SEANNOT_GROUP
 70
     0
 10
0.0
 20
0.0
 30
0.0
  3
SEANNOT_GROUP
  1

  0
LINE
  5
61
330
5E
100
AcDbEntity
  8
Default
  6
CENTER2
 62
     7
100
AcDbLine
 10
123.3998984365
 20
240.6019546833
 30
0.0
 11
83.3998993305
 21
240.6019546833
 31
0.0
  0
LINE
  5
62
330
5E
100
AcDbEntity
  8
Default
  6
CENTER2
 62
     7
100
AcDbLine
 10
103.3998988835
 20
260.6019542363
 30
0.0
 11
103.3998988835
 21
220.6019551303
 31
0.0
  0
ENDBLK
  5
64
330
5E
100
AcDbEntity
  8
0
100
AcDbBlockEnd
  0
BLOCK
  5
69
330
65
100
AcDbEntity
  8
0
100
AcDbBlockBegin
  2
SEANNOT_GROUP1
 70
     0
 10
0.0
 20
0.0
 30
0.0
  3
SEANNOT_GROUP1
  1

  0
LINE
  5
67
330
65
100
AcDbEntity
  8
Default
  6
CENTER2
 62
     7
100
AcDbLine
 10
221.6225501979
 20
240.6019546833
 30
0.0
 11
181.6225510919
 21
240.6019546833
 31
0.0
  0
LINE
  5
68
330
65
100
AcDbEntity
  8
Default
  6
CENTER2
 62
     7
100
AcDbLine
 10
201.6225506449
 20
260.6019542363
 30
0.0
 11
201.6225506449
 21
220.6019551303
 31
0.0
  0
ENDBLK
  5
6A
330
65
100
AcDbEntity
  8
0
100
AcDbBlockEnd
  0
BLOCK
  5
73
330
6B
100
AcDbEntity
  8
0
100
AcDbBlockBegin
  2
SEANNOT_GROUP2
 70
     0
 10
0.0
 20
0.0
 30
0.0
  3
SEANNOT_GROUP2
  1

  0
LINE
  5
6D
330
6B
100
AcDbEntity
  8
Default
  6
CENTER2
 62
     7
100
AcDbLine
 10
123.3973238295
 20
165.7419330027
 30
0.0
 11
83.3973247236
 21
165.7419330027
 31
0.0
  0
LINE
  5
6E
330
6B
100
AcDbEntity
  8
Default
  6
CENTER2
 62
     7
100
AcDbLine
 10
103.3973242765
 20
185.7419325556
 30
0.0
 11
103.3973242765
 21
145.7419334497
 31
0.0
  0
LINE
  5
6F
330
6B
100
AcDbEntity
  8
Default
  6
CENTER2
 62
     7
100
AcDbLine
 10
128.3973237177
 20
165.7419330027
 30
0.0
 11
131.8938854612
 21
165.7419330027
 31
0.0
  0
LINE
  5
70
330
6B
100
AcDbEntity
  8
Default
  6
CENTER2
 62
     7
100
AcDbLine
 10
103.3973242765
 20
190.7419324439
 30
0.0
 11
103.3973242765
 21
194.2384941873
 31
0.0
  0
LINE
  5
71
330
6B
100
AcDbEntity
  8
Default
  6
CENTER2
 62
     7
100
AcDbLine
 10
78.3973248353
 20
165.7419330027
 30
0.0
 11
74.9007630919
 21
165.7419330027
 31
0.0
  0
LINE
  5
72
330
6B
100
AcDbEntity
  8
Default
  6
CENTER2
 62
     7
100
AcDbLine
 10
103.3973242765
 20
140.7419335615
 30
0.0
 11
103.3973242765
 21
137.245371818
 31
0.0
  0
ENDBLK
  5
74
330
6B
100
AcDbEntity
  8
0
100
AcDbBlockEnd
  0
BLOCK
  5
1E3
330
75
100
AcDbEntity
  8
0
100
AcDbBlockBegin
  2
SE
 70
     0
 10
0.0
 20
0.0
 30
0.0
  3
SE
  1

  0
LINE
  5
78
330
75
100
AcDbEntity
  8
$DDT_AUDIT_GENERATED_(77)
  6
Continuous
 62
     7
100
AcDbLine
 10
80.2664789766
 20
360.6019546839
 30
0.0
 11
84.7662596794
 21
360.6019546846
 31
0.0
  0
LINE
  5
79
330
75
100
AcDbEntity
  8
$DDT_AUDIT_GENERATED_(77)
  6
Continuous
 62
     7
100
AcDbLine
 10
122.0347223605
 20
360.6019546434
 30
0.0
 11
126.5344134505
 21
360.6019505773
 31
0.0
  0
ARC
  5
7A
330
75
100
AcDbEntity
  8
$DDT_AUDIT_GENERATED_(77)
  6
Continuous
 62
     7
100
AcDbCircle
 10
127.1651490371
 20
320.9724785679
 30
0.0
 40
39.63449102898518
100
AcDbArc
 50
88.9415798922
 51
90.9118323884
  0
SPLINE
  5
7B
330
75
100
AcDbEntity
  8
$DDT_AUDIT_GENERATED_(77)
  6
Continuous
 62
     7
100
AcDbSpline
210
0.0
220
0.0
230
1.0
 70
     8
 71
     2
 72
    10
 73
     7
 74
     0
 42
0.0000000072686449
 43
0.0000000001
 40
0.0
 40
0.0
 40
0.0
 40
0.25
 40
0.25
 40
0.5
 40
0.5
 40
1.0
 40
1.0
 40
1.0
 10
78.90451634622096
 20
360.6020624923941
 30
0.0
 10
78.8976119544646
 20
360.6019546846359
 30
0.0
 10
78.98251683290385
 20
360.6019546846359
 30
0.0
 10
79.0656702033308
 20
360.6019546846359
 30
0.0
 10
79.25149293709222
 20
360.6019546846359
 30
0.0
 10
79.60091366134067
 20
360.6019546846359
 30
0.0
 10
80.26647897661456
 20
360.6019546839241
 30
0.0
  0
ARC
  5
7C
330
75
100
AcDbEntity
  8
$DDT_AUDIT_GENERATED_(77)
  6
Continuous
 62
     7
100
AcDbCircle
 10
127.8959669918
 20
360.1047978274
 30
0.0
 40
0.4979261970854705
100
AcDbArc
 50
69.8781349403
 51
89.991378524
  0
ELLIPSE
  5
7D
330
75
100
AcDbEntity
  8
$DDT_AUDIT_GENERATED_(77)
  6
Continuous
 62
     7
100
AcDbEllipse
 10
127.8959123774
 20
360.0998804543
 30
0.0
 11
-0.3534593469675558
 21
-0.3556873534249078
 31
0.0
210
0.0
220
0.0
230
1.0
 40
0.9942094152
 41
3.612255962792602
 42
3.925060275700709
  0
ELLIPSE
  5
7E
330
75
100
AcDbEntity
  8
$DDT_AUDIT_GENERATED_(77)
  6
Continuous
 62
     7
100
AcDbEllipse
 10
78.9058638926
 20
360.1020669915
 30
0.0
 11
0.3530395103572073
 21
-0.3549298240154708
 31
0.0
210
0.0
220
0.0
230
1.0
 40
0.9975234953
 41
2.3603199124964
 42
2.673084344763109
  0
ARC
  5
7F
330
75
100
AcDbEntity
  8
$DDT_AUDIT_GENERATED_(77)
  6
Continuous
 62
     7
100
AcDbCircle
 10
126.5134499702
 20
360.1124117725
 30
0.0
 40
0.4899874579436586
100
AcDbArc
 50
358.7771276507
 51
87.5479256504
  0
SPLINE
  5
80
330
75
100
AcDbEntity
  8
$DDT_AUDIT_GENERATED_(77)
  6
Continuous
 62
     7
100
AcDbSpline
210
0.0
220
0.0
230
1.0
 70
     8
 71
     3
 72
    10
 73
     6
 74
     0
 42
0.0000000124159719
 43
0.0000000001
 40
0.0
 40
0.0
 40
0.0
 40
0.0
 40
0.5
 40
0.5
 40
1.0
 40
1.0
 40
1.0
 40
1.0
 10
121.991288853484
 20
360.6019546846359
 30
0.0
 10
122.1220726774695
 20
360.6019546846359
 30
0.0
 10
122.2516338296637
 20
360.548768329527
 30
0.0
 10
122.4382471091869
 20
360.3620513158391
 30
0.0
 10
122.4912888276586
 20
360.2332798376996
 30
0.0
 10
122.4912888534839
 20
360.101954783135
 30
0.0
  0
ARC
  5
81
330
75
100
AcDbEntity
  8
$DDT_AUDIT_GENERATED_(77)
  6
Continuous
 62
     7
100
AcDbCircle
 10
80.282309275
 20
360.1168294917
 30
0.0
 40
0.4853834056928752
100
AcDbArc
 50
91.8689764601
 51
181.7561314862
  0
SPLINE
  5
82
330
75
100
AcDbEntity
  8
$DDT_AUDIT_GENERATED_(77)
  6
Continuous
 62
     7
100
AcDbSpline
210
0.0
220
0.0
230
1.0
 70
     8
 71
     3
 72
    10
 73
     6
 74
     0
 42
0.0000000124159505
 43
0.0000000001
 40
0.0
 40
0.0
 40
0.0
 40
0.0
 40
0.5
 40
0.5
 40
1.0
 40
1.0
 40
1.0
 40
1.0
 10
84.30996755525805
 20
360.1019531909412
 30
0.0
 10
84.3099675555394
 20
360.2327350182921
 30
0.0
 10
84.3631534375814
 20
360.362298975624
 30
0.0
 10
84.54987059022595
 20
360.5489128196148
 30
0.0
 10
84.67864227852931
 20
360.6019546847816
 30
0.0
 10
84.80996755525803
 20
360.6019546846359
 30
0.0
  0
LINE
  5
83
330
75
100
AcDbEntity
  8
$DDT_AUDIT_GENERATED_(77)
  6
Continuous
 62
     7
100
AcDbLine
 10
128.3975626106
 20
360.1019546764
 30
0.0
 11
128.3817639304
 21
360.1019546766
 31
0.0
  0
LINE
  5
84
330
75
100
AcDbEntity
  8
$DDT_AUDIT_GENERATED_(77)
  6
Continuous
 62
     7
100
AcDbLine
 10
128.3817639304
 20
360.1019546766
 30
0.0
 11
127.0033258304
 21
360.1019546912
 31
0.0
  0
LINE
  5
85
330
75
100
AcDbEntity
  8
$DDT_AUDIT_GENERATED_(77)
  6
Continuous
 62
     7
100
AcDbLine
 10
127.0041081404
 20
360.1019546851
 30
0.0
 11
127.0041081404
 21
350.6066524746
 31
0.0
  0
LINE
  5
86
330
75
100
AcDbEntity
  8
$DDT_AUDIT_GENERATED_(77)
  6
Continuous
 62
     7
100
AcDbLine
 10
79.7971538457
 20
360.1019546853
 30
0.0
 11
78.419743894
 21
360.1019574098
 31
0.0
  0
LINE
  5
87
330
75
100
AcDbEntity
  8
$DDT_AUDIT_GENERATED_(77)
  6
Continuous
 62
     7
100
AcDbLine
 10
78.419743894
 20
360.1019574098
 30
0.0
 11
78.4040133874
 21
360.101957441
 31
0.0
  0
LINE
  5
88
330
75
100
AcDbEntity
  8
$DDT_AUDIT_GENERATED_(77)
  6
Continuous
 62
     7
100
AcDbLine
 10
78.4036794408
 20
350.6066524724
 30
0.0
 11
79.7971560484
 21
350.606652474
 31
0.0
  0
LINE
  5
89
330
75
100
AcDbEntity
  8
$DDT_AUDIT_GENERATED_(77)
  6
Continuous
 62
     7
100
AcDbLine
 10
128.3953957671
 20
240.6019546833
 30
0.0
 11
78.4045528616
 21
240.6019546833
 31
0.0
  0
ARC
  5
8A
330
75
100
AcDbEntity
  8
$DDT_AUDIT_GENERATED_(77)
  6
Continuous
 62
     7
100
AcDbCircle
 10
121.9910237567
 20
350.7637795949
 30
0.0
 40
0.5002650997879725
100
AcDbArc
 50
324.3965057835
 51
359.9939145866
  0
LINE
  5
8B
330
75
100
AcDbEntity
  8
$DDT_AUDIT_GENERATED_(77)
  6
Continuous
 62
     7
100
AcDbLine
 10
127.0033258304
 20
360.1019546912
 30
0.0
 11
122.5081435789
 21
360.1019556461
 31
0.0
  0
LINE
  5
8C
330
75
100
AcDbEntity
  8
$DDT_AUDIT_GENERATED_(77)
  6
Continuous
 62
     7
100
AcDbLine
 10
122.4912888535
 20
360.1019556496
 30
0.0
 11
122.4867520096
 21
360.1019556506
 31
0.0
  0
SPLINE
  5
8D
330
75
100
AcDbEntity
  8
$DDT_AUDIT_GENERATED_(77)
  6
Continuous
 62
     7
100
AcDbSpline
210
0.0
220
0.0
230
1.0
 70
     8
 71
     3
 72
     8
 73
     4
 74
     0
 42
0.0000001065837473
 43
0.0000000001
 40
0.3310702859485688
 40
0.3310702859485688
 40
0.3310702859485688
 40
0.3310702859485688
 40
0.3417286606824554
 40
0.3417286606824554
 40
0.3417286606824554
 40
0.3417286606824554
 10
122.4919262771386
 20
350.763157029428
 30
0.0
 10
122.4919811766549
 20
350.7631359214556
 30
0.0
 10
122.4920405011722
 20
350.7631125993616
 30
0.0
 10
122.4921047570662
 20
350.7630867341896
 30
0.0
  0
SPLINE
  5
8E
330
75
100
AcDbEntity
  8
$DDT_AUDIT_GENERATED_(77)
  6
Continuous
 62
     7
100
AcDbSpline
210
0.0
220
0.0
230
1.0
 70
     8
 71
     3
 72
    17
 73
    13
 74
     0
 42
0.0000000049973826
 43
0.0000000001
 40
0.3417286606824554
 40
0.3417286606824554
 40
0.3417286606824554
 40
0.3417286606824554
 40
0.4003765395347973
 40
0.5151004235589309
 40
0.6177995435271808
 40
0.7084740940311812
 40
0.7871235175183108
 40
0.8537477539596192
 40
0.9083487879494011
 40
0.9509175957993848
 40
0.9814667669438538
 40
1.0
 40
1.0
 40
1.0
 40
1.0
 10
122.4921047570662
 20
350.7630867341896
 30
0.0
 10
122.4924583261591
 20
350.7629444106637
 30
0.0
 10
122.493944912744
 20
350.7622960624388
 30
0.0
 10
122.4995637644601
 20
350.7594295595559
 30
0.0
 10
122.5211734726258
 20
350.7524926971846
 30
0.0
 10
122.5625528049643
 20
350.7422156107174
 30
0.0
 10
122.6348442894502
 20
350.7287816538926
 30
0.0
 10
122.7508491096023
 20
350.7117623548069
 30
0.0
 10
122.9195133233004
 20
350.6926454556224
 30
0.0
 10
123.1622410875972
 20
350.6679632813185
 30
0.0
 10
123.4385573901227
 20
350.6472372538511
 30
0.0
 10
123.6971698039632
 20
350.617708558743
 30
0.0
 10
123.7981898285306
 20
350.605928323734
 30
0.0
  0
ARC
  5
8F
330
75
100
AcDbEntity
  8
$DDT_AUDIT_GENERATED_(77)
  6
Continuous
 62
     7
100
AcDbCircle
 10
84.810310283
 20
350.7637929375
 30
0.0
 40
0.5003427321104486
100
AcDbArc
 50
180.0076117949
 51
215.5994758467
  0
LINE
  5
90
330
75
100
AcDbEntity
  8
$DDT_AUDIT_GENERATED_(77)
  6
Continuous
 62
     7
100
AcDbLine
 10
84.3099675553
 20
350.7637264665
 30
0.0
 11
84.3099675553
 21
360.1019531909
 31
0.0
  0
LINE
  5
91
330
75
100
AcDbEntity
  8
$DDT_AUDIT_GENERATED_(77)
  6
Continuous
 62
     7
100
AcDbLine
 10
84.3145029978
 20
360.1019552012
 30
0.0
 11
84.3099675553
 21
360.1019552007
 31
0.0
  0
LINE
  5
92
330
75
100
AcDbEntity
  8
$DDT_AUDIT_GENERATED_(77)
  6
Continuous
 62
     7
100
AcDbLine
 10
84.3099675553
 20
360.1019552007
 30
0.0
 11
79.7971538457
 21
360.1019546853
 31
0.0
  0
LINE
  5
93
330
75
100
AcDbEntity
  8
$DDT_AUDIT_GENERATED_(77)
  6
Continuous
 62
     7
100
AcDbLine
 10
79.7971538457
 20
360.1019546853
 30
0.0
 11
79.7971560484
 21
350.606652474
 31
0.0
  0
ARC
  5
94
330
75
100
AcDbEntity
  8
$DDT_AUDIT_GENERATED_(77)
  6
Continuous
 62
     7
100
AcDbCircle
 10
81.2019562732
 20
-232.5843966341
 30
0.0
 40
583.1927410586666
100
AcDbArc
 50
89.8230426613
 51
90.1380147524
  0
SPLINE
  5
95
330
75
100
AcDbEntity
  8
$DDT_AUDIT_GENERATED_(77)
  6
Continuous
 62
     7
100
AcDbSpline
210
0.0
220
0.0
230
1.0
 70
     8
 71
     3
 72
    18
 73
    14
 74
     0
 42
0.000000005078627
 43
0.0000000001
 40
0.0
 40
0.0
 40
0.0
 40
0.0
 40
0.0156851836326891
 40
0.0405709806622085
 40
0.0746551289872614
 40
0.1179465956528167
 40
0.1704474616706466
 40
0.2321541609942116
 40
0.3030639611944774
 40
0.3831787301513093
 40
0.4724992404305838
 40
0.5710254343162979
 40
0.6689353276642679
 40
0.6689353276642679
 40
0.6689353276642679
 40
0.6689353276642679
 10
83.00313730647851
 20
350.6055629591368
 30
0.0
 10
83.09051222788877
 20
350.6164534139065
 30
0.0
 10
83.30797522875665
 20
350.642046898489
 30
0.0
 10
83.56036410829947
 20
350.6616897135577
 30
0.0
 10
83.79178944191108
 20
350.6841836713488
 30
0.0
 10
83.96765093374424
 20
350.7024613648796
 30
0.0
 10
84.0968227813854
 20
350.7190307139242
 30
0.0
 10
84.18542025608855
 20
350.7328181399297
 30
0.0
 10
84.24397428249222
 20
350.7441253517389
 30
0.0
 10
84.27911524597923
 20
350.7528071419865
 30
0.0
 10
84.29945706274
 20
350.7588950245666
 30
0.0
 10
84.30692103441652
 20
350.7622110461941
 30
0.0
 10
84.30877169416364
 20
350.7628672856095
 30
0.0
 10
84.30931843204753
 20
350.7630436335696
 30
0.0
  0
LINE
  5
96
330
75
100
AcDbEntity
  8
$DDT_AUDIT_GENERATED_(77)
  6
Continuous
 62
     7
100
AcDbLine
 10
128.397576991
 20
350.606652473
 30
0.0
 11
127.0041039437
 21
350.606652475
 31
0.0
  0
SPLINE
  5
97
330
75
100
AcDbEntity
  8
$DDT_AUDIT_GENERATED_(77)
  6
Continuous
 62
     7
100
AcDbSpline
210
0.0
220
0.0
230
1.0
 70
     8
 71
     3
 72
    25
 73
    21
 74
     0
 42
0.0000000002205037
 43
0.0000000001
 40
0.0
 40
0.0
 40
0.0
 40
0.0
 40
0.0201449163608728
 40
0.0404247719180245
 40
0.0609485067433772
 40
0.081821278679811
 40
0.1031431830212854
 40
0.1250083058685494
 40
0.1844759693375463
 40
0.2499309795335133
 40
0.3093642950411093
 40
0.3749192892411444
 40
0.4998744939890493
 40
0.624886442979385
 40
0.6561454716059304
 40
0.687404821308591
 40
0.749921509807336
 40
0.8749571584816399
 40
0.937481160591341
 40
1.0
 40
1.0
 40
1.0
 40
1.0
 10
103.400628204371
 20
315.601871701555
 30
0.0
 10
103.0753182126815
 20
315.6092172355239
 30
0.0
 10
102.4225191649361
 20
315.6239575069645
 30
0.0
 10
101.4456247003749
 20
315.7428019598202
 30
0.0
 10
100.4715129737806
 20
315.9323297889948
 30
0.0
 10
99.50213332141155
 20
316.1995407935095
 30
0.0
 10
98.53934340189834
 20
316.5424552210665
 30
0.0
 10
97.04811004068917
 20
317.1972892935416
 30
0.0
 10
95.0637074930387
 20
318.389265265108
 30
0.0
 10
92.87615872181944
 20
320.227426053801
 30
0.0
 10
90.89927139275592
 20
322.3664085966867
 30
0.0
 10
88.62356770971361
 20
325.3938593259861
 30
0.0
 10
86.26937729763999
 20
329.5149538057796
 30
0.0
 10
84.61476109237213
 20
333.3691167534222
 30
0.0
 10
83.66145978105645
 20
335.9917754757039
 30
0.0
 10
83.0598856222897
 20
337.7500085882457
 30
0.0
 10
82.07179876047712
 20
340.8295800032841
 30
0.0
 10
81.10141586412082
 20
344.3601647303877
 30
0.0
 10
80.29492531518365
 20
347.9171817070545
 30
0.0
 10
79.96306938350875
 20
349.7101868952108
 30
0.0
 10
79.79715604844768
 20
350.6066524739985
 30
0.0
  0
ARC
  5
98
330
75
100
AcDbEntity
  8
$DDT_AUDIT_GENERATED_(77)
  6
Continuous
 62
     7
100
AcDbCircle
 10
123.3088852499
 20
350.6226991423
 30
0.0
 40
0.4895919025559634
100
AcDbArc
 50
346.3515868984
 51
358.0369668406
  0
SPLINE
  5
99
330
75
100
AcDbEntity
  8
$DDT_AUDIT_GENERATED_(77)
  6
Continuous
 62
     7
100
AcDbSpline
210
0.0
220
0.0
230
1.0
 70
     8
 71
     3
 72
    16
 73
    12
 74
     0
 42
0.0000000062162278
 43
0.0000000001
 40
0.0
 40
0.0
 40
0.0
 40
0.0
 40
0.2500000000000002
 40
0.2500000000000002
 40
0.5000000000000003
 40
0.5000000000000003
 40
0.6250000000000003
 40
0.6250000000000003
 40
0.7500000000000002
 40
0.7500000000000002
 40
0.8592010102496819
 40
0.8592010102496819
 40
0.8592010102496819
 40
0.8592010102496819
 10
123.7846520396701
 20
350.507173418863
 30
0.0
 10
123.5039596021395
 20
350.5005956817889
 30
0.0
 10
123.2554701232183
 20
350.4970619774679
 30
0.0
 10
122.855151386883
 20
350.4932551281812
 30
0.0
 10
122.7037459338212
 20
350.4929479537635
 30
0.0
 10
122.5504878561834
 20
350.4918798687474
 30
0.0
 10
122.5114248531405
 20
350.4914164925175
 30
0.0
 10
122.4536180458074
 20
350.4897595112817
 30
0.0
 10
122.4348824548806
 20
350.4885641639522
 30
0.0
 10
122.4125922278729
 20
350.485202410356
 30
0.0
 10
122.4074231438744
 20
350.4831763288716
 30
0.0
 10
122.4042074874754
 20
350.4805726368807
 30
0.0
  0
SPLINE
  5
9A
330
75
100
AcDbEntity
  8
$DDT_AUDIT_GENERATED_(77)
  6
Continuous
 62
     7
100
AcDbSpline
210
0.0
220
0.0
230
1.0
 70
     8
 71
     3
 72
    10
 73
     6
 74
     0
 42
0.0000000950484497
 43
0.0000000001
 40
0.8929272779917314
 40
0.8929272779917314
 40
0.8929272779917314
 40
0.8929272779917314
 40
0.9062500000000001
 40
0.9062500000000001
 40
0.9121437565314539
 40
0.9121437565314539
 40
0.9121437565314539
 40
0.9121437565314539
 10
122.4016798032538
 20
350.4779919092349
 30
0.0
 10
122.40139048635
 20
350.4776296154848
 30
0.0
 10
122.4011120870023
 20
350.4772583187375
 30
0.0
 10
122.4007159118281
 20
350.4767095532741
 30
0.0
 10
122.4005946599177
 20
350.4765401440582
 30
0.0
 10
122.4004735922149
 20
350.4763699277144
 30
0.0
  0
SPLINE
  5
9B
330
75
100
AcDbEntity
  8
$DDT_AUDIT_GENERATED_(77)
  6
Continuous
 62
     7
100
AcDbSpline
210
0.0
220
0.0
230
1.0
 70
     8
 71
     3
 72
    10
 73
     6
 74
     0
 42
0.0000000911139627
 43
0.0000000001
 40
0.9121437565314539
 40
0.9121437565314539
 40
0.9121437565314539
 40
0.9121437565314539
 40
0.9375000000000001
 40
0.9375000000000001
 40
1.0
 40
1.0
 40
1.0
 40
1.0
 10
122.4004735922149
 20
350.4763699277144
 30
0.0
 10
122.3999527321945
 20
350.4756376193755
 30
0.0
 10
122.399435281693
 20
350.4748903718231
 30
0.0
 10
122.3976343009466
 20
350.4723305881079
 30
0.0
 10
122.3963521577056
 20
350.4705088508987
 30
0.0
 10
122.3977719293198
 20
350.4725389828699
 30
0.0
  0
SPLINE
  5
9C
330
75
100
AcDbEntity
  8
$DDT_AUDIT_GENERATED_(77)
  6
Continuous
 62
     7
100
AcDbSpline
210
0.0
220
0.0
230
1.0
 70
     8
 71
     6
 72
    27
 73
    20
 74
     0
 42
0.0000000002199603
 43
0.0000000001
 40
0.0
 40
0.0
 40
0.0
 40
0.0
 40
0.0
 40
0.0
 40
0.0
 40
0.1247705182401431
 40
0.2419801380747141
 40
0.296993456640857
 40
0.355534594559357
 40
0.423178433105786
 40
0.479876841017786
 40
0.533834897139429
 40
0.6207937083645001
 40
0.6942907072844999
 40
0.737045859565429
 40
0.794751550113714
 40
0.882180157413286
 40
0.9410900787066429
 40
1.0
 40
1.0
 40
1.0
 40
1.0
 40
1.0
 40
1.0
 40
1.0
 10
103.400628204371
 20
315.601871701555
 30
0.0
 10
104.408110754267
 20
315.6018710508188
 30
0.0
 10
106.366665143298
 20
315.7906289691428
 30
0.0
 10
108.694244392231
 20
316.4720517307488
 30
0.0
 10
111.193277487376
 20
317.8272095312337
 30
0.0
 10
113.769875499727
 20
319.9071732863946
 30
0.0
 10
116.199372357792
 20
322.6581207181775
 30
0.0
 10
117.9947366421069
 20
325.1744704235335
 30
0.0
 10
119.4687046214699
 20
327.6136707069384
 30
0.0
 10
120.8342231883919
 20
330.2560146321694
 30
0.0
 10
121.9864262304449
 20
332.8588273535642
 30
0.0
 10
122.9793810665769
 20
335.4410647006521
 30
0.0
 10
123.9251822519399
 20
338.2866465812131
 30
0.0
 10
124.8219599412049
 20
341.142910061617
 30
0.0
 10
125.5531270497179
 20
343.8290947022529
 30
0.0
 10
126.0894266059839
 20
345.9914042500239
 30
0.0
 10
126.4891706444089
 20
347.8699116634349
 30
0.0
 10
126.7768113605819
 20
349.3371004087869
 30
0.0
 10
126.9298105072179
 20
350.1832464821669
 30
0.0
 10
127.0041039437282
 20
350.6066524749542
 30
0.0
  0
ARC
  5
9D
330
75
100
AcDbEntity
  8
$DDT_AUDIT_GENERATED_(77)
  6
Continuous
 62
     7
100
AcDbCircle
 10
126.0514064518
 20
-2528.1796071172
 30
0.0
 40
2878.786417233715
100
AcDbArc
 50
89.9810386953
 51
90.044845222
  0
SPLINE
  5
9E
330
75
100
AcDbEntity
  8
$DDT_AUDIT_GENERATED_(77)
  6
Continuous
 62
     7
100
AcDbSpline
210
0.0
220
0.0
230
1.0
 70
     8
 71
     3
 72
    10
 73
     6
 74
     0
 42
0.0000000906072563
 43
0.0000000001
 40
0.0
 40
0.0
 40
0.0
 40
0.0
 40
0.0625000000000002
 40
0.0625000000000002
 40
0.0728278420132836
 40
0.0728278420132836
 40
0.0728278420132836
 40
0.0728278420132836
 10
84.40347856219415
 20
350.4725356619565
 30
0.0
 10
84.40490425103641
 20
350.4705088508987
 30
0.0
 10
84.40362210779543
 20
350.4723305881079
 30
0.0
 10
84.40212919692091
 20
350.4744525035989
 30
0.0
 10
84.40191787147383
 20
350.4747548207546
 30
0.0
 10
84.4017065449003
 20
350.4750569609474
 30
0.0
  0
SPLINE
  5
9F
330
75
100
AcDbEntity
  8
$DDT_AUDIT_GENERATED_(77)
  6
Continuous
 62
     7
100
AcDbSpline
210
0.0
220
0.0
230
1.0
 70
     8
 71
     3
 72
     8
 73
     4
 74
     0
 42
0.000000093613746
 43
0.0000000001
 40
0.0728278420132836
 40
0.0728278420132836
 40
0.0728278420132836
 40
0.0728278420132836
 40
0.0878564906048482
 40
0.0878564906048482
 40
0.0878564906048482
 40
0.0878564906048482
 10
84.4017065449003
 20
350.4750569609474
 30
0.0
 10
84.40139903120988
 20
350.475496622861
 30
0.0
 10
84.40109151513423
 20
350.4759359100578
 30
0.0
 10
84.4007828012973
 20
350.4763699491268
 30
0.0
  0
SPLINE
  5
A0
330
75
100
AcDbEntity
  8
$DDT_AUDIT_GENERATED_(77)
  6
Continuous
 62
     7
100
AcDbSpline
210
0.0
220
0.0
230
1.0
 70
     8
 71
     3
 72
    16
 73
    12
 74
     0
 42
0.0000000062417715
 43
0.0000000001
 40
0.1369823487894558
 40
0.1369823487894558
 40
0.1369823487894558
 40
0.1369823487894558
 40
0.2500000000000003
 40
0.2500000000000003
 40
0.3750000000000003
 40
0.3750000000000003
 40
0.5000000000000002
 40
0.5000000000000002
 40
0.7500000000000001
 40
0.7500000000000001
 40
1.0
 40
1.0
 40
1.0
 40
1.0
 10
84.39737906968456
 20
350.4802975132673
 30
0.0
 10
84.3941882084737
 20
350.4830341431453
 30
0.0
 10
84.38902743204957
 20
350.4851476257653
 30
0.0
 10
84.36637395386145
 20
350.4885641639521
 30
0.0
 10
84.34763836293467
 20
350.4897595112816
 30
0.0
 10
84.28983155560164
 20
350.4914164925174
 30
0.0
 10
84.25076855255874
 20
350.4918798687473
 30
0.0
 10
84.09751047492111
 20
350.4929479537634
 30
0.0
 10
83.94610502185934
 20
350.4932551281811
 30
0.0
 10
83.54578628552426
 20
350.4970619774679
 30
0.0
 10
83.29729680660323
 20
350.5005956817888
 30
0.0
 10
83.01660436910907
 20
350.5071734188646
 30
0.0
  0
ARC
  5
A1
330
75
100
AcDbEntity
  8
$DDT_AUDIT_GENERATED_(77)
  6
Continuous
 62
     7
100
AcDbCircle
 10
83.4869038177
 20
350.6216620505
 30
0.0
 40
0.4840343150104319
100
AcDbArc
 50
181.9060221854
 51
193.6818276154
  0
SPLINE
  5
A2
330
75
100
AcDbEntity
  8
$DDT_AUDIT_GENERATED_(77)
  6
Continuous
 62
     7
100
AcDbSpline
210
0.0
220
0.0
230
1.0
 70
     8
 71
     6
 72
    14
 73
     7
 74
     0
 42
0.0000000002495022
 43
0.0000000001
 40
0.0
 40
0.0
 40
0.0
 40
0.0
 40
0.0
 40
0.0
 40
0.0
 40
0.4834752746295549
 40
0.4834752746295549
 40
0.4834752746295549
 40
0.4834752746295549
 40
0.4834752746295549
 40
0.4834752746295549
 40
0.4834752746295549
 10
103.400628204371
 20
315.601871701555
 30
0.0
 10
103.4006282061632
 20
319.3624426719665
 30
0.0
 10
103.4006282078614
 20
322.9837215000222
 30
0.0
 10
103.4006282095009
 20
326.5104098512
 30
0.0
 10
103.4006282110236
 20
329.8006470908857
 30
0.0
 10
103.4006282123438
 20
332.6606717290239
 30
0.0
 10
103.4006253876791
 20
334.9794710164009
 30
0.0
  0
LINE
  5
A3
330
75
100
AcDbEntity
  8
$DDT_AUDIT_GENERATED_(77)
  6
Continuous
 62
     7
100
AcDbLine
 10
122.4912888535
 20
350.7637264615
 30
0.0
 11
122.4912888535
 21
360.1019547831
 31
0.0
  0
ARC
  5
A4
330
75
100
AcDbEntity
  8
$DDT_AUDIT_GENERATED_(77)
  6
Continuous
 62
     7
100
AcDbCircle
 10
-1097.4668964051
 20
349.3990577971
 30
0.0
 40
1200.868019136033
100
AcDbArc
 50
359.9480022055
 51
0.0519977792
  0
ARC
  5
A5
330
75
100
AcDbEntity
  8
$DDT_AUDIT_GENERATED_(77)
  6
Continuous
 62
     7
100
AcDbCircle
 10
89.952062472
 20
4940.3653195073
 30
0.0
 40
4589.896137602565
100
AcDbArc
 50
269.930736882
 51
270.1678789969
  0
ARC
  5
A6
330
75
100
AcDbEntity
  8
$DDT_AUDIT_GENERATED_(77)
  6
Continuous
 62
     7
100
AcDbCircle
 10
103.4023999779
 20
363.8185229406
 30
0.0
 40
23.21506931654316
100
AcDbArc
 50
300.957127676
 51
305.2577739062
  0
ARC
  5
A7
330
75
100
AcDbEntity
  8
$DDT_AUDIT_GENERATED_(77)
  6
Continuous
 62
     7
100
AcDbCircle
 10
103.4023999779
 20
363.8185229406
 30
0.0
 40
23.21506931654316
100
AcDbArc
 50
305.2577739062
 51
307.2780369738
  0
ARC
  5
A8
330
75
100
AcDbEntity
  8
$DDT_AUDIT_GENERATED_(77)
  6
Continuous
 62
     7
100
AcDbCircle
 10
103.4023999779
 20
363.8185229406
 30
0.0
 40
23.21506931654316
100
AcDbArc
 50
307.2780369738
 51
317.2964676867
  0
ARC
  5
A9
330
75
100
AcDbEntity
  8
$DDT_AUDIT_GENERATED_(77)
  6
Continuous
 62
     7
100
AcDbCircle
 10
103.4023999779
 20
363.8185229406
 30
0.0
 40
23.21506931654316
100
AcDbArc
 50
317.2964676867
 51
319.9522764903
  0
ARC
  5
AA
330
75
100
AcDbEntity
  8
$DDT_AUDIT_GENERATED_(77)
  6
Continuous
 62
     7
100
AcDbCircle
 10
103.4023999779
 20
363.8185229406
 30
0.0
 40
23.21506931654316
100
AcDbArc
 50
319.9522764903
 51
321.7064733658
  0
ARC
  5
AB
330
75
100
AcDbEntity
  8
$DDT_AUDIT_GENERATED_(77)
  6
Continuous
 62
     7
100
AcDbCircle
 10
103.4023999779
 20
363.8185229406
 30
0.0
 40
23.21506931654316
100
AcDbArc
 50
321.7064733658
 51
324.9084546077
  0
ARC
  5
AC
330
75
100
AcDbEntity
  8
$DDT_AUDIT_GENERATED_(77)
  6
Continuous
 62
     7
100
AcDbCircle
 10
117.6961412236
 20
5925.6512208884
 30
0.0
 40
5575.180664382593
100
AcDbArc
 50
269.8530857547
 51
270.0483183675
  0
ARC
  5
AD
330
75
100
AcDbEntity
  8
$DDT_AUDIT_GENERATED_(77)
  6
Continuous
 62
     7
100
AcDbCircle
 10
91.5587367898
 20
-1431.6785532178
 30
0.0
 40
1782.457019134472
100
AcDbArc
 50
89.6193482916
 51
90.233007037
  0
ARC
  5
AE
330
75
100
AcDbEntity
  8
$DDT_AUDIT_GENERATED_(77)
  6
Continuous
 62
     7
100
AcDbCircle
 10
114.1344303802
 20
-571.6583997041
 30
0.0
 40
922.459980662295
100
AcDbArc
 50
89.4809322027
 51
90.6667124168
  0
LINE
  5
AF
330
75
100
AcDbEntity
  8
$DDT_AUDIT_GENERATED_(77)
  6
Continuous
 62
     7
100
AcDbLine
 10
122.4912888535
 20
360.1019547831
 30
0.0
 11
103.4006282044
 21
360.1019546846
 31
0.0
  0
LINE
  5
B0
330
75
100
AcDbEntity
  8
$DDT_AUDIT_GENERATED_(77)
  6
Continuous
 62
     7
100
AcDbLine
 10
103.4006282044
 20
360.1019546846
 30
0.0
 11
84.3099675553
 21
360.1019531909
 31
0.0
  0
LINE
  5
B1
330
75
100
AcDbEntity
  8
$DDT_AUDIT_GENERATED_(77)
  6
Continuous
 62
     7
100
AcDbLine
 10
103.4006282044
 20
350.4888843449
 30
0.0
 11
103.4006282044
 21
350.7391292301
 31
0.0
  0
LINE
  5
B2
330
75
100
AcDbEntity
  8
$DDT_AUDIT_GENERATED_(77)
  6
Continuous
 62
     7
100
AcDbLine
 10
84.8099675553
 20
360.6019546846
 30
0.0
 11
121.9912888535
 21
360.6019546846
 31
0.0
  0
ARC
  5
B3
330
75
100
AcDbEntity
  8
$DDT_AUDIT_GENERATED_(77)
  6
Continuous
 62
     7
100
AcDbCircle
 10
103.3994827091
 20
363.81895135
 30
0.0
 40
23.21583479579807
100
AcDbArc
 50
232.7215343167
 51
239.0421135297
  0
ARC
  5
B4
330
75
100
AcDbEntity
  8
$DDT_AUDIT_GENERATED_(77)
  6
Continuous
 62
     7
100
AcDbCircle
 10
103.3994827091
 20
363.81895135
 30
0.0
 40
23.21583479579807
100
AcDbArc
 50
222.7031409686
 51
232.7215343167
  0
ARC
  5
B5
330
75
100
AcDbEntity
  8
$DDT_AUDIT_GENERATED_(77)
  6
Continuous
 62
     7
100
AcDbCircle
 10
103.3994827091
 20
363.81895135
 30
0.0
 40
23.21583479579807
100
AcDbArc
 50
220.0980335879
 51
222.7031409686
  0
ARC
  5
B6
330
75
100
AcDbEntity
  8
$DDT_AUDIT_GENERATED_(77)
  6
Continuous
 62
     7
100
AcDbCircle
 10
103.3994827091
 20
363.81895135
 30
0.0
 40
23.21583479579807
100
AcDbArc
 50
218.1672283893
 51
220.0980335879
  0
ARC
  5
B7
330
75
100
AcDbEntity
  8
$DDT_AUDIT_GENERATED_(77)
  6
Continuous
 62
     7
100
AcDbCircle
 10
103.3994827091
 20
363.81895135
 30
0.0
 40
23.21583479579807
100
AcDbArc
 50
215.0915202617
 51
218.1672283893
  0
SPLINE
  5
B8
330
75
100
AcDbEntity
  8
$DDT_AUDIT_GENERATED_(77)
  6
Continuous
 62
     7
100
AcDbSpline
210
0.0
220
0.0
230
1.0
 70
     8
 71
     3
 72
    16
 73
    12
 74
     0
 42
0.0000000006031769
 43
0.0000000001
 40
0.0
 40
0.0
 40
0.0
 40
0.0
 40
0.1249999999999993
 40
0.1249999999999993
 40
0.2499999999999986
 40
0.2499999999999986
 40
0.4999999999999987
 40
0.4999999999999987
 40
0.7499999999999988
 40
0.7499999999999988
 40
0.8691702552455335
 40
0.8691702552455335
 40
0.8691702552455335
 40
0.8691702552455335
 10
103.4006282040817
 20
348.3092309304601
 30
0.0
 10
102.3369939512719
 20
348.3093213691353
 30
0.0
 10
101.2947306096114
 20
348.2909643835006
 30
0.0
 10
99.25350647738969
 20
348.2021926221719
 30
0.0
 10
98.26387126635959
 20
348.1191423044884
 30
0.0
 10
95.52598644752337
 20
347.7490937883559
 30
0.0
 10
93.9651115876461
 20
347.3505306246356
 30
0.0
 10
91.79941586609684
 20
346.3430607021987
 30
0.0
 10
91.20200497887399
 20
345.7292242963778
 30
0.0
 10
91.1308969820802
 20
344.7834558613223
 30
0.0
 10
91.23353911457211
 20
344.4695719135157
 30
0.0
 10
91.4552623527172
 20
344.1733533681224
 30
0.0
  0
SPLINE
  5
B9
330
75
100
AcDbEntity
  8
$DDT_AUDIT_GENERATED_(77)
  6
Continuous
 62
     7
100
AcDbSpline
210
0.0
220
0.0
230
1.0
 70
     8
 71
     3
 72
    16
 73
    12
 74
     0
 42
0.0000000006031767
 43
0.0000000001
 40
0.0
 40
0.0
 40
0.0
 40
0.0
 40
0.1250000000000001
 40
0.1250000000000001
 40
0.2500000000000002
 40
0.2500000000000002
 40
0.5000000000000001
 40
0.5000000000000001
 40
0.7500000000000001
 40
0.7500000000000001
 40
0.8691699925925385
 40
0.8691699925925385
 40
0.8691699925925385
 40
0.8691699925925385
 10
103.4006282040817
 20
348.3092309304601
 30
0.0
 10
104.464262778699
 20
348.3093213691639
 30
0.0
 10
105.5065264287481
 20
348.2909643776808
 30
0.0
 10
107.5477511532051
 20
348.2021925474721
 30
0.0
 10
108.5373865991283
 20
348.1191421651735
 30
0.0
 10
111.2752720150063
 20
347.7490933956153
 30
0.0
 10
112.8361470711546
 20
347.3505299705907
 30
0.0
 10
115.0018422230508
 20
346.3430595278123
 30
0.0
 10
115.5992525244764
 20
345.7292227925743
 30
0.0
 10
115.6703590478625
 20
344.7834546764494
 30
0.0
 10
115.5677168699813
 20
344.4695713657669
 30
0.0
 10
115.3459940543233
 20
344.1733533686389
 30
0.0
  0
LINE
  5
BA
330
75
100
AcDbEntity
  8
$DDT_AUDIT_GENERATED_(77)
  6
Continuous
 62
     7
100
AcDbLine
 10
128.2840067761
 20
360.4165300592
 30
0.0
 11
128.279306742
 21
360.422258511
 31
0.0
  0
LINE
  5
BB
330
75
100
AcDbEntity
  8
$DDT_AUDIT_GENERATED_(77)
  6
Continuous
 62
     7
100
AcDbLine
 10
78.6256260062
 20
360.5161613728
 30
0.0
 11
78.6233915173
 21
360.5146437246
 31
0.0
  0
ARC
  5
BC
330
75
100
AcDbEntity
  8
$DDT_AUDIT_GENERATED_(77)
  6
Continuous
 62
     7
100
AcDbCircle
 10
127.9175095829
 20
360.137474153
 30
0.0
 40
0.4599339416160402
100
AcDbArc
 50
355.570790027
 51
73.4197642032
  0
ARC
  5
BD
330
75
100
AcDbEntity
  8
$DDT_AUDIT_GENERATED_(77)
  6
Continuous
 62
     7
100
AcDbCircle
 10
78.88340033
 20
360.1381322663
 30
0.0
 40
0.4591995038985546
100
AcDbArc
 50
106.5926236765
 51
184.5186744651
  0
LINE
  5
BE
330
75
100
AcDbEntity
  8
$DDT_AUDIT_GENERATED_(77)
  6
Continuous
 62
     7
100
AcDbLine
 10
128.39808354
 20
350.606652473
 30
0.0
 11
128.39808354
 21
360.1019546856
 31
0.0
  0
LINE
  5
BF
330
75
100
AcDbEntity
  8
$DDT_AUDIT_GENERATED_(77)
  6
Continuous
 62
     7
100
AcDbLine
 10
78.4031728687
 20
360.101954686
 30
0.0
 11
78.4031728687
 21
350.606652472
 31
0.0
  0
ARC
  5
C0
330
75
100
AcDbEntity
  8
$DDT_AUDIT_GENERATED_(77)
  6
Continuous
 62
     7
100
AcDbCircle
 10
122.0061586486
 20
350.7605190714
 30
0.0
 40
0.4842337269403734
100
AcDbArc
 50
324.8089254042
 51
0.3248912079
  0
ARC
  5
C1
330
75
100
AcDbEntity
  8
$DDT_AUDIT_GENERATED_(77)
  6
Continuous
 62
     7
100
AcDbCircle
 10
122.0737475635
 20
350.746210401
 30
0.0
 40
0.4154747867422868
100
AcDbArc
 50
326.9045408684
 51
355.9878082371
  0
LINE
  5
C2
330
75
100
AcDbEntity
  8
$DDT_AUDIT_GENERATED_(77)
  6
Continuous
 62
     7
100
AcDbLine
 10
78.4031728687
 20
350.606652472
 30
0.0
 11
78.4031728687
 21
240.6019546833
 31
0.0
  0
LINE
  5
C3
330
75
100
AcDbEntity
  8
$DDT_AUDIT_GENERATED_(77)
  6
Continuous
 62
     7
100
AcDbLine
 10
128.39808354
 20
240.6019546833
 30
0.0
 11
128.39808354
 21
350.606652473
 31
0.0
  0
ARC
  5
C5
330
75
100
AcDbEntity
  8
$DDT_AUDIT_GENERATED_(C4)
  6
Continuous
 62
     7
100
AcDbCircle
 10
103.4006282044
 20
354.2019546846
 30
0.0
 40
24.5
100
AcDbArc
 50
15.1427314405
 51
21.7473017939
  0
ARC
  5
C6
330
75
100
AcDbEntity
  8
$DDT_AUDIT_GENERATED_(C4)
  6
Continuous
 62
     7
100
AcDbCircle
 10
103.4006282044
 20
354.2019546846
 30
0.0
 40
24.50000000000001
100
AcDbArc
 50
158.2526982061
 51
164.8572685595
  0
SPLINE
  5
C8
330
75
100
AcDbEntity
  8
$DDT_AUDIT_GENERATED_(C7)
  6
Continuous
 62
     7
100
AcDbSpline
210
0.0
220
0.0
230
1.0
 70
     8
 71
     3
 72
    20
 73
    16
 74
     0
 42
0.0000000004573911
 43
0.0000000001
 40
0.0
 40
0.0
 40
0.0
 40
0.0
 40
0.0001600668072858
 40
0.0138849894415225
 40
0.13833215623315
 40
0.2007896339993117
 40
0.2632471132104691
 40
0.3259080714604258
 40
0.3885690342629677
 40
0.5140822695437696
 40
0.6397244135229835
 40
0.7652064737264271
 40
0.8244940508775548
 40
0.8832568419750123
 40
0.9325315194621031
 40
0.9325315194621031
 40
0.9325315194621031
 40
0.9325315194621031
 10
103.4006126345071
 20
389.0295808204751
 30
0.0
 10
103.3989286250614
 20
389.0295755736869
 30
0.0
 10
103.252849056236
 20
389.029573661609
 30
0.0
 10
101.7977685779427
 20
389.0345407223202
 30
0.0
 10
99.68437101710795
 20
389.1142975553896
 30
0.0
 10
97.17374594079834
 20
389.3298022268734
 30
0.0
 10
95.35748258950382
 20
389.547779277078
 30
0.0
 10
93.63411510824355
 20
389.8191184041785
 30
0.0
 10
91.48274849773932
 20
390.2469943364138
 30
0.0
 10
89.10990510581692
 20
390.8969721476525
 30
0.0
 10
86.88718582856563
 20
391.8198332833298
 30
0.0
 10
85.6269056962097
 20
392.6657665157973
 30
0.0
 10
84.96237349638817
 20
393.3560873612911
 30
0.0
 10
84.66824201916076
 20
393.8405093015416
 30
0.0
 10
84.58124168265633
 20
394.156997958234
 30
0.0
 10
84.56745201463303
 20
394.3014235975954
 30
0.0
  0
SPLINE
  5
C9
330
75
100
AcDbEntity
  8
$DDT_AUDIT_GENERATED_(C7)
  6
Continuous
 62
     7
100
AcDbSpline
210
0.0
220
0.0
230
1.0
 70
     8
 71
     3
 72
     9
 73
     5
 74
     0
 42
0.0000000011304598
 43
0.0000000001
 40
0.9325315194621031
 40
0.9325315194621031
 40
0.9325315194621031
 40
0.9325315194621031
 40
0.9417948193239954
 40
0.977333935396061
 40
0.977333935396061
 40
0.977333935396061
 40
0.977333935396061
 10
84.56745201463303
 20
394.3014235975954
 30
0.0
 10
84.56485965205634
 20
394.3285746226933
 30
0.0
 10
84.5567469865851
 20
394.4599053763945
 30
0.0
 10
84.57073479040999
 20
394.5911934985425
 30
0.0
 10
84.58724583857746
 20
394.695326182063
 30
0.0
  0
SPLINE
  5
CA
330
75
100
AcDbEntity
  8
$DDT_AUDIT_GENERATED_(C7)
  6
Continuous
 62
     7
100
AcDbSpline
210
0.0
220
0.0
230
1.0
 70
     8
 71
     3
 72
    21
 73
    17
 74
     0
 42
0.0000000004763714
 43
0.0000000001
 40
0.0
 40
0.0
 40
0.0
 40
0.0
 40
0.0136883436636745
 40
0.1374401390181952
 40
0.1998591329962439
 40
0.2624839749058832
 40
0.3879938374110881
 40
0.513659118659273
 40
0.5765156541207195
 40
0.6392895553982808
 40
0.7643545029525758
 40
0.826785089067244
 40
0.8892156742772815
 40
0.9515397113175273
 40
0.9757670668247229
 40
1.0
 40
1.0
 40
1.0
 40
1.0
 10
122.1780139213798
 20
394.8945582721857
 30
0.0
 10
122.1884414836925
 20
394.8545480843571
 30
0.0
 10
122.2931411933468
 20
394.4528190016719
 30
0.0
 10
122.1451252339059
 20
393.8629237517092
 30
0.0
 10
121.6345201603599
 20
393.1474765590881
 30
0.0
 10
120.8744710047707
 20
392.443227438297
 30
0.0
 10
119.4690230158303
 20
391.6044169775483
 30
0.0
 10
117.4948270423007
 20
390.8583388566257
 30
0.0
 10
115.6168992342644
 20
390.3385126627322
 30
0.0
 10
113.5620426845966
 20
389.876610726849
 30
0.0
 10
111.2584055070642
 20
389.5083643171357
 30
0.0
 10
108.7937310834875
 20
389.250870008909
 30
0.0
 10
106.8826898761966
 20
389.1146055964697
 30
0.0
 10
105.3279865989258
 20
389.053796591736
 30
0.0
 10
104.1651243401726
 20
389.0322519726909
 30
0.0
 10
103.6554694248673
 20
389.030467789835
 30
0.0
 10
103.4006126345071
 20
389.0295808204751
 30
0.0
  0
ARC
  5
CB
330
75
100
AcDbEntity
  8
$DDT_AUDIT_GENERATED_(C7)
  6
Continuous
 62
     7
100
AcDbCircle
 10
103.4348200616
 20
750.1484854309
 30
0.0
 40
353.0059332256788
100
AcDbArc
 50
269.9944503921
 51
272.9537134636
  0
LINE
  5
CC
330
75
100
AcDbEntity
  8
$DDT_AUDIT_GENERATED_(C7)
  6
Continuous
 62
     7
100
AcDbLine
 10
103.4006126345
 20
389.0295808205
 30
0.0
 11
103.4006282849
 21
397.1425538611
 31
0.0
  0
SPLINE
  5
CD
330
75
100
AcDbEntity
  8
$DDT_AUDIT_GENERATED_(C7)
  6
Continuous
 62
     7
100
AcDbSpline
210
0.0
220
0.0
230
1.0
 70
     8
 71
     3
 72
    16
 73
    12
 74
     0
 42
0.0000000001876107
 43
0.0000000001
 40
0.3731924288984608
 40
0.3731924288984608
 40
0.3731924288984608
 40
0.3731924288984608
 40
0.3749999999999998
 40
0.3749999999999998
 40
0.4999999999999997
 40
0.4999999999999997
 40
0.5624999999999997
 40
0.5624999999999997
 40
0.6249999999999996
 40
0.6249999999999996
 40
0.6735480125629193
 40
0.6735480125629193
 40
0.6735480125629193
 40
0.6735480125629193
 10
96.55274290963189
 20
411.2797876647418
 30
0.0
 10
96.58338068174454
 20
411.2815975901108
 30
0.0
 10
96.61405127346781
 20
411.2833945040546
 30
0.0
 10
98.7679661434245
 20
411.4085391457713
 30
0.0
 10
101.0899383949984
 20
411.4722368255822
 30
0.0
 10
104.5407837767833
 20
411.4725450320656
 30
0.0
 10
105.7089607966335
 20
411.4567859948323
 30
0.0
 10
107.9728512628994
 20
411.3943675706224
 30
0.0
 10
109.072707405114
 20
411.3480891332372
 30
0.0
 10
110.9697620164297
 20
411.2382326574024
 30
0.0
 10
111.7791332847083
 20
411.1805379464343
 30
0.0
 10
112.547649752577
 20
411.1145763875054
 30
0.0
  0
SPLINE
  5
CE
330
75
100
AcDbEntity
  8
$DDT_AUDIT_GENERATED_(C7)
  6
Continuous
 62
     7
100
AcDbSpline
210
0.0
220
0.0
230
1.0
 70
     8
 71
     3
 72
     8
 73
     4
 74
     0
 42
0.000000001208398
 43
0.0000000001
 40
0.9987695017077873
 40
0.9987695017077873
 40
0.9987695017077873
 40
0.9987695017077873
 40
1.0
 40
1.0
 40
1.0
 40
1.0
 10
85.24753893336445
 20
408.4549654572798
 30
0.0
 10
85.24737548846294
 20
408.4515721389546
 30
0.0
 10
85.24725788648068
 20
408.4481800712674
 30
0.0
 10
85.2471861627124
 20
408.444789298511
 30
0.0
  0
LINE
  5
CF
330
75
100
AcDbEntity
  8
$DDT_AUDIT_GENERATED_(C7)
  6
Continuous
 62
     7
100
AcDbLine
 10
127.8865315081
 20
365.7425647536
 30
0.0
 11
122.1882196684
 21
394.8424400353
 31
0.0
  0
SPLINE
  5
D0
330
75
100
AcDbEntity
  8
$DDT_AUDIT_GENERATED_(C7)
  6
Continuous
 62
     7
100
AcDbSpline
210
0.0
220
0.0
230
1.0
 70
     8
 71
     3
 72
    12
 73
     8
 74
     0
 42
0.0000000151019633
 43
0.0000000001
 40
0.0
 40
0.0
 40
0.0
 40
0.0
 40
0.4999999999999991
 40
0.4999999999999991
 40
0.7499999999999996
 40
0.7499999999999996
 40
1.0
 40
1.0
 40
1.0
 40
1.0
 10
127.7063595697399
 20
363.5669852686306
 30
0.0
 10
127.7947649821813
 20
363.5569235683777
 30
0.0
 10
127.8636112486548
 20
363.5921177860799
 30
0.0
 10
127.9388254465617
 20
363.7145152633193
 30
0.0
 10
127.959253869972
 20
363.7674584144293
 30
0.0
 10
127.9900330645236
 20
363.8959570127462
 30
0.0
 10
128.0004907497254
 20
363.9714338501253
 30
0.0
 10
128.0062717015663
 20
364.0583714743582
 30
0.0
  0
ARC
  5
D1
330
75
100
AcDbEntity
  8
$DDT_AUDIT_GENERATED_(C7)
  6
Continuous
 62
     7
100
AcDbCircle
 10
121.8701002605
 20
364.4684645502
 30
0.0
 40
6.149859858973079
100
AcDbArc
 50
356.1764899501
 51
3.2102813383
  0
ARC
  5
D2
330
75
100
AcDbEntity
  8
$DDT_AUDIT_GENERATED_(C7)
  6
Continuous
 62
     7
100
AcDbCircle
 10
121.8701002605
 20
364.4684645502
 30
0.0
 40
6.149859858973079
100
AcDbArc
 50
3.2102813383
 51
11.9568796414
  0
SPLINE
  5
D3
330
75
100
AcDbEntity
  8
$DDT_AUDIT_GENERATED_(C7)
  6
Continuous
 62
     7
100
AcDbSpline
210
0.0
220
0.0
230
1.0
 70
     8
 71
     3
 72
    12
 73
     8
 74
     0
 42
0.0000000152887449
 43
0.0000000001
 40
0.0
 40
0.0
 40
0.0
 40
0.0
 40
0.5
 40
0.5
 40
0.75
 40
0.75
 40
1.0
 40
1.0
 40
1.0
 40
1.0
 10
78.79247689098196
 20
364.0581822824273
 30
0.0
 10
78.80381947112497
 20
363.8842582765221
 30
0.0
 10
78.83366372790277
 20
363.7575075779964
 30
0.0
 10
78.90829006987386
 20
363.6340848315494
 30
0.0
 10
78.93839554422796
 20
363.6041468612007
 30
0.0
 10
79.0080003384912
 20
363.5680302387439
 30
0.0
 10
79.04748313408739
 20
363.5616340861501
 30
0.0
 10
79.09166187737274
 20
363.5666612067648
 30
0.0
  0
ARC
  5
D4
330
75
100
AcDbEntity
  8
$DDT_AUDIT_GENERATED_(C7)
  6
Continuous
 62
     7
100
AcDbCircle
 10
84.9606734194
 20
364.4571383908
 30
0.0
 40
6.181085211296291
100
AcDbArc
 50
167.9970971942
 51
176.8534787415
  0
ARC
  5
D5
330
75
100
AcDbEntity
  8
$DDT_AUDIT_GENERATED_(C7)
  6
Continuous
 62
     7
100
AcDbCircle
 10
84.9606734194
 20
364.4571383908
 30
0.0
 40
6.181085211296291
100
AcDbArc
 50
176.8534787415
 51
183.7007097851
  0
LINE
  5
D6
330
75
100
AcDbEntity
  8
$DDT_AUDIT_GENERATED_(C7)
  6
Continuous
 62
     7
100
AcDbLine
 10
79.3786175114
 20
363.2077031387
 30
0.0
 11
79.7983652151
 21
363.2077031387
 31
0.0
  0
SPLINE
  5
D7
330
75
100
AcDbEntity
  8
$DDT_AUDIT_GENERATED_(C7)
  6
Continuous
 62
     7
100
AcDbSpline
210
0.0
220
0.0
230
1.0
 70
     8
 71
     3
 72
     8
 73
     4
 74
     0
 42
0.0000000194029162
 43
0.0000000001
 40
0.0
 40
0.0
 40
0.0
 40
0.0
 40
0.0484860140196375
 40
0.0484860140196375
 40
0.0484860140196375
 40
0.0484860140196375
 10
79.3786175113646
 20
363.207703138697
 30
0.0
 10
79.37013107039267
 20
363.2066769639428
 30
0.0
 10
79.36182907121699
 20
363.2061062026505
 30
0.0
 10
79.35371069952343
 20
363.205991605132
 30
0.0
  0
ELLIPSE
  5
D8
330
75
100
AcDbEntity
  8
$DDT_AUDIT_GENERATED_(C7)
  6
Continuous
 62
     7
100
AcDbEllipse
 10
127.4194798974
 20
363.5076003362
 30
0.0
 11
-0.03384757334490632
 21
-0.2980844541043137
 31
0.0
210
0.0
220
0.0
230
1.0
 40
0.97410795
 41
0.1160447548756895
 42
1.880290343399285
  0
ELLIPSE
  5
D9
330
75
100
AcDbEntity
  8
$DDT_AUDIT_GENERATED_(C7)
  6
Continuous
 62
     7
100
AcDbEllipse
 10
127.7145618167
 20
363.999798264
 30
0.0
 11
-0.2994021216969275
 21
0.01893065036860653
 31
0.0
210
0.0
220
0.0
230
1.0
 40
0.8945784204
 41
3.15336341888361
 42
3.432067076138317
  0
ELLIPSE
  5
DA
330
75
100
AcDbEntity
  8
$DDT_AUDIT_GENERATED_(C7)
  6
Continuous
 62
     7
100
AcDbEllipse
 10
79.0842604881
 20
363.999798264
 30
0.0
 11
0.299425338356793
 21
0.01855981546032559
 31
0.0
210
0.0
220
0.0
230
0.9999999999999999
 40
0.8945922741
 41
2.853223523738559
 42
3.124947283610767
  0
ELLIPSE
  5
DB
330
75
100
AcDbEntity
  8
$DDT_AUDIT_GENERATED_(C7)
  6
Continuous
 62
     7
100
AcDbEllipse
 10
79.3786175114
 20
363.5076003362
 30
0.0
 11
0.03388108925585914
 21
-0.2980806464546598
 31
0.0
210
0.0
220
0.0
230
1.0
 40
0.974157183
 41
4.403882093936168
 42
6.16703102243894
  0
LINE
  5
DC
330
75
100
AcDbEntity
  8
$DDT_AUDIT_GENERATED_(C7)
  6
Continuous
 62
     7
100
AcDbLine
 10
84.8295632757
 20
405.8167230038
 30
0.0
 11
85.2471050703
 21
408.435613404
 31
0.0
  0
ARC
  5
DD
330
75
100
AcDbEntity
  8
$DDT_AUDIT_GENERATED_(C7)
  6
Continuous
 62
     7
100
AcDbCircle
 10
103.3598294592
 20
749.8856560705
 30
0.0
 40
352.7431045689003
100
AcDbArc
 50
267.0452126006
 51
270.0066269206
  0
SPLINE
  5
DE
330
75
100
AcDbEntity
  8
$DDT_AUDIT_GENERATED_(C7)
  6
Continuous
 62
     7
100
AcDbSpline
210
0.0
220
0.0
230
1.0
 70
     8
 71
     3
 72
    10
 73
     6
 74
     0
 42
0.0000000035442335
 43
0.0000000001
 40
0.0
 40
0.0
 40
0.0
 40
0.0
 40
0.5000000000000001
 40
0.5000000000000001
 40
0.9501233335235038
 40
0.9501233335235038
 40
0.9501233335235038
 40
0.9501233335235038
 10
85.17665868772697
 20
397.6115154902166
 30
0.0
 10
85.16516693494746
 20
397.1459732829023
 30
0.0
 10
85.03383028360528
 20
396.5859278710146
 30
0.0
 10
84.73475791828734
 20
395.6887740016745
 30
0.0
 10
84.63688528410104
 20
395.3513911306772
 30
0.0
 10
84.62424758440297
 20
395.0087712446664
 30
0.0
  0
LINE
  5
DF
330
75
100
AcDbEntity
  8
$DDT_AUDIT_GENERATED_(C7)
  6
Continuous
 62
     7
100
AcDbLine
 10
121.97423315
 20
405.816723557
 30
0.0
 11
121.556695201
 21
408.4356127113
 31
0.0
  0
SPLINE
  5
E0
330
75
100
AcDbEntity
  8
$DDT_AUDIT_GENERATED_(C7)
  6
Continuous
 62
     7
100
AcDbSpline
210
0.0
220
0.0
230
1.0
 70
     8
 71
     3
 72
    16
 73
    12
 74
     0
 42
0.0000000035890069
 43
0.0000000001
 40
0.0
 40
0.0
 40
0.0
 40
0.0
 40
0.1250000000000001
 40
0.1250000000000001
 40
0.2500000000000001
 40
0.2500000000000001
 40
0.5000000000000001
 40
0.5000000000000001
 40
0.7500000000000001
 40
0.7500000000000001
 40
1.0
 40
1.0
 40
1.0
 40
1.0
 10
122.1780139213798
 20
394.8945582721857
 30
0.0
 10
122.1799062532723
 20
394.9902496554497
 30
0.0
 10
122.1764806964453
 20
395.0795432204851
 30
0.0
 10
122.1525604151845
 20
395.2611563368479
 30
0.0
 10
122.1325745364435
 20
395.3542776631472
 30
0.0
 10
122.0562336010748
 20
395.6510368605855
 30
0.0
 10
121.9835168789165
 20
395.8713386429629
 30
0.0
 10
121.8357732916595
 20
396.3514857034161
 30
0.0
 10
121.7625403634137
 20
396.6115294646463
 30
0.0
 10
121.6602287649301
 20
397.1264651432377
 30
0.0
 10
121.6306740418379
 20
397.378770533404
 30
0.0
 10
121.6249312520251
 20
397.6115246063013
 30
0.0
  0
ARC
  5
E1
330
75
100
AcDbEntity
  8
$DDT_AUDIT_GENERATED_(C7)
  6
Continuous
 62
     7
100
AcDbCircle
 10
103.4018979092
 20
520.5241873328
 30
0.0
 40
116.7080505067316
100
AcDbArc
 50
261.050391657
 51
278.9496072002
  0
LINE
  5
E2
330
75
100
AcDbEntity
  8
$DDT_AUDIT_GENERATED_(C7)
  6
Continuous
 62
     7
100
AcDbLine
 10
85.2462263579
 20
405.2494439189
 30
0.0
 11
85.2461245503
 21
405.2369939888
 31
0.0
  0
LINE
  5
E3
330
75
100
AcDbEntity
  8
$DDT_AUDIT_GENERATED_(C7)
  6
Continuous
 62
     7
100
AcDbLine
 10
121.5576689686
 20
405.2369936267
 30
0.0
 11
121.5575702643
 21
405.2494437302
 31
0.0
  0
SPLINE
  5
E4
330
75
100
AcDbEntity
  8
$DDT_AUDIT_GENERATED_(C7)
  6
Continuous
 62
     7
100
AcDbSpline
210
0.0
220
0.0
230
1.0
 70
     8
 71
     3
 72
     8
 73
     4
 74
     0
 42
0.0000000011996823
 43
0.0000000001
 40
0.0
 40
0.0
 40
0.0
 40
0.0
 40
0.0026706779481295
 40
0.0026706779481295
 40
0.0026706779481295
 40
0.0026706779481295
 10
84.82956327566652
 20
405.8167230038086
 30
0.0
 10
84.82959156210329
 20
405.8241550422536
 30
0.0
 10
84.82983799645996
 20
405.8315691502635
 30
0.0
 10
84.83030235224444
 20
405.8389658379268
 30
0.0
  0
SPLINE
  5
E5
330
75
100
AcDbEntity
  8
$DDT_AUDIT_GENERATED_(C7)
  6
Continuous
 62
     7
100
AcDbSpline
210
0.0
220
0.0
230
1.0
 70
     8
 71
     3
 72
    32
 73
    28
 74
     0
 42
0.0000000002598721
 43
0.0000000001
 40
0.0026706779481295
 40
0.0026706779481295
 40
0.0026706779481295
 40
0.0026706779481295
 40
0.1250000000000001
 40
0.1250000000000001
 40
0.1875000000000001
 40
0.1875000000000001
 40
0.2500000000000001
 40
0.2500000000000001
 40
0.3750000000000001
 40
0.3750000000000001
 40
0.5000000000000001
 40
0.5000000000000001
 40
0.5625000000000001
 40
0.5625000000000001
 40
0.6250000000000002
 40
0.6250000000000002
 40
0.6875000000000002
 40
0.6875000000000002
 40
0.7500000000000002
 40
0.7500000000000002
 40
0.8125000000000003
 40
0.8125000000000003
 40
0.8750000000000002
 40
0.8750000000000002
 40
0.9375000000000002
 40
0.9375000000000002
 40
0.997377587791414
 40
0.997377587791414
 40
0.997377587791414
 40
0.997377587791414
 10
84.83030235224444
 20
405.8389658379268
 30
0.0
 10
84.8515719809336
 20
406.1777681214096
 30
0.0
 10
85.33005404355114
 20
406.4800214559588
 30
0.0
 10
86.7109230537256
 20
406.9555433913699
 30
0.0
 10
87.28251744505232
 20
407.113321526773
 30
0.0
 10
88.63189330033522
 20
407.4156684853519
 30
0.0
 10
89.41682899019435
 20
407.5606285046497
 30
0.0
 10
91.98779218294462
 20
407.9489630519834
 30
0.0
 10
94.05880700252123
 20
408.1550811930492
 30
0.0
 10
98.52575053430144
 20
408.4268069159217
 30
0.0
 10
100.968554309285
 20
408.4966307043901
 30
0.0
 10
104.600237964937
 20
408.4969760770561
 30
0.0
 10
105.829824307239
 20
408.4796723225894
 30
0.0
 10
108.2108822375871
 20
408.4111272038086
 30
0.0
 10
109.3680785868011
 20
408.3602718204734
 30
0.0
 10
111.6155156457329
 20
408.2240174350154
 30
0.0
 10
112.7030186858642
 20
408.138185229915
 30
0.0
 10
114.7155734646033
 20
407.937679236995
 30
0.0
 10
115.6536835557231
 20
407.8222601228661
 30
0.0
 10
117.3884937465222
 20
407.5605814943928
 30
0.0
 10
118.1597633222279
 20
407.4180041152625
 30
0.0
 10
119.5073367635111
 20
407.1168300040902
 30
0.0
 10
120.0900972533147
 20
406.956382581916
 30
0.0
 10
121.0253455707821
 20
406.634553067143
 30
0.0
 10
121.3772365842382
 20
406.4750334281011
 30
0.0
 10
121.8422074754995
 20
406.1611205713018
 30
0.0
 10
121.9631890624483
 20
406.0043808449609
 30
0.0
 10
121.9735137116597
 20
405.8385628943361
 30
0.0
  0
SPLINE
  5
E6
330
75
100
AcDbEntity
  8
$DDT_AUDIT_GENERATED_(C7)
  6
Continuous
 62
     7
100
AcDbSpline
210
0.0
220
0.0
230
1.0
 70
     8
 71
     3
 72
     8
 73
     4
 74
     0
 42
0.000000001199782
 43
0.0000000001
 40
0.997377587791414
 40
0.997377587791414
 40
0.997377587791414
 40
0.997377587791414
 40
1.0
 40
1.0
 40
1.0
 40
1.0
 10
121.9735137116597
 20
405.8385628943361
 30
0.0
 10
121.9739658923026
 20
405.8313006943351
 30
0.0
 10
121.9742058208574
 20
405.8240210813087
 30
0.0
 10
121.9742331499615
 20
405.8167235569733
 30
0.0
  0
ARC
  5
E7
330
75
100
AcDbEntity
  8
$DDT_AUDIT_GENERATED_(C7)
  6
Continuous
 62
     7
100
AcDbCircle
 10
121.5524219561
 20
398.1014323145
 30
0.0
 40
0.4952445462001566
100
AcDbArc
 50
278.4190010717
 51
0.5687367287
  0
ARC
  5
E8
330
75
100
AcDbEntity
  8
$DDT_AUDIT_GENERATED_(C7)
  6
Continuous
 62
     7
100
AcDbCircle
 10
121.4850707313
 20
405.7269741933
 30
0.0
 40
0.4953296375714016
100
AcDbArc
 50
278.4279443293
 51
0.3383672376
  0
ARC
  5
E9
330
75
100
AcDbEntity
  8
$DDT_AUDIT_GENERATED_(C7)
  6
Continuous
 62
     7
100
AcDbCircle
 10
121.4849712489
 20
405.7394250114
 30
0.0
 40
0.4953304684425252
100
AcDbArc
 50
278.4280212558
 51
0.7416167763
  0
ARC
  5
EA
330
75
100
AcDbEntity
  8
$DDT_AUDIT_GENERATED_(C7)
  6
Continuous
 62
     7
100
AcDbCircle
 10
121.4849712489
 20
405.7394250114
 30
0.0
 40
0.4953304684425252
100
AcDbArc
 50
0.7416167763
 51
8.9779585556
  0
ARC
  5
EB
330
75
100
AcDbEntity
  8
$DDT_AUDIT_GENERATED_(C7)
  6
Continuous
 62
     7
100
AcDbCircle
 10
85.318825341
 20
405.7394252449
 30
0.0
 40
0.4953305079817053
100
AcDbArc
 50
179.4697992728
 51
261.5719831986
  0
ARC
  5
EC
330
75
100
AcDbEntity
  8
$DDT_AUDIT_GENERATED_(C7)
  6
Continuous
 62
     7
100
AcDbCircle
 10
85.318825341
 20
405.7394252449
 30
0.0
 40
0.4953305079817053
100
AcDbArc
 50
171.022134292
 51
179.4697992728
  0
ARC
  5
ED
330
75
100
AcDbEntity
  8
$DDT_AUDIT_GENERATED_(C7)
  6
Continuous
 62
     7
100
AcDbCircle
 10
85.3187260112
 20
405.72697727
 30
0.0
 40
0.4953327953422869
100
AcDbArc
 50
179.6527530597
 51
261.5717328435
  0
ARC
  5
EE
330
75
100
AcDbEntity
  8
$DDT_AUDIT_GENERATED_(C7)
  6
Continuous
 62
     7
100
AcDbCircle
 10
85.2491472865
 20
398.1014249855
 30
0.0
 40
0.4952432841320174
100
AcDbArc
 50
179.390005615
 51
261.5833978939
  0
LINE
  5
EF
330
75
100
AcDbEntity
  8
$DDT_AUDIT_GENERATED_(C7)
  6
Continuous
 62
     7
100
AcDbLine
 10
127.0028911936
 20
363.2077031387
 30
0.0
 11
127.4194798974
 21
363.2077031387
 31
0.0
  0
SPLINE
  5
F0
330
75
100
AcDbEntity
  8
$DDT_AUDIT_GENERATED_(C7)
  6
Continuous
 62
     7
100
AcDbSpline
210
0.0
220
0.0
230
1.0
 70
     8
 71
     3
 72
     8
 73
     4
 74
     0
 42
0.0000000182125633
 43
0.0000000001
 40
0.0
 40
0.0
 40
0.0
 40
0.0
 40
0.0537467401351163
 40
0.0537467401351163
 40
0.0537467401351163
 40
0.0537467401351163
 10
127.0028911936389
 20
363.207703138697
 30
0.0
 10
127.0130426102287
 20
363.206571547155
 30
0.0
 10
127.0228531955732
 20
363.2059928885093
 30
0.0
 10
127.0323220450686
 20
363.2059701238618
 30
0.0
  0
SPLINE
  5
F1
330
75
100
AcDbEntity
  8
$DDT_AUDIT_GENERATED_(C7)
  6
Continuous
 62
     7
100
AcDbSpline
210
0.0
220
0.0
230
1.0
 70
     8
 71
     3
 72
     8
 73
     4
 74
     0
 42
0.0000000182013523
 43
0.0000000001
 40
0.9460807431694778
 40
0.9460807431694778
 40
0.9460807431694778
 40
0.9460807431694778
 40
1.0
 40
1.0
 40
1.0
 40
1.0
 10
79.76882123247275
 20
363.2059859741879
 30
0.0
 10
79.7783290686628
 20
363.2059941101523
 30
0.0
 10
79.78817728304645
 20
363.2065674767287
 30
0.0
 10
79.79836521510272
 20
363.207703138697
 30
0.0
  0
ELLIPSE
  5
F2
330
75
100
AcDbEntity
  8
$DDT_AUDIT_GENERATED_(C7)
  6
Continuous
 62
     7
100
AcDbEllipse
 10
103.4006282044
 20
363.0565708007
 30
0.0
 11
-24.29814807757991
 21
1.387778780781446E-14
 31
0.0
210
0.0
220
0.0
230
1.0
 40
0.0261769483
 41
3.381497574825132
 42
6.043280385944287
  0
SPLINE
  5
F3
330
75
100
AcDbEntity
  8
$DDT_AUDIT_GENERATED_(C7)
  6
Continuous
 62
     7
100
AcDbSpline
210
0.0
220
0.0
230
1.0
 70
    11
 71
     3
 72
    26
 73
    22
 74
     0
 42
0.0000000004083098
 43
0.0000000001
 40
0.0
 40
0.0
 40
0.0
 40
0.0
 40
0.1250000000000001
 40
0.1250000000000001
 40
0.2500000000000001
 40
0.2500000000000001
 40
0.3750000000000002
 40
0.3750000000000002
 40
0.4375000000000002
 40
0.4375000000000002
 40
0.5000000000000002
 40
0.5000000000000002
 40
0.5625000000000002
 40
0.5625000000000002
 40
0.6250000000000002
 40
0.6250000000000002
 40
0.7500000000000002
 40
0.7500000000000002
 40
0.8750000000000001
 40
0.8750000000000001
 40
1.0
 40
1.0
 40
1.0
 40
1.0
 10
103.4005919368219
 20
382.0523931438224
 30
0.0
 10
104.4275951395248
 20
382.0524775171694
 30
0.0
 10
105.4011736463688
 20
381.5175446549271
 30
0.0
 10
106.6346750865658
 20
379.9111541940837
 30
0.0
 10
106.9072487688624
 20
378.8854866429652
 30
0.0
 10
106.8515891226911
 20
376.9060797548586
 30
0.0
 10
106.543532217679
 20
375.9429192210741
 30
0.0
 10
105.6539076661315
 20
374.7541932645378
 30
0.0
 10
105.2856418820018
 20
374.4076729018788
 30
0.0
 10
104.4143737061712
 20
373.9060723768298
 30
0.0
 10
103.9111582971897
 20
373.7591145166398
 30
0.0
 10
102.8962046932982
 20
373.7579442150789
 30
0.0
 10
102.3862796212822
 20
373.9063332514539
 30
0.0
 10
101.5161769298753
 20
374.4072340171311
 30
0.0
 10
101.1466733324421
 20
374.7552459058249
 30
0.0
 10
100.2616298671905
 20
375.936999907477
 30
0.0
 10
99.94830369845427
 20
376.9177056729123
 30
0.0
 10
99.89513575469583
 20
378.8841640277746
 30
0.0
 10
100.1675020543316
 20
379.9104312805151
 30
0.0
 10
101.3945595282691
 20
381.5118494732196
 30
0.0
 10
102.373588734119
 20
382.0523087704755
 30
0.0
 10
103.4005919368219
 20
382.0523931438224
 30
0.0
  0
SPLINE
  5
F4
330
75
100
AcDbEntity
  8
$DDT_AUDIT_GENERATED_(C7)
  6
Continuous
 62
     7
100
AcDbSpline
210
0.0
220
0.0
230
1.0
 70
     8
 71
     3
 72
    10
 73
     6
 74
     0
 42
0.0000000004464897
 43
0.0000000001
 40
0.2436403762717913
 40
0.2436403762717913
 40
0.2436403762717913
 40
0.2436403762717913
 40
0.2499999999999996
 40
0.2499999999999996
 40
0.3522260650478367
 40
0.3522260650478367
 40
0.3522260650478367
 40
0.3522260650478367
 10
100.150641851061
 20
377.989039508081
 30
0.0
 10
100.1506399491624
 20
377.9414738310729
 30
0.0
 10
100.151341236512
 20
377.8939743005362
 30
0.0
 10
100.1751835679387
 20
377.0846074210217
 30
0.0
 10
100.3666537477315
 20
376.3378499417075
 30
0.0
 10
100.7344455525116
 20
375.6770203735572
 30
0.0
  0
SPLINE
  5
F5
330
75
100
AcDbEntity
  8
$DDT_AUDIT_GENERATED_(C7)
  6
Continuous
 62
     7
100
AcDbSpline
210
0.0
220
0.0
230
1.0
 70
     8
 71
     3
 72
    18
 73
    14
 74
     0
 42
0.0000000004361955
 43
0.0000000001
 40
0.3522260650478367
 40
0.3522260650478367
 40
0.3522260650478367
 40
0.3522260650478367
 40
0.3749999999999993
 40
0.3749999999999993
 40
0.4374999999999993
 40
0.4374999999999993
 40
0.4999999999999992
 40
0.4999999999999992
 40
0.5624999999999992
 40
0.5624999999999992
 40
0.6249999999999992
 40
0.6249999999999992
 40
0.6482126242401384
 40
0.6482126242401384
 40
0.6482126242401384
 40
0.6482126242401384
 10
100.7344455525116
 20
375.6770203735572
 30
0.0
 10
100.8163822546049
 20
375.5298006836232
 30
0.0
 10
100.9070699720045
 20
375.3868456802576
 30
0.0
 10
101.2797070427707
 20
374.8704663631628
 30
0.0
 10
101.6207855279424
 20
374.5355571469066
 30
0.0
 10
102.4366729525292
 20
374.0460019999413
 30
0.0
 10
102.9125715286426
 20
373.8993435679852
 30
0.0
 10
103.8788273870605
 20
373.8975003409959
 30
0.0
 10
104.361581795795
 20
374.0449523915098
 30
0.0
 10
105.1773556666317
 20
374.5331598283038
 30
0.0
 10
105.5185464755371
 20
374.8674152994707
 30
0.0
 10
105.8932856970302
 20
375.3853948520281
 30
0.0
 10
105.9856945695051
 20
375.5313371585482
 30
0.0
 10
106.0690703714031
 20
375.6819478652172
 30
0.0
  0
SPLINE
  5
F6
330
75
100
AcDbEntity
  8
$DDT_AUDIT_GENERATED_(C7)
  6
Continuous
 62
     7
100
AcDbSpline
210
0.0
220
0.0
230
1.0
 70
     8
 71
     3
 72
    10
 73
     6
 74
     0
 42
0.0000000004454762
 43
0.0000000001
 40
0.6482126242401384
 40
0.6482126242401384
 40
0.6482126242401384
 40
0.6482126242401384
 40
0.7499999999999994
 40
0.7499999999999994
 40
0.7562200043674145
 40
0.7562200043674145
 40
0.7562200043674145
 40
0.7562200043674145
 10
106.0690703714031
 20
375.6819478652172
 30
0.0
 10
106.4346733290557
 20
376.3423759337795
 30
0.0
 10
106.6265863101901
 20
377.092569083366
 30
0.0
 10
106.6499160926209
 20
377.8948256568997
 30
0.0
 10
106.6505877966515
 20
377.9411410578066
 30
0.0
 10
106.6505814102247
 20
377.9875398961548
 30
0.0
  0
ARC
  5
F7
330
75
100
AcDbEntity
  8
$DDT_AUDIT_GENERATED_(C7)
  6
Continuous
 62
     7
100
AcDbCircle
 10
124.5245647091
 20
395.0737190084
 30
0.0
 40
2.348026356590869
100
AcDbArc
 50
180.3966418719
 51
192.3431801365
  0
ARC
  5
F8
330
75
100
AcDbEntity
  8
$DDT_AUDIT_GENERATED_(C7)
  6
Continuous
 62
     7
100
AcDbCircle
 10
82.7919359484
 20
395.1027509557
 30
0.0
 40
1.833126440912472
100
AcDbArc
 50
347.1800555011
 51
359.8156342045
  0
LINE
  5
F9
330
75
100
AcDbEntity
  8
$DDT_AUDIT_GENERATED_(C7)
  6
Continuous
 62
     7
100
AcDbLine
 10
121.9393524194
 20
405.9765034874
 30
0.0
 11
121.5220683719
 21
408.6005341234
 31
0.0
  0
LINE
  5
FA
330
75
100
AcDbEntity
  8
$DDT_AUDIT_GENERATED_(C7)
  6
Continuous
 62
     7
100
AcDbLine
 10
85.2819979252
 20
408.6022021994
 30
0.0
 11
84.8645505238
 21
405.9771342755
 31
0.0
  0
SPLINE
  5
FB
330
75
100
AcDbEntity
  8
$DDT_AUDIT_GENERATED_(C7)
  6
Continuous
 62
     7
100
AcDbSpline
210
0.0
220
0.0
230
1.0
 70
     8
 71
     3
 72
    34
 73
    30
 74
     0
 42
0.0000000008303013
 43
0.0000000001
 40
0.0
 40
0.0
 40
0.0
 40
0.0
 40
0.0190756308512192
 40
0.0604162311973396
 40
0.1015498416152661
 40
0.1424460880074275
 40
0.1831946166148135
 40
0.2240915810875123
 40
0.265274835603355
 40
0.3067188533329605
 40
0.3483938272914895
 40
0.3902667789725316
 40
0.4323039229143094
 40
0.4744736613026034
 40
0.5167503881620521
 40
0.5591194021422574
 40
0.6015834221257708
 40
0.644171441513735
 40
0.6869506531142381
 40
0.7300262712746651
 40
0.7731303886328765
 40
0.8175993307305653
 40
0.8629422621624302
 40
0.900184389798553
 40
0.9326971737837584
 40
0.9618976142628519
 40
0.976099940007713
 40
0.9885448800379559
 40
1.0
 40
1.0
 40
1.0
 40
1.0
 10
96.53613539248366
 20
411.279974850513
 30
0.0
 10
96.40116049621506
 20
411.2722631142673
 30
0.0
 10
96.03770247745624
 20
411.2513861359633
 30
0.0
 10
95.38505825978028
 20
411.2070586133062
 30
0.0
 10
94.63394301686404
 20
411.1503376944101
 30
0.0
 10
93.90088909684849
 20
411.0877895853979
 30
0.0
 10
93.19310183557542
 20
411.0200926992907
 30
0.0
 10
92.50680219082439
 20
410.9469113263094
 30
0.0
 10
91.84186683091357
 20
410.8681620296012
 30
0.0
 10
91.19939687833812
 20
410.7838467225704
 30
0.0
 10
90.5815519674951
 20
410.694097336306
 30
0.0
 10
89.99038565436587
 20
410.5990506034526
 30
0.0
 10
89.4278684954779
 20
410.4988452390469
 30
0.0
 10
88.89582012717297
 20
410.3936045095938
 30
0.0
 10
88.39585810126805
 20
410.2834110606598
 30
0.0
 10
87.92934666913682
 20
410.1682724962825
 30
0.0
 10
87.49730417840337
 20
410.0480441377294
 30
0.0
 10
87.10044386765647
 20
409.9223845188097
 30
0.0
 10
86.73872286364134
 20
409.7903745921001
 30
0.0
 10
86.41392689778249
 20
409.6514978185557
 30
0.0
 10
86.12229148915524
 20
409.5034826646199
 30
0.0
 10
85.86285395478171
 20
409.3430773635761
 30
0.0
 10
85.64953956155499
 20
409.1750930378346
 30
0.0
 10
85.48514387109888
 20
409.0039329094527
 30
0.0
 10
85.36717415699256
 20
408.8327990731339
 30
0.0
 10
85.29969890611562
 20
408.6894884152016
 30
0.0
 10
85.26335888788414
 20
408.5612337947659
 30
0.0
 10
85.25219588368662
 20
408.5022771867611
 30
0.0
 10
85.24669560412185
 20
408.4704759034686
 30
0.0
 10
85.24388531632715
 20
408.4530904168738
 30
0.0
  0
SPLINE
  5
FC
330
75
100
AcDbEntity
  8
$DDT_AUDIT_GENERATED_(C7)
  6
Continuous
 62
     7
100
AcDbSpline
210
0.0
220
0.0
230
1.0
 70
     8
 71
     3
 72
    30
 73
    26
 74
     0
 42
0.0000000010285392
 43
0.0000000001
 40
0.0
 40
0.0
 40
0.0
 40
0.0
 40
0.0064000909227657
 40
0.0456701672967543
 40
0.0873403943909363
 40
0.1277353208856681
 40
0.1683408906631913
 40
0.2141151529495882
 40
0.2645344019026024
 40
0.3163129121557161
 40
0.3673960554066622
 40
0.4177181279657819
 40
0.4674385249346394
 40
0.516678486392304
 40
0.5655000785170589
 40
0.6139232692780262
 40
0.6619428302024535
 40
0.7095406736982222
 40
0.7566944303077345
 40
0.8033952649503677
 40
0.8501580843965121
 40
0.8970515122009651
 40
0.944237944693746
 40
0.9916716893217224
 40
1.0
 40
1.0
 40
1.0
 40
1.0
 10
121.5615130251863
 20
408.4642058757623
 30
0.0
 10
121.5603356851161
 20
408.474324585844
 30
0.0
 10
121.5529247345293
 20
408.5362492282496
 30
0.0
 10
121.5078892058435
 20
408.6817873066154
 30
0.0
 10
121.41584059241
 20
408.8709277050928
 30
0.0
 10
121.2764259136723
 20
409.0541261080428
 30
0.0
 10
121.1072159967211
 20
409.2148210040485
 30
0.0
 10
120.8975552995999
 20
409.3700774076215
 30
0.0
 10
120.6379833925667
 20
409.5234527457333
 30
0.0
 10
120.3312741364144
 20
409.6723890730842
 30
0.0
 10
119.9855363543806
 20
409.8140169209986
 30
0.0
 10
119.6057440279535
 20
409.9480981107084
 30
0.0
 10
119.1927813901334
 20
410.0756200471423
 30
0.0
 10
118.747144131658
 20
410.1972348263811
 30
0.0
 10
118.2696160106719
 20
410.3132199557429
 30
0.0
 10
117.7613394757186
 20
410.4236099783129
 30
0.0
 10
117.2237589052034
 20
410.5282994349403
 30
0.0
 10
116.65854450151
 20
410.6271093465439
 30
0.0
 10
116.0674744304556
 20
410.7198422262848
 30
0.0
 10
115.450069388212
 20
410.8066086231149
 30
0.0
 10
114.8062722588517
 20
410.8881491177945
 30
0.0
 10
114.1323474899045
 20
410.9651596738457
 30
0.0
 10
113.4367206205097
 20
411.0362178454307
 30
0.0
 10
112.8971687106539
 20
411.0871895097114
 30
0.0
 10
112.6199386961276
 20
411.1098827063777
 30
0.0
 10
112.5716458445329
 20
411.1138294505228
 30
0.0
  0
LINE
  5
FD
330
75
100
AcDbEntity
  8
$DDT_AUDIT_GENERATED_(C7)
  6
Continuous
 62
     7
100
AcDbLine
 10
127.027974261
 20
363.2059897636
 30
0.0
 11
127.4434705534
 21
363.2059897636
 31
0.0
  0
SPLINE
  5
FE
330
75
100
AcDbEntity
  8
$DDT_AUDIT_GENERATED_(C7)
  6
Continuous
 62
     7
100
AcDbSpline
210
0.0
220
0.0
230
1.0
 70
     8
 71
     3
 72
    15
 73
    11
 74
     0
 42
0.0000000091934577
 43
0.0000000001
 40
0.0
 40
0.0
 40
0.0
 40
0.0
 40
0.0119531141484451
 40
0.1325385563396177
 40
0.2617197209128
 40
0.3859034307761449
 40
0.5126364014665894
 40
0.6529446910578485
 40
0.8199001986374814
 40
1.0
 40
1.0
 40
1.0
 40
1.0
 10
127.4380621712661
 20
363.2079959016815
 30
0.0
 10
127.4425904789437
 20
363.2074124832238
 30
0.0
 10
127.4857541997418
 20
363.2019632015275
 30
0.0
 10
127.5879797608975
 20
363.2206620189104
 30
0.0
 10
127.7175126989041
 20
363.2776497496715
 30
0.0
 10
127.8244780758288
 20
363.3724460877843
 30
0.0
 10
127.9019649860175
 20
363.4872747540768
 30
0.0
 10
127.9571242472196
 20
363.6224045395277
 30
0.0
 10
127.9957619398208
 20
363.7864600952022
 30
0.0
 10
128.0062443316512
 20
363.9085945348332
 30
0.0
 10
128.0118519054926
 20
363.9840728500623
 30
0.0
  0
ARC
  5
FF
330
75
100
AcDbEntity
  8
$DDT_AUDIT_GENERATED_(C7)
  6
Continuous
 62
     7
100
AcDbCircle
 10
122.9490319314
 20
364.3489457766
 30
0.0
 40
5.079803965728284
100
AcDbArc
 50
355.8531752187
 51
4.7736836938
  0
ARC
  5
100
330
75
100
AcDbEntity
  8
$DDT_AUDIT_GENERATED_(C7)
  6
Continuous
 62
     7
100
AcDbCircle
 10
83.8863029622
 20
364.3572565875
 30
0.0
 40
5.114716249434925
100
AcDbArc
 50
175.5337688143
 51
184.2089511356
  0
SPLINE
  5
101
330
75
100
AcDbEntity
  8
$DDT_AUDIT_GENERATED_(C7)
  6
Continuous
 62
     7
100
AcDbSpline
210
0.0
220
0.0
230
1.0
 70
     8
 71
     3
 72
    15
 73
    11
 74
     0
 42
0.0000000091903104
 43
0.0000000001
 40
0.0
 40
0.0
 40
0.0
 40
0.0
 40
0.1254846283698138
 40
0.3325414221817327
 40
0.4855277166125924
 40
0.6164983964335669
 40
0.7376296633621862
 40
0.8674277956132632
 40
0.9916199754701244
 40
1.0
 40
1.0
 40
1.0
 40
1.0
 10
78.78800452246413
 20
363.9857452875418
 30
0.0
 10
78.79086564983803
 20
363.9316600760313
 30
0.0
 10
78.79832520460421
 20
363.8103582609
 30
0.0
 10
78.83320675608628
 20
363.6447667235639
 30
0.0
 10
78.89321552611958
 20
363.4920489637258
 30
0.0
 10
78.97288901999922
 20
363.3733948299259
 30
0.0
 10
79.08036400491186
 20
363.2781444835825
 30
0.0
 10
79.20992060707121
 20
363.2207151961979
 30
0.0
 10
79.31241004120407
 20
363.2020616478042
 30
0.0
 10
79.3555696659248
 20
363.2073954990961
 30
0.0
 10
79.35873893320549
 20
363.2077930315392
 30
0.0
  0
ARC
  5
102
330
75
100
AcDbEntity
  8
$DDT_AUDIT_GENERATED_(C7)
  6
Continuous
 62
     7
100
AcDbCircle
 10
200.6917822625
 20
399.8451130319
 30
0.0
 40
78.66255525827982
100
AcDbArc
 50
181.2673814764
 51
183.5083116192
  0
ARC
  5
103
330
75
100
AcDbEntity
  8
$DDT_AUDIT_GENERATED_(C7)
  6
Continuous
 62
     7
100
AcDbCircle
 10
1979.8848679125
 20
418.4820437801
 30
0.0
 40
1857.94762062263
100
AcDbArc
 50
180.3932684807
 51
180.6283709683
  0
LINE
  5
104
330
75
100
AcDbEntity
  8
$DDT_AUDIT_GENERATED_(C7)
  6
Continuous
 62
     7
100
AcDbLine
 10
121.9803917566
 20
405.7328434356
 30
0.0
 11
121.9802835568
 21
405.7454120654
 31
0.0
  0
LINE
  5
105
330
75
100
AcDbEntity
  8
$DDT_AUDIT_GENERATED_(C7)
  6
Continuous
 62
     7
100
AcDbLine
 10
84.8233483124
 20
405.7436078057
 30
0.0
 11
84.8232225487
 21
405.73087393
 31
0.0
  0
ARC
  5
106
330
75
100
AcDbEntity
  8
$DDT_AUDIT_GENERATED_(C7)
  6
Continuous
 62
     7
100
AcDbCircle
 10
-726.6447638235
 20
409.576803048
 30
0.0
 40
811.4768516196083
100
AcDbArc
 50
359.1900848829
 51
359.7283598169
  0
ARC
  5
107
330
75
100
AcDbEntity
  8
$DDT_AUDIT_GENERATED_(C7)
  6
Continuous
 62
     7
100
AcDbCircle
 10
-1.4334035495
 20
400.1984623891
 30
0.0
 40
86.21239502886962
100
AcDbArc
 50
356.5794523738
 51
358.6095358581
  0
LINE
  5
108
330
75
100
AcDbEntity
  8
$DDT_AUDIT_GENERATED_(C7)
  6
Continuous
 62
     7
100
AcDbLine
 10
79.354264287
 20
363.2059897636
 30
0.0
 11
79.7716023505
 21
363.2059897636
 31
0.0
  0
SPLINE
  5
109
330
75
100
AcDbEntity
  8
$DDT_AUDIT_GENERATED_(C7)
  6
Continuous
 62
     7
100
AcDbSpline
210
0.0
220
0.0
230
1.0
 70
     8
 71
     3
 72
     8
 73
     4
 74
     0
 42
0.0000000003293466
 43
0.0000000001
 40
0.0
 40
0.0
 40
0.0
 40
0.0
 40
1.0
 40
1.0
 40
1.0
 40
1.0
 10
84.56947768355238
 20
394.3035682479579
 30
0.0
 10
82.61684258282295
 20
384.2482425079413
 30
0.0
 10
80.6869258133584
 20
374.3128986408075
 30
0.0
 10
78.77972737515873
 20
364.4975366465566
 30
0.0
  0
ELLIPSE
  5
10B
330
75
100
AcDbEntity
  8
$DDT_AUDIT_GENERATED_(10A)
  6
Continuous
 62
     7
100
AcDbEllipse
 10
103.4006282044
 20
339.5858464473
 30
0.0
 11
11.85999999999215
 21
-9.658940314238862E-12
 31
0.0
210
0.0
220
0.0
230
1.0
 40
0.3746065934
 41
-0.775109010714143
 42
-0.3887609383040891
  0
ELLIPSE
  5
10C
330
75
100
AcDbEntity
  8
$DDT_AUDIT_GENERATED_(10A)
  6
Continuous
 62
     7
100
AcDbEllipse
 10
103.4006282044
 20
339.5858464473
 30
0.0
 11
11.85999999999215
 21
-9.658940314238862E-12
 31
0.0
210
0.0
220
0.0
230
1.0
 40
0.3746065934
 41
3.530353591894495
 42
3.916701664304551
  0
ELLIPSE
  5
10D
330
75
100
AcDbEntity
  8
$DDT_AUDIT_GENERATED_(10A)
  6
Continuous
 62
     7
100
AcDbEllipse
 10
103.4006282044
 20
339.0102853783
 30
0.0
 11
-10.78480762113533
 21
0.0
 31
0.0
210
0.0
220
0.0
230
1.0
 40
0.3746065934
 41
2.765558267746759
 42
6.283185307179586
  0
ELLIPSE
  5
10E
330
75
100
AcDbEntity
  8
$DDT_AUDIT_GENERATED_(10A)
  6
Continuous
 62
     7
100
AcDbEllipse
 10
103.4006282044
 20
339.0102853783
 30
0.0
 11
-10.78480762113533
 21
0.0
 31
0.0
210
0.0
220
0.0
230
1.0
 40
0.3746065934
 41
0.3882922769086248
 42
2.765558267746759
  0
ELLIPSE
  5
10F
330
75
100
AcDbEntity
  8
$DDT_AUDIT_GENERATED_(10A)
  6
Continuous
 62
     7
100
AcDbEllipse
 10
103.4006282044
 20
339.0102853783
 30
0.0
 11
-10.78480762113533
 21
0.0
 31
0.0
210
0.0
220
0.0
230
1.0
 40
0.3746065934
 41
0.0
 42
0.3882922769086248
  0
ELLIPSE
  5
110
330
75
100
AcDbEntity
  8
$DDT_AUDIT_GENERATED_(10A)
  6
Continuous
 62
     7
100
AcDbEllipse
 10
103.4006282044
 20
338.991652516
 30
0.0
 11
-10.70980762113533
 21
0.0
 31
0.0
210
0.0
220
0.0
230
1.0
 40
0.3746065934
 41
5.195623374451555
 42
6.283185307179586
  0
ELLIPSE
  5
111
330
75
100
AcDbEntity
  8
$DDT_AUDIT_GENERATED_(10A)
  6
Continuous
 62
     7
100
AcDbEllipse
 10
103.4006282044
 20
338.991652516
 30
0.0
 11
-10.70980762113533
 21
0.0
 31
0.0
210
0.0
220
0.0
230
1.0
 40
0.3746065934
 41
4.240348662353412
 42
5.195623374451555
  0
ELLIPSE
  5
112
330
75
100
AcDbEntity
  8
$DDT_AUDIT_GENERATED_(10A)
  6
Continuous
 62
     7
100
AcDbEllipse
 10
103.4006282044
 20
338.991652516
 30
0.0
 11
-10.70980762113533
 21
0.0
 31
0.0
210
0.0
220
0.0
230
1.0
 40
0.3746065934
 41
0.0
 42
4.240348662353412
  0
ELLIPSE
  5
113
330
75
100
AcDbEntity
  8
$DDT_AUDIT_GENERATED_(10A)
  6
Continuous
 62
     7
100
AcDbEllipse
 10
103.4006282044
 20
338.991652516
 30
0.0
 11
-10.075
 21
0.0
 31
0.0
210
0.0
220
0.0
230
1.0
 40
0.3746065934
 41
0.0
 42
6.283185307179586
  0
ELLIPSE
  5
114
330
75
100
AcDbEntity
  8
$DDT_AUDIT_GENERATED_(10A)
  6
Continuous
 62
     7
100
AcDbEllipse
 10
103.4006282044
 20
336.6399255813
 30
0.0
 11
-11.76638677690724
 21
-7.04753561068136
 31
0.0
210
0.0
220
0.0
230
1.0
 40
0.2836582471
 41
2.569475046914237
 42
3.377127225235782
  0
LINE
  5
115
330
75
100
AcDbEntity
  8
$DDT_AUDIT_GENERATED_(10A)
  6
Continuous
 62
     7
100
AcDbLine
 10
114.3756282044
 20
341.4630962415
 30
0.0
 11
114.3756282044
 21
344.2717562418
 31
0.0
  0
LINE
  5
116
330
75
100
AcDbEntity
  8
$DDT_AUDIT_GENERATED_(10A)
  6
Continuous
 62
     7
100
AcDbLine
 10
114.3756282044
 20
341.2698676702
 30
0.0
 11
114.3756282044
 21
341.4630962415
 31
0.0
  0
LINE
  5
117
330
75
100
AcDbEntity
  8
$DDT_AUDIT_GENERATED_(10A)
  6
Continuous
 62
     7
100
AcDbLine
 10
114.3756282044
 20
337.9018252244
 30
0.0
 11
114.3756282044
 21
341.2698676702
 31
0.0
  0
ELLIPSE
  5
118
330
75
100
AcDbEntity
  8
$DDT_AUDIT_GENERATED_(10A)
  6
Continuous
 62
     7
100
AcDbEllipse
 10
103.4006282044
 20
339.7062911631
 30
0.0
 11
-11.93499999999998
 21
4.163336342344337E-14
 31
0.0
210
0.0
220
0.0
230
1.0
 40
0.3746065934
 41
3.545418742750587
 42
5.879359218018811
  0
ELLIPSE
  5
119
330
75
100
AcDbEntity
  8
$DDT_AUDIT_GENERATED_(10A)
  6
Continuous
 62
     7
100
AcDbEllipse
 10
103.4006282044
 20
336.6399255813
 30
0.0
 11
11.76638677690723
 21
-7.047535610681346
 31
0.0
210
0.0
220
0.0
230
0.9999999999999998
 40
0.2836582471
 41
2.906058081943781
 42
3.713710260265346
  0
LINE
  5
11A
330
75
100
AcDbEntity
  8
$DDT_AUDIT_GENERATED_(10A)
  6
Continuous
 62
     7
100
AcDbLine
 10
92.4256282044
 20
341.4630962415
 30
0.0
 11
92.4256282044
 21
344.2717562418
 31
0.0
  0
ELLIPSE
  5
11B
330
75
100
AcDbEntity
  8
$DDT_AUDIT_GENERATED_(10A)
  6
Continuous
 62
     7
100
AcDbEllipse
 10
103.4006282044
 20
339.5858464473
 30
0.0
 11
-11.86000000000003
 21
-1.387778780781446E-14
 31
0.0
210
0.0
220
0.0
230
1.0
 40
0.3746065934
 41
3.530353591895798
 42
5.894424368873574
  0
LINE
  5
11C
330
75
100
AcDbEntity
  8
$DDT_AUDIT_GENERATED_(10A)
  6
Continuous
 62
     7
100
AcDbLine
 10
92.4256282044
 20
341.2698676702
 30
0.0
 11
92.4256282044
 21
341.4630962415
 31
0.0
  0
LINE
  5
11D
330
75
100
AcDbEntity
  8
$DDT_AUDIT_GENERATED_(10A)
  6
Continuous
 62
     7
100
AcDbLine
 10
92.4256282044
 20
337.9018252244
 30
0.0
 11
92.4256282044
 21
341.2698676702
 31
0.0
  0
LINE
  5
11E
330
75
100
AcDbEntity
  8
$DDT_AUDIT_GENERATED_(10A)
  6
Continuous
 62
     7
100
AcDbLine
 10
91.4656282044
 20
345.8277850991
 30
0.0
 11
91.4656282044
 21
343.0288486174
 31
0.0
  0
LINE
  5
11F
330
75
100
AcDbEntity
  8
$DDT_AUDIT_GENERATED_(10A)
  6
Continuous
 62
     7
100
AcDbLine
 10
115.3356282044
 20
343.0288486174
 30
0.0
 11
115.3356282044
 21
345.8277850966
 31
0.0
  0
LINE
  5
120
330
75
100
AcDbEntity
  8
$DDT_AUDIT_GENERATED_(10A)
  6
Continuous
 62
     7
100
AcDbLine
 10
94.9284994307
 20
336.4767779514
 30
0.0
 11
95.6965574653
 21
336.1830757992
 31
0.0
  0
LINE
  5
121
330
75
100
AcDbEntity
  8
$DDT_AUDIT_GENERATED_(10A)
  6
Continuous
 62
     7
100
AcDbLine
 10
111.1046989435
 20
336.1830757992
 30
0.0
 11
111.8727569781
 21
336.4767779514
 31
0.0
  0
ELLIPSE
  5
123
330
75
100
AcDbEntity
  8
$DDT_AUDIT_GENERATED_(122)
  6
Continuous
 62
     7
100
AcDbEllipse
 10
103.4006282044
 20
338.6671381669
 30
0.0
 11
-9.000000000000004
 21
0.0
 31
0.0
210
0.0
220
0.0
230
1.0
 40
0.3746065934
 41
0.0
 42
6.283185307179586
  0
ELLIPSE
  5
124
330
75
100
AcDbEntity
  8
$DDT_AUDIT_GENERATED_(122)
  6
Continuous
 62
     7
100
AcDbEllipse
 10
103.4006282044
 20
341.5288671234
 30
0.0
 11
9.38647410379423
 21
1.665334536937735E-13
 31
0.0
210
0.0
220
0.0
230
1.0
 40
0.3746065934
 41
-0.2879555481429437
 42
-0.258434479386267
  0
ELLIPSE
  5
125
330
75
100
AcDbEntity
  8
$DDT_AUDIT_GENERATED_(122)
  6
Continuous
 62
     7
100
AcDbEllipse
 10
103.4006282044
 20
341.5288671234
 30
0.0
 11
-9.386474103793837
 21
2.081668171172169E-13
 31
0.0
210
0.0
220
0.0
230
1.0
 40
0.3746065934
 41
0.2585015878000714
 42
0.2879555481429372
  0
ELLIPSE
  5
126
330
75
100
AcDbEntity
  8
$DDT_AUDIT_GENERATED_(122)
  6
Continuous
 62
     7
100
AcDbEllipse
 10
103.4006282044
 20
338.6671381669
 30
0.0
 11
-5.250000000000003
 21
0.0
 31
0.0
210
0.0
220
0.0
230
1.0
 40
0.3746065934
 41
0.0
 42
6.283185307179586
  0
ELLIPSE
  5
127
330
75
100
AcDbEntity
  8
$DDT_AUDIT_GENERATED_(122)
  6
Continuous
 62
     7
100
AcDbEllipse
 10
103.4006282044
 20
338.6671381669
 30
0.0
 11
6.249999999999997
 21
0.0
 31
0.0
210
0.0
220
0.0
230
1.0
 40
0.3746065934
 41
0.0
 42
6.283185307179586
  0
ELLIPSE
  5
128
330
75
100
AcDbEntity
  8
$DDT_AUDIT_GENERATED_(122)
  6
Continuous
 62
     7
100
AcDbEllipse
 10
103.4006282044
 20
338.6671381669
 30
0.0
 11
-2.750000000000002
 21
0.0
 31
0.0
210
0.0
220
0.0
230
1.0
 40
0.3746065934
 41
0.0
 42
6.283185307179586
  0
ELLIPSE
  5
129
330
75
100
AcDbEntity
  8
$DDT_AUDIT_GENERATED_(122)
  6
Continuous
 62
     7
100
AcDbEllipse
 10
103.4006282044
 20
338.6671381669
 30
0.0
 11
-2.150000000000001
 21
0.0
 31
0.0
210
0.0
220
0.0
230
1.0
 40
0.3746065934
 41
0.0
 42
6.283185307179586
  0
ELLIPSE
  5
12A
330
75
100
AcDbEntity
  8
$DDT_AUDIT_GENERATED_(122)
  6
Continuous
 62
     7
100
AcDbEllipse
 10
103.4006282044
 20
338.8525749378
 30
0.0
 11
-0.5196299438963558
 21
0.0
 31
0.0
210
0.0
220
0.0
230
1.0
 40
0.3746065934
 41
0.0
 42
6.283185307179586
  0
ELLIPSE
  5
12B
330
75
100
AcDbEntity
  8
$DDT_AUDIT_GENERATED_(122)
  6
Continuous
 62
     7
100
AcDbEllipse
 10
103.4006282044
 20
338.6671381669
 30
0.0
 11
-8.700000000000001
 21
0.0
 31
0.0
210
0.0
220
0.0
230
1.0
 40
0.3746065934
 41
0.0
 42
6.283185307179586
  0
ARC
  5
12C
330
75
100
AcDbEntity
  8
$DDT_AUDIT_GENERATED_(122)
  6
Continuous
 62
     7
100
AcDbCircle
 10
103.4006282044
 20
358.3575398105
 30
0.0
 40
22.68912092336222
100
AcDbArc
 50
269.7474738435
 51
270.2525261565
  0
ELLIPSE
  5
12D
330
75
100
AcDbEntity
  8
$DDT_AUDIT_GENERATED_(122)
  6
Continuous
 62
     7
100
AcDbEllipse
 10
103.4006282044
 20
338.8525749378
 30
0.0
 11
8.499999999984523
 21
1.540434446667405E-12
 31
0.0
210
0.0
220
0.0
230
1.0
 40
0.3746065934
 41
4.724153957672288
 42
4.962423390895692
  0
LINE
  5
12E
330
75
100
AcDbEntity
  8
$DDT_AUDIT_GENERATED_(122)
  6
Continuous
 62
     7
100
AcDbLine
 10
103.3006282044
 20
336.3261466625
 30
0.0
 11
103.3006282044
 21
335.6686392582
 31
0.0
  0
LINE
  5
12F
330
75
100
AcDbEntity
  8
$DDT_AUDIT_GENERATED_(122)
  6
Continuous
 62
     7
100
AcDbLine
 10
103.5006282044
 20
336.3261466625
 30
0.0
 11
103.5006282044
 21
335.6686392582
 31
0.0
  0
LINE
  5
130
330
75
100
AcDbEntity
  8
$DDT_AUDIT_GENERATED_(122)
  6
Continuous
 62
     7
100
AcDbLine
 10
103.6506282044
 20
338.2819248991
 30
0.0
 11
103.6506282044
 21
338.6819272312
 31
0.0
  0
LINE
  5
131
330
75
100
AcDbEntity
  8
$DDT_AUDIT_GENERATED_(122)
  6
Continuous
 62
     7
100
AcDbLine
 10
103.1506282044
 20
338.2819248991
 30
0.0
 11
103.1506282044
 21
338.6819272312
 31
0.0
  0
ELLIPSE
  5
132
330
75
100
AcDbEntity
  8
$DDT_AUDIT_GENERATED_(122)
  6
Continuous
 62
     7
100
AcDbEllipse
 10
103.4006282044
 20
339.0818656814
 30
0.0
 11
-2.149999999996585
 21
4.163336342344337E-14
 31
0.0
210
0.0
220
0.0
230
1.0
 40
0.3746065934
 41
1.454253618345386
 42
1.687339035244429
  0
LINE
  5
133
330
75
100
AcDbEntity
  8
$DDT_AUDIT_GENERATED_(122)
  6
Continuous
 62
     7
100
AcDbLine
 10
103.1311203351
 20
339.2482942413
 30
0.0
 11
103.1311203351
 21
339.46618953
 31
0.0
  0
ELLIPSE
  5
134
330
75
100
AcDbEntity
  8
$DDT_AUDIT_GENERATED_(122)
  6
Continuous
 62
     7
100
AcDbEllipse
 10
103.4006282044
 20
339.0818656814
 30
0.0
 11
-0.5196299438963564
 21
1.387778780781446E-14
 31
0.0
210
0.0
220
0.0
230
1.0
 40
0.3746065934
 41
5.257664250556912
 42
6.261508812605758
  0
LINE
  5
135
330
75
100
AcDbEntity
  8
$DDT_AUDIT_GENERATED_(122)
  6
Continuous
 62
     7
100
AcDbLine
 10
101.9971490954
 20
339.2772694362
 30
0.0
 11
102.8811203351
 21
339.0860848281
 31
0.0
  0
LINE
  5
136
330
75
100
AcDbEntity
  8
$DDT_AUDIT_GENERATED_(122)
  6
Continuous
 62
     7
100
AcDbLine
 10
102.4652065717
 20
339.392317549
 30
0.0
 11
103.1311203351
 21
339.2482942413
 31
0.0
  0
ELLIPSE
  5
137
330
75
100
AcDbEntity
  8
$DDT_AUDIT_GENERATED_(122)
  6
Continuous
 62
     7
100
AcDbEllipse
 10
103.4006282044
 20
339.0818656814
 30
0.0
 11
0.5196299438963554
 21
-1.387778780781446E-14
 31
0.0
210
0.0
220
0.0
230
1.0
 40
0.3746065934
 41
0.0216764945750119
 42
1.025521056622661
  0
LINE
  5
138
330
75
100
AcDbEntity
  8
$DDT_AUDIT_GENERATED_(122)
  6
Continuous
 62
     7
100
AcDbLine
 10
104.3360498371
 20
339.392317549
 30
0.0
 11
103.6701360737
 21
339.2482942413
 31
0.0
  0
LINE
  5
139
330
75
100
AcDbEntity
  8
$DDT_AUDIT_GENERATED_(122)
  6
Continuous
 62
     7
100
AcDbLine
 10
103.6701360737
 20
339.2482942413
 30
0.0
 11
103.6701360737
 21
339.46618953
 31
0.0
  0
LINE
  5
13A
330
75
100
AcDbEntity
  8
$DDT_AUDIT_GENERATED_(122)
  6
Continuous
 62
     7
100
AcDbLine
 10
104.8041073134
 20
339.2772694362
 30
0.0
 11
103.9201360737
 21
339.0860848281
 31
0.0
  0
ELLIPSE
  5
13B
330
75
100
AcDbEntity
  8
$DDT_AUDIT_GENERATED_(122)
  6
Continuous
 62
     7
100
AcDbEllipse
 10
103.4006280822
 20
338.852574767
 30
0.0
 11
-8.499999748173392
 21
5.142448966655166E-8
 31
0.0
210
0.0
220
0.0
230
1.0
 40
0.3746065844
 41
1.297231970591098
 42
1.320761925820648
  0
ELLIPSE
  5
13C
330
75
100
AcDbEntity
  8
$DDT_AUDIT_GENERATED_(122)
  6
Continuous
 62
     7
100
AcDbEllipse
 10
103.4006282044
 20
338.8525749378
 30
0.0
 11
-8.500000000006962
 21
-9.714451465470120E-13
 31
0.0
210
0.0
220
0.0
230
1.0
 40
0.3746065934
 41
1.320761916283769
 42
1.559031349506549
  0
LINE
  5
13D
330
75
100
AcDbEntity
  8
$DDT_AUDIT_GENERATED_(122)
  6
Continuous
 62
     7
100
AcDbLine
 10
101.1042259901
 20
335.7868247677
 30
0.0
 11
101.1042259901
 21
336.4896122962
 31
0.0
  0
LINE
  5
13E
330
75
100
AcDbEntity
  8
$DDT_AUDIT_GENERATED_(122)
  6
Continuous
 62
     7
100
AcDbLine
 10
101.5637400948
 20
336.4292488475
 30
0.0
 11
101.1042259901
 21
335.7868247677
 31
0.0
  0
LINE
  5
13F
330
75
100
AcDbEntity
  8
$DDT_AUDIT_GENERATED_(122)
  6
Continuous
 62
     7
100
AcDbLine
 10
101.755863785
 20
336.4083737872
 30
0.0
 11
101.2974111554
 21
335.7674337035
 31
0.0
  0
ELLIPSE
  5
140
330
75
100
AcDbEntity
  8
$DDT_AUDIT_GENERATED_(122)
  6
Continuous
 62
     7
100
AcDbEllipse
 10
103.4006279513
 20
338.8525747736
 30
0.0
 11
-8.499999683681553
 21
9.553777213788806E-8
 31
0.0
210
0.0
220
0.0
230
1.0
 40
0.3746065878
 41
1.035432590668505
 42
1.058962545945073
  0
ELLIPSE
  5
141
330
75
100
AcDbEntity
  8
$DDT_AUDIT_GENERATED_(122)
  6
Continuous
 62
     7
100
AcDbEllipse
 10
103.4006282044
 20
338.8525749378
 30
0.0
 11
-8.499999999999645
 21
1.387778780781446E-14
 31
0.0
210
0.0
220
0.0
230
1.0
 40
0.3746065934
 41
1.058962528484673
 42
1.297231961707652
  0
LINE
  5
142
330
75
100
AcDbEntity
  8
$DDT_AUDIT_GENERATED_(122)
  6
Continuous
 62
     7
100
AcDbLine
 10
99.0643197918
 20
336.1139360849
 30
0.0
 11
99.0643197918
 21
336.9810368715
 31
0.0
  0
LINE
  5
143
330
75
100
AcDbEntity
  8
$DDT_AUDIT_GENERATED_(122)
  6
Continuous
 62
     7
100
AcDbLine
 10
99.9795110855
 20
336.7077466556
 30
0.0
 11
99.0643197918
 21
336.1139360849
 31
0.0
  0
LINE
  5
144
330
75
100
AcDbEntity
  8
$DDT_AUDIT_GENERATED_(122)
  6
Continuous
 62
     7
100
AcDbLine
 10
100.1487524093
 20
336.6677141615
 30
0.0
 11
99.2375248726
 21
336.0764754256
 31
0.0
  0
ELLIPSE
  5
145
330
75
100
AcDbEntity
  8
$DDT_AUDIT_GENERATED_(122)
  6
Continuous
 62
     7
100
AcDbEllipse
 10
103.4006278949
 20
338.8525748218
 30
0.0
 11
-8.499999671695406
 21
9.541313572558607E-8
 31
0.0
210
0.0
220
0.0
230
1.0
 40
0.3746065934
 41
0.7736332028838193
 42
0.7971631580659578
  0
ELLIPSE
  5
146
330
75
100
AcDbEntity
  8
$DDT_AUDIT_GENERATED_(122)
  6
Continuous
 62
     7
100
AcDbEllipse
 10
103.4006282044
 20
338.8525749378
 30
0.0
 11
-8.500000000022595
 21
-6.744604874597826E-12
 31
0.0
210
0.0
220
0.0
230
1.0
 40
0.3746065934
 41
0.7971631406845179
 42
1.03543257390702
  0
LINE
  5
147
330
75
100
AcDbEntity
  8
$DDT_AUDIT_GENERATED_(122)
  6
Continuous
 62
     7
100
AcDbLine
 10
97.3199258457
 20
336.6276811141
 30
0.0
 11
97.3199258457
 21
337.494189546
 31
0.0
  0
LINE
  5
148
330
75
100
AcDbEntity
  8
$DDT_AUDIT_GENERATED_(122)
  6
Continuous
 62
     7
100
AcDbLine
 10
98.6744630113
 20
337.1350996674
 30
0.0
 11
97.3199258457
 21
336.6276811141
 31
0.0
  0
LINE
  5
149
330
75
100
AcDbEntity
  8
$DDT_AUDIT_GENERATED_(122)
  6
Continuous
 62
     7
100
AcDbLine
 10
98.8079506172
 20
337.0791502597
 30
0.0
 11
97.461347202
 21
336.5747037416
 31
0.0
  0
ELLIPSE
  5
14A
330
75
100
AcDbEntity
  8
$DDT_AUDIT_GENERATED_(122)
  6
Continuous
 62
     7
100
AcDbEllipse
 10
103.4006278258
 20
338.8525748559
 30
0.0
 11
-8.499999617554828
 21
8.246164862057981E-8
 31
0.0
210
0.0
220
0.0
230
1.0
 40
0.3746065982
 41
0.5118338127744099
 42
0.5353637679556192
  0
ELLIPSE
  5
14B
330
75
100
AcDbEntity
  8
$DDT_AUDIT_GENERATED_(122)
  6
Continuous
 62
     7
100
AcDbEllipse
 10
103.4006282044
 20
338.8525749378
 30
0.0
 11
-8.499999999993987
 21
1.762479051592436E-12
 31
0.0
210
0.0
220
0.0
230
1.0
 40
0.3746065934
 41
0.5353637528866361
 42
0.7736331861097031
  0
LINE
  5
14C
330
75
100
AcDbEntity
  8
$DDT_AUDIT_GENERATED_(122)
  6
Continuous
 62
     7
100
AcDbLine
 10
95.9899217165
 20
337.2930489806
 30
0.0
 11
95.9899217165
 21
338.0699391871
 31
0.0
  0
LINE
  5
14D
330
75
100
AcDbEntity
  8
$DDT_AUDIT_GENERATED_(122)
  6
Continuous
 62
     7
100
AcDbLine
 10
97.7430211851
 20
337.672207962
 30
0.0
 11
95.9899217165
 21
337.2930489806
 31
0.0
  0
LINE
  5
14E
330
75
100
AcDbEntity
  8
$DDT_AUDIT_GENERATED_(122)
  6
Continuous
 62
     7
100
AcDbLine
 10
97.8311111826
 20
337.6047483107
 30
0.0
 11
96.0899217165
 21
337.2281652153
 31
0.0
  0
ELLIPSE
  5
14F
330
75
100
AcDbEntity
  8
$DDT_AUDIT_GENERATED_(122)
  6
Continuous
 62
     7
100
AcDbEllipse
 10
103.4006278141
 20
338.8525748985
 30
0.0
 11
-8.499999609530366
 21
4.410649623309837E-8
 31
0.0
210
0.0
220
0.0
230
1.0
 40
0.3746066011
 41
0.2500344181162635
 42
0.2735643732516693
  0
ELLIPSE
  5
150
330
75
100
AcDbEntity
  8
$DDT_AUDIT_GENERATED_(122)
  6
Continuous
 62
     7
100
AcDbEllipse
 10
103.4006282044
 20
338.8525749378
 30
0.0
 11
-8.500000000029479
 21
-4.607425552194400E-12
 31
0.0
210
0.0
220
0.0
230
1.0
 40
0.3746065934
 41
0.2735643650865885
 42
0.511833798309117
  0
LINE
  5
151
330
75
100
AcDbEntity
  8
$DDT_AUDIT_GENERATED_(122)
  6
Continuous
 62
     7
100
AcDbLine
 10
95.1649449877
 20
338.0646959638
 30
0.0
 11
95.1649449877
 21
338.8151142784
 31
0.0
  0
LINE
  5
152
330
75
100
AcDbEntity
  8
$DDT_AUDIT_GENERATED_(122)
  6
Continuous
 62
     7
100
AcDbLine
 10
97.2398404719
 20
338.2729647064
 30
0.0
 11
95.1649449877
 21
338.0646959638
 31
0.0
  0
LINE
  5
153
330
75
100
AcDbEntity
  8
$DDT_AUDIT_GENERATED_(122)
  6
Continuous
 62
     7
100
AcDbLine
 10
97.2767794792
 20
338.1991082224
 30
0.0
 11
95.2167087967
 21
337.9923275272
 31
0.0
  0
ARC
  5
154
330
75
100
AcDbEntity
  8
$DDT_AUDIT_GENERATED_(122)
  6
Continuous
 62
     7
100
AcDbCircle
 10
96.0939397586
 20
338.8525749378
 30
0.0
 40
1.193311429590154
100
AcDbArc
 50
178.2010644444
 51
181.7989355556
  0
ELLIPSE
  5
155
330
75
100
AcDbEntity
  8
$DDT_AUDIT_GENERATED_(122)
  6
Continuous
 62
     7
100
AcDbEllipse
 10
103.4006282044
 20
338.8525749378
 30
0.0
 11
-8.500000000030292
 21
-1.040834085586084E-12
 31
0.0
210
0.0
220
0.0
230
1.0
 40
0.3746065934
 41
0.011764977287961
 42
0.2500344105105691
  0
ARC
  5
156
330
75
100
AcDbEntity
  8
$DDT_AUDIT_GENERATED_(122)
  6
Continuous
 62
     7
100
AcDbCircle
 10
98.0283791083
 20
338.8525749378
 30
0.0
 40
0.8777505904340768
100
AcDbArc
 50
177.5539865225
 51
180.0
  0
LINE
  5
157
330
75
100
AcDbEntity
  8
$DDT_AUDIT_GENERATED_(122)
  6
Continuous
 62
     7
100
AcDbLine
 10
97.1514282556
 20
338.8900355971
 30
0.0
 11
97.1514282556
 21
339.4410595925
 31
0.0
  0
LINE
  5
158
330
75
100
AcDbEntity
  8
$DDT_AUDIT_GENERATED_(122)
  6
Continuous
 62
     7
100
AcDbLine
 10
97.1514282556
 20
338.8900355971
 30
0.0
 11
94.90121646
 21
338.8900355971
 31
0.0
  0
LINE
  5
159
330
75
100
AcDbEntity
  8
$DDT_AUDIT_GENERATED_(122)
  6
Continuous
 62
     7
100
AcDbLine
 10
97.1506282044
 20
338.8151142784
 30
0.0
 11
94.90121646
 21
338.8151142784
 31
0.0
  0
ELLIPSE
  5
15A
330
75
100
AcDbEntity
  8
$DDT_AUDIT_GENERATED_(122)
  6
Continuous
 62
     7
100
AcDbEllipse
 10
103.4006277484
 20
338.8525749835
 30
0.0
 11
-8.499999543762762
 21
-5.140743386533586E-8
 31
0.0
210
0.0
220
0.0
230
1.0
 40
0.3746066024
 41
-0.2735643746218139
 42
-0.2500344193922679
  0
ELLIPSE
  5
15B
330
75
100
AcDbEntity
  8
$DDT_AUDIT_GENERATED_(122)
  6
Continuous
 62
     7
100
AcDbEllipse
 10
103.4006282044
 20
338.8525749378
 30
0.0
 11
-8.500000000026549
 21
1.415534356397075E-12
 31
0.0
210
0.0
220
0.0
230
1.0
 40
0.3746065934
 41
6.033150896668974
 42
6.27142032989155
  0
ELLIPSE
  5
15C
330
75
100
AcDbEntity
  8
$DDT_AUDIT_GENERATED_(122)
  6
Continuous
 62
     7
100
AcDbEllipse
 10
103.4006282353
 20
338.8525749347
 30
0.0
 11
-6.250000030961825
 21
3.456457342565499E-9
 31
0.0
210
0.0
220
0.0
230
1.0
 40
0.3746065926
 41
-0.2778000696554148
 42
-0.24579870424677
  0
LINE
  5
15D
330
75
100
AcDbEntity
  8
$DDT_AUDIT_GENERATED_(122)
  6
Continuous
 62
     7
100
AcDbLine
 10
97.3902464847
 20
339.4946523419
 30
0.0
 11
97.3902464847
 21
340.1092397498
 31
0.0
  0
LINE
  5
15E
330
75
100
AcDbEntity
  8
$DDT_AUDIT_GENERATED_(122)
  6
Continuous
 62
     7
100
AcDbLine
 10
97.3902464847
 20
339.4946523419
 30
0.0
 11
95.2167087967
 21
339.7128223484
 31
0.0
  0
LINE
  5
15F
330
75
100
AcDbEntity
  8
$DDT_AUDIT_GENERATED_(122)
  6
Continuous
 62
     7
100
AcDbLine
 10
97.3384826757
 20
339.4222839052
 30
0.0
 11
95.1649449877
 21
339.6404539117
 31
0.0
  0
ELLIPSE
  5
160
330
75
100
AcDbEntity
  8
$DDT_AUDIT_GENERATED_(122)
  6
Continuous
 62
     7
100
AcDbEllipse
 10
103.4006282044
 20
338.8525749378
 30
0.0
 11
-8.50000000001763
 21
3.094746681142624E-12
 31
0.0
210
0.0
220
0.0
230
1.0
 40
0.3746065934
 41
-0.389429623416623
 42
-0.2735643650868367
  0
ELLIPSE
  5
161
330
75
100
AcDbEntity
  8
$DDT_AUDIT_GENERATED_(122)
  6
Continuous
 62
     7
100
AcDbEllipse
 10
103.4006282661
 20
338.8525749244
 30
0.0
 11
-6.250000062330057
 21
1.344738209674290E-8
 31
0.0
210
0.0
220
0.0
230
1.0
 40
0.3746065923
 41
-0.5395994549770906
 42
-0.5075980896687398
  0
LINE
  5
162
330
75
100
AcDbEntity
  8
$DDT_AUDIT_GENERATED_(122)
  6
Continuous
 62
     7
100
AcDbLine
 10
98.0386622954
 20
340.0555125726
 30
0.0
 11
98.0386622954
 21
340.8082253485
 31
0.0
  0
LINE
  5
163
330
75
100
AcDbEntity
  8
$DDT_AUDIT_GENERATED_(122)
  6
Continuous
 62
     7
100
AcDbLine
 10
98.0386622954
 20
340.0555125726
 30
0.0
 11
96.1444810777
 21
340.4651846043
 31
0.0
  0
LINE
  5
164
330
75
100
AcDbEntity
  8
$DDT_AUDIT_GENERATED_(122)
  6
Continuous
 62
     7
100
AcDbLine
 10
97.9386622954
 20
339.9906288073
 30
0.0
 11
96.0359353476
 21
340.4021491028
 31
0.0
  0
ELLIPSE
  5
165
330
75
100
AcDbEntity
  8
$DDT_AUDIT_GENERATED_(122)
  6
Continuous
 62
     7
100
AcDbEllipse
 10
103.4006282449
 20
338.8525749226
 30
0.0
 11
-6.250000042975546
 21
1.248175174328736E-8
 31
0.0
210
0.0
220
0.0
230
1.0
 40
0.3746065934
 41
-0.8013988430286334
 42
-0.7693974776846826
  0
LINE
  5
166
330
75
100
AcDbEntity
  8
$DDT_AUDIT_GENERATED_(122)
  6
Continuous
 62
     7
100
AcDbLine
 10
99.0524872217
 20
340.5343945915
 30
0.0
 11
99.0524872217
 21
341.4899839082
 31
0.0
  0
LINE
  5
167
330
75
100
AcDbEntity
  8
$DDT_AUDIT_GENERATED_(122)
  6
Continuous
 62
     7
100
AcDbLine
 10
99.0524872217
 20
340.5343945915
 30
0.0
 11
97.5752544468
 21
341.087775729
 31
0.0
  0
LINE
  5
168
330
75
100
AcDbEntity
  8
$DDT_AUDIT_GENERATED_(122)
  6
Continuous
 62
     7
100
AcDbLine
 10
98.9110658655
 20
340.481417219
 30
0.0
 11
97.4281382476
 21
341.0369316822
 31
0.0
  0
ELLIPSE
  5
169
330
75
100
AcDbEntity
  8
$DDT_AUDIT_GENERATED_(122)
  6
Continuous
 62
     7
100
AcDbEllipse
 10
103.4006282336
 20
338.8525749188
 30
0.0
 11
-6.250000036581032
 21
1.106503777492662E-8
 31
0.0
210
0.0
220
0.0
230
1.0
 40
0.3746065943
 41
-1.063198231174917
 42
-1.031196865834093
  0
LINE
  5
16A
330
75
100
AcDbEntity
  8
$DDT_AUDIT_GENERATED_(122)
  6
Continuous
 62
     7
100
AcDbLine
 10
100.3626307704
 20
340.8986633803
 30
0.0
 11
100.3626307704
 21
341.7210567392
 31
0.0
  0
LINE
  5
16B
330
75
100
AcDbEntity
  8
$DDT_AUDIT_GENERATED_(122)
  6
Continuous
 62
     7
100
AcDbLine
 10
100.3626307704
 20
340.8986633803
 30
0.0
 11
99.3550511198
 21
341.5524189956
 31
0.0
  0
LINE
  5
16C
330
75
100
AcDbEntity
  8
$DDT_AUDIT_GENERATED_(122)
  6
Continuous
 62
     7
100
AcDbLine
 10
100.1894256896
 20
340.861202721
 30
0.0
 11
99.1789997713
 21
341.5168051019
 31
0.0
  0
ELLIPSE
  5
16D
330
75
100
AcDbEntity
  8
$DDT_AUDIT_GENERATED_(122)
  6
Continuous
 62
     7
100
AcDbEllipse
 10
103.4006282193
 20
338.8525749169
 30
0.0
 11
-6.250000030732236
 21
6.275327479876579E-9
 31
0.0
210
0.0
220
0.0
230
1.0
 40
0.3746065949
 41
-1.324997620138161
 42
-1.292996254795018
  0
LINE
  5
16E
330
75
100
AcDbEntity
  8
$DDT_AUDIT_GENERATED_(122)
  6
Continuous
 62
     7
100
AcDbLine
 10
101.8798088236
 20
341.1234946231
 30
0.0
 11
101.8798088236
 21
341.8760346982
 31
0.0
  0
LINE
  5
16F
330
75
100
AcDbEntity
  8
$DDT_AUDIT_GENERATED_(122)
  6
Continuous
 62
     7
100
AcDbLine
 10
101.8798088236
 20
341.1234946231
 30
0.0
 11
101.3700236282
 21
341.8362002434
 31
0.0
  0
LINE
  5
170
330
75
100
AcDbEntity
  8
$DDT_AUDIT_GENERATED_(122)
  6
Continuous
 62
     7
100
AcDbLine
 10
101.6866236583
 20
341.1041035589
 30
0.0
 11
101.1760760339
 21
341.8178750939
 31
0.0
  0
ARC
  5
171
330
75
100
AcDbEntity
  8
$DDT_AUDIT_GENERATED_(122)
  6
Continuous
 62
     7
100
AcDbCircle
 10
103.4006282044
 20
324.5115323867
 30
0.0
 40
16.682333776442
100
AcDbArc
 50
89.6565461199
 51
90.3434538801
  0
LINE
  5
172
330
75
100
AcDbEntity
  8
$DDT_AUDIT_GENERATED_(122)
  6
Continuous
 62
     7
100
AcDbLine
 10
103.5006282044
 20
341.1935664422
 30
0.0
 11
103.5006282044
 21
341.9260002313
 31
0.0
  0
LINE
  5
173
330
75
100
AcDbEntity
  8
$DDT_AUDIT_GENERATED_(122)
  6
Continuous
 62
     7
100
AcDbLine
 10
103.3006282044
 20
341.1935664422
 30
0.0
 11
103.3006282044
 21
341.9260002313
 31
0.0
  0
ELLIPSE
  5
174
330
75
100
AcDbEntity
  8
$DDT_AUDIT_GENERATED_(122)
  6
Continuous
 62
     7
100
AcDbEllipse
 10
103.4006281895
 20
338.852574917
 30
0.0
 11
6.250000030683052
 21
6.260728047102760E-9
 31
0.0
210
0.0
220
0.0
230
1.0
 40
0.3746065949
 41
1.292996254798973
 42
1.324997620142353
  0
LINE
  5
175
330
75
100
AcDbEntity
  8
$DDT_AUDIT_GENERATED_(122)
  6
Continuous
 62
     7
100
AcDbLine
 10
105.1146327504
 20
341.1041035589
 30
0.0
 11
105.6251803749
 21
341.8178750939
 31
0.0
  0
LINE
  5
176
330
75
100
AcDbEntity
  8
$DDT_AUDIT_GENERATED_(122)
  6
Continuous
 62
     7
100
AcDbLine
 10
104.9214475851
 20
341.1234946231
 30
0.0
 11
105.4312327805
 21
341.8362002434
 31
0.0
  0
LINE
  5
177
330
75
100
AcDbEntity
  8
$DDT_AUDIT_GENERATED_(122)
  6
Continuous
 62
     7
100
AcDbLine
 10
104.9214475851
 20
341.1234946231
 30
0.0
 11
104.9214475851
 21
341.8760346982
 31
0.0
  0
ELLIPSE
  5
178
330
75
100
AcDbEntity
  8
$DDT_AUDIT_GENERATED_(122)
  6
Continuous
 62
     7
100
AcDbEllipse
 10
103.4006281756
 20
338.8525749191
 30
0.0
 11
6.250000036000681
 21
1.085692646896064E-8
 31
0.0
210
0.0
220
0.0
230
1.0
 40
0.3746065943
 41
1.03119686587896
 42
1.063198231222156
  0
LINE
  5
179
330
75
100
AcDbEntity
  8
$DDT_AUDIT_GENERATED_(122)
  6
Continuous
 62
     7
100
AcDbLine
 10
106.6118307191
 20
340.861202721
 30
0.0
 11
107.6222566374
 21
341.5168051019
 31
0.0
  0
LINE
  5
17A
330
75
100
AcDbEntity
  8
$DDT_AUDIT_GENERATED_(122)
  6
Continuous
 62
     7
100
AcDbLine
 10
106.4386256384
 20
340.8986633803
 30
0.0
 11
107.4462052889
 21
341.5524189956
 31
0.0
  0
LINE
  5
17B
330
75
100
AcDbEntity
  8
$DDT_AUDIT_GENERATED_(122)
  6
Continuous
 62
     7
100
AcDbLine
 10
106.4386256384
 20
340.8986633803
 30
0.0
 11
106.4386256384
 21
341.7210567392
 31
0.0
  0
ELLIPSE
  5
17C
330
75
100
AcDbEntity
  8
$DDT_AUDIT_GENERATED_(122)
  6
Continuous
 62
     7
100
AcDbEllipse
 10
103.4006282479
 20
338.8525749541
 30
0.0
 11
6.249999953871725
 21
-1.340409727657033E-8
 31
0.0
210
0.0
220
0.0
230
1.0
 40
0.3746065934
 41
0.7693974838347211
 42
0.8013988494829146
  0
LINE
  5
17D
330
75
100
AcDbEntity
  8
$DDT_AUDIT_GENERATED_(122)
  6
Continuous
 62
     7
100
AcDbLine
 10
107.8901905433
 20
340.481417219
 30
0.0
 11
109.3731181612
 21
341.0369316822
 31
0.0
  0
LINE
  5
17E
330
75
100
AcDbEntity
  8
$DDT_AUDIT_GENERATED_(122)
  6
Continuous
 62
     7
100
AcDbLine
 10
107.748769187
 20
340.5343945915
 30
0.0
 11
109.2260019619
 21
341.087775729
 31
0.0
  0
LINE
  5
17F
330
75
100
AcDbEntity
  8
$DDT_AUDIT_GENERATED_(122)
  6
Continuous
 62
     7
100
AcDbLine
 10
107.748769187
 20
340.5343945915
 30
0.0
 11
107.748769187
 21
341.4899839082
 31
0.0
  0
ELLIPSE
  5
180
330
75
100
AcDbEntity
  8
$DDT_AUDIT_GENERATED_(122)
  6
Continuous
 62
     7
100
AcDbEllipse
 10
103.4006281767
 20
338.8525749318
 30
0.0
 11
6.250000027942972
 21
6.030204113827153E-9
 31
0.0
210
0.0
220
0.0
230
1.0
 40
0.3746065929
 41
0.5075980914261882
 42
0.5395994568350566
  0
LINE
  5
181
330
75
100
AcDbEntity
  8
$DDT_AUDIT_GENERATED_(122)
  6
Continuous
 62
     7
100
AcDbLine
 10
108.8625941134
 20
339.9906288073
 30
0.0
 11
110.7653210611
 21
340.4021491028
 31
0.0
  0
LINE
  5
182
330
75
100
AcDbEntity
  8
$DDT_AUDIT_GENERATED_(122)
  6
Continuous
 62
     7
100
AcDbLine
 10
108.7625941134
 20
340.0555125726
 30
0.0
 11
110.6567753311
 21
340.4651846043
 31
0.0
  0
LINE
  5
183
330
75
100
AcDbEntity
  8
$DDT_AUDIT_GENERATED_(122)
  6
Continuous
 62
     7
100
AcDbLine
 10
108.7625941134
 20
340.0555125726
 30
0.0
 11
108.7625941134
 21
340.8082253485
 31
0.0
  0
ELLIPSE
  5
184
330
75
100
AcDbEntity
  8
$DDT_AUDIT_GENERATED_(122)
  6
Continuous
 62
     7
100
AcDbEllipse
 10
103.4006286603
 20
338.8525749835
 30
0.0
 11
8.499999543776589
 21
-5.140610159770631E-8
 31
0.0
210
0.0
220
0.0
230
1.0
 40
0.3746066024
 41
0.2500344193923958
 42
0.273564374621883
  0
ELLIPSE
  5
185
330
75
100
AcDbEntity
  8
$DDT_AUDIT_GENERATED_(122)
  6
Continuous
 62
     7
100
AcDbEllipse
 10
103.4006282043
 20
338.8525749378
 30
0.0
 11
8.500000000048507
 21
7.799316747991725E-12
 31
0.0
210
0.0
220
0.0
230
1.0
 40
0.3746065934
 41
0.2735643650861522
 42
0.3894296234157205
  0
ELLIPSE
  5
186
330
75
100
AcDbEntity
  8
$DDT_AUDIT_GENERATED_(122)
  6
Continuous
 62
     7
100
AcDbEllipse
 10
103.4006281487
 20
338.8525749322
 30
0.0
 11
6.250000055736685
 21
6.249140094283235E-9
 31
0.0
210
0.0
220
0.0
230
1.0
 40
0.3746065919
 41
0.2457987035995843
 42
0.277800068942592
  0
LINE
  5
187
330
75
100
AcDbEntity
  8
$DDT_AUDIT_GENERATED_(122)
  6
Continuous
 62
     7
100
AcDbLine
 10
109.4627737331
 20
339.4222839052
 30
0.0
 11
111.636311421
 21
339.6404539117
 31
0.0
  0
LINE
  5
188
330
75
100
AcDbEntity
  8
$DDT_AUDIT_GENERATED_(122)
  6
Continuous
 62
     7
100
AcDbLine
 10
109.411009924
 20
339.4946523419
 30
0.0
 11
111.584547612
 21
339.7128223484
 31
0.0
  0
LINE
  5
189
330
75
100
AcDbEntity
  8
$DDT_AUDIT_GENERATED_(122)
  6
Continuous
 62
     7
100
AcDbLine
 10
109.411009924
 20
339.4946523419
 30
0.0
 11
109.411009924
 21
340.1092397498
 31
0.0
  0
ARC
  5
18A
330
75
100
AcDbEntity
  8
$DDT_AUDIT_GENERATED_(122)
  6
Continuous
 62
     7
100
AcDbCircle
 10
110.7073166501
 20
338.8525749378
 30
0.0
 40
1.193311429590154
100
AcDbArc
 50
358.2010644444
 51
1.7989355556
  0
ELLIPSE
  5
18B
330
75
100
AcDbEntity
  8
$DDT_AUDIT_GENERATED_(122)
  6
Continuous
 62
     7
100
AcDbEllipse
 10
103.4006282043
 20
338.8525749378
 30
0.0
 11
8.500000000030292
 21
1.040834085586084E-12
 31
0.0
210
0.0
220
0.0
230
1.0
 40
0.3746065934
 41
0.011764977287961
 42
0.2500344105105691
  0
ARC
  5
18C
330
75
100
AcDbEntity
  8
$DDT_AUDIT_GENERATED_(122)
  6
Continuous
 62
     7
100
AcDbCircle
 10
108.7728773005
 20
338.8525749378
 30
0.0
 40
0.8777505904341643
100
AcDbArc
 50
0.0
 51
2.4460134775
  0
LINE
  5
18D
330
75
100
AcDbEntity
  8
$DDT_AUDIT_GENERATED_(122)
  6
Continuous
 62
     7
100
AcDbLine
 10
109.6506282044
 20
338.8151142784
 30
0.0
 11
111.9000399487
 21
338.8151142784
 31
0.0
  0
LINE
  5
18E
330
75
100
AcDbEntity
  8
$DDT_AUDIT_GENERATED_(122)
  6
Continuous
 62
     7
100
AcDbLine
 10
109.6498281532
 20
338.8900355971
 30
0.0
 11
111.9000399487
 21
338.8900355971
 31
0.0
  0
LINE
  5
18F
330
75
100
AcDbEntity
  8
$DDT_AUDIT_GENERATED_(122)
  6
Continuous
 62
     7
100
AcDbLine
 10
109.6498281532
 20
338.8900355971
 30
0.0
 11
109.6498281532
 21
339.4410595925
 31
0.0
  0
ELLIPSE
  5
190
330
75
100
AcDbEntity
  8
$DDT_AUDIT_GENERATED_(122)
  6
Continuous
 62
     7
100
AcDbEllipse
 10
103.400628594
 20
338.8525748988
 30
0.0
 11
8.499999610091278
 21
4.381817131360322E-8
 31
0.0
210
0.0
220
0.0
230
1.0
 40
0.3746066011
 41
-0.2735643732313129
 42
-0.2500344180968286
  0
ELLIPSE
  5
191
330
75
100
AcDbEntity
  8
$DDT_AUDIT_GENERATED_(122)
  6
Continuous
 62
     7
100
AcDbEllipse
 10
103.4006282043
 20
338.8525749378
 30
0.0
 11
8.50000000002227
 21
-1.165734175856414E-12
 31
0.0
210
0.0
220
0.0
230
1.0
 40
0.3746065934
 41
6.033150896668915
 42
6.271420329891701
  0
LINE
  5
192
330
75
100
AcDbEntity
  8
$DDT_AUDIT_GENERATED_(122)
  6
Continuous
 62
     7
100
AcDbLine
 10
111.636311421
 20
338.0646959638
 30
0.0
 11
111.636311421
 21
338.8151142784
 31
0.0
  0
LINE
  5
193
330
75
100
AcDbEntity
  8
$DDT_AUDIT_GENERATED_(122)
  6
Continuous
 62
     7
100
AcDbLine
 10
109.5244769296
 20
338.1991082224
 30
0.0
 11
111.584547612
 21
337.9923275272
 31
0.0
  0
LINE
  5
194
330
75
100
AcDbEntity
  8
$DDT_AUDIT_GENERATED_(122)
  6
Continuous
 62
     7
100
AcDbLine
 10
109.5614159368
 20
338.2729647064
 30
0.0
 11
111.636311421
 21
338.0646959638
 31
0.0
  0
ELLIPSE
  5
195
330
75
100
AcDbEntity
  8
$DDT_AUDIT_GENERATED_(122)
  6
Continuous
 62
     7
100
AcDbEllipse
 10
103.4006285836
 20
338.8525748558
 30
0.0
 11
8.499999616883576
 21
8.260980788321604E-8
 31
0.0
210
0.0
220
0.0
230
1.0
 40
0.3746065982
 41
-0.5353637679850003
 42
-0.5118338128028581
  0
ELLIPSE
  5
196
330
75
100
AcDbEntity
  8
$DDT_AUDIT_GENERATED_(122)
  6
Continuous
 62
     7
100
AcDbEllipse
 10
103.4006282044
 20
338.8525749378
 30
0.0
 11
8.500000000002737
 21
4.302114220422482E-13
 31
0.0
210
0.0
220
0.0
230
1.0
 40
0.3746065934
 41
-0.5118337983101391
 42
-0.2735643650872026
  0
LINE
  5
197
330
75
100
AcDbEntity
  8
$DDT_AUDIT_GENERATED_(122)
  6
Continuous
 62
     7
100
AcDbLine
 10
110.8113346922
 20
337.2930489806
 30
0.0
 11
110.8113346922
 21
338.0699391871
 31
0.0
  0
LINE
  5
198
330
75
100
AcDbEntity
  8
$DDT_AUDIT_GENERATED_(122)
  6
Continuous
 62
     7
100
AcDbLine
 10
108.9701452262
 20
337.6047483107
 30
0.0
 11
110.7113346922
 21
337.2281652153
 31
0.0
  0
LINE
  5
199
330
75
100
AcDbEntity
  8
$DDT_AUDIT_GENERATED_(122)
  6
Continuous
 62
     7
100
AcDbLine
 10
109.0582352237
 20
337.672207962
 30
0.0
 11
110.8113346922
 21
337.2930489806
 31
0.0
  0
ELLIPSE
  5
19A
330
75
100
AcDbEntity
  8
$DDT_AUDIT_GENERATED_(122)
  6
Continuous
 62
     7
100
AcDbEllipse
 10
103.4006285376
 20
338.852574813
 30
0.0
 11
8.499999646513196
 21
1.026522755687154E-7
 31
0.0
210
0.0
220
0.0
230
1.0
 40
0.3746065934
 41
-0.7971631593986999
 42
-0.7736332041701486
  0
ELLIPSE
  5
19B
330
75
100
AcDbEntity
  8
$DDT_AUDIT_GENERATED_(122)
  6
Continuous
 62
     7
100
AcDbEllipse
 10
103.4006282044
 20
338.8525749378
 30
0.0
 11
8.500000000004208
 21
-9.159339953157541E-13
 31
0.0
210
0.0
220
0.0
230
1.0
 40
0.3746065934
 41
-0.7736331861091266
 42
-0.5353637528862283
  0
LINE
  5
19C
330
75
100
AcDbEntity
  8
$DDT_AUDIT_GENERATED_(122)
  6
Continuous
 62
     7
100
AcDbLine
 10
109.481330563
 20
336.6276811141
 30
0.0
 11
109.481330563
 21
337.494189546
 31
0.0
  0
LINE
  5
19D
330
75
100
AcDbEntity
  8
$DDT_AUDIT_GENERATED_(122)
  6
Continuous
 62
     7
100
AcDbLine
 10
107.9933057915
 20
337.0791502597
 30
0.0
 11
109.3399092068
 21
336.5747037416
 31
0.0
  0
LINE
  5
19E
330
75
100
AcDbEntity
  8
$DDT_AUDIT_GENERATED_(122)
  6
Continuous
 62
     7
100
AcDbLine
 10
108.1267933974
 20
337.1350996674
 30
0.0
 11
109.481330563
 21
336.6276811141
 31
0.0
  0
ELLIPSE
  5
19F
330
75
100
AcDbEntity
  8
$DDT_AUDIT_GENERATED_(122)
  6
Continuous
 62
     7
100
AcDbEllipse
 10
103.4006284227
 20
338.8525747962
 30
0.0
 11
8.499999727128211
 21
8.238248971892403E-8
 31
0.0
210
0.0
220
0.0
230
1.0
 40
0.3746065886
 41
-1.058962543545372
 42
-1.035432588364979
  0
ELLIPSE
  5
1A0
330
75
100
AcDbEntity
  8
$DDT_AUDIT_GENERATED_(122)
  6
Continuous
 62
     7
100
AcDbEllipse
 10
103.4006282044
 20
338.8525749378
 30
0.0
 11
8.499999999997952
 21
2.498001805406602E-13
 31
0.0
210
0.0
220
0.0
230
1.0
 40
0.3746065934
 41
-1.035432573908632
 42
-0.7971631406856172
  0
LINE
  5
1A1
330
75
100
AcDbEntity
  8
$DDT_AUDIT_GENERATED_(122)
  6
Continuous
 62
     7
100
AcDbLine
 10
107.7369366169
 20
336.1139360849
 30
0.0
 11
107.7369366169
 21
336.9810368715
 31
0.0
  0
LINE
  5
1A2
330
75
100
AcDbEntity
  8
$DDT_AUDIT_GENERATED_(122)
  6
Continuous
 62
     7
100
AcDbLine
 10
106.6525039994
 20
336.6677141615
 30
0.0
 11
107.5637315362
 21
336.0764754256
 31
0.0
  0
LINE
  5
1A3
330
75
100
AcDbEntity
  8
$DDT_AUDIT_GENERATED_(122)
  6
Continuous
 62
     7
100
AcDbLine
 10
106.8217453233
 20
336.7077466556
 30
0.0
 11
107.7369366169
 21
336.1139360849
 31
0.0
  0
ELLIPSE
  5
1A4
330
75
100
AcDbEntity
  8
$DDT_AUDIT_GENERATED_(122)
  6
Continuous
 62
     7
100
AcDbEllipse
 10
103.4006283178
 20
338.8525747793
 30
0.0
 11
8.499999766307154
 21
4.774755590908342E-8
 31
0.0
210
0.0
220
0.0
230
1.0
 40
0.3746065851
 41
-1.320761925143137
 42
-1.297231969960685
  0
ELLIPSE
  5
1A5
330
75
100
AcDbEntity
  8
$DDT_AUDIT_GENERATED_(122)
  6
Continuous
 62
     7
100
AcDbEllipse
 10
103.4006282044
 20
338.8525749378
 30
0.0
 11
8.500000000007761
 21
-2.123301534595612E-12
 31
0.0
210
0.0
220
0.0
230
1.0
 40
0.3746065934
 41
-1.29723196170719
 42
-1.058962528484414
  0
LINE
  5
1A6
330
75
100
AcDbEntity
  8
$DDT_AUDIT_GENERATED_(122)
  6
Continuous
 62
     7
100
AcDbLine
 10
105.6970304186
 20
335.7868247677
 30
0.0
 11
105.6970304186
 21
336.4896122962
 31
0.0
  0
LINE
  5
1A7
330
75
100
AcDbEntity
  8
$DDT_AUDIT_GENERATED_(122)
  6
Continuous
 62
     7
100
AcDbLine
 10
105.0453926237
 20
336.4083737872
 30
0.0
 11
105.5038452533
 21
335.7674337035
 31
0.0
  0
LINE
  5
1A8
330
75
100
AcDbEntity
  8
$DDT_AUDIT_GENERATED_(122)
  6
Continuous
 62
     7
100
AcDbLine
 10
105.2375163139
 20
336.4292488475
 30
0.0
 11
105.6970304186
 21
335.7868247677
 31
0.0
  0
ARC
  5
1A9
330
75
100
AcDbEntity
  8
$DDT_AUDIT_GENERATED_(122)
  6
Continuous
 62
     7
100
AcDbCircle
 10
103.4006282044
 20
350.8938977221
 30
0.0
 40
14.00800766098232
100
AcDbArc
 50
269.2841935491
 51
270.7158064509
  0
LINE
  5
1AA
330
75
100
AcDbEntity
  8
$DDT_AUDIT_GENERATED_(122)
  6
Continuous
 62
     7
100
AcDbLine
 10
103.2256282044
 20
337.6390580286
 30
0.0
 11
103.2256282044
 21
336.8869832286
 31
0.0
  0
LINE
  5
1AB
330
75
100
AcDbEntity
  8
$DDT_AUDIT_GENERATED_(122)
  6
Continuous
 62
     7
100
AcDbLine
 10
103.5756282044
 20
337.6390580286
 30
0.0
 11
103.5756282044
 21
336.8869832286
 31
0.0
  0
ELLIPSE
  5
1AC
330
75
100
AcDbEntity
  8
$DDT_AUDIT_GENERATED_(122)
  6
Continuous
 62
     7
100
AcDbEllipse
 10
103.4006282032
 20
338.852574937
 30
0.0
 11
-5.249999998582754
 21
4.292122213200855E-10
 31
0.0
210
0.0
220
0.0
230
1.0
 40
0.3746065934
 41
1.013858042052644
 42
1.080537060589632
  0
LINE
  5
1AD
330
75
100
AcDbEntity
  8
$DDT_AUDIT_GENERATED_(122)
  6
Continuous
 62
     7
100
AcDbLine
 10
101.6760503738
 20
337.8647162141
 30
0.0
 11
100.6255324974
 21
337.1831006611
 31
0.0
  0
LINE
  5
1AE
330
75
100
AcDbEntity
  8
$DDT_AUDIT_GENERATED_(122)
  6
Continuous
 62
     7
100
AcDbLine
 10
101.9633118794
 20
337.7888776797
 30
0.0
 11
100.9286413887
 21
337.1175445072
 31
0.0
  0
LINE
  5
1AF
330
75
100
AcDbEntity
  8
$DDT_AUDIT_GENERATED_(122)
  6
Continuous
 62
     7
100
AcDbLine
 10
100.6255324974
 20
338.1766816835
 30
0.0
 11
100.6255324974
 21
337.1831006611
 31
0.0
  0
ELLIPSE
  5
1B0
330
75
100
AcDbEntity
  8
$DDT_AUDIT_GENERATED_(122)
  6
Continuous
 62
     7
100
AcDbEllipse
 10
103.4006282013
 20
338.8525749371
 30
0.0
 11
-5.249999996891798
 21
6.654260475968953E-10
 31
0.0
210
0.0
220
0.0
230
1.0
 40
0.3746065935
 41
0.4902592665198212
 42
0.5569382850649606
  0
LINE
  5
1B1
330
75
100
AcDbEntity
  8
$DDT_AUDIT_GENERATED_(122)
  6
Continuous
 62
     7
100
AcDbLine
 10
100.7753042201
 20
338.3604696468
 30
0.0
 11
98.769021444
 21
337.9265523778
 31
0.0
  0
LINE
  5
1B2
330
75
100
AcDbEntity
  8
$DDT_AUDIT_GENERATED_(122)
  6
Continuous
 62
     7
100
AcDbLine
 10
100.9023656526
 20
338.2365549417
 30
0.0
 11
98.944021444
 21
337.8130057886
 31
0.0
  0
LINE
  5
1B3
330
75
100
AcDbEntity
  8
$DDT_AUDIT_GENERATED_(122)
  6
Continuous
 62
     7
100
AcDbLine
 10
98.769021444
 20
338.7870187839
 30
0.0
 11
98.769021444
 21
337.9265523778
 31
0.0
  0
LINE
  5
1B4
330
75
100
AcDbEntity
  8
$DDT_AUDIT_GENERATED_(122)
  6
Continuous
 62
     7
100
AcDbLine
 10
100.6562020348
 20
339.3704395562
 30
0.0
 11
100.6562020348
 21
338.9181310916
 31
0.0
  0
ELLIPSE
  5
1B5
330
75
100
AcDbEntity
  8
$DDT_AUDIT_GENERATED_(122)
  6
Continuous
 62
     7
100
AcDbEllipse
 10
103.4006282044
 20
338.8525749378
 30
0.0
 11
2.749999999997732
 21
1.998401444325282E-12
 31
0.0
210
0.0
220
0.0
230
1.0
 40
0.3746065934
 41
3.07791326133247
 42
3.141592653589793
  0
LINE
  5
1B6
330
75
100
AcDbEntity
  8
$DDT_AUDIT_GENERATED_(122)
  6
Continuous
 62
     7
100
AcDbLine
 10
100.6562020348
 20
338.9181310916
 30
0.0
 11
98.1935583255
 21
338.9181310916
 31
0.0
  0
LINE
  5
1B7
330
75
100
AcDbEntity
  8
$DDT_AUDIT_GENERATED_(122)
  6
Continuous
 62
     7
100
AcDbLine
 10
100.6506282044
 20
338.7870187839
 30
0.0
 11
98.160390721
 21
338.7870187839
 31
0.0
  0
LINE
  5
1B8
330
75
100
AcDbEntity
  8
$DDT_AUDIT_GENERATED_(122)
  6
Continuous
 62
     7
100
AcDbLine
 10
101.1113854227
 20
340.2068095428
 30
0.0
 11
101.1113854227
 21
339.4233883015
 31
0.0
  0
ELLIPSE
  5
1B9
330
75
100
AcDbEntity
  8
$DDT_AUDIT_GENERATED_(122)
  6
Continuous
 62
     7
100
AcDbEllipse
 10
103.4006282044
 20
338.8525749378
 30
0.0
 11
-2.750000000020527
 21
4.843347944927245E-12
 31
0.0
210
0.0
220
0.0
230
1.0
 40
0.3746065934
 41
-0.5872781678525429
 42
-0.4599193833390629
  0
LINE
  5
1BA
330
75
100
AcDbEntity
  8
$DDT_AUDIT_GENERATED_(122)
  6
Continuous
 62
     7
100
AcDbLine
 10
101.1113854227
 20
339.4233883015
 30
0.0
 11
99.1860030693
 21
339.8398084904
 31
0.0
  0
LINE
  5
1BB
330
75
100
AcDbEntity
  8
$DDT_AUDIT_GENERATED_(122)
  6
Continuous
 62
     7
100
AcDbLine
 10
100.9363854227
 20
339.3098417123
 30
0.0
 11
98.9861552743
 21
339.7316359628
 31
0.0
  0
LINE
  5
1BC
330
75
100
AcDbEntity
  8
$DDT_AUDIT_GENERATED_(122)
  6
Continuous
 62
     7
100
AcDbLine
 10
102.1799695653
 20
340.579925524
 30
0.0
 11
102.1799695653
 21
339.7756965316
 31
0.0
  0
ELLIPSE
  5
1BD
330
75
100
AcDbEntity
  8
$DDT_AUDIT_GENERATED_(122)
  6
Continuous
 62
     7
100
AcDbEllipse
 10
103.4006282044
 20
338.8525749378
 30
0.0
 11
-2.749999999994765
 21
-1.054711873393899E-12
 31
0.0
210
0.0
220
0.0
230
1.0
 40
0.3746065934
 41
-1.110876943454449
 42
-0.9835181589402229
  0
LINE
  5
1BE
330
75
100
AcDbEntity
  8
$DDT_AUDIT_GENERATED_(122)
  6
Continuous
 62
     7
100
AcDbLine
 10
102.1799695653
 20
339.7756965316
 30
0.0
 11
101.1500459151
 21
340.4439497752
 31
0.0
  0
LINE
  5
1BF
330
75
100
AcDbEntity
  8
$DDT_AUDIT_GENERATED_(122)
  6
Continuous
 62
     7
100
AcDbLine
 10
101.8768606739
 20
339.7101403777
 30
0.0
 11
100.8386729374
 21
340.3837556717
 31
0.0
  0
ARC
  5
1C0
330
75
100
AcDbEntity
  8
$DDT_AUDIT_GENERATED_(122)
  6
Continuous
 62
     7
100
AcDbCircle
 10
103.4006282044
 20
332.5544995364
 30
0.0
 40
7.328245355509062
100
AcDbArc
 50
88.6316349744
 51
91.3683650256
  0
LINE
  5
1C1
330
75
100
AcDbEntity
  8
$DDT_AUDIT_GENERATED_(122)
  6
Continuous
 62
     7
100
AcDbLine
 10
103.5756282044
 20
339.880655076
 30
0.0
 11
103.5756282044
 21
340.6327298761
 31
0.0
  0
LINE
  5
1C2
330
75
100
AcDbEntity
  8
$DDT_AUDIT_GENERATED_(122)
  6
Continuous
 62
     7
100
AcDbLine
 10
103.2256282044
 20
339.880655076
 30
0.0
 11
103.2256282044
 21
340.6327298761
 31
0.0
  0
ELLIPSE
  5
1C3
330
75
100
AcDbEntity
  8
$DDT_AUDIT_GENERATED_(122)
  6
Continuous
 62
     7
100
AcDbEllipse
 10
103.4006282045
 20
338.8525749379
 30
0.0
 11
2.749999999846055
 21
-4.631017791467685E-11
 31
0.0
210
0.0
220
0.0
230
1.0
 40
0.3746065934
 41
0.983518158962637
 42
1.110876943482372
  0
LINE
  5
1C4
330
75
100
AcDbEntity
  8
$DDT_AUDIT_GENERATED_(122)
  6
Continuous
 62
     7
100
AcDbLine
 10
104.6212868435
 20
340.579925524
 30
0.0
 11
104.6212868435
 21
339.7756965316
 31
0.0
  0
LINE
  5
1C5
330
75
100
AcDbEntity
  8
$DDT_AUDIT_GENERATED_(122)
  6
Continuous
 62
     7
100
AcDbLine
 10
104.9243957348
 20
339.7101403777
 30
0.0
 11
105.9625834713
 21
340.3837556717
 31
0.0
  0
LINE
  5
1C6
330
75
100
AcDbEntity
  8
$DDT_AUDIT_GENERATED_(122)
  6
Continuous
 62
     7
100
AcDbLine
 10
104.6212868435
 20
339.7756965316
 30
0.0
 11
105.6512104937
 21
340.4439497752
 31
0.0
  0
ELLIPSE
  5
1C7
330
75
100
AcDbEntity
  8
$DDT_AUDIT_GENERATED_(122)
  6
Continuous
 62
     7
100
AcDbEllipse
 10
103.4006282044
 20
338.8525749378
 30
0.0
 11
2.749999999992722
 21
-2.969846590872294E-12
 31
0.0
210
0.0
220
0.0
230
1.0
 40
0.3746065934
 41
0.4599193833422891
 42
0.5872781678564815
  0
LINE
  5
1C8
330
75
100
AcDbEntity
  8
$DDT_AUDIT_GENERATED_(122)
  6
Continuous
 62
     7
100
AcDbLine
 10
105.689870986
 20
340.2068095428
 30
0.0
 11
105.689870986
 21
339.4233883015
 31
0.0
  0
LINE
  5
1C9
330
75
100
AcDbEntity
  8
$DDT_AUDIT_GENERATED_(122)
  6
Continuous
 62
     7
100
AcDbLine
 10
105.864870986
 20
339.3098417123
 30
0.0
 11
107.8151011344
 21
339.7316359628
 31
0.0
  0
LINE
  5
1CA
330
75
100
AcDbEntity
  8
$DDT_AUDIT_GENERATED_(122)
  6
Continuous
 62
     7
100
AcDbLine
 10
105.689870986
 20
339.4233883015
 30
0.0
 11
107.6152533395
 21
339.8398084904
 31
0.0
  0
ELLIPSE
  5
1CB
330
75
100
AcDbEntity
  8
$DDT_AUDIT_GENERATED_(122)
  6
Continuous
 62
     7
100
AcDbEllipse
 10
103.4006282043
 20
338.8525749378
 30
0.0
 11
-2.75000000009774
 21
1.998401444325282E-12
 31
0.0
210
0.0
220
0.0
230
1.0
 40
0.3746065934
 41
3.141592653590077
 42
3.205272045845918
  0
LINE
  5
1CC
330
75
100
AcDbEntity
  8
$DDT_AUDIT_GENERATED_(122)
  6
Continuous
 62
     7
100
AcDbLine
 10
106.1450543739
 20
339.3704395562
 30
0.0
 11
106.1450543739
 21
338.9181310916
 31
0.0
  0
LINE
  5
1CD
330
75
100
AcDbEntity
  8
$DDT_AUDIT_GENERATED_(122)
  6
Continuous
 62
     7
100
AcDbLine
 10
106.1506282044
 20
338.7870187839
 30
0.0
 11
108.6408656878
 21
338.7870187839
 31
0.0
  0
LINE
  5
1CE
330
75
100
AcDbEntity
  8
$DDT_AUDIT_GENERATED_(122)
  6
Continuous
 62
     7
100
AcDbLine
 10
106.1450543739
 20
338.9181310916
 30
0.0
 11
108.6076980832
 21
338.9181310916
 31
0.0
  0
ELLIPSE
  5
1CF
330
75
100
AcDbEntity
  8
$DDT_AUDIT_GENERATED_(122)
  6
Continuous
 62
     7
100
AcDbEllipse
 10
103.4006282075
 20
338.8525749371
 30
0.0
 11
5.249999996846369
 21
6.878109193309000E-10
 31
0.0
210
0.0
220
0.0
230
1.0
 40
0.3746065935
 41
-0.5569382850687967
 42
-0.4902592665233021
  0
LINE
  5
1D0
330
75
100
AcDbEntity
  8
$DDT_AUDIT_GENERATED_(122)
  6
Continuous
 62
     7
100
AcDbLine
 10
105.8988907562
 20
338.2365549417
 30
0.0
 11
107.8572349648
 21
337.8130057886
 31
0.0
  0
LINE
  5
1D1
330
75
100
AcDbEntity
  8
$DDT_AUDIT_GENERATED_(122)
  6
Continuous
 62
     7
100
AcDbLine
 10
106.0259521886
 20
338.3604696468
 30
0.0
 11
108.0322349648
 21
337.9265523778
 31
0.0
  0
LINE
  5
1D2
330
75
100
AcDbEntity
  8
$DDT_AUDIT_GENERATED_(122)
  6
Continuous
 62
     7
100
AcDbLine
 10
108.0322349648
 20
338.7870187839
 30
0.0
 11
108.0322349648
 21
337.9265523778
 31
0.0
  0
ELLIPSE
  5
1D3
330
75
100
AcDbEntity
  8
$DDT_AUDIT_GENERATED_(122)
  6
Continuous
 62
     7
100
AcDbEllipse
 10
103.4006282055
 20
338.8525749371
 30
0.0
 11
5.249999998645085
 21
4.094086181183343E-10
 31
0.0
210
0.0
220
0.0
230
1.0
 40
0.3746065934
 41
-1.080537060583237
 42
-1.013858042046854
  0
LINE
  5
1D4
330
75
100
AcDbEntity
  8
$DDT_AUDIT_GENERATED_(122)
  6
Continuous
 62
     7
100
AcDbLine
 10
104.8379445294
 20
337.7888776797
 30
0.0
 11
105.8726150201
 21
337.1175445072
 31
0.0
  0
LINE
  5
1D5
330
75
100
AcDbEntity
  8
$DDT_AUDIT_GENERATED_(122)
  6
Continuous
 62
     7
100
AcDbLine
 10
105.1252060349
 20
337.8647162141
 30
0.0
 11
106.1757239114
 21
337.1831006611
 31
0.0
  0
LINE
  5
1D6
330
75
100
AcDbEntity
  8
$DDT_AUDIT_GENERATED_(122)
  6
Continuous
 62
     7
100
AcDbLine
 10
106.1757239114
 20
338.1766816835
 30
0.0
 11
106.1757239114
 21
337.1831006611
 31
0.0
  0
LINE
  5
1D7
330
75
100
AcDbEntity
  8
$DDT_AUDIT_GENERATED_(122)
  6
Continuous
 62
     7
100
AcDbLine
 10
94.4006282044
 20
340.6879886865
 30
0.0
 11
94.4006282044
 21
338.6671381669
 31
0.0
  0
LINE
  5
1D8
330
75
100
AcDbEntity
  8
$DDT_AUDIT_GENERATED_(122)
  6
Continuous
 62
     7
100
AcDbLine
 10
112.4006282044
 20
338.6671381669
 30
0.0
 11
112.4006282044
 21
340.6879886865
 31
0.0
  0
LINE
  5
1D9
330
75
100
AcDbEntity
  8
$DDT_AUDIT_GENERATED_(122)
  6
Continuous
 62
     7
100
AcDbLine
 10
97.1506282044
 20
338.8525749378
 30
0.0
 11
97.1506282044
 21
338.6671381669
 31
0.0
  0
LINE
  5
1DA
330
75
100
AcDbEntity
  8
$DDT_AUDIT_GENERATED_(122)
  6
Continuous
 62
     7
100
AcDbLine
 10
109.6506282044
 20
338.6671381669
 30
0.0
 11
109.6506282044
 21
338.8525749378
 31
0.0
  0
LINE
  5
1DB
330
75
100
AcDbEntity
  8
$DDT_AUDIT_GENERATED_(122)
  6
Continuous
 62
     7
100
AcDbLine
 10
100.6506282044
 20
338.8525749378
 30
0.0
 11
100.6506282044
 21
338.6671381669
 31
0.0
  0
LINE
  5
1DC
330
75
100
AcDbEntity
  8
$DDT_AUDIT_GENERATED_(122)
  6
Continuous
 62
     7
100
AcDbLine
 10
106.1506282044
 20
338.6671381669
 30
0.0
 11
106.1506282044
 21
338.8525749378
 31
0.0
  0
LINE
  5
1DD
330
75
100
AcDbEntity
  8
$DDT_AUDIT_GENERATED_(122)
  6
Continuous
 62
     7
100
AcDbLine
 10
102.8809982605
 20
339.0861112303
 30
0.0
 11
102.8809982605
 21
338.8525749378
 31
0.0
  0
LINE
  5
1DE
330
75
100
AcDbEntity
  8
$DDT_AUDIT_GENERATED_(122)
  6
Continuous
 62
     7
100
AcDbLine
 10
103.9202581483
 20
338.8525749378
 30
0.0
 11
103.9202581483
 21
339.0861112303
 31
0.0
  0
LINE
  5
1E0
330
75
100
AcDbEntity
  8
$DDT_AUDIT_GENERATED_(1DF)
  6
Continuous
 62
     7
100
AcDbLine
 10
122.5015148042
 20
357.9930796346
 30
0.0
 11
84.291130301
 21
357.9930796346
 31
0.0
  0
ELLIPSE
  5
1E2
330
75
100
AcDbEntity
  8
$DDT_AUDIT_GENERATED_(1E1)
  6
Continuous
 62
     7
100
AcDbEllipse
 10
103.4006282044
 20
377.9632675372
 30
0.0
 11
-3.140601606261722E-14
 21
-3.722108479915651
 31
0.0
210
0.0
220
0.0
230
1.0
 40
0.9000275027
 41
1.570796326794904
 42
4.712388980384682
  0
ENDBLK
  5
1E4
330
75
100
AcDbEntity
  8
0
100
AcDbBlockEnd
  0
BLOCK
  5
22D
330
1E5
100
AcDbEntity
  8
0
100
AcDbBlockBegin
  2
SE1
 70
     0
 10
0.0
 20
0.0
 30
0.0
  3
SE1
  1

  0
LINE
  5
1E7
330
1E5
100
AcDbEntity
  8
$DDT_AUDIT_GENERATED_(77)
  6
Continuous
 62
     7
100
AcDbLine
 10
209.0655037979
 20
360.6019546839
 30
0.0
 11
314.9089898536
 21
360.6019546846
 31
0.0
  0
SPLINE
  5
1E8
330
1E5
100
AcDbEntity
  8
$DDT_AUDIT_GENERATED_(77)
  6
Continuous
 62
     7
100
AcDbSpline
210
0.0
220
0.0
230
1.0
 70
     8
 71
     3
 72
    12
 73
     8
 74
     0
 42
0.0000000004081629
 43
0.0000000001
 40
0.0
 40
0.0
 40
0.0
 40
0.0
 40
0.5
 40
0.5
 40
0.75
 40
0.75
 40
1.0
 40
1.0
 40
1.0
 40
1.0
 10
176.1223195906217
 20
360.6019546846359
 30
0.0
 10
176.1223195906217
 20
360.6019546846359
 30
0.0
 10
178.7893276105785
 20
360.6019546846359
 30
0.0
 10
185.5654045500262
 20
360.6019546846359
 30
0.0
 10
188.2822380161487
 20
360.6019546846359
 30
0.0
 10
194.2135064993046
 20
360.6019546846359
 30
0.0
 10
197.3874851423781
 20
360.6019546846359
 30
0.0
 10
200.6223428943823
 20
360.6013009044481
 30
0.0
  0
LINE
  5
1E9
330
1E5
100
AcDbEntity
  8
$DDT_AUDIT_GENERATED_(77)
  6
Continuous
 62
     7
100
AcDbLine
 10
200.6223426681
 20
360.6019546846
 30
0.0
 11
201.6258703917
 21
360.6019546846
 31
0.0
  0
SPLINE
  5
1EA
330
1E5
100
AcDbEntity
  8
$DDT_AUDIT_GENERATED_(77)
  6
Continuous
 62
     7
100
AcDbSpline
210
0.0
220
0.0
230
1.0
 70
     8
 71
     2
 72
    10
 73
     7
 74
     0
 42
0.0000000013441537
 43
0.0000000001
 40
0.0
 40
0.0
 40
0.0
 40
0.25
 40
0.25
 40
0.5
 40
0.5
 40
1.0
 40
1.0
 40
1.0
 10
201.6258785259359
 20
360.6020624923941
 30
0.0
 10
202.6007955153794
 20
360.6019546846359
 30
0.0
 10
203.52437092271
 20
360.6019546846359
 30
0.0
 10
204.4288938355825
 20
360.6019546846359
 30
0.0
 10
205.4053346928271
 20
360.6019546846359
 30
0.0
 10
207.2414322715135
 20
360.6019546846359
 30
0.0
 10
209.0655037978657
 20
360.6019546839241
 30
0.0
  0
ARC
  5
1EB
330
1E5
100
AcDbEntity
  8
$DDT_AUDIT_GENERATED_(77)
  6
Continuous
 62
     7
100
AcDbCircle
 10
-172.4427391865
 20
360.3690365745
 30
0.0
 40
373.0651543829161
100
AcDbArc
 50
359.9589812357
 51
0.0356714277
  0
ARC
  5
1EC
330
1E5
100
AcDbEntity
  8
$DDT_AUDIT_GENERATED_(77)
  6
Continuous
 62
     7
100
AcDbCircle
 10
176.1223195906
 20
360.1019546846
 30
0.0
 40
0.5000000000000004
100
AcDbArc
 50
90.0
 51
180.0000000005
  0
ELLIPSE
  5
1ED
330
1E5
100
AcDbEntity
  8
$DDT_AUDIT_GENERATED_(77)
  6
Continuous
 62
     7
100
AcDbEllipse
 10
201.6258739226
 20
360.1020669915
 30
0.0
 11
0.0
 21
0.4999955009165428
 31
0.0
210
0.0
220
0.0
230
1.0
 40
1.0
 41
-0.0000092067248489
 42
1.601079203966549
  0
LINE
  5
1EE
330
1E5
100
AcDbEntity
  8
$DDT_AUDIT_GENERATED_(77)
  6
Continuous
 62
     7
100
AcDbLine
 10
201.6223156682
 20
360.1019546846
 30
0.0
 11
200.6223197176
 21
360.1019546846
 31
0.0
  0
LINE
  5
1EF
330
1E5
100
AcDbEntity
  8
$DDT_AUDIT_GENERATED_(77)
  6
Continuous
 62
     7
100
AcDbLine
 10
175.6223195906
 20
360.1019546846
 30
0.0
 11
175.6223195906
 21
240.6019546833
 31
0.0
  0
LINE
  5
1F0
330
1E5
100
AcDbEntity
  8
$DDT_AUDIT_GENERATED_(77)
  6
Continuous
 62
     7
100
AcDbLine
 10
175.6223195906
 20
240.6019546833
 30
0.0
 11
200.6223195906
 21
240.6019546833
 31
0.0
  0
SPLINE
  5
1F1
330
1E5
100
AcDbEntity
  8
$DDT_AUDIT_GENERATED_(77)
  6
Continuous
 62
     7
100
AcDbSpline
210
0.0
220
0.0
230
1.0
 70
     8
 71
     3
 72
    14
 73
    10
 74
     0
 42
0.0000000177514411
 43
0.0000000001
 40
0.0
 40
0.0
 40
0.0
 40
0.0
 40
0.25
 40
0.25
 40
0.5
 40
0.5
 40
0.75
 40
0.75
 40
1.0
 40
1.0
 40
1.0
 40
1.0
 10
209.0655037978657
 20
360.6019546839241
 30
0.0
 10
209.0858241423798
 20
360.6019546846359
 30
0.0
 10
209.1077469984731
 20
360.5912153152292
 30
0.0
 10
209.1501962045658
 20
360.5424823551051
 30
0.0
 10
209.1705909581655
 20
360.5043236116982
 30
0.0
 10
209.2042584172152
 20
360.4066925387604
 30
0.0
 10
209.2174172189408
 20
360.3475505146088
 30
0.0
 10
209.2342224725345
 20
360.224453564225
 30
0.0
 10
209.2379258762649
 20
360.1608802497348
 30
0.0
 10
209.2379238927477
 20
360.1019546852992
 30
0.0
  0
LINE
  5
1F2
330
1E5
100
AcDbEntity
  8
$DDT_AUDIT_GENERATED_(77)
  6
Continuous
 62
     7
100
AcDbLine
 10
201.622318338
 20
360.1019546841
 30
0.0
 11
201.622318338
 21
350.606652473
 31
0.0
  0
LINE
  5
1F3
330
1E5
100
AcDbEntity
  8
$DDT_AUDIT_GENERATED_(77)
  6
Continuous
 62
     7
100
AcDbLine
 10
201.6225506449
 20
240.6019546833
 30
0.0
 11
225.6190721721
 21
240.6019546833
 31
0.0
  0
LINE
  5
1F4
330
1E5
100
AcDbEntity
  8
$DDT_AUDIT_GENERATED_(77)
  6
Continuous
 62
     7
100
AcDbLine
 10
201.6225506535
 20
240.6019546833
 30
0.0
 11
200.6223194675
 21
240.6019546833
 31
0.0
  0
LINE
  5
1F5
330
1E5
100
AcDbEntity
  8
$DDT_AUDIT_GENERATED_(77)
  6
Continuous
 62
     7
100
AcDbLine
 10
209.2379238927
 20
360.1019546853
 30
0.0
 11
209.2379230138
 21
350.606652474
 31
0.0
  0
LINE
  5
1F6
330
1E5
100
AcDbEntity
  8
$DDT_AUDIT_GENERATED_(77)
  6
Continuous
 62
     7
100
AcDbLine
 10
201.6223183386
 20
350.6066524727
 30
0.0
 11
201.6225506447
 21
240.6019546833
 31
0.0
  0
SPLINE
  5
1F7
330
1E5
100
AcDbEntity
  8
$DDT_AUDIT_GENERATED_(77)
  6
Continuous
 62
     7
100
AcDbSpline
210
0.0
220
0.0
230
1.0
 70
     8
 71
     6
 72
    20
 73
    13
 74
     0
 42
0.0000000000980799
 43
0.0000000001
 40
0.0
 40
0.0
 40
0.0
 40
0.0
 40
0.0
 40
0.0
 40
0.0
 40
0.9556082858346714
 40
0.9556082858346714
 40
0.9556082858346714
 40
0.9556082858346714
 40
0.9556082858346714
 40
0.9556082858346714
 40
1.0
 40
1.0
 40
1.0
 40
1.0
 40
1.0
 40
1.0
 40
1.0
 10
225.6190673584567
 20
315.601871701555
 30
0.0
 10
225.6190711850428
 20
323.0347911648059
 30
0.0
 10
225.6191223959431
 20
329.9235364950745
 30
0.0
 10
230.9222508787836
 20
336.613283713389
 30
0.0
 10
238.4704387948446
 20
340.6018222244255
 30
0.0
 10
244.2368785907238
 20
340.6018498251759
 30
0.0
 10
294.9089898535718
 20
340.602561245818
 30
0.0
 10
297.2629061105549
 20
340.6025942940682
 30
0.0
 10
299.6168223675381
 20
340.6026273423185
 30
0.0
 10
301.9707386245213
 20
340.6026603905688
 30
0.0
 10
304.3246548815045
 20
340.602693438819
 30
0.0
 10
306.6785711384877
 20
340.6027264870692
 30
0.0
 10
309.0324873958289
 20
340.6027595353195
 30
0.0
  0
ARC
  5
1F8
330
1E5
100
AcDbEntity
  8
$DDT_AUDIT_GENERATED_(77)
  6
Continuous
 62
     7
100
AcDbCircle
 10
322.1774158864
 20
357.3920620051
 30
0.0
 40
13.63218159901449
100
AcDbArc
 50
318.2195078359
 51
329.5764438278
  0
ARC
  5
1F9
330
1E5
100
AcDbEntity
  8
$DDT_AUDIT_GENERATED_(77)
  6
Continuous
 62
     7
100
AcDbCircle
 10
333.4996505027
 20
350.7391292301
 30
0.0
 40
0.500000000011879
100
AcDbArc
 50
329.9675917645
 51
0.0
  0
LINE
  5
1FA
330
1E5
100
AcDbEntity
  8
$DDT_AUDIT_GENERATED_(77)
  6
Continuous
 62
     7
100
AcDbLine
 10
314.9089898536
 20
360.6019546846
 30
0.0
 11
333.4996501926
 21
360.6019546846
 31
0.0
  0
ARC
  5
1FB
330
1E5
100
AcDbEntity
  8
$DDT_AUDIT_GENERATED_(77)
  6
Continuous
 62
     7
100
AcDbCircle
 10
321.9683994181
 20
319.8272188855
 30
0.0
 40
24.47367788339035
100
AcDbArc
 50
106.7651473806
 51
121.9085004997
  0
ARC
  5
1FC
330
1E5
100
AcDbEntity
  8
$DDT_AUDIT_GENERATED_(77)
  6
Continuous
 62
     7
100
AcDbCircle
 10
367.6891114242
 20
193.6242058224
 30
0.0
 40
158.6720091333048
100
AcDbArc
 50
102.8713268836
 51
109.4288894775
  0
LINE
  5
1FD
330
1E5
100
AcDbEntity
  8
$DDT_AUDIT_GENERATED_(77)
  6
Continuous
 62
     7
100
AcDbLine
 10
225.6190724607
 20
240.6019546833
 30
0.0
 11
225.6190724605
 21
315.6018717016
 31
0.0
  0
LINE
  5
1FE
330
1E5
100
AcDbEntity
  8
$DDT_AUDIT_GENERATED_(77)
  6
Continuous
 62
     7
100
AcDbLine
 10
333.9996505027
 20
350.7391292317
 30
0.0
 11
333.9996505027
 21
360.1019546847
 31
0.0
  0
ARC
  5
1FF
330
1E5
100
AcDbEntity
  8
$DDT_AUDIT_GENERATED_(77)
  6
Continuous
 62
     7
100
AcDbCircle
 10
333.498605155
 20
360.1014678153
 30
0.0
 40
0.5010453556945619
100
AcDbArc
 50
0.0099337263
 51
92.7054887703
  0
ARC
  5
200
330
1E5
100
AcDbEntity
  8
$DDT_AUDIT_GENERATED_(C4)
  6
Continuous
 62
     7
100
AcDbCircle
 10
200.6223195906
 20
354.2019546846
 30
0.0
 40
24.5
100
AcDbArc
 50
128.957143125
 51
164.8572685595
  0
ARC
  5
201
330
1E5
100
AcDbEntity
  8
$DDT_AUDIT_GENERATED_(C4)
  6
Continuous
 62
     7
100
AcDbCircle
 10
200.6223195906
 20
354.2019546846
 30
0.0
 40
24.5
100
AcDbArc
 50
15.1427314405
 51
22.7062614881
  0
SPLINE
  5
202
330
1E5
100
AcDbEntity
  8
$DDT_AUDIT_GENERATED_(C7)
  6
Continuous
 62
     7
100
AcDbSpline
210
0.0
220
0.0
230
1.0
 70
     8
 71
     5
 72
    12
 73
     6
 74
     0
 42
0.0000000008023714
 43
0.0000000001
 40
0.0
 40
0.0
 40
0.0
 40
0.0
 40
0.0
 40
0.0
 40
1.0
 40
1.0
 40
1.0
 40
1.0
 40
1.0
 40
1.0
 10
220.3541508029017
 20
389.0295808204751
 30
0.0
 10
219.7656921153003
 20
391.6257912121843
 30
0.0
 10
219.2266067759826
 20
394.0041568322945
 30
0.0
 10
221.0358655542211
 20
396.5106181076478
 30
0.0
 10
223.400774573694
 20
396.8644256977929
 30
0.0
 10
225.2599122256138
 20
397.1425538610632
 30
0.0
  0
ARC
  5
203
330
1E5
100
AcDbEntity
  8
$DDT_AUDIT_GENERATED_(C7)
  6
Continuous
 62
     7
100
AcDbCircle
 10
206.4890568139
 20
368.2059897636
 30
0.0
 40
4.9999999999999
100
AcDbArc
 50
243.5
 51
271.5
  0
LINE
  5
204
330
1E5
100
AcDbEntity
  8
$DDT_AUDIT_GENERATED_(C7)
  6
Continuous
 62
     7
100
AcDbLine
 10
178.8715827632
 20
376.3885524623
 30
0.0
 11
200.8781158568
 21
365.4164998048
 31
0.0
  0
LINE
  5
205
330
1E5
100
AcDbEntity
  8
$DDT_AUDIT_GENERATED_(C7)
  6
Continuous
 62
     7
100
AcDbLine
 10
204.2580677484
 20
363.7313179556
 30
0.0
 11
200.8781155258
 21
365.4164999699
 31
0.0
  0
LINE
  5
206
330
1E5
100
AcDbEntity
  8
$DDT_AUDIT_GENERATED_(C7)
  6
Continuous
 62
     7
100
AcDbLine
 10
225.7259176986
 20
363.7080107315
 30
0.0
 11
206.6199415555
 21
363.2077031387
 31
0.0
  0
ARC
  5
207
330
1E5
100
AcDbEntity
  8
$DDT_AUDIT_GENERATED_(C7)
  6
Continuous
 62
     7
100
AcDbCircle
 10
255.2608105498
 20
385.2460130927
 30
0.0
 40
33.47782758015432
100
AcDbArc
 50
185.4740593466
 51
200.0681171175
  0
LINE
  5
208
330
1E5
100
AcDbEntity
  8
$DDT_AUDIT_GENERATED_(C7)
  6
Continuous
 62
     7
100
AcDbLine
 10
182.0873069287
 20
395.4029989765
 30
0.0
 11
178.7091762372
 21
376.704574816
 31
0.0
  0
ARC
  5
209
330
1E5
100
AcDbEntity
  8
$DDT_AUDIT_GENERATED_(C7)
  6
Continuous
 62
     7
100
AcDbCircle
 10
235.5277761051
 20
147.1467647567
 30
0.0
 40
254.2455600187382
100
AcDbArc
 50
98.027406483
 51
102.0264029967
  0
SPLINE
  5
20A
330
1E5
100
AcDbEntity
  8
$DDT_AUDIT_GENERATED_(C7)
  6
Continuous
 62
     7
100
AcDbSpline
210
0.0
220
0.0
230
1.0
 70
     8
 71
     3
 72
     8
 73
     4
 74
     0
 42
0.000000000221657
 43
0.0000000001
 40
0.0
 40
0.0
 40
0.0
 40
0.0
 40
1.0
 40
1.0
 40
1.0
 40
1.0
 10
225.2599553612414
 20
397.1424424719973
 30
0.0
 10
236.2737813040847
 20
398.7902364896494
 30
0.0
 10
251.146584127199
 20
401.0148181701571
 30
0.0
 10
269.8783638305845
 20
403.8161875135202
 30
0.0
  0
LINE
  5
20B
330
1E5
100
AcDbEntity
  8
$DDT_AUDIT_GENERATED_(C7)
  6
Continuous
 62
     7
100
AcDbLine
 10
269.868655152
 20
409.3377128633
 30
0.0
 11
200.0232047233
 21
398.9011323455
 31
0.0
  0
LINE
  5
20C
330
1E5
100
AcDbEntity
  8
$DDT_AUDIT_GENERATED_(C7)
  6
Continuous
 62
     7
100
AcDbLine
 10
288.2393501269
 20
408.4970588515
 30
0.0
 11
287.8344632326
 21
411.0526905501
 31
0.0
  0
ARC
  5
20D
330
1E5
100
AcDbEntity
  8
$DDT_AUDIT_GENERATED_(C7)
  6
Continuous
 62
     7
100
AcDbCircle
 10
255.9364757891
 20
506.0693974458
 30
0.0
 40
103.1992992583323
100
AcDbArc
 50
277.764213449
 51
288.0363358755
  0
ARC
  5
20E
330
1E5
100
AcDbEntity
  8
$DDT_AUDIT_GENERATED_(C7)
  6
Continuous
 62
     7
100
AcDbCircle
 10
309.1996807057
 20
160.0802479029
 30
0.0
 40
252.3414005474219
100
AcDbArc
 50
95.002898672
 51
98.966928475
  0
ARC
  5
20F
330
1E5
100
AcDbEntity
  8
$DDT_AUDIT_GENERATED_(C7)
  6
Continuous
 62
     7
100
AcDbCircle
 10
287.3501194167
 20
410.994135648
 30
0.0
 40
0.4771556762277777
100
AcDbArc
 50
6.8412834095
 51
82.7272899578
  0
ARC
  5
210
330
1E5
100
AcDbEntity
  8
$DDT_AUDIT_GENERATED_(C7)
  6
Continuous
 62
     7
100
AcDbCircle
 10
182.5784352809
 20
395.3090895504
 30
0.0
 40
0.49999999825573
100
AcDbArc
 50
99.1993020143
 51
169.3270005495
  0
ARC
  5
211
330
1E5
100
AcDbEntity
  8
$DDT_AUDIT_GENERATED_(C7)
  6
Continuous
 62
     7
100
AcDbCircle
 10
225.7180611829
 20
364.0079078578
 30
0.0
 40
0.2999999532183856
100
AcDbArc
 50
271.4985973268
 51
13.5226641682
  0
ARC
  5
212
330
1E5
100
AcDbEntity
  8
$DDT_AUDIT_GENERATED_(C7)
  6
Continuous
 62
     7
100
AcDbCircle
 10
179.0054440275
 20
376.6570318088
 30
0.0
 40
0.2999999959090098
100
AcDbArc
 50
170.458864783
 51
243.5016723194
  0
ARC
  5
213
330
1E5
100
AcDbEntity
  8
$DDT_AUDIT_GENERATED_(C7)
  6
Continuous
 62
     7
100
AcDbCircle
 10
287.7455404608
 20
408.4186225294
 30
0.0
 40
0.4999999958264493
100
AcDbArc
 50
278.5665658666
 51
9.2949210173
  0
LINE
  5
214
330
1E5
100
AcDbEntity
  8
$DDT_AUDIT_GENERATED_(C7)
  6
Continuous
 62
     7
100
AcDbLine
 10
221.9355581233
 20
382.0528168819
 30
0.0
 11
220.3541427469
 21
389.0296464805
 31
0.0
  0
LINE
  5
215
330
1E5
100
AcDbEntity
  8
$DDT_AUDIT_GENERATED_(C7)
  6
Continuous
 62
     7
100
AcDbLine
 10
226.0096770672
 20
364.0784860244
 30
0.0
 11
223.8073707865
 21
373.7947155283
 31
0.0
  0
LINE
  5
216
330
1E5
100
AcDbEntity
  8
$DDT_AUDIT_GENERATED_(10A)
  6
Continuous
 62
     7
100
AcDbLine
 10
332.8254281929
 20
343.0036170651
 30
0.0
 11
312.9655067693
 21
334.9796879669
 31
0.0
  0
ELLIPSE
  5
217
330
1E5
100
AcDbEntity
  8
$DDT_AUDIT_GENERATED_(10A)
  6
Continuous
 62
     7
100
AcDbEllipse
 10
323.8456268387
 20
336.6399255813
 30
0.0
 11
11.06593930425463
 21
4.470929692418927
 31
0.0
210
0.0
220
0.0
230
0.9999999999999998
 40
0.5773502692
 41
1.16697023763411
 42
1.974622415955678
  0
LINE
  5
218
330
1E5
100
AcDbEntity
  8
$DDT_AUDIT_GENERATED_(10A)
  6
Continuous
 62
     7
100
AcDbLine
 10
317.1237172725
 20
340.7581460849
 30
0.0
 11
318.258489572
 21
337.9494860846
 31
0.0
  0
LINE
  5
219
330
1E5
100
AcDbEntity
  8
$DDT_AUDIT_GENERATED_(10A)
  6
Continuous
 62
     7
100
AcDbLine
 10
326.9549798793
 20
341.4630962415
 30
0.0
 11
325.8202075798
 21
344.2717562418
 31
0.0
  0
SPLINE
  5
21A
330
1E5
100
AcDbEntity
  8
$DDT_AUDIT_GENERATED_(10A)
  6
Continuous
 62
     7
100
AcDbSpline
210
0.0
220
0.0
230
1.0
 70
     8
 71
     3
 72
    12
 73
     8
 74
     0
 42
0.0000000398432805
 43
0.0000000001
 40
0.0
 40
0.0
 40
0.0
 40
0.0
 40
0.5
 40
0.5
 40
0.75
 40
0.75
 40
1.0
 40
1.0
 40
1.0
 40
1.0
 10
326.8234963393379
 20
341.2698676701815
 30
0.0
 10
326.8574430221803
 20
341.2930627573667
 30
0.0
 10
326.8901619266313
 20
341.3192559452581
 30
0.0
 10
326.9305173106189
 20
341.3660442440251
 30
0.0
 10
326.9427755955296
 20
341.3831601689052
 30
0.0
 10
326.9591441268154
 20
341.4214820921871
 30
0.0
 10
326.9628331422352
 20
341.4436587337761
 30
0.0
 10
326.9549798793445
 20
341.4630962415133
 30
0.0
  0
SPLINE
  5
21B
330
1E5
100
AcDbEntity
  8
$DDT_AUDIT_GENERATED_(10A)
  6
Continuous
 62
     7
100
AcDbSpline
210
0.0
220
0.0
230
1.0
 70
     8
 71
     3
 72
    12
 73
     8
 74
     0
 42
0.0000000398474798
 43
0.0000000001
 40
0.0
 40
0.0
 40
0.0
 40
0.0
 40
0.25
 40
0.25
 40
0.5
 40
0.5
 40
1.0
 40
1.0
 40
1.0
 40
1.0
 10
318.2584895720161
 20
337.9494860846314
 30
0.0
 10
318.2662798759129
 20
337.9302044058723
 30
0.0
 10
318.2842191465598
 20
337.9168025479374
 30
0.0
 10
318.3222550523067
 20
337.9006255914122
 30
0.0
 10
318.3430641114919
 20
337.896729841875
 30
0.0
 10
318.4048915389058
 20
337.8910086174026
 30
0.0
 10
318.446661615753
 20
337.8949111132835
 30
0.0
 10
318.4872987599425
 20
337.9018252243518
 30
0.0
  0
SPLINE
  5
21C
330
1E5
100
AcDbEntity
  8
$DDT_AUDIT_GENERATED_(10A)
  6
Continuous
 62
     7
100
AcDbSpline
210
0.0
220
0.0
230
1.0
 70
     8
 71
     3
 72
    14
 73
    10
 74
     0
 42
0.0000000011024152
 43
0.0000000001
 40
0.0
 40
0.0
 40
0.0
 40
0.0
 40
0.25
 40
0.25
 40
0.5
 40
0.5
 40
0.75
 40
0.75
 40
1.0
 40
1.0
 40
1.0
 40
1.0
 10
318.4872987599425
 20
337.9018252243518
 30
0.0
 10
319.2324558187418
 20
338.0286082149776
 30
0.0
 10
319.9784125429226
 20
338.1899587786068
 30
0.0
 10
321.4337581558639
 20
338.5900367649688
 30
0.0
 10
322.1469020796694
 20
338.8294280548715
 30
0.0
 10
323.5419438961206
 20
339.3928422693239
 30
0.0
 10
324.2238351147578
 20
339.7168832708016
 30
0.0
 10
325.5579302429296
 20
340.4453750219523
 30
0.0
 10
326.2019390784161
 20
340.8451700664556
 30
0.0
 10
326.8234963393379
 20
341.2698676701815
 30
0.0
  0
LINE
  5
21D
330
1E5
100
AcDbEntity
  8
$DDT_AUDIT_GENERATED_(10A)
  6
Continuous
 62
     7
100
AcDbLine
 10
325.8202075798
 20
344.2717562418
 30
0.0
 11
317.1237172725
 21
340.7581460849
 31
0.0
  0
LINE
  5
21E
330
1E5
100
AcDbEntity
  8
$DDT_AUDIT_GENERATED_(10A)
  6
Continuous
 62
     7
100
AcDbLine
 10
309.3065685587
 20
340.7652670061
 30
0.0
 11
311.5407954214
 21
335.2353614707
 31
0.0
  0
LINE
  5
21F
330
1E5
100
AcDbEntity
  8
$DDT_AUDIT_GENERATED_(10A)
  6
Continuous
 62
     7
100
AcDbLine
 10
333.6726740299
 20
344.1772208555
 30
0.0
 11
332.0228162002
 21
348.2607622799
 31
0.0
  0
ARC
  5
220
330
1E5
100
AcDbEntity
  8
$DDT_AUDIT_GENERATED_(10A)
  6
Continuous
 62
     7
100
AcDbCircle
 10
311.6798729996
 20
335.2915524597
 30
0.0
 40
0.1500000000000012
100
AcDbArc
 50
202.0
 51
262.0
  0
LINE
  5
221
330
1E5
100
AcDbEntity
  8
$DDT_AUDIT_GENERATED_(10A)
  6
Continuous
 62
     7
100
AcDbLine
 10
311.6589970345
 20
335.1430122494
 30
0.0
 11
312.8884398151
 21
334.9702253347
 31
0.0
  0
LINE
  5
222
330
1E5
100
AcDbEntity
  8
$DDT_AUDIT_GENERATED_(10A)
  6
Continuous
 62
     7
100
AcDbLine
 10
332.887438817
 20
343.0503454219
 30
0.0
 11
333.6517980648
 21
344.0286806452
 31
0.0
  0
ARC
  5
223
330
1E5
100
AcDbEntity
  8
$DDT_AUDIT_GENERATED_(10A)
  6
Continuous
 62
     7
100
AcDbCircle
 10
312.9093157803
 20
335.1187655451
 30
0.0
 40
0.1499999999999958
100
AcDbArc
 50
262.0
 51
292.0
  0
ARC
  5
224
330
1E5
100
AcDbEntity
  8
$DDT_AUDIT_GENERATED_(10A)
  6
Continuous
 62
     7
100
AcDbCircle
 10
332.7692372039
 20
343.1426946432
 30
0.0
 40
0.149999999999996
100
AcDbArc
 50
292.0
 51
322.0
  0
ARC
  5
225
330
1E5
100
AcDbEntity
  8
$DDT_AUDIT_GENERATED_(10A)
  6
Continuous
 62
     7
100
AcDbCircle
 10
333.5335964517
 20
344.1210298665
 30
0.0
 40
0.1500000000000067
100
AcDbArc
 50
322.0
 51
22.0
  0
LINE
  5
226
330
1E5
100
AcDbEntity
  8
$DDT_AUDIT_GENERATED_(122)
  6
Continuous
 62
     7
100
AcDbLine
 10
331.3712344799
 20
342.0385975076
 30
0.0
 11
314.6819250977
 21
335.2956788261
 31
0.0
  0
LINE
  5
227
330
1E5
100
AcDbEntity
  8
$DDT_AUDIT_GENERATED_(122)
  6
Continuous
 62
     7
100
AcDbLine
 10
314.55081279
 20
335.6201931752
 30
0.0
 11
314.6819250977
 21
335.2956788261
 31
0.0
  0
LINE
  5
228
330
1E5
100
AcDbEntity
  8
$DDT_AUDIT_GENERATED_(122)
  6
Continuous
 62
     7
100
AcDbLine
 10
331.3712344799
 20
342.0385975076
 30
0.0
 11
331.2401221722
 21
342.3631118567
 31
0.0
  0
LINE
  5
229
330
1E5
100
AcDbEntity
  8
$DDT_AUDIT_GENERATED_(1E1)
  6
Continuous
 62
     7
100
AcDbLine
 10
222.3899694713
 20
378.9222223752
 30
0.0
 11
222.2451587251
 21
381.6853760171
 31
0.0
  0
LINE
  5
22A
330
1E5
100
AcDbEntity
  8
$DDT_AUDIT_GENERATED_(1E1)
  6
Continuous
 62
     7
100
AcDbLine
 10
222.2451587251
 20
381.6853760171
 30
0.0
 11
221.9573143198
 21
381.8075587181
 31
0.0
  0
LINE
  5
22C
330
1E5
100
AcDbEntity
  8
DV2_Default
  6
Continuous
 62
     7
100
AcDbLine
 10
209.2379230138
 20
350.606652474
 30
0.0
 11
333.9325217277
 21
350.4888843449
 31
0.0
  0
ENDBLK
  5
22E
330
1E5
100
AcDbEntity
  8
0
100
AcDbBlockEnd
  0
BLOCK
  5
255
330
22F
100
AcDbEntity
  8
0
100
AcDbBlockBegin
  2
SE2
 70
     0
 10
0.0
 20
0.0
 30
0.0
  3
SE2
  1

  0
SPLINE
  5
231
330
22F
100
AcDbEntity
  8
$DDT_AUDIT_GENERATED_(77)
  6
Continuous
 62
     7
100
AcDbSpline
210
0.0
220
0.0
230
1.0
 70
     8
 71
     3
 72
    20
 73
    16
 74
     0
 42
0.0000000000939077
 43
0.0000000001
 40
0.0
 40
0.0
 40
0.0
 40
0.0
 40
0.066007319035647
 40
0.066007319035647
 40
0.066007319035647
 40
0.1878324513365143
 40
0.1878324513365143
 40
0.1878324513365143
 40
0.5939162256727387
 40
0.5939162256727387
 40
0.7969581128408508
 40
0.7969581128408508
 40
0.898479056424907
 40
0.898479056424907
 40
0.9383979834682453
 40
0.9383979834682453
 40
0.9383979834682453
 40
0.9383979834682453
 10
121.991288853484
 20
51.45182370602763
 30
0.0
 10
121.991288853484
 20
53.7945966956779
 30
0.0
 10
121.991288853484
 20
56.13736968532817
 30
0.0
 10
121.991288853484
 20
58.48014267497843
 30
0.0
 10
121.991288853484
 20
62.80403635199483
 30
0.0
 10
121.991288853484
 20
67.12793002901122
 30
0.0
 10
121.991288853484
 20
71.45182370602762
 30
0.0
 10
121.991288853484
 20
85.86480262941564
 30
0.0
 10
121.9734916283552
 20
100.2778503734853
 30
0.0
 10
122.0733276813115
 20
121.8971131559097
 30
0.0
 10
122.1026000374046
 20
129.1041295771129
 30
0.0
 10
122.4487064865449
 20
139.9090484286498
 30
0.0
 10
122.5720072343963
 20
143.5163317183616
 30
0.0
 10
123.276236686525
 20
148.4899185925411
 30
0.0
 10
123.5549828987718
 20
149.8782058414389
 30
0.0
 10
123.9849329162728
 20
151.2273950086867
 30
0.0
  0
LINE
  5
232
330
22F
100
AcDbEntity
  8
$DDT_AUDIT_GENERATED_(77)
  6
Continuous
 62
     7
100
AcDbLine
 10
127.8963803502
 20
165.2576977558
 30
0.0
 11
127.8960497369
 21
165.7384721396
 31
0.0
  0
ARC
  5
233
330
22F
100
AcDbEntity
  8
$DDT_AUDIT_GENERATED_(77)
  6
Continuous
 62
     7
100
AcDbCircle
 10
128.235377178
 20
274.0216822929
 30
0.0
 40
108.2833154082204
100
AcDbArc
 50
269.8204477755
 51
270.0838711413
  0
SPLINE
  5
234
330
22F
100
AcDbEntity
  8
$DDT_AUDIT_GENERATED_(77)
  6
Continuous
 62
     7
100
AcDbSpline
210
0.0
220
0.0
230
1.0
 70
     8
 71
     3
 72
    10
 73
     6
 74
     0
 42
0.0000000199827036
 43
0.0000000001
 40
0.0
 40
0.0
 40
0.0
 40
0.0
 40
0.5
 40
0.5
 40
1.0
 40
1.0
 40
1.0
 40
1.0
 10
78.90520345586377
 20
165.7384706652172
 30
0.0
 10
78.77437587797439
 20
165.7384949262689
 30
0.0
 10
78.64414033279962
 20
165.7384391248086
 30
0.0
 10
78.45889380784243
 20
165.7383775371355
 30
0.0
 10
78.40504065073054
 20
165.7383760813431
 30
0.0
 10
78.40528350517457
 20
165.7384939668704
 30
0.0
  0
LINE
  5
235
330
22F
100
AcDbEntity
  8
$DDT_AUDIT_GENERATED_(77)
  6
Continuous
 62
     7
100
AcDbLine
 10
128.3958912933
 20
165.7384822084
 30
0.0
 11
128.3951145271
 21
164.7384954697
 31
0.0
  0
LINE
  5
236
330
22F
100
AcDbEntity
  8
$DDT_AUDIT_GENERATED_(77)
  6
Continuous
 62
     7
100
AcDbLine
 10
128.3958977605
 20
164.738496264
 30
0.0
 11
127.9511510609
 21
164.7353306427
 31
0.0
  0
LINE
  5
237
330
22F
100
AcDbEntity
  8
$DDT_AUDIT_GENERATED_(77)
  6
Continuous
 62
     7
100
AcDbLine
 10
78.8497228415
 20
164.7353266167
 30
0.0
 11
78.4058768164
 21
164.7384985723
 31
0.0
  0
LINE
  5
238
330
22F
100
AcDbEntity
  8
$DDT_AUDIT_GENERATED_(77)
  6
Continuous
 62
     7
100
AcDbLine
 10
78.4061418797
 20
164.7384978914
 30
0.0
 11
78.4053651064
 21
165.738493842
 31
0.0
  0
SPLINE
  5
239
330
22F
100
AcDbEntity
  8
$DDT_AUDIT_GENERATED_(77)
  6
Continuous
 62
     7
100
AcDbSpline
210
0.0
220
0.0
230
1.0
 70
     8
 71
     6
 72
    15
 73
     8
 74
     0
 42
0.0000000002470465
 43
0.0000000001
 40
0.0
 40
0.0
 40
0.0
 40
0.0
 40
0.0
 40
0.0
 40
0.0
 40
0.5567689936157857
 40
1.0
 40
1.0
 40
1.0
 40
1.0
 40
1.0
 40
1.0
 40
1.0
 10
78.40528350517457
 20
165.7384939668704
 30
0.0
 10
78.40534570491488
 20
168.9230244602946
 30
0.0
 10
79.28076855833555
 20
174.7480004875457
 30
0.0
 10
81.8324373621501
 20
180.4986828826757
 30
0.0
 10
86.17504725688963
 20
185.6188564097815
 30
0.0
 10
92.36484879531473
 20
189.3717515082429
 30
0.0
 10
99.85023545320001
 20
190.7384939689776
 30
0.0
 10
103.400628204371
 20
190.7384939689776
 30
0.0
  0
ARC
  5
23A
330
22F
100
AcDbEntity
  8
$DDT_AUDIT_GENERATED_(77)
  6
Continuous
 62
     7
100
AcDbCircle
 10
103.3973242765
 20
165.7419330027
 30
0.0
 40
24.99656118465908
100
AcDbArc
 50
359.9920918569
 51
89.9924269134
  0
SPLINE
  5
23B
330
22F
100
AcDbEntity
  8
$DDT_AUDIT_GENERATED_(77)
  6
Continuous
 62
     7
100
AcDbSpline
210
0.0
220
0.0
230
1.0
 70
     8
 71
     5
 72
    12
 73
     6
 74
     0
 42
0.0000000012796186
 43
0.0000000001
 40
0.0
 40
0.0
 40
0.0
 40
0.0
 40
0.0
 40
0.0
 40
1.0
 40
1.0
 40
1.0
 40
1.0
 40
1.0
 40
1.0
 10
128.3958977605087
 20
164.7384962640162
 30
0.0
 10
128.4004518844375
 20
164.2159593381192
 30
0.0
 10
128.4154899934709
 20
163.097169443445
 30
0.0
 10
128.2702962443392
 20
161.4282549601308
 30
0.0
 10
127.8257241026623
 20
159.3740422858029
 30
0.0
 10
127.0033258303964
 20
157.1231842780713
 30
0.0
  0
ARC
  5
23C
330
22F
100
AcDbEntity
  8
$DDT_AUDIT_GENERATED_(77)
  6
Continuous
 62
     7
100
AcDbCircle
 10
100.0768145156
 20
164.762620404
 30
0.0
 40
21.67095112414408
100
AcDbArc
 50
180.0637756705
 51
200.6423382402
  0
SPLINE
  5
23D
330
22F
100
AcDbEntity
  8
$DDT_AUDIT_GENERATED_(77)
  6
Continuous
 62
     7
100
AcDbSpline
210
0.0
220
0.0
230
1.0
 70
     8
 71
     3
 72
     8
 73
     4
 74
     0
 42
0.0000000000939012
 43
0.0000000001
 40
0.0
 40
0.0
 40
0.0
 40
0.0
 40
0.0126831782634413
 40
0.0126831782634413
 40
0.0126831782634413
 40
0.0126831782634413
 10
127.0033258303964
 20
157.1231842780713
 30
0.0
 10
126.8482536627686
 20
156.7005872664828
 30
0.0
 10
126.6777721769293
 20
156.2839213596663
 30
0.0
 10
126.4989458971785
 20
155.8705987538351
 30
0.0
  0
SPLINE
  5
23E
330
22F
100
AcDbEntity
  8
$DDT_AUDIT_GENERATED_(77)
  6
Continuous
 62
     7
100
AcDbSpline
210
0.0
220
0.0
230
1.0
 70
     8
 71
     3
 72
    18
 73
    14
 74
     0
 42
0.0000000000940396
 43
0.0000000001
 40
0.0298441524945745
 40
0.0298441524945745
 40
0.0298441524945745
 40
0.0298441524945745
 40
0.0625
 40
0.0625
 40
0.125
 40
0.125
 40
0.1875000000000001
 40
0.1875000000000001
 40
0.2500000000000001
 40
0.2500000000000001
 40
0.5000000000000001
 40
0.5000000000000001
 40
1.0
 40
1.0
 40
1.0
 40
1.0
 10
125.7447311097269
 20
154.2048122783
 30
0.0
 10
125.259458109598
 20
153.1517116428793
 30
0.0
 10
124.7822321196404
 20
152.0975627414731
 30
0.0
 10
123.7664548777862
 20
148.8941168951983
 30
0.0
 10
123.4839449988133
 20
146.6763730658539
 30
0.0
 10
123.0800469489069
 20
142.2651726087098
 30
0.0
 10
122.9706148660807
 20
140.0522376316735
 30
0.0
 10
122.8030801442203
 20
135.6249354870638
 30
0.0
 10
122.7485068406098
 20
133.4103510928766
 30
0.0
 10
122.5366634769191
 20
122.336847995757
 30
0.0
 10
122.5254265568959
 20
113.4756513032378
 30
0.0
 10
122.4735776227717
 20
86.89406021586254
 30
0.0
 10
122.491288853484
 20
69.17292549038913
 30
0.0
 10
122.4912888534839
 20
51.45182370602763
 30
0.0
  0
SPLINE
  5
23F
330
22F
100
AcDbEntity
  8
$DDT_AUDIT_GENERATED_(77)
  6
Continuous
 62
     7
100
AcDbSpline
210
0.0
220
0.0
230
1.0
 70
     8
 71
     3
 72
    18
 73
    14
 74
     0
 42
0.0000000000940409
 43
0.0000000001
 40
0.0
 40
0.0
 40
0.0
 40
0.0
 40
0.5
 40
0.5
 40
0.75
 40
0.75
 40
0.8125
 40
0.8125
 40
0.875
 40
0.875
 40
0.9375
 40
0.9375
 40
0.9694228378583988
 40
0.9694228378583988
 40
0.9694228378583988
 40
0.9694228378583988
 10
84.30996755525805
 20
51.45182370602763
 30
0.0
 10
84.30996755525804
 20
69.17205679500267
 30
0.0
 10
84.32767348108192
 20
86.89235462776199
 30
0.0
 10
84.27583958562597
 20
113.4725888779326
 30
0.0
 10
84.26460562464584
 20
122.3329570854488
 30
0.0
 10
84.05283784311084
 20
133.4065245931742
 30
0.0
 10
83.99828545564264
 20
135.6210338051447
 30
0.0
 10
83.83083785783354
 20
140.0480252197686
 30
0.0
 10
83.72152794370403
 20
142.2601983374894
 30
0.0
 10
83.31778133807843
 20
146.6726988674293
 30
0.0
 10
83.03607754090731
 20
148.8887123855572
 30
0.0
 10
82.02774373379938
 20
152.0707335683792
 30
0.0
 10
81.56385907553334
 20
153.1028362686
 30
0.0
 10
81.08959333001228
 20
154.1327766364054
 30
0.0
  0
SPLINE
  5
240
330
22F
100
AcDbEntity
  8
$DDT_AUDIT_GENERATED_(77)
  6
Continuous
 62
     7
100
AcDbSpline
210
0.0
220
0.0
230
1.0
 70
     8
 71
     3
 72
     8
 73
     4
 74
     0
 42
0.0000000000938888
 43
0.0000000001
 40
0.9931918112382536
 40
0.9931918112382536
 40
0.9931918112382536
 40
0.9931918112382536
 40
1.0
 40
1.0
 40
1.0
 40
1.0
 10
80.05942809114136
 20
156.4469273954667
 30
0.0
 10
79.96829799043807
 20
156.6708059326185
 30
0.0
 10
79.88050914600497
 20
156.8959924198965
 30
0.0
 10
79.79715384566771
 20
157.1228896668516
 30
0.0
  0
ARC
  5
241
330
22F
100
AcDbEntity
  8
$DDT_AUDIT_GENERATED_(77)
  6
Continuous
 62
     7
100
AcDbCircle
 10
103.5384980088
 20
51.3139539014
 30
0.0
 40
18.95329229671871
100
AcDbArc
 50
269.5832160735
 51
0.4167839272
  0
ARC
  5
242
330
22F
100
AcDbEntity
  8
$DDT_AUDIT_GENERATED_(77)
  6
Continuous
 62
     7
100
AcDbCircle
 10
103.2627583999
 20
51.3139539013
 30
0.0
 40
18.95329229671577
100
AcDbArc
 50
179.5832160728
 51
270.4167839265
  0
ARC
  5
243
330
22F
100
AcDbEntity
  8
$DDT_AUDIT_GENERATED_(C4)
  6
Continuous
 62
     7
100
AcDbCircle
 10
103.4006282044
 20
165.738493969
 30
0.0
 40
23.64931288642442
100
AcDbArc
 50
16.7509705594
 51
163.1131877814
  0
ARC
  5
244
330
22F
100
AcDbEntity
  8
$DDT_AUDIT_GENERATED_(C7)
  6
Continuous
 62
     7
100
AcDbCircle
 10
116.6441947284
 20
162.3116647193
 30
0.0
 40
11.37320779192624
100
AcDbArc
 50
346.6314814125
 51
358.2129899296
  0
ARC
  5
245
330
22F
100
AcDbEntity
  8
$DDT_AUDIT_GENERATED_(C7)
  6
Continuous
 62
     7
100
AcDbCircle
 10
103.399718323
 20
165.2948545512
 30
0.0
 40
24.94589177743877
100
AcDbArc
 50
193.0005715694
 51
221.5952558909
  0
ARC
  5
246
330
22F
100
AcDbEntity
  8
$DDT_AUDIT_GENERATED_(C7)
  6
Continuous
 62
     7
100
AcDbCircle
 10
103.399718323
 20
165.2948545512
 30
0.0
 40
24.94589177743877
100
AcDbArc
 50
318.3933307119
 51
346.9984635362
  0
ARC
  5
247
330
22F
100
AcDbEntity
  8
$DDT_AUDIT_GENERATED_(C7)
  6
Continuous
 62
     7
100
AcDbCircle
 10
100.1826615019
 20
162.7430917034
 30
0.0
 40
27.8433884345304
100
AcDbArc
 50
358.3871870886
 51
5.4340167835
  0
ARC
  5
248
330
22F
100
AcDbEntity
  8
$DDT_AUDIT_GENERATED_(C7)
  6
Continuous
 62
     7
100
AcDbCircle
 10
103.3997376611
 20
163.0766190726
 30
0.0
 40
24.60131606444712
100
AcDbArc
 50
5.3753690536
 51
174.6243962718
  0
ARC
  5
249
330
22F
100
AcDbEntity
  8
$DDT_AUDIT_GENERATED_(C7)
  6
Continuous
 62
     7
100
AcDbCircle
 10
105.4535484689
 20
162.7478774417
 30
0.0
 40
26.68041700291907
100
AcDbArc
 50
174.339315508
 51
181.6926741683
  0
ARC
  5
24A
330
22F
100
AcDbEntity
  8
$DDT_AUDIT_GENERATED_(C7)
  6
Continuous
 62
     7
100
AcDbCircle
 10
90.1982411952
 20
162.310415114
 30
0.0
 40
11.41671987519551
100
AcDbArc
 50
181.7731322783
 51
193.3108000529
  0
ARC
  5
24B
330
22F
100
AcDbEntity
  8
$DDT_AUDIT_GENERATED_(C7)
  6
Continuous
 62
     7
100
AcDbCircle
 10
2299.6406104527
 20
140.1363944277
 30
0.0
 40
2177.604880723525
100
AcDbArc
 50
179.3550655883
 51
179.804446535
  0
ARC
  5
24C
330
22F
100
AcDbEntity
  8
$DDT_AUDIT_GENERATED_(C7)
  6
Continuous
 62
     7
100
AcDbCircle
 10
35251.7399547036
 20
73.8245374513
 30
0.0
 40
35129.76648028631
100
AcDbArc
 50
179.8797244951
 51
179.9629231151
  0
LINE
  5
24D
330
22F
100
AcDbEntity
  8
$DDT_AUDIT_GENERATED_(C7)
  6
Continuous
 62
     7
100
AcDbLine
 10
121.9804727332
 20
96.4742983076
 30
0.0
 11
121.9805938425
 21
96.5575646387
 31
0.0
  0
ARC
  5
24E
330
22F
100
AcDbEntity
  8
$DDT_AUDIT_GENERATED_(C7)
  6
Continuous
 62
     7
100
AcDbCircle
 10
103.4024941206
 20
96.7221400079
 30
0.0
 40
18.58529469432726
100
AcDbArc
 50
180.7655376062
 51
359.234821214
  0
LINE
  5
24F
330
22F
100
AcDbEntity
  8
$DDT_AUDIT_GENERATED_(C7)
  6
Continuous
 62
     7
100
AcDbLine
 10
84.8233155264
 20
96.5576527064
 30
0.0
 11
84.8234304194
 21
96.4743931307
 31
0.0
  0
SPLINE
  5
250
330
22F
100
AcDbEntity
  8
$DDT_AUDIT_GENERATED_(C7)
  6
Continuous
 62
     7
100
AcDbSpline
210
0.0
220
0.0
230
1.0
 70
     8
 71
     3
 72
     8
 73
     4
 74
     0
 42
0.0000000001960341
 43
0.0000000001
 40
0.0
 40
0.0
 40
0.0
 40
0.0
 40
1.0
 40
1.0
 40
1.0
 40
1.0
 10
84.75268067729758
 20
147.5689759923944
 30
0.0
 10
84.7849651981227
 20
127.6668950307396
 30
0.0
 10
84.80831357160989
 20
110.6630634654085
 30
0.0
 10
84.82272579775913
 20
96.55748129640104
 30
0.0
  0
ARC
  5
251
330
22F
100
AcDbEntity
  8
$DDT_AUDIT_GENERATED_(C7)
  6
Continuous
 62
     7
100
AcDbCircle
 10
-1958.7386358311
 20
140.9520614839
 30
0.0
 40
2043.50251886819
100
AcDbArc
 50
0.1855166742
 51
0.6599420339
  0
ARC
  5
253
330
22F
100
AcDbEntity
  8
$DDT_AUDIT_GENERATED_(252)
  6
Continuous
 62
     7
100
AcDbCircle
 10
103.4006282044
 20
163.238493969
 30
0.0
 40
25.0
100
AcDbArc
 50
325.1876792815
 51
0.0
  0
ARC
  5
254
330
22F
100
AcDbEntity
  8
$DDT_AUDIT_GENERATED_(252)
  6
Continuous
 62
     7
100
AcDbCircle
 10
103.4006282044
 20
163.238493969
 30
0.0
 40
25.0
100
AcDbArc
 50
180.0
 51
214.7717031261
  0
ENDBLK
  5
256
330
22F
100
AcDbEntity
  8
0
100
AcDbBlockEnd
  0
ENDSEC
  0
SECTION
  2
ENTITIES
  0
INSERT
  5
5F
330
1F
100
AcDbEntity
  8
Default
100
AcDbBlockReference
  2
SEANNOT_GROUP
 10
0.0
 20
0.0
 30
0.0
  0
INSERT
  5
66
330
1F
100
AcDbEntity
  8
Default
100
AcDbBlockReference
  2
SEANNOT_GROUP1
 10
0.0
 20
0.0
 30
0.0
  0
INSERT
  5
6C
330
1F
100
AcDbEntity
  8
Default
100
AcDbBlockReference
  2
SEANNOT_GROUP2
 10
0.0
 20
0.0
 30
0.0
  0
INSERT
  5
76
330
1F
100
AcDbEntity
  8
Default
100
AcDbBlockReference
  2
SE
 10
0.0
 20
0.0
 30
0.0
  0
INSERT
  5
1E6
330
1F
100
AcDbEntity
  8
Default
100
AcDbBlockReference
  2
SE1
 10
0.0
 20
0.0
 30
0.0
  0
INSERT
  5
230
330
1F
100
AcDbEntity
  8
Default
100
AcDbBlockReference
  2
SE2
 10
0.0
 20
0.0
 30
0.0
  0
TEXT
  5
258
330
1F
100
AcDbEntity
  8
Default
  6
Continuous
 62
     7
100
AcDbText
 10
5.9362635081
 20
53.4225120485
 30
0.0
 40
10.0
  1
Grohe AG^J
  7
SEACAD_seiso_ttf
 11
5.9362635081
 21
63.4225120485
 31
0.0
100
AcDbText
 73
     3
  0
TEXT
  5
259
330
1F
100
AcDbEntity
  8
Default
  6
Continuous
 62
     7
100
AcDbText
 10
5.9362635081
 20
37.0588756849
 30
0.0
 40
10.0
  1
 
  7
SEACAD_seiso_ttf
 11
5.9362635081
 21
47.0588756849
 31
0.0
100
AcDbText
 73
     3
  0
TEXT
  5
25A
330
1F
100
AcDbEntity
  8
Default
  6
Continuous
 62
     7
100
AcDbText
 10
5.9362635081
 20
20.6952393213
 30
0.0
 40
10.0
  1
ecn:
  7
SEACAD_seiso_ttf
 11
5.9362635081
 21
30.6952393213
 31
0.0
100
AcDbText
 73
     3
  0
TEXT
  5
25B
330
1F
100
AcDbEntity
  8
Default
  6
Continuous
 62
     7
100
AcDbText
 10
5.9362635081
 20
4.3316029576
 30
0.0
 40
10.0
  1
unit: mm
  7
SEACAD_seiso_ttf
 11
5.9362635081
 21
14.3316029576
 31
0.0
100
AcDbText
 73
     3
  0
LINE
  5
25C
330
1F
100
AcDbEntity
  8
Default
  6
Continuous
 62
     7
100
AcDbLine
 10
0.0
 20
0.0
 30
0.0
 11
100.0
 21
0.0
 31
0.0
  0
LINE
  5
25D
330
1F
100
AcDbEntity
  8
Default
  6
Continuous
 62
     7
100
AcDbLine
 10
0.0
 20
0.0
 30
0.0
 11
0.0
 21
100.0
 31
0.0
  0
TEXT
  5
25E
330
1F
100
AcDbEntity
  8
Default
  6
Continuous
 62
     7
100
AcDbText
 10
24.3923665681
 20
-18.2375342018
 30
0.0
 40
10.0
  1
100 mm
  7
SEACAD_seiso_ttf
 11
24.3923665681
 21
-8.2375342018
 31
0.0
100
AcDbText
 73
     3
  0
TEXT
  5
25F
330
1F
100
AcDbEntity
  8
Default
  6
Continuous
 62
     7
100
AcDbText
 10
-7.6150308803
 20
24.6231930421
 30
0.0
 40
10.0
  1
100 mm
 50
90.0
  7
SEACAD_seiso_ttf
 11
-17.6150308803
 21
24.6231930421
 31
0.0
100
AcDbText
 73
     3
  0
TEXT
  5
260
330
1F
100
AcDbEntity
  8
Default
  6
Continuous
 62
     7
100
AcDbText
 10
28.4878128572
 20
20.0907663715
 30
0.0
 40
10.0
  1
227537
  7
SEACAD_seiso_ttf
 11
28.4878128572
 21
30.0907663715
 31
0.0
100
AcDbText
 73
     3
  0
TEXT
  5
261
330
1F
100
AcDbEntity
  8
Default
  6
Continuous
 62
     7
100
AcDbText
 10
5.9012241913
 20
36.7242780188
 30
0.0
 40
10.0
  1
2339800E
  7
SEACAD_seiso_ttf
 11
5.9012241913
 21
46.7242780188
 31
0.0
100
AcDbText
 73
     3
  0
ENDSEC
  0
SECTION
  2
OBJECTS
  0
DICTIONARY
  5
C
330
0
100
AcDbDictionary
281
     1
  3
ACAD_GROUP
350
D
  3
ACAD_LAYOUT
350
1A
  3
ACAD_MLEADERSTYLE
350
265
  3
ACAD_MLINESTYLE
350
17
  3
ACAD_PLOTSETTINGS
350
19
  3
ACAD_PLOTSTYLENAME
350
E
  3
ACAD_SCALELIST
350
3B
  3
ACAD_TABLESTYLE
350
264
  3
ACAD_VISUALSTYLE
350
2A
  3
AcDbVariableDictionary
350
262
  0
DICTIONARY
  5
D
102
{ACAD_REACTORS
330
C
102
}
330
C
100
AcDbDictionary
281
     1
  0
DICTIONARY
  5
1A
102
{ACAD_REACTORS
330
C
102
}
330
C
100
AcDbDictionary
281
     1
  3
Layout1
350
1E
  3
Model
350
22
  0
DICTIONARY
  5
265
102
{ACAD_REACTORS
330
C
102
}
330
C
100
AcDbDictionary
281
     1
  0
DICTIONARY
  5
17
102
{ACAD_REACTORS
330
C
102
}
330
C
100
AcDbDictionary
281
     1
  3
Standard
350
18
  0
DICTIONARY
  5
19
102
{ACAD_REACTORS
330
C
102
}
330
C
100
AcDbDictionary
281
     1
  0
ACDBDICTIONARYWDFLT
  5
E
102
{ACAD_REACTORS
330
C
102
}
330
C
100
AcDbDictionary
281
     1
  3
Normal
350
F
100
AcDbDictionaryWithDefault
340
F
  0
DICTIONARY
  5
3B
102
{ACAD_REACTORS
330
C
102
}
330
C
100
AcDbDictionary
281
     1
  3
A0
350
3C
  3
A1
350
3D
  3
A2
350
3E
  3
A3
350
3F
  3
A4
350
40
  3
A5
350
41
  3
A6
350
42
  3
A7
350
43
  3
A8
350
44
  3
A9
350
45
  3
B0
350
46
  3
B1
350
47
  3
B2
350
48
  3
B3
350
49
  3
B4
350
4A
  3
B5
350
4B
  3
B6
350
4C
  3
B7
350
4D
  3
B8
350
4E
  3
B9
350
4F
  3
C0
350
50
  3
C1
350
51
  3
C2
350
52
  3
C3
350
53
  3
C4
350
54
  3
C5
350
55
  3
C6
350
56
  3
C7
350
57
  3
C8
350
58
  3
C9
350
59
  3
D0
350
5A
  3
D1
350
5B
  3
D2
350
5C
  0
DICTIONARY
  5
264
102
{ACAD_REACTORS
330
C
102
}
330
C
100
AcDbDictionary
281
     1
  0
DICTIONARY
  5
2A
102
{ACAD_REACTORS
330
C
102
}
330
C
100
AcDbDictionary
281
     1
  3
2dWireframe
350
2F
  3
3D Hidden
350
31
  3
3dWireframe
350
30
  3
Basic
350
32
  3
Brighten
350
36
  3
ColorChange
350
3A
  3
Conceptual
350
34
  3
Dim
350
35
  3
Facepattern
350
39
  3
Flat
350
2B
  3
FlatWithEdges
350
2C
  3
Gouraud
350
2D
  3
GouraudWithEdges
350
2E
  3
Linepattern
350
38
  3
Realistic
350
33
  3
Thicken
350
37
  0
DICTIONARY
  5
262
102
{ACAD_REACTORS
330
C
102
}
330
C
100
AcDbDictionary
281
     1
  3
CANNOSCALE
350
263
  3
PSOLHEIGHT
350
267
  3
PSOLWIDTH
350
266
  0
LAYOUT
  5
1E
102
{ACAD_REACTORS
330
1A
102
}
330
1A
100
AcDbPlotSettings
  1

  2
none_device
  4

  6

 40
0.0
 41
0.0
 42
0.0
 43
0.0
 44
0.0
 45
0.0
 46
0.0
 47
0.0
 48
0.0
 49
0.0
140
0.0
141
0.0
142
1.0
143
1.0
 70
   688
 72
     0
 73
     0
 74
     5
  7

 75
    16
147
1.0
148
0.0
149
0.0
100
AcDbLayout
  1
Layout1
 70
     1
 71
     1
 10
0.0
 20
0.0
 11
3000.0
 21
4500.0
 12
0.0
 22
0.0
 32
0.0
 14
0.0
 24
0.0
 34
0.0
 15
3000.0
 25
4500.0
 35
0.0
146
0.0
 13
0.0
 23
0.0
 33
0.0
 16
1.0
 26
0.0
 36
0.0
 17
0.0
 27
1.0
 37
0.0
 76
     0
330
1B
  0
LAYOUT
  5
22
102
{ACAD_REACTORS
330
1A
102
}
330
1A
100
AcDbPlotSettings
  1

  2
none_device
  4

  6

 40
0.0
 41
0.0
 42
0.0
 43
0.0
 44
0.0
 45
0.0
 46
0.0
 47
0.0
 48
0.0
 49
0.0
140
0.0
141
0.0
142
1.0
143
1.0
 70
  1712
 72
     0
 73
     0
 74
     0
  7

 75
     0
147
1.0
148
0.0
149
0.0
100
AcDbLayout
  1
Model
 70
     1
 71
     0
 10
0.0
 20
0.0
 11
3000.0
 21
4500.0
 12
0.0
 22
0.0
 32
0.0
 14
0.0
 24
0.0
 34
0.0
 15
3000.0
 25
4500.0
 35
0.0
146
0.0
 13
0.0
 23
0.0
 33
0.0
 16
1.0
 26
0.0
 36
0.0
 17
0.0
 27
1.0
 37
0.0
 76
     0
330
1F
331
29
  0
MLINESTYLE
  5
18
102
{ACAD_REACTORS
330
17
102
}
330
17
100
AcDbMlineStyle
  2
Standard
 70
     0
  3

 62
   256
 51
90.0
 52
90.0
 71
     2
 49
0.5
 62
   256
  6
BYLAYER
 49
-0.5
 62
   256
  6
BYLAYER
  0
ACDBPLACEHOLDER
  5
F
102
{ACAD_REACTORS
330
E
102
}
330
E
  0
SCALE
  5
3C
102
{ACAD_REACTORS
330
3B
102
}
330
3B
100
AcDbScale
 70
     0
300
1:1
140
1.0
141
1.0
290
     1
  0
SCALE
  5
3D
102
{ACAD_REACTORS
330
3B
102
}
330
3B
100
AcDbScale
 70
     0
300
1:2
140
1.0
141
2.0
290
     0
  0
SCALE
  5
3E
102
{ACAD_REACTORS
330
3B
102
}
330
3B
100
AcDbScale
 70
     0
300
1:4
140
1.0
141
4.0
290
     0
  0
SCALE
  5
3F
102
{ACAD_REACTORS
330
3B
102
}
330
3B
100
AcDbScale
 70
     0
300
1:5
140
1.0
141
5.0
290
     0
  0
SCALE
  5
40
102
{ACAD_REACTORS
330
3B
102
}
330
3B
100
AcDbScale
 70
     0
300
1:8
140
1.0
141
8.0
290
     0
  0
SCALE
  5
41
102
{ACAD_REACTORS
330
3B
102
}
330
3B
100
AcDbScale
 70
     0
300
1:10
140
1.0
141
10.0
290
     0
  0
SCALE
  5
42
102
{ACAD_REACTORS
330
3B
102
}
330
3B
100
AcDbScale
 70
     0
300
1:16
140
1.0
141
16.0
290
     0
  0
SCALE
  5
43
102
{ACAD_REACTORS
330
3B
102
}
330
3B
100
AcDbScale
 70
     0
300
1:20
140
1.0
141
20.0
290
     0
  0
SCALE
  5
44
102
{ACAD_REACTORS
330
3B
102
}
330
3B
100
AcDbScale
 70
     0
300
1:30
140
1.0
141
30.0
290
     0
  0
SCALE
  5
45
102
{ACAD_REACTORS
330
3B
102
}
330
3B
100
AcDbScale
 70
     0
300
1:40
140
1.0
141
40.0
290
     0
  0
SCALE
  5
46
102
{ACAD_REACTORS
330
3B
102
}
330
3B
100
AcDbScale
 70
     0
300
1:50
140
1.0
141
50.0
290
     0
  0
SCALE
  5
47
102
{ACAD_REACTORS
330
3B
102
}
330
3B
100
AcDbScale
 70
     0
300
1:100
140
1.0
141
100.0
290
     0
  0
SCALE
  5
48
102
{ACAD_REACTORS
330
3B
102
}
330
3B
100
AcDbScale
 70
     0
300
2:1
140
2.0
141
1.0
290
     0
  0
SCALE
  5
49
102
{ACAD_REACTORS
330
3B
102
}
330
3B
100
AcDbScale
 70
     0
300
4:1
140
4.0
141
1.0
290
     0
  0
SCALE
  5
4A
102
{ACAD_REACTORS
330
3B
102
}
330
3B
100
AcDbScale
 70
     0
300
8:1
140
8.0
141
1.0
290
     0
  0
SCALE
  5
4B
102
{ACAD_REACTORS
330
3B
102
}
330
3B
100
AcDbScale
 70
     0
300
10:1
140
10.0
141
1.0
290
     0
  0
SCALE
  5
4C
102
{ACAD_REACTORS
330
3B
102
}
330
3B
100
AcDbScale
 70
     0
300
100:1
140
100.0
141
1.0
290
     0
  0
SCALE
  5
4D
102
{ACAD_REACTORS
330
3B
102
}
330
3B
100
AcDbScale
 70
     0
300
1/128" = 1'-0"
140
0.0078125
141
12.0
290
     0
  0
SCALE
  5
4E
102
{ACAD_REACTORS
330
3B
102
}
330
3B
100
AcDbScale
 70
     0
300
1/64" = 1'-0"
140
0.015625
141
12.0
290
     0
  0
SCALE
  5
4F
102
{ACAD_REACTORS
330
3B
102
}
330
3B
100
AcDbScale
 70
     0
300
1/32" = 1'-0"
140
0.03125
141
12.0
290
     0
  0
SCALE
  5
50
102
{ACAD_REACTORS
330
3B
102
}
330
3B
100
AcDbScale
 70
     0
300
1/16" = 1'-0"
140
0.0625
141
12.0
290
     0
  0
SCALE
  5
51
102
{ACAD_REACTORS
330
3B
102
}
330
3B
100
AcDbScale
 70
     0
300
3/32" = 1'-0"
140
0.09375
141
12.0
290
     0
  0
SCALE
  5
52
102
{ACAD_REACTORS
330
3B
102
}
330
3B
100
AcDbScale
 70
     0
300
1/8" = 1'-0"
140
0.125
141
12.0
290
     0
  0
SCALE
  5
53
102
{ACAD_REACTORS
330
3B
102
}
330
3B
100
AcDbScale
 70
     0
300
3/16" = 1'-0"
140
0.1875
141
12.0
290
     0
  0
SCALE
  5
54
102
{ACAD_REACTORS
330
3B
102
}
330
3B
100
AcDbScale
 70
     0
300
1/4" = 1'-0"
140
0.25
141
12.0
290
     0
  0
SCALE
  5
55
102
{ACAD_REACTORS
330
3B
102
}
330
3B
100
AcDbScale
 70
     0
300
3/8" = 1'-0"
140
0.375
141
12.0
290
     0
  0
SCALE
  5
56
102
{ACAD_REACTORS
330
3B
102
}
330
3B
100
AcDbScale
 70
     0
300
1/2" = 1'-0"
140
0.5
141
12.0
290
     0
  0
SCALE
  5
57
102
{ACAD_REACTORS
330
3B
102
}
330
3B
100
AcDbScale
 70
     0
300
3/4" = 1'-0"
140
0.75
141
12.0
290
     0
  0
SCALE
  5
58
102
{ACAD_REACTORS
330
3B
102
}
330
3B
100
AcDbScale
 70
     0
300
1" = 1'-0"
140
1.0
141
12.0
290
     0
  0
SCALE
  5
59
102
{ACAD_REACTORS
330
3B
102
}
330
3B
100
AcDbScale
 70
     0
300
1-1/2" = 1'-0"
140
1.5
141
12.0
290
     0
  0
SCALE
  5
5A
102
{ACAD_REACTORS
330
3B
102
}
330
3B
100
AcDbScale
 70
     0
300
3" = 1'-0"
140
3.0
141
12.0
290
     0
  0
SCALE
  5
5B
102
{ACAD_REACTORS
330
3B
102
}
330
3B
100
AcDbScale
 70
     0
300
6" = 1'-0"
140
6.0
141
12.0
290
     0
  0
SCALE
  5
5C
102
{ACAD_REACTORS
330
3B
102
}
330
3B
100
AcDbScale
 70
     0
300
1'-0" = 1'-0"
140
12.0
141
12.0
290
     0
  0
VISUALSTYLE
  5
2F
102
{ACAD_REACTORS
330
2A
102
}
330
2A
100
AcDbVisualStyle
  2
2dWireframe
 70
     4
 71
     0
 72
     2
 73
     0
 90
        0
 40
-0.6
 41
-30.0
 62
     5
 63
     7
 74
     1
 91
        4
 64
     7
 65
   257
 75
     1
175
     1
 42
1.0
 92
        0
 66
   257
 43
1.0
 76
     1
 77
     6
 78
     2
 67
     7
 79
     5
170
     0
171
     0
290
     0
174
     0
 93
        1
 44
0.0
173
     0
291
     0
 45
0.0
1001
ACAD
1000
AcDbSavedByObjectVersion
1070
     0
  0
VISUALSTYLE
  5
31
102
{ACAD_REACTORS
330
2A
102
}
330
2A
100
AcDbVisualStyle
  2
3D Hidden
 70
     6
 71
     1
 72
     2
 73
     2
 90
        0
 40
-0.6
 41
-30.0
 62
     5
 63
     7
 74
     2
 91
        2
 64
     7
 65
   257
 75
     2
175
     1
 42
40.0
 92
        0
 66
   257
 43
1.0
 76
     1
 77
     6
 78
     2
 67
     7
 79
     3
170
     0
171
     0
290
     0
174
     0
 93
        1
 44
0.0
173
     0
291
     0
 45
0.0
1001
ACAD
1000
AcDbSavedByObjectVersion
1070
     0
  0
VISUALSTYLE
  5
30
102
{ACAD_REACTORS
330
2A
102
}
330
2A
100
AcDbVisualStyle
  2
3dWireframe
 70
     5
 71
     0
 72
     2
 73
     0
 90
        0
 40
-0.6
 41
-30.0
 62
     5
 63
     7
 74
     1
 91
        4
 64
     7
 65
   257
 75
     1
175
     1
 42
1.0
 92
        0
 66
   257
 43
1.0
 76
     1
 77
     6
 78
     2
 67
     7
 79
     5
170
     0
171
     0
290
     0
174
     0
 93
        1
 44
0.0
173
     0
291
     0
 45
0.0
1001
ACAD
1000
AcDbSavedByObjectVersion
1070
     0
  0
VISUALSTYLE
  5
32
102
{ACAD_REACTORS
330
2A
102
}
330
2A
100
AcDbVisualStyle
  2
Basic
 70
     7
 71
     1
 72
     0
 73
     1
 90
        0
 40
-0.6
 41
-30.0
 62
     5
 63
     7
 74
     0
 91
        4
 64
     7
 65
   257
 75
     1
175
     1
 42
1.0
 92
        8
 66
     7
 43
1.0
 76
     1
 77
     6
 78
     2
 67
     7
 79
     5
170
     0
171
     0
290
     0
174
     0
 93
        1
 44
0.0
173
     0
291
     1
 45
0.0
1001
ACAD
1000
AcDbSavedByObjectVersion
1070
     0
  0
VISUALSTYLE
  5
36
102
{ACAD_REACTORS
330
2A
102
}
330
2A
100
AcDbVisualStyle
  2
Brighten
 70
    12
 71
     2
 72
     2
 73
     0
 90
        0
 40
-0.6
 41
-30.0
 62
     5
 63
     7
 74
     1
 91
        4
 64
     7
 65
   257
 75
     1
175
     1
 42
1.0
 92
        8
 66
     7
 43
1.0
 76
     1
 77
     6
 78
     2
 67
     7
 79
     5
170
     0
171
     0
290
     0
174
     0
 93
        1
 44
50.0
173
     0
291
     1
 45
0.0
1001
ACAD
1000
AcDbSavedByObjectVersion
1070
     0
  0
VISUALSTYLE
  5
3A
102
{ACAD_REACTORS
330
2A
102
}
330
2A
100
AcDbVisualStyle
  2
ColorChange
 70
    16
 71
     2
 72
     2
 73
     3
 90
        0
 40
-0.6
 41
-30.0
 62
     5
 63
     8
 74
     1
 91
        4
 64
     7
 65
   257
 75
     1
175
     1
 42
1.0
 92
        8
 66
     8
 43
1.0
 76
     1
 77
     6
 78
     2
 67
     7
 79
     5
170
     0
171
     0
290
     0
174
     0
 93
        1
 44
0.0
173
     0
291
     1
 45
0.0
1001
ACAD
1000
AcDbSavedByObjectVersion
1070
     0
  0
VISUALSTYLE
  5
34
102
{ACAD_REACTORS
330
2A
102
}
330
2A
100
AcDbVisualStyle
  2
Conceptual
 70
     9
 71
     3
 72
     2
 73
     0
 90
        0
 40
-0.6
 41
-30.0
 62
     5
 63
     7
 74
     2
 91
        2
 64
     7
 65
   257
 75
     1
175
     1
 42
40.0
 92
        8
 66
     7
 43
1.0
 76
     1
 77
     6
 78
     2
 67
     7
 79
     3
170
     0
171
     0
290
     0
174
     0
 93
        1
 44
0.0
173
     0
291
     0
 45
0.0
1001
ACAD
1000
AcDbSavedByObjectVersion
1070
     0
  0
VISUALSTYLE
  5
35
102
{ACAD_REACTORS
330
2A
102
}
330
2A
100
AcDbVisualStyle
  2
Dim
 70
    11
 71
     2
 72
     2
 73
     0
 90
        0
 40
-0.6
 41
-30.0
 62
     5
 63
     7
 74
     1
 91
        4
 64
     7
 65
   257
 75
     1
175
     1
 42
1.0
 92
        8
 66
     7
 43
1.0
 76
     1
 77
     6
 78
     2
 67
     7
 79
     5
170
     0
171
     0
290
     0
174
     0
 93
        1
 44
-50.0
173
     0
291
     1
 45
0.0
1001
ACAD
1000
AcDbSavedByObjectVersion
1070
     0
  0
VISUALSTYLE
  5
39
102
{ACAD_REACTORS
330
2A
102
}
330
2A
100
AcDbVisualStyle
  2
Facepattern
 70
    15
 71
     2
 72
     2
 73
     0
 90
        0
 40
-0.6
 41
-30.0
 62
     5
 63
     7
 74
     1
 91
        4
 64
     7
 65
   257
 75
     1
175
     1
 42
1.0
 92
        8
 66
     7
 43
1.0
 76
     1
 77
     6
 78
     2
 67
     7
 79
     5
170
     0
171
     0
290
     0
174
     0
 93
        1
 44
0.0
173
     0
291
     1
 45
0.0
1001
ACAD
1000
AcDbSavedByObjectVersion
1070
     0
  0
VISUALSTYLE
  5
2B
102
{ACAD_REACTORS
330
2A
102
}
330
2A
100
AcDbVisualStyle
  2
Flat
 70
     0
 71
     2
 72
     1
 73
     1
 90
        2
 40
-0.6
 41
30.0
 62
     5
 63
     7
 74
     0
 91
        4
 64
     7
 65
   257
 75
     1
175
     1
 42
1.0
 92
        8
 66
     7
 43
1.0
 76
     1
 77
     6
 78
     2
 67
     7
 79
     5
170
     0
171
     0
290
     0
174
     0
 93
       13
 44
0.0
173
     0
291
     1
 45
0.0
1001
ACAD
1000
AcDbSavedByObjectVersion
1070
     0
  0
VISUALSTYLE
  5
2C
102
{ACAD_REACTORS
330
2A
102
}
330
2A
100
AcDbVisualStyle
  2
FlatWithEdges
 70
     1
 71
     2
 72
     1
 73
     1
 90
        2
 40
-0.6
 41
30.0
 62
     5
 63
     7
 74
     1
 91
        4
 64
     7
 65
   257
 75
     1
175
     1
 42
1.0
 92
        0
 66
   257
 43
1.0
 76
     1
 77
     6
 78
     2
 67
     7
 79
     5
170
     0
171
     0
290
     0
174
     0
 93
       13
 44
0.0
173
     0
291
     1
 45
0.0
1001
ACAD
1000
AcDbSavedByObjectVersion
1070
     0
  0
VISUALSTYLE
  5
2D
102
{ACAD_REACTORS
330
2A
102
}
330
2A
100
AcDbVisualStyle
  2
Gouraud
 70
     2
 71
     2
 72
     2
 73
     1
 90
        2
 40
-0.6
 41
30.0
 62
     5
 63
     7
 74
     0
 91
        4
 64
     7
 65
   257
 75
     1
175
     1
 42
1.0
 92
        0
 66
     7
 43
1.0
 76
     1
 77
     6
 78
     2
 67
     7
 79
     5
170
     0
171
     0
290
     0
174
     0
 93
       13
 44
0.0
173
     0
291
     1
 45
0.0
1001
ACAD
1000
AcDbSavedByObjectVersion
1070
     0
  0
VISUALSTYLE
  5
2E
102
{ACAD_REACTORS
330
2A
102
}
330
2A
100
AcDbVisualStyle
  2
GouraudWithEdges
 70
     3
 71
     2
 72
     2
 73
     1
 90
        2
 40
-0.6
 41
30.0
 62
     5
 63
     7
 74
     1
 91
        4
 64
     7
 65
   257
 75
     1
175
     1
 42
1.0
 92
        0
 66
   257
 43
1.0
 76
     1
 77
     6
 78
     2
 67
     7
 79
     5
170
     0
171
     0
290
     0
174
     0
 93
       13
 44
0.0
173
     0
291
     1
 45
0.0
1001
ACAD
1000
AcDbSavedByObjectVersion
1070
     0
  0
VISUALSTYLE
  5
38
102
{ACAD_REACTORS
330
2A
102
}
330
2A
100
AcDbVisualStyle
  2
Linepattern
 70
    14
 71
     2
 72
     2
 73
     0
 90
        0
 40
-0.6
 41
-30.0
 62
     5
 63
     7
 74
     1
 91
        4
 64
     7
 65
   257
 75
     7
175
     7
 42
1.0
 92
        8
 66
     7
 43
1.0
 76
     1
 77
     6
 78
     2
 67
     7
 79
     5
170
     0
171
     0
290
     0
174
     0
 93
        1
 44
0.0
173
     0
291
     1
 45
0.0
1001
ACAD
1000
AcDbSavedByObjectVersion
1070
     0
  0
VISUALSTYLE
  5
33
102
{ACAD_REACTORS
330
2A
102
}
330
2A
100
AcDbVisualStyle
  2
Realistic
 70
     8
 71
     2
 72
     2
 73
     0
 90
        0
 40
-0.6
 41
-30.0
 62
     5
 63
     7
 74
     1
 91
        0
 64
     7
 65
   257
 75
     1
175
     1
 42
1.0
 92
        8
 66
     8
 43
1.0
 76
     1
 77
     6
 78
     2
 67
     7
 79
     5
170
     0
171
     0
290
     0
174
     0
 93
       13
 44
0.0
173
     0
291
     0
 45
0.0
1001
ACAD
1000
AcDbSavedByObjectVersion
1070
     0
  0
VISUALSTYLE
  5
37
102
{ACAD_REACTORS
330
2A
102
}
330
2A
100
AcDbVisualStyle
  2
Thicken
 70
    13
 71
     2
 72
     2
 73
     0
 90
        0
 40
-0.6
 41
-30.0
 62
     5
 63
     7
 74
     1
 91
        4
 64
     7
 65
   257
 75
     1
175
     1
 42
1.0
 92
       12
 66
     7
 43
1.0
 76
     1
 77
     6
 78
     2
 67
     7
 79
     5
170
     0
171
     0
290
     0
174
     0
 93
        1
 44
0.0
173
     0
291
     1
 45
0.0
1001
ACAD
1000
AcDbSavedByObjectVersion
1070
     0
  0
DICTIONARYVAR
  5
263
102
{ACAD_REACTORS
330
262
102
}
330
262
100
DictionaryVariables
280
     0
  1
1:1
  0
DICTIONARYVAR
  5
267
102
{ACAD_REACTORS
330
262
102
}
330
262
100
DictionaryVariables
280
     0
  1
80.000000
  0
DICTIONARYVAR
  5
266
102
{ACAD_REACTORS
330
262
102
}
330
262
100
DictionaryVariables
280
     0
  1
5.000000
  0
ENDSEC
  0
EOF
