  0
SECTION
  2
HEADER
  9
$ACADVER
  1
AC1018
  9
$ACADMAINTVER
 70
   104
  9
$DWGCODEPAGE
  3
ANSI_1252
  9
$LASTSAVEDBY
  1
Administrator
  9
$CUSTOMPROPERTYTAG
  1
AmdtFileType
  9
$CUSTOMPROPERTY
  1
84
  9
$INSBASE
 10
0.0
 20
0.0
 30
0.0
  9
$EXTMIN
 10
-184.9993822808164
 20
-41.69907506829182
 30
0.0
  9
$EXTMAX
 10
185.0006177191837
 20
488.9919099968937
 30
0.0
  9
$LIMMIN
 10
0.0
 20
0.0
  9
$LIMMAX
 10
420.0
 20
297.0
  9
$ORTHOMODE
 70
     0
  9
$REGENMODE
 70
     1
  9
$FILLMODE
 70
     1
  9
$QTEXTMODE
 70
     0
  9
$MIRRTEXT
 70
     1
  9
$LTSCALE
 40
1.0
  9
$ATTMODE
 70
     1
  9
$TEXTSIZE
 40
2.5
  9
$TRACEWID
 40
1.0
  9
$TEXTSTYLE
  7
STANDARD
  9
$CLAYER
  8
0
  9
$CELTYPE
  6
ByLayer
  9
$CECOLOR
 62
   256
  9
$CELTSCALE
 40
1.0
  9
$DISPSILH
 70
     0
  9
$DIMSCALE
 40
1.0
  9
$DIMASZ
 40
3.5
  9
$DIMEXO
 40
1.0
  9
$DIMDLI
 40
10.0
  9
$DIMRND
 40
0.0
  9
$DIMDLE
 40
0.0
  9
$DIMEXE
 40
1.0
  9
$DIMTP
 40
0.1
  9
$DIMTM
 40
0.1
  9
$DIMTXT
 40
3.5
  9
$DIMCEN
 40
0.0
  9
$DIMTSZ
 40
0.0
  9
$DIMTOL
 70
     0
  9
$DIMLIM
 70
     0
  9
$DIMTIH
 70
     0
  9
$DIMTOH
 70
     0
  9
$DIMSE1
 70
     0
  9
$DIMSE2
 70
     0
  9
$DIMTAD
 70
     1
  9
$DIMZIN
 70
     8
  9
$DIMBLK
  1

  9
$DIMASO
 70
     1
  9
$DIMSHO
 70
     1
  9
$DIMPOST
  1

  9
$DIMAPOST
  1
"
  9
$DIMALT
 70
     0
  9
$DIMALTD
 70
     2
  9
$DIMALTF
 40
0.0393701
  9
$DIMLFAC
 40
1.0
  9
$DIMTOFL
 70
     1
  9
$DIMTVP
 40
0.0
  9
$DIMTIX
 70
     0
  9
$DIMSOXD
 70
     0
  9
$DIMSAH
 70
     0
  9
$DIMBLK1
  1

  9
$DIMBLK2
  1

  9
$DIMSTYLE
  2
AM_ISO
  9
$DIMCLRD
 70
   256
  9
$DIMCLRE
 70
   256
  9
$DIMCLRT
 70
   140
  9
$DIMTFAC
 40
0.71
  9
$DIMGAP
 40
1.5
  9
$DIMJUST
 70
     0
  9
$DIMSD1
 70
     0
  9
$DIMSD2
 70
     0
  9
$DIMTOLJ
 70
     0
  9
$DIMTZIN
 70
     8
  9
$DIMALTZ
 70
     0
  9
$DIMALTTZ
 70
     0
  9
$DIMUPT
 70
     0
  9
$DIMDEC
 70
     2
  9
$DIMTDEC
 70
     3
  9
$DIMALTU
 70
     2
  9
$DIMALTTD
 70
     4
  9
$DIMTXSTY
  7
STANDARD
  9
$DIMAUNIT
 70
     0
  9
$DIMADEC
 70
     0
  9
$DIMALTRND
 40
0.0
  9
$DIMAZIN
 70
     2
  9
$DIMDSEP
 70
    46
  9
$DIMATFIT
 70
     3
  9
$DIMFRAC
 70
     0
  9
$DIMLDRBLK
  1

  9
$DIMLUNIT
 70
     2
  9
$DIMLWD
 70
    -1
  9
$DIMLWE
 70
    -1
  9
$DIMTMOVE
 70
     0
  9
$LUNITS
 70
     2
  9
$LUPREC
 70
     2
  9
$SKETCHINC
 40
1.0
  9
$FILLETRAD
 40
0.0
  9
$AUNITS
 70
     0
  9
$AUPREC
 70
     0
  9
$MENU
  1
.
  9
$ELEVATION
 40
0.0
  9
$PELEVATION
 40
0.0
  9
$THICKNESS
 40
0.0
  9
$LIMCHECK
 70
     0
  9
$CHAMFERA
 40
2.5
  9
$CHAMFERB
 40
2.5
  9
$CHAMFERC
 40
20.0
  9
$CHAMFERD
 40
0.0
  9
$SKPOLY
 70
     0
  9
$TDCREATE
 40
2453918.262673241
  9
$TDUCREATE
 40
2453918.179339908
  9
$TDUPDATE
 40
2455710.779188912
  9
$TDUUPDATE
 40
2455710.695855579
  9
$TDINDWG
 40
0.5956161343
  9
$TDUSRTIMER
 40
0.5956119792
  9
$USRTIMER
 70
     1
  9
$ANGBASE
 50
0.0
  9
$ANGDIR
 70
     0
  9
$PDMODE
 70
     0
  9
$PDSIZE
 40
0.0
  9
$PLINEWID
 40
0.0
  9
$SPLFRAME
 70
     0
  9
$SPLINETYPE
 70
     6
  9
$SPLINESEGS
 70
     8
  9
$HANDSEED
  5
3B8C
  9
$SURFTAB1
 70
     6
  9
$SURFTAB2
 70
     6
  9
$SURFTYPE
 70
     6
  9
$SURFU
 70
     6
  9
$SURFV
 70
     6
  9
$UCSBASE
  2

  9
$UCSNAME
  2

  9
$UCSORG
 10
0.0
 20
0.0
 30
0.0
  9
$UCSXDIR
 10
1.0
 20
0.0
 30
0.0
  9
$UCSYDIR
 10
0.0
 20
1.0
 30
0.0
  9
$UCSORTHOREF
  2

  9
$UCSORTHOVIEW
 70
     0
  9
$UCSORGTOP
 10
0.0
 20
0.0
 30
0.0
  9
$UCSORGBOTTOM
 10
0.0
 20
0.0
 30
0.0
  9
$UCSORGLEFT
 10
0.0
 20
0.0
 30
0.0
  9
$UCSORGRIGHT
 10
0.0
 20
0.0
 30
0.0
  9
$UCSORGFRONT
 10
0.0
 20
0.0
 30
0.0
  9
$UCSORGBACK
 10
0.0
 20
0.0
 30
0.0
  9
$PUCSBASE
  2

  9
$PUCSNAME
  2

  9
$PUCSORG
 10
0.0
 20
0.0
 30
0.0
  9
$PUCSXDIR
 10
1.0
 20
0.0
 30
0.0
  9
$PUCSYDIR
 10
0.0
 20
1.0
 30
0.0
  9
$PUCSORTHOREF
  2

  9
$PUCSORTHOVIEW
 70
     0
  9
$PUCSORGTOP
 10
0.0
 20
0.0
 30
0.0
  9
$PUCSORGBOTTOM
 10
0.0
 20
0.0
 30
0.0
  9
$PUCSORGLEFT
 10
0.0
 20
0.0
 30
0.0
  9
$PUCSORGRIGHT
 10
0.0
 20
0.0
 30
0.0
  9
$PUCSORGFRONT
 10
0.0
 20
0.0
 30
0.0
  9
$PUCSORGBACK
 10
0.0
 20
0.0
 30
0.0
  9
$USERI1
 70
     0
  9
$USERI2
 70
     0
  9
$USERI3
 70
     0
  9
$USERI4
 70
     0
  9
$USERI5
 70
     0
  9
$USERR1
 40
0.0
  9
$USERR2
 40
0.0
  9
$USERR3
 40
0.0
  9
$USERR4
 40
0.0
  9
$USERR5
 40
0.0
  9
$WORLDVIEW
 70
     1
  9
$SHADEDGE
 70
     3
  9
$SHADEDIF
 70
    70
  9
$TILEMODE
 70
     1
  9
$MAXACTVP
 70
    64
  9
$PINSBASE
 10
0.0
 20
0.0
 30
0.0
  9
$PLIMCHECK
 70
     0
  9
$PEXTMIN
 10
1.000000000000000E+20
 20
1.000000000000000E+20
 30
1.000000000000000E+20
  9
$PEXTMAX
 10
-1.000000000000000E+20
 20
-1.000000000000000E+20
 30
-1.000000000000000E+20
  9
$PLIMMIN
 10
0.0
 20
0.0
  9
$PLIMMAX
 10
420.0
 20
297.0
  9
$UNITMODE
 70
     0
  9
$VISRETAIN
 70
     1
  9
$PLINEGEN
 70
     0
  9
$PSLTSCALE
 70
     1
  9
$TREEDEPTH
 70
  3020
  9
$CMLSTYLE
  2
Standard
  9
$CMLJUST
 70
     0
  9
$CMLSCALE
 40
20.0
  9
$PROXYGRAPHICS
 70
     1
  9
$MEASUREMENT
 70
     1
  9
$CELWEIGHT
370
    -1
  9
$ENDCAPS
280
     0
  9
$JOINSTYLE
280
     0
  9
$LWDISPLAY
290
     0
  9
$INSUNITS
 70
     4
  9
$HYPERLINKBASE
  1

  9
$STYLESHEET
  1

  9
$XEDIT
290
     1
  9
$CEPSNTYPE
380
     0
  9
$PSTYLEMODE
290
     1
  9
$FINGERPRINTGUID
  2
{E66C8CC1-E66B-408F-9010-06FD783B68A0}
  9
$VERSIONGUID
  2
{A604FF4A-FFBD-4C99-AD66-F170BD6073DE}
  9
$EXTNAMES
290
     1
  9
$PSVPSCALE
 40
0.0
  9
$OLESTARTUP
290
     0
  9
$SORTENTS
280
   127
  9
$INDEXCTL
280
     0
  9
$HIDETEXT
280
     1
  9
$XCLIPFRAME
290
     0
  9
$HALOGAP
280
     0
  9
$OBSCOLOR
 70
   257
  9
$OBSLTYPE
280
     0
  9
$INTERSECTIONDISPLAY
280
     0
  9
$INTERSECTIONCOLOR
 70
   257
  9
$DIMASSOC
280
     2
  9
$PROJECTNAME
  1

  0
ENDSEC
  0
SECTION
  2
CLASSES
  0
CLASS
  1
ACDBDICTIONARYWDFLT
  2
AcDbDictionaryWithDefault
  3
ObjectDBX Classes
 90
        0
 91
        1
280
     0
281
     0
  0
CLASS
  1
ACME_DOCUMENT
  2
AcMeDbDoc
  3
AcMeServices
 90
     1024
 91
        2
280
     0
281
     0
  0
CLASS
  1
ACMESCOPE
  2
AcMeScope
  3
AcMeServices
 90
     1024
 91
        1
280
     0
281
     0
  0
CLASS
  1
ACMECOMMANDHISTORY
  2
AcMeCommandHistory
  3
AcMeServices
 90
     1024
 91
        1
280
     0
281
     0
  0
CLASS
  1
ACIMSYSVARMAN
  2
AcImSysVarManager
  3
AcMeServices
 90
     1024
 91
        4
280
     0
281
     0
  0
CLASS
  1
ACIMREALSYSVAR
  2
AcImRealSysVar
  3
AcMeServices
 90
     1024
 91
        1
280
     0
281
     0
  0
CLASS
  1
ACIMINTSYSVAR
  2
AcImIntSysVar
  3
AcMeServices
 90
     1024
 91
       27
280
     0
281
     0
  0
CLASS
  1
ACMEDRAWINGMAN
  2
AcMeDrawingMan
  3
AcMeServices
 90
     1024
 91
        0
280
     0
281
     0
  0
CLASS
  1
ACMEVIEW
  2
AcMeView
  3
AcMeServices
 90
     1024
 91
        0
280
     0
281
     0
  0
CLASS
  1
ACDBENTITYCACHE
  2
AcMeEntityCache
  3
AcMeServices
 90
     1024
 91
        1
280
     0
281
     0
  0
CLASS
  1
GSMANAGER
  2
AcMeGSManager
  3
AcMeServices
 90
     1024
 91
        0
280
     0
281
     0
  0
CLASS
  1
AMDTINTERNALREACTOR
  2
AmdtInternalReactor
  3
AcMeServices
 90
     1024
 91
        1
280
     0
281
     0
  0
CLASS
  1
ACMESTATEMGR
  2
AcMeStateMgr
  3
AcMeServices
 90
     1024
 91
        1
280
     0
281
     0
  0
CLASS
  1
ACGREFMASTER
  2
AcGrefMaster
  3
AcAttribServices
 90
     1024
 91
        1
280
     0
281
     0
  0
CLASS
  1
ACME_DATABASE
  2
AcMeDbDatabase
  3
AcMeServices
 90
     1024
 91
        1
280
     0
281
     0
  0
CLASS
  1
ACRFINSADJUSTERMGR
  2
AcRfInsAdjusterMgr
  3
AcMeServices
 90
     1024
 91
        1
280
     0
281
     0
  0
CLASS
  1
ACGREFACADMASTER
  2
AcGrefacadMaster
  3
AcGrefServices
 90
     1024
 91
        1
280
     0
281
     0
  0
CLASS
  1
AMIMASTER
  2
AmiMaster
  3
AmiServices
 90
     1024
 91
        1
280
     0
281
     0
  0
CLASS
  1
AMGSETTINGSOBJ
  2
AmgSettingsObj
  3
"AcadM|Product Description: AutoCAD Mechanical|Company: Autodesk, Inc."
 90
     1024
 91
        2
280
     0
281
     0
  0
CLASS
  1
ACMDATADICTIONARY
  2
AcmDataDictionary
  3
"AcmSymBB|Product Description: AutoCAD Mechanical|Company: Autodesk, Inc."
 90
     1024
 91
        1
280
     0
281
     0
  0
CLASS
  1
ACMDATAENTRYBLOCK
  2
AcmDataEntryBlock
  3
AcmSymBB|Product Description: AutoCAD Mechanical|Company: Autodesk, Inc.
 90
     1024
 91
        0
280
     0
281
     0
  0
CLASS
  1
ACIMSTRSYSVAR
  2
AcImStrSysVar
  3
AcMeServices
 90
     1024
 91
        5
280
     0
281
     0
  0
CLASS
  1
ACMSTANDARDDIN
  2
AcmStandardDIN
  3
"Amdt_StdImp|Product Description: AutoCAD Mechanical|Company: Autodesk, Inc."
 90
     1024
 91
        1
280
     0
281
     0
  0
CLASS
  1
AMGOBJPROPCFG
  2
AmgObjPropCfg
  3
"AmgLay|Product Description: AutoCAD Mechanical|Company: Autodesk, Inc."
 90
     1025
 91
        1
280
     0
281
     0
  0
CLASS
  1
AMDTEDGESTANDARDDIN
  2
AmdtEdgeStdDIN
  3
"Amdt_StdImp|Product Description: AutoCAD Mechanical|Company: Autodesk, Inc."
 90
     1024
 91
        0
280
     0
281
     0
  0
CLASS
  1
ACMSURFSTANDARDDIN
  2
AcmSurfTextStdDIN
  3
"Amdt_StdImp|Product Description: AutoCAD Mechanical|Company: Autodesk, Inc."
 90
     1024
 91
        0
280
     0
281
     0
  0
CLASS
  1
ACMFCFSTANDARDDIN
  2
AcmFCFStdDIN
  3
"Amdt_StdImp|Product Description: AutoCAD Mechanical|Company: Autodesk, Inc."
 90
     1024
 91
        1
280
     0
281
     0
  0
CLASS
  1
ACMWELDSTANDARDDIN
  2
AcmWeldingStdDIN
  3
"Amdt_StdImp|Product Description: AutoCAD Mechanical|Company: Autodesk, Inc."
 90
     1024
 91
        1
280
     0
281
     0
  0
CLASS
  1
ACMIDSTANDARDDIN
  2
AcmIdStdDIN
  3
"Amdt_StdImp|Product Description: AutoCAD Mechanical|Company: Autodesk, Inc."
 90
     1024
 91
        1
280
     0
281
     0
  0
CLASS
  1
ACMDATUMSTANDARDDIN
  2
AcmDatumStdDIN
  3
"Amdt_StdImp|Product Description: AutoCAD Mechanical|Company: Autodesk, Inc."
 90
     1024
 91
        1
280
     0
281
     0
  0
CLASS
  1
ACMBOMSTANDARDDIN
  2
AcmBOMStdDIN
  3
"Amdt_StdImp|Product Description: AutoCAD Mechanical|Company: Autodesk, Inc."
 90
     1024
 91
        1
280
     0
281
     0
  0
CLASS
  1
ACMDETAILSTANDARDDIN
  2
AmdtDetailSymStdDIN
  3
"Amdt_StdImp|Product Description: AutoCAD Mechanical|Company: Autodesk, Inc."
 90
     1024
 91
        1
280
     0
281
     0
  0
CLASS
  1
ACMSECTIONSTANDARDDIN
  2
AmdtSectionSymStdDIN
  3
"Amdt_StdImp|Product Description: AutoCAD Mechanical|Company: Autodesk, Inc."
 90
     1024
 91
        1
280
     0
281
     0
  0
CLASS
  1
ACMCENTERLINESTANDARDDIN
  2
AmdtCenterLineStdDIN
  3
"Amdt_StdImp|Product Description: AutoCAD Mechanical|Company: Autodesk, Inc."
 90
     1024
 91
        1
280
     0
281
     0
  0
CLASS
  1
ACMNOTESTANDARDDIN
  2
AmdtNoteStdDIN
  3
"Amdt_StdImp|Product Description: AutoCAD Mechanical|Company: Autodesk, Inc."
 90
     1024
 91
        1
280
     0
281
     0
  0
CLASS
  1
ACAMGLAYSTD
  2
AcAmgLayStd
  3
"AmgLay|Product Description: AutoCAD Mechanical|Company: Autodesk, Inc."
 90
     1024
 91
        1
280
     0
281
     0
  0
CLASS
  1
ACAMGDIMSTD
  2
AcAmgDimStd
  3
"AmgDim|Product Description: AutoCAD Mechanical|Company: Autodesk, Inc."
 90
     1024
 91
        1
280
     0
281
     0
  0
CLASS
  1
ACAMGHOLECHARTSTDDIN
  2
AcAmgHoleChartStdDIN
  3
AmgDim|Product Description: AutoCAD Mechanical|Company: Autodesk, Inc.
 90
     1024
 91
        1
280
     0
281
     0
  0
CLASS
  1
ACAMGTITLESTD
  2
AcAmgTitleStd
  3
"AmgTitle|Product Description: AutoCAD Mechanical|Company: Autodesk, Inc."
 90
     4095
 91
        1
280
     0
281
     0
  0
CLASS
  1
LAYER_INDEX
  2
AcDbLayerIndex
  3
ObjectDBX Classes
 90
        0
 91
        0
280
     0
281
     0
  0
CLASS
  1
IDBUFFER
  2
AcDbIdBuffer
  3
ObjectDBX Classes
 90
        0
 91
        0
280
     0
281
     0
  0
CLASS
  1
DICTIONARYVAR
  2
AcDbDictionaryVar
  3
ObjectDBX Classes
 90
        0
 91
       10
280
     0
281
     0
  0
CLASS
  1
ACAMGFILTERDAT
  2
AcAmgFilterDat
  3
"AcadM|Product Description: AutoCAD Mechanical|Company: Autodesk, Inc."
 90
     1024
 91
        0
280
     0
281
     0
  0
CLASS
  1
ACMSTANDARDANSI
  2
AcmStandardANSI
  3
"Amdt_StdImp|Product Description: AutoCAD Mechanical|Company: Autodesk, Inc."
 90
     1024
 91
        0
280
     0
281
     0
  0
CLASS
  1
ACMSURFSTANDARDANSI
  2
AcmSurfTextStdANSI
  3
"Amdt_StdImp|Product Description: AutoCAD Mechanical|Company: Autodesk, Inc."
 90
     1024
 91
        0
280
     0
281
     0
  0
CLASS
  1
ACMFCFSTANDARDANSI
  2
AcmFCFStdANSI
  3
"Amdt_StdImp|Product Description: AutoCAD Mechanical|Company: Autodesk, Inc."
 90
     1024
 91
        0
280
     0
281
     0
  0
CLASS
  1
ACMWELDSTANDARDANSI
  2
AcmWeldingStdANSI
  3
"Amdt_StdImp|Product Description: AutoCAD Mechanical|Company: Autodesk, Inc."
 90
     1024
 91
        0
280
     0
281
     0
  0
CLASS
  1
ACMIDSTANDARDANSI
  2
AcmIdStdANSI
  3
"Amdt_StdImp|Product Description: AutoCAD Mechanical|Company: Autodesk, Inc."
 90
     1024
 91
        0
280
     0
281
     0
  0
CLASS
  1
ACMDATUMSTANDARDANSI
  2
AcmDatumStdANSI
  3
"Amdt_StdImp|Product Description: AutoCAD Mechanical|Company: Autodesk, Inc."
 90
     1024
 91
        0
280
     0
281
     0
  0
CLASS
  1
ACMBOMSTANDARDANSI
  2
AcmBOMStdANSI
  3
"Amdt_StdImp|Product Description: AutoCAD Mechanical|Company: Autodesk, Inc."
 90
     1024
 91
        0
280
     0
281
     0
  0
CLASS
  1
ACMDETAILSTANDARDANSI
  2
AmdtDetailSymStdANSI
  3
"Amdt_StdImp|Product Description: AutoCAD Mechanical|Company: Autodesk, Inc."
 90
     1024
 91
        0
280
     0
281
     0
  0
CLASS
  1
ACMSECTIONSTANDARDANSI
  2
AmdtSectionSymStdANSI
  3
"Amdt_StdImp|Product Description: AutoCAD Mechanical|Company: Autodesk, Inc."
 90
     1024
 91
        0
280
     0
281
     0
  0
CLASS
  1
ACMCENTERLINESTANDARDANSI
  2
AmdtCenterLineStdANSI
  3
"Amdt_StdImp|Product Description: AutoCAD Mechanical|Company: Autodesk, Inc."
 90
     1024
 91
        0
280
     0
281
     0
  0
CLASS
  1
ACMNOTESTANDARDANSI
  2
AmdtNoteStdANSI
  3
"Amdt_StdImp|Product Description: AutoCAD Mechanical|Company: Autodesk, Inc."
 90
     1024
 91
        0
280
     0
281
     0
  0
CLASS
  1
ACAMGHOLECHARTSTDANSI
  2
AcAmgHoleChartStdANSI
  3
AmgDim|Product Description: AutoCAD Mechanical|Company: Autodesk, Inc.
 90
     1024
 91
        0
280
     0
281
     0
  0
CLASS
  1
AMDTFORMULAUPDATEDISPATCHER
  2
AmdtFormulaUpdateDispatcher
  3
AcMeServices
 90
     1024
 91
        0
280
     0
281
     0
  0
CLASS
  1
DIMASSOC
  2
AcDbDimAssoc
  3
"AcDbDimAssoc|Product Desc:     AcDim ARX App For Dimension|Company:          Autodesk, Inc.|WEB Address:      www.autodesk.com"
 90
        0
 91
        0
280
     0
281
     0
  0
CLASS
  1
MATERIAL
  2
AcDbMaterial
  3
ObjectDBX Classes
 90
     1153
 91
        3
280
     0
281
     0
  0
CLASS
  1
VISUALSTYLE
  2
AcDbVisualStyle
  3
ObjectDBX Classes
 90
     4095
 91
       26
280
     0
281
     0
  0
CLASS
  1
TABLESTYLE
  2
AcDbTableStyle
  3
ObjectDBX Classes
 90
     4095
 91
        1
280
     0
281
     0
  0
CLASS
  1
SCALE
  2
AcDbScale
  3
ObjectDBX Classes
 90
     1153
 91
       17
280
     0
281
     0
  0
CLASS
  1
MLEADERSTYLE
  2
AcDbMLeaderStyle
  3
ACDB_MLEADERSTYLE_CLASS
 90
     4095
 91
        1
280
     0
281
     0
  0
CLASS
  1
AM_DRAWING_MGR
  2
AcDmDwgMgr
  3
AcMechDwgViewMgmt
 90
     1024
 91
        1
280
     0
281
     0
  0
CLASS
  1
AM_DWG_DOCUMENT
  2
AcDmDwgDocument
  3
AcMechDwgViewMgmt
 90
     1024
 91
        1
280
     0
281
     0
  0
CLASS
  1
AM_DWG_SHEET
  2
AcDmSheet
  3
AcMechDwgViewMgmt
 90
     1024
 91
        2
280
     0
281
     0
  0
CLASS
  1
AM_VIEWDIMPARMAP
  2
AcDmViewDimParMap
  3
AcMechDwgViewMgmt
 90
     1024
 91
        2
280
     0
281
     0
  0
CLASS
  1
AM_DWGMGR_NAME
  2
AcDmDwgMgrName
  3
AcMechDwgViewMgmt
 90
     1024
 91
        1
280
     0
281
     0
  0
CLASS
  1
AMDTMENUSTATEMGR
  2
AmdtMenuStateMgr
  3
McadcomServices
 90
     1024
 91
        1
280
     0
281
     0
  0
CLASS
  1
AMDTMCOMMENUSTATE
  2
AmdtMcomMenuState
  3
McadcomServices
 90
     1024
 91
        1
280
     0
281
     0
  0
CLASS
  1
MAPIAMMOUDLE
  2
MApiAmModule
  3
MApiAmServices
 90
     1024
 91
        1
280
     0
281
     0
  0
CLASS
  1
AMDTADMENUSTATE
  2
AmdtAdMenuState
  3
DesignerServices
 90
     1024
 91
        0
280
     0
281
     0
  0
CLASS
  1
ADAPPL
  2
AcAdAppl
  3
DesignerAssemblies
 90
     1024
 91
        0
280
     0
281
     0
  0
CLASS
  1
DEPMGR
  2
AcAdDepMgr
  3
DesignerAssemblies
 90
     1024
 91
        0
280
     0
281
     0
  0
CLASS
  1
PARAMMGR
  2
AcAdParamMgr
  3
DesignerAssemblies
 90
     1024
 91
        0
280
     0
281
     0
  0
CLASS
  1
PARAMSCOPE
  2
AcAdParamScope
  3
DesignerAssemblies
 90
     1024
 91
        0
280
     0
281
     0
  0
CLASS
  1
NAMEDAPPL
  2
AcAdNamedAppl
  3
DesignerAssemblies
 90
     1024
 91
        0
280
     0
281
     0
  0
CLASS
  1
AMDTDMMENUSTATE
  2
AmdtDmMenuState
  3
AcMechDwgViewMgmt
 90
     1024
 91
        1
280
     0
281
     0
  0
CLASS
  1
AMDTAMMENUSTATE
  2
AmdtAmMenuState
  3
DesignerAssemblies
 90
     1024
 91
        1
280
     0
281
     0
  0
CLASS
  1
ACAMPROJECT
  2
AcAmProject
  3
DesignerAssemblies
 90
     1024
 91
        1
280
     0
281
     0
  0
CLASS
  1
ACAMGRCOMPDEF
  2
AcAmGrCompDef
  3
DesignerAssemblies
 90
     1024
 91
        1
280
     0
281
     0
  0
CLASS
  1
ACCMCONTEXT
  2
AcCmContext
  3
DesignerAssemblies
 90
     1024
 91
        0
280
     0
281
     0
  0
CLASS
  1
ACAMCOMPDEF
  2
AcAmCompDef
  3
DesignerAssemblies
 90
     1024
 91
        1
280
     0
281
     0
  0
CLASS
  1
ACAMCOMPDEFMGR
  2
AcAmCompDefMgr
  3
DesignerAssemblies
 90
     1024
 91
        1
280
     0
281
     0
  0
CLASS
  1
AMCONTEXTMGR
  2
AcAmContextMgr
  3
DesignerAssemblies
 90
     1024
 91
        1
280
     0
281
     0
  0
CLASS
  1
ACAMCONTEXTMODELER
  2
AcAmContextModeler
  3
DesignerAssemblies
 90
     1024
 91
        1
280
     0
281
     0
  0
CLASS
  1
ACRFATTGENMGR
  2
AcRfAttGeneralMgr
  3
AcAttribServices
 90
     1024
 91
        0
280
     0
281
     0
  0
CLASS
  1
ACRFOBJATTMGR
  2
AcRfObjAttGroupMgr
  3
AcAttribServices
 90
     1024
 91
        0
280
     0
281
     0
  0
CLASS
  1
ACRFMCADAPIATTHOLDER
  2
AcRfMCADAPIAttHolder
  3
AcAttribServices
 90
     1024
 91
        0
280
     0
281
     0
  0
CLASS
  1
AMDTSYSATTR
  2
AmdtSystemAttribute
  3
AcAttribServices
 90
     1024
 91
        0
280
     0
281
     0
  0
CLASS
  1
ACMTHREADLINESTANDARDDIN
  2
AmdtThreadLineStdDIN
  3
"Amdt_StdImp|Product Description: AutoCAD Mechanical|Company: Autodesk, Inc."
 90
     1024
 91
        1
280
     0
281
     0
  0
CLASS
  1
ACMTAPERSTANDARDDIN
  2
AcmTaperStdDIN
  3
"Amdt_StdImp|Product Description: AutoCAD Mechanical|Company: Autodesk, Inc."
 90
     1024
 91
        1
280
     0
281
     0
  0
CLASS
  1
ACMANOOTATIONVIEWSTANDARDDIN
  2
AmdtAnViewStdDIN
  3
"Amdt_StdImp|Product Description: AutoCAD Mechanical|Company: Autodesk, Inc."
 90
     1024
 91
        1
280
     0
281
     0
  0
CLASS
  1
ACMTHREADLINESTANDARDANSI
  2
AmdtThreadLineStdANSI
  3
"Amdt_StdImp|Product Description: AutoCAD Mechanical|Company: Autodesk, Inc."
 90
     1024
 91
        0
280
     0
281
     0
  0
CLASS
  1
ACMTAPERSTANDARDANSI
  2
AcmTaperStdANSI
  3
"Amdt_StdImp|Product Description: AutoCAD Mechanical|Company: Autodesk, Inc."
 90
     1024
 91
        0
280
     0
281
     0
  0
CLASS
  1
ACMANOOTATIONVIEWSTANDARDANSI
  2
AmdtAnViewStdANSI
  3
"Amdt_StdImp|Product Description: AutoCAD Mechanical|Company: Autodesk, Inc."
 90
     1024
 91
        0
280
     0
281
     0
  0
CLASS
  1
CATALOGSTATE
  2
AcAmCatalogState
  3
DesignerAssemblies
 90
     1024
 91
        0
280
     0
281
     0
  0
CLASS
  1
ACAMGRCOMPDEFSET
  2
AcAmGrCompDefSet
  3
DesignerAssemblies
 90
     1024
 91
        1
280
     0
281
     0
  0
CLASS
  1
AMDTBROWSERDBTAB
  2
AmdtBrowserDbTab
  3
McadcomServices
 90
     1024
 91
        1
280
     0
281
     0
  0
CLASS
  1
CBROWSERAPPOBJECT
  2
CBrowserAppObject
  3
McadcomServices
 90
     1024
 91
        2
280
     0
281
     0
  0
CLASS
  1
DM_PLACEHOLDER
  2
AcDmSelsetPlaceholder
  3
AcMechDwgViewMgmt
 90
     1024
 91
        1
280
     0
281
     0
  0
CLASS
  1
CELLSTYLEMAP
  2
AcDbCellStyleMap
  3
ObjectDBX Classes
 90
     1152
 91
        2
280
     0
281
     0
  0
CLASS
  1
AMDTEDGESTANDARDDIN13715
  2
AmdtEdgeStdDIN13715
  3
"Amdt_StdImp|Product Description: AutoCAD Mechanical|Company: Autodesk, Inc."
 90
     1024
 91
        1
280
     0
281
     0
  0
CLASS
  1
ACMSURFSTANDARDDIN2002
  2
AcmSurfTextStdDIN2002
  3
"Amdt_StdImp|Product Description: AutoCAD Mechanical|Company: Autodesk, Inc."
 90
     1024
 91
        1
280
     0
281
     0
  0
CLASS
  1
AMDTNOTETEMPLATEDB
  2
AmdtNoteTemplateDB
  3
AcmSymBB|Product Description: AutoCAD Mechanical|Company: Autodesk, Inc.
 90
     1024
 91
        6
280
     0
281
     0
  0
CLASS
  1
SORTENTSTABLE
  2
AcDbSortentsTable
  3
ObjectDBX Classes
 90
        0
 91
        1
280
     0
281
     0
  0
CLASS
  1
CAMSSTRUCTBTNSTATE
  2
StructBtnState
  3
DesignerAssemblies
 90
     1024
 91
        0
280
     0
281
     0
  0
CLASS
  1
ACMSTANDARDISO
  2
AcmStandardISO
  3
"Amdt_StdImp|Product Description: AutoCAD Mechanical|Company: Autodesk, Inc."
 90
     1024
 91
        0
280
     0
281
     0
  0
CLASS
  1
AMDTEDGESTANDARDISO13715
  2
AmdtEdgeStdISO13715
  3
"Amdt_StdImp|Product Description: AutoCAD Mechanical|Company: Autodesk, Inc."
 90
     1024
 91
        0
280
     0
281
     0
  0
CLASS
  1
ACMSURFSTANDARDISO2002
  2
AcmSurfTextStdISO2002
  3
"Amdt_StdImp|Product Description: AutoCAD Mechanical|Company: Autodesk, Inc."
 90
     1024
 91
        0
280
     0
281
     0
  0
CLASS
  1
ACMFCFSTANDARDISO
  2
AcmFCFStdISO
  3
"Amdt_StdImp|Product Description: AutoCAD Mechanical|Company: Autodesk, Inc."
 90
     1024
 91
        0
280
     0
281
     0
  0
CLASS
  1
ACMWELDSTANDARDISO
  2
AcmWeldingStdISO
  3
"Amdt_StdImp|Product Description: AutoCAD Mechanical|Company: Autodesk, Inc."
 90
     1024
 91
        0
280
     0
281
     0
  0
CLASS
  1
ACMIDSTANDARDISO
  2
AcmIdStdISO
  3
"Amdt_StdImp|Product Description: AutoCAD Mechanical|Company: Autodesk, Inc."
 90
     1024
 91
        0
280
     0
281
     0
  0
CLASS
  1
ACMDATUMSTANDARDISO
  2
AcmDatumStdISO
  3
"Amdt_StdImp|Product Description: AutoCAD Mechanical|Company: Autodesk, Inc."
 90
     1024
 91
        0
280
     0
281
     0
  0
CLASS
  1
ACMBOMSTANDARDISO
  2
AcmBOMStdISO
  3
"Amdt_StdImp|Product Description: AutoCAD Mechanical|Company: Autodesk, Inc."
 90
     1024
 91
        0
280
     0
281
     0
  0
CLASS
  1
ACMDETAILSTANDARDISO
  2
AmdtDetailSymStdISO
  3
"Amdt_StdImp|Product Description: AutoCAD Mechanical|Company: Autodesk, Inc."
 90
     1024
 91
        0
280
     0
281
     0
  0
CLASS
  1
ACMSECTIONSTANDARDISO2001
  2
AmdtSectionSymStdISO2001
  3
"Amdt_StdImp|Product Description: AutoCAD Mechanical|Company: Autodesk, Inc."
 90
     1024
 91
        0
280
     0
281
     0
  0
CLASS
  1
ACMCENTERLINESTANDARDISO
  2
AmdtCenterLineStdISO
  3
"Amdt_StdImp|Product Description: AutoCAD Mechanical|Company: Autodesk, Inc."
 90
     1024
 91
        0
280
     0
281
     0
  0
CLASS
  1
ACMTHREADLINESTANDARDISO
  2
AmdtThreadLineStdISO
  3
"Amdt_StdImp|Product Description: AutoCAD Mechanical|Company: Autodesk, Inc."
 90
     1024
 91
        0
280
     0
281
     0
  0
CLASS
  1
ACMNOTESTANDARDISO
  2
AmdtNoteStdISO
  3
"Amdt_StdImp|Product Description: AutoCAD Mechanical|Company: Autodesk, Inc."
 90
     1024
 91
        0
280
     0
281
     0
  0
CLASS
  1
ACMTAPERSTANDARDISO
  2
AcmTaperStdISO
  3
"Amdt_StdImp|Product Description: AutoCAD Mechanical|Company: Autodesk, Inc."
 90
     1024
 91
        0
280
     0
281
     0
  0
CLASS
  1
ACMANOOTATIONVIEWSTANDARDISO
  2
AmdtAnViewStdISO
  3
"Amdt_StdImp|Product Description: AutoCAD Mechanical|Company: Autodesk, Inc."
 90
     1024
 91
        0
280
     0
281
     0
  0
CLASS
  1
ACAMGHOLECHARTSTDISO
  2
AcAmgHoleChartStdISO
  3
AmgDim|Product Description: AutoCAD Mechanical|Company: Autodesk, Inc.
 90
     1024
 91
        0
280
     0
281
     0
  0
CLASS
  1
SOLID_BACKGROUND
  2
AcDbSolidBackground
  3
SCENEOE
 90
     4095
 91
        0
280
     0
281
     0
  0
CLASS
  1
NPOCOLLECTION
  2
AcDbImpNonPersistentObjectsCollection
  3
ObjectDBX Classes
 90
     1153
 91
        0
280
     0
281
     0
  0
CLASS
  1
AEC_REFEDIT_STATUS_TRACKER
  2
AecDbRefEditStatusTracker
  3
AecArchBase60|Product Desc: Autodesk Architectural Desktop 2007 |Company: Autodesk,Inc. |WEB Address: www.autodesk.com
 90
      129
 91
        0
280
     0
281
     0
  0
ENDSEC
  0
SECTION
  2
TABLES
  0
TABLE
  2
VPORT
  5
8
102
{ACAD_XDICTIONARY
360
25A6
102
}
330
0
100
AcDbSymbolTable
 70
     1
  0
VPORT
  5
24F3
330
8
100
AcDbSymbolTableRecord
100
AcDbViewportTableRecord
  2
*Active
 70
     0
 10
0.0
 20
0.0
 11
1.0
 21
1.0
 12
41.61030327155219
 22
110.0289267005439
 13
0.0
 23
0.0
 14
2.5
 24
2.5
 15
10.0
 25
10.0
 16
0.0
 26
0.0
 36
3172.584870568617
 17
-41.60712458942987
 27
113.615074507983
 37
0.0
 40
533.7767738804579
 41
2.316443594646271
 42
50.0
 43
0.0
 44
0.0
 50
0.0
 51
0.0
 71
     0
 72
   100
 73
     1
 74
     3
 75
     0
 76
     0
 77
     0
 78
     0
281
     0
 65
     1
110
0.0
120
0.0
130
0.0
111
1.0
121
0.0
131
0.0
112
0.0
122
1.0
132
0.0
 79
     0
146
0.0
  0
ENDTAB
  0
TABLE
  2
LTYPE
  5
5
330
0
100
AcDbSymbolTable
 70
    26
  0
LTYPE
  5
14
330
5
100
AcDbSymbolTableRecord
100
AcDbLinetypeTableRecord
  2
ByBlock
 70
     0
  3

 72
    65
 73
     0
 40
0.0
  0
LTYPE
  5
15
330
5
100
AcDbSymbolTableRecord
100
AcDbLinetypeTableRecord
  2
ByLayer
 70
     0
  3

 72
    65
 73
     0
 40
0.0
  0
LTYPE
  5
16
330
5
100
AcDbSymbolTableRecord
100
AcDbLinetypeTableRecord
  2
Continuous
 70
     0
  3
Solid line
 72
    65
 73
     0
 40
0.0
  0
LTYPE
  5
50
330
5
100
AcDbSymbolTableRecord
100
AcDbLinetypeTableRecord
  2
Amconstr
 70
     0
  3
_______________________
 72
    65
 73
     2
 40
9999.0
 49
9999.0
 74
     0
 49
0.0
 74
     0
  0
LTYPE
  5
55
330
5
100
AcDbSymbolTableRecord
100
AcDbLinetypeTableRecord
  2
Amzigzag
 70
     0
  3
/\/-/\/-/\/-/\/-/\/-/\/
 72
    65
 73
     2
 40
11.0001
 49
0.0001
 74
     4
 75
   135
340
54
 46
0.04
 50
0.0
 44
0.0
 45
0.0
 49
-11.0
 74
     0
  0
LTYPE
  5
56
330
5
100
AcDbSymbolTableRecord
100
AcDbLinetypeTableRecord
  2
AM_DIN_F_W050
 70
     0
  3
__ __ __ __ __ __ __ __ __ __ __ __ __ __ __
 72
    65
 73
     2
 40
6.25
 49
4.75
 74
     0
 49
-1.5
 74
     0
  0
LTYPE
  5
57
330
5
100
AcDbSymbolTableRecord
100
AcDbLinetypeTableRecord
  2
AM_DIN_G_W050
 70
     0
  3
____ . ____ . ____ . ____ . ____ . ____ . ____
 72
    65
 73
     4
 40
13.75
 49
9.75
 74
     0
 49
-1.5
 74
     0
 49
1.0
 74
     0
 49
-1.5
 74
     0
  0
LTYPE
  5
58
330
5
100
AcDbSymbolTableRecord
100
AcDbLinetypeTableRecord
  2
AM_DIN_K_W050
 70
     0
  3
_____ . . _____ . . _____ . . ____ .. ____
 72
    65
 73
     6
 40
16.25
 49
9.75
 74
     0
 49
-1.5
 74
     0
 49
1.0
 74
     0
 49
-1.5
 74
     0
 49
1.0
 74
     0
 49
-1.5
 74
     0
  0
LTYPE
  5
59
330
5
100
AcDbSymbolTableRecord
100
AcDbLinetypeTableRecord
  2
AM_DIN_G_W050x2
 70
     0
  3
__ . __ . __ . __ . __ . __
 72
    65
 73
     4
 40
6.875
 49
4.75
 74
     0
 49
-0.875
 74
     0
 49
0.375
 74
     0
 49
-0.875
 74
     0
  0
LTYPE
  5
5A
330
5
100
AcDbSymbolTableRecord
100
AcDbLinetypeTableRecord
  2
AM_DIN_F_W050x2
 70
     0
  3
 _ _ _ _ _ _ _ _ _ _ _ _
 72
    65
 73
     2
 40
3.125
 49
2.25
 74
     0
 49
-0.875
 74
     0
  0
LTYPE
  5
68
330
5
100
AcDbSymbolTableRecord
100
AcDbLinetypeTableRecord
  2
ACDINWELD
 70
     0
  3
_ _ _ _ _
 72
    65
 73
     2
 40
2.0
 49
2.0
 74
     0
 49
-1.0
 74
     0
  0
LTYPE
  5
69
330
5
100
AcDbSymbolTableRecord
100
AcDbLinetypeTableRecord
  2
ACDINTGB
 70
     0
  3
__ . . __ . .
 72
    65
 73
     6
 40
9.0
 49
4.0
 74
     0
 49
-1.0
 74
     0
 49
1.0
 74
     0
 49
-1.0
 74
     0
 49
1.0
 74
     0
 49
-1.0
 74
     0
  0
LTYPE
  5
6A
330
5
100
AcDbSymbolTableRecord
100
AcDbLinetypeTableRecord
  2
ACDINTGL
 70
     0
  3
_ _ _ _ _
 72
    65
 73
     2
 40
3.0
 49
2.0
 74
     0
 49
-1.0
 74
     0
  0
LTYPE
  5
6C
330
5
100
AcDbSymbolTableRecord
100
AcDbLinetypeTableRecord
  2
CENTER
 70
     0
  3
__ . __
 72
    65
 73
     4
 40
7.0
 49
4.0
 74
     0
 49
-1.0
 74
     0
 49
1.0
 74
     0
 49
-1.0
 74
     0
  0
LTYPE
  5
33D
330
5
100
AcDbSymbolTableRecord
100
AcDbLinetypeTableRecord
  2
PHANTOM2
 70
     0
  3
Phantom (.5x) ___ _ _ ___ _ _ ___ _ _ ___ _ _
 72
    65
 73
     6
 40
1.25
 49
0.625
 74
     0
 49
-0.125
 74
     0
 49
0.125
 74
     0
 49
-0.125
 74
     0
 49
0.125
 74
     0
 49
-0.125
 74
     0
  0
LTYPE
  5
341
330
5
100
AcDbSymbolTableRecord
100
AcDbLinetypeTableRecord
  2
ACANSTGB
 70
     0
  3
__ . . __ . .
 72
    65
 73
     6
 40
0.35433070866
 49
0.15748031496
 74
     0
 49
-0.03937007874
 74
     0
 49
0.03937007874
 74
     0
 49
-0.03937007874
 74
     0
 49
0.03937007874
 74
     0
 49
-0.03937007874
 74
     0
  0
LTYPE
  5
342
330
5
100
AcDbSymbolTableRecord
100
AcDbLinetypeTableRecord
  2
ACANSTGL
 70
     0
  3
_ _ _ _ _
 72
    65
 73
     2
 40
0.11811023622
 49
0.07874015748
 74
     0
 49
-0.03937007874
 74
     0
  0
LTYPE
  5
2564
330
5
100
AcDbSymbolTableRecord
100
AcDbLinetypeTableRecord
  2
HIDDEN
 70
     0
  3
Verdeckt
 72
    65
 73
     2
 40
9.525
 49
6.349999999999999
 74
     0
 49
-3.174999999999999
 74
     0
  0
LTYPE
  5
2627
330
5
100
AcDbSymbolTableRecord
100
AcDbLinetypeTableRecord
  2
AM_ISO02W050
 70
     0
  3
__ __ __ __ __ __ __ __ __ __ __ __ __ __ __
 72
    65
 73
     2
 40
7.5
 49
6.0
 74
     0
 49
-1.5
 74
     0
  0
LTYPE
  5
2628
330
5
100
AcDbSymbolTableRecord
100
AcDbLinetypeTableRecord
  2
AM_ISO08W050
 70
     0
  3
____ . ____ . ____ . ____ . ____ . ____ . ____
 72
    65
 73
     4
 40
18.0
 49
12.0
 74
     0
 49
-1.5
 74
     0
 49
3.0
 74
     0
 49
-1.5
 74
     0
  0
LTYPE
  5
2629
330
5
100
AcDbSymbolTableRecord
100
AcDbLinetypeTableRecord
  2
AM_ISO09W050
 70
     0
  3
_____ . . _____ . . _____ . . ____ .. ____
 72
    65
 73
     6
 40
22.5
 49
12.0
 74
     0
 49
-1.5
 74
     0
 49
3.0
 74
     0
 49
-1.5
 74
     0
 49
3.0
 74
     0
 49
-1.5
 74
     0
  0
LTYPE
  5
262A
330
5
100
AcDbSymbolTableRecord
100
AcDbLinetypeTableRecord
  2
AM_ISO08W050x2
 70
     0
  3
__ . __ . __ . __ . __ . __
 72
    65
 73
     4
 40
9.0
 49
6.0
 74
     0
 49
-0.75
 74
     0
 49
1.5
 74
     0
 49
-0.75
 74
     0
  0
LTYPE
  5
262B
330
5
100
AcDbSymbolTableRecord
100
AcDbLinetypeTableRecord
  2
AM_ISO02W050x2
 70
     0
  3
 _ _ _ _ _ _ _ _ _ _ _ _
 72
    65
 73
     2
 40
3.75
 49
3.0
 74
     0
 49
-0.75
 74
     0
  0
LTYPE
  5
2A8E
330
5
100
AcDbSymbolTableRecord
100
AcDbLinetypeTableRecord
  2
ACISOWELD
 70
     0
  3
_ _ _ _ _
 72
    65
 73
     2
 40
2.0
 49
2.0
 74
     0
 49
-1.0
 74
     0
  0
LTYPE
  5
2A8F
330
5
100
AcDbSymbolTableRecord
100
AcDbLinetypeTableRecord
  2
ACISOTGB
 70
     0
  3
__ . . __ . .
 72
    65
 73
     6
 40
9.0
 49
4.0
 74
     0
 49
-1.0
 74
     0
 49
1.0
 74
     0
 49
-1.0
 74
     0
 49
1.0
 74
     0
 49
-1.0
 74
     0
  0
LTYPE
  5
2A90
330
5
100
AcDbSymbolTableRecord
100
AcDbLinetypeTableRecord
  2
ACISOTGL
 70
     0
  3
_ _ _ _ _
 72
    65
 73
     2
 40
3.0
 49
2.0
 74
     0
 49
-1.0
 74
     0
  0
LTYPE
  5
306D
330
5
100
AcDbSymbolTableRecord
100
AcDbLinetypeTableRecord
  2
AI9-LType1
 70
     0
  3
Illustrator Dash Style No.1
 72
    65
 73
     2
 40
0.7055555555555556
 49
0.3527777777777778
 74
     0
 49
-0.3527777777777778
 74
     0
  0
LTYPE
  5
306E
330
5
100
AcDbSymbolTableRecord
100
AcDbLinetypeTableRecord
  2
AI9-LType2
 70
     0
  3
Illustrator Dash Style No.2
 72
    65
 73
     4
 40
6.349999999999999
 49
4.233333333333332
 74
     0
 49
-0.7055555555555556
 74
     0
 49
0.7055555555555556
 74
     0
 49
-0.7055555555555556
 74
     0
  0
ENDTAB
  0
TABLE
  2
LAYER
  5
2
102
{ACAD_XDICTIONARY
360
2BFA
102
}
330
0
100
AcDbSymbolTable
 70
     1
  0
LAYER
  5
10
102
{ACAD_XDICTIONARY
360
25A1
102
}
330
2
100
AcDbSymbolTableRecord
100
AcDbLayerTableRecord
  2
0
 70
     0
 62
     7
  6
Continuous
370
    -3
390
F
  0
ENDTAB
  0
TABLE
  2
STYLE
  5
3
330
0
100
AcDbSymbolTable
 70
     9
  0
STYLE
  5
11
330
3
100
AcDbSymbolTableRecord
100
AcDbTextStyleTableRecord
  2
STANDARD
 70
     0
 40
0.0
 41
1.0
 50
0.0
 71
     0
 42
2.5
  3
isocp.shx
  4

  0
STYLE
  5
54
330
3
100
AcDbSymbolTableRecord
100
AcDbTextStyleTableRecord
  2

 70
     1
 40
0.0
 41
1.0
 50
0.0
 71
     0
 42
2.5
  3
ltypeshp.shx
  4

  0
STYLE
  5
5B
330
3
100
AcDbSymbolTableRecord
100
AcDbTextStyleTableRecord
  2
ACDINTS
 70
     0
 40
1.0
 41
1.0
 50
0.0
 71
     0
 42
2.5
  3
isocp.shx
  4

  0
STYLE
  5
67
330
3
100
AcDbSymbolTableRecord
100
AcDbTextStyleTableRecord
  2
ACDINGDT
 70
     0
 40
0.0
 41
1.0
 50
0.0
 71
     0
 42
2.5
  3
amgdt.shx
  4

  0
STYLE
  5
343
330
3
100
AcDbSymbolTableRecord
100
AcDbTextStyleTableRecord
  2
ACANSTS
 70
     0
 40
1.0
 41
1.0
 50
0.0
 71
     0
 42
0.2
  3
romans.shx
  4

  0
STYLE
  5
344
330
3
100
AcDbSymbolTableRecord
100
AcDbTextStyleTableRecord
  2
ACANSGDT
 70
     0
 40
0.0
 41
1.0
 50
0.0
 71
     0
 42
0.2
  3
amgdtans.shx
  4

  0
STYLE
  5
26F6
330
3
100
AcDbSymbolTableRecord
100
AcDbTextStyleTableRecord
  2

 70
     1
 40
0.0
 41
1.0
 50
0.0
 71
     0
 42
0.2
  3
genltshp.shx
  4

  0
STYLE
  5
2A8C
330
3
100
AcDbSymbolTableRecord
100
AcDbTextStyleTableRecord
  2
ACISOTS
 70
     0
 40
1.0
 41
1.0
 50
0.0
 71
     0
 42
2.5
  3
isocp.shx
  4

  0
STYLE
  5
2A8D
330
3
100
AcDbSymbolTableRecord
100
AcDbTextStyleTableRecord
  2
ACISOGDT
 70
     0
 40
0.0
 41
1.0
 50
0.0
 71
     0
 42
2.5
  3
amgdt.shx
  4

  0
ENDTAB
  0
TABLE
  2
VIEW
  5
6
330
0
100
AcDbSymbolTable
 70
     1
  0
ENDTAB
  0
TABLE
  2
UCS
  5
7
330
0
100
AcDbSymbolTable
 70
     0
  0
ENDTAB
  0
TABLE
  2
APPID
  5
9
330
0
100
AcDbSymbolTable
 70
    23
  0
APPID
  5
12
330
9
100
AcDbSymbolTableRecord
100
AcDbRegAppTableRecord
  2
ACAD
 70
     0
  0
APPID
  5
2C
330
9
100
AcDbSymbolTableRecord
100
AcDbRegAppTableRecord
  2
MCAD_NO_VIS
 70
     0
  0
APPID
  5
2D
330
9
100
AcDbSymbolTableRecord
100
AcDbRegAppTableRecord
  2
ACAD_TEMP_GRAPHIC
 70
     0
  0
APPID
  5
3E
330
9
100
AcDbSymbolTableRecord
100
AcDbRegAppTableRecord
  2
ACATTRIBSERVICES
 70
     0
  0
APPID
  5
428
330
9
100
AcDbSymbolTableRecord
100
AcDbRegAppTableRecord
  2
DCO15
 70
     0
  0
APPID
  5
217D
330
9
100
AcDbSymbolTableRecord
100
AcDbRegAppTableRecord
  2
GENIUS_GENREC_14
 70
     0
  0
APPID
  5
217E
330
9
100
AcDbSymbolTableRecord
100
AcDbRegAppTableRecord
  2
GENIUS_GENODEF_13
 70
     0
  0
APPID
  5
217F
330
9
100
AcDbSymbolTableRecord
100
AcDbRegAppTableRecord
  2
GENIUS_GENOBJ-N-REC_13
 70
     0
  0
APPID
  5
2536
330
9
100
AcDbSymbolTableRecord
100
AcDbRegAppTableRecord
  2
ACAD_MLEADERVER
 70
     0
  0
APPID
  5
2566
330
9
100
AcDbSymbolTableRecord
100
AcDbRegAppTableRecord
  2
AD_DRAW
 70
     0
  0
APPID
  5
2585
330
9
100
AcDbSymbolTableRecord
100
AcDbRegAppTableRecord
  2
DESIGNERASSEMBLIES
 70
     0
  0
APPID
  5
2594
330
9
100
AcDbSymbolTableRecord
100
AcDbRegAppTableRecord
  2
ACADM_DIM_EDIT
 70
     0
  0
APPID
  5
2595
330
9
100
AcDbSymbolTableRecord
100
AcDbRegAppTableRecord
  2
AMDT_DM_ADJ
 70
     0
  0
APPID
  5
263C
330
9
100
AcDbSymbolTableRecord
100
AcDbRegAppTableRecord
  2
ACAD_DSTYLE_DIMJOGGED_JOGANGLE_SYMBOL
 70
     0
  0
APPID
  5
263D
330
9
100
AcDbSymbolTableRecord
100
AcDbRegAppTableRecord
  2
ACAD_DSTYLE_DIM_LINETYPE
 70
     0
  0
APPID
  5
263E
330
9
100
AcDbSymbolTableRecord
100
AcDbRegAppTableRecord
  2
ACAD_DSTYLE_DIM_EXT1_LINETYPE
 70
     0
  0
APPID
  5
263F
330
9
100
AcDbSymbolTableRecord
100
AcDbRegAppTableRecord
  2
ACAD_DSTYLE_DIM_EXT2_LINETYPE
 70
     0
  0
APPID
  5
2796
330
9
100
AcDbSymbolTableRecord
100
AcDbRegAppTableRecord
  2
GENIUS_GENOBJ-N-FIL_13
 70
     0
  0
APPID
  5
27FB
330
9
100
AcDbSymbolTableRecord
100
AcDbRegAppTableRecord
  2
ACAD_EXEMPT_FROM_CAD_STANDARDS
 70
     0
  0
APPID
  5
2AA2
330
9
100
AcDbSymbolTableRecord
100
AcDbRegAppTableRecord
  2
ACAD_DSTYLE_DIMARC_LENGTH_SYMBOL
 70
     0
  0
APPID
  5
2B89
330
9
100
AcDbSymbolTableRecord
100
AcDbRegAppTableRecord
  2
ACAD_DSTYLE_DIMBREAK
 70
     0
  0
APPID
  5
2B8A
330
9
100
AcDbSymbolTableRecord
100
AcDbRegAppTableRecord
  2
ACAD_DSTYLE_DIMJAG
 70
     0
  0
APPID
  5
2C0E
330
9
100
AcDbSymbolTableRecord
100
AcDbRegAppTableRecord
  2
GENIUS_GE3MANIP_13
 70
     0
  0
ENDTAB
  0
TABLE
  2
DIMSTYLE
  5
A
330
0
100
AcDbSymbolTable
 70
    21
100
AcDbDimStyleTable
 71
     2
340
2A82
340
6F
  0
DIMSTYLE
105
6F
102
{ACAD_REACTORS
330
3B2B
102
}
330
A
100
AcDbSymbolTableRecord
100
AcDbDimStyleTableRecord
  2
AM_DIN
 70
     0
  4
"
 41
3.5
 42
1.0
 43
10.0
 44
1.0
 47
0.1
 48
0.1
 73
     0
 74
     0
 77
     1
 78
     8
 79
     2
140
3.5
141
0.0
143
0.0393701
146
0.71
147
1.5
172
     1
176
   256
177
   256
178
   140
271
     2
272
     3
274
     4
283
     0
284
     8
340
11
371
    -1
372
    -1
1001
ACAD_DSTYLE_DIMJOGGED_JOGANGLE_SYMBOL
1070
   384
1040
1.570796326794896
1001
ACAD_DSTYLE_DIM_LINETYPE
1070
   380
1005
14
1001
ACAD_DSTYLE_DIM_EXT1_LINETYPE
1070
   381
1005
14
1001
ACAD_DSTYLE_DIM_EXT2_LINETYPE
1070
   382
1005
14
  0
DIMSTYLE
105
70
330
A
100
AcDbSymbolTableRecord
100
AcDbDimStyleTableRecord
  2
AM_DIN$3
 70
     0
  4
"
 41
3.5
 42
1.0
 43
10.0
 44
1.0
 47
0.1
 48
0.1
 73
     0
 77
     1
 78
     8
 79
     2
140
3.5
141
0.0
143
0.0393701
146
0.71
147
1.5
176
   256
177
   256
178
   140
271
     2
272
     3
274
     4
283
     0
284
     8
288
     1
289
     0
340
11
371
    -1
372
    -1
1001
ACAD_DSTYLE_DIMJOGGED_JOGANGLE_SYMBOL
1070
   384
1040
1.570796326794896
1001
ACAD_DSTYLE_DIM_LINETYPE
1070
   380
1005
14
1001
ACAD_DSTYLE_DIM_EXT1_LINETYPE
1070
   381
1005
14
1001
ACAD_DSTYLE_DIM_EXT2_LINETYPE
1070
   382
1005
14
  0
DIMSTYLE
105
71
330
A
100
AcDbSymbolTableRecord
100
AcDbDimStyleTableRecord
  2
AM_DIN$4
 70
     0
  4
"
 41
3.5
 42
1.0
 43
10.0
 44
1.0
 47
0.1
 48
0.1
 73
     0
 74
     0
 77
     1
 78
     8
 79
     2
140
3.5
141
0.0
143
0.0393701
146
0.71
147
1.5
172
     1
176
   256
177
   256
178
   140
271
     2
272
     3
274
     4
283
     0
284
     8
340
11
371
    -1
372
    -1
1001
ACAD_DSTYLE_DIMJOGGED_JOGANGLE_SYMBOL
1070
   384
1040
1.570796326794896
1001
ACAD_DSTYLE_DIM_LINETYPE
1070
   380
1005
14
1001
ACAD_DSTYLE_DIM_EXT1_LINETYPE
1070
   381
1005
14
1001
ACAD_DSTYLE_DIM_EXT2_LINETYPE
1070
   382
1005
14
  0
DIMSTYLE
105
72
330
A
100
AcDbSymbolTableRecord
100
AcDbDimStyleTableRecord
  2
AM_DIN$6
 70
     0
  4
"
 41
3.5
 42
1.0
 43
10.0
 44
1.0
 47
0.1
 48
0.1
 73
     0
 74
     0
 78
     8
 79
     2
140
3.5
141
0.0
143
0.0393701
146
0.71
147
1.5
172
     1
176
   256
177
   256
178
   140
271
     2
272
     3
274
     4
283
     0
284
     8
340
11
371
    -1
372
    -1
1001
ACAD_DSTYLE_DIMJOGGED_JOGANGLE_SYMBOL
1070
   384
1040
1.570796326794896
1001
ACAD_DSTYLE_DIM_LINETYPE
1070
   380
1005
14
1001
ACAD_DSTYLE_DIM_EXT1_LINETYPE
1070
   381
1005
14
1001
ACAD_DSTYLE_DIM_EXT2_LINETYPE
1070
   382
1005
14
  0
DIMSTYLE
105
73
330
A
100
AcDbSymbolTableRecord
100
AcDbDimStyleTableRecord
  2
AM_DIN$7
 70
     0
  4
"
 41
3.5
 42
1.0
 43
10.0
 44
1.0
 47
0.1
 48
0.1
 73
     0
 74
     0
 77
     1
 78
     8
 79
     2
140
3.5
141
0.0
143
0.0393701
146
0.71
147
1.5
172
     1
176
   256
177
   256
178
   140
271
     2
272
     3
274
     4
283
     0
284
     8
340
11
371
    -1
372
    -1
1001
ACAD_DSTYLE_DIMJOGGED_JOGANGLE_SYMBOL
1070
   384
1040
1.570796326794896
1001
ACAD_DSTYLE_DIM_LINETYPE
1070
   380
1005
14
1001
ACAD_DSTYLE_DIM_EXT1_LINETYPE
1070
   381
1005
14
1001
ACAD_DSTYLE_DIM_EXT2_LINETYPE
1070
   382
1005
14
  0
DIMSTYLE
105
74
330
A
100
AcDbSymbolTableRecord
100
AcDbDimStyleTableRecord
  2
AM_DIN$SF
 70
     0
  4
"
 41
3.5
 42
1.0
 43
10.0
 44
1.0
 47
0.1
 48
0.1
 73
     0
 74
     0
 75
     1
 76
     1
 77
     1
 78
     8
 79
     2
140
3.5
141
0.0
143
0.0393701
146
0.71
147
1.5
172
     1
176
   256
177
   256
178
   140
271
     2
272
     3
274
     4
283
     0
284
     8
340
11
371
    -1
372
    -1
1001
ACAD_DSTYLE_DIMJOGGED_JOGANGLE_SYMBOL
1070
   384
1040
1.570796326794896
1001
ACAD_DSTYLE_DIM_LINETYPE
1070
   380
1005
14
1001
ACAD_DSTYLE_DIM_EXT1_LINETYPE
1070
   381
1005
14
1001
ACAD_DSTYLE_DIM_EXT2_LINETYPE
1070
   382
1005
14
  0
DIMSTYLE
105
79
330
A
100
AcDbSymbolTableRecord
100
AcDbDimStyleTableRecord
  2
AM_DIN$SH
 70
     0
  4
"
 41
3.5
 42
1.0
 43
10.0
 44
1.0
 47
0.1
 48
0.1
 73
     0
 74
     0
 75
     1
 76
     1
 77
     1
 78
     8
 79
     2
140
3.5
141
0.0
143
0.0393701
144
2.0
146
0.71
147
1.5
172
     1
173
     1
176
   256
177
   256
178
   140
271
     2
272
     3
274
     4
283
     0
284
     8
340
11
343
75
371
    -1
372
    -1
1001
ACAD_DSTYLE_DIMJOGGED_JOGANGLE_SYMBOL
1070
   384
1040
1.570796326794896
1001
ACAD_DSTYLE_DIM_LINETYPE
1070
   380
1005
14
1001
ACAD_DSTYLE_DIM_EXT1_LINETYPE
1070
   381
1005
14
1001
ACAD_DSTYLE_DIM_EXT2_LINETYPE
1070
   382
1005
14
  0
DIMSTYLE
105
92
330
A
100
AcDbSymbolTableRecord
100
AcDbDimStyleTableRecord
  2
STANDARD
 70
     0
279
     2
340
11
  0
DIMSTYLE
105
345
330
A
100
AcDbSymbolTableRecord
100
AcDbDimStyleTableRecord
  2
AM_ANSI
 70
     0
  4
mm
 41
0.1
 42
0.05
 43
0.5
 44
0.1
 47
0.1
 48
0.1
 78
     7
 79
     2
140
0.12
141
0.0
146
0.71
147
0.06
176
   256
177
   256
178
     2
274
     4
284
     7
340
11
371
    -1
372
    -1
  0
DIMSTYLE
105
346
330
A
100
AcDbSymbolTableRecord
100
AcDbDimStyleTableRecord
  2
AM_ANSI$3
 70
     0
  4
mm
 41
0.1
 42
0.05
 43
0.5
 44
0.1
 47
0.1
 48
0.1
 78
     7
 79
     2
140
0.12
141
0.0
146
0.71
147
0.06
176
   256
177
   256
178
     2
274
     4
284
     7
288
     1
289
     0
340
11
371
    -1
372
    -1
  0
DIMSTYLE
105
347
330
A
100
AcDbSymbolTableRecord
100
AcDbDimStyleTableRecord
  2
AM_ANSI$4
 70
     0
  4
mm
 41
0.1
 42
0.05
 43
0.5
 44
0.1
 47
0.1
 48
0.1
 78
     7
 79
     2
140
0.12
141
0.0
146
0.71
147
0.06
176
   256
177
   256
178
     2
274
     4
284
     7
288
     1
289
     0
340
11
371
    -1
372
    -1
  0
DIMSTYLE
105
348
330
A
100
AcDbSymbolTableRecord
100
AcDbDimStyleTableRecord
  2
AM_ANSI$7
 70
     0
  4
mm
 41
0.1
 42
0.05
 43
0.5
 44
0.1
 47
0.1
 48
0.1
 78
     7
 79
     2
140
0.24
141
0.0
146
0.71
147
0.06
176
   256
177
   256
178
     2
274
     4
284
     7
340
11
371
    -1
372
    -1
  0
DIMSTYLE
105
349
330
A
100
AcDbSymbolTableRecord
100
AcDbDimStyleTableRecord
  2
AM_ANSI$SF
 70
     0
  4
mm
 41
0.1
 42
0.05
 43
0.5
 44
0.1
 47
0.1
 48
0.1
 75
     1
 76
     1
 78
     7
 79
     2
140
0.12
141
0.0
146
0.71
147
0.06
176
   256
177
   256
178
     2
274
     4
284
     7
340
11
371
    -1
372
    -1
  0
DIMSTYLE
105
34A
330
A
100
AcDbSymbolTableRecord
100
AcDbDimStyleTableRecord
  2
AM_ANSI$SH
 70
     0
  4
mm
 41
0.1
 42
0.05
 43
0.5
 44
0.1
 47
0.1
 48
0.1
 75
     1
 76
     1
 78
     7
 79
     2
140
0.12
141
0.0
146
0.71
147
0.06
173
     1
176
   256
177
   256
178
     2
274
     4
284
     7
340
11
343
75
371
    -1
372
    -1
  0
DIMSTYLE
105
2A82
330
A
100
AcDbSymbolTableRecord
100
AcDbDimStyleTableRecord
  2
AM_ISO
 70
     0
  4
"
 41
3.5
 42
1.0
 43
10.0
 44
1.0
 47
0.1
 48
0.1
 73
     0
 74
     0
 77
     1
 78
     8
 79
     2
140
3.5
141
0.0
143
0.0393701
146
0.71
147
1.5
172
     1
176
   256
177
   256
178
   140
271
     2
272
     3
274
     4
283
     0
284
     8
340
11
371
    -1
372
    -1
1001
ACAD_DSTYLE_DIMARC_LENGTH_SYMBOL
1070
   379
1070
     1
1001
ACAD_DSTYLE_DIM_LINETYPE
1070
   380
1005
14
1001
ACAD_DSTYLE_DIM_EXT1_LINETYPE
1070
   381
1005
14
1001
ACAD_DSTYLE_DIM_EXT2_LINETYPE
1070
   382
1005
14
  0
DIMSTYLE
105
2A83
330
A
100
AcDbSymbolTableRecord
100
AcDbDimStyleTableRecord
  2
AM_ISO$3
 70
     0
  4
"
 41
3.5
 42
1.0
 43
10.0
 44
1.0
 47
0.1
 48
0.1
 73
     0
 77
     1
 78
     8
 79
     2
140
3.5
141
0.0
143
0.0393701
146
0.71
147
1.5
176
   256
177
   256
178
   140
271
     2
272
     3
274
     4
283
     0
284
     8
288
     1
289
     0
340
11
371
    -1
372
    -1
1001
ACAD_DSTYLE_DIMARC_LENGTH_SYMBOL
1070
   379
1070
     1
1001
ACAD_DSTYLE_DIM_LINETYPE
1070
   380
1005
14
1001
ACAD_DSTYLE_DIM_EXT1_LINETYPE
1070
   381
1005
14
1001
ACAD_DSTYLE_DIM_EXT2_LINETYPE
1070
   382
1005
14
  0
DIMSTYLE
105
2A84
330
A
100
AcDbSymbolTableRecord
100
AcDbDimStyleTableRecord
  2
AM_ISO$4
 70
     0
  4
"
 41
3.5
 42
1.0
 43
10.0
 44
1.0
 47
0.1
 48
0.1
 73
     0
 74
     0
 77
     1
 78
     8
 79
     2
140
3.5
141
0.0
143
0.0393701
146
0.71
147
1.5
172
     1
176
   256
177
   256
178
   140
271
     2
272
     3
274
     4
283
     0
284
     8
340
11
371
    -1
372
    -1
1001
ACAD_DSTYLE_DIMARC_LENGTH_SYMBOL
1070
   379
1070
     1
1001
ACAD_DSTYLE_DIM_LINETYPE
1070
   380
1005
14
1001
ACAD_DSTYLE_DIM_EXT1_LINETYPE
1070
   381
1005
14
1001
ACAD_DSTYLE_DIM_EXT2_LINETYPE
1070
   382
1005
14
  0
DIMSTYLE
105
2A85
330
A
100
AcDbSymbolTableRecord
100
AcDbDimStyleTableRecord
  2
AM_ISO$6
 70
     0
  4
"
 41
3.5
 42
1.0
 43
10.0
 44
1.0
 47
0.1
 48
0.1
 73
     0
 74
     0
 78
     8
 79
     2
140
3.5
141
0.0
143
0.0393701
146
0.71
147
1.5
172
     1
176
   256
177
   256
178
   140
271
     2
272
     3
274
     4
283
     0
284
     8
340
11
371
    -1
372
    -1
1001
ACAD_DSTYLE_DIMARC_LENGTH_SYMBOL
1070
   379
1070
     1
1001
ACAD_DSTYLE_DIM_LINETYPE
1070
   380
1005
14
1001
ACAD_DSTYLE_DIM_EXT1_LINETYPE
1070
   381
1005
14
1001
ACAD_DSTYLE_DIM_EXT2_LINETYPE
1070
   382
1005
14
  0
DIMSTYLE
105
2A86
330
A
100
AcDbSymbolTableRecord
100
AcDbDimStyleTableRecord
  2
AM_ISO$7
 70
     0
  4
"
 41
3.5
 42
1.0
 43
10.0
 44
1.0
 47
0.1
 48
0.1
 73
     0
 74
     0
 77
     1
 78
     8
 79
     2
140
3.5
141
0.0
143
0.0393701
146
0.71
147
1.5
172
     1
176
   256
177
   256
178
   140
271
     2
272
     3
274
     4
283
     0
284
     8
340
11
371
    -1
372
    -1
1001
ACAD_DSTYLE_DIMARC_LENGTH_SYMBOL
1070
   379
1070
     1
1001
ACAD_DSTYLE_DIM_LINETYPE
1070
   380
1005
14
1001
ACAD_DSTYLE_DIM_EXT1_LINETYPE
1070
   381
1005
14
1001
ACAD_DSTYLE_DIM_EXT2_LINETYPE
1070
   382
1005
14
  0
DIMSTYLE
105
2A87
330
A
100
AcDbSymbolTableRecord
100
AcDbDimStyleTableRecord
  2
AM_ISO$SF
 70
     0
  4
"
 41
3.5
 42
1.0
 43
10.0
 44
1.0
 47
0.1
 48
0.1
 73
     0
 74
     0
 75
     1
 76
     1
 77
     1
 78
     8
 79
     2
140
3.5
141
0.0
143
0.0393701
146
0.71
147
1.5
172
     1
176
   256
177
   256
178
   140
271
     2
272
     3
274
     4
283
     0
284
     8
340
11
371
    -1
372
    -1
1001
ACAD_DSTYLE_DIMARC_LENGTH_SYMBOL
1070
   379
1070
     1
1001
ACAD_DSTYLE_DIM_LINETYPE
1070
   380
1005
14
1001
ACAD_DSTYLE_DIM_EXT1_LINETYPE
1070
   381
1005
14
1001
ACAD_DSTYLE_DIM_EXT2_LINETYPE
1070
   382
1005
14
  0
DIMSTYLE
105
2A88
330
A
100
AcDbSymbolTableRecord
100
AcDbDimStyleTableRecord
  2
AM_ISO$SH
 70
     0
  4
"
 41
3.5
 42
1.0
 43
10.0
 44
1.0
 47
0.1
 48
0.1
 73
     0
 74
     0
 75
     1
 76
     1
 77
     1
 78
     8
 79
     2
140
3.5
141
0.0
143
0.0393701
144
2.0
146
0.71
147
1.5
172
     1
173
     1
176
   256
177
   256
178
   140
271
     2
272
     3
274
     4
283
     0
284
     8
340
11
343
75
371
    -1
372
    -1
1001
ACAD_DSTYLE_DIMARC_LENGTH_SYMBOL
1070
   379
1070
     1
1001
ACAD_DSTYLE_DIM_LINETYPE
1070
   380
1005
14
1001
ACAD_DSTYLE_DIM_EXT1_LINETYPE
1070
   381
1005
14
1001
ACAD_DSTYLE_DIM_EXT2_LINETYPE
1070
   382
1005
14
  0
ENDTAB
  0
TABLE
  2
BLOCK_RECORD
  5
1
330
0
100
AcDbSymbolTable
 70
    18
  0
BLOCK_RECORD
  5
1F
102
{ACAD_XDICTIONARY
360
81
102
}
330
1
100
AcDbSymbolTableRecord
100
AcDbBlockTableRecord
  2
*Model_Space
340
22
  0
BLOCK_RECORD
  5
1B
330
1
100
AcDbSymbolTableRecord
100
AcDbBlockTableRecord
  2
*Paper_Space
340
1E
  0
BLOCK_RECORD
  5
23
330
1
100
AcDbSymbolTableRecord
100
AcDbBlockTableRecord
  2
*Paper_Space0
340
26
  0
BLOCK_RECORD
  5
75
330
1
100
AcDbSymbolTableRecord
100
AcDbBlockTableRecord
  2
GENAXEH
340
0
  0
BLOCK_RECORD
  5
2688
330
1
100
AcDbSymbolTableRecord
100
AcDbBlockTableRecord
  2
AI9-BLK1
340
0
  0
BLOCK_RECORD
  5
268C
330
1
100
AcDbSymbolTableRecord
100
AcDbBlockTableRecord
  2
AI9-BLK2
340
0
102
{BLKREFS
331
268A
102
}
  0
BLOCK_RECORD
  5
2690
330
1
100
AcDbSymbolTableRecord
100
AcDbBlockTableRecord
  2
AI9-BLK3
340
0
102
{BLKREFS
331
268E
102
}
  0
BLOCK_RECORD
  5
269B
330
1
100
AcDbSymbolTableRecord
100
AcDbBlockTableRecord
  2
AI9-BLK4
340
0
102
{BLKREFS
331
2699
102
}
  0
BLOCK_RECORD
  5
269F
330
1
100
AcDbSymbolTableRecord
100
AcDbBlockTableRecord
  2
AI9-BLK5
340
0
102
{BLKREFS
331
2698
102
}
  0
BLOCK_RECORD
  5
26AC
330
1
100
AcDbSymbolTableRecord
100
AcDbBlockTableRecord
  2
AI9-BLK6
340
0
102
{BLKREFS
331
26A7
102
}
  0
BLOCK_RECORD
  5
26B5
330
1
100
AcDbSymbolTableRecord
100
AcDbBlockTableRecord
  2
AI9-BLK7
340
0
102
{BLKREFS
331
2697
102
}
  0
BLOCK_RECORD
  5
26C2
330
1
100
AcDbSymbolTableRecord
100
AcDbBlockTableRecord
  2
AI9-BLK8
340
0
102
{BLKREFS
331
26BD
102
}
  0
BLOCK_RECORD
  5
26CB
330
1
100
AcDbSymbolTableRecord
100
AcDbBlockTableRecord
  2
AI9-BLK9
340
0
  0
BLOCK_RECORD
  5
26CF
330
1
100
AcDbSymbolTableRecord
100
AcDbBlockTableRecord
  2
AI9-BLK10
340
0
102
{BLKREFS
331
26CD
102
}
  0
BLOCK_RECORD
  5
26D3
330
1
100
AcDbSymbolTableRecord
100
AcDbBlockTableRecord
  2
AI9-BLK11
340
0
102
{BLKREFS
331
26D1
102
}
  0
BLOCK_RECORD
  5
26D7
330
1
100
AcDbSymbolTableRecord
100
AcDbBlockTableRecord
  2
AI9-BLK12
340
0
102
{BLKREFS
331
26D5
102
}
  0
BLOCK_RECORD
  5
26DF
330
1
100
AcDbSymbolTableRecord
100
AcDbBlockTableRecord
  2
AI9-BLK13
340
0
102
{BLKREFS
331
26DD
102
}
  0
BLOCK_RECORD
  5
26E6
330
1
100
AcDbSymbolTableRecord
100
AcDbBlockTableRecord
  2
AI9-BLK14
340
0
102
{BLKREFS
331
26DC
102
}
  0
BLOCK_RECORD
  5
26EE
330
1
100
AcDbSymbolTableRecord
100
AcDbBlockTableRecord
  2
AI9-BLK15
340
0
102
{BLKREFS
331
26DB
102
}
  0
ENDTAB
  0
ENDSEC
  0
SECTION
  2
BLOCKS
  0
BLOCK
  5
20
330
1F
100
AcDbEntity
  8
0
100
AcDbBlockBegin
  2
*Model_Space
 70
     0
 10
0.0
 20
0.0
 30
0.0
  3
*Model_Space
  1

  0
ENDBLK
  5
21
330
1F
100
AcDbEntity
  8
0
100
AcDbBlockEnd
  0
BLOCK
  5
1C
330
1B
100
AcDbEntity
 67
     1
  8
0
100
AcDbBlockBegin
  2
*Paper_Space
 70
     0
 10
0.0
 20
0.0
 30
0.0
  3
*Paper_Space
  1

  0
ENDBLK
  5
1D
330
1B
100
AcDbEntity
 67
     1
  8
0
100
AcDbBlockEnd
  0
BLOCK
  5
24
330
23
100
AcDbEntity
 67
     1
  8
0
100
AcDbBlockBegin
  2
*Paper_Space0
 70
     0
 10
0.0
 20
0.0
 30
0.0
  3
*Paper_Space0
  1

  0
ENDBLK
  5
25
330
23
100
AcDbEntity
 67
     1
  8
0
100
AcDbBlockEnd
  0
BLOCK
  5
77
330
75
100
AcDbEntity
  8
0
100
AcDbBlockBegin
  2
GENAXEH
 70
     0
 10
0.0
 20
0.0
 30
0.0
  3
GENAXEH
  1

  0
LINE
  5
76
330
75
100
AcDbEntity
  8
0
100
AcDbLine
 10
-1.0
 20
0.0
 30
0.0
 11
1.0
 21
0.0
 31
0.0
  0
ENDBLK
  5
78
330
75
100
AcDbEntity
  8
0
100
AcDbBlockEnd
  0
BLOCK
  5
2689
330
2688
100
AcDbEntity
  8
0
 62
     7
100
AcDbBlockBegin
  2
AI9-BLK1
 70
     0
 10
0.0
 20
0.0
 30
0.0
  3
AI9-BLK1
  1

  0
INSERT
  5
268A
330
2688
100
AcDbEntity
  8
0
 62
     7
100
AcDbBlockReference
  2
AI9-BLK2
 10
0.0
 20
0.0
 30
0.0
  0
ENDBLK
  5
268B
330
2688
100
AcDbEntity
  8
0
100
AcDbBlockEnd
  0
BLOCK
  5
268D
330
268C
100
AcDbEntity
  8
0
 62
     7
100
AcDbBlockBegin
  2
AI9-BLK2
 70
     0
 10
0.0
 20
0.0
 30
0.0
  3
AI9-BLK2
  1

  0
INSERT
  5
268E
330
268C
100
AcDbEntity
  8
0
 62
     7
100
AcDbBlockReference
  2
AI9-BLK3
 10
0.0
 20
0.0
 30
0.0
  0
ENDBLK
  5
268F
330
268C
100
AcDbEntity
  8
0
100
AcDbBlockEnd
  0
BLOCK
  5
2691
330
2690
100
AcDbEntity
  8
0
 62
     7
100
AcDbBlockBegin
  2
AI9-BLK3
 70
     0
 10
0.0
 20
0.0
 30
0.0
  3
AI9-BLK3
  1

  0
POLYLINE
  5
2692
330
2690
100
AcDbEntity
  8
0
 62
     7
100
AcDb2dPolyline
 66
     1
 10
0.0
 20
0.0
 30
0.0
  0
VERTEX
  5
2693
330
2692
100
AcDbEntity
  8
0
 62
     7
100
AcDbVertex
100
AcDb2dVertex
 10
-148.4353841145833
 20
-216.0598524305555
 30
0.0
  0
VERTEX
  5
2694
330
2692
100
AcDbEntity
  8
0
 62
     7
100
AcDbVertex
100
AcDb2dVertex
 10
1.299490017361111
 20
-219.5876302083333
 30
0.0
  0
VERTEX
  5
2695
330
2692
100
AcDbEntity
  8
0
 62
     7
100
AcDbVertex
100
AcDb2dVertex
 10
87.05480685763888
 20
-217.7052300347222
 30
0.0
  0
SEQEND
  5
2696
330
2692
100
AcDbEntity
  8
0
 62
     7
  0
INSERT
  5
2697
330
2690
100
AcDbEntity
  8
0
 62
     7
100
AcDbBlockReference
  2
AI9-BLK7
 10
401.1358940972222
 20
-0.0027560763888889
 30
0.0
  0
INSERT
  5
2698
330
2690
100
AcDbEntity
  8
0
 62
     7
100
AcDbBlockReference
  2
AI9-BLK5
 10
-399.5704427083333
 20
0.0027560763888889
 30
0.0
  0
INSERT
  5
2699
330
2690
100
AcDbEntity
  8
0
 62
     7
100
AcDbBlockReference
  2
AI9-BLK4
 10
1.948546006944444
 20
167.2001302083333
 30
0.0
  0
ENDBLK
  5
269A
330
2690
100
AcDbEntity
  8
0
100
AcDbBlockEnd
  0
BLOCK
  5
269C
330
269B
100
AcDbEntity
  8
0
 62
     7
100
AcDbBlockBegin
  2
AI9-BLK4
 70
     0
 10
0.0
 20
0.0
 30
0.0
  3
AI9-BLK4
  1

  0
CIRCLE
  5
269D
330
269B
100
AcDbEntity
  8
0
 62
     7
100
AcDbCircle
 10
0.0
 20
0.0
 30
0.0
 40
24.81708984375
  0
ENDBLK
  5
269E
330
269B
100
AcDbEntity
  8
0
100
AcDbBlockEnd
  0
BLOCK
  5
26A0
330
269F
100
AcDbEntity
  8
0
 62
     7
100
AcDbBlockBegin
  2
AI9-BLK5
 70
     0
 10
0.0
 20
0.0
 30
0.0
  3
AI9-BLK5
  1

  0
POLYLINE
  5
26A1
330
269F
100
AcDbEntity
  8
0
 62
     7
100
AcDb2dPolyline
 66
     1
 10
0.0
 20
0.0
 30
0.0
  0
VERTEX
  5
26A2
330
26A1
100
AcDbEntity
  8
0
 62
     7
100
AcDbVertex
100
AcDb2dVertex
 10
354.3005099826388
 20
-227.4148871527778
 30
0.0
  0
VERTEX
  5
26A3
330
26A1
100
AcDbEntity
  8
0
 62
     7
100
AcDbVertex
100
AcDb2dVertex
 10
365.0188910590277
 20
-239.9633029513889
 30
0.0
  0
VERTEX
  5
26A4
330
26A1
100
AcDbEntity
  8
0
 62
     7
100
AcDbVertex
100
AcDb2dVertex
 10
401.5203667534721
 20
-239.9633029513889
 30
0.0
  0
SEQEND
  5
26A5
330
26A1
100
AcDbEntity
  8
0
 62
     7
  0
SPLINE
  5
26A6
330
269F
100
AcDbEntity
  8
0
 62
     7
100
AcDbSpline
210
0.0
220
0.0
230
1.0
 70
     8
 71
     3
 72
    17
 73
    13
 74
     0
 42
0.0000000001
 43
0.0000000001
 40
0.0
 40
0.0
 40
0.0
 40
0.0
 40
1.0
 40
1.0
 40
1.0
 40
2.0
 40
2.0
 40
2.0
 40
3.0
 40
3.0
 40
3.0
 40
4.0
 40
4.0
 40
4.0
 40
4.0
 10
401.399099392361
 20
-227.4066189236111
 30
0.0
 10
401.399099392361
 20
-227.4066189236111
 30
0.0
 10
15.81574435763888
 20
-222.6220703125
 30
0.0
 10
15.81574435763888
 20
-222.6220703125
 30
0.0
 10
20.20341796875
 20
-222.6220703125
 30
0.0
 10
-21.87084418402777
 20
-225.6317057291667
 30
0.0
 10
-46.20699869791666
 20
-190.7177300347222
 30
0.0
 10
-180.41689453125
 20
1.83279079861111
 30
0.0
 10
-209.3612087673611
 20
61.47703993055555
 30
0.0
 10
-254.5608615451389
 20
135.9159071180555
 30
0.0
 10
-266.9025716145833
 20
157.0329644097222
 30
0.0
 10
-281.3058268229166
 20
187.3828776041666
 30
0.0
 10
-320.1113823784722
 20
214.7314236111111
 30
0.0
  0
INSERT
  5
26A7
330
269F
100
AcDbEntity
  8
0
 62
     7
100
AcDbBlockReference
  2
AI9-BLK6
 10
134.0583116319444
 20
-229.9683919270833
 30
0.0
  0
SPLINE
  5
26A8
330
269F
100
AcDbEntity
  8
0
 62
     7
100
AcDbSpline
210
0.0
220
0.0
230
1.0
 70
     8
 71
     3
 72
    17
 73
    13
 74
     0
 42
0.0000000001
 43
0.0000000001
 40
0.0
 40
0.0
 40
0.0
 40
0.0
 40
1.0
 40
1.0
 40
1.0
 40
2.0
 40
2.0
 40
2.0
 40
3.0
 40
3.0
 40
3.0
 40
4.0
 40
4.0
 40
4.0
 40
4.0
 10
400.7514214409722
 20
215.2688585069444
 30
0.0
 10
400.7514214409722
 20
215.2688585069444
 30
0.0
 10
-401.5203667534721
 20
215.2688585069444
 30
0.0
 10
-401.5203667534721
 20
215.2688585069444
 30
0.0
 10
-401.5203667534721
 20
224.5292751736111
 30
0.0
 10
-401.5148546006944
 20
227.1751085069444
 30
0.0
 10
-401.5148546006944
 20
235.8402126736111
 30
0.0
 10
-401.5148546006944
 20
238.6376302083333
 30
0.0
 10
-399.9466471354166
 20
240.9169053819444
 30
0.0
 10
-396.438161892361
 20
240.9169053819444
 30
0.0
 10
-396.438161892361
 20
240.9169053819444
 30
0.0
 10
400.7514214409722
 20
240.9169053819444
 30
0.0
 10
400.7514214409722
 20
240.9169053819444
 30
0.0
  0
LINE
  5
26A9
330
269F
100
AcDbEntity
  8
0
 62
     7
100
AcDbLine
 10
400.7514214409722
 20
234.5669053819444
 30
0.0
 11
-391.5681749131944
 21
234.5669053819444
 31
0.0
  0
LINE
  5
26AA
330
269F
100
AcDbEntity
  8
0
 62
     7
100
AcDbLine
 10
220.7024631076389
 20
-238.4943142361111
 30
0.0
 11
364.9031358506944
 21
-240.9169053819444
 31
0.0
  0
ENDBLK
  5
26AB
330
269F
100
AcDbEntity
  8
0
100
AcDbBlockEnd
  0
BLOCK
  5
26AD
330
26AC
100
AcDbEntity
  8
0
 62
     7
100
AcDbBlockBegin
  2
AI9-BLK6
 70
     0
 10
0.0
 20
0.0
 30
0.0
  3
AI9-BLK6
  1

  0
POLYLINE
  5
26AE
330
26AC
100
AcDbEntity
  8
0
 62
     7
100
AcDb2dPolyline
 66
     1
 10
0.0
 20
0.0
 30
0.0
  0
VERTEX
  5
26AF
330
26AE
100
AcDbEntity
  8
0
 62
     7
100
AcDbVertex
100
AcDb2dVertex
 10
-98.55315755208332
 20
8.525922309027777
 30
0.0
  0
VERTEX
  5
26B0
330
26AE
100
AcDbEntity
  8
0
 62
     7
100
AcDbVertex
100
AcDb2dVertex
 10
-81.79621310763888
 20
-3.821299913194444
 30
0.0
  0
VERTEX
  5
26B1
330
26AE
100
AcDbEntity
  8
0
 62
     7
100
AcDbVertex
100
AcDb2dVertex
 10
86.64415147569444
 20
-8.525922309027777
 30
0.0
  0
VERTEX
  5
26B2
330
26AE
100
AcDbEntity
  8
0
 62
     7
100
AcDbVertex
100
AcDb2dVertex
 10
98.55315755208332
 20
3.38308376736111
 30
0.0
  0
SEQEND
  5
26B3
330
26AE
100
AcDbEntity
  8
0
 62
     7
  0
ENDBLK
  5
26B4
330
26AC
100
AcDbEntity
  8
0
100
AcDbBlockEnd
  0
BLOCK
  5
26B6
330
26B5
100
AcDbEntity
  8
0
 62
     7
100
AcDbBlockBegin
  2
AI9-BLK7
 70
     0
 10
0.0
 20
0.0
 30
0.0
  3
AI9-BLK7
  1

  0
POLYLINE
  5
26B7
330
26B5
100
AcDbEntity
  8
0
 62
     7
100
AcDb2dPolyline
 66
     1
 10
0.0
 20
0.0
 30
0.0
  0
VERTEX
  5
26B8
330
26B7
100
AcDbEntity
  8
0
 62
     7
100
AcDbVertex
100
AcDb2dVertex
 10
-352.73505859375
 20
-227.4176432291667
 30
0.0
  0
VERTEX
  5
26B9
330
26B7
100
AcDbEntity
  8
0
 62
     7
100
AcDbVertex
100
AcDb2dVertex
 10
-363.4534396701389
 20
-239.9633029513889
 30
0.0
  0
VERTEX
  5
26BA
330
26B7
100
AcDbEntity
  8
0
 62
     7
100
AcDbVertex
100
AcDb2dVertex
 10
-399.9549153645833
 20
-239.9633029513889
 30
0.0
  0
SEQEND
  5
26BB
330
26B7
100
AcDbEntity
  8
0
 62
     7
  0
SPLINE
  5
26BC
330
26B5
100
AcDbEntity
  8
0
 62
     7
100
AcDbSpline
210
0.0
220
0.0
230
1.0
 70
     8
 71
     3
 72
    17
 73
    13
 74
     0
 42
0.0000000001
 43
0.0000000001
 40
0.0
 40
0.0
 40
0.0
 40
0.0
 40
1.0
 40
1.0
 40
1.0
 40
2.0
 40
2.0
 40
2.0
 40
3.0
 40
3.0
 40
3.0
 40
4.0
 40
4.0
 40
4.0
 40
4.0
 10
-399.8364040798611
 20
-227.4066189236111
 30
0.0
 10
-399.8364040798611
 20
-227.4066189236111
 30
0.0
 10
190.48759765625
 20
-221.7346137152778
 30
0.0
 10
190.48759765625
 20
-221.7346137152778
 30
0.0
 10
218.4700412326389
 20
-221.7346137152778
 30
0.0
 10
232.8181749131944
 20
-219.1824869791666
 30
0.0
 10
237.6468207465278
 20
-198.3355251736111
 30
0.0
 10
269.6972330729166
 20
-60.05766059027777
 30
0.0
 10
285.6466471354167
 20
48.1679470486111
 30
0.0
 10
299.62822265625
 20
142.8557074652777
 30
0.0
 10
302.3594943576389
 20
170.8216145833333
 30
0.0
 10
314.9933485243055
 20
201.7530598958333
 30
0.0
 10
330.4273763020833
 20
214.1002821180555
 30
0.0
  0
INSERT
  5
26BD
330
26B5
100
AcDbEntity
  8
0
 62
     7
100
AcDbBlockReference
  2
AI9-BLK8
 10
-29.53962673611111
 20
-230.1971462673611
 30
0.0
  0
SPLINE
  5
26BE
330
26B5
100
AcDbEntity
  8
0
 62
     7
100
AcDbSpline
210
0.0
220
0.0
230
1.0
 70
     8
 71
     3
 72
    17
 73
    13
 74
     0
 42
0.0000000001
 43
0.0000000001
 40
0.0
 40
0.0
 40
0.0
 40
0.0
 40
1.0
 40
1.0
 40
1.0
 40
2.0
 40
2.0
 40
2.0
 40
3.0
 40
3.0
 40
3.0
 40
4.0
 40
4.0
 40
4.0
 40
4.0
 10
-399.1859700520833
 20
215.2688585069444
 30
0.0
 10
-399.1859700520833
 20
215.2688585069444
 30
0.0
 10
399.9549153645833
 20
215.2688585069444
 30
0.0
 10
399.9549153645833
 20
215.2688585069444
 30
0.0
 10
399.9549153645833
 20
224.5292751736111
 30
0.0
 10
399.9521592881944
 20
227.1751085069444
 30
0.0
 10
399.9521592881944
 20
235.8347005208333
 30
0.0
 10
399.9521592881944
 20
238.6348741319444
 30
0.0
 10
398.3839518229166
 20
240.9169053819444
 30
0.0
 10
394.87822265625
 20
240.9169053819444
 30
0.0
 10
394.87822265625
 20
240.9169053819444
 30
0.0
 10
-399.1859700520833
 20
240.9169053819444
 30
0.0
 10
-399.1859700520833
 20
240.9169053819444
 30
0.0
  0
LINE
  5
26BF
330
26B5
100
AcDbEntity
  8
0
 62
     7
100
AcDbLine
 10
-399.1859700520833
 20
234.5641493055556
 30
0.0
 11
390.0054796006944
 21
234.5641493055556
 31
0.0
  0
LINE
  5
26C0
330
26B5
100
AcDbEntity
  8
0
 62
     7
100
AcDbLine
 10
-219.1342556423611
 20
-238.4970703125
 30
0.0
 11
-363.3404405381944
 21
-240.9169053819444
 31
0.0
  0
ENDBLK
  5
26C1
330
26B5
100
AcDbEntity
  8
0
100
AcDbBlockEnd
  0
BLOCK
  5
26C3
330
26C2
100
AcDbEntity
  8
0
 62
     7
100
AcDbBlockBegin
  2
AI9-BLK8
 70
     0
 10
0.0
 20
0.0
 30
0.0
  3
AI9-BLK8
  1

  0
POLYLINE
  5
26C4
330
26C2
100
AcDbEntity
  8
0
 62
     7
100
AcDb2dPolyline
 66
     1
 10
0.0
 20
0.0
 30
0.0
  0
VERTEX
  5
26C5
330
26C4
100
AcDbEntity
  8
0
 62
     7
100
AcDbVertex
100
AcDb2dVertex
 10
201.5091471354166
 20
8.299924045138888
 30
0.0
  0
VERTEX
  5
26C6
330
26C4
100
AcDbEntity
  8
0
 62
     7
100
AcDbVertex
100
AcDb2dVertex
 10
184.7522026909722
 20
-4.047298177083333
 30
0.0
  0
VERTEX
  5
26C7
330
26C4
100
AcDbEntity
  8
0
 62
     7
100
AcDbVertex
100
AcDb2dVertex
 10
-189.59462890625
 20
-8.299924045138888
 30
0.0
  0
VERTEX
  5
26C8
330
26C4
100
AcDbEntity
  8
0
 62
     7
100
AcDbVertex
100
AcDb2dVertex
 10
-201.5091471354166
 20
3.611838107638888
 30
0.0
  0
SEQEND
  5
26C9
330
26C4
100
AcDbEntity
  8
0
 62
     7
  0
ENDBLK
  5
26CA
330
26C2
100
AcDbEntity
  8
0
100
AcDbBlockEnd
  0
BLOCK
  5
26CC
330
26CB
100
AcDbEntity
  8
0
 62
     7
100
AcDbBlockBegin
  2
AI9-BLK9
 70
     0
 10
0.0
 20
0.0
 30
0.0
  3
AI9-BLK9
  1

  0
INSERT
  5
26CD
330
26CB
100
AcDbEntity
  8
0
 62
     7
100
AcDbBlockReference
  2
AI9-BLK10
 10
0.0
 20
0.0
 30
0.0
  0
ENDBLK
  5
26CE
330
26CB
100
AcDbEntity
  8
0
100
AcDbBlockEnd
  0
BLOCK
  5
26D0
330
26CF
100
AcDbEntity
  8
0
 62
     7
100
AcDbBlockBegin
  2
AI9-BLK10
 70
     0
 10
0.0
 20
0.0
 30
0.0
  3
AI9-BLK10
  1

  0
INSERT
  5
26D1
330
26CF
100
AcDbEntity
  8
0
 62
     7
100
AcDbBlockReference
  2
AI9-BLK11
 10
0.0
 20
0.0
 30
0.0
  0
ENDBLK
  5
26D2
330
26CF
100
AcDbEntity
  8
0
100
AcDbBlockEnd
  0
BLOCK
  5
26D4
330
26D3
100
AcDbEntity
  8
0
 62
     7
100
AcDbBlockBegin
  2
AI9-BLK11
 70
     0
 10
0.0
 20
0.0
 30
0.0
  3
AI9-BLK11
  1

  0
INSERT
  5
26D5
330
26D3
100
AcDbEntity
  8
0
 62
     7
100
AcDbBlockReference
  2
AI9-BLK12
 10
0.0
 20
0.0
 30
0.0
  0
ENDBLK
  5
26D6
330
26D3
100
AcDbEntity
  8
0
100
AcDbBlockEnd
  0
BLOCK
  5
26D8
330
26D7
100
AcDbEntity
  8
0
 62
     7
100
AcDbBlockBegin
  2
AI9-BLK12
 70
     0
 10
0.0
 20
0.0
 30
0.0
  3
AI9-BLK12
  1

  0
SPLINE
  5
26D9
330
26D7
100
AcDbEntity
  8
0
 62
     7
100
AcDbSpline
210
0.0
220
0.0
230
1.0
 70
    11
 71
     3
 72
    29
 73
    25
 74
     0
 42
0.0000000001
 43
0.0000000001
 40
0.0
 40
0.0
 40
0.0
 40
0.0
 40
1.0
 40
1.0
 40
1.0
 40
2.0
 40
2.0
 40
2.0
 40
3.0
 40
3.0
 40
3.0
 40
4.0
 40
4.0
 40
4.0
 40
5.0
 40
5.0
 40
5.0
 40
6.0
 40
6.0
 40
6.0
 40
7.0
 40
7.0
 40
7.0
 40
8.0
 40
8.0
 40
8.0
 40
8.0
 10
-801.1996744791666
 20
348.0869357638888
 30
0.0
 10
-801.1996744791666
 20
349.6330946180555
 30
0.0
 10
-799.9511718749999
 20
350.887109375
 30
0.0
 10
-798.4050130208332
 20
350.887109375
 30
0.0
 10
-798.4050130208332
 20
350.887109375
 30
0.0
 10
797.8014322916666
 20
350.887109375
 30
0.0
 10
797.8014322916666
 20
350.887109375
 30
0.0
 10
799.3475911458332
 20
350.887109375
 30
0.0
 10
800.6043619791665
 20
349.6330946180555
 30
0.0
 10
800.6043619791665
 20
348.0869357638888
 30
0.0
 10
800.6043619791665
 20
348.0869357638888
 30
0.0
 10
801.1996744791666
 20
-348.0869357638888
 30
0.0
 10
801.1996744791666
 20
-348.0869357638888
 30
0.0
 10
801.1996744791666
 20
-349.6303385416666
 30
0.0
 10
799.9456597222221
 20
-350.887109375
 30
0.0
 10
798.3995008680555
 20
-350.887109375
 30
0.0
 10
798.3995008680555
 20
-350.887109375
 30
0.0
 10
-797.8069444444444
 20
-350.887109375
 30
0.0
 10
-797.8069444444444
 20
-350.887109375
 30
0.0
 10
-799.353103298611
 20
-350.887109375
 30
0.0
 10
-800.6098741319444
 20
-349.6303385416666
 30
0.0
 10
-800.6098741319444
 20
-348.0869357638888
 30
0.0
 10
-800.6098741319444
 20
-348.0869357638888
 30
0.0
 10
-801.1996744791666
 20
348.0869357638888
 30
0.0
 10
-801.1996744791666
 20
348.0869357638888
 30
0.0
  0
ELLIPSE
  5
26DA
330
26D7
100
AcDbEntity
  8
0
 62
     7
100
AcDbEllipse
 10
-1.936143663194444
 20
-237.2430555555555
 30
0.0
 11
-35.64295789930555
 21
0.0
 31
0.0
210
0.0
220
0.0
230
1.0
 40
0.152638700947226
 41
0.0
 42
6.283185307179586
  0
INSERT
  5
26DB
330
26D7
100
AcDbEntity
  8
0
 62
     7
100
AcDbBlockReference
  2
AI9-BLK15
 10
-0.7882378472222222
 20
164.256640625
 30
0.0
  0
INSERT
  5
26DC
330
26D7
100
AcDbEntity
  8
0
 62
     7
100
AcDbBlockReference
  2
AI9-BLK14
 10
-0.7951280381944443
 20
-111.968359375
 30
0.0
  0
INSERT
  5
26DD
330
26D7
100
AcDbEntity
  8
0
 62
     7
100
AcDbBlockReference
  2
AI9-BLK13
 10
-3.474034288194443
 20
25.64391276041666
 30
0.0
  0
ENDBLK
  5
26DE
330
26D7
100
AcDbEntity
  8
0
100
AcDbBlockEnd
  0
BLOCK
  5
26E0
330
26DF
100
AcDbEntity
  8
0
 62
     7
100
AcDbBlockBegin
  2
AI9-BLK13
 70
     0
 10
0.0
 20
0.0
 30
0.0
  3
AI9-BLK13
  1

  0
CIRCLE
  5
26E1
330
26DF
100
AcDbEntity
  8
0
 62
     7
100
AcDbCircle
 10
1.230588107638888
 20
0.1005967881944444
 30
0.0
 40
27.37472873263889
  0
LINE
  5
26E2
330
26DF
100
AcDbEntity
  8
0
 62
     7
100
AcDbLine
 10
64.86287977430555
 20
0.0564995659722222
 30
0.0
 11
-64.86287977430555
 21
0.0564995659722222
 31
0.0
  0
LINE
  5
26E3
330
26DF
100
AcDbEntity
  8
0
 62
     7
100
AcDbLine
 10
1.227832031249999
 20
-64.86287977430555
 30
0.0
 11
1.227832031249999
 21
64.86287977430555
 31
0.0
  0
CIRCLE
  5
26E4
330
26DF
100
AcDbEntity
  8
0
 62
     7
100
AcDbCircle
 10
1.230588107638888
 20
0.4947157118055556
 30
0.0
 40
47.24466145833332
  0
ENDBLK
  5
26E5
330
26DF
100
AcDbEntity
  8
0
100
AcDbBlockEnd
  0
BLOCK
  5
26E7
330
26E6
100
AcDbEntity
  8
0
 62
     7
100
AcDbBlockBegin
  2
AI9-BLK14
 70
     0
 10
0.0
 20
0.0
 30
0.0
  3
AI9-BLK14
  1

  0
SPLINE
  5
26E8
330
26E6
100
AcDbEntity
  8
0
 62
     7
100
AcDbSpline
210
0.0
220
0.0
230
1.0
 70
     8
 71
     3
 72
    14
 73
    10
 74
     0
 42
0.0000000001
 43
0.0000000001
 40
0.0
 40
0.0
 40
0.0
 40
0.0
 40
1.0
 40
1.0
 40
1.0
 40
2.0
 40
2.0
 40
2.0
 40
3.0
 40
3.0
 40
3.0
 40
3.0
 10
-1.456586371527777
 20
-138.6802517361111
 30
0.0
 10
-1.456586371527777
 20
-138.6802517361111
 30
0.0
 10
-692.4765950520833
 20
-138.6802517361111
 30
0.0
 10
-692.4765950520833
 20
-138.6802517361111
 30
0.0
 10
-720.1586263020832
 20
-138.6802517361111
 30
0.0
 10
-748.2650933159722
 20
-132.506640625
 30
0.0
 10
-748.2650933159722
 20
-107.2389322916666
 30
0.0
 10
-748.2650933159722
 20
-15.21354166666666
 30
0.0
 10
-748.2650933159722
 20
48.75774739583333
 30
0.0
 10
-748.2650933159722
 20
138.6802517361111
 30
0.0
  0
SPLINE
  5
26E9
330
26E6
100
AcDbEntity
  8
0
 62
     7
100
AcDbSpline
210
0.0
220
0.0
230
1.0
 70
     8
 71
     3
 72
    14
 73
    10
 74
     0
 42
0.0000000001
 43
0.0000000001
 40
0.0
 40
0.0
 40
0.0
 40
0.0
 40
1.0
 40
1.0
 40
1.0
 40
2.0
 40
2.0
 40
2.0
 40
3.0
 40
3.0
 40
3.0
 40
3.0
 10
-1.456586371527777
 20
-61.35301649305555
 30
0.0
 10
-1.456586371527777
 20
-61.35301649305555
 30
0.0
 10
-374.4612087673611
 20
-61.35301649305555
 30
0.0
 10
-374.4612087673611
 20
-61.35301649305555
 30
0.0
 10
-407.9475368923611
 20
-61.35301649305555
 30
0.0
 10
-421.4247504340277
 20
-50.99292534722222
 30
0.0
 10
-421.4247504340277
 20
-25.76655815972222
 30
0.0
 10
-421.4247504340277
 20
43.00030381944444
 30
0.0
 10
-421.4247504340277
 20
55.8325954861111
 30
0.0
 10
-421.4247504340277
 20
136.4919270833333
 30
0.0
  0
SPLINE
  5
26EA
330
26E6
100
AcDbEntity
  8
0
 62
     7
100
AcDbSpline
210
0.0
220
0.0
230
1.0
 70
     8
 71
     3
 72
    11
 73
     7
 74
     0
 42
0.0000000001
 43
0.0000000001
 40
0.0
 40
0.0
 40
0.0
 40
0.0
 40
1.0
 40
1.0
 40
1.0
 40
2.0
 40
2.0
 40
2.0
 40
2.0
 10
-708.6106662326387
 20
-122.5213758680555
 30
0.0
 10
-682.634646267361
 20
-119.6908854166666
 30
0.0
 10
-667.7242730034721
 20
-119.0955729166666
 30
0.0
 10
-642.2553710937498
 20
-113.2499348958333
 30
0.0
 10
-563.5308051215276
 20
-95.18109809027777
 30
0.0
 10
-510.2530924479166
 20
-80.03370225694444
 30
0.0
 10
-425.5864257812499
 20
-53.13439670138889
 30
0.0
  0
SPLINE
  5
26EB
330
26E6
100
AcDbEntity
  8
0
 62
     7
100
AcDbSpline
210
0.0
220
0.0
230
1.0
 70
     8
 71
     3
 72
    11
 73
     7
 74
     0
 42
0.0000000001
 43
0.0000000001
 40
0.0
 40
0.0
 40
0.0
 40
0.0
 40
1.0
 40
1.0
 40
1.0
 40
2.0
 40
2.0
 40
2.0
 40
2.0
 10
-1.456586371527777
 20
-61.35301649305555
 30
0.0
 10
-1.456586371527777
 20
-61.35301649305555
 30
0.0
 10
402.1349717881944
 20
-61.35301649305555
 30
0.0
 10
402.1349717881944
 20
-61.35301649305555
 30
0.0
 10
560.4274631076387
 20
-61.35301649305555
 30
0.0
 10
629.3100802951388
 20
47.65807291666666
 30
0.0
 10
629.3100802951388
 20
138.5975694444444
 30
0.0
  0
SPLINE
  5
26EC
330
26E6
100
AcDbEntity
  8
0
 62
     7
100
AcDbSpline
210
0.0
220
0.0
230
1.0
 70
     8
 71
     3
 72
    11
 73
     7
 74
     0
 42
0.0000000001
 43
0.0000000001
 40
0.0
 40
0.0
 40
0.0
 40
0.0
 40
1.0
 40
1.0
 40
1.0
 40
2.0
 40
2.0
 40
2.0
 40
2.0
 10
-1.456586371527777
 20
-138.6802517361111
 30
0.0
 10
-1.456586371527777
 20
-138.6802517361111
 30
0.0
 10
475.1296549479166
 20
-138.6802517361111
 30
0.0
 10
475.1296549479166
 20
-138.6802517361111
 30
0.0
 10
616.8719075520832
 20
-138.6802517361111
 30
0.0
 10
748.2650933159722
 20
-23.52035590277778
 30
0.0
 10
748.2650933159722
 20
138.6802517361111
 30
0.0
  0
ENDBLK
  5
26ED
330
26E6
100
AcDbEntity
  8
0
100
AcDbBlockEnd
  0
BLOCK
  5
26EF
330
26EE
100
AcDbEntity
  8
0
 62
     7
100
AcDbBlockBegin
  2
AI9-BLK15
 70
     0
 10
0.0
 20
0.0
 30
0.0
  3
AI9-BLK15
  1

  0
SPLINE
  5
26F0
330
26EE
100
AcDbEntity
  8
0
 62
     7
100
AcDbSpline
210
0.0
220
0.0
230
1.0
 70
     8
 71
     3
 72
    14
 73
    10
 74
     0
 42
0.0000000001
 43
0.0000000001
 40
0.0
 40
0.0
 40
0.0
 40
0.0
 40
1.0
 40
1.0
 40
1.0
 40
2.0
 40
2.0
 40
2.0
 40
3.0
 40
3.0
 40
3.0
 40
3.0
 10
-1.457964409722222
 20
137.6274305555555
 30
0.0
 10
-1.457964409722222
 20
137.6274305555555
 30
0.0
 10
-692.4779730902777
 20
137.6274305555555
 30
0.0
 10
-692.4779730902777
 20
137.6274305555555
 30
0.0
 10
-720.1544921874999
 20
137.6274305555555
 30
0.0
 10
-748.2637152777776
 20
131.4538194444444
 30
0.0
 10
-748.2637152777776
 20
106.1861111111111
 30
0.0
 10
-748.2637152777776
 20
14.16072048611111
 30
0.0
 10
-748.2637152777776
 20
-47.62224392361111
 30
0.0
 10
-748.2637152777776
 20
-137.5447482638888
 30
0.0
  0
SPLINE
  5
26F1
330
26EE
100
AcDbEntity
  8
0
 62
     7
100
AcDbSpline
210
0.0
220
0.0
230
1.0
 70
     8
 71
     3
 72
    14
 73
    10
 74
     0
 42
0.0000000001
 43
0.0000000001
 40
0.0
 40
0.0
 40
0.0
 40
0.0
 40
1.0
 40
1.0
 40
1.0
 40
2.0
 40
2.0
 40
2.0
 40
3.0
 40
3.0
 40
3.0
 40
3.0
 10
-1.457964409722222
 20
60.30295138888888
 30
0.0
 10
-1.457964409722222
 20
60.30295138888888
 30
0.0
 10
-374.4598307291667
 20
60.30295138888888
 30
0.0
 10
-374.4598307291667
 20
60.30295138888888
 30
0.0
 10
-407.9434027777777
 20
60.30295138888888
 30
0.0
 10
-421.4233723958332
 20
49.94286024305555
 30
0.0
 10
-421.4233723958332
 20
24.71373697916666
 30
0.0
 10
-421.4233723958332
 20
-44.05312499999999
 30
0.0
 10
-421.4233723958332
 20
-56.88266059027777
 30
0.0
 10
-421.4233723958332
 20
-137.5447482638888
 30
0.0
  0
SPLINE
  5
26F2
330
26EE
100
AcDbEntity
  8
0
 62
     7
100
AcDbSpline
210
0.0
220
0.0
230
1.0
 70
     8
 71
     3
 72
    11
 73
     7
 74
     0
 42
0.0000000001
 43
0.0000000001
 40
0.0
 40
0.0
 40
0.0
 40
0.0
 40
1.0
 40
1.0
 40
1.0
 40
2.0
 40
2.0
 40
2.0
 40
2.0
 10
-708.6120442708333
 20
121.4713107638889
 30
0.0
 10
-682.6360243055554
 20
118.6380642361111
 30
0.0
 10
-667.7228949652778
 20
118.0427517361111
 30
0.0
 10
-642.2567491319443
 20
112.1943576388888
 30
0.0
 10
-563.5321831597222
 20
94.1310329861111
 30
0.0
 10
-510.2489583333333
 20
78.98088107638888
 30
0.0
 10
-425.5822916666666
 20
52.08157552083332
 30
0.0
  0
SPLINE
  5
26F3
330
26EE
100
AcDbEntity
  8
0
 62
     7
100
AcDbSpline
210
0.0
220
0.0
230
1.0
 70
     8
 71
     3
 72
    11
 73
     7
 74
     0
 42
0.0000000001
 43
0.0000000001
 40
0.0
 40
0.0
 40
0.0
 40
0.0
 40
1.0
 40
1.0
 40
1.0
 40
2.0
 40
2.0
 40
2.0
 40
2.0
 10
-1.457964409722222
 20
60.30295138888888
 30
0.0
 10
-1.457964409722222
 20
60.30295138888888
 30
0.0
 10
402.1363498263888
 20
60.30295138888888
 30
0.0
 10
402.1363498263888
 20
60.30295138888888
 30
0.0
 10
560.4288411458333
 20
60.30295138888888
 30
0.0
 10
629.3114583333332
 20
-46.69620225694443
 30
0.0
 10
629.3114583333332
 20
-137.6274305555555
 30
0.0
  0
SPLINE
  5
26F4
330
26EE
100
AcDbEntity
  8
0
 62
     7
100
AcDbSpline
210
0.0
220
0.0
230
1.0
 70
     8
 71
     3
 72
    11
 73
     7
 74
     0
 42
0.0000000001
 43
0.0000000001
 40
0.0
 40
0.0
 40
0.0
 40
0.0
 40
1.0
 40
1.0
 40
1.0
 40
2.0
 40
2.0
 40
2.0
 40
2.0
 10
-1.457964409722222
 20
137.6274305555555
 30
0.0
 10
-1.457964409722222
 20
137.6274305555555
 30
0.0
 10
475.1310329861111
 20
137.6274305555555
 30
0.0
 10
475.1310329861111
 20
137.6274305555555
 30
0.0
 10
616.8732855902777
 20
137.6274305555555
 30
0.0
 10
748.2637152777776
 20
24.65310329861111
 30
0.0
 10
748.2637152777776
 20
-137.5447482638888
 30
0.0
  0
ENDBLK
  5
26F5
330
26EE
100
AcDbEntity
  8
0
100
AcDbBlockEnd
  0
ENDSEC
  0
SECTION
  2
ENTITIES
  0
SPLINE
  5
34FC
330
1F
100
AcDbEntity
  8
0
  6
ACDINTGL
 62
     6
 48
5.0
370
     0
100
AcDbSpline
210
0.0
220
0.0
230
1.0
 70
     8
 71
     3
 72
    17
 73
    13
 74
     0
 42
0.0000000001
 43
0.0000000001
 40
0.0
 40
0.0
 40
0.0
 40
0.0
 40
1.0
 40
1.0
 40
1.0
 40
2.0
 40
2.0
 40
2.0
 40
3.0
 40
3.0
 40
3.0
 40
4.0
 40
4.0
 40
4.0
 40
4.0
 10
33.08731476779478
 20
457.3113850011526
 30
0.0
 10
33.08731476779478
 20
457.3113850011526
 30
0.0
 10
33.08731476779478
 20
458.9471163379581
 30
0.0
 10
33.08731476779478
 20
458.9471163379581
 30
0.0
 10
33.08731476779478
 20
461.145087258097
 30
0.0
 10
28.40474098307258
 20
462.6333685080971
 30
0.0
 10
24.90590200737806
 20
462.6333685080971
 30
0.0
 10
20.8944328233503
 20
462.6333685080971
 30
0.0
 10
18.85218021918358
 20
462.6333685080971
 30
0.0
 10
14.79247969835027
 20
462.6333685080971
 30
0.0
 10
14.79247969835027
 20
462.6333685080971
 30
0.0
 10
14.79247969835027
 20
460.7592365636526
 30
0.0
 10
14.79247969835027
 20
460.7592365636526
 30
0.0
  0
LINE
  5
34FD
330
1F
100
AcDbEntity
  8
0
  6
ACDINTGL
 62
     6
 48
5.0
370
     0
100
AcDbLine
 10
32.54712379557246
 20
446.8686115636526
 30
0.0
 11
23.13236685112808
 21
440.7955972407359
 31
0.0
  0
SPLINE
  5
34FF
330
1F
100
AcDbEntity
  8
0
  6
ACDINTGL
 62
     6
 48
5.0
370
     0
100
AcDbSpline
210
0.0
220
0.0
230
1.0
 70
     8
 71
     3
 72
    20
 73
    16
 74
     0
 42
0.0000000001
 43
0.0000000001
 40
0.0
 40
0.0
 40
0.0
 40
0.0
 40
1.0
 40
1.0
 40
1.0
 40
2.0
 40
2.0
 40
2.0
 40
3.0
 40
3.0
 40
3.0
 40
4.0
 40
4.0
 40
4.0
 40
5.0
 40
5.0
 40
5.0
 40
5.0
 10
0.1949211046003647
 20
460.7592365636526
 30
0.0
 10
0.1949211046003647
 20
460.7592365636526
 30
0.0
 10
29.6394632052948
 20
460.7592365636526
 30
0.0
 10
29.6394632052948
 20
460.7592365636526
 30
0.0
 10
29.6394632052948
 20
460.7592365636526
 30
0.0
 10
33.08731476779478
 20
457.3113850011526
 30
0.0
 10
33.08731476779478
 20
457.3113850011526
 30
0.0
 10
33.08731476779478
 20
457.3113850011526
 30
0.0
 10
33.08731476779478
 20
446.8686115636526
 30
0.0
 10
33.08731476779478
 20
446.8686115636526
 30
0.0
 10
33.08731476779478
 20
446.8686115636526
 30
0.0
 10
24.3974059136281
 20
446.8686115636526
 30
0.0
 10
24.3974059136281
 20
446.8686115636526
 30
0.0
 10
18.80532692057253
 20
444.0656818761526
 30
0.0
 10
7.355207562933667
 20
441.6871879525415
 30
0.0
 10
0.2073234483503192
 20
441.6871879525415
 30
0.0
  0
SPLINE
  5
3501
330
1F
100
AcDbEntity
  8
0
  6
ACDINTGL
 62
     6
 48
5.0
370
     0
100
AcDbSpline
210
0.0
220
0.0
230
1.0
 70
     8
 71
     3
 72
    17
 73
    13
 74
     0
 42
0.0000000001
 43
0.0000000001
 40
0.0
 40
0.0
 40
0.0
 40
0.0
 40
1.0
 40
1.0
 40
1.0
 40
2.0
 40
2.0
 40
2.0
 40
3.0
 40
3.0
 40
3.0
 40
4.0
 40
4.0
 40
4.0
 40
4.0
 10
-32.89315398220522
 20
457.3058728483748
 30
0.0
 10
-32.89315398220522
 20
457.3058728483748
 30
0.0
 10
-32.89315398220522
 20
458.9429822233748
 30
0.0
 10
-32.89315398220522
 20
458.9429822233748
 30
0.0
 10
-32.89315398220522
 20
461.1409531435136
 30
0.0
 10
-28.21058019748303
 20
462.6306124317081
 30
0.0
 10
-24.71174122178851
 20
462.6306124317081
 30
0.0
 10
-20.69751596137185
 20
462.6306124317081
 30
0.0
 10
-18.65664139539963
 20
462.6292343935136
 30
0.0
 10
-14.60107498914972
 20
462.6292343935136
 30
0.0
 10
-14.60107498914972
 20
462.6292343935136
 30
0.0
 10
-14.60107498914972
 20
460.7551024490693
 30
0.0
 10
-14.60107498914972
 20
460.7551024490693
 30
0.0
  0
LINE
  5
3502
330
1F
100
AcDbEntity
  8
0
  6
ACDINTGL
 62
     6
 48
5.0
370
     0
100
AcDbLine
 10
-32.35296300998321
 20
446.8644774490693
 30
0.0
 11
-22.93820606553864
 21
440.7914631261526
 31
0.0
  0
SPLINE
  5
3504
330
1F
100
AcDbEntity
  8
0
  6
ACDINTGL
 62
     6
 48
5.0
370
     0
100
AcDbSpline
210
0.0
220
0.0
230
1.0
 70
     8
 71
     3
 72
    20
 73
    16
 74
     0
 42
0.0000000001
 43
0.0000000001
 40
0.0
 40
0.0
 40
0.0
 40
0.0
 40
1.0
 40
1.0
 40
1.0
 40
2.0
 40
2.0
 40
2.0
 40
3.0
 40
3.0
 40
3.0
 40
4.0
 40
4.0
 40
4.0
 40
5.0
 40
5.0
 40
5.0
 40
5.0
 10
0.0006177191835768
 20
460.7551024490693
 30
0.0
 10
0.0006177191835768
 20
460.7551024490693
 30
0.0
 10
-29.44530241970525
 20
460.7551024490693
 30
0.0
 10
-29.44530241970525
 20
460.7551024490693
 30
0.0
 10
-29.44530241970525
 20
460.7551024490693
 30
0.0
 10
-32.89315398220522
 20
457.3058728483748
 30
0.0
 10
-32.89315398220522
 20
457.3058728483748
 30
0.0
 10
-32.89315398220522
 20
457.3058728483748
 30
0.0
 10
-32.89315398220522
 20
446.8644774490693
 30
0.0
 10
-32.89315398220522
 20
446.8644774490693
 30
0.0
 10
-32.89315398220522
 20
446.8644774490693
 30
0.0
 10
-24.20324512803855
 20
446.8644774490693
 30
0.0
 10
-24.20324512803855
 20
446.8644774490693
 30
0.0
 10
-18.61116613498298
 20
444.0615477615692
 30
0.0
 10
-7.161046777344115
 20
441.6830538379581
 30
0.0
 10
-0.0117846245663778
 20
441.6830538379581
 30
0.0
  0
LINE
  5
3505
330
1F
100
AcDbEntity
  8
0
  6
ACDINTGL
 62
     6
 48
5.0
370
     0
100
AcDbLine
 10
18.96242327473923
 20
462.5658446365693
 30
0.0
 11
18.96242327473923
 21
473.5419188553192
 31
0.0
  0
LINE
  5
3507
330
1F
100
AcDbEntity
  8
0
  6
ACDINTGL
 62
     6
 48
5.0
370
     0
100
AcDbLine
 10
-18.92811491970515
 20
462.8827934212914
 30
0.0
 11
-18.92811491970515
 21
473.5419188553192
 31
0.0
  0
LINE
  5
3509
330
1F
100
AcDbEntity
  8
0
  6
ACDINTGL
 62
     6
 48
5.0
370
     0
100
AcDbLine
 10
-22.93820606553864
 20
440.7914631261526
 30
0.0
 11
-22.7923197275011
 21
395.8321857824026
 31
0.0
  0
LINE
  5
350A
330
1F
100
AcDbEntity
  8
0
  6
ACDINTGL
 62
     6
 48
5.0
370
     0
100
AcDbLine
 10
22.79612553168367
 20
422.1113741504581
 30
0.0
 11
23.13236685112808
 21
440.7955972407359
 31
0.0
  0
POLYLINE
  5
350B
330
1F
100
AcDbEntity
  8
0
  6
ACDINTGL
 62
     6
 48
5.0
370
     0
100
AcDb2dPolyline
 66
     1
 10
0.0
 20
0.0
 30
0.0
  0
VERTEX
  5
350C
330
350B
100
AcDbEntity
  8
0
  6
ACDINTGL
 62
     6
 48
5.0
370
     0
100
AcDbVertex
100
AcDb2dVertex
 10
-135.6451939127607
 20
361.0436115636526
 30
0.0
  0
VERTEX
  5
350D
330
350B
100
AcDbEntity
  8
0
  6
ACDINTGL
 62
     6
 48
5.0
370
     0
100
AcDbVertex
100
AcDb2dVertex
 10
-135.364074121094
 20
363.5075438553192
 30
0.0
  0
VERTEX
  5
350E
330
350B
100
AcDbEntity
  8
0
  6
ACDINTGL
 62
     6
 48
5.0
370
     0
100
AcDbVertex
100
AcDb2dVertex
 10
-134.5551657009552
 20
365.8639891678192
 30
0.0
  0
VERTEX
  5
350F
330
350B
100
AcDbEntity
  8
0
  6
ACDINTGL
 62
     6
 48
5.0
370
     0
100
AcDbVertex
100
AcDb2dVertex
 10
-133.2542976453996
 20
367.9393146886525
 30
0.0
  0
VERTEX
  5
3510
330
350B
100
AcDbEntity
  8
0
  6
ACDINTGL
 62
     6
 48
5.0
370
     0
100
AcDbVertex
100
AcDb2dVertex
 10
-131.4959209092885
 20
369.7321423796247
 30
0.0
  0
VERTEX
  5
3511
330
350B
100
AcDbEntity
  8
0
  6
ACDINTGL
 62
     6
 48
5.0
370
     0
100
AcDbVertex
100
AcDb2dVertex
 10
-129.4205953884552
 20
371.0688394282358
 30
0.0
  0
VERTEX
  5
3512
330
350B
100
AcDbEntity
  8
0
  6
ACDINTGL
 62
     6
 48
5.0
370
     0
100
AcDbVertex
100
AcDb2dVertex
 10
-127.0986010308163
 20
371.9149548796247
 30
0.0
  0
VERTEX
  5
3513
330
350B
100
AcDbEntity
  8
0
  6
ACDINTGL
 62
     6
 48
5.0
370
     0
100
AcDbVertex
100
AcDb2dVertex
 10
-124.6346687391496
 20
372.2305256261525
 30
0.0
  0
VERTEX
  5
3514
330
350B
100
AcDbEntity
  8
0
  6
ACDINTGL
 62
     6
 48
5.0
370
     0
100
AcDbVertex
100
AcDb2dVertex
 10
-124.4252069335941
 20
372.2663546192081
 30
0.0
  0
SEQEND
  5
3515
330
350B
100
AcDbEntity
  8
0
  6
ACDINTGL
 62
     6
 48
5.0
370
     0
  0
POLYLINE
  5
3516
330
1F
100
AcDbEntity
  8
0
  6
ACDINTGL
 62
     6
 48
5.0
370
     0
100
AcDb2dPolyline
 66
     1
 10
0.0
 20
0.0
 30
0.0
  0
VERTEX
  5
3517
330
3516
100
AcDbEntity
  8
0
  6
ACDINTGL
 62
     6
 48
5.0
370
     0
100
AcDbVertex
100
AcDb2dVertex
 10
135.6505634657115
 20
361.0408554872637
 30
0.0
  0
VERTEX
  5
3518
330
3516
100
AcDbEntity
  8
0
  6
ACDINTGL
 62
     6
 48
5.0
370
     0
100
AcDbVertex
100
AcDb2dVertex
 10
135.3694436740448
 20
363.5020317025415
 30
0.0
  0
VERTEX
  5
3519
330
3516
100
AcDbEntity
  8
0
  6
ACDINTGL
 62
     6
 48
5.0
370
     0
100
AcDbVertex
100
AcDb2dVertex
 10
134.5605352539058
 20
365.8598550532358
 30
0.0
  0
VERTEX
  5
351A
330
3516
100
AcDbEntity
  8
0
  6
ACDINTGL
 62
     6
 48
5.0
370
     0
100
AcDbVertex
100
AcDb2dVertex
 10
133.2596671983503
 20
367.9338025358747
 30
0.0
  0
VERTEX
  5
351B
330
3516
100
AcDbEntity
  8
0
  6
ACDINTGL
 62
     6
 48
5.0
370
     0
100
AcDbVertex
100
AcDb2dVertex
 10
131.4985343858503
 20
369.7280082650415
 30
0.0
  0
VERTEX
  5
351C
330
3516
100
AcDbEntity
  8
0
  6
ACDINTGL
 62
     6
 48
5.0
370
     0
100
AcDbVertex
100
AcDb2dVertex
 10
129.4259649414059
 20
371.0647053136526
 30
0.0
  0
VERTEX
  5
351D
330
3516
100
AcDbEntity
  8
0
  6
ACDINTGL
 62
     6
 48
5.0
370
     0
100
AcDbVertex
100
AcDb2dVertex
 10
127.1025925455724
 20
371.909442726847
 30
0.0
  0
VERTEX
  5
351E
330
3516
100
AcDbEntity
  8
0
  6
ACDINTGL
 62
     6
 48
5.0
370
     0
100
AcDbVertex
100
AcDb2dVertex
 10
124.6400382921003
 20
372.2263915115692
 30
0.0
  0
VERTEX
  5
351F
330
3516
100
AcDbEntity
  8
0
  6
ACDINTGL
 62
     6
 48
5.0
370
     0
100
AcDbVertex
100
AcDb2dVertex
 10
124.4278204101559
 20
372.2622205046248
 30
0.0
  0
SEQEND
  5
3520
330
3516
100
AcDbEntity
  8
0
  6
ACDINTGL
 62
     6
 48
5.0
370
     0
  0
LINE
  5
3532
330
1F
100
AcDbEntity
  8
0
  6
ACDINTGL
 62
     6
 48
5.0
370
     0
100
AcDbLine
 10
-3.764182628038568
 20
295.324970070597
 30
0.0
 11
83.19829567057245
 21
295.324970070597
 31
0.0
  0
LINE
  5
3533
330
1F
100
AcDbEntity
  8
0
  6
ACDINTGL
 62
     6
 48
5.0
370
     0
100
AcDbLine
 10
-3.587793739149631
 20
317.277118508097
 30
0.0
 11
83.02328481987801
 21
317.277118508097
 31
0.0
  0
LINE
  5
3534
330
1F
100
AcDbEntity
  8
0
  6
ACDINTGL
 62
     6
 48
5.0
370
     0
100
AcDbLine
 10
85.02833039279476
 20
297.0833468067081
 30
0.0
 11
85.02833039279476
 21
315.3768038379581
 31
0.0
  0
LINE
  5
3535
330
1F
100
AcDbEntity
  8
0
  6
ACDINTGL
 62
     6
 48
5.0
370
     0
100
AcDbLine
 10
-6.613965614149677
 20
296.3447183344859
 30
0.0
 11
-6.613965614149677
 21
315.7282035775414
 31
0.0
  0
LINE
  5
3536
330
1F
100
AcDbEntity
  8
0
  6
AM_DIN_G_W050
 62
     4
 48
2.0
100
AcDbLine
 10
0.0006177191835803
 20
-41.69907506829182
 30
0.0
 11
0.0006177191835803
 21
33.59693187615258
 31
0.0
  0
LINE
  5
3537
330
1F
100
AcDbEntity
  8
0
  6
ACDINTGL
 62
     6
 48
5.0
370
     0
100
AcDbLine
 10
135.6505634657115
 20
37.56430383795814
 30
0.0
 11
135.6505634657115
 21
361.0408554872637
 31
0.0
  0
LINE
  5
3539
330
1F
100
AcDbEntity
  8
0
  6
ACDINTGL
 62
     6
 48
5.0
370
     0
100
AcDbLine
 10
-135.6162551106774
 20
38.05901954976369
 30
0.0
 11
-135.6162551106774
 21
361.0436115636526
 31
0.0
  0
POLYLINE
  5
353B
330
1F
100
AcDbEntity
  8
0
  6
ACDINTGL
 62
     6
 48
5.0
370
     0
100
AcDb2dPolyline
 66
     1
 10
0.0
 20
0.0
 30
0.0
  0
VERTEX
  5
353C
330
353B
100
AcDbEntity
  8
0
  6
ACDINTGL
 62
     6
 48
5.0
370
     0
100
AcDbVertex
100
AcDb2dVertex
 10
54.03487336154471
 20
8.121139775458145
 30
0.0
  0
VERTEX
  5
353D
330
353B
100
AcDbEntity
  8
0
  6
ACDINTGL
 62
     6
 48
5.0
370
     0
100
AcDbVertex
100
AcDb2dVertex
 10
105.7140617296002
 20
8.121139775458145
 30
0.0
  0
VERTEX
  5
353E
330
353B
100
AcDbEntity
  8
0
  6
ACDINTGL
 62
     6
 48
5.0
370
     0
100
AcDbVertex
100
AcDb2dVertex
 10
108.1766159830725
 20
8.225870678235962
 30
0.0
  0
VERTEX
  5
353F
330
353B
100
AcDbEntity
  8
0
  6
ACDINTGL
 62
     6
 48
5.0
370
     0
100
AcDbVertex
100
AcDb2dVertex
 10
110.6736211914058
 20
8.542819462958133
 30
0.0
  0
VERTEX
  5
3540
330
353B
100
AcDbEntity
  8
0
  6
ACDINTGL
 62
     6
 48
5.0
370
     0
100
AcDbVertex
100
AcDb2dVertex
 10
113.1003464518225
 20
9.070608091430328
 30
0.0
  0
VERTEX
  5
3541
330
353B
100
AcDbEntity
  8
0
  6
ACDINTGL
 62
     6
 48
5.0
370
     0
100
AcDbVertex
100
AcDb2dVertex
 10
115.4939987955725
 20
9.774785608791457
 30
0.0
  0
VERTEX
  5
3542
330
353B
100
AcDbEntity
  8
0
  6
ACDINTGL
 62
     6
 48
5.0
370
     0
100
AcDbVertex
100
AcDb2dVertex
 10
117.814615115017
 20
10.68980296990261
 30
0.0
  0
VERTEX
  5
3543
330
353B
100
AcDbEntity
  8
0
  6
ACDINTGL
 62
     6
 48
5.0
370
     0
100
AcDbVertex
100
AcDb2dVertex
 10
120.031878569878
 20
11.77983118170814
 30
0.0
  0
VERTEX
  5
3544
330
353B
100
AcDbEntity
  8
0
  6
ACDINTGL
 62
     6
 48
5.0
370
     0
100
AcDbVertex
100
AcDb2dVertex
 10
122.1774840386281
 20
13.08069923726369
 30
0.0
  0
VERTEX
  5
3545
330
353B
100
AcDbEntity
  8
0
  6
ACDINTGL
 62
     6
 48
5.0
370
     0
100
AcDbVertex
100
AcDb2dVertex
 10
124.1811515733503
 20
14.52350522684704
 30
0.0
  0
VERTEX
  5
3546
330
353B
100
AcDbEntity
  8
0
  6
ACDINTGL
 62
     6
 48
5.0
370
     0
100
AcDbVertex
100
AcDb2dVertex
 10
126.0814662434891
 20
16.14132206712483
 30
0.0
  0
VERTEX
  5
3547
330
353B
100
AcDbEntity
  8
0
  6
ACDINTGL
 62
     6
 48
5.0
370
     0
100
AcDbVertex
100
AcDb2dVertex
 10
127.8412210177946
 20
17.89969880323596
 30
0.0
  0
VERTEX
  5
3548
330
353B
100
AcDbEntity
  8
0
  6
ACDINTGL
 62
     6
 48
5.0
370
     0
100
AcDbVertex
100
AcDb2dVertex
 10
129.4259649414059
 20
19.83584246643036
 30
0.0
  0
VERTEX
  5
3549
330
353B
100
AcDbEntity
  8
0
  6
ACDINTGL
 62
     6
 48
5.0
370
     0
100
AcDbVertex
100
AcDb2dVertex
 10
130.8673928927947
 20
21.84088803934705
 30
0.0
  0
VERTEX
  5
354A
330
353B
100
AcDbEntity
  8
0
  6
ACDINTGL
 62
     6
 48
5.0
370
     0
100
AcDbVertex
100
AcDb2dVertex
 10
132.1324319552948
 20
24.02232250115261
 30
0.0
  0
VERTEX
  5
354B
330
353B
100
AcDbEntity
  8
0
  6
ACDINTGL
 62
     6
 48
5.0
370
     0
100
AcDbVertex
100
AcDb2dVertex
 10
133.2238382052947
 20
26.23820791781926
 30
0.0
  0
VERTEX
  5
354C
330
353B
100
AcDbEntity
  8
0
  6
ACDINTGL
 62
     6
 48
5.0
370
     0
100
AcDbVertex
100
AcDb2dVertex
 10
134.1030265733503
 20
28.59465323031927
 30
0.0
  0
VERTEX
  5
354D
330
353B
100
AcDbEntity
  8
0
  6
ACDINTGL
 62
     6
 48
5.0
370
     0
100
AcDbVertex
100
AcDb2dVertex
 10
134.7727531358503
 20
30.98692753587485
 30
0.0
  0
VERTEX
  5
354E
330
353B
100
AcDbEntity
  8
0
  6
ACDINTGL
 62
     6
 48
5.0
370
     0
100
AcDbVertex
100
AcDb2dVertex
 10
135.2647127712669
 20
33.41503083448592
 30
0.0
  0
VERTEX
  5
354F
330
353B
100
AcDbEntity
  8
0
  6
ACDINTGL
 62
     6
 48
5.0
370
     0
100
AcDbVertex
100
AcDb2dVertex
 10
135.5458325629336
 20
35.87896312615257
 30
0.0
  0
VERTEX
  5
3550
330
353B
100
AcDbEntity
  8
0
  6
ACDINTGL
 62
     6
 48
5.0
370
     0
100
AcDbVertex
100
AcDb2dVertex
 10
135.6161125108503
 20
38.05901954976369
 30
0.0
  0
SEQEND
  5
3551
330
353B
100
AcDbEntity
  8
0
  6
ACDINTGL
 62
     6
 48
5.0
370
     0
  0
POLYLINE
  5
3553
330
1F
100
AcDbEntity
  8
0
  6
ACDINTGL
 62
     6
 48
5.0
370
     0
100
AcDb2dPolyline
 66
     1
 10
0.0
 20
0.0
 30
0.0
  0
VERTEX
  5
3554
330
3553
100
AcDbEntity
  8
0
  6
ACDINTGL
 62
     6
 48
5.0
370
     0
100
AcDbVertex
100
AcDb2dVertex
 10
-135.6162551106774
 20
38.05901954976369
 30
0.0
  0
VERTEX
  5
3555
330
3553
100
AcDbEntity
  8
0
  6
ACDINTGL
 62
     6
 48
5.0
370
     0
100
AcDbVertex
100
AcDb2dVertex
 10
-135.5115242078995
 20
35.5620143414304
 30
0.0
  0
VERTEX
  5
3556
330
3553
100
AcDbEntity
  8
0
  6
ACDINTGL
 62
     6
 48
5.0
370
     0
100
AcDbVertex
100
AcDb2dVertex
 10
-135.1945754231773
 20
33.09808204976369
 30
0.0
  0
VERTEX
  5
3557
330
3553
100
AcDbEntity
  8
0
  6
ACDINTGL
 62
     6
 48
5.0
370
     0
100
AcDbVertex
100
AcDb2dVertex
 10
-134.6667867947052
 20
30.63414975809704
 30
0.0
  0
VERTEX
  5
3558
330
3553
100
AcDbEntity
  8
0
  6
ACDINTGL
 62
     6
 48
5.0
370
     0
100
AcDbVertex
100
AcDb2dVertex
 10
-133.9626092773441
 20
28.2446315289304
 30
0.0
  0
VERTEX
  5
3559
330
3553
100
AcDbEntity
  8
0
  6
ACDINTGL
 62
     6
 48
5.0
370
     0
100
AcDbVertex
100
AcDb2dVertex
 10
-133.0475919162328
 20
25.95708812615257
 30
0.0
  0
VERTEX
  5
355A
330
3553
100
AcDbEntity
  8
0
  6
ACDINTGL
 62
     6
 48
5.0
370
     0
100
AcDbVertex
100
AcDb2dVertex
 10
-131.9575637044274
 20
23.70537371643033
 30
0.0
  0
VERTEX
  5
355B
330
3553
100
AcDbEntity
  8
0
  6
ACDINTGL
 62
     6
 48
5.0
370
     0
100
AcDbVertex
100
AcDb2dVertex
 10
-130.6566956488718
 20
21.55839020948596
 30
0.0
  0
VERTEX
  5
355C
330
3553
100
AcDbEntity
  8
0
  6
ACDINTGL
 62
     6
 48
5.0
370
     0
100
AcDbVertex
100
AcDb2dVertex
 10
-129.2138896592884
 20
19.55334463656922
 30
0.0
  0
VERTEX
  5
355D
330
3553
100
AcDbEntity
  8
0
  6
ACDINTGL
 62
     6
 48
5.0
370
     0
100
AcDbVertex
100
AcDb2dVertex
 10
-127.5960728190106
 20
17.65302996643035
 30
0.0
  0
VERTEX
  5
355E
330
3553
100
AcDbEntity
  8
0
  6
ACDINTGL
 62
     6
 48
5.0
370
     0
100
AcDbVertex
100
AcDb2dVertex
 10
-125.8004890516497
 20
15.89465323031921
 30
0.0
  0
VERTEX
  5
355F
330
3553
100
AcDbEntity
  8
0
  6
ACDINTGL
 62
     6
 48
5.0
370
     0
100
AcDbVertex
100
AcDb2dVertex
 10
-123.9015524197052
 20
14.31266538309702
 30
0.0
  0
VERTEX
  5
3560
330
3553
100
AcDbEntity
  8
0
  6
ACDINTGL
 62
     6
 48
5.0
370
     0
100
AcDbVertex
100
AcDb2dVertex
 10
-121.8620558919274
 20
12.86985939351367
 30
0.0
  0
VERTEX
  5
3561
330
3553
100
AcDbEntity
  8
0
  6
ACDINTGL
 62
     6
 48
5.0
370
     0
100
AcDbVertex
100
AcDb2dVertex
 10
-119.7150723849829
 20
11.60344229281926
 30
0.0
  0
VERTEX
  5
3562
330
3553
100
AcDbEntity
  8
0
  6
ACDINTGL
 62
     6
 48
5.0
370
     0
100
AcDbVertex
100
AcDb2dVertex
 10
-117.4633579752607
 20
10.54786503587481
 30
0.0
  0
VERTEX
  5
3563
330
3553
100
AcDbEntity
  8
0
  6
ACDINTGL
 62
     6
 48
5.0
370
     0
100
AcDbVertex
100
AcDb2dVertex
 10
-115.1427416558162
 20
9.668676667819251
 30
0.0
  0
VERTEX
  5
3564
330
3553
100
AcDbEntity
  8
0
  6
ACDINTGL
 62
     6
 48
5.0
370
     0
100
AcDbVertex
100
AcDb2dVertex
 10
-112.7490893120663
 20
8.965877188652568
 30
0.0
  0
VERTEX
  5
3565
330
3553
100
AcDbEntity
  8
0
  6
ACDINTGL
 62
     6
 48
5.0
370
     0
100
AcDbVertex
100
AcDb2dVertex
 10
-110.3223640516496
 20
8.472539515041459
 30
0.0
  0
VERTEX
  5
3566
330
3553
100
AcDbEntity
  8
0
  6
ACDINTGL
 62
     6
 48
5.0
370
     0
100
AcDbVertex
100
AcDb2dVertex
 10
-107.8253588433162
 20
8.191419723374819
 30
0.0
  0
VERTEX
  5
3567
330
3553
100
AcDbEntity
  8
0
  6
ACDINTGL
 62
     6
 48
5.0
370
     0
100
AcDbVertex
100
AcDb2dVertex
 10
-105.6783753363717
 20
8.121139775458145
 30
0.0
  0
VERTEX
  5
3568
330
3553
100
AcDbEntity
  8
0
  6
ACDINTGL
 62
     6
 48
5.0
370
     0
100
AcDbVertex
100
AcDb2dVertex
 10
-54.07084495442742
 20
8.121139775458145
 30
0.0
  0
SEQEND
  5
3569
330
3553
100
AcDbEntity
  8
0
  6
ACDINTGL
 62
     6
 48
5.0
370
     0
  0
POLYLINE
  5
3582
330
1F
100
AcDbEntity
  8
0
  6
ACDINTGL
 62
     6
 48
5.0
370
     0
100
AcDb2dPolyline
 66
     1
 10
0.0
 20
0.0
 30
0.0
  0
VERTEX
  5
3583
330
3582
100
AcDbEntity
  8
0
  6
ACDINTGL
 62
     6
 48
5.0
370
     0
100
AcDbVertex
100
AcDb2dVertex
 10
81.7913186740448
 20
306.301044289347
 30
0.0
  0
VERTEX
  5
3584
330
3582
100
AcDbEntity
  8
0
  6
ACDINTGL
 62
     6
 48
5.0
370
     0
100
AcDbVertex
100
AcDb2dVertex
 10
81.19462813585032
 20
308.657489601847
 30
0.0
  0
VERTEX
  5
3585
330
3582
100
AcDbEntity
  8
0
  6
ACDINTGL
 62
     6
 48
5.0
370
     0
100
AcDbVertex
100
AcDb2dVertex
 10
79.57405521918365
 20
310.4530733692081
 30
0.0
  0
VERTEX
  5
3586
330
3582
100
AcDbEntity
  8
0
  6
ACDINTGL
 62
     6
 48
5.0
370
     0
100
AcDbVertex
100
AcDb2dVertex
 10
77.28926789279471
 20
311.261981789347
 30
0.0
  0
VERTEX
  5
3587
330
3582
100
AcDbEntity
  8
0
  6
ACDINTGL
 62
     6
 48
5.0
370
     0
100
AcDbVertex
100
AcDb2dVertex
 10
74.89699358723924
 20
310.9092040115692
 30
0.0
  0
VERTEX
  5
3588
330
3582
100
AcDbEntity
  8
0
  6
ACDINTGL
 62
     6
 48
5.0
370
     0
100
AcDbVertex
100
AcDb2dVertex
 10
72.96222796223928
 20
309.4663980219859
 30
0.0
  0
VERTEX
  5
3589
330
3582
100
AcDbEntity
  8
0
  6
ACDINTGL
 62
     6
 48
5.0
370
     0
100
AcDbVertex
100
AcDb2dVertex
 10
71.90665070529466
 20
307.2863415983747
 30
0.0
  0
VERTEX
  5
358A
330
3582
100
AcDbEntity
  8
0
  6
ACDINTGL
 62
     6
 48
5.0
370
     0
100
AcDbVertex
100
AcDb2dVertex
 10
72.01138160807253
 20
304.8940672928192
 30
0.0
  0
VERTEX
  5
358B
330
3582
100
AcDbEntity
  8
0
  6
ACDINTGL
 62
     6
 48
5.0
370
     0
100
AcDbVertex
100
AcDb2dVertex
 10
73.24334775390586
 20
302.7829127789303
 30
0.0
  0
VERTEX
  5
358C
330
3582
100
AcDbEntity
  8
0
  6
ACDINTGL
 62
     6
 48
5.0
370
     0
100
AcDbVertex
100
AcDb2dVertex
 10
75.31867327473928
 20
301.5523246712914
 30
0.0
  0
VERTEX
  5
358D
330
3582
100
AcDbEntity
  8
0
  6
ACDINTGL
 62
     6
 48
5.0
370
     0
100
AcDbVertex
100
AcDb2dVertex
 10
77.71094758029476
 20
301.4103867372636
 30
0.0
  0
VERTEX
  5
358E
330
3582
100
AcDbEntity
  8
0
  6
ACDINTGL
 62
     6
 48
5.0
370
     0
100
AcDbVertex
100
AcDb2dVertex
 10
79.9282110351558
 20
302.3956840462914
 30
0.0
  0
VERTEX
  5
358F
330
3582
100
AcDbEntity
  8
0
  6
ACDINTGL
 62
     6
 48
5.0
370
     0
100
AcDbVertex
100
AcDb2dVertex
 10
81.36963898654476
 20
304.3304496712914
 30
0.0
  0
VERTEX
  5
3590
330
3582
100
AcDbEntity
  8
0
  6
ACDINTGL
 62
     6
 48
5.0
370
     0
100
AcDbVertex
100
AcDb2dVertex
 10
81.7913186740448
 20
306.301044289347
 30
0.0
  0
SEQEND
  5
3591
330
3582
100
AcDbEntity
  8
0
  6
ACDINTGL
 62
     6
 48
5.0
370
     0
  0
POLYLINE
  5
3592
330
1F
100
AcDbEntity
  8
0
  6
ACDINTGL
 62
     6
 48
5.0
370
     0
100
AcDb2dPolyline
 66
     1
 10
0.0
 20
0.0
 30
0.0
  0
VERTEX
  5
3593
330
3592
100
AcDbEntity
  8
0
  6
ACDINTGL
 62
     6
 48
5.0
370
     0
100
AcDbVertex
100
AcDb2dVertex
 10
80.27961077473928
 20
306.301044289347
 30
0.0
  0
VERTEX
  5
3594
330
3592
100
AcDbEntity
  8
0
  6
ACDINTGL
 62
     6
 48
5.0
370
     0
100
AcDbVertex
100
AcDb2dVertex
 10
79.50515330946136
 20
308.5155516678192
 30
0.0
  0
VERTEX
  5
3595
330
3592
100
AcDbEntity
  8
0
  6
ACDINTGL
 62
     6
 48
5.0
370
     0
100
AcDbVertex
100
AcDb2dVertex
 10
77.50148577473924
 20
309.7130668587914
 30
0.0
  0
VERTEX
  5
3596
330
3592
100
AcDbEntity
  8
0
  6
ACDINTGL
 62
     6
 48
5.0
370
     0
100
AcDbVertex
100
AcDb2dVertex
 10
75.17811337890593
 20
309.3961180740692
 30
0.0
  0
VERTEX
  5
3597
330
3592
100
AcDbEntity
  8
0
  6
ACDINTGL
 62
     6
 48
5.0
370
     0
100
AcDbVertex
100
AcDb2dVertex
 10
73.59612553168362
 20
307.6377413379581
 30
0.0
  0
VERTEX
  5
3598
330
3592
100
AcDbEntity
  8
0
  6
ACDINTGL
 62
     6
 48
5.0
370
     0
100
AcDbVertex
100
AcDb2dVertex
 10
73.45418759765589
 20
305.3157469803192
 30
0.0
  0
VERTEX
  5
3599
330
3592
100
AcDbEntity
  8
0
  6
ACDINTGL
 62
     6
 48
5.0
370
     0
100
AcDbVertex
100
AcDb2dVertex
 10
74.82533560112806
 20
303.4154323101803
 30
0.0
  0
VERTEX
  5
359A
330
3592
100
AcDbEntity
  8
0
  6
ACDINTGL
 62
     6
 48
5.0
370
     0
100
AcDbVertex
100
AcDb2dVertex
 10
77.11287900390589
 20
302.8187417719859
 30
0.0
  0
VERTEX
  5
359B
330
3592
100
AcDbEntity
  8
0
  6
ACDINTGL
 62
     6
 48
5.0
370
     0
100
AcDbVertex
100
AcDb2dVertex
 10
79.22403351779466
 20
303.8026610428192
 30
0.0
  0
VERTEX
  5
359C
330
3592
100
AcDbEntity
  8
0
  6
ACDINTGL
 62
     6
 48
5.0
370
     0
100
AcDbVertex
100
AcDb2dVertex
 10
80.27961077473928
 20
305.9138155567081
 30
0.0
  0
VERTEX
  5
359D
330
3592
100
AcDbEntity
  8
0
  6
ACDINTGL
 62
     6
 48
5.0
370
     0
100
AcDbVertex
100
AcDb2dVertex
 10
80.27961077473928
 20
306.301044289347
 30
0.0
  0
SEQEND
  5
359E
330
3592
100
AcDbEntity
  8
0
  6
ACDINTGL
 62
     6
 48
5.0
370
     0
  0
POLYLINE
  5
359F
330
1F
100
AcDbEntity
  8
0
  6
ACDINTGL
 62
     6
 48
5.0
370
     0
100
AcDb2dPolyline
 66
     1
 10
0.0
 20
0.0
 30
0.0
  0
VERTEX
  5
35A0
330
359F
100
AcDbEntity
  8
0
  6
ACDINTGL
 62
     6
 48
5.0
370
     0
100
AcDbVertex
100
AcDb2dVertex
 10
7.001051746961408
 20
306.301044289347
 30
0.0
  0
VERTEX
  5
35A1
330
359F
100
AcDbEntity
  8
0
  6
ACDINTGL
 62
     6
 48
5.0
370
     0
100
AcDbVertex
100
AcDb2dVertex
 10
6.402983170572539
 20
308.657489601847
 30
0.0
  0
VERTEX
  5
35A2
330
359F
100
AcDbEntity
  8
0
  6
ACDINTGL
 62
     6
 48
5.0
370
     0
100
AcDbVertex
100
AcDb2dVertex
 10
4.785166330294757
 20
310.4530733692081
 30
0.0
  0
VERTEX
  5
35A3
330
359F
100
AcDbEntity
  8
0
  6
ACDINTGL
 62
     6
 48
5.0
370
     0
100
AcDbVertex
100
AcDb2dVertex
 10
2.497622927516928
 20
311.261981789347
 30
0.0
  0
VERTEX
  5
35A4
330
359F
100
AcDbEntity
  8
0
  6
ACDINTGL
 62
     6
 48
5.0
370
     0
100
AcDbVertex
100
AcDb2dVertex
 10
0.1053486219614541
 20
310.9092040115692
 30
0.0
  0
VERTEX
  5
35A5
330
359F
100
AcDbEntity
  8
0
  6
ACDINTGL
 62
     6
 48
5.0
370
     0
100
AcDbVertex
100
AcDb2dVertex
 10
-1.8294170030385
 20
309.4663980219859
 30
0.0
  0
VERTEX
  5
35A6
330
359F
100
AcDbEntity
  8
0
  6
ACDINTGL
 62
     6
 48
5.0
370
     0
100
AcDbVertex
100
AcDb2dVertex
 10
-2.884994259983002
 20
307.2863415983747
 30
0.0
  0
VERTEX
  5
35A7
330
359F
100
AcDbEntity
  8
0
  6
ACDINTGL
 62
     6
 48
5.0
370
     0
100
AcDbVertex
100
AcDb2dVertex
 10
-2.778885319010854
 20
304.8940672928192
 30
0.0
  0
VERTEX
  5
35A8
330
359F
100
AcDbEntity
  8
0
  6
ACDINTGL
 62
     6
 48
5.0
370
     0
100
AcDbVertex
100
AcDb2dVertex
 10
-1.548297211371917
 20
302.7829127789303
 30
0.0
  0
VERTEX
  5
35A9
330
359F
100
AcDbEntity
  8
0
  6
ACDINTGL
 62
     6
 48
5.0
370
     0
100
AcDbVertex
100
AcDb2dVertex
 10
0.5270283094614996
 20
301.5523246712914
 30
0.0
  0
VERTEX
  5
35AA
330
359F
100
AcDbEntity
  8
0
  6
ACDINTGL
 62
     6
 48
5.0
370
     0
100
AcDbVertex
100
AcDb2dVertex
 10
2.919302615016974
 20
301.4103867372636
 30
0.0
  0
VERTEX
  5
35AB
330
359F
100
AcDbEntity
  8
0
  6
ACDINTGL
 62
     6
 48
5.0
370
     0
100
AcDbVertex
100
AcDb2dVertex
 10
5.136566069878014
 20
302.3956840462914
 30
0.0
  0
VERTEX
  5
35AC
330
359F
100
AcDbEntity
  8
0
  6
ACDINTGL
 62
     6
 48
5.0
370
     0
100
AcDbVertex
100
AcDb2dVertex
 10
6.577994021266974
 20
304.3304496712914
 30
0.0
  0
VERTEX
  5
35AD
330
359F
100
AcDbEntity
  8
0
  6
ACDINTGL
 62
     6
 48
5.0
370
     0
100
AcDbVertex
100
AcDb2dVertex
 10
7.001051746961408
 20
306.301044289347
 30
0.0
  0
SEQEND
  5
35AE
330
359F
100
AcDbEntity
  8
0
  6
ACDINTGL
 62
     6
 48
5.0
370
     0
  0
POLYLINE
  5
35AF
330
1F
100
AcDbEntity
  8
0
  6
ACDINTGL
 62
     6
 48
5.0
370
     0
100
AcDb2dPolyline
 66
     1
 10
0.0
 20
0.0
 30
0.0
  0
VERTEX
  5
35B0
330
35AF
100
AcDbEntity
  8
0
  6
ACDINTGL
 62
     6
 48
5.0
370
     0
100
AcDbVertex
100
AcDb2dVertex
 10
5.487965809461499
 20
306.301044289347
 30
0.0
  0
VERTEX
  5
35B1
330
35AF
100
AcDbEntity
  8
0
  6
ACDINTGL
 62
     6
 48
5.0
370
     0
100
AcDbVertex
100
AcDb2dVertex
 10
4.714886382378082
 20
308.5155516678192
 30
0.0
  0
VERTEX
  5
35B2
330
35AF
100
AcDbEntity
  8
0
  6
ACDINTGL
 62
     6
 48
5.0
370
     0
100
AcDbVertex
100
AcDb2dVertex
 10
2.707084733072562
 20
309.7130668587914
 30
0.0
  0
VERTEX
  5
35B3
330
35AF
100
AcDbEntity
  8
0
  6
ACDINTGL
 62
     6
 48
5.0
370
     0
100
AcDbVertex
100
AcDb2dVertex
 10
0.3864684136281511
 20
309.3961180740692
 30
0.0
  0
VERTEX
  5
35B4
330
35AF
100
AcDbEntity
  8
0
  6
ACDINTGL
 62
     6
 48
5.0
370
     0
100
AcDbVertex
100
AcDb2dVertex
 10
-1.195519433594157
 20
307.6377413379581
 30
0.0
  0
VERTEX
  5
35B5
330
35AF
100
AcDbEntity
  8
0
  6
ACDINTGL
 62
     6
 48
5.0
370
     0
100
AcDbVertex
100
AcDb2dVertex
 10
-1.336079329427505
 20
305.3157469803192
 30
0.0
  0
VERTEX
  5
35B6
330
35AF
100
AcDbEntity
  8
0
  6
ACDINTGL
 62
     6
 48
5.0
370
     0
100
AcDbVertex
100
AcDb2dVertex
 10
0.0336906358502773
 20
303.4154323101803
 30
0.0
  0
VERTEX
  5
35B7
330
35AF
100
AcDbEntity
  8
0
  6
ACDINTGL
 62
     6
 48
5.0
370
     0
100
AcDbVertex
100
AcDb2dVertex
 10
2.321234038628105
 20
302.8187417719859
 30
0.0
  0
VERTEX
  5
35B8
330
35AF
100
AcDbEntity
  8
0
  6
ACDINTGL
 62
     6
 48
5.0
370
     0
100
AcDbVertex
100
AcDb2dVertex
 10
4.468217545572585
 20
303.8026610428192
 30
0.0
  0
VERTEX
  5
35B9
330
35AF
100
AcDbEntity
  8
0
  6
ACDINTGL
 62
     6
 48
5.0
370
     0
100
AcDbVertex
100
AcDb2dVertex
 10
5.487965809461499
 20
305.9138155567081
 30
0.0
  0
VERTEX
  5
35BA
330
35AF
100
AcDbEntity
  8
0
  6
ACDINTGL
 62
     6
 48
5.0
370
     0
100
AcDbVertex
100
AcDb2dVertex
 10
5.487965809461499
 20
306.301044289347
 30
0.0
  0
SEQEND
  5
35BB
330
35AF
100
AcDbEntity
  8
0
  6
ACDINTGL
 62
     6
 48
5.0
370
     0
  0
LINE
  5
35BC
330
1F
100
AcDbEntity
  8
0
  6
AM_DIN_G_W050
 62
     4
 48
2.0
100
AcDbLine
 10
76.79593021918371
 20
299.616181008097
 30
0.0
 11
76.79593021918371
 21
312.1397921192081
 31
0.0
  0
LINE
  5
35BD
330
1F
100
AcDbEntity
  8
0
  6
AM_DIN_G_W050
 62
     4
 48
2.0
100
AcDbLine
 10
2.004285253905933
 20
299.616181008097
 30
0.0
 11
2.004285253905933
 21
312.1397921192081
 31
0.0
  0
LINE
  5
35BE
330
1F
100
AcDbEntity
  8
0
  6
ACDINTGL
 62
     6
 48
5.0
370
     0
100
AcDbLine
 10
-124.822081933594
 20
372.2622205046248
 30
0.0
 11
124.4278204101559
 21
372.2622205046248
 31
0.0
  0
LINE
  5
35C1
330
1F
100
AcDbEntity
  8
0
  6
ACDINTGL
 62
     6
 48
5.0
370
     0
100
AcDbLine
 10
2.040114246961408
 20
423.0966714594858
 30
0.0
 11
13.29868629557249
 21
423.0966714594858
 31
0.0
  0
LINE
  5
35C2
330
1F
100
AcDbEntity
  8
0
  6
ACDINTGL
 62
     6
 48
5.0
370
     0
100
AcDbLine
 10
-3.692524641927505
 20
410.2919405567081
 30
0.0
 11
-1.582748166233002
 21
410.2919405567081
 31
0.0
  0
LINE
  5
35C3
330
1F
100
AcDbEntity
  8
0
  6
ACDINTGL
 62
     6
 48
5.0
370
     0
100
AcDbLine
 10
-3.692524641927505
 20
410.2919405567081
 30
0.0
 11
-3.692524641927505
 21
417.3626545324025
 31
0.0
  0
LINE
  5
35C4
330
1F
100
AcDbEntity
  8
0
  6
ACDINTGL
 62
     6
 48
5.0
370
     0
100
AcDbLine
 10
13.29868629557249
 20
421.6194145150414
 30
0.0
 11
13.47369714626693
 21
421.6194145150414
 31
0.0
  0
LINE
  5
35C6
330
1F
100
AcDbEntity
  8
0
  6
ACDINTGL
 62
     6
 48
5.0
370
     0
100
AcDbLine
 10
-22.7618171766497
 20
410.2919405567081
 30
0.0
 11
13.29868629557249
 21
410.2919405567081
 31
0.0
  0
POLYLINE
  5
35C7
330
1F
100
AcDbEntity
  8
0
  6
ACDINTGL
 62
     6
 48
5.0
370
     0
100
AcDb2dPolyline
 66
     1
 10
0.0
 20
0.0
 30
0.0
  0
VERTEX
  5
35C8
330
35C7
100
AcDbEntity
  8
0
  6
ACDINTGL
 62
     6
 48
5.0
370
     0
100
AcDbVertex
100
AcDb2dVertex
 10
2.040114246961408
 20
423.0966714594858
 30
0.0
  0
VERTEX
  5
35C9
330
35C7
100
AcDbEntity
  8
0
  6
ACDINTGL
 62
     6
 48
5.0
370
     0
100
AcDbVertex
100
AcDb2dVertex
 10
-0.3163310655385914
 20
422.5675047928192
 30
0.0
  0
VERTEX
  5
35CA
330
35C7
100
AcDbEntity
  8
0
  6
ACDINTGL
 62
     6
 48
5.0
370
     0
100
AcDbVertex
100
AcDb2dVertex
 10
-2.286925683594134
 20
421.1260768414303
 30
0.0
  0
VERTEX
  5
35CB
330
35C7
100
AcDbEntity
  8
0
  6
ACDINTGL
 62
     6
 48
5.0
370
     0
100
AcDbVertex
100
AcDb2dVertex
 10
-3.448611881510785
 20
418.9790933344857
 30
0.0
  0
VERTEX
  5
35CC
330
35C7
100
AcDbEntity
  8
0
  6
ACDINTGL
 62
     6
 48
5.0
370
     0
100
AcDbVertex
100
AcDb2dVertex
 10
-3.692524641927505
 20
417.3626545324025
 30
0.0
  0
SEQEND
  5
35CD
330
35C7
100
AcDbEntity
  8
0
  6
ACDINTGL
 62
     6
 48
5.0
370
     0
  0
LINE
  5
35CE
330
1F
100
AcDbEntity
  8
0
  6
ACDINTGL
 62
     6
 48
5.0
370
     0
100
AcDbLine
 10
13.29868629557249
 20
410.2919405567081
 30
0.0
 11
13.29868629557249
 21
423.0966714594858
 31
0.0
  0
LINE
  5
35D0
330
1F
100
AcDbEntity
  8
0
  6
ACDINTGL
 62
     6
 48
5.0
370
     0
100
AcDbLine
 10
22.76167457682259
 20
407.1596597407358
 30
0.0
 11
22.79612553168367
 21
422.1113741504581
 31
0.0
  0
LINE
  5
35D3
330
1F
100
AcDbEntity
  8
0
  6
ACDINTGL
 62
     6
 48
5.0
370
     0
100
AcDbLine
 10
7.351073448350277
 20
395.8321857824026
 30
0.0
 11
21.45942848307258
 21
395.8321857824026
 31
0.0
  0
LINE
  5
35D5
330
1F
100
AcDbEntity
  8
0
  6
ACDINTGL
 62
     6
 48
5.0
370
     0
100
AcDbLine
 10
-9.463748600260785
 20
395.8321857824026
 30
0.0
 11
-9.957086273871894
 21
395.3402261469859
 31
0.0
  0
LINE
  5
35D7
330
1F
100
AcDbEntity
  8
0
  6
ACDINTGL
 62
     6
 48
5.0
370
     0
100
AcDbLine
 10
-9.957086273871894
 20
393.3338025358747
 30
0.0
 11
-9.957086273871894
 21
395.3402261469859
 31
0.0
  0
LINE
  5
35D8
330
1F
100
AcDbEntity
  8
0
  6
ACDINTGL
 62
     6
 48
5.0
370
     0
100
AcDbLine
 10
-23.43016570095524
 20
393.3338025358747
 30
0.0
 11
-9.957086273871894
 21
393.3338025358747
 31
0.0
  0
LINE
  5
35DA
330
1F
100
AcDbEntity
  8
0
  6
ACDINTGL
 62
     6
 48
5.0
370
     0
100
AcDbLine
 10
-23.43016570095524
 20
393.3338025358747
 30
0.0
 11
-23.92212533637185
 21
392.8418429004581
 31
0.0
  0
LINE
  5
35DB
330
1F
100
AcDbEntity
  8
0
  6
ACDINTGL
 62
     6
 48
5.0
370
     0
100
AcDbLine
 10
-22.37458844401086
 20
395.8321857824026
 30
0.0
 11
-22.86654807942746
 21
395.3402261469859
 31
0.0
  0
LINE
  5
35DC
330
1F
100
AcDbEntity
  8
0
  6
ACDINTGL
 62
     6
 48
5.0
370
     0
100
AcDbLine
 10
-22.86654807942746
 20
393.3338025358747
 30
0.0
 11
-22.86654807942746
 21
395.3402261469859
 31
0.0
  0
LINE
  5
35DD
330
1F
100
AcDbEntity
  8
0
  6
ACDINTGL
 62
     6
 48
5.0
370
     0
100
AcDbLine
 10
-23.92212533637185
 20
390.8367973275414
 30
0.0
 11
-23.92212533637185
 21
392.8418429004581
 31
0.0
  0
LINE
  5
35DE
330
1F
100
AcDbEntity
  8
0
  6
ACDINTGL
 62
     6
 48
5.0
370
     0
100
AcDbLine
 10
21.95276615668358
 20
393.8271402094859
 30
0.0
 11
22.4447257921003
 21
393.3338025358747
 31
0.0
  0
LINE
  5
35DF
330
1F
100
AcDbEntity
  8
0
  6
ACDINTGL
 62
     6
 48
5.0
370
     0
100
AcDbLine
 10
21.95276615668358
 20
395.3402261469859
 30
0.0
 11
21.45942848307258
 21
395.8321857824026
 31
0.0
  0
LINE
  5
35E0
330
1F
100
AcDbEntity
  8
0
  6
ACDINTGL
 62
     6
 48
5.0
370
     0
100
AcDbLine
 10
21.95276615668358
 20
393.8271402094859
 30
0.0
 11
21.95276615668358
 21
395.3402261469859
 31
0.0
  0
LINE
  5
35E1
330
1F
100
AcDbEntity
  8
0
  6
ACDINTGL
 62
     6
 48
5.0
370
     0
100
AcDbLine
 10
8.266090809461431
 20
395.8321857824026
 30
0.0
 11
8.266090809461431
 21
400.3011636469858
 31
0.0
  0
LINE
  5
35E3
330
1F
100
AcDbEntity
  8
0
  6
ACDINTGL
 62
     6
 48
5.0
370
     0
100
AcDbLine
 10
-4.960319780816419
 20
398.6103107824025
 30
0.0
 11
-4.960319780816419
 21
410.2919405567081
 31
0.0
  0
LINE
  5
35E4
330
1F
100
AcDbEntity
  8
0
  6
ACDINTGL
 62
     6
 48
5.0
370
     0
100
AcDbLine
 10
-23.92212533637185
 20
390.8367973275414
 30
0.0
 11
32.32939376085032
 21
390.8367973275414
 31
0.0
  0
LINE
  5
35E5
330
1F
100
AcDbEntity
  8
0
  6
ACDINTGL
 62
     6
 48
5.0
370
     0
100
AcDbLine
 10
11.18615374348921
 20
400.3011636469858
 30
0.0
 11
11.18615374348921
 21
408.1449570497636
 31
0.0
  0
LINE
  5
35E7
330
1F
100
AcDbEntity
  8
0
  6
ACDINTGL
 62
     6
 48
5.0
370
     0
100
AcDbLine
 10
-4.960319780816419
 20
400.3011636469858
 30
0.0
 11
11.18615374348921
 21
400.3011636469858
 31
0.0
  0
LINE
  5
35E8
330
1F
100
AcDbEntity
  8
0
  6
ACDINTGL
 62
     6
 48
5.0
370
     0
100
AcDbLine
 10
22.4447257921003
 20
393.3338025358747
 30
0.0
 11
32.32939376085032
 21
393.3338025358747
 31
0.0
  0
LINE
  5
35EA
330
1F
100
AcDbEntity
  8
0
  6
ACDINTGL
 62
     6
 48
5.0
370
     0
100
AcDbLine
 10
32.32939376085032
 20
390.8367973275414
 30
0.0
 11
32.32939376085032
 21
393.3338025358747
 31
0.0
  0
LINE
  5
35EB
330
1F
100
AcDbEntity
  8
0
  6
ACDINTGL
 62
     6
 48
5.0
370
     0
100
AcDbLine
 10
-4.960319780816419
 20
399.3144882997636
 30
0.0
 11
-4.960319780816419
 21
410.2919405567081
 31
0.0
  0
LINE
  5
35ED
330
1F
100
AcDbEntity
  8
0
  6
ACDINTGL
 62
     6
 48
5.0
370
     0
100
AcDbLine
 10
11.18615374348921
 20
400.3011636469858
 30
0.0
 11
11.18615374348921
 21
407.7935573101802
 31
0.0
  0
LINE
  5
35EE
330
1F
100
AcDbEntity
  8
0
  6
ACDINTGL
 62
     6
 48
5.0
370
     0
100
AcDbLine
 10
6.5077140733503
 20
400.3011636469858
 30
0.0
 11
11.18615374348921
 21
400.3011636469858
 31
0.0
  0
LINE
  5
35EF
330
1F
100
AcDbEntity
  8
0
  6
AM_DIN_G_W050
 62
     4
 48
2.0
100
AcDbLine
 10
-99.99938228081644
 20
390.4331189421248
 30
0.0
 11
-99.99938228081644
 21
427.0531059212914
 31
0.0
  0
LINE
  5
35F0
330
1F
100
AcDbEntity
  8
0
  6
ACDINTGL
 62
     6
 48
5.0
370
     0
100
AcDbLine
 10
-88.77801726345522
 20
401.1983533171247
 30
0.0
 11
-83.04262229817751
 21
401.1983533171247
 31
0.0
  0
LINE
  5
35F1
330
1F
100
AcDbEntity
  8
0
  6
ACDINTGL
 62
     6
 48
5.0
370
     0
100
AcDbLine
 10
-83.04262229817751
 20
415.1633923796248
 30
0.0
 11
-76.07801726345539
 21
415.1633923796248
 31
0.0
  0
LINE
  5
35F2
330
1F
100
AcDbEntity
  8
0
  6
ACDINTGL
 62
     6
 48
5.0
370
     0
100
AcDbLine
 10
-88.77801726345522
 20
415.1633923796248
 30
0.0
 11
-83.04262229817751
 21
415.1633923796248
 31
0.0
  0
LINE
  5
35F3
330
1F
100
AcDbEntity
  8
0
  6
ACDINTGL
 62
     6
 48
5.0
370
     0
100
AcDbLine
 10
-77.55665224609422
 20
399.7210963726804
 30
0.0
 11
-76.07801726345539
 21
401.1983533171247
 31
0.0
  0
LINE
  5
35F4
330
1F
100
AcDbEntity
  8
0
  6
ACDINTGL
 62
     6
 48
5.0
370
     0
100
AcDbLine
 10
-83.04262229817751
 20
401.1983533171247
 30
0.0
 11
-81.56674339192747
 21
399.7210963726804
 31
0.0
  0
LINE
  5
35F5
330
1F
100
AcDbEntity
  8
0
  6
ACDINTGL
 62
     6
 48
5.0
370
     0
100
AcDbLine
 10
-77.55665224609422
 20
416.6764783171248
 30
0.0
 11
-76.07801726345539
 21
415.1633923796248
 31
0.0
  0
LINE
  5
35F6
330
1F
100
AcDbEntity
  8
0
  6
ACDINTGL
 62
     6
 48
5.0
370
     0
100
AcDbLine
 10
-83.04262229817751
 20
415.1633923796248
 30
0.0
 11
-81.56674339192747
 21
416.6764783171248
 31
0.0
  0
LINE
  5
35F7
330
1F
100
AcDbEntity
  8
0
  6
ACDINTGL
 62
     6
 48
5.0
370
     0
100
AcDbLine
 10
-81.56674339192747
 20
399.7210963726804
 30
0.0
 11
-77.55665224609422
 21
399.7210963726804
 31
0.0
  0
LINE
  5
35F8
330
1F
100
AcDbEntity
  8
0
  6
ACDINTGL
 62
     6
 48
5.0
370
     0
100
AcDbLine
 10
-81.56674339192747
 20
416.6764783171248
 30
0.0
 11
-77.55665224609422
 21
416.6764783171248
 31
0.0
  0
LINE
  5
35F9
330
1F
100
AcDbEntity
  8
0
  6
ACDINTGL
 62
     6
 48
5.0
370
     0
100
AcDbLine
 10
-76.07801726345539
 20
401.1983533171247
 30
0.0
 11
-75.09409799262195
 21
401.1983533171247
 31
0.0
  0
LINE
  5
35FA
330
1F
100
AcDbEntity
  8
0
  6
ACDINTGL
 62
     6
 48
5.0
370
     0
100
AcDbLine
 10
-76.07801726345539
 20
415.1633923796248
 30
0.0
 11
-75.09409799262195
 21
415.1633923796248
 31
0.0
  0
LINE
  5
35FB
330
1F
100
AcDbEntity
  8
0
  6
ACDINTGL
 62
     6
 48
5.0
370
     0
100
AcDbLine
 10
-83.04262229817751
 20
401.1983533171247
 30
0.0
 11
-83.04262229817751
 21
415.1633923796248
 31
0.0
  0
LINE
  5
35FC
330
1F
100
AcDbEntity
  8
0
  6
ACDINTGL
 62
     6
 48
5.0
370
     0
100
AcDbLine
 10
-76.07801726345539
 20
401.1983533171247
 30
0.0
 11
-76.07801726345539
 21
415.1633923796248
 31
0.0
  0
LINE
  5
35FD
330
1F
100
AcDbEntity
  8
0
  6
ACDINTGL
 62
     6
 48
5.0
370
     0
100
AcDbLine
 10
-75.09409799262195
 20
401.1983533171247
 30
0.0
 11
-75.09409799262195
 21
415.1633923796248
 31
0.0
  0
LINE
  5
35FE
330
1F
100
AcDbEntity
  8
0
  6
ACDINTGL
 62
     6
 48
5.0
370
     0
100
AcDbLine
 10
-110.2023770724831
 20
416.7123073101803
 30
0.0
 11
-111.2924052842886
 21
415.269501320597
 31
0.0
  0
LINE
  5
35FF
330
1F
100
AcDbEntity
  8
0
  6
ACDINTGL
 62
     6
 48
5.0
370
     0
100
AcDbLine
 10
-113.2974508572053
 20
409.0779757129581
 30
0.0
 11
-113.2974508572053
 21
407.2837699837914
 31
0.0
  0
LINE
  5
3600
330
1F
100
AcDbEntity
  8
0
  6
ACDINTGL
 62
     6
 48
5.0
370
     0
100
AcDbLine
 10
-104.9603197808164
 20
395.8501870844859
 30
0.0
 11
-103.2363939995664
 21
395.2865694629581
 31
0.0
  0
LINE
  5
3601
330
1F
100
AcDbEntity
  8
0
  6
ACDINTGL
 62
     6
 48
5.0
370
     0
100
AcDbLine
 10
-96.76237056206648
 20
395.2865694629581
 30
0.0
 11
-95.03982281901082
 21
395.8501870844859
 31
0.0
  0
LINE
  5
3602
330
1F
100
AcDbEntity
  8
0
  6
ACDINTGL
 62
     6
 48
5.0
370
     0
100
AcDbLine
 10
-88.74218827039973
 20
415.269501320597
 30
0.0
 11
-89.79914356553875
 21
416.7123073101803
 31
0.0
  0
POLYLINE
  5
3603
330
1F
100
AcDbEntity
  8
0
  6
ACDINTGL
 62
     6
 48
5.0
370
     0
100
AcDb2dPolyline
 66
     1
 10
0.0
 20
0.0
 30
0.0
  0
VERTEX
  5
3604
330
3603
100
AcDbEntity
  8
0
  6
ACDINTGL
 62
     6
 48
5.0
370
     0
100
AcDbVertex
100
AcDb2dVertex
 10
-110.2023770724831
 20
416.7123073101803
 30
0.0
  0
VERTEX
  5
3605
330
3603
100
AcDbEntity
  8
0
  6
ACDINTGL
 62
     6
 48
5.0
370
     0
100
AcDbVertex
100
AcDb2dVertex
 10
-107.8459317599831
 20
417.1339869976804
 30
0.0
  0
VERTEX
  5
3606
330
3603
100
AcDbEntity
  8
0
  6
ACDINTGL
 62
     6
 48
5.0
370
     0
100
AcDbVertex
100
AcDb2dVertex
 10
-105.9097880967885
 20
418.6112439421248
 30
0.0
  0
VERTEX
  5
3607
330
3603
100
AcDbEntity
  8
0
  6
ACDINTGL
 62
     6
 48
5.0
370
     0
100
AcDbVertex
100
AcDb2dVertex
 10
-104.9947707356775
 20
420.5460095671247
 30
0.0
  0
SEQEND
  5
3608
330
3603
100
AcDbEntity
  8
0
  6
ACDINTGL
 62
     6
 48
5.0
370
     0
  0
POLYLINE
  5
3609
330
1F
100
AcDbEntity
  8
0
  6
ACDINTGL
 62
     6
 48
5.0
370
     0
100
AcDb2dPolyline
 66
     1
 10
0.0
 20
0.0
 30
0.0
  0
VERTEX
  5
360A
330
3609
100
AcDbEntity
  8
0
  6
ACDINTGL
 62
     6
 48
5.0
370
     0
100
AcDbVertex
100
AcDb2dVertex
 10
-113.2974508572053
 20
409.0779757129581
 30
0.0
  0
VERTEX
  5
360B
330
3609
100
AcDbEntity
  8
0
  6
ACDINTGL
 62
     6
 48
5.0
370
     0
100
AcDbVertex
100
AcDb2dVertex
 10
-111.6093540690108
 20
410.8377304872637
 30
0.0
  0
VERTEX
  5
360C
330
3609
100
AcDbEntity
  8
0
  6
ACDINTGL
 62
     6
 48
5.0
370
     0
100
AcDbVertex
100
AcDb2dVertex
 10
-110.9051765516496
 20
413.123895851847
 30
0.0
  0
VERTEX
  5
360D
330
3609
100
AcDbEntity
  8
0
  6
ACDINTGL
 62
     6
 48
5.0
370
     0
100
AcDbVertex
100
AcDb2dVertex
 10
-111.2924052842886
 20
415.269501320597
 30
0.0
  0
SEQEND
  5
360E
330
3609
100
AcDbEntity
  8
0
  6
ACDINTGL
 62
     6
 48
5.0
370
     0
  0
POLYLINE
  5
360F
330
1F
100
AcDbEntity
  8
0
  6
ACDINTGL
 62
     6
 48
5.0
370
     0
100
AcDb2dPolyline
 66
     1
 10
0.0
 20
0.0
 30
0.0
  0
VERTEX
  5
3610
330
360F
100
AcDbEntity
  8
0
  6
ACDINTGL
 62
     6
 48
5.0
370
     0
100
AcDbVertex
100
AcDb2dVertex
 10
-111.2924052842886
 20
401.128073369208
 30
0.0
  0
VERTEX
  5
3611
330
360F
100
AcDbEntity
  8
0
  6
ACDINTGL
 62
     6
 48
5.0
370
     0
100
AcDbVertex
100
AcDb2dVertex
 10
-110.9410055447053
 20
403.5203476747637
 30
0.0
  0
VERTEX
  5
3612
330
360F
100
AcDbEntity
  8
0
  6
ACDINTGL
 62
     6
 48
5.0
370
     0
100
AcDbVertex
100
AcDb2dVertex
 10
-111.7499139648441
 20
405.7706840462915
 30
0.0
  0
VERTEX
  5
3613
330
360F
100
AcDbEntity
  8
0
  6
ACDINTGL
 62
     6
 48
5.0
370
     0
100
AcDbVertex
100
AcDb2dVertex
 10
-113.2974508572053
 20
407.2837699837914
 30
0.0
  0
SEQEND
  5
3614
330
360F
100
AcDbEntity
  8
0
  6
ACDINTGL
 62
     6
 48
5.0
370
     0
  0
POLYLINE
  5
3615
330
1F
100
AcDbEntity
  8
0
  6
ACDINTGL
 62
     6
 48
5.0
370
     0
100
AcDb2dPolyline
 66
     1
 10
0.0
 20
0.0
 30
0.0
  0
VERTEX
  5
3616
330
3615
100
AcDbEntity
  8
0
  6
ACDINTGL
 62
     6
 48
5.0
370
     0
100
AcDbVertex
100
AcDb2dVertex
 10
-89.79914356553875
 20
399.6494383865693
 30
0.0
  0
VERTEX
  5
3617
330
3615
100
AcDbEntity
  8
0
  6
ACDINTGL
 62
     6
 48
5.0
370
     0
100
AcDbVertex
100
AcDb2dVertex
 10
-92.19003983289983
 20
399.2277586990693
 30
0.0
  0
VERTEX
  5
3618
330
3615
100
AcDbEntity
  8
0
  6
ACDINTGL
 62
     6
 48
5.0
370
     0
100
AcDbVertex
100
AcDb2dVertex
 10
-94.08897646484431
 20
397.7505017546248
 30
0.0
  0
VERTEX
  5
3619
330
3615
100
AcDbEntity
  8
0
  6
ACDINTGL
 62
     6
 48
5.0
370
     0
100
AcDbVertex
100
AcDb2dVertex
 10
-95.03982281901082
 20
395.8501870844859
 30
0.0
  0
SEQEND
  5
361A
330
3615
100
AcDbEntity
  8
0
  6
ACDINTGL
 62
     6
 48
5.0
370
     0
  0
POLYLINE
  5
361B
330
1F
100
AcDbEntity
  8
0
  6
ACDINTGL
 62
     6
 48
5.0
370
     0
100
AcDb2dPolyline
 66
     1
 10
0.0
 20
0.0
 30
0.0
  0
VERTEX
  5
361C
330
361B
100
AcDbEntity
  8
0
  6
ACDINTGL
 62
     6
 48
5.0
370
     0
100
AcDbVertex
100
AcDb2dVertex
 10
-88.74218827039973
 20
415.269501320597
 30
0.0
  0
VERTEX
  5
361D
330
361B
100
AcDbEntity
  8
0
  6
ACDINTGL
 62
     6
 48
5.0
370
     0
100
AcDbVertex
100
AcDb2dVertex
 10
-89.09496604817761
 20
412.8772270150415
 30
0.0
  0
VERTEX
  5
361E
330
361B
100
AcDbEntity
  8
0
  6
ACDINTGL
 62
     6
 48
5.0
370
     0
100
AcDbVertex
100
AcDb2dVertex
 10
-88.2860576280386
 20
410.5910616504582
 30
0.0
  0
VERTEX
  5
361F
330
361B
100
AcDbEntity
  8
0
  6
ACDINTGL
 62
     6
 48
5.0
370
     0
100
AcDbVertex
100
AcDb2dVertex
 10
-86.73852073567761
 20
409.0779757129581
 30
0.0
  0
SEQEND
  5
3620
330
361B
100
AcDbEntity
  8
0
  6
ACDINTGL
 62
     6
 48
5.0
370
     0
  0
POLYLINE
  5
3621
330
1F
100
AcDbEntity
  8
0
  6
ACDINTGL
 62
     6
 48
5.0
370
     0
100
AcDb2dPolyline
 66
     1
 10
0.0
 20
0.0
 30
0.0
  0
VERTEX
  5
3622
330
3621
100
AcDbEntity
  8
0
  6
ACDINTGL
 62
     6
 48
5.0
370
     0
100
AcDbVertex
100
AcDb2dVertex
 10
-95.03982281901082
 20
420.5460095671247
 30
0.0
  0
VERTEX
  5
3623
330
3621
100
AcDbEntity
  8
0
  6
ACDINTGL
 62
     6
 48
5.0
370
     0
100
AcDbVertex
100
AcDb2dVertex
 10
-93.91396561414964
 20
418.3990260601803
 30
0.0
  0
VERTEX
  5
3624
330
3621
100
AcDbEntity
  8
0
  6
ACDINTGL
 62
     6
 48
5.0
370
     0
100
AcDbVertex
100
AcDb2dVertex
 10
-91.90892004123313
 20
417.0292560949026
 30
0.0
  0
VERTEX
  5
3625
330
3621
100
AcDbEntity
  8
0
  6
ACDINTGL
 62
     6
 48
5.0
370
     0
100
AcDbVertex
100
AcDb2dVertex
 10
-89.79914356553875
 20
416.7123073101803
 30
0.0
  0
SEQEND
  5
3626
330
3621
100
AcDbEntity
  8
0
  6
ACDINTGL
 62
     6
 48
5.0
370
     0
  0
LINE
  5
3627
330
1F
100
AcDbEntity
  8
0
  6
ACDINTGL
 62
     6
 48
5.0
370
     0
100
AcDbLine
 10
-100.7752177842887
 20
402.7114392546248
 30
0.0
 11
-99.26075380859423
 21
402.7114392546248
 31
0.0
  0
LINE
  5
3628
330
1F
100
AcDbEntity
  8
0
  6
ACDINTGL
 62
     6
 48
5.0
370
     0
100
AcDbLine
 10
-100.7752177842887
 20
413.6861354351804
 30
0.0
 11
-99.26075380859423
 21
413.6861354351804
 31
0.0
  0
LINE
  5
3629
330
1F
100
AcDbEntity
  8
0
  6
ACDINTGL
 62
     6
 48
5.0
370
     0
100
AcDbLine
 10
-100.7752177842887
 20
402.7114392546248
 30
0.0
 11
-100.7752177842887
 21
413.6861354351804
 31
0.0
  0
POLYLINE
  5
362A
330
1F
100
AcDbEntity
  8
0
  6
ACDINTGL
 62
     6
 48
5.0
370
     0
100
AcDb2dPolyline
 66
     1
 10
0.0
 20
0.0
 30
0.0
  0
VERTEX
  5
362B
330
362A
100
AcDbEntity
  8
0
  6
ACDINTGL
 62
     6
 48
5.0
370
     0
100
AcDbVertex
100
AcDb2dVertex
 10
-103.2363939995664
 20
421.1096271886525
 30
0.0
  0
VERTEX
  5
362C
330
362A
100
AcDbEntity
  8
0
  6
ACDINTGL
 62
     6
 48
5.0
370
     0
100
AcDbVertex
100
AcDb2dVertex
 10
-101.0894104926219
 20
420.019598976847
 30
0.0
  0
VERTEX
  5
362D
330
362A
100
AcDbEntity
  8
0
  6
ACDINTGL
 62
     6
 48
5.0
370
     0
100
AcDbVertex
100
AcDb2dVertex
 10
-98.66268523220535
 20
420.0885008865692
 30
0.0
  0
VERTEX
  5
362E
330
362A
100
AcDbEntity
  8
0
  6
ACDINTGL
 62
     6
 48
5.0
370
     0
100
AcDbVertex
100
AcDb2dVertex
 10
-96.76237056206648
 20
421.1096271886525
 30
0.0
  0
SEQEND
  5
362F
330
362A
100
AcDbEntity
  8
0
  6
ACDINTGL
 62
     6
 48
5.0
370
     0
  0
LINE
  5
3630
330
1F
100
AcDbEntity
  8
0
  6
ACDINTGL
 62
     6
 48
5.0
370
     0
100
AcDbLine
 10
-95.03982281901082
 20
420.5460095671247
 30
0.0
 11
-96.76237056206648
 21
421.1096271886525
 31
0.0
  0
LINE
  5
3631
330
1F
100
AcDbEntity
  8
0
  6
ACDINTGL
 62
     6
 48
5.0
370
     0
100
AcDbLine
 10
-103.2363939995664
 20
421.1096271886525
 30
0.0
 11
-104.9603197808164
 21
420.5460095671247
 31
0.0
  0
POLYLINE
  5
3633
330
1F
100
AcDbEntity
  8
0
  6
ACDINTGL
 62
     6
 48
5.0
370
     0
100
AcDb2dPolyline
 66
     1
 10
0.0
 20
0.0
 30
0.0
  0
VERTEX
  5
3634
330
3633
100
AcDbEntity
  8
0
  6
ACDINTGL
 62
     6
 48
5.0
370
     0
100
AcDbVertex
100
AcDb2dVertex
 10
-86.73852073567761
 20
407.2837699837914
 30
0.0
  0
VERTEX
  5
3635
330
3633
100
AcDbEntity
  8
0
  6
ACDINTGL
 62
     6
 48
5.0
370
     0
100
AcDbVertex
100
AcDb2dVertex
 10
-88.42523948567757
 20
405.5598442025415
 30
0.0
  0
VERTEX
  5
3636
330
3633
100
AcDbEntity
  8
0
  6
ACDINTGL
 62
     6
 48
5.0
370
     0
100
AcDbVertex
100
AcDb2dVertex
 10
-89.09496604817761
 20
403.2378498449025
 30
0.0
  0
VERTEX
  5
3637
330
3633
100
AcDbEntity
  8
0
  6
ACDINTGL
 62
     6
 48
5.0
370
     0
100
AcDbVertex
100
AcDb2dVertex
 10
-88.74218827039973
 20
401.128073369208
 30
0.0
  0
SEQEND
  5
3638
330
3633
100
AcDbEntity
  8
0
  6
ACDINTGL
 62
     6
 48
5.0
370
     0
  0
POLYLINE
  5
3639
330
1F
100
AcDbEntity
  8
0
  6
ACDINTGL
 62
     6
 48
5.0
370
     0
100
AcDb2dPolyline
 66
     1
 10
0.0
 20
0.0
 30
0.0
  0
VERTEX
  5
363A
330
3639
100
AcDbEntity
  8
0
  6
ACDINTGL
 62
     6
 48
5.0
370
     0
100
AcDbVertex
100
AcDb2dVertex
 10
-96.76237056206648
 20
395.2865694629581
 30
0.0
  0
VERTEX
  5
363B
330
3639
100
AcDbEntity
  8
0
  6
ACDINTGL
 62
     6
 48
5.0
370
     0
100
AcDbVertex
100
AcDb2dVertex
 10
-98.94518306206643
 20
396.3421467199026
 30
0.0
  0
VERTEX
  5
363C
330
3639
100
AcDbEntity
  8
0
  6
ACDINTGL
 62
     6
 48
5.0
370
     0
100
AcDbVertex
100
AcDb2dVertex
 10
-101.3360793294275
 20
396.271866771986
 30
0.0
  0
VERTEX
  5
363D
330
3639
100
AcDbEntity
  8
0
  6
ACDINTGL
 62
     6
 48
5.0
370
     0
100
AcDbVertex
100
AcDb2dVertex
 10
-103.2363939995664
 20
395.2865694629581
 30
0.0
  0
SEQEND
  5
363E
330
3639
100
AcDbEntity
  8
0
  6
ACDINTGL
 62
     6
 48
5.0
370
     0
  0
LINE
  5
363F
330
1F
100
AcDbEntity
  8
0
  6
ACDINTGL
 62
     6
 48
5.0
370
     0
100
AcDbLine
 10
-83.04262229817751
 20
401.1983533171247
 30
0.0
 11
-76.07801726345539
 21
401.1983533171247
 31
0.0
  0
LINE
  5
3643
330
1F
100
AcDbEntity
  8
0
  6
ACDINTGL
 62
     6
 48
5.0
370
     0
100
AcDbLine
 10
-99.26075380859423
 20
402.7114392546248
 30
0.0
 11
-99.26075380859423
 21
413.6861354351804
 31
0.0
  0
LINE
  5
3644
330
1F
100
AcDbEntity
  8
0
  6
ACDINTGL
 62
     6
 48
5.0
370
     0
100
AcDbLine
 10
-111.2924052842886
 20
401.128073369208
 30
0.0
 11
-110.2023770724831
 21
399.6494383865693
 31
0.0
  0
POLYLINE
  5
3645
330
1F
100
AcDbEntity
  8
0
  6
ACDINTGL
 62
     6
 48
5.0
370
     0
100
AcDb2dPolyline
 66
     1
 10
0.0
 20
0.0
 30
0.0
  0
VERTEX
  5
3646
330
3645
100
AcDbEntity
  8
0
  6
ACDINTGL
 62
     6
 48
5.0
370
     0
100
AcDbVertex
100
AcDb2dVertex
 10
-104.9947707356775
 20
395.8501870844859
 30
0.0
  0
VERTEX
  5
3647
330
3645
100
AcDbEntity
  8
0
  6
ACDINTGL
 62
     6
 48
5.0
370
     0
100
AcDbVertex
100
AcDb2dVertex
 10
-106.0861769856776
 20
397.9613415983748
 30
0.0
  0
VERTEX
  5
3648
330
3645
100
AcDbEntity
  8
0
  6
ACDINTGL
 62
     6
 48
5.0
370
     0
100
AcDbVertex
100
AcDb2dVertex
 10
-108.0926005967887
 20
399.332489601847
 30
0.0
  0
VERTEX
  5
3649
330
3645
100
AcDbEntity
  8
0
  6
ACDINTGL
 62
     6
 48
5.0
370
     0
100
AcDbVertex
100
AcDb2dVertex
 10
-110.2023770724831
 20
399.6494383865693
 30
0.0
  0
SEQEND
  5
364A
330
3645
100
AcDbEntity
  8
0
  6
ACDINTGL
 62
     6
 48
5.0
370
     0
  0
LINE
  5
364B
330
1F
100
AcDbEntity
  8
0
  6
ACDINTGL
 62
     6
 48
5.0
370
     0
100
AcDbLine
 10
-89.79914356553875
 20
399.6494383865693
 30
0.0
 11
-88.74218827039973
 21
401.128073369208
 31
0.0
  0
LINE
  5
364D
330
1F
100
AcDbEntity
  8
0
  6
ACDINTGL
 62
     6
 48
5.0
370
     0
100
AcDbLine
 10
-86.73852073567761
 20
407.2837699837914
 30
0.0
 11
-86.73852073567761
 21
409.0779757129581
 31
0.0
  0
POLYLINE
  5
366D
330
1F
100
AcDbEntity
  8
0
  6
ACDINTGL
 62
     6
 48
5.0
370
     0
100
AcDb2dPolyline
 66
     1
 10
0.0
 20
0.0
 30
0.0
  0
VERTEX
  5
366E
330
366D
100
AcDbEntity
  8
0
  6
ACDINTGL
 62
     6
 48
5.0
370
     0
100
AcDbVertex
100
AcDb2dVertex
 10
35.14334775390584
 20
412.2253281435136
 30
0.0
  0
VERTEX
  5
366F
330
366D
100
AcDbEntity
  8
0
  6
ACDINTGL
 62
     6
 48
5.0
370
     0
100
AcDbVertex
100
AcDb2dVertex
 10
33.48970192057258
 20
410.431122414347
 30
0.0
  0
VERTEX
  5
3670
330
366D
100
AcDbEntity
  8
0
  6
ACDINTGL
 62
     6
 48
5.0
370
     0
100
AcDbVertex
100
AcDb2dVertex
 10
32.75245148654476
 20
408.109128056708
 30
0.0
  0
VERTEX
  5
3671
330
366D
100
AcDbEntity
  8
0
  6
ACDINTGL
 62
     6
 48
5.0
370
     0
100
AcDbVertex
100
AcDb2dVertex
 10
33.10385122612802
 20
405.7182317893469
 30
0.0
  0
VERTEX
  5
3672
330
366D
100
AcDbEntity
  8
0
  6
ACDINTGL
 62
     6
 48
5.0
370
     0
100
AcDbVertex
100
AcDb2dVertex
 10
34.12359949001693
 20
404.0645859560136
 30
0.0
  0
SEQEND
  5
3673
330
366D
100
AcDbEntity
  8
0
  6
ACDINTGL
 62
     6
 48
5.0
370
     0
  0
LINE
  5
3674
330
1F
100
AcDbEntity
  8
0
  6
ACDINTGL
 62
     6
 48
5.0
370
     0
100
AcDbLine
 10
42.21406172960023
 20
390.5198485428192
 30
0.0
 11
42.21406172960023
 21
403.7104301400415
 31
0.0
  0
LINE
  5
3675
330
1F
100
AcDbEntity
  8
0
  6
ACDINTGL
 62
     6
 48
5.0
370
     0
100
AcDbLine
 10
34.2283303927948
 20
390.8367973275414
 30
0.0
 11
34.2283303927948
 21
403.7104301400415
 31
0.0
  0
LINE
  5
3676
330
1F
100
AcDbEntity
  8
0
  6
ACDINTGL
 62
     6
 48
5.0
370
     0
100
AcDbLine
 10
34.2283303927948
 20
403.7104301400415
 30
0.0
 11
34.12359949001693
 21
404.0645859560136
 31
0.0
  0
LINE
  5
3677
330
1F
100
AcDbEntity
  8
0
  6
ACDINTGL
 62
     6
 48
5.0
370
     0
100
AcDbLine
 10
42.35599966362808
 20
404.0645859560136
 30
0.0
 11
42.21406172960023
 21
403.7104301400415
 31
0.0
  0
POLYLINE
  5
3684
330
1F
100
AcDbEntity
  8
0
  6
ACDINTGL
 62
     6
 48
5.0
370
     0
100
AcDb2dPolyline
 66
     1
 10
0.0
 20
0.0
 30
0.0
  0
VERTEX
  5
3685
330
3684
100
AcDbEntity
  8
0
  6
ACDINTGL
 62
     6
 48
5.0
370
     0
100
AcDbVertex
100
AcDb2dVertex
 10
38.24117761501707
 20
413.1747964594858
 30
0.0
  0
VERTEX
  5
3686
330
3684
100
AcDbEntity
  8
0
  6
ACDINTGL
 62
     6
 48
5.0
370
     0
100
AcDbVertex
100
AcDb2dVertex
 10
35.84752527126698
 20
412.6483858692081
 30
0.0
  0
VERTEX
  5
3687
330
3684
100
AcDbEntity
  8
0
  6
ACDINTGL
 62
     6
 48
5.0
370
     0
100
AcDbVertex
100
AcDb2dVertex
 10
35.14334775390584
 20
412.2253281435136
 30
0.0
  0
SEQEND
  5
3688
330
3684
100
AcDbEntity
  8
0
  6
ACDINTGL
 62
     6
 48
5.0
370
     0
  0
POLYLINE
  5
3689
330
1F
100
AcDbEntity
  8
0
  6
ACDINTGL
 62
     6
 48
5.0
370
     0
100
AcDb2dPolyline
 66
     1
 10
0.0
 20
0.0
 30
0.0
  0
VERTEX
  5
368A
330
3689
100
AcDbEntity
  8
0
  6
ACDINTGL
 62
     6
 48
5.0
370
     0
100
AcDbVertex
100
AcDb2dVertex
 10
42.35599966362808
 20
404.0645859560136
 30
0.0
  0
VERTEX
  5
368B
330
3689
100
AcDbEntity
  8
0
  6
ACDINTGL
 62
     6
 48
5.0
370
     0
100
AcDbVertex
100
AcDb2dVertex
 10
43.51630782335023
 20
406.1743624317081
 30
0.0
  0
VERTEX
  5
368C
330
3689
100
AcDbEntity
  8
0
  6
ACDINTGL
 62
     6
 48
5.0
370
     0
100
AcDbVertex
100
AcDb2dVertex
 10
43.6210387261281
 20
408.6010876921248
 30
0.0
  0
VERTEX
  5
368D
330
3689
100
AcDbEntity
  8
0
  6
ACDINTGL
 62
     6
 48
5.0
370
     0
100
AcDbVertex
100
AcDb2dVertex
 10
42.70739940321145
 20
410.8528021018469
 30
0.0
  0
VERTEX
  5
368E
330
3689
100
AcDbEntity
  8
0
  6
ACDINTGL
 62
     6
 48
5.0
370
     0
100
AcDbVertex
100
AcDb2dVertex
 10
40.87736468098914
 20
412.4719969803192
 30
0.0
  0
VERTEX
  5
368F
330
3689
100
AcDbEntity
  8
0
  6
ACDINTGL
 62
     6
 48
5.0
370
     0
100
AcDbVertex
100
AcDb2dVertex
 10
38.55537032335023
 20
413.1747964594858
 30
0.0
  0
VERTEX
  5
3690
330
3689
100
AcDbEntity
  8
0
  6
ACDINTGL
 62
     6
 48
5.0
370
     0
100
AcDbVertex
100
AcDb2dVertex
 10
38.24117761501707
 20
413.1747964594858
 30
0.0
  0
SEQEND
  5
3691
330
3689
100
AcDbEntity
  8
0
  6
ACDINTGL
 62
     6
 48
5.0
370
     0
  0
LINE
  5
3693
330
1F
100
AcDbEntity
  8
0
  6
ACDINTGL
 62
     6
 48
5.0
370
     0
100
AcDbLine
 10
-23.92212533637185
 20
384.3627738900415
 30
0.0
 11
-10.94100554470522
 21
384.3627738900415
 31
0.0
  0
POLYLINE
  5
3694
330
1F
100
AcDbEntity
  8
0
  6
ACDINTGL
 62
     6
 48
5.0
370
     0
100
AcDb2dPolyline
 66
     1
 10
0.0
 20
0.0
 30
0.0
  0
VERTEX
  5
3695
330
3694
100
AcDbEntity
  8
0
  6
ACDINTGL
 62
     6
 48
5.0
370
     0
100
AcDbVertex
100
AcDb2dVertex
 10
43.90491459418358
 20
387.846454445597
 30
0.0
  0
VERTEX
  5
3696
330
3694
100
AcDbEntity
  8
0
  6
ACDINTGL
 62
     6
 48
5.0
370
     0
100
AcDbVertex
100
AcDb2dVertex
 10
43.02434818793362
 20
389.9934379525414
 30
0.0
  0
VERTEX
  5
3697
330
3694
100
AcDbEntity
  8
0
  6
ACDINTGL
 62
     6
 48
5.0
370
     0
100
AcDbVertex
100
AcDb2dVertex
 10
40.91457171223924
 20
390.8367973275414
 30
0.0
  0
SEQEND
  5
3698
330
3694
100
AcDbEntity
  8
0
  6
ACDINTGL
 62
     6
 48
5.0
370
     0
  0
LINE
  5
3699
330
1F
100
AcDbEntity
  8
0
  6
ACDINTGL
 62
     6
 48
5.0
370
     0
100
AcDbLine
 10
2.497622927516928
 20
398.6103107824025
 30
0.0
 11
15.97208039279478
 21
390.8367973275414
 31
0.0
  0
LINE
  5
369A
330
1F
100
AcDbEntity
  8
0
  6
ACDINTGL
 62
     6
 48
5.0
370
     0
100
AcDbLine
 10
-5.98006804470522
 20
398.6103107824025
 30
0.0
 11
2.497622927516928
 21
398.6103107824025
 31
0.0
  0
LINE
  5
36A0
330
1F
100
AcDbEntity
  8
0
  6
ACDINTGL
 62
     6
 48
5.0
370
     0
100
AcDbLine
 10
2.497622927516928
 20
390.8367973275414
 30
0.0
 11
2.497622927516928
 21
398.6103107824025
 31
0.0
  0
LINE
  5
36A1
330
1F
100
AcDbEntity
  8
0
  6
ACDINTGL
 62
     6
 48
5.0
370
     0
100
AcDbLine
 10
-5.98006804470522
 20
396.3599744108748
 30
0.0
 11
-5.98006804470522
 21
398.6103107824025
 31
0.0
  0
LINE
  5
36A2
330
1F
100
AcDbEntity
  8
0
  6
ACDINTGL
 62
     6
 48
5.0
370
     0
100
AcDbLine
 10
-23.92212533637185
 20
384.3627738900415
 30
0.0
 11
-23.92212533637185
 21
390.8367973275414
 31
0.0
  0
LINE
  5
36A3
330
1F
100
AcDbEntity
  8
0
  6
ACDINTGL
 62
     6
 48
5.0
370
     0
100
AcDbLine
 10
16.4640400282115
 20
372.2622205046248
 30
0.0
 11
16.4640400282115
 21
390.8367973275414
 31
0.0
  0
LINE
  5
36A4
330
1F
100
AcDbEntity
  8
0
  6
ACDINTGL
 62
     6
 48
5.0
370
     0
100
AcDbLine
 10
43.90491459418358
 20
372.2622205046248
 30
0.0
 11
43.90491459418358
 21
387.846454445597
 31
0.0
  0
LINE
  5
36A5
330
1F
100
AcDbEntity
  8
0
  6
ACDINTGL
 62
     6
 48
5.0
370
     0
100
AcDbLine
 10
-23.92212533637185
 20
390.8367973275414
 30
0.0
 11
40.91457171223924
 21
390.8367973275414
 31
0.0
  0
LINE
  5
36A6
330
1F
100
AcDbEntity
  8
0
  6
ACDINTGL
 62
     6
 48
5.0
370
     0
100
AcDbLine
 10
-10.94100554470522
 20
372.2622205046248
 30
0.0
 11
-10.94100554470522
 21
384.3627738900415
 31
0.0
  0
POLYLINE
  5
36AF
330
1F
100
AcDbEntity
  8
0
  6
ACDINTGL
 62
     6
 48
5.0
370
     0
100
AcDb2dPolyline
 66
     1
 10
0.0
 20
0.0
 30
0.0
  0
VERTEX
  5
36B0
330
36AF
100
AcDbEntity
  8
0
  6
ACDINTGL
 62
     6
 48
5.0
370
     0
100
AcDbVertex
100
AcDb2dVertex
 10
-1.582748166233002
 20
410.2919405567081
 30
0.0
  0
VERTEX
  5
36B1
330
36AF
100
AcDbEntity
  8
0
  6
ACDINTGL
 62
     6
 48
5.0
370
     0
100
AcDbVertex
100
AcDb2dVertex
 10
0.7736971462669971
 20
409.5161050532358
 30
0.0
  0
VERTEX
  5
36B2
330
36AF
100
AcDbEntity
  8
0
  6
ACDINTGL
 62
     6
 48
5.0
370
     0
100
AcDbVertex
100
AcDb2dVertex
 10
1.090645930989282
 20
409.4472031435136
 30
0.0
  0
SEQEND
  5
36B3
330
36AF
100
AcDbEntity
  8
0
  6
ACDINTGL
 62
     6
 48
5.0
370
     0
  0
LINE
  5
36BD
330
1F
100
AcDbEntity
  8
0
  6
ACDINTGL
 62
     6
 48
5.0
370
     0
100
AcDbLine
 10
1.090645930989282
 20
409.4472031435136
 30
0.0
 11
33.28024011501707
 21
405.2951740636525
 31
0.0
  0
LINE
  5
36BE
330
1F
100
AcDbEntity
  8
0
  6
ACDINTGL
 62
     6
 48
5.0
370
     0
100
AcDbLine
 10
13.29868629557249
 20
421.3355386469857
 30
0.0
 11
35.14334775390584
 21
412.2253281435136
 31
0.0
  0
LINE
  5
36F4
330
1F
100
AcDbEntity
  8
0
  6
ACDINTGL
 62
     6
 48
5.0
370
     0
100
AcDbLine
 10
78.44957605251697
 20
303.3107014074025
 30
0.0
 11
78.55430695529484
 21
303.8715629525414
 31
0.0
  0
LINE
  5
36F5
330
1F
100
AcDbEntity
  8
0
  6
ACDINTGL
 62
     6
 48
5.0
370
     0
100
AcDbLine
 10
75.03755348307258
 20
303.8715629525414
 30
0.0
 11
75.14228438585023
 21
303.3107014074025
 31
0.0
  0
LINE
  5
36F6
330
1F
100
AcDbEntity
  8
0
  6
ACDINTGL
 62
     6
 48
5.0
370
     0
100
AcDbLine
 10
75.03755348307258
 20
308.7277695497637
 30
0.0
 11
75.14228438585023
 21
309.2913871712914
 31
0.0
  0
LINE
  5
36F7
330
1F
100
AcDbEntity
  8
0
  6
ACDINTGL
 62
     6
 48
5.0
370
     0
100
AcDbLine
 10
78.44957605251697
 20
309.2913871712914
 30
0.0
 11
78.55430695529484
 21
308.7277695497637
 31
0.0
  0
LINE
  5
36F8
330
1F
100
AcDbEntity
  8
0
  6
ACDINTGL
 62
     6
 48
5.0
370
     0
100
AcDbLine
 10
0.7736971462669971
 20
303.6621011469859
 30
0.0
 11
-0.2116001627607176
 21
303.5918211990692
 31
0.0
  0
LINE
  5
36F9
330
1F
100
AcDbEntity
  8
0
  6
ACDINTGL
 62
     6
 48
5.0
370
     0
100
AcDbLine
 10
0.7736971462669971
 20
303.9087699837915
 30
0.0
 11
0.7736971462669971
 21
303.6621011469859
 31
0.0
  0
LINE
  5
36FA
330
1F
100
AcDbEntity
  8
0
  6
ACDINTGL
 62
     6
 48
5.0
370
     0
100
AcDbLine
 10
-0.2460511176219171
 20
303.8384900358748
 30
0.0
 11
0.7736971462669971
 21
303.9087699837915
 31
0.0
  0
LINE
  5
36FB
330
1F
100
AcDbEntity
  8
0
  6
ACDINTGL
 62
     6
 48
5.0
370
     0
100
AcDbLine
 10
-0.2116001627607176
 20
303.5918211990692
 30
0.0
 11
-0.2460511176219171
 21
303.8384900358748
 31
0.0
  0
LINE
  5
36FC
330
1F
100
AcDbEntity
  8
0
  6
ACDINTGL
 62
     6
 48
5.0
370
     0
100
AcDbLine
 10
0.8095261393225854
 20
303.3451523622637
 30
0.0
 11
-0.2116001627607176
 21
303.274872414347
 31
0.0
  0
LINE
  5
36FD
330
1F
100
AcDbEntity
  8
0
  6
ACDINTGL
 62
     6
 48
5.0
370
     0
100
AcDbLine
 10
0.7736971462669971
 20
303.6621011469859
 30
0.0
 11
0.8095261393225854
 21
303.3451523622637
 31
0.0
  0
LINE
  5
36FE
330
1F
100
AcDbEntity
  8
0
  6
ACDINTGL
 62
     6
 48
5.0
370
     0
100
AcDbLine
 10
-0.2116001627607176
 20
303.5918211990692
 30
0.0
 11
0.7736971462669971
 21
303.6621011469859
 31
0.0
  0
LINE
  5
36FF
330
1F
100
AcDbEntity
  8
0
  6
ACDINTGL
 62
     6
 48
5.0
370
     0
100
AcDbLine
 10
-0.2116001627607176
 20
303.274872414347
 30
0.0
 11
-0.2116001627607176
 21
303.5918211990692
 31
0.0
  0
LINE
  5
3700
330
1F
100
AcDbEntity
  8
0
  6
ACDINTGL
 62
     6
 48
5.0
370
     0
100
AcDbLine
 10
4.221548708766974
 20
303.5918211990692
 30
0.0
 11
3.236251399739145
 21
303.6621011469859
 31
0.0
  0
LINE
  5
3701
330
1F
100
AcDbEntity
  8
0
  6
ACDINTGL
 62
     6
 48
5.0
370
     0
100
AcDbLine
 10
4.25599966362806
 20
303.8384900358748
 30
0.0
 11
4.221548708766974
 21
303.5918211990692
 31
0.0
  0
LINE
  5
3702
330
1F
100
AcDbEntity
  8
0
  6
ACDINTGL
 62
     6
 48
5.0
370
     0
100
AcDbLine
 10
3.270702354600345
 20
303.9087699837915
 30
0.0
 11
4.25599966362806
 21
303.8384900358748
 31
0.0
  0
LINE
  5
3703
330
1F
100
AcDbEntity
  8
0
  6
ACDINTGL
 62
     6
 48
5.0
370
     0
100
AcDbLine
 10
3.236251399739145
 20
303.6621011469859
 30
0.0
 11
3.270702354600345
 21
303.9087699837915
 31
0.0
  0
LINE
  5
3704
330
1F
100
AcDbEntity
  8
0
  6
ACDINTGL
 62
     6
 48
5.0
370
     0
100
AcDbLine
 10
4.221548708766974
 20
303.274872414347
 30
0.0
 11
3.200422406683671
 21
303.3451523622637
 31
0.0
  0
LINE
  5
3705
330
1F
100
AcDbEntity
  8
0
  6
ACDINTGL
 62
     6
 48
5.0
370
     0
100
AcDbLine
 10
4.221548708766974
 20
303.5918211990692
 30
0.0
 11
4.221548708766974
 21
303.274872414347
 31
0.0
  0
LINE
  5
3706
330
1F
100
AcDbEntity
  8
0
  6
ACDINTGL
 62
     6
 48
5.0
370
     0
100
AcDbLine
 10
3.236251399739145
 20
303.6621011469859
 30
0.0
 11
4.221548708766974
 21
303.5918211990692
 31
0.0
  0
LINE
  5
3707
330
1F
100
AcDbEntity
  8
0
  6
ACDINTGL
 62
     6
 48
5.0
370
     0
100
AcDbLine
 10
3.200422406683671
 20
303.3451523622637
 30
0.0
 11
3.236251399739145
 21
303.6621011469859
 31
0.0
  0
LINE
  5
3708
330
1F
100
AcDbEntity
  8
0
  6
ACDINTGL
 62
     6
 48
5.0
370
     0
100
AcDbLine
 10
-0.2116001627607176
 20
309.0088893414303
 30
0.0
 11
0.7736971462669971
 21
308.9399874317081
 31
0.0
  0
LINE
  5
3709
330
1F
100
AcDbEntity
  8
0
  6
ACDINTGL
 62
     6
 48
5.0
370
     0
100
AcDbLine
 10
-0.2460511176219171
 20
308.7635985428192
 30
0.0
 11
-0.2116001627607176
 21
309.0088893414303
 31
0.0
  0
LINE
  5
370A
330
1F
100
AcDbEntity
  8
0
  6
ACDINTGL
 62
     6
 48
5.0
370
     0
100
AcDbLine
 10
0.7736971462669971
 20
308.6919405567081
 30
0.0
 11
-0.2460511176219171
 21
308.7635985428192
 31
0.0
  0
LINE
  5
370B
330
1F
100
AcDbEntity
  8
0
  6
ACDINTGL
 62
     6
 48
5.0
370
     0
100
AcDbLine
 10
0.7736971462669971
 20
308.9399874317081
 30
0.0
 11
0.7736971462669971
 21
308.6919405567081
 31
0.0
  0
LINE
  5
370C
330
1F
100
AcDbEntity
  8
0
  6
ACDINTGL
 62
     6
 48
5.0
370
     0
100
AcDbLine
 10
-0.2116001627607176
 20
309.3258381261525
 30
0.0
 11
0.8095261393225854
 21
309.2555581782359
 31
0.0
  0
LINE
  5
370D
330
1F
100
AcDbEntity
  8
0
  6
ACDINTGL
 62
     6
 48
5.0
370
     0
100
AcDbLine
 10
-0.2116001627607176
 20
309.0088893414303
 30
0.0
 11
-0.2116001627607176
 21
309.3258381261525
 31
0.0
  0
LINE
  5
370E
330
1F
100
AcDbEntity
  8
0
  6
ACDINTGL
 62
     6
 48
5.0
370
     0
100
AcDbLine
 10
0.7736971462669971
 20
308.9399874317081
 30
0.0
 11
-0.2116001627607176
 21
309.0088893414303
 31
0.0
  0
LINE
  5
370F
330
1F
100
AcDbEntity
  8
0
  6
ACDINTGL
 62
     6
 48
5.0
370
     0
100
AcDbLine
 10
0.8095261393225854
 20
309.2555581782359
 30
0.0
 11
0.7736971462669971
 21
308.9399874317081
 31
0.0
  0
LINE
  5
3710
330
1F
100
AcDbEntity
  8
0
  6
ACDINTGL
 62
     6
 48
5.0
370
     0
100
AcDbLine
 10
3.236251399739145
 20
308.9399874317081
 30
0.0
 11
4.221548708766974
 21
309.0088893414303
 31
0.0
  0
LINE
  5
3711
330
1F
100
AcDbEntity
  8
0
  6
ACDINTGL
 62
     6
 48
5.0
370
     0
100
AcDbLine
 10
3.270702354600345
 20
308.6919405567081
 30
0.0
 11
3.236251399739145
 21
308.9399874317081
 31
0.0
  0
LINE
  5
3712
330
1F
100
AcDbEntity
  8
0
  6
ACDINTGL
 62
     6
 48
5.0
370
     0
100
AcDbLine
 10
4.25599966362806
 20
308.7635985428192
 30
0.0
 11
3.270702354600345
 21
308.6919405567081
 31
0.0
  0
LINE
  5
3713
330
1F
100
AcDbEntity
  8
0
  6
ACDINTGL
 62
     6
 48
5.0
370
     0
100
AcDbLine
 10
4.221548708766974
 20
309.0088893414303
 30
0.0
 11
4.25599966362806
 21
308.7635985428192
 31
0.0
  0
LINE
  5
3714
330
1F
100
AcDbEntity
  8
0
  6
ACDINTGL
 62
     6
 48
5.0
370
     0
100
AcDbLine
 10
3.200422406683671
 20
309.2555581782359
 30
0.0
 11
4.221548708766974
 21
309.3258381261525
 31
0.0
  0
LINE
  5
3715
330
1F
100
AcDbEntity
  8
0
  6
ACDINTGL
 62
     6
 48
5.0
370
     0
100
AcDbLine
 10
3.236251399739145
 20
308.9399874317081
 30
0.0
 11
3.200422406683671
 21
309.2555581782359
 31
0.0
  0
LINE
  5
3716
330
1F
100
AcDbEntity
  8
0
  6
ACDINTGL
 62
     6
 48
5.0
370
     0
100
AcDbLine
 10
4.221548708766974
 20
309.0088893414303
 30
0.0
 11
3.236251399739145
 21
308.9399874317081
 31
0.0
  0
LINE
  5
3717
330
1F
100
AcDbEntity
  8
0
  6
ACDINTGL
 62
     6
 48
5.0
370
     0
100
AcDbLine
 10
4.221548708766974
 20
309.3258381261525
 30
0.0
 11
4.221548708766974
 21
309.0088893414303
 31
0.0
  0
POLYLINE
  5
3718
330
1F
100
AcDbEntity
  8
0
  6
ACDINTGL
 62
     6
 48
5.0
370
     0
100
AcDb2dPolyline
 66
     1
 10
0.0
 20
0.0
 30
0.0
  0
VERTEX
  5
3719
330
3718
100
AcDbEntity
  8
0
  6
ACDINTGL
 62
     6
 48
5.0
370
     0
100
AcDbVertex
100
AcDb2dVertex
 10
0.2100795247392142
 20
309.2913871712914
 30
0.0
  0
VERTEX
  5
371A
330
3718
100
AcDbEntity
  8
0
  6
ACDINTGL
 62
     6
 48
5.0
370
     0
100
AcDbVertex
100
AcDb2dVertex
 10
-1.265799381510717
 20
307.4627304872636
 30
0.0
  0
VERTEX
  5
371B
330
3718
100
AcDbEntity
  8
0
  6
ACDINTGL
 62
     6
 48
5.0
370
     0
100
AcDbVertex
100
AcDb2dVertex
 10
-1.265799381510717
 20
305.1393580914303
 30
0.0
  0
VERTEX
  5
371C
330
3718
100
AcDbEntity
  8
0
  6
ACDINTGL
 62
     6
 48
5.0
370
     0
100
AcDbVertex
100
AcDb2dVertex
 10
0.2100795247392142
 20
303.3107014074025
 30
0.0
  0
SEQEND
  5
371D
330
3718
100
AcDbEntity
  8
0
  6
ACDINTGL
 62
     6
 48
5.0
370
     0
  0
POLYLINE
  5
371E
330
1F
100
AcDbEntity
  8
0
  6
ACDINTGL
 62
     6
 48
5.0
370
     0
100
AcDb2dPolyline
 66
     1
 10
0.0
 20
0.0
 30
0.0
  0
VERTEX
  5
371F
330
371E
100
AcDbEntity
  8
0
  6
ACDINTGL
 62
     6
 48
5.0
370
     0
100
AcDbVertex
100
AcDb2dVertex
 10
-0.9860576280386368
 20
306.301044289347
 30
0.0
  0
VERTEX
  5
3720
330
371E
100
AcDbEntity
  8
0
  6
ACDINTGL
 62
     6
 48
5.0
370
     0
100
AcDbVertex
100
AcDb2dVertex
 10
-0.1054912217885686
 20
304.155438820597
 30
0.0
  0
VERTEX
  5
3721
330
371E
100
AcDbEntity
  8
0
  6
ACDINTGL
 62
     6
 48
5.0
370
     0
100
AcDbVertex
100
AcDb2dVertex
 10
0.2459085177948026
 20
303.8715629525414
 30
0.0
  0
SEQEND
  5
3722
330
371E
100
AcDbEntity
  8
0
  6
ACDINTGL
 62
     6
 48
5.0
370
     0
  0
POLYLINE
  5
3723
330
1F
100
AcDbEntity
  8
0
  6
ACDINTGL
 62
     6
 48
5.0
370
     0
100
AcDb2dPolyline
 66
     1
 10
0.0
 20
0.0
 30
0.0
  0
VERTEX
  5
3724
330
3723
100
AcDbEntity
  8
0
  6
ACDINTGL
 62
     6
 48
5.0
370
     0
100
AcDbVertex
100
AcDb2dVertex
 10
3.764040028211454
 20
303.8715629525414
 30
0.0
  0
VERTEX
  5
3725
330
3723
100
AcDbEntity
  8
0
  6
ACDINTGL
 62
     6
 48
5.0
370
     0
100
AcDbVertex
100
AcDb2dVertex
 10
4.96155521918358
 20
305.8090846539303
 30
0.0
  0
VERTEX
  5
3726
330
3723
100
AcDbEntity
  8
0
  6
ACDINTGL
 62
     6
 48
5.0
370
     0
100
AcDbVertex
100
AcDb2dVertex
 10
4.432388552516997
 20
308.0594210254581
 30
0.0
  0
VERTEX
  5
3727
330
3723
100
AcDbEntity
  8
0
  6
ACDINTGL
 62
     6
 48
5.0
370
     0
100
AcDbVertex
100
AcDb2dVertex
 10
3.764040028211454
 20
308.7277695497637
 30
0.0
  0
SEQEND
  5
3728
330
3723
100
AcDbEntity
  8
0
  6
ACDINTGL
 62
     6
 48
5.0
370
     0
  0
POLYLINE
  5
3729
330
1F
100
AcDbEntity
  8
0
  6
ACDINTGL
 62
     6
 48
5.0
370
     0
100
AcDb2dPolyline
 66
     1
 10
0.0
 20
0.0
 30
0.0
  0
VERTEX
  5
372A
330
3729
100
AcDbEntity
  8
0
  6
ACDINTGL
 62
     6
 48
5.0
370
     0
100
AcDbVertex
100
AcDb2dVertex
 10
0.2459085177948026
 20
308.7277695497637
 30
0.0
  0
VERTEX
  5
372B
330
3729
100
AcDbEntity
  8
0
  6
ACDINTGL
 62
     6
 48
5.0
370
     0
100
AcDbVertex
100
AcDb2dVertex
 10
-0.9502286349829347
 20
306.7571749317081
 30
0.0
  0
VERTEX
  5
372C
330
3729
100
AcDbEntity
  8
0
  6
ACDINTGL
 62
     6
 48
5.0
370
     0
100
AcDbVertex
100
AcDb2dVertex
 10
-0.9860576280386368
 20
306.301044289347
 30
0.0
  0
SEQEND
  5
372D
330
3729
100
AcDbEntity
  8
0
  6
ACDINTGL
 62
     6
 48
5.0
370
     0
  0
POLYLINE
  5
372E
330
1F
100
AcDbEntity
  8
0
  6
ACDINTGL
 62
     6
 48
5.0
370
     0
100
AcDb2dPolyline
 66
     1
 10
0.0
 20
0.0
 30
0.0
  0
VERTEX
  5
372F
330
372E
100
AcDbEntity
  8
0
  6
ACDINTGL
 62
     6
 48
5.0
370
     0
100
AcDbVertex
100
AcDb2dVertex
 10
3.799869021266928
 20
303.3107014074025
 30
0.0
  0
VERTEX
  5
3730
330
372E
100
AcDbEntity
  8
0
  6
ACDINTGL
 62
     6
 48
5.0
370
     0
100
AcDbVertex
100
AcDb2dVertex
 10
5.311576920572562
 20
305.1062851747636
 30
0.0
  0
VERTEX
  5
3731
330
372E
100
AcDbEntity
  8
0
  6
ACDINTGL
 62
     6
 48
5.0
370
     0
100
AcDbVertex
100
AcDb2dVertex
 10
5.311576920572562
 20
307.4627304872636
 30
0.0
  0
VERTEX
  5
3732
330
372E
100
AcDbEntity
  8
0
  6
ACDINTGL
 62
     6
 48
5.0
370
     0
100
AcDbVertex
100
AcDb2dVertex
 10
3.799869021266928
 20
309.2913871712914
 30
0.0
  0
SEQEND
  5
3733
330
372E
100
AcDbEntity
  8
0
  6
ACDINTGL
 62
     6
 48
5.0
370
     0
  0
LINE
  5
3734
330
1F
100
AcDbEntity
  8
0
  6
ACDINTGL
 62
     6
 48
5.0
370
     0
100
AcDbLine
 10
0.2100795247392142
 20
303.3107014074025
 30
0.0
 11
3.799869021266928
 21
303.3107014074025
 31
0.0
  0
LINE
  5
3735
330
1F
100
AcDbEntity
  8
0
  6
ACDINTGL
 62
     6
 48
5.0
370
     0
100
AcDbLine
 10
0.2100795247392142
 20
309.2913871712914
 30
0.0
 11
3.799869021266928
 21
309.2913871712914
 31
0.0
  0
POLYLINE
  5
3736
330
1F
100
AcDbEntity
  8
0
  6
ACDINTGL
 62
     6
 48
5.0
370
     0
100
AcDb2dPolyline
 66
     1
 10
0.0
 20
0.0
 30
0.0
  0
VERTEX
  5
3737
330
3736
100
AcDbEntity
  8
0
  6
ACDINTGL
 62
     6
 48
5.0
370
     0
100
AcDbVertex
100
AcDb2dVertex
 10
73.80558733723915
 20
306.301044289347
 30
0.0
  0
VERTEX
  5
3738
330
3736
100
AcDbEntity
  8
0
  6
ACDINTGL
 62
     6
 48
5.0
370
     0
100
AcDbVertex
100
AcDb2dVertex
 10
74.68615374348921
 20
304.155438820597
 30
0.0
  0
VERTEX
  5
3739
330
3736
100
AcDbEntity
  8
0
  6
ACDINTGL
 62
     6
 48
5.0
370
     0
100
AcDbVertex
100
AcDb2dVertex
 10
75.03755348307258
 20
303.8715629525414
 30
0.0
  0
SEQEND
  5
373A
330
3736
100
AcDbEntity
  8
0
  6
ACDINTGL
 62
     6
 48
5.0
370
     0
  0
POLYLINE
  5
373B
330
1F
100
AcDbEntity
  8
0
  6
ACDINTGL
 62
     6
 48
5.0
370
     0
100
AcDb2dPolyline
 66
     1
 10
0.0
 20
0.0
 30
0.0
  0
VERTEX
  5
373C
330
373B
100
AcDbEntity
  8
0
  6
ACDINTGL
 62
     6
 48
5.0
370
     0
100
AcDbVertex
100
AcDb2dVertex
 10
78.55430695529484
 20
303.8715629525414
 30
0.0
  0
VERTEX
  5
373D
330
373B
100
AcDbEntity
  8
0
  6
ACDINTGL
 62
     6
 48
5.0
370
     0
100
AcDbVertex
100
AcDb2dVertex
 10
79.75182214626697
 20
305.8090846539303
 30
0.0
  0
VERTEX
  5
373E
330
373B
100
AcDbEntity
  8
0
  6
ACDINTGL
 62
     6
 48
5.0
370
     0
100
AcDbVertex
100
AcDb2dVertex
 10
79.22403351779466
 20
308.0594210254581
 30
0.0
  0
VERTEX
  5
373F
330
373B
100
AcDbEntity
  8
0
  6
ACDINTGL
 62
     6
 48
5.0
370
     0
100
AcDbVertex
100
AcDb2dVertex
 10
78.55430695529484
 20
308.7277695497637
 30
0.0
  0
SEQEND
  5
3740
330
373B
100
AcDbEntity
  8
0
  6
ACDINTGL
 62
     6
 48
5.0
370
     0
  0
POLYLINE
  5
3741
330
1F
100
AcDbEntity
  8
0
  6
ACDINTGL
 62
     6
 48
5.0
370
     0
100
AcDb2dPolyline
 66
     1
 10
0.0
 20
0.0
 30
0.0
  0
VERTEX
  5
3742
330
3741
100
AcDbEntity
  8
0
  6
ACDINTGL
 62
     6
 48
5.0
370
     0
100
AcDbVertex
100
AcDb2dVertex
 10
75.03755348307258
 20
308.7277695497637
 30
0.0
  0
VERTEX
  5
3743
330
3741
100
AcDbEntity
  8
0
  6
ACDINTGL
 62
     6
 48
5.0
370
     0
100
AcDbVertex
100
AcDb2dVertex
 10
73.84141633029485
 20
306.7571749317081
 30
0.0
  0
VERTEX
  5
3744
330
3741
100
AcDbEntity
  8
0
  6
ACDINTGL
 62
     6
 48
5.0
370
     0
100
AcDbVertex
100
AcDb2dVertex
 10
73.80558733723915
 20
306.301044289347
 30
0.0
  0
SEQEND
  5
3745
330
3741
100
AcDbEntity
  8
0
  6
ACDINTGL
 62
     6
 48
5.0
370
     0
  0
LINE
  5
3746
330
1F
100
AcDbEntity
  8
0
  6
ACDINTGL
 62
     6
 48
5.0
370
     0
100
AcDbLine
 10
75.00172449001688
 20
303.3107014074025
 30
0.0
 11
78.59151398654471
 21
303.3107014074025
 31
0.0
  0
LINE
  5
3747
330
1F
100
AcDbEntity
  8
0
  6
ACDINTGL
 62
     6
 48
5.0
370
     0
100
AcDbLine
 10
75.00172449001688
 20
309.2913871712914
 30
0.0
 11
78.59151398654471
 21
309.2913871712914
 31
0.0
  0
LINE
  5
3748
330
1F
100
AcDbEntity
  8
0
  6
AM_DIN_G_W050
 62
     4
 48
2.0
100
AcDbLine
 10
39.40148577473922
 20
291.6318277094859
 30
0.0
 11
39.40148577473922
 21
319.633563820597
 31
0.0
  0
LINE
  5
3805
330
1F
100
AcDbEntity
  8
0
  6
ACDINTGL
 62
     6
 48
5.0
370
     0
100
AcDbLine
 10
-0.2116001627607176
 20
303.5918211990692
 30
0.0
 11
-0.2460511176219171
 21
303.8384900358748
 31
0.0
  0
LINE
  5
3806
330
1F
100
AcDbEntity
  8
0
  6
ACDINTGL
 62
     6
 48
5.0
370
     0
100
AcDbLine
 10
0.7736971462669971
 20
303.6621011469859
 30
0.0
 11
-0.2116001627607176
 21
303.5918211990692
 31
0.0
  0
LINE
  5
3807
330
1F
100
AcDbEntity
  8
0
  6
ACDINTGL
 62
     6
 48
5.0
370
     0
100
AcDbLine
 10
0.7736971462669971
 20
303.9087699837915
 30
0.0
 11
0.7736971462669971
 21
303.6621011469859
 31
0.0
  0
LINE
  5
3808
330
1F
100
AcDbEntity
  8
0
  6
ACDINTGL
 62
     6
 48
5.0
370
     0
100
AcDbLine
 10
-0.2460511176219171
 20
303.8384900358748
 30
0.0
 11
0.7736971462669971
 21
303.9087699837915
 31
0.0
  0
LINE
  5
3809
330
1F
100
AcDbEntity
  8
0
  6
ACDINTGL
 62
     6
 48
5.0
370
     0
100
AcDbLine
 10
0.7736971462669971
 20
303.6621011469859
 30
0.0
 11
-0.2116001627607176
 21
303.5918211990692
 31
0.0
  0
LINE
  5
380A
330
1F
100
AcDbEntity
  8
0
  6
ACDINTGL
 62
     6
 48
5.0
370
     0
100
AcDbLine
 10
0.7736971462669971
 20
303.9087699837915
 30
0.0
 11
0.7736971462669971
 21
303.6621011469859
 31
0.0
  0
LINE
  5
380B
330
1F
100
AcDbEntity
  8
0
  6
ACDINTGL
 62
     6
 48
5.0
370
     0
100
AcDbLine
 10
-0.2460511176219171
 20
303.8384900358748
 30
0.0
 11
0.7736971462669971
 21
303.9087699837915
 31
0.0
  0
LINE
  5
380C
330
1F
100
AcDbEntity
  8
0
  6
ACDINTGL
 62
     6
 48
5.0
370
     0
100
AcDbLine
 10
-0.2116001627607176
 20
303.5918211990692
 30
0.0
 11
-0.2460511176219171
 21
303.8384900358748
 31
0.0
  0
LINE
  5
380D
330
1F
100
AcDbEntity
  8
0
  6
ACDINTGL
 62
     6
 48
5.0
370
     0
100
AcDbLine
 10
-0.2116001627607176
 20
303.274872414347
 30
0.0
 11
-0.2116001627607176
 21
303.5918211990692
 31
0.0
  0
LINE
  5
380E
330
1F
100
AcDbEntity
  8
0
  6
ACDINTGL
 62
     6
 48
5.0
370
     0
100
AcDbLine
 10
0.8095261393225854
 20
303.3451523622637
 30
0.0
 11
-0.2116001627607176
 21
303.274872414347
 31
0.0
  0
LINE
  5
380F
330
1F
100
AcDbEntity
  8
0
  6
ACDINTGL
 62
     6
 48
5.0
370
     0
100
AcDbLine
 10
0.7736971462669971
 20
303.6621011469859
 30
0.0
 11
0.8095261393225854
 21
303.3451523622637
 31
0.0
  0
LINE
  5
3810
330
1F
100
AcDbEntity
  8
0
  6
ACDINTGL
 62
     6
 48
5.0
370
     0
100
AcDbLine
 10
-0.2116001627607176
 20
303.5918211990692
 30
0.0
 11
0.7736971462669971
 21
303.6621011469859
 31
0.0
  0
LINE
  5
3811
330
1F
100
AcDbEntity
  8
0
  6
ACDINTGL
 62
     6
 48
5.0
370
     0
100
AcDbLine
 10
0.8095261393225854
 20
303.3451523622637
 30
0.0
 11
-0.2116001627607176
 21
303.274872414347
 31
0.0
  0
LINE
  5
3812
330
1F
100
AcDbEntity
  8
0
  6
ACDINTGL
 62
     6
 48
5.0
370
     0
100
AcDbLine
 10
0.7736971462669971
 20
303.6621011469859
 30
0.0
 11
0.8095261393225854
 21
303.3451523622637
 31
0.0
  0
LINE
  5
3813
330
1F
100
AcDbEntity
  8
0
  6
ACDINTGL
 62
     6
 48
5.0
370
     0
100
AcDbLine
 10
-0.2116001627607176
 20
303.5918211990692
 30
0.0
 11
0.7736971462669971
 21
303.6621011469859
 31
0.0
  0
LINE
  5
3814
330
1F
100
AcDbEntity
  8
0
  6
ACDINTGL
 62
     6
 48
5.0
370
     0
100
AcDbLine
 10
-0.2116001627607176
 20
303.274872414347
 30
0.0
 11
-0.2116001627607176
 21
303.5918211990692
 31
0.0
  0
LINE
  5
3815
330
1F
100
AcDbEntity
  8
0
  6
ACDINTGL
 62
     6
 48
5.0
370
     0
100
AcDbLine
 10
3.236251399739145
 20
303.6621011469859
 30
0.0
 11
3.270702354600345
 21
303.9087699837915
 31
0.0
  0
LINE
  5
3816
330
1F
100
AcDbEntity
  8
0
  6
ACDINTGL
 62
     6
 48
5.0
370
     0
100
AcDbLine
 10
4.221548708766974
 20
303.5918211990692
 30
0.0
 11
3.236251399739145
 21
303.6621011469859
 31
0.0
  0
LINE
  5
3817
330
1F
100
AcDbEntity
  8
0
  6
ACDINTGL
 62
     6
 48
5.0
370
     0
100
AcDbLine
 10
4.25599966362806
 20
303.8384900358748
 30
0.0
 11
4.221548708766974
 21
303.5918211990692
 31
0.0
  0
LINE
  5
3818
330
1F
100
AcDbEntity
  8
0
  6
ACDINTGL
 62
     6
 48
5.0
370
     0
100
AcDbLine
 10
3.270702354600345
 20
303.9087699837915
 30
0.0
 11
4.25599966362806
 21
303.8384900358748
 31
0.0
  0
LINE
  5
3819
330
1F
100
AcDbEntity
  8
0
  6
ACDINTGL
 62
     6
 48
5.0
370
     0
100
AcDbLine
 10
4.221548708766974
 20
303.5918211990692
 30
0.0
 11
3.236251399739145
 21
303.6621011469859
 31
0.0
  0
LINE
  5
381A
330
1F
100
AcDbEntity
  8
0
  6
ACDINTGL
 62
     6
 48
5.0
370
     0
100
AcDbLine
 10
4.25599966362806
 20
303.8384900358748
 30
0.0
 11
4.221548708766974
 21
303.5918211990692
 31
0.0
  0
LINE
  5
381B
330
1F
100
AcDbEntity
  8
0
  6
ACDINTGL
 62
     6
 48
5.0
370
     0
100
AcDbLine
 10
3.270702354600345
 20
303.9087699837915
 30
0.0
 11
4.25599966362806
 21
303.8384900358748
 31
0.0
  0
LINE
  5
381C
330
1F
100
AcDbEntity
  8
0
  6
ACDINTGL
 62
     6
 48
5.0
370
     0
100
AcDbLine
 10
3.236251399739145
 20
303.6621011469859
 30
0.0
 11
3.270702354600345
 21
303.9087699837915
 31
0.0
  0
LINE
  5
381D
330
1F
100
AcDbEntity
  8
0
  6
ACDINTGL
 62
     6
 48
5.0
370
     0
100
AcDbLine
 10
3.200422406683671
 20
303.3451523622637
 30
0.0
 11
3.236251399739145
 21
303.6621011469859
 31
0.0
  0
LINE
  5
381E
330
1F
100
AcDbEntity
  8
0
  6
ACDINTGL
 62
     6
 48
5.0
370
     0
100
AcDbLine
 10
4.221548708766974
 20
303.274872414347
 30
0.0
 11
3.200422406683671
 21
303.3451523622637
 31
0.0
  0
LINE
  5
381F
330
1F
100
AcDbEntity
  8
0
  6
ACDINTGL
 62
     6
 48
5.0
370
     0
100
AcDbLine
 10
4.221548708766974
 20
303.5918211990692
 30
0.0
 11
4.221548708766974
 21
303.274872414347
 31
0.0
  0
LINE
  5
3820
330
1F
100
AcDbEntity
  8
0
  6
ACDINTGL
 62
     6
 48
5.0
370
     0
100
AcDbLine
 10
3.236251399739145
 20
303.6621011469859
 30
0.0
 11
4.221548708766974
 21
303.5918211990692
 31
0.0
  0
LINE
  5
3821
330
1F
100
AcDbEntity
  8
0
  6
ACDINTGL
 62
     6
 48
5.0
370
     0
100
AcDbLine
 10
4.221548708766974
 20
303.274872414347
 30
0.0
 11
3.200422406683671
 21
303.3451523622637
 31
0.0
  0
LINE
  5
3822
330
1F
100
AcDbEntity
  8
0
  6
ACDINTGL
 62
     6
 48
5.0
370
     0
100
AcDbLine
 10
4.221548708766974
 20
303.5918211990692
 30
0.0
 11
4.221548708766974
 21
303.274872414347
 31
0.0
  0
LINE
  5
3823
330
1F
100
AcDbEntity
  8
0
  6
ACDINTGL
 62
     6
 48
5.0
370
     0
100
AcDbLine
 10
3.236251399739145
 20
303.6621011469859
 30
0.0
 11
4.221548708766974
 21
303.5918211990692
 31
0.0
  0
LINE
  5
3824
330
1F
100
AcDbEntity
  8
0
  6
ACDINTGL
 62
     6
 48
5.0
370
     0
100
AcDbLine
 10
3.200422406683671
 20
303.3451523622637
 30
0.0
 11
3.236251399739145
 21
303.6621011469859
 31
0.0
  0
LINE
  5
3825
330
1F
100
AcDbEntity
  8
0
  6
ACDINTGL
 62
     6
 48
5.0
370
     0
100
AcDbLine
 10
0.7736971462669971
 20
308.9399874317081
 30
0.0
 11
0.7736971462669971
 21
308.6919405567081
 31
0.0
  0
LINE
  5
3826
330
1F
100
AcDbEntity
  8
0
  6
ACDINTGL
 62
     6
 48
5.0
370
     0
100
AcDbLine
 10
-0.2116001627607176
 20
309.0088893414303
 30
0.0
 11
0.7736971462669971
 21
308.9399874317081
 31
0.0
  0
LINE
  5
3827
330
1F
100
AcDbEntity
  8
0
  6
ACDINTGL
 62
     6
 48
5.0
370
     0
100
AcDbLine
 10
-0.2460511176219171
 20
308.7635985428192
 30
0.0
 11
-0.2116001627607176
 21
309.0088893414303
 31
0.0
  0
LINE
  5
3828
330
1F
100
AcDbEntity
  8
0
  6
ACDINTGL
 62
     6
 48
5.0
370
     0
100
AcDbLine
 10
0.7736971462669971
 20
308.6919405567081
 30
0.0
 11
-0.2460511176219171
 21
308.7635985428192
 31
0.0
  0
LINE
  5
3829
330
1F
100
AcDbEntity
  8
0
  6
ACDINTGL
 62
     6
 48
5.0
370
     0
100
AcDbLine
 10
-0.2116001627607176
 20
309.0088893414303
 30
0.0
 11
0.7736971462669971
 21
308.9399874317081
 31
0.0
  0
LINE
  5
382A
330
1F
100
AcDbEntity
  8
0
  6
ACDINTGL
 62
     6
 48
5.0
370
     0
100
AcDbLine
 10
-0.2460511176219171
 20
308.7635985428192
 30
0.0
 11
-0.2116001627607176
 21
309.0088893414303
 31
0.0
  0
LINE
  5
382B
330
1F
100
AcDbEntity
  8
0
  6
ACDINTGL
 62
     6
 48
5.0
370
     0
100
AcDbLine
 10
0.7736971462669971
 20
308.6919405567081
 30
0.0
 11
-0.2460511176219171
 21
308.7635985428192
 31
0.0
  0
LINE
  5
382C
330
1F
100
AcDbEntity
  8
0
  6
ACDINTGL
 62
     6
 48
5.0
370
     0
100
AcDbLine
 10
0.7736971462669971
 20
308.9399874317081
 30
0.0
 11
0.7736971462669971
 21
308.6919405567081
 31
0.0
  0
LINE
  5
382D
330
1F
100
AcDbEntity
  8
0
  6
ACDINTGL
 62
     6
 48
5.0
370
     0
100
AcDbLine
 10
0.8095261393225854
 20
309.2555581782359
 30
0.0
 11
0.7736971462669971
 21
308.9399874317081
 31
0.0
  0
LINE
  5
382E
330
1F
100
AcDbEntity
  8
0
  6
ACDINTGL
 62
     6
 48
5.0
370
     0
100
AcDbLine
 10
-0.2116001627607176
 20
309.3258381261525
 30
0.0
 11
0.8095261393225854
 21
309.2555581782359
 31
0.0
  0
LINE
  5
382F
330
1F
100
AcDbEntity
  8
0
  6
ACDINTGL
 62
     6
 48
5.0
370
     0
100
AcDbLine
 10
-0.2116001627607176
 20
309.0088893414303
 30
0.0
 11
-0.2116001627607176
 21
309.3258381261525
 31
0.0
  0
LINE
  5
3830
330
1F
100
AcDbEntity
  8
0
  6
ACDINTGL
 62
     6
 48
5.0
370
     0
100
AcDbLine
 10
0.7736971462669971
 20
308.9399874317081
 30
0.0
 11
-0.2116001627607176
 21
309.0088893414303
 31
0.0
  0
LINE
  5
3831
330
1F
100
AcDbEntity
  8
0
  6
ACDINTGL
 62
     6
 48
5.0
370
     0
100
AcDbLine
 10
-0.2116001627607176
 20
309.3258381261525
 30
0.0
 11
0.8095261393225854
 21
309.2555581782359
 31
0.0
  0
LINE
  5
3832
330
1F
100
AcDbEntity
  8
0
  6
ACDINTGL
 62
     6
 48
5.0
370
     0
100
AcDbLine
 10
-0.2116001627607176
 20
309.0088893414303
 30
0.0
 11
-0.2116001627607176
 21
309.3258381261525
 31
0.0
  0
LINE
  5
3833
330
1F
100
AcDbEntity
  8
0
  6
ACDINTGL
 62
     6
 48
5.0
370
     0
100
AcDbLine
 10
0.7736971462669971
 20
308.9399874317081
 30
0.0
 11
-0.2116001627607176
 21
309.0088893414303
 31
0.0
  0
LINE
  5
3834
330
1F
100
AcDbEntity
  8
0
  6
ACDINTGL
 62
     6
 48
5.0
370
     0
100
AcDbLine
 10
0.8095261393225854
 20
309.2555581782359
 30
0.0
 11
0.7736971462669971
 21
308.9399874317081
 31
0.0
  0
LINE
  5
3835
330
1F
100
AcDbEntity
  8
0
  6
ACDINTGL
 62
     6
 48
5.0
370
     0
100
AcDbLine
 10
4.221548708766974
 20
309.0088893414303
 30
0.0
 11
4.25599966362806
 21
308.7635985428192
 31
0.0
  0
LINE
  5
3836
330
1F
100
AcDbEntity
  8
0
  6
ACDINTGL
 62
     6
 48
5.0
370
     0
100
AcDbLine
 10
3.236251399739145
 20
308.9399874317081
 30
0.0
 11
4.221548708766974
 21
309.0088893414303
 31
0.0
  0
LINE
  5
3837
330
1F
100
AcDbEntity
  8
0
  6
ACDINTGL
 62
     6
 48
5.0
370
     0
100
AcDbLine
 10
3.270702354600345
 20
308.6919405567081
 30
0.0
 11
3.236251399739145
 21
308.9399874317081
 31
0.0
  0
LINE
  5
3838
330
1F
100
AcDbEntity
  8
0
  6
ACDINTGL
 62
     6
 48
5.0
370
     0
100
AcDbLine
 10
4.25599966362806
 20
308.7635985428192
 30
0.0
 11
3.270702354600345
 21
308.6919405567081
 31
0.0
  0
LINE
  5
3839
330
1F
100
AcDbEntity
  8
0
  6
ACDINTGL
 62
     6
 48
5.0
370
     0
100
AcDbLine
 10
3.236251399739145
 20
308.9399874317081
 30
0.0
 11
4.221548708766974
 21
309.0088893414303
 31
0.0
  0
LINE
  5
383A
330
1F
100
AcDbEntity
  8
0
  6
ACDINTGL
 62
     6
 48
5.0
370
     0
100
AcDbLine
 10
3.270702354600345
 20
308.6919405567081
 30
0.0
 11
3.236251399739145
 21
308.9399874317081
 31
0.0
  0
LINE
  5
383B
330
1F
100
AcDbEntity
  8
0
  6
ACDINTGL
 62
     6
 48
5.0
370
     0
100
AcDbLine
 10
4.25599966362806
 20
308.7635985428192
 30
0.0
 11
3.270702354600345
 21
308.6919405567081
 31
0.0
  0
LINE
  5
383C
330
1F
100
AcDbEntity
  8
0
  6
ACDINTGL
 62
     6
 48
5.0
370
     0
100
AcDbLine
 10
4.221548708766974
 20
309.0088893414303
 30
0.0
 11
4.25599966362806
 21
308.7635985428192
 31
0.0
  0
LINE
  5
383D
330
1F
100
AcDbEntity
  8
0
  6
ACDINTGL
 62
     6
 48
5.0
370
     0
100
AcDbLine
 10
4.221548708766974
 20
309.3258381261525
 30
0.0
 11
4.221548708766974
 21
309.0088893414303
 31
0.0
  0
LINE
  5
383E
330
1F
100
AcDbEntity
  8
0
  6
ACDINTGL
 62
     6
 48
5.0
370
     0
100
AcDbLine
 10
3.200422406683671
 20
309.2555581782359
 30
0.0
 11
4.221548708766974
 21
309.3258381261525
 31
0.0
  0
LINE
  5
383F
330
1F
100
AcDbEntity
  8
0
  6
ACDINTGL
 62
     6
 48
5.0
370
     0
100
AcDbLine
 10
3.236251399739145
 20
308.9399874317081
 30
0.0
 11
3.200422406683671
 21
309.2555581782359
 31
0.0
  0
LINE
  5
3840
330
1F
100
AcDbEntity
  8
0
  6
ACDINTGL
 62
     6
 48
5.0
370
     0
100
AcDbLine
 10
4.221548708766974
 20
309.0088893414303
 30
0.0
 11
3.236251399739145
 21
308.9399874317081
 31
0.0
  0
LINE
  5
3841
330
1F
100
AcDbEntity
  8
0
  6
ACDINTGL
 62
     6
 48
5.0
370
     0
100
AcDbLine
 10
3.200422406683671
 20
309.2555581782359
 30
0.0
 11
4.221548708766974
 21
309.3258381261525
 31
0.0
  0
LINE
  5
3842
330
1F
100
AcDbEntity
  8
0
  6
ACDINTGL
 62
     6
 48
5.0
370
     0
100
AcDbLine
 10
3.236251399739145
 20
308.9399874317081
 30
0.0
 11
3.200422406683671
 21
309.2555581782359
 31
0.0
  0
LINE
  5
3843
330
1F
100
AcDbEntity
  8
0
  6
ACDINTGL
 62
     6
 48
5.0
370
     0
100
AcDbLine
 10
4.221548708766974
 20
309.0088893414303
 30
0.0
 11
3.236251399739145
 21
308.9399874317081
 31
0.0
  0
LINE
  5
3844
330
1F
100
AcDbEntity
  8
0
  6
ACDINTGL
 62
     6
 48
5.0
370
     0
100
AcDbLine
 10
4.221548708766974
 20
309.3258381261525
 30
0.0
 11
4.221548708766974
 21
309.0088893414303
 31
0.0
  0
LINE
  5
3848
330
1F
100
AcDbEntity
  8
0
  6
AM_DIN_G_W050
 62
     4
 48
2.0
100
AcDbLine
 10
-70.72385950956331
 20
408.5419188553193
 30
0.0
 11
-118.286742987164
 21
408.5419188553193
 31
0.0
  0
LINE
  5
384D
330
1F
100
AcDbEntity
  8
0
 62
     7
100
AcDbLine
 10
184.4688657891401
 20
3.541918855319266
 30
0.0
 11
-184.4742009807777
 21
3.541918855319286
 31
0.0
  0
LINE
  5
3855
330
1F
100
AcDbEntity
  8
0
  6
AM_DIN_G_W050
 62
     4
 48
2.0
100
AcDbLine
 10
0.0006177191835541
 20
356.8798945229161
 30
0.0
 11
0.0006177191835762
 21
488.9919099968936
 31
0.0
  0
LINE
  5
388A
330
1F
100
AcDbEntity
  8
0
  6
ACDINTGL
 62
     6
 48
5.0
370
     0
100
AcDbLine
 10
-44.00978809678856
 20
4.638837258097025
 30
0.0
 11
44.04409645182254
 21
4.638837258097025
 31
0.0
  0
LINE
  5
388B
330
1F
100
AcDbEntity
  8
0
  6
ACDINTGL
 62
     6
 48
5.0
370
     0
100
AcDbLine
 10
-54.07084495442742
 20
8.121139775458145
 30
0.0
 11
-44.00978809678856
 21
4.638837258097025
 31
0.0
  0
LINE
  5
388C
330
1F
100
AcDbEntity
  8
0
  6
ACDINTGL
 62
     6
 48
5.0
370
     0
100
AcDbLine
 10
54.03487336154471
 20
8.121139775458145
 30
0.0
 11
44.04409645182254
 21
4.638837258097025
 31
0.0
  0
LINE
  5
3892
330
1F
100
AcDbEntity
  8
0
100
AcDbLine
 10
-36.37545649956629
 20
-2.116305971069638
 30
0.0
 11
36.37669193793345
 21
-2.116305971069638
 31
0.0
  0
LINE
  5
3893
330
1F
100
AcDbEntity
  8
0
100
AcDbLine
 10
-36.37545649956628
 20
-30.26135805440297
 30
0.0
 11
36.37669193793345
 21
-30.26135805440297
 31
0.0
  0
LINE
  5
38A9
330
1F
100
AcDbEntity
  8
0
100
AcDbLine
 10
-23.92212533637185
 20
478.66944307342
 30
0.0
 11
23.97729232591626
 21
478.6694430734199
 31
0.0
  0
CIRCLE
  5
38AA
330
1F
100
AcDbEntity
  8
0
  6
ACDINTGL
 62
     6
 48
5.0
370
     0
100
AcDbCircle
 10
-99.99938228081644
 20
408.5419188553193
 30
0.0
 40
10.3262617774476
  0
LINE
  5
3925
330
1F
100
AcDbEntity
  8
0
100
AcDbLine
 10
-41.64605003299501
 20
0.0058728483748194
 30
0.0
 11
41.65009777125958
 21
0.0113850011526022
 31
0.0
  0
LINE
  5
3A21
330
1F
100
AcDbEntity
  8
0
100
AcDbLine
 10
-23.92212533637185
 20
473.5419188553193
 30
0.0
 11
24.15636314659356
 21
473.5419188553193
 31
0.0
  0
LWPOLYLINE
  5
3A8A
330
1F
100
AcDbEntity
  8
0
100
AcDbPolyline
 90
       23
 70
     1
 43
0.0
 10
185.0006177191837
 20
467.5419188553191
 42
0.4142135623730951
 10
179.0006177191837
 20
473.5419188553191
 10
24.08957052755869
 20
473.5419188553192
 10
24.08957052755869
 20
478.6694430734197
 42
0.1002419513062263
 10
0.0549383740350322
 20
483.4916677295416
 42
0.088626133494182
 10
-23.92212533637184
 20
478.66944307342
 10
-23.92212533637184
 20
473.5419188553193
 10
-178.9993822808163
 20
473.5419188553192
 42
0.4142135623730951
 10
-184.9993822808163
 20
467.5419188553193
 10
-184.9993822808164
 20
5.996783454957011
 42
0.4142329448208254
 10
-178.9989852286421
 20
-0.0032165319054513
 10
-41.64605003299493
 20
0.0058728483748212
 10
-40.5633145724829
 20
-2.116305971069635
 10
-36.37545649956621
 20
-2.116305971069635
 10
-36.37545649956621
 20
-30.26135805440294
 10
-30.88673037109442
 20
-31.66695701273628
 10
30.88796580946155
 20
-31.6669570127363
 10
36.37669193793352
 20
-30.2613580544029
 10
36.37669193793352
 20
-2.116305971069664
 10
40.56455001085021
 20
-2.116305971069607
 10
41.65009777125965
 20
0.0113850011525756
 10
179.0006177191836
 20
0.011385001152604
 42
0.4142135623730951
 10
185.0006177191836
 20
6.011385001152603
  0
ENDSEC
  0
SECTION
  2
OBJECTS
  0
DICTIONARY
  5
C
330
0
100
AcDbDictionary
281
     1
  3
ACAD_2007HEADERVARS_RT
350
3B4E
  3
ACAD_BACKGROUND
350
2C0A
  3
ACAD_COLOR
350
251F
  3
ACAD_GROUP
350
D
  3
ACAD_LAYOUT
350
1A
  3
ACAD_MATERIAL
350
24F5
  3
ACAD_MLEADERSTYLE
350
2534
  3
ACAD_MLINESTYLE
350
17
  3
ACAD_PLOTSETTINGS
350
19
  3
ACAD_PLOTSTYLENAME
350
E
  3
ACAD_SCALELIST
350
2522
  3
ACAD_TABLESTYLE
350
2520
  3
ACAD_VISUALSTYLE
350
250E
  3
ACDB_RECOMPOSE_DATA
350
3B4D
  3
AcDbVariableDictionary
350
86
  3
AcmDictionary
350
45
  3
AEC_PROPERTY_SET_DEFS
350
3A46
  3
AMG
350
41
  3
AMGSNAPSETTINGS
350
332
  3
ASE_INDEX_DICTIONARY
350
3A12
  0
DICTIONARY
  5
25A6
330
8
100
AcDbDictionary
280
     1
281
     1
  0
DICTIONARY
  5
2BFA
330
2
100
AcDbDictionary
280
     1
281
     1
  3
ACAD_LAYERSTATES
360
2BFB
  0
DICTIONARY
  5
25A1
330
10
100
AcDbDictionary
280
     1
281
     1
  3
ADSK_XREC_LAYER_RECONCILED
360
25A2
  0
DICTIONARY
  5
81
330
1F
100
AcDbDictionary
280
     1
281
     1
  3
ACAD_SORTENTS
360
2701
  0
DICTIONARY
  5
3B4E
102
{ACAD_REACTORS
330
C
102
}
330
C
100
AcDbDictionary
281
     1
  3
DIMARCSYM
350
3B4F
  3
DIMJOGANG
350
3B50
  3
DIMLTEX1
350
3B52
  3
DIMLTEX2
350
3B53
  3
DIMLTYPE
350
3B51
  0
DICTIONARY
  5
2C0A
102
{ACAD_REACTORS
330
C
102
}
330
C
100
AcDbDictionary
281
     1
  0
DICTIONARY
  5
251F
102
{ACAD_REACTORS
330
C
102
}
330
C
100
AcDbDictionary
281
     1
  0
DICTIONARY
  5
D
102
{ACAD_REACTORS
330
C
102
}
330
C
100
AcDbDictionary
281
     1
  0
DICTIONARY
  5
1A
102
{ACAD_REACTORS
330
C
102
}
330
C
100
AcDbDictionary
281
     1
  3
Layout1
350
1E
  3
Layout2
350
26
  3
Model
350
22
  0
DICTIONARY
  5
24F5
102
{ACAD_REACTORS
330
C
102
}
330
C
100
AcDbDictionary
281
     1
  3
ByBlock
350
24FE
  3
ByLayer
350
24F6
  3
Global
350
2506
  0
DICTIONARY
  5
2534
102
{ACAD_REACTORS
330
C
102
}
330
C
100
AcDbDictionary
281
     1
  3
Standard
350
2535
  0
DICTIONARY
  5
17
102
{ACAD_REACTORS
330
C
102
}
330
C
100
AcDbDictionary
281
     1
  3
Standard
350
18
  0
DICTIONARY
  5
19
102
{ACAD_REACTORS
330
C
102
}
330
C
100
AcDbDictionary
281
     1
  0
ACDBDICTIONARYWDFLT
  5
E
102
{ACAD_REACTORS
330
C
102
}
330
C
100
AcDbDictionary
281
     1
  3
Normal
350
F
100
AcDbDictionaryWithDefault
340
F
  0
DICTIONARY
  5
2522
102
{ACAD_REACTORS
330
C
102
}
330
C
100
AcDbDictionary
281
     1
  3
A0
350
2523
  3
A1
350
2524
  3
A2
350
2525
  3
A3
350
2526
  3
A4
350
2527
  3
A5
350
2528
  3
A6
350
2529
  3
A7
350
252A
  3
A8
350
252B
  3
A9
350
252C
  3
B0
350
252D
  3
B1
350
252E
  3
B2
350
252F
  3
B3
350
2530
  3
B4
350
2531
  3
B5
350
2532
  3
B6
350
2533
  0
DICTIONARY
  5
2520
102
{ACAD_REACTORS
330
C
102
}
330
C
100
AcDbDictionary
281
     1
  3
Standard
350
2521
  0
DICTIONARY
  5
250E
102
{ACAD_REACTORS
330
C
102
}
330
C
100
AcDbDictionary
281
     1
  3
2dWireframe
350
2514
  3
3D Hidden
350
2516
  3
3dWireframe
350
2515
  3
Basic
350
2513
  3
Brighten
350
251A
  3
ColorChange
350
251E
  3
Conceptual
350
2517
  3
Dim
350
2519
  3
EdgeColorOff
350
2B20
  3
Facepattern
350
251D
  3
Flat
350
250F
  3
FlatWithEdges
350
2510
  3
Gouraud
350
2511
  3
GouraudWithEdges
350
2512
  3
Hidden
350
2B18
  3
JitterOff
350
2B1E
  3
Linepattern
350
251C
  3
OverhangOff
350
2B1F
  3
Realistic
350
2518
  3
Shaded
350
2B1D
  3
Shaded with edges
350
2B1C
  3
Shades of Gray
350
2B19
  3
Sketchy
350
2B1A
  3
Thicken
350
251B
  3
Wireframe
350
2B17
  3
X-Ray
350
2B1B
  0
XRECORD
  5
3B4D
102
{ACAD_REACTORS
330
C
102
}
330
C
100
AcDbXrecord
280
     1
 90
        1
330
2521
  0
DICTIONARY
  5
86
102
{ACAD_REACTORS
330
C
102
}
330
C
100
AcDbDictionary
281
     1
  3
CANNOSCALE
350
25AE
  3
CMLEADERSTYLE
350
25AD
  3
CTABLESTYLE
350
25AC
  3
DIMASSOC
350
89
  3
HIDETEXT
350
88
  3
INDEXCTL
350
87
  3
LAYEREVAL
350
2715
  3
LAYERNOTIFY
350
2716
  3
LIGHTINGUNITS
350
2714
  3
MSLTSCALE
350
2713
  0
DICTIONARY
  5
45
102
{ACAD_REACTORS
330
C
102
}
330
C
100
AcDbDictionary
281
     1
  3
AcmStdDictionary
350
4A
  3
AMDTSECTSYM_ARROWCOLOR
350
258D
  0
DICTIONARY
  5
3A46
102
{ACAD_REACTORS
330
C
102
}
330
C
100
AcDbDictionary
281
     1
  0
DICTIONARY
  5
41
102
{ACAD_REACTORS
330
C
102
}
330
C
100
AcDbDictionary
281
     1
  0
DICTIONARY
  5
332
102
{ACAD_REACTORS
330
C
102
}
330
C
100
AcDbDictionary
281
     1
  0
DICTIONARY
  5
3A12
102
{ACAD_REACTORS
330
C
102
}
330
C
100
AcDbDictionary
281
     1
  3
ASEBlockHierarchyIndexRecord
350
3A13
1001
DCO15
1040
1719941212.625
  0
DICTIONARY
  5
2BFB
102
{ACAD_REACTORS
330
2BFA
102
}
330
2BFA
100
AcDbDictionary
281
     1
  0
XRECORD
  5
25A2
102
{ACAD_REACTORS
330
25A1
102
}
330
25A1
100
AcDbXrecord
280
     1
290
     1
  0
SORTENTSTABLE
  5
2701
102
{ACAD_REACTORS
330
81
102
}
330
81
100
AcDbSortentsTable
330
1F
331
371E
  5
371E
331
36AF
  5
36AF
331
3716
  5
3716
331
3805
  5
3805
331
3712
  5
3712
331
3844
  5
3844
331
3840
  5
3840
331
383C
  5
383C
331
35DF
  5
35DF
331
3838
  5
3838
331
35DB
  5
35DB
331
35D7
  5
35D7
331
350A
  5
350A
331
35D3
  5
35D3
331
36A3
  5
36A3
331
370E
  5
370E
331
3644
  5
3644
331
370A
  5
370A
331
3706
  5
3706
331
3741
  5
3741
331
3702
  5
3702
331
3834
  5
3834
331
3830
  5
3830
331
382C
  5
382C
331
3502
  5
3502
331
3828
  5
3828
331
35C7
  5
35C7
331
3539
  5
3539
331
35C3
  5
35C3
331
3602
  5
3602
331
36FE
  5
36FE
331
3693
  5
3693
331
3630
  5
3630
331
36FA
  5
36FA
331
36F6
  5
36F6
331
3735
  5
3735
331
3628
  5
3628
331
3893
  5
389B
331
3824
  5
3824
331
3820
  5
3820
331
388B
  5
388C
331
381C
  5
381C
331
3535
  5
3535
331
35FE
  5
35FE
331
3818
  5
3818
331
35FA
  5
35FA
331
35F6
  5
35F6
331
35F2
  5
35F2
331
36BE
  5
36BE
331
3677
  5
3677
331
3729
  5
3729
331
3814
  5
3814
331
3810
  5
3810
331
380C
  5
380C
331
35EE
  5
35EE
331
35AF
  5
35AF
331
3808
  5
3808
331
35EA
  5
35EA
331
364B
  5
364B
331
3715
  5
3715
331
3711
  5
3711
331
3843
  5
3843
331
383F
  5
383F
331
35DE
  5
35DE
331
383B
  5
383B
331
35DA
  5
35DA
331
359F
  5
359F
331
3509
  5
3509
331
3615
  5
3615
331
36A6
  5
36A6
331
36A2
  5
36A2
331
370D
  5
370D
331
3643
  5
3643
331
363F
  5
363F
331
3709
  5
3709
331
3748
  5
3748
331
369A
  5
369A
331
3705
  5
3705
331
3701
  5
3701
331
3837
  5
3837
331
3833
  5
3833
331
3505
  5
3505
331
382F
  5
382F
331
38AA
  5
38AA
331
3501
  5
3501
331
382B
  5
382B
331
35CE
  5
35CE
331
34FD
  5
34FD
331
3609
  5
3609
331
35C6
  5
35C6
331
35C2
  5
35C2
331
3601
  5
3601
331
36FD
  5
36FD
331
3633
  5
3633
331
36F9
  5
36F9
331
36F5
  5
36F5
331
3734
  5
3734
331
3827
  5
3827
331
3892
  5
3893
331
3823
  5
3823
331
381F
  5
381F
331
388A
  5
388B
331
381B
  5
381B
331
3534
  5
3534
331
35FD
  5
35FD
331
35BE
  5
35BE
331
35F9
  5
35F9
331
35F5
  5
35F5
331
35F1
  5
35F1
331
3627
  5
3627
331
36BD
  5
36BD
331
3676
  5
3676
331
361B
  5
361B
331
3817
  5
3817
331
3813
  5
3813
331
380F
  5
380F
331
380B
  5
380B
331
35ED
  5
35ED
331
35E5
  5
35E5
331
35E1
  5
35E1
331
3807
  5
3807
331
3718
  5
3718
331
3714
  5
3714
331
3710
  5
3710
331
3842
  5
3842
331
383E
  5
383E
331
383A
  5
383A
331
35DD
  5
35DD
331
3553
  5
3553
331
35D5
  5
35D5
331
36A5
  5
36A5
331
36A1
  5
36A1
331
370C
  5
370C
331
3747
  5
3747
331
3708
  5
3708
331
3699
  5
3699
331
3704
  5
3704
331
3700
  5
3700
331
3836
  5
3836
331
3925
  5
3A01
331
3832
  5
3832
331
382E
  5
382E
331
3504
  5
3504
331
382A
  5
382A
331
3592
  5
3592
331
38A9
  5
38A9
331
34FC
  5
34FC
331
353B
  5
353B
331
35C1
  5
35C1
331
3600
  5
3600
331
373B
  5
373B
331
36FC
  5
36FC
331
36F8
  5
36F8
331
362A
  5
362A
331
36F4
  5
36F4
331
3689
  5
3689
331
3826
  5
3826
331
3822
  5
3822
331
381E
  5
381E
331
3537
  5
3537
331
381A
  5
381A
331
3533
  5
3533
331
35FC
  5
35FC
331
35BD
  5
35BD
331
3582
  5
3582
331
35F8
  5
35F8
331
35F4
  5
35F4
331
35F0
  5
35F0
331
3675
  5
3675
331
3723
  5
3723
331
3855
  5
388A
331
3816
  5
3816
331
3812
  5
3812
331
380E
  5
380E
331
384D
  5
384E
331
380A
  5
380A
331
35E8
  5
35E8
331
35E4
  5
35E4
331
35E0
  5
35E0
331
366D
  5
366D
331
364D
  5
364D
331
3717
  5
3717
331
3806
  5
3806
331
3713
  5
3713
331
3841
  5
3841
331
383D
  5
383D
331
3839
  5
3839
331
35DC
  5
35DC
331
35D8
  5
35D8
331
350B
  5
350B
331
35D0
  5
35D0
331
36A4
  5
36A4
331
370F
  5
370F
331
3645
  5
3645
331
36A0
  5
36A0
331
370B
  5
370B
331
3707
  5
3707
331
3746
  5
3746
331
3639
  5
3639
331
3703
  5
3703
331
3835
  5
3835
331
3831
  5
3831
331
3507
  5
3507
331
382D
  5
382D
331
360F
  5
360F
331
3829
  5
3829
331
34FF
  5
34FF
331
3603
  5
3603
331
35C4
  5
35C4
331
36FF
  5
36FF
331
3694
  5
3694
331
3631
  5
3631
331
36FB
  5
36FB
331
36F7
  5
36F7
331
3736
  5
3736
331
3629
  5
3629
331
3825
  5
3825
331
3821
  5
3821
331
388C
  5
388D
331
381D
  5
381D
331
3536
  5
3536
331
35FF
  5
35FF
331
3819
  5
3819
331
35FB
  5
35FB
331
35BC
  5
35BC
331
3532
  5
3532
331
35F7
  5
35F7
331
35F3
  5
35F3
331
372E
  5
372E
331
3684
  5
3684
331
3621
  5
3621
331
3674
  5
3674
331
3815
  5
3815
331
3811
  5
3811
331
380D
  5
380D
331
35EF
  5
35EF
331
3848
  5
3848
331
3809
  5
3809
331
35EB
  5
35EB
331
3516
  5
3516
331
35E7
  5
35E7
331
35E3
  5
35E3
  0
XRECORD
  5
3B4F
102
{ACAD_REACTORS
330
3B4E
102
}
330
3B4E
100
AcDbXrecord
280
     1
 70
     1
  0
XRECORD
  5
3B50
102
{ACAD_REACTORS
330
3B4E
102
}
330
3B4E
100
AcDbXrecord
280
     1
 40
1.570796326794896
  0
XRECORD
  5
3B52
102
{ACAD_REACTORS
330
3B4E
102
}
330
3B4E
100
AcDbXrecord
280
     1
340
14
  0
XRECORD
  5
3B53
102
{ACAD_REACTORS
330
3B4E
102
}
330
3B4E
100
AcDbXrecord
280
     1
340
14
  0
XRECORD
  5
3B51
102
{ACAD_REACTORS
330
3B4E
102
}
330
3B4E
100
AcDbXrecord
280
     1
340
14
  0
LAYOUT
  5
1E
102
{ACAD_REACTORS
330
1A
102
}
330
1A
100
AcDbPlotSettings
  1

  2
Epson Stylus COLOR 440 ESC/P 2
  4

  6

 40
0.0
 41
0.0
 42
0.0
 43
0.0
 44
0.0
 45
0.0
 46
0.0
 47
0.0
 48
0.0
 49
0.0
140
0.0
141
0.0
142
1.0
143
1.0
 70
   688
 72
     0
 73
     0
 74
     5
  7

 75
    16
147
1.0
 76
     0
 77
     2
 78
   300
148
0.0
149
0.0
100
AcDbLayout
  1
Layout1
 70
     1
 71
     1
 10
0.0
 20
0.0
 11
420.0
 21
297.0
 12
0.0
 22
0.0
 32
0.0
 14
1.000000000000000E+20
 24
1.000000000000000E+20
 34
1.000000000000000E+20
 15
-1.000000000000000E+20
 25
-1.000000000000000E+20
 35
-1.000000000000000E+20
146
0.0
 13
0.0
 23
0.0
 33
0.0
 16
1.0
 26
0.0
 36
0.0
 17
0.0
 27
1.0
 37
0.0
 76
     0
330
1B
  0
LAYOUT
  5
26
102
{ACAD_REACTORS
330
1A
102
}
330
1A
100
AcDbPlotSettings
  1

  2
Epson Stylus COLOR 440 ESC/P 2
  4

  6

 40
0.0
 41
0.0
 42
0.0
 43
0.0
 44
0.0
 45
0.0
 46
0.0
 47
0.0
 48
0.0
 49
0.0
140
0.0
141
0.0
142
1.0
143
1.0
 70
   688
 72
     0
 73
     0
 74
     5
  7

 75
    16
147
1.0
 76
     0
 77
     2
 78
   300
148
0.0
149
0.0
100
AcDbLayout
  1
Layout2
 70
     1
 71
     2
 10
0.0
 20
0.0
 11
12.0
 21
9.0
 12
0.0
 22
0.0
 32
0.0
 14
0.0
 24
0.0
 34
0.0
 15
0.0
 25
0.0
 35
0.0
146
0.0
 13
0.0
 23
0.0
 33
0.0
 16
1.0
 26
0.0
 36
0.0
 17
0.0
 27
1.0
 37
0.0
 76
     0
330
23
  0
LAYOUT
  5
22
102
{ACAD_XDICTIONARY
360
2C00
102
}
102
{ACAD_REACTORS
330
1A
102
}
330
1A
100
AcDbPlotSettings
  1

  2
Epson Stylus COLOR 440 ESC/P 2
  4

  6

 40
0.0
 41
0.0
 42
0.0
 43
0.0
 44
0.0
 45
0.0
 46
0.0
 47
0.0
 48
0.0
 49
0.0
140
0.0
141
0.0
142
1.0
143
1.0
 70
  1712
 72
     0
 73
     0
 74
     0
  7

 75
     0
147
1.0
 76
     0
 77
     2
 78
   300
148
0.0
149
0.0
100
AcDbLayout
  1
Model
 70
     1
 71
     0
 10
0.0
 20
0.0
 11
12.0
 21
9.0
 12
0.0
 22
0.0
 32
0.0
 14
0.0
 24
0.0
 34
0.0
 15
0.0
 25
0.0
 35
0.0
146
0.0
 13
0.0
 23
0.0
 33
0.0
 16
1.0
 26
0.0
 36
0.0
 17
0.0
 27
1.0
 37
0.0
 76
     0
330
1F
331
24F3
  0
MATERIAL
  5
24FE
102
{ACAD_XDICTIONARY
360
24FF
102
}
102
{ACAD_REACTORS
330
24F5
102
}
330
24F5
100
AcDbMaterial
  1
ByBlock
 72
     0
 43
0.0008202099737533
 43
0.0
 43
0.0
 43
0.0
 43
0.0
 43
0.0008202099737533
 43
0.0
 43
0.0
 43
0.0
 43
0.0
 43
1.0
 43
0.0
 43
0.0
 43
0.0
 43
0.0
 43
1.0
 77
     0
 47
0.0008202099737533
 47
0.0
 47
0.0
 47
0.0
 47
0.0
 47
0.0008202099737533
 47
0.0
 47
0.0
 47
0.0
 47
0.0
 47
1.0
 47
0.0
 47
0.0
 47
0.0
 47
0.0
 47
1.0
171
     0
 49
0.0008202099737533
 49
0.0
 49
0.0
 49
0.0
 49
0.0
 49
0.0008202099737533
 49
0.0
 49
0.0
 49
0.0
 49
0.0
 49
1.0
 49
0.0
 49
0.0
 49
0.0
 49
0.0
 49
1.0
175
     0
142
0.0008202099737533
142
0.0
142
0.0
142
0.0
142
0.0
142
0.0008202099737533
142
0.0
142
0.0
142
0.0
142
0.0
142
1.0
142
0.0
142
0.0
142
0.0
142
0.0
142
1.0
179
     0
144
0.0008202099737533
144
0.0
144
0.0
144
0.0
144
0.0
144
0.0008202099737533
144
0.0
144
0.0
144
0.0
144
0.0
144
1.0
144
0.0
144
0.0
144
0.0
144
0.0
144
1.0
147
0.0008202099737533
147
0.0
147
0.0
147
0.0
147
0.0
147
0.0008202099737533
147
0.0
147
0.0
147
0.0
147
0.0
147
1.0
147
0.0
147
0.0
147
0.0
147
0.0
147
1.0
  0
MATERIAL
  5
24F6
102
{ACAD_XDICTIONARY
360
24F7
102
}
102
{ACAD_REACTORS
330
24F5
102
}
330
24F5
100
AcDbMaterial
  1
ByLayer
 72
     0
 43
0.0008202099737533
 43
0.0
 43
0.0
 43
0.0
 43
0.0
 43
0.0008202099737533
 43
0.0
 43
0.0
 43
0.0
 43
0.0
 43
1.0
 43
0.0
 43
0.0
 43
0.0
 43
0.0
 43
1.0
 77
     0
 47
0.0008202099737533
 47
0.0
 47
0.0
 47
0.0
 47
0.0
 47
0.0008202099737533
 47
0.0
 47
0.0
 47
0.0
 47
0.0
 47
1.0
 47
0.0
 47
0.0
 47
0.0
 47
0.0
 47
1.0
171
     0
 49
0.0008202099737533
 49
0.0
 49
0.0
 49
0.0
 49
0.0
 49
0.0008202099737533
 49
0.0
 49
0.0
 49
0.0
 49
0.0
 49
1.0
 49
0.0
 49
0.0
 49
0.0
 49
0.0
 49
1.0
175
     0
142
0.0008202099737533
142
0.0
142
0.0
142
0.0
142
0.0
142
0.0008202099737533
142
0.0
142
0.0
142
0.0
142
0.0
142
1.0
142
0.0
142
0.0
142
0.0
142
0.0
142
1.0
179
     0
144
0.0008202099737533
144
0.0
144
0.0
144
0.0
144
0.0
144
0.0008202099737533
144
0.0
144
0.0
144
0.0
144
0.0
144
1.0
144
0.0
144
0.0
144
0.0
144
0.0
144
1.0
147
0.0008202099737533
147
0.0
147
0.0
147
0.0
147
0.0
147
0.0008202099737533
147
0.0
147
0.0
147
0.0
147
0.0
147
1.0
147
0.0
147
0.0
147
0.0
147
0.0
147
1.0
  0
MATERIAL
  5
2506
102
{ACAD_XDICTIONARY
360
2507
102
}
102
{ACAD_REACTORS
330
24F5
102
}
330
24F5
100
AcDbMaterial
  1
Global
 72
     0
 43
0.0008202099737533
 43
0.0
 43
0.0
 43
0.0
 43
0.0
 43
0.0008202099737533
 43
0.0
 43
0.0
 43
0.0
 43
0.0
 43
1.0
 43
0.0
 43
0.0
 43
0.0
 43
0.0
 43
1.0
 77
     0
 47
0.0008202099737533
 47
0.0
 47
0.0
 47
0.0
 47
0.0
 47
0.0008202099737533
 47
0.0
 47
0.0
 47
0.0
 47
0.0
 47
1.0
 47
0.0
 47
0.0
 47
0.0
 47
0.0
 47
1.0
171
     0
 49
0.0008202099737533
 49
0.0
 49
0.0
 49
0.0
 49
0.0
 49
0.0008202099737533
 49
0.0
 49
0.0
 49
0.0
 49
0.0
 49
1.0
 49
0.0
 49
0.0
 49
0.0
 49
0.0
 49
1.0
175
     0
142
0.0008202099737533
142
0.0
142
0.0
142
0.0
142
0.0
142
0.0008202099737533
142
0.0
142
0.0
142
0.0
142
0.0
142
1.0
142
0.0
142
0.0
142
0.0
142
0.0
142
1.0
179
     0
144
0.0008202099737533
144
0.0
144
0.0
144
0.0
144
0.0
144
0.0008202099737533
144
0.0
144
0.0
144
0.0
144
0.0
144
1.0
144
0.0
144
0.0
144
0.0
144
0.0
144
1.0
147
0.0008202099737533
147
0.0
147
0.0
147
0.0
147
0.0
147
0.0008202099737533
147
0.0
147
0.0
147
0.0
147
0.0
147
1.0
147
0.0
147
0.0
147
0.0
147
0.0
147
1.0
  0
MLEADERSTYLE
  5
2535
102
{ACAD_REACTORS
330
2534
102
}
330
2534
100
AcDbMLeaderStyle
170
     2
171
     1
172
     0
 90
        2
 40
0.0
 41
0.0
173
     1
 91
-1056964608
340
14
 92
       -2
290
     1
 42
2.0
291
     1
 43
0.36
  3
Standard
 44
4.0
300

342
11
174
     1
178
     6
175
     1
176
     0
 93
-1056964608
 45
4.0
292
     0
297
     0
 46
4.0
 94
-1056964608
 47
1.0
 49
1.0
140
1.0
293
     1
141
0.0
294
     1
177
     0
142
1.0
295
     0
296
     0
143
0.125
1001
ACAD_MLEADERVER
1070
     2
  0
MLINESTYLE
  5
18
102
{ACAD_REACTORS
330
17
102
}
330
17
100
AcDbMlineStyle
  2
STANDARD
 70
     0
  3

 62
   256
 51
90.0
 52
90.0
 71
     2
 49
0.5
 62
   256
  6
BYLAYER
 49
-0.5
 62
   256
  6
BYLAYER
  0
ACDBPLACEHOLDER
  5
F
102
{ACAD_REACTORS
330
E
102
}
330
E
  0
SCALE
  5
2523
102
{ACAD_REACTORS
330
2522
102
}
330
2522
100
AcDbScale
 70
     0
300
1:1
140
1.0
141
1.0
290
     1
  0
SCALE
  5
2524
102
{ACAD_REACTORS
330
2522
102
}
330
2522
100
AcDbScale
 70
     0
300
1:2
140
1.0
141
2.0
290
     0
  0
SCALE
  5
2525
102
{ACAD_REACTORS
330
2522
102
}
330
2522
100
AcDbScale
 70
     0
300
1:4
140
1.0
141
4.0
290
     0
  0
SCALE
  5
2526
102
{ACAD_REACTORS
330
2522
102
}
330
2522
100
AcDbScale
 70
     0
300
1:5
140
1.0
141
5.0
290
     0
  0
SCALE
  5
2527
102
{ACAD_REACTORS
330
2522
102
}
330
2522
100
AcDbScale
 70
     0
300
1:8
140
1.0
141
8.0
290
     0
  0
SCALE
  5
2528
102
{ACAD_REACTORS
330
2522
102
}
330
2522
100
AcDbScale
 70
     0
300
1:10
140
1.0
141
10.0
290
     0
  0
SCALE
  5
2529
102
{ACAD_REACTORS
330
2522
102
}
330
2522
100
AcDbScale
 70
     0
300
1:16
140
1.0
141
16.0
290
     0
  0
SCALE
  5
252A
102
{ACAD_REACTORS
330
2522
102
}
330
2522
100
AcDbScale
 70
     0
300
1:20
140
1.0
141
20.0
290
     0
  0
SCALE
  5
252B
102
{ACAD_REACTORS
330
2522
102
}
330
2522
100
AcDbScale
 70
     0
300
1:30
140
1.0
141
30.0
290
     0
  0
SCALE
  5
252C
102
{ACAD_REACTORS
330
2522
102
}
330
2522
100
AcDbScale
 70
     0
300
1:40
140
1.0
141
40.0
290
     0
  0
SCALE
  5
252D
102
{ACAD_REACTORS
330
2522
102
}
330
2522
100
AcDbScale
 70
     0
300
1:50
140
1.0
141
50.0
290
     0
  0
SCALE
  5
252E
102
{ACAD_REACTORS
330
2522
102
}
330
2522
100
AcDbScale
 70
     0
300
1:100
140
1.0
141
100.0
290
     0
  0
SCALE
  5
252F
102
{ACAD_REACTORS
330
2522
102
}
330
2522
100
AcDbScale
 70
     0
300
2:1
140
2.0
141
1.0
290
     0
  0
SCALE
  5
2530
102
{ACAD_REACTORS
330
2522
102
}
330
2522
100
AcDbScale
 70
     0
300
4:1
140
4.0
141
1.0
290
     0
  0
SCALE
  5
2531
102
{ACAD_REACTORS
330
2522
102
}
330
2522
100
AcDbScale
 70
     0
300
8:1
140
8.0
141
1.0
290
     0
  0
SCALE
  5
2532
102
{ACAD_REACTORS
330
2522
102
}
330
2522
100
AcDbScale
 70
     0
300
10:1
140
10.0
141
1.0
290
     0
  0
SCALE
  5
2533
102
{ACAD_REACTORS
330
2522
102
}
330
2522
100
AcDbScale
 70
     0
300
100:1
140
100.0
141
1.0
290
     0
  0
TABLESTYLE
  5
2521
102
{ACAD_XDICTIONARY
360
25A3
102
}
102
{ACAD_REACTORS
330
2520
102
}
330
2520
100
AcDbTableStyle
  3
Standard
 70
     0
 71
     0
 40
1.5
 41
1.5
280
     0
281
     0
  7
STANDARD
140
4.5
170
     2
 62
     0
 63
     7
283
     0
274
    -2
284
     1
 64
     0
275
    -2
285
     1
 65
     0
276
    -2
286
     1
 66
     0
277
    -2
287
     1
 67
     0
278
    -2
288
     1
 68
     0
279
    -2
289
     1
 69
     0
  7
STANDARD
140
6.0
170
     5
 62
     0
 63
     7
283
     0
274
    -2
284
     1
 64
     0
275
    -2
285
     1
 65
     0
276
    -2
286
     1
 66
     0
277
    -2
287
     1
 67
     0
278
    -2
288
     1
 68
     0
279
    -2
289
     1
 69
     0
  7
STANDARD
140
4.5
170
     5
 62
     0
 63
     7
283
     0
274
    -2
284
     1
 64
     0
275
    -2
285
     1
 65
     0
276
    -2
286
     1
 66
     0
277
    -2
287
     1
 67
     0
278
    -2
288
     1
 68
     0
279
    -2
289
     1
 69
     0
  0
VISUALSTYLE
  5
2514
102
{ACAD_XDICTIONARY
360
3B61
102
}
102
{ACAD_REACTORS
330
250E
102
}
330
250E
100
AcDbVisualStyle
  2
2dWireframe
 70
     4
 71
     0
 72
     2
 73
     0
 90
        0
 40
-0.6
 41
-30.0
 62
     5
 63
     7
421
 16777215
 74
     1
 91
        4
 64
     7
 65
   257
 75
     1
175
     1
 42
1.0
 92
        0
 66
   257
 43
1.0
 76
     1
 77
     6
 78
     2
 67
     7
 79
     5
170
     0
171
     0
290
     0
174
     0
 93
        1
 44
0.0
173
     0
291
     0
 45
0.0
1001
ACAD
1000
AcDbSavedByObjectVersion
1070
     0
  0
VISUALSTYLE
  5
2516
102
{ACAD_XDICTIONARY
360
3B65
102
}
102
{ACAD_REACTORS
330
250E
102
}
330
250E
100
AcDbVisualStyle
  2
3D Hidden
 70
     6
 71
     1
 72
     2
 73
     2
 90
        0
 40
-0.6
 41
-30.0
 62
     5
 63
     7
421
 16777215
 74
     2
 91
        2
 64
     7
 65
   257
 75
     2
175
     1
 42
40.0
 92
        0
 66
   257
 43
1.0
 76
     1
 77
     6
 78
     2
 67
     7
 79
     3
170
     0
171
     0
290
     0
174
     0
 93
        1
 44
0.0
173
     0
291
     0
 45
0.0
1001
ACAD
1000
AcDbSavedByObjectVersion
1070
     0
  0
VISUALSTYLE
  5
2515
102
{ACAD_XDICTIONARY
360
3B63
102
}
102
{ACAD_REACTORS
330
250E
102
}
330
250E
100
AcDbVisualStyle
  2
3dWireframe
 70
     5
 71
     0
 72
     2
 73
     0
 90
        0
 40
-0.6
 41
-30.0
 62
     5
 63
     7
421
 16777215
 74
     1
 91
        4
 64
     7
 65
   257
 75
     1
175
     1
 42
1.0
 92
        0
 66
   257
 43
1.0
 76
     1
 77
     6
 78
     2
 67
     7
 79
     5
170
     0
171
     0
290
     0
174
     0
 93
        1
 44
0.0
173
     0
291
     0
 45
0.0
1001
ACAD
1000
AcDbSavedByObjectVersion
1070
     0
  0
VISUALSTYLE
  5
2513
102
{ACAD_XDICTIONARY
360
3B5F
102
}
102
{ACAD_REACTORS
330
250E
102
}
330
250E
100
AcDbVisualStyle
  2
Basic
 70
     7
 71
     1
 72
     0
 73
     1
 90
        0
 40
-0.6
 41
-30.0
 62
     5
 63
     7
421
 16777215
 74
     0
 91
        4
 64
     7
 65
   257
 75
     1
175
     1
 42
1.0
 92
        8
 66
     7
 43
1.0
 76
     1
 77
     6
 78
     2
 67
     7
 79
     5
170
     0
171
     0
290
     0
174
     0
 93
        1
 44
0.0
173
     0
291
     1
 45
0.0
1001
ACAD
1000
AcDbSavedByObjectVersion
1070
     0
  0
VISUALSTYLE
  5
251A
102
{ACAD_XDICTIONARY
360
3B6D
102
}
102
{ACAD_REACTORS
330
250E
102
}
330
250E
100
AcDbVisualStyle
  2
Brighten
 70
    12
 71
     2
 72
     2
 73
     0
 90
        0
 40
-0.6
 41
-30.0
 62
     5
 63
     7
421
 16777215
 74
     1
 91
        4
 64
     7
 65
   257
 75
     1
175
     1
 42
1.0
 92
        8
 66
     7
 43
1.0
 76
     1
 77
     6
 78
     2
 67
     7
 79
     5
170
     0
171
     0
290
     0
174
     0
 93
        1
 44
50.0
173
     0
291
     1
 45
0.0
1001
ACAD
1000
AcDbSavedByObjectVersion
1070
     0
  0
VISUALSTYLE
  5
251E
102
{ACAD_XDICTIONARY
360
3B75
102
}
102
{ACAD_REACTORS
330
250E
102
}
330
250E
100
AcDbVisualStyle
  2
ColorChange
 70
    16
 71
     2
 72
     2
 73
     3
 90
        0
 40
-0.6
 41
-30.0
 62
     5
 63
     8
421
  8421504
 74
     1
 91
        4
 64
     7
 65
   257
 75
     1
175
     1
 42
1.0
 92
        8
 66
     8
424
  8421504
 43
1.0
 76
     1
 77
     6
 78
     2
 67
     7
 79
     5
170
     0
171
     0
290
     0
174
     0
 93
        1
 44
0.0
173
     0
291
     1
 45
0.0
1001
ACAD
1000
AcDbSavedByObjectVersion
1070
     0
  0
VISUALSTYLE
  5
2517
102
{ACAD_XDICTIONARY
360
3B67
102
}
102
{ACAD_REACTORS
330
250E
102
}
330
250E
100
AcDbVisualStyle
  2
Conceptual
 70
     9
 71
     3
 72
     2
 73
     0
 90
        0
 40
-0.6
 41
-30.0
 62
     5
 63
     7
421
 16777215
 74
     2
 91
        2
 64
     7
 65
   257
 75
     1
175
     1
 42
40.0
 92
        8
 66
     7
 43
1.0
 76
     1
 77
     6
 78
     2
 67
     7
 79
     3
170
     0
171
     0
290
     0
174
     0
 93
        1
 44
0.0
173
     0
291
     0
 45
0.0
1001
ACAD
1000
AcDbSavedByObjectVersion
1070
     0
  0
VISUALSTYLE
  5
2519
102
{ACAD_XDICTIONARY
360
3B6B
102
}
102
{ACAD_REACTORS
330
250E
102
}
330
250E
100
AcDbVisualStyle
  2
Dim
 70
    11
 71
     2
 72
     2
 73
     0
 90
        0
 40
-0.6
 41
-30.0
 62
     5
 63
     7
421
 16777215
 74
     1
 91
        4
 64
     7
 65
   257
 75
     1
175
     1
 42
1.0
 92
        8
 66
     7
 43
1.0
 76
     1
 77
     6
 78
     2
 67
     7
 79
     5
170
     0
171
     0
290
     0
174
     0
 93
        1
 44
-50.0
173
     0
291
     1
 45
0.0
1001
ACAD
1000
AcDbSavedByObjectVersion
1070
     0
  0
VISUALSTYLE
  5
2B20
102
{ACAD_XDICTIONARY
360
3B8A
102
}
102
{ACAD_REACTORS
330
250E
102
}
330
250E
100
AcDbVisualStyle
  2
EdgeColorOff
 70
    22
 71
     2
 72
     2
 73
     0
 90
        0
 40
-0.6
 41
-30.0
 62
     5
 63
     7
421
 16777215
 74
     1
 91
        4
 64
     7
 65
   257
 75
     1
175
     1
 42
1.0
 92
        8
 66
     7
 43
1.0
 76
     1
 77
     6
 78
     2
 67
     7
 79
     5
170
     0
171
     0
290
     0
174
     0
 93
        1
 44
0.0
173
     0
291
     1
 45
0.0
1001
ACAD
1000
AcDbSavedByObjectVersion
1070
     0
  0
VISUALSTYLE
  5
251D
102
{ACAD_XDICTIONARY
360
3B73
102
}
102
{ACAD_REACTORS
330
250E
102
}
330
250E
100
AcDbVisualStyle
  2
Facepattern
 70
    15
 71
     2
 72
     2
 73
     0
 90
        0
 40
-0.6
 41
-30.0
 62
     5
 63
     7
421
 16777215
 74
     1
 91
        4
 64
     7
 65
   257
 75
     1
175
     1
 42
1.0
 92
        8
 66
     7
 43
1.0
 76
     1
 77
     6
 78
     2
 67
     7
 79
     5
170
     0
171
     0
290
     0
174
     0
 93
        1
 44
0.0
173
     0
291
     1
 45
0.0
1001
ACAD
1000
AcDbSavedByObjectVersion
1070
     0
  0
VISUALSTYLE
  5
250F
102
{ACAD_XDICTIONARY
360
3B57
102
}
102
{ACAD_REACTORS
330
250E
102
}
330
250E
100
AcDbVisualStyle
  2
Flat
 70
     0
 71
     2
 72
     1
 73
     1
 90
        2
 40
-0.6
 41
30.0
 62
     5
 63
     7
421
 16777215
 74
     0
 91
        4
 64
     7
 65
   257
 75
     1
175
     1
 42
1.0
 92
        8
 66
     7
 43
1.0
 76
     1
 77
     6
 78
     2
 67
     7
 79
     5
170
     0
171
     0
290
     0
174
     0
 93
       13
 44
0.0
173
     0
291
     1
 45
0.0
1001
ACAD
1000
AcDbSavedByObjectVersion
1070
     0
  0
VISUALSTYLE
  5
2510
102
{ACAD_XDICTIONARY
360
3B59
102
}
102
{ACAD_REACTORS
330
250E
102
}
330
250E
100
AcDbVisualStyle
  2
FlatWithEdges
 70
     1
 71
     2
 72
     1
 73
     1
 90
        2
 40
-0.6
 41
30.0
 62
     5
 63
     7
421
 16777215
 74
     1
 91
        4
 64
     7
 65
   257
 75
     1
175
     1
 42
1.0
 92
        0
 66
   257
 43
1.0
 76
     1
 77
     6
 78
     2
 67
     7
 79
     5
170
     0
171
     0
290
     0
174
     0
 93
       13
 44
0.0
173
     0
291
     1
 45
0.0
1001
ACAD
1000
AcDbSavedByObjectVersion
1070
     0
  0
VISUALSTYLE
  5
2511
102
{ACAD_XDICTIONARY
360
3B5B
102
}
102
{ACAD_REACTORS
330
250E
102
}
330
250E
100
AcDbVisualStyle
  2
Gouraud
 70
     2
 71
     2
 72
     2
 73
     1
 90
        2
 40
-0.6
 41
30.0
 62
     5
 63
     7
421
 16777215
 74
     0
 91
        4
 64
     7
 65
   257
 75
     1
175
     1
 42
1.0
 92
        0
 66
     7
 43
1.0
 76
     1
 77
     6
 78
     2
 67
     7
 79
     5
170
     0
171
     0
290
     0
174
     0
 93
       13
 44
0.0
173
     0
291
     1
 45
0.0
1001
ACAD
1000
AcDbSavedByObjectVersion
1070
     0
  0
VISUALSTYLE
  5
2512
102
{ACAD_XDICTIONARY
360
3B5D
102
}
102
{ACAD_REACTORS
330
250E
102
}
330
250E
100
AcDbVisualStyle
  2
GouraudWithEdges
 70
     3
 71
     2
 72
     2
 73
     1
 90
        2
 40
-0.6
 41
30.0
 62
     5
 63
     7
421
 16777215
 74
     1
 91
        4
 64
     7
 65
   257
 75
     1
175
     1
 42
1.0
 92
        0
 66
   257
 43
1.0
 76
     1
 77
     6
 78
     2
 67
     7
 79
     5
170
     0
171
     0
290
     0
174
     0
 93
       13
 44
0.0
173
     0
291
     1
 45
0.0
1001
ACAD
1000
AcDbSavedByObjectVersion
1070
     0
  0
VISUALSTYLE
  5
2B18
102
{ACAD_XDICTIONARY
360
3B7A
102
}
102
{ACAD_REACTORS
330
250E
102
}
330
250E
100
AcDbVisualStyle
  2
Hidden
 70
     6
 71
     1
 72
     2
 73
     2
 90
        0
 40
-0.6
 41
-30.0
 62
     5
 63
     7
421
 16777215
 74
     2
 91
        2
 64
     7
 65
   257
 75
     2
175
     1
 42
40.0
 92
        0
 66
   257
 43
1.0
 76
     1
 77
     6
 78
     2
 67
     7
 79
     3
170
     0
171
     0
290
     0
174
     0
 93
        1
 44
0.0
173
     0
291
     0
 45
0.0
1001
ACAD
1000
AcDbSavedByObjectVersion
1070
     0
  0
VISUALSTYLE
  5
2B1E
102
{ACAD_XDICTIONARY
360
3B86
102
}
102
{ACAD_REACTORS
330
250E
102
}
330
250E
100
AcDbVisualStyle
  2
JitterOff
 70
    20
 71
     2
 72
     2
 73
     0
 90
        0
 40
-0.6
 41
-30.0
 62
     5
 63
     7
421
 16777215
 74
     1
 91
        4
 64
     7
 65
   257
 75
     1
175
     1
 42
1.0
 92
       10
 66
     7
 43
1.0
 76
     1
 77
     6
 78
     2
 67
     7
 79
     5
170
     0
171
     0
290
     0
174
     0
 93
        1
 44
0.0
173
     0
291
     1
 45
0.0
1001
ACAD
1000
AcDbSavedByObjectVersion
1070
     0
  0
VISUALSTYLE
  5
251C
102
{ACAD_XDICTIONARY
360
3B71
102
}
102
{ACAD_REACTORS
330
250E
102
}
330
250E
100
AcDbVisualStyle
  2
Linepattern
 70
    14
 71
     2
 72
     2
 73
     0
 90
        0
 40
-0.6
 41
-30.0
 62
     5
 63
     7
421
 16777215
 74
     1
 91
        4
 64
     7
 65
   257
 75
     7
175
     7
 42
1.0
 92
        8
 66
     7
 43
1.0
 76
     1
 77
     6
 78
     2
 67
     7
 79
     5
170
     0
171
     0
290
     0
174
     0
 93
        1
 44
0.0
173
     0
291
     1
 45
0.0
1001
ACAD
1000
AcDbSavedByObjectVersion
1070
     0
  0
VISUALSTYLE
  5
2B1F
102
{ACAD_XDICTIONARY
360
3B88
102
}
102
{ACAD_REACTORS
330
250E
102
}
330
250E
100
AcDbVisualStyle
  2
OverhangOff
 70
    21
 71
     2
 72
     2
 73
     0
 90
        0
 40
-0.6
 41
-30.0
 62
     5
 63
     7
421
 16777215
 74
     1
 91
        4
 64
     7
 65
   257
 75
     1
175
     1
 42
1.0
 92
        9
 66
     7
 43
1.0
 76
     1
 77
     6
 78
     2
 67
     7
 79
     5
170
     0
171
     0
290
     0
174
     0
 93
        1
 44
0.0
173
     0
291
     1
 45
0.0
1001
ACAD
1000
AcDbSavedByObjectVersion
1070
     0
  0
VISUALSTYLE
  5
2518
102
{ACAD_XDICTIONARY
360
3B69
102
}
102
{ACAD_REACTORS
330
250E
102
}
330
250E
100
AcDbVisualStyle
  2
Realistic
 70
     8
 71
     2
 72
     2
 73
     0
 90
        0
 40
-0.6
 41
-30.0
 62
     5
 63
     7
421
 16777215
 74
     1
 91
        0
 64
     7
 65
   257
 75
     1
175
     1
 42
1.0
 92
        8
 66
     8
424
  7895160
 43
1.0
 76
     1
 77
     6
 78
     2
 67
     7
 79
     5
170
     0
171
     0
290
     0
174
     0
 93
       13
 44
0.0
173
     0
291
     0
 45
0.0
1001
ACAD
1000
AcDbSavedByObjectVersion
1070
     0
  0
VISUALSTYLE
  5
2B1D
102
{ACAD_XDICTIONARY
360
3B84
102
}
102
{ACAD_REACTORS
330
250E
102
}
330
250E
100
AcDbVisualStyle
  2
Shaded
 70
    27
 71
     2
 72
     2
 73
     1
 90
        2
 40
-0.6
 41
30.0
 62
     5
 63
     7
421
 16777215
 74
     0
 91
        4
 64
     7
 65
   257
 75
     1
175
     1
 42
1.0
 92
        8
 66
   257
 43
1.0
 76
     1
 77
     6
 78
     2
 67
     8
425
  7895160
 79
     3
170
     0
171
     0
290
     0
174
     0
 93
        5
 44
0.0
173
     0
291
     0
 45
0.0
1001
ACAD
1000
AcDbSavedByObjectVersion
1070
     0
  0
VISUALSTYLE
  5
2B1C
102
{ACAD_XDICTIONARY
360
3B82
102
}
102
{ACAD_REACTORS
330
250E
102
}
330
250E
100
AcDbVisualStyle
  2
Shaded with edges
 70
    26
 71
     2
 72
     2
 73
     1
 90
        2
 40
-0.6
 41
30.0
 62
     5
 63
     7
421
 16777215
 74
     1
 91
       10
 64
     7
 65
   257
 75
     2
175
     1
 42
1.0
 92
        8
 66
   257
 43
1.0
 76
     1
 77
     6
 78
     2
 67
     7
 79
     3
170
     0
171
     0
290
     0
174
     0
 93
        5
 44
0.0
173
     0
291
     0
 45
0.0
1001
ACAD
1000
AcDbSavedByObjectVersion
1070
     0
  0
VISUALSTYLE
  5
2B19
102
{ACAD_XDICTIONARY
360
3B7C
102
}
102
{ACAD_REACTORS
330
250E
102
}
330
250E
100
AcDbVisualStyle
  2
Shades of Gray
 70
    23
 71
     2
 72
     2
 73
     3
 90
        0
 40
-0.6
 41
-30.0
 62
     5
 63
     7
421
 16777215
 74
     2
 91
        2
 64
     7
 65
     7
 75
     1
175
     1
 42
40.0
 92
        8
 66
     7
 43
1.0
 76
     1
 77
     6
 78
     2
 67
     7
 79
     3
170
     0
171
     0
290
     0
174
     0
 93
        1
 44
0.0
173
     0
291
     0
 45
0.0
1001
ACAD
1000
AcDbSavedByObjectVersion
1070
     0
  0
VISUALSTYLE
  5
2B1A
102
{ACAD_XDICTIONARY
360
3B7E
102
}
102
{ACAD_REACTORS
330
250E
102
}
330
250E
100
AcDbVisualStyle
  2
Sketchy
 70
    24
 71
     1
 72
     2
 73
     2
 90
        0
 40
-0.6
 41
-30.0
 62
     5
 63
     7
421
 16777215
 74
     2
 91
        2
 64
     7
 65
     7
 75
     1
175
     1
 42
40.0
 92
       11
 66
     7
 43
1.0
 76
     1
 77
     6
 78
     2
 67
     7
 79
     6
170
     0
171
     0
290
     0
174
     0
 93
        1
 44
0.0
173
     0
291
     0
 45
0.0
1001
ACAD
1000
AcDbSavedByObjectVersion
1070
     0
  0
VISUALSTYLE
  5
251B
102
{ACAD_XDICTIONARY
360
3B6F
102
}
102
{ACAD_REACTORS
330
250E
102
}
330
250E
100
AcDbVisualStyle
  2
Thicken
 70
    13
 71
     2
 72
     2
 73
     0
 90
        0
 40
-0.6
 41
-30.0
 62
     5
 63
     7
421
 16777215
 74
     1
 91
        4
 64
     7
 65
   257
 75
     1
175
     1
 42
1.0
 92
       12
 66
     7
 43
1.0
 76
     1
 77
     6
 78
     2
 67
     7
 79
     5
170
     0
171
     0
290
     0
174
     0
 93
        1
 44
0.0
173
     0
291
     1
 45
0.0
1001
ACAD
1000
AcDbSavedByObjectVersion
1070
     0
  0
VISUALSTYLE
  5
2B17
102
{ACAD_XDICTIONARY
360
3B78
102
}
102
{ACAD_REACTORS
330
250E
102
}
330
250E
100
AcDbVisualStyle
  2
Wireframe
 70
     5
 71
     0
 72
     2
 73
     0
 90
        0
 40
-0.6
 41
-30.0
 62
     5
 63
     7
421
 16777215
 74
     1
 91
        4
 64
     7
 65
   257
 75
     1
175
     1
 42
1.0
 92
        0
 66
   257
 43
1.0
 76
     1
 77
     6
 78
     2
 67
     7
 79
     3
170
     0
171
     0
290
     0
174
     0
 93
        1
 44
0.0
173
     0
291
     0
 45
0.0
1001
ACAD
1000
AcDbSavedByObjectVersion
1070
     0
  0
VISUALSTYLE
  5
2B1B
102
{ACAD_XDICTIONARY
360
3B80
102
}
102
{ACAD_REACTORS
330
250E
102
}
330
250E
100
AcDbVisualStyle
  2
X-Ray
 70
    25
 71
     2
 72
     2
 73
     1
 90
        1
 40
0.5
 41
-30.0
 62
     5
 63
     7
421
 16777215
 74
     1
 91
        0
 64
     7
 65
   257
 75
     1
175
     1
 42
1.0
 92
        8
 66
     7
 43
1.0
 76
     1
 77
     6
 78
     2
 67
     7
 79
     3
170
     0
171
     0
290
     0
174
     0
 93
       13
 44
0.0
173
     0
291
     0
 45
0.0
1001
ACAD
1000
AcDbSavedByObjectVersion
1070
     0
  0
DICTIONARYVAR
  5
25AE
102
{ACAD_REACTORS
330
86
102
}
330
86
100
DictionaryVariables
280
     0
  1
1:1
  0
DICTIONARYVAR
  5
25AD
102
{ACAD_REACTORS
330
86
102
}
330
86
100
DictionaryVariables
280
     0
  1
STANDARD
  0
DICTIONARYVAR
  5
25AC
102
{ACAD_REACTORS
330
86
102
}
330
86
100
DictionaryVariables
280
     0
  1
STANDARD
  0
DICTIONARYVAR
  5
89
102
{ACAD_REACTORS
330
86
102
}
330
86
100
DictionaryVariables
280
     0
  1
2
  0
DICTIONARYVAR
  5
88
102
{ACAD_REACTORS
330
86
102
}
330
86
100
DictionaryVariables
280
     0
  1
1
  0
DICTIONARYVAR
  5
87
102
{ACAD_REACTORS
330
86
102
}
330
86
100
DictionaryVariables
280
     0
  1
1
  0
DICTIONARYVAR
  5
2715
102
{ACAD_REACTORS
330
86
102
}
330
86
100
DictionaryVariables
280
     0
  1
1
  0
DICTIONARYVAR
  5
2716
102
{ACAD_REACTORS
330
86
102
}
330
86
100
DictionaryVariables
280
     0
  1
15
  0
DICTIONARYVAR
  5
2714
102
{ACAD_REACTORS
330
86
102
}
330
86
100
DictionaryVariables
280
     0
  1
0
  0
DICTIONARYVAR
  5
2713
102
{ACAD_REACTORS
330
86
102
}
330
86
100
DictionaryVariables
280
     0
  1
0
  0
DICTIONARY
  5
4A
102
{ACAD_REACTORS
330
45
102
}
330
45
100
AcDbDictionary
281
     1
  0
XRECORD
  5
258D
102
{ACAD_REACTORS
330
45
102
}
330
45
100
AcDbXrecord
280
     1
 90
-1023410169
  0
XRECORD
  5
3A13
102
{ACAD_REACTORS
330
3A12
102
}
330
3A12
100
AcDbXrecord
280
     1
330
268A
330
268E
330
2697
330
2698
330
2699
330
26A7
330
26BD
330
26CD
330
26D1
330
26D5
330
26DB
330
26DC
330
26DD
  0
DICTIONARY
  5
2C00
330
22
100
AcDbDictionary
280
     1
281
     1
  3
ADSK_XREC_LAYOUTTHUMBNAIL
360
2C01
  0
DICTIONARY
  5
24FF
330
24FE
100
AcDbDictionary
280
     1
281
     1
  3
ACAD_XREC_ROUNDTRIP
360
3B55
  3
BUMPTILE
360
2501
  3
DIFFUSETILE
360
2500
  3
OPACITYTILE
360
2504
  3
REFLECTIONTILE
360
2503
  3
REFRACTIONTILE
360
2505
  3
SPECULARTILE
360
2502
  0
DICTIONARY
  5
24F7
330
24F6
100
AcDbDictionary
280
     1
281
     1
  3
ACAD_XREC_ROUNDTRIP
360
3B54
  3
BUMPTILE
360
24F9
  3
DIFFUSETILE
360
24F8
  3
OPACITYTILE
360
24FC
  3
REFLECTIONTILE
360
24FB
  3
REFRACTIONTILE
360
24FD
  3
SPECULARTILE
360
24FA
  0
DICTIONARY
  5
2507
330
2506
100
AcDbDictionary
280
     1
281
     1
  3
ACAD_XREC_ROUNDTRIP
360
3B56
  3
BUMPTILE
360
2509
  3
DIFFUSETILE
360
2508
  3
OPACITYTILE
360
250C
  3
REFLECTIONTILE
360
250B
  3
REFRACTIONTILE
360
250D
  3
SPECULARTILE
360
250A
  0
DICTIONARY
  5
25A3
330
2521
100
AcDbDictionary
280
     1
281
     1
  3
ACAD_ROUNDTRIP_2008_TABLESTYLE_CELLSTYLEMAP
360
3B4C
  3
ACAD_XREC_ROUNDTRIP
360
3B77
  0
DICTIONARY
  5
3B61
330
2514
100
AcDbDictionary
280
     1
281
     1
  3
ACAD_XREC_ROUNDTRIP
360
3B62
  0
DICTIONARY
  5
3B65
330
2516
100
AcDbDictionary
280
     1
281
     1
  3
ACAD_XREC_ROUNDTRIP
360
3B66
  0
DICTIONARY
  5
3B63
330
2515
100
AcDbDictionary
280
     1
281
     1
  3
ACAD_XREC_ROUNDTRIP
360
3B64
  0
DICTIONARY
  5
3B5F
330
2513
100
AcDbDictionary
280
     1
281
     1
  3
ACAD_XREC_ROUNDTRIP
360
3B60
  0
DICTIONARY
  5
3B6D
330
251A
100
AcDbDictionary
280
     1
281
     1
  3
ACAD_XREC_ROUNDTRIP
360
3B6E
  0
DICTIONARY
  5
3B75
330
251E
100
AcDbDictionary
280
     1
281
     1
  3
ACAD_XREC_ROUNDTRIP
360
3B76
  0
DICTIONARY
  5
3B67
330
2517
100
AcDbDictionary
280
     1
281
     1
  3
ACAD_XREC_ROUNDTRIP
360
3B68
  0
DICTIONARY
  5
3B6B
330
2519
100
AcDbDictionary
280
     1
281
     1
  3
ACAD_XREC_ROUNDTRIP
360
3B6C
  0
DICTIONARY
  5
3B8A
330
2B20
100
AcDbDictionary
280
     1
281
     1
  3
ACAD_XREC_ROUNDTRIP
360
3B8B
  0
DICTIONARY
  5
3B73
330
251D
100
AcDbDictionary
280
     1
281
     1
  3
ACAD_XREC_ROUNDTRIP
360
3B74
  0
DICTIONARY
  5
3B57
330
250F
100
AcDbDictionary
280
     1
281
     1
  3
ACAD_XREC_ROUNDTRIP
360
3B58
  0
DICTIONARY
  5
3B59
330
2510
100
AcDbDictionary
280
     1
281
     1
  3
ACAD_XREC_ROUNDTRIP
360
3B5A
  0
DICTIONARY
  5
3B5B
330
2511
100
AcDbDictionary
280
     1
281
     1
  3
ACAD_XREC_ROUNDTRIP
360
3B5C
  0
DICTIONARY
  5
3B5D
330
2512
100
AcDbDictionary
280
     1
281
     1
  3
ACAD_XREC_ROUNDTRIP
360
3B5E
  0
DICTIONARY
  5
3B7A
330
2B18
100
AcDbDictionary
280
     1
281
     1
  3
ACAD_XREC_ROUNDTRIP
360
3B7B
  0
DICTIONARY
  5
3B86
330
2B1E
100
AcDbDictionary
280
     1
281
     1
  3
ACAD_XREC_ROUNDTRIP
360
3B87
  0
DICTIONARY
  5
3B71
330
251C
100
AcDbDictionary
280
     1
281
     1
  3
ACAD_XREC_ROUNDTRIP
360
3B72
  0
DICTIONARY
  5
3B88
330
2B1F
100
AcDbDictionary
280
     1
281
     1
  3
ACAD_XREC_ROUNDTRIP
360
3B89
  0
DICTIONARY
  5
3B69
330
2518
100
AcDbDictionary
280
     1
281
     1
  3
ACAD_XREC_ROUNDTRIP
360
3B6A
  0
DICTIONARY
  5
3B84
330
2B1D
100
AcDbDictionary
280
     1
281
     1
  3
ACAD_XREC_ROUNDTRIP
360
3B85
  0
DICTIONARY
  5
3B82
330
2B1C
100
AcDbDictionary
280
     1
281
     1
  3
ACAD_XREC_ROUNDTRIP
360
3B83
  0
DICTIONARY
  5
3B7C
330
2B19
100
AcDbDictionary
280
     1
281
     1
  3
ACAD_XREC_ROUNDTRIP
360
3B7D
  0
DICTIONARY
  5
3B7E
330
2B1A
100
AcDbDictionary
280
     1
281
     1
  3
ACAD_XREC_ROUNDTRIP
360
3B7F
  0
DICTIONARY
  5
3B6F
330
251B
100
AcDbDictionary
280
     1
281
     1
  3
ACAD_XREC_ROUNDTRIP
360
3B70
  0
DICTIONARY
  5
3B78
330
2B17
100
AcDbDictionary
280
     1
281
     1
  3
ACAD_XREC_ROUNDTRIP
360
3B79
  0
DICTIONARY
  5
3B80
330
2B1B
100
AcDbDictionary
280
     1
281
     1
  3
ACAD_XREC_ROUNDTRIP
360
3B81
  0
XRECORD
  5
2C01
102
{ACAD_REACTORS
330
2C00
102
}
330
2C00
100
AcDbXrecord
280
     1
310
28000000000100006E0000000100080000000000006E0000000000000000000000010000000000003028210000000000FFFFFF000000000000000000000000000000000000000000000000000000000000000000330000006600000099000000CC000000FF00000000330000333300006633000099330000CC330000FF3300
310
0000660000336600006666000099660000CC660000FF66000000990000339900006699000099990000CC990000FF99000000CC000033CC000066CC000099CC0000CCCC0000FFCC000000FF000033FF000066FF000099FF0000CCFF0000FFFF000000003300330033006600330099003300CC003300FF003300003333003333
310
33006633330099333300CC333300FF33330000663300336633006666330099663300CC663300FF66330000993300339933006699330099993300CC993300FF99330000CC330033CC330066CC330099CC3300CCCC3300FFCC330000FF330033FF330066FF330099FF3300CCFF3300FFFF330000006600330066006600660099
310
006600CC006600FF00660000336600333366006633660099336600CC336600FF33660000666600336666006666660099666600CC666600FF66660000996600339966006699660099996600CC996600FF99660000CC660033CC660066CC660099CC6600CCCC6600FFCC660000FF660033FF660066FF660099FF6600CCFF6600
310
FFFF660000009900330099006600990099009900CC009900FF00990000339900333399006633990099339900CC339900FF33990000669900336699006666990099669900CC669900FF66990000999900339999006699990099999900CC999900FF99990000CC990033CC990066CC990099CC9900CCCC9900FFCC990000FF99
310
0033FF990066FF990099FF9900CCFF9900FFFF99000000CC003300CC006600CC009900CC00CC00CC00FF00CC000033CC003333CC006633CC009933CC00CC33CC00FF33CC000066CC003366CC006666CC009966CC00CC66CC00FF66CC000099CC003399CC006699CC009999CC00CC99CC00FF99CC0000CCCC0033CCCC0066CC
310
CC0099CCCC00CCCCCC00FFCCCC0000FFCC0033FFCC0066FFCC0099FFCC00CCFFCC00FFFFCC000000FF003300FF006600FF009900FF00CC00FF00FF00FF000033FF003333FF006633FF009933FF00CC33FF00FF33FF000066FF003366FF006666FF009966FF00CC66FF00FF66FF000099FF003399FF006699FF009999FF00CC
310
99FF00FF99FF0000CCFF0033CCFF0066CCFF0099CCFF00CCCCFF00FFCCFF0000FFFF0033FFFF0066FFFF0099FFFF00CCFFFF00FFFFFF00000000000D0D0D001A1A1A00282828003535350043434300505050005D5D5D006B6B6B00787878008686860093939300A1A1A100AEAEAE00BBBBBB00C9C9C900D6D6D600E4E4E400
310
F1F1F100FFFFFF000000000000000000000000000000000000000000000000000000000000000000000000000000000000000000000000000000000000000000000000000000000000000000000000000000000000000000000000000000000000000000000000000000000000000000000000000000000000000000000000
310
0000000000000000000000000000000000000000000000000000000000000000000000000000000000000000000000002D000000000000000000000000000000000000000000000000000000000000000000000000000000000000000000000000000000000000000000000000000000000000000000000000000000000000
310
00000000000000000000000000000000000000000000000000000000000000000000000000000000000000000000000000000000000000000000000000000000000000000000000000000000000000000000000000000000000000000000000000000000000000000000000000000000000000000000000000000000000000
310
00000000000000000000000000000000000000000000000000000000000000000000000000000000000000000000000000002D00000000000000000000000000000000000000000000000000000000000000000000000000000000000000000000000000000000000000000000000000000000000000000000000000000000
310
00000000000000000000000000000000000000000000000000000000000000000000000000000000000000000000000000000000000000000000000000000000000000000000000000000000000000000000000000000000000000000000000000000000000000000000000000000000000000000000000000000000000000
310
00000000000000000000000000000000000000000000000000000000000000000000000000000000000000000000F5F5F5F5F5F5F5F5F5F5F5F5F5F500000000000000000000000000000000000000000000000000000000000000000000000000000000000000000000000000000000000000000000000000000000000000
310
00000000000000000000000000000000000000000000000000000000000000000000000000000000000000000000000000000000000000000000000000000000000000000000000000000000000000000000000000000000000000000000000000000000000000000000000000000000000000000000000000000000000000
310
0000000000000000000000000000000000000000000000000000000000000000000000000000000000000000000000F5F5F5F5F5F5F5F5F5F5F5F5F5F5F5F500000000000000000000000000000000000000000000000000000000000000000000000000000000000000000000000000000000000000000000000000000000
310
00000000000000000000000000000000000000000000000000000000000000000000000000000000000000000000000000000000000000000000000000000000000000000000000000000000000000000000000000000000000000000000000000000000000000000000000000000000000000000000000000000000000000
310
00000000000000000000000000000000000000000000000000000000000000000000000000000000000000000000000000F50000000000002D00000000000000F50000000000000000000000000000000000000000000000000000000000000000000000000000000000000000000000000000000000000000000000000000
310
00000000000000000000000000000000000000000000000000000000000000000000000000000000000000000000000000000000000000000000000000000000000000000000000000000000000000000000000000000000000000000000000000000000000000000000000000000000000000000000000000000000000000
310
000000000000000000000000000000000000000000000000000000000000000000000000000000000000000000000000000000F50000000000002D00000000000000F5000000000000000000000000000000000000000000000000000000000000000000000000000000000000000000000000000000000000000000000000
310
00000000000000000000000000000000000000000000000000000000000000000000000000000000000000000000000000000000000000000000000000000000000000000000000000000000000000000000000000000000000000000000000000000000000000000000000000000000000000000000000000000000000000
310
0000000000000000000000000000000000000000000000000000000000000000000000000000000000000000000000000000000000F50000000000002D00000000000000F500000000000000000000000000000000000000000000000000000000000000000000000000000000000000000000000000000000000000000000
310
00000000000000000000000000000000000000000000000000000000000000000000000000000000000000000000000000000000000000000000000000000000000000000000000000000000000000000000000000000000000000000000000000000000000000000000000000000000000000000000000000000000000000
310
00000000000000000000000000000000000000000000000000000000000000000000000000000000000000000000000000000000000000F50000000000002D00000000000000F50000000000000000000000000000000000000000000000000000000000000000000000000000000000000000000000000000000000000000
310
00000000000000000000000000000000000000000000000000000000000000000000000000000000000000000000000000000000000000000000000000000000000000000000000000000000000000000000000000000000000000000000000000000000000000000000000000000000000000000000000000000000000000
310
0000000000000000000000000000000000000000000000000000000000000000000000000000000000000000000000000000000000000000F5F5F5F5F5F5F5F5F5F5F5F5F5F5F5F5F5F50000000000000000000000000000000000000000000000000000000000000000000000000000000000000000000000000000000000
310
00000000000000000000000000000000000000000000000000000000000000000000000000000000000000000000000000000000000000000000000000000000000000000000000000000000000000000000000000000000000000000000000000000000000000000000000000000000000000000000000000000000000000
310
0000000000000000000000000000000000000000000000000000000000F5F5F5F5F5F5F5F5F5F5F5F5F5F5F5F5F5F5F5F5F5F5F5F5F5F5F5F5F5F5F5F5F5F5F5F5F5F5F5F5F5F5F5F5F5F5F5F5F5F5F5F5F5F5F5F5F5F5F5F5F5F5F5F5F5F5F5F5F5F5F5F5F5F5F5F500000000000000000000000000000000000000000000
310
00000000000000000000000000000000000000000000000000000000000000000000000000000000000000000000000000000000000000000000000000000000000000000000000000000000000000000000000000000000000000000000000000000000000000000000000000000000000000000000000000000000000000
310
000000000000000000000000000000000000000000000000000000000000F5F5F5F5F5F5F5F5F5F5F5F5F5F5F5F5F5F5F5F5F5F5F5F5F5F5F5C3C3C3C3C3C3C3C3C3C3C3C3C3C3C3C3C3C3C3C3C3C3C3C3F5F5F5F5F5F5F5F5F5F5F5F5F5F5F5F5F5F5F5F5F5F5F5F5F5F5F500000000000000000000000000000000000000
310
00000000000000000000000000000000000000000000000000000000000000000000000000000000000000000000000000000000000000000000000000000000000000000000000000000000000000000000000000000000000000000000000000000000000000000000000000000000000000000000000000000000000000
310
0000000000000000000000000000000000000000000000000000000000000000F5000000000000000000000000C3C3C3C30000000000000000000000000000000000000000002D00000000000000000000000000000000000000000000C3C3C300000000000000000000000000F50000000000000000000000000000000000
310
00000000000000000000000000000000000000000000000000000000000000000000000000000000000000000000000000000000000000000000000000000000000000000000000000000000000000000000000000000000000000000000000000000000000000000000000000000000000000000000000000000000000000
310
00000000000000000000000000000000000000000000000000000000000000000000F50000000000000000000000C3C30000000000000000000000000000000000000000000000002D00000000000000000000000000000000000000000000000000C3C30000000000000000000000F5000000000000000000000000000000
310
00000000000000000000000000000000000000000000000000000000000000000000000000000000000000000000000000000000000000000000000000000000000000000000000000000000000000000000000000000000000000000000000000000000000000000000000000000000000000000000000000000000000000
310
000000000000000000000000000000000000000000000000000000000000000000000000F50000000000000000000000C3000000000000000000000000000000000000000000000000002D0000000000000000000000000000000000000000000000000000C30000000000000000000000F500000000000000000000000000
310
00000000000000000000000000000000000000000000000000000000000000000000000000000000000000000000000000000000000000000000000000000000000000000000000000000000000000000000000000000000000000000000000000000000000000000000000000000000000000000000000000000000000000
310
0000000000000000000000000000000000000000000000000000000000000000000000000000F500000000000000000000C300000000000000000000000000000000000000000000000000002D000000000000000000000000000000000000000000000000000000C300000000000000000000F50000000000000000000000
310
00000000000000000000000000000000000000000000000000000000000000000000000000000000000000000000000000000000000000000000000000000000000000000000000000000000000000000000000000000000000000000000000000000000000000000000000000000000000000000000000000000000000000
310
00000000000000000000000000000000000000000000000000000000000000000000000000000000F500000000000000000000C300000000000000000000000000000000000000000000000000002D000000000000000000000000000000000000000000000000000000C300000000000000000000F5000000000000000000
310
00000000000000000000000000000000000000000000000000000000000000000000000000000000000000000000000000000000000000000000000000000000000000000000000000000000000000000000000000000000000000000000000000000000000000000000000000000000000000000000000000000000000000
310
000000000000000000000000000000000000000000000000000000000000000000000000000000000000F500000000000000000000C300000000000000000000000000000000000000000000000000002D000000000000000000000000000000000000000000000000000000C300000000000000000000F500000000000000
310
00000000000000000000000000000000000000000000000000000000000000000000000000000000000000000000000000000000000000000000000000000000000000000000000000000000000000000000000000000000000000000000000000000000000000000000000000000000000000000000000000000000000000
310
0000000000000000000000000000000000000000000000000000000000000000000000000000000000000000F500000000000000000000C3000000000000000000000000000000000000000000000000000000000000000000000000000000000000000000000000000000000000C300000000000000000000F50000000000
310
00000000000000000000000000000000000000000000000000000000000000000000000000000000000000000000000000000000000000000000000000000000000000000000000000000000000000000000000000000000000000000000000000000000000000000000000000000000000000000000000000000000000000
310
00000000000000000000000000000000000000000000000000000000000000000000000000000000000000000000F500000000000000000000C3000000000000000000000000000000000000000000000000000000000000000000000000000000000000000000000000000000000000C300000000000000000000F5000000
310
00000000000000000000000000000000000000000000000000000000000000000000000000000000000000000000000000000000000000000000000000000000000000000000000000000000000000000000000000000000000000000000000000000000000000000000000000000000000000000000000000000000000000
310
000000000000000000000000000000000000000000000000000000000000000000000000000000000000000000000000F500000000000000000000C3000000000000000000000000000000000000000000000000000000000000000000000000000000000000000000000000000000000000C300000000000000000000F500
310
00000000000000000000000000000000000000000000000000000000000000000000000000000000000000000000000000000000000000000000000000000000000000000000000000000000000000000000000000000000000000000000000000000000000000000000000000000000000000000000000000000000000000
310
0000000000000000000000000000000000000000000000000000000000000000000000000000000000000000000000000000F500000000000000000000C3000000000000000000000000000000000000000000000000000000000000000000000000000000000000000000000000000000000000C300000000000000000000
310
F5000000000000000000000000000000000000000000000000000000000000000000000000000000000000000000000000000000000000000000000000000000000000000000000000000000000000000000000000000000000000000000000000000000000000000000000000000000000000000000000000000000000000
310
00000000000000000000000000000000000000000000000000000000000000000000000000000000000000000000000000000000F500000000000000000000C3000000000000000000000000000000000000000000000000000000000000000000000000000000000000000000000000000000000000C30000000000000000
310
0000F500000000000000000000000000000000000000000000000000000000000000000000000000000000000000000000000000000000000000000000000000000000000000000000000000000000000000000000000000000000000000000000000000000000000000000000000000000000000000000000000000000000
310
000000000000000000000000000000000000000000000000000000000000000000000000000000000000000000000000000000000000F500000000000000000000C3000000000000000000000000000000000000000000000000000000000000000000000000000000000000000000000000000000000000C3000000000000
310
00000000F50000000000000000000000000000000000000000000000000000000000000000000000000000000000000000000000000000000000000000000000000000000000000000000000000000000000000000000000000000000000000000000000000000000000000000000000000000000000000000000000000000
310
0000000000000000000000000000000000000000000000000000000000000000000000000000000000000000000000000000000000000000F500000000000000000000C3000000000000000000000000000000000000000000000000000000000000000000000000000000000000000000000000000000000000C300000000
310
000000000000F5000000000000000000000000000000000000000000000000000000000000000000000000000000000000000000000000000000000000000000000000000000000000000000000000000000000000000000000000000000000000000000000000000000000000000000000000000000000000000000000000
310
00000000000000000000000000000000000000000000000000000000000000000000000000000000000000000000000000000000000000000000F500000000000000000000C3000000000000000000000000000000000000000000000000000000000000000000000000000000000000000000000000000000000000C30000
310
0000000000000000F500000000000000000000000000000000000000000000000000000000000000000000000000000000000000000000000000000000000000000000000000000000000000000000000000000000000000000000000000000000000000000000000000000000000000000000000000000000000000000000
310
000000000000000000000000000000000000000000000000000000000000000000000000000000000000000000000000000000000000000000000000F500000000000000000000C3000000000000000000000000000000000000000000000000000000000000000000000000000000000000000000000000000000000000C3
310
00000000000000000000F50000000000000000000000000000000000000000000000000000000000000000000000000000000000000000000000000000000000000000000000000000000000000000000000000000000000000000000000000000000000000000000000000000000000000000000000000000000000000000
310
0000000000000000000000000000000000000000000000000000000000000000000000000000000000000000000000000000000000000000000000000000F500000000000000000000C30000000000000000000000000000000000000000000000000000000000000000000000000000000000000000000000000000000000
310
00C300000000000000000000F5000000000000000000000000000000000000000000000000000000000000000000000000000000000000000000000000000000000000000000000000000000000000000000000000000000000000000000000000000000000000000000000000000000000000000000000000000000000000
310
00000000000000000000000000000000000000000000000000000000000000000000000000000000000000000000000000000000000000000000000000000000F500000000000000000000C3000000000000000000000000000000000000000000000000000000000000000000000000000000000000000000000000000000
310
000000C300000000000000000000F500000000000000000000000000000000000000000000000000000000000000000000000000000000000000000000000000000000000000000000000000000000000000000000000000000000000000000000000000000000000000000000000000000000000000000000000000000000
310
000000000000000000000000000000000000000000000000000000000000000000000000000000000000000000000000000000000000000000000000000000000000F500000000000000000000C300000000000000000000000000000000000000000000000000000000000000000000000000000000000000000000000000
310
0000000000C300000000000000000000F50000000000000000000000000000000000000000000000000000000000000000000000000000000000000000000000000000000000000000000000000000000000000000000000000000000000000000000000000000000000000000000000000000000000000000000000000000
310
0000000000000000000000000000000000000000000000000000000000000000000000000000000000000000000000000000000000000000000000000000000000000000F500000000000000000000C30000000000000000000000000000000000000000000000000000000000000000000000000000000000000000000000
310
00000000000000C300000000000000000000F5000000000000000000000000000000000000000000000000000000000000000000000000000000000000000000000000000000000000000000000000000000000000000000000000000000000000000000000000000000000000000000000000000000000000000000000000
310
00000000000000000000000000000000000000000000000000000000000000000000000000000000000000000000000000000000000000000000000000000000000000000000F500000000000000000000C3000000000000000000000000000000000000000000000000000000000000000000000000000000000000000000
310
000000000000000000C300000000000000000000F500000000000000000000000000000000000000000000000000000000000000000000000000000000000000000000000000000000000000000000000000000000000000000000000000000000000000000000000000000000000000000000000000000000000000000000
310
000000000000000000000000000000000000000000000000000000000000000000000000000000000000000000000000000000000000000000000000000000000000000000000000F500000000000000000000C300000000000000000000000000000000000000000000000000000000000000000000000000000000000000
310
0000000000000000000000C300000000000000000000F50000000000000000000000000000000000000000000000000000000000000000000000000000000000000000000000000000000000000000000000000000000000000000000000000000000000000000000000000000000000000000000000000000000000000000
310
0000000000000000000000000000000000000000000000000000000000000000000000000000000000000000000000000000000000000000000000000000000000000000000000000000F500000000000000000000C30000000000000000000000000000000000000000000000000000000000000000000000000000000000
310
00000000000000000000000000C300000000000000000000F5000000000000000000000000000000000000000000000000000000000000000000000000000000000000000000000000000000000000000000000000000000000000000000000000000000000000000000000000000000000000000000000000000000000000
310
00000000000000000000000000000000000000000000000000000000000000000000000000000000000000000000000000000000000000000000000000000000000000000000000000000000F500000000000000000000C3000000000000000000000000000000000000000000000000000000000000000000000000000000
310
000000000000000000000000000000C300000000000000000000F500000000000000000000000000000000000000000000000000000000000000000000000000000000000000000000000000000000000000000000000000000000000000000000000000000000000000000000000000000000000000000000000000000000
310
000000000000000000000000000000000000000000000000000000000000000000000000000000000000000000000000000000000000000000000000000000000000000000000000000000000000F500000000000000000000C300000000000000000000000000000000000000000000000000000000000000000000000000
310
0000000000000000000000000000000000C300000000000000000000F50000000000000000000000000000000000000000000000000000000000000000000000000000000000000000000000000000000000000000000000000000000000000000000000000000000000000000000000000000000000000000000000000000
310
0000000000000000000000000000000000000000000000000000000000000000000000000000000000000000000000000000000000000000000000000000000000000000000000000000000000000000F500000000000000000000C30000000000000000000000000000000000000000000000000000000000000000000000
310
00000000000000000000000000000000000000C300000000000000000000F5000000000000000000000000000000000000000000000000000000000000000000000000000000000000000000000000000000000000000000000000000000000000000000000000000000000000000000000000000000000000000000000000
310
00000000000000000000000000000000000000000000000000000000000000000000000000000000000000000000000000000000000000000000000000000000000000000000000000000000000000000000F500000000000000000000C3000000000000000000000000000000000000000000000000000000000000000000
310
000000000000000000000000000000000000000000C300000000000000000000F500000000000000000000000000000000000000000000000000000000000000000000000000000000000000000000000000000000000000000000000000000000000000000000000000000000000000000000000000000000000000000000
310
000000000000000000000000000000000000000000000000000000000000000000000000000000000000000000000000000000000000000000000000000000000000000000000000000000000000000000000000F500000000000000000000C300000000000000000000000000000000000000000000000000000000000000
310
0000000000000000000000000000000000000000000000C300000000000000000000F50000000000000000000000000000000000000000000000000000000000000000000000000000000000000000000000000000000000000000000000000000000000000000000000000000000000000000000000000000000000000000
310
0000000000000000000000000000000000000000000000000000000000000000000000000000000000000000000000000000000000000000000000000000000000000000000000000000000000000000000000000000F500000000000000000000C30000000000000000000000000000000000000000000000000000000000
310
00000000000000000000000000000000000000000000000000C300000000000000000000F5000000000000000000000000000000000000000000000000000000000000000000000000000000000000000000000000000000000000000000000000000000000000000000000000000000000000000000000000000000000000
310
00000000000000000000000000000000000000000000000000000000000000000000000000000000000000000000000000000000000000000000000000000000000000000000000000000000000000000000000000000000F500000000000000000000C3000000000000000000000000000000000000000000000000000000
310
000000000000000000000000000000000000000000000000000000C300000000000000000000F500000000000000000000000000000000000000000000000000000000000000000000000000000000000000000000000000000000000000000000000000000000000000000000000000000000000000000000000000000000
310
000000000000000000000000000000000000000000000000000000000000000000000000000000000000000000000000000000000000000000000000000000000000000000000000000000000000000000000000000000000000F500000000000000000000C300000000000000000000000000000000000000000000000000
310
0000000000000000000000000000000000000000000000000000000000C300000000000000000000F50000000000000000000000000000000000000000000000000000000000000000000000000000000000000000000000000000000000000000000000000000000000000000000000000000000000000000000000000000
310
0000000000000000000000000000000000000000000000000000000000000000000000000000000000000000000000000000000000000000000000000000000000000000000000000000000000000000000000000000000000000000F500000000000000000000C30000000000000000000000000000000000000000000000
310
00000000000000000000000000000000000000000000000000000000000000C300000000000000000000F5000000000000000000000000000000000000000000000000000000000000000000000000000000000000000000000000000000000000000000000000000000000000000000000000000000000000000000000000
310
00000000000000000000000000000000000000000000000000000000000000000000000000000000000000000000000000000000000000000000000000000000000000000000000000000000000000000000000000000000000000000000F500000000000000000000C3000000000000000000000000000000000000000000
310
000000000000000000000000000000000000000000000000000000000000000000C300000000000000000000F500000000000000000000000000000000000000000000000000000000000000000000000000000000000000000000000000000000000000000000000000000000000000000000000000000000000000000000
310
000000000000000000000000000000000000000000000000000000000000000000000000000000000000000000000000000000000000000000000000000000000000000000000000000000000000000000000000000000000000000000000000F500000000000000000000C300000000000000000000000000000000000000
310
0000000000000000000000000000000000000000000000000000000000000000000000C300000000000000000000F50000000000000000000000000000000000000000000000000000000000000000000000000000000000000000000000000000000000000000000000000000000000000000000000000000000000000000
310
0000000000000000000000000000000000000000000000000000000000000000000000000000000000000000000000000000000000000000000000000000000000000000000000000000000000000000000000000000000000000000000000000000F500000000000000000000C30000000000000000000000000000000000
310
00000000000000000000000000000000000000000000000000000000000000000000000000C300000000000000000000F5000000000000000000000000000000000000000000000000000000000000000000000000000000000000000000000000000000000000000000000000000000000000000000000000000000000000
310
00000000000000000000000000000000000000000000000000000000000000000000000000000000000000000000000000000000000000000000000000000000000000000000000000000000000000000000000000000000000000000000000000000000F500000000000000000000C3000000000000000000000000000000
310
000000000000000000000000000000000000000000000000000000000000000000000000000000C300000000000000000000F500000000000000000000000000000000000000000000000000000000000000000000000000000000000000000000000000000000000000000000000000000000000000000000000000000000
310
000000000000000000000000000000000000000000000000000000000000000000000000000000000000000000000000000000000000000000000000000000000000000000000000000000000000000000000000000000000000000000000000000000000000F500000000000000000000C300000000000000000000000000
310
0000000000000000000000000000000000000000000000000000000000000000000000000000000000C300000000000000000000F50000000000000000000000000000000000000000000000000000000000000000000000000000000000000000000000000000000000000000000000000000000000000000000000000000
310
0000000000000000000000000000000000000000000000000000000000000000000000000000000000000000000000000000000000000000000000000000000000000000000000000000000000000000000000000000000000000000000000000000000000000000F500000000000000000000C30000000000000000000000
310
00000000000000000000000000000000000000000000000000000000000000000000000000000000000000C300000000000000000000F5000000000000000000000000000000000000000000000000000000000000000000000000000000000000000000000000000000000000000000000000000000000000000000000000
310
00000000000000000000000000000000000000000000000000000000000000000000000000000000000000000000000000000000000000000000000000000000000000000000000000000000000000000000000000000000000000000000000000000000000000000000F500000000000000000000C3000000000000000000
310
000000000000000000000000000000000000000000000000000000000000000000000000000000000000000000C300000000000000000000F500000000000000000000000000000000000000000000000000000000000000000000000000000000000000000000000000000000000000000000000000000000000000000000
310
000000000000000000000000000000000000000000000000000000000000000000000000000000000000000000000000000000000000000000000000000000000000000000000000000000000000000000000000000000000000000000000000000000000000000000000000F500000000000000000000C300000000000000
310
0000000000000000000000000000000000000000000000000000000000000000000000000000000000000000000000C300000000000000000000F50000000000000000000000000000000000000000000000000000000000000000000000000000000000000000000000000000000000000000000000000000000000000000
310
0000000000000000000000000000000000000000000000000000000000000000000000000000000000000000000000000000000000000000000000000000000000000000000000000000000000000000000000000000000000000000000000000000000000000000000000000000F500000000000000000000C30000000000
310
00000000000000000000000000000000000000000000000000000000000000000000000000000000000000000000000000C300000000000000000000F5000000000000000000000000000000000000000000000000000000000000000000000000000000000000000000000000000000000000000000000000000000000000
310
00000000000000000000000000000000000000000000000000000000000000000000000000000000000000000000000000000000000000000000000000000000000000000000000000000000000000000000000000000000000000000000000000000000000000000000000000000000F500000000000000000000C3000000
310
000000000000000000000000000000000000000000000000000000000000000000000000000000000000000000000000000000C300000000000000000000F500000000000000000000000000000000000000000000000000000000000000000000000000000000000000000000000000000000000000000000000000000000
310
000000000000000000000000000000000000000000000000000000000000000000000000000000000000000000000000000000000000000000000000000000000000000000000000000000000000000000000000000000000000000000000000000000000000000000000000000000000000F500000000000000000000C300
310
0000000000000000000000000000000000000000000000000000000000000000000000000000000000000000000000000000000000C300000000000000000000F50000000000000000000000000000000000000000000000000000000000000000000000000000000000000000000000000000000000000000000000000000
310
0000000000000000000000000000000000000000000000000000000000000000000000000000000000000000000000000000000000000000000000000000000000000000000000000000000000000000000000000000000000000000000000000000000000000000000000000000000000000000F500000000000000000000
310
C3000000000000000000000000000000000000000000000000000000000000000000000000000000000000000000000000000000000000C300000000000000000000F5000000000000000000000000000000000000000000000000000000000000000000000000000000000000000000000000000000000000000000000000
310
00000000000000000000000000000000000000000000000000000000000000000000000000000000000000000000000000000000000000000000000000000000000000000000000000000000000000000000000000000000000000000000000000000000000000000000000000000000000000000000F50000000000000000
310
0000C3000000000000000000000000000000000000000000000000000000000000000000000000000000000000000000000000000000000000C300000000000000000000F500000000000000000000000000000000000000000000000000000000000000000000000000000000000000000000000000000000000000000000
310
000000000000000000000000000000000000000000000000000000000000000000000000000000000000000000000000000000000000000000000000000000000000000000000000000000000000000000000000000000000000000000000000000000000000000000000000000000000000000000000000F5000000000000
310
00000000C3000000000000000000000000000000000000000000000000000000000000000000000000000000000000000000000000000000000000C300000000000000000000F50000000000000000000000000000000000000000000000000000000000000000000000000000000000000000000000000000000000000000
310
0000000000000000000000000000000000000000000000000000000000000000000000000000000000000000000000000000000000000000000000000000000000000000000000000000000000000000000000000000000000000000000000000000000000000000000000000000000000000000000000000000F500000000
310
000000000000C3000000000000000000000000000000000000000000000000000000000000000000000000000000000000000000000000000000000000C300000000000000000000F5000000000000000000000000000000000000000000000000000000000000000000000000000000000000000000000000000000000000
310
00000000000000000000000000000000000000000000000000000000000000000000000000000000000000000000000000000000000000000000000000000000000000000000000000000000000000000000000000000000000000000000000000000000000000000000000000000000000000000000000000000000F50000
310
0000000000000000C3000000000000000000000000000000000000000000000000000000000000000000000000000000000000000000000000000000000000C300000000000000000000F500000000000000000000000000000000000000000000000000000000000000000000000000000000000000000000000000000000
310
000000000000000000000000000000000000000000000000000000000000000000000000000000000000000000000000000000000000000000000000000000000000000000000000000000000000000000000000000000000000000000000000000000000000000000000000000000000000000000000000000000000000F5
310
00000000000000000000C3000000000000000000000000000000000000000000000000000000000000000000000000000000000000000000000000000000000000C300000000000000000000F50000000000000000000000000000000000000000000000000000000000000000000000000000000000000000000000000000
310
00000000000000000000000000000000000000000000000000000000000000000000000000000000000000000000000000000000000000000000000000000000000000000000000000000000000000000000000000000000000000000000000000000000000000000000000000000000000000000000000000000000000000
310
00F500000000000000000000C3000000000000000000000000000000000000000000000000000000000000000000000000000000000000000000000000000000000000C300000000000000000000F5000000000000000000000000000000000000000000000000000000000000000000000000000000000000000000000000
310
00000000000000000000000000000000000000000000000000000000000000000000000000000000000000000000000000000000000000000000000000000000000000000000000000000000000000000000000000000000000000000000000000000000000000000000000000000000000000000000000000000000000000
310
000000F500000000000000000000C3000000000000000000000000000000000000000000000000000000000000000000000000000000000000000000000000000000000000C300000000000000000000F500000000000000000000000000000000000000000000000000000000000000000000000000000000000000000000
310
00000000000000000000000000000000000000000000000000000000000000000000000000000000000000000000000000000000000000000000000000000000000000000000000000000000000000000000000000000000000000000000000000000000000000000000000000000000000000000000000000000000000000
310
0000000000F500000000000000000000C3000000000000000000000000000000000000000000000000000000000000000000000000000000000000000000000000000000000000C300000000000000000000F50000000000000000000000000000000000000000000000000000000000000000000000000000000000000000
310
00000000000000000000000000000000000000000000000000000000000000000000000000000000000000000000000000000000000000000000000000000000000000000000000000000000000000000000000000000000000000000000000000000000000000000000000000000000000000000000000000000000000000
310
00000000000000F500000000000000000000C3000000000000000000000000000000000000000000000000000000000000000000000000000000000000000000000000000000000000C300000000000000000000F5000000000000000000000000000000000000000000000000000000000000000000000000000000000000
310
00000000000000000000000000000000000000000000000000000000000000000000000000000000000000000000000000000000000000000000000000000000000000000000000000000000000000000000000000000000000000000000000000000000000000000000000000000000000000000000000000000000000000
310
000000000000000000F500000000000000000000C3000000000000000000000000000000000000000000000000000000000000000000000000000000000000000000000000000000000000C300000000000000000000F500000000000000000000000000000000000000000000000000000000000000000000000000000000
310
00000000000000000000000000000000000000000000000000000000000000000000000000000000000000000000000000000000000000000000000000000000000000000000000000000000000000000000000000000000000000000000000000000000000000000000000000000000000000000000000000000000000000
310
0000000000000000000000F500000000000000000000C3000000000000000000000000000000000000000000000000000000000000000000000000000000000000000000000000000000000000C300000000000000000000F50000000000000000000000000000000000000000000000000000000000000000000000000000
310
00000000000000000000000000000000000000000000000000000000000000000000000000000000000000000000000000000000000000000000000000000000000000000000000000000000000000000000000000000000000000000000000000000000000000000000000000000000000000000000000000000000000000
310
00000000000000000000000000F500000000000000000000C3000000000000000000000000000000000000000000000000000000000000000000000000000000000000000000000000000000000000C300000000000000000000F5000000000000000000000000000000000000000000000000000000000000000000000000
310
00000000000000000000000000000000000000000000000000000000000000000000000000000000000000000000000000000000000000000000000000000000000000000000000000000000000000000000000000000000000000000000000000000000000000000000000000000000000000000000000000000000000000
310
000000000000000000000000000000F500000000000000000000C3000000000000000000000000000000000000000000000000000000000000000000000000000000000000000000000000000000000000C300000000000000000000F500000000000000000000000000000000000000000000000000000000000000000000
310
00000000000000000000000000000000000000000000000000000000000000000000000000000000000000000000000000000000000000000000000000000000000000000000000000000000000000000000000000000000000000000000000000000000000000000000000000000000000000000000000000000000000000
310
0000000000000000000000000000000000F500000000000000000000C3000000000000000000000000000000000000000000000000000000000000000000000000000000000000000000000000000000000000C300000000000000000000F50000000000000000000000000000000000000000000000000000000000000000
310
00000000000000000000000000000000000000000000000000000000000000000000000000000000000000000000000000000000000000000000000000000000000000000000000000000000000000000000000000000000000000000000000000000000000000000000000000000000000000000000000000000000000000
310
00000000000000000000000000000000000000F500000000000000000000C300000000000000000000000000000000000000000000000000000000000000000000002D000000000000000000000000000000000000C300000000000000000000F5000000000000000000000000000000000000000000000000000000000000
310
00000000000000000000000000000000000000000000000000000000000000000000000000000000000000000000000000000000000000000000000000000000000000000000000000000000000000000000000000000000000000000000000000000000000000000000000000000000000000000000000000000000000000
310
000000000000000000000000000000000000000000F500000000000000000000C300000000000000000000000000000000000000000000000000C3C3C3C3C3C3C3C3C3C32DC3C3C3C3C3C3C3C3C3000000000000000000C300000000000000000000F500000000000000000000000000000000000000000000000000000000
310
00000000000000000000000000000000000000000000000000000000000000000000000000000000000000000000000000000000000000000000000000000000000000000000000000000000000000000000000000000000000000000000000000000000000000000000000000000000000000000000000000000000000000
310
0000000000000000000000000000000000000000000000F500000000000000000000C300000000000000000000000000000000000000000000000000C3002D000000000000002D0000000000002DC3C3000000000000000000C300000000000000000000F50000000000000000000000000000000000000000000000000000
310
00000000000000000000000000000000000000000000000000000000000000000000000000000000000000000000000000000000000000000000000000000000000000000000000000000000000000000000000000000000000000000000000000000000000000000000000000000000000000000000000000000000000000
310
00000000000000000000000000000000000000000000000000F500000000000000000000C300000000000000000000000000000000000000000000000000C3C3C3C30000000000002D0000000000C3C3C3C3000000000000000000C300000000000000000000F5000000000000000000000000000000000000000000000000
310
00000000000000000000000000000000000000000000000000000000000000000000000000000000000000000000000000000000000000000000000000000000000000000000000000000000000000000000000000000000000000000000000000000000000000000000000000000000000000000000000000000000000000
310
000000000000000000000000000000000000000000000000000000F500000000000000000000C300000000000000000000000000000000000000000000000000C3C3C3C30000000000002D0000000000C3C3C3C3000000000000000000C300000000000000000000F500000000000000000000000000000000000000000000
310
00000000000000000000000000000000000000000000000000000000000000000000000000000000000000000000000000000000000000000000000000000000000000000000000000000000000000000000000000000000000000000000000000000000000000000000000000000000000000000000000000000000000000
310
0000000000000000000000000000000000000000000000000000000000F500000000000000000000C300000000000000000000000000000000000000000000000000C3002D000000000000002D0000000000002D00C3000000000000000000C300000000000000000000F50000000000000000000000000000000000000000
310
00000000000000000000000000000000000000000000000000000000000000000000000000000000000000000000000000000000000000000000000000000000000000000000000000000000000000000000000000000000000000000000000000000000000000000000000000000000000000000000000000000000000000
310
00000000000000000000000000000000000000000000000000000000000000F500000000000000000000C30000000000000000000000000000000000000000000000000000C3C3C3C3C3C3C3C3C32DC3C3C3C3C3C3C3C3C3000000000000000000C300000000000000000000F5000000000000000000000000000000000000
310
00000000000000000000000000000000000000000000000000000000000000000000000000000000000000000000000000000000000000000000000000000000000000000000000000000000000000000000000000000000000000000000000000000000000000000000000000000000000000000000000000000000000000
310
000000000000000000000000000000000000000000000000000000000000000000F500000000000000000000C3000000000000000000000000000000000000000000000000000000000000000000000000000000000000000000000000000000000000C300000000000000000000F500000000000000000000000000000000
310
00000000000000000000000000000000000000000000000000000000000000000000000000000000000000000000000000000000000000000000000000000000000000000000000000000000000000000000000000000000000000000000000000000000000000000000000000000000000000000000000000000000000000
310
0000000000000000000000000000000000000000000000000000000000000000000000F500000000000000000000C3000000000000000000000000000000000000000000000000000000000000000000000000000000000000000000000000000000000000C300000000000000000000F50000000000000000000000000000
310
00000000000000000000000000000000000000000000000000000000000000000000000000000000000000000000000000000000000000000000000000000000000000000000000000000000000000000000000000000000000000000000000000000000000000000000000000000000000000000000000000000000000000
310
00000000000000000000000000000000000000000000000000000000000000000000000000F500000000000000000000C3000000000000000000000000000000000000000000000000000000000000000000000000000000000000000000000000000000000000C300000000000000000000F5000000000000000000000000
310
00000000000000000000000000000000000000000000000000000000000000000000000000000000000000000000000000000000000000000000000000000000000000000000000000000000000000000000000000000000000000000000000000000000000000000000000000000000000000000000000000000000000000
310
000000000000000000000000000000000000000000000000000000000000000000000000000000F500000000000000000000C3000000000000000000000000000000000000000000000000000000000000000000000000000000000000000000000000000000000000C300000000000000000000F500000000000000000000
310
00000000000000000000000000000000000000000000000000000000000000000000000000000000000000000000000000000000000000000000000000000000000000000000000000000000000000000000000000000000000000000000000000000000000000000000000000000000000000000000000000000000000000
310
0000000000000000000000000000000000000000000000000000000000000000000000000000000000F500000000000000000000C3000000000000000000000000000000000000000000000000000000000000000000000000000000000000000000000000000000000000C300000000000000000000F50000000000000000
310
00000000000000000000000000000000000000000000000000000000000000000000000000000000000000000000000000000000000000000000000000000000000000000000000000000000000000000000000000000000000000000000000000000000000000000000000000000000000000000000000000000000000000
310
00000000000000000000000000000000000000000000000000000000000000000000000000000000000000F500000000000000000000C3000000000000000000000000000000000000000000000000000000000000000000000000000000000000000000000000000000000000C300000000000000000000F5000000000000
310
00000000000000000000000000000000000000000000000000000000000000000000000000000000000000000000000000000000000000000000000000000000000000000000000000000000000000000000000000000000000000000000000000000000000000000000000000000000000000000000000000000000000000
310
000000000000000000000000000000000000000000000000000000000000000000000000000000000000000000F500000000000000000000C3000000000000000000000000000000000000000000000000000000000000000000000000000000000000000000000000000000000000C300000000000000000000F500000000
310
00000000000000000000000000000000000000000000000000000000000000000000000000000000000000000000000000000000000000000000000000000000000000000000000000000000000000000000000000000000000000000000000000000000000000000000000000000000000000000000000000000000000000
310
0000000000000000000000000000000000000000000000000000000000000000000000000000000000000000000000F500000000000000000000C300000000000000000000000000000000000000000000000000002D000000000000000000000000000000000000000000000000000000C300000000000000000000F50000
310
00000000000000000000000000000000000000000000000000000000000000000000000000000000000000000000000000000000000000000000000000000000000000000000000000000000000000000000000000000000000000000000000000000000000000000000000000000000000000000000000000000000000000
310
00000000000000000000000000000000000000000000000000000000000000000000000000000000000000000000000000F500000000000000000000C300000000000000000000000000000000000000000000000000002D000000000000000000000000000000000000000000000000000000C300000000000000000000F5
310
00000000000000000000000000000000000000000000000000000000000000000000000000000000000000000000000000000000000000000000000000000000000000000000000000000000000000000000000000000000000000000000000000000000000000000000000000000000000000000000000000000000000000
310
000000000000000000000000000000000000000000000000000000000000000000000000000000000000000000000000000000F500000000000000000000C300000000000000000000000000000000000000000000000000002D000000000000000000000000000000000000000000000000000000C3000000000000000000
310
00F50000000000000000000000000000000000000000000000000000000000000000000000000000000000000000000000000000000000000000000000000000000000000000000000000000000000000000000000000000000000000000000000000000000000000000000000000000000000000000000000000000000000
310
0000000000000000000000000000000000000000000000000000000000000000000000000000000000000000000000000000000000F50000000000000000000000C3C3C3C3C3C3C3C3C3C3C3C3C3C3C3C3C3C3C3C3C3C3C3C3C3C32DC300C3C3C3C3C3C3C3C3C3C3C3C3C3C3C3C3C3C3C3C3C3C3C3C3C30000000000000000
310
000000F5000000000000000000000000000000000000000000000000000000000000000000000000000000000000000000000000000000000000000000000000000000000000000000000000000000000000000000000000000000000000000000000000000000000000000000000000000000000000000000000000000000
310
00000000000000000000000000000000000000000000000000000000000000000000000000000000000000000000000000000000000000F50000000000000000000000000000000000000000000000000000000000000000000000C3002D000000C30000000000C30000000000000000000000000000000000000000000000
310
0000000000F500000000000000000000000000000000000000000000000000000000000000000000000000000000000000000000000000000000000000000000000000000000000000000000000000000000000000000000000000000000000000000000000000000000000000000000000000000000000000000000000000
310
000000000000000000000000000000000000000000000000000000000000000000000000000000000000000000000000000000000000000000F5000000000000000000000000000000000000000000000000000000000000000000C3C3C3002D000000C30000000000C3000000000000000000000000000000000000000000
310
00000000000000F50000000000000000000000000000000000000000000000000000000000000000000000000000000000000000000000000000000000000000000000000000000000000000000000000000000000000000000000000000000000000000000000000000000000000000000000000000000000000000000000
310
0000000000000000000000000000000000000000000000000000000000000000000000000000000000000000000000000000000000000000000000F5000000000000000000000000000000000000000000000000000000000000000000C30000002D000000C300000000C3C300000000000000000000000000000000000000
310
000000000000000000F5000000000000000000000000000000000000000000000000000000000000000000000000000000000000000000000000000000000000000000000000000000000000000000000000000000000000000000000000000000000000000000000000000000000000000000000000000000000000000000
310
00000000000000000000000000000000000000000000000000000000000000000000000000000000000000000000000000000000000000000000000000F500000000000000000000000000000000002D000000000000000000000000000000C3C3C3C32DC3C3C3C3C3C3C3C3C3000000000000000000000000000000000000
310
0000000000000000000000F500000000000000000000000000000000000000000000000000000000000000000000000000000000000000000000000000000000000000000000000000000000000000000000000000000000000000000000000000000000000000000000000000000000000000000000000000000000000000
310
000000000000000000000000000000000000000000000000000000000000000000000000000000000000000000000000000000000000000000000000000000F5000000000000000000000000000000C3C3C3C3C300C3C300000000000000000000C300C3C32DC3C3C3C3C30000C3C300000000000000000000000000000000
310
00000000000000000000000000F50000000000000000000000000000000000000000000000000000000000000000000000000000000000000000000000000000000000000000000000000000000000000000000000000000000000000000000000000000000000000000000000000000000000000000000000000000000000
310
0000000000000000000000000000000000000000000000000000000000000000000000000000000000000000000000000000000000000000000000000000000000F5000000000000000000000000000000C300C3C3C3C3C3C300000000000000000000C30000C32DC3C3C300000000C3C30000000000000000000000000000
310
000000000000000000000000000000F5000000000000000000000000000000000000000000000000000000000000000000000000000000000000000000000000000000000000000000000000000000000000000000000000000000000000000000000000000000000000000000000000000000000000000000000000000000
310
00000000000000000000000000000000000000000000000000000000000000000000000000000000000000000000000000000000000000000000000000000000000000F5000000000000000000000000002D2DC32D2D2DC32D2D2D2D000000000000000000C30000C32DC3C3C3C3C3C3C300C3000000000000000000000000
310
0000000000000000000000000000000000F500000000000000000000000000000000000000000000000000000000000000000000000000000000000000000000000000000000000000000000000000000000000000000000000000000000000000000000000000000000000000000000000000000000000000000000000000
310
000000000000000000000000000000000000000000000000000000000000000000000000000000000000000000000000000000000000000000000000000000000000000000F50000000000000000000000000000C3C300C300C3C300C300000000000000000000C3C3C3C32DC3C3C300C300C3C3C300000000000000000000
310
00000000000000000000000000000000000000F50000000000000000000000000000000000000000000000000000000000000000000000000000000000000000000000000000000000000000000000000000000000000000000000000000000000000000000000000000000000000000000000000000000000000000000000
310
0000000000000000000000000000000000000000000000000000000000000000000000000000000000000000000000000000000000000000000000000000000000000000000000F5000000000000000000000000000000C3C3C3C3C3C3C3C300000000000000000000C30000002D0000C300C3C3C300000000000000000000
310
000000000000000000000000000000000000000000F5000000000000000000000000000000000000000000000000000000000000000000000000000000000000000000000000000000000000000000000000000000000000000000000000000000000000000000000000000000000000000000000000000000000000000000
310
00000000000000000000000000000000000000000000000000000000000000000000000000000000000000000000000000000000000000000000000000000000000000000000000000F500000000000000000000000000000000C3C3C30000000000000000000000000000C30000002DC3C3C3C3C300000000000000000000
310
0000000000000000000000000000000000000000000000F500000000000000000000000000000000000000000000000000000000000000000000000000000000000000000000000000000000000000000000000000000000000000000000000000000000000000000000000000000000000000000000000000000000000000
310
000000000000000000000000000000000000000000000000000000000000000000000000000000000000000000000000000000000000000000000000000000000000000000000000000000F500000000000000000000000000000000002D000000000000000000000000000000C30000002D00000000C30000000000000000
310
00000000000000000000000000000000000000000000000000F50000000000000000000000000000000000000000000000000000000000000000000000000000000000000000000000000000000000000000000000000000000000000000000000000000000000000000000000000000000000000000000000000000000000
310
0000000000000000000000000000000000000000000000000000000000000000000000000000000000000000000000000000000000000000000000000000000000000000000000000000000000F5000000000000000000000000000000000000000000000000000000000000000000C30000002D00000000C3000000000000
310
000000000000000000000000000000000000000000000000000000F5000000000000000000000000000000000000000000000000000000000000000000000000000000000000000000000000000000000000000000000000000000000000000000000000000000000000000000000000000000000000000000000000000000
310
00000000000000000000000000000000000000000000000000000000000000000000000000000000000000000000000000000000000000000000000000000000000000000000000000000000000000F5000000000000000000000000000000000000000000000000000000000000000000C30000002D00000000C300000000
310
0000000000000000000000000000000000000000000000000000000000F500000000000000000000000000000000000000000000000000000000000000000000000000000000000000000000000000000000000000000000000000000000000000000000000000000000000000000000000000000000000000000000000000
310
000000000000000000000000000000000000000000000000000000000000000000000000000000000000000000000000000000000000000000000000000000000000000000000000000000000000000000F5000000000000000000000000000000000000000000000000000000000000000000C3C3C3C32DC3C3C3C3C30000
310
00000000000000000000000000000000000000000000000000000000000000F50000000000000000000000000000000000000000000000000000000000000000000000000000000000000000000000000000000000000000000000000000000000000000000000000000000000000000000000000000000000000000000000
310
0000000000000000000000000000000000000000000000000000000000000000000000000000000000000000000000000000000000000000000000000000000000000000000000000000000000000000000000F500000000000000000000000000000000000000000000000000000000000000C3C3C30000002D00000000C3
310
C3C300000000000000000000000000000000000000000000000000000000000000F5000000000000000000000000000000000000000000000000000000000000000000000000000000000000000000000000000000000000000000000000000000000000000000000000000000000000000000000000000000000000000000
310
00000000000000000000000000000000000000000000000000000000000000000000000000000000000000000000000000000000000000000000000000000000000000000000000000000000000000000000000000F500000000000000000000000000000000000000000000000000000000000000C300000000002D000000
310
000000C300000000000000000000000000000000000000000000000000000000000000F500000000000000000000000000000000000000000000000000000000000000000000000000000000000000000000000000000000000000000000000000000000000000000000000000000000000000000000000000000000000000
310
000000000000000000000000000000000000000000000000000000000000000000000000000000000000000000000000000000000000000000000000000000000000000000000000000000000000000000000000000000F500000000000000000000000000000000000000000000000000000000000000C300000000002D00
310
0000000000C300000000000000000000000000000000000000000000000000000000000000F50000000000000000000000000000000000000000000000000000000000000000000000000000000000000000000000000000000000000000000000000000000000000000000000000000000000000000000000000000000000
310
0000000000000000000000000000000000000000000000000000000000000000000000000000000000000000000000000000000000000000000000000000000000000000000000000000000000000000000000000000000000F500000000000000000000000000000000000000000000000000000000000000C3C3C3C3C3C3
310
2DC3C3C3C3C3C3C300000000000000000000000000000000000000000000000000000000000000F5000000000000000000000000000000000000000000000000000000000000000000000000000000000000000000000000000000000000000000000000000000000000000000000000000000000000000000000000000000
310
00000000000000000000000000000000000000000000000000000000000000000000000000000000000000000000000000000000000000000000000000000000000000000000000000000000000000000000000000000000000000F500000000000000000000000000000000000000000000000000000000000000000000C3
310
00002D000000C300000000000000000000000000000000000000000000000000000000000000000000F500000000000000000000000000000000000000000000000000000000000000000000000000000000000000000000000000000000000000000000000000000000000000000000000000000000000000000000000000
310
00000000000000000000000000000000000000000000000000000000000000000000000000000000000000000000000000000000000000000000000000000000000000000000000000000000000000000000000000000000000000000000F50000000000000000000000000000000000000000000000000000000000000000
310
00C300002D000000C3000000000000000000000000000000000000000000000000000000000000000000F5000000000000000000000000000000000000000000000000000000000000000000000000000000000000000000000000000000000000000000000000000000000000000000000000000000000000000000000000
310
00000000000000000000000000000000000000000000000000000000000000000000000000000000000000000000000000000000000000000000000000000000000000000000000000000000000000000000000000000000000000000000000000F5F5F5F5F5F5F5F5F5F5F5F5F5F5F5F5F5F5F5F5F5F5F5F5F5F5F5F5F5F5
310
F5F5F5F5F5F5F5F5F5F5F5F5F5F5F5F5F5F5F5F5F5F5F5F5F5F5F5F5F5F5F5F5F5F5F5F5F5F5F5F5F5F5F5F50000000000000000000000000000000000000000000000000000000000000000000000000000000000000000000000000000000000000000000000000000000000000000000000000000000000000000000000
310
00000000000000000000000000000000000000000000000000000000000000000000000000000000000000000000000000000000000000000000000000000000000000000000000000000000000000000000000000000000000000000000000000000000000000000000000000000000000000000000000000000000000000
310
00000000F5F5F5F5F5F5F5F5F5F50000000000000000000000000000000000000000000000000000000000000000000000000000000000000000000000000000000000000000000000000000000000000000000000000000000000000000000000000000000000000000000000000000000000000000000000000000000000
310
00000000000000000000000000000000000000000000000000000000000000000000000000000000000000000000000000000000000000000000000000000000000000000000000000000000000000000000000000000000000000000000000000000000000000000000000000000000000000000000000000000000000000
310
00000000000000000000F5F5F5000000000000000000000000000000000000000000000000000000000000000000000000000000000000000000000000000000000000000000000000000000000000000000000000000000000000000000000000000000000000000000000000000000000000000000000000000000000000
310
00000000000000000000000000000000000000000000000000000000000000000000000000000000000000000000000000000000000000000000000000000000000000000000000000000000000000000000000000000000000000000000000000000000000000000000000000000000000000000000000000000000000000
310
0000000000000000000000002D000000000000000000000000000000000000000000000000000000000000000000000000000000000000000000000000000000000000000000000000000000000000000000000000000000000000000000000000000000000000000000000000000000000000000000000000000000000000
310
0000000000000000000000000000
  0
XRECORD
  5
3B55
102
{ACAD_REACTORS
330
24FF
102
}
330
24FF
100
AcDbXrecord
280
     1
102
MATERIAL
148
0.0
149
0.0
149
0.0
 93
        0
 94
      127
282
     0
 72
     0
 77
     0
171
     0
175
     0
179
     0
273
     0
  0
XRECORD
  5
2501
102
{ACAD_REACTORS
330
24FF
102
}
330
24FF
100
AcDbXrecord
280
     1
270
     1
271
     1
  0
XRECORD
  5
2500
102
{ACAD_REACTORS
330
24FF
102
}
330
24FF
100
AcDbXrecord
280
     1
270
     1
271
     1
  0
XRECORD
  5
2504
102
{ACAD_REACTORS
330
24FF
102
}
330
24FF
100
AcDbXrecord
280
     1
270
     1
271
     1
  0
XRECORD
  5
2503
102
{ACAD_REACTORS
330
24FF
102
}
330
24FF
100
AcDbXrecord
280
     1
270
     1
271
     1
  0
XRECORD
  5
2505
102
{ACAD_REACTORS
330
24FF
102
}
330
24FF
100
AcDbXrecord
280
     1
270
     1
271
     1
  0
XRECORD
  5
2502
102
{ACAD_REACTORS
330
24FF
102
}
330
24FF
100
AcDbXrecord
280
     1
270
     1
271
     1
  0
XRECORD
  5
3B54
102
{ACAD_REACTORS
330
24F7
102
}
330
24F7
100
AcDbXrecord
280
     1
102
MATERIAL
148
0.0
149
0.0
149
0.0
 93
        0
 94
      127
282
     0
 72
     0
 77
     0
171
     0
175
     0
179
     0
273
     0
  0
XRECORD
  5
24F9
102
{ACAD_REACTORS
330
24F7
102
}
330
24F7
100
AcDbXrecord
280
     1
270
     1
271
     1
  0
XRECORD
  5
24F8
102
{ACAD_REACTORS
330
24F7
102
}
330
24F7
100
AcDbXrecord
280
     1
270
     1
271
     1
  0
XRECORD
  5
24FC
102
{ACAD_REACTORS
330
24F7
102
}
330
24F7
100
AcDbXrecord
280
     1
270
     1
271
     1
  0
XRECORD
  5
24FB
102
{ACAD_REACTORS
330
24F7
102
}
330
24F7
100
AcDbXrecord
280
     1
270
     1
271
     1
  0
XRECORD
  5
24FD
102
{ACAD_REACTORS
330
24F7
102
}
330
24F7
100
AcDbXrecord
280
     1
270
     1
271
     1
  0
XRECORD
  5
24FA
102
{ACAD_REACTORS
330
24F7
102
}
330
24F7
100
AcDbXrecord
280
     1
270
     1
271
     1
  0
XRECORD
  5
3B56
102
{ACAD_REACTORS
330
2507
102
}
330
2507
100
AcDbXrecord
280
     1
102
MATERIAL
148
0.0
149
0.0
149
0.0
 93
        0
 94
      127
282
     0
 72
     0
 77
     0
171
     0
175
     0
179
     0
273
     0
  0
XRECORD
  5
2509
102
{ACAD_REACTORS
330
2507
102
}
330
2507
100
AcDbXrecord
280
     1
270
     1
271
     1
  0
XRECORD
  5
2508
102
{ACAD_REACTORS
330
2507
102
}
330
2507
100
AcDbXrecord
280
     1
270
     1
271
     1
  0
XRECORD
  5
250C
102
{ACAD_REACTORS
330
2507
102
}
330
2507
100
AcDbXrecord
280
     1
270
     1
271
     1
  0
XRECORD
  5
250B
102
{ACAD_REACTORS
330
2507
102
}
330
2507
100
AcDbXrecord
280
     1
270
     1
271
     1
  0
XRECORD
  5
250D
102
{ACAD_REACTORS
330
2507
102
}
330
2507
100
AcDbXrecord
280
     1
270
     1
271
     1
  0
XRECORD
  5
250A
102
{ACAD_REACTORS
330
2507
102
}
330
2507
100
AcDbXrecord
280
     1
270
     1
271
     1
  0
CELLSTYLEMAP
  5
3B4C
102
{ACAD_REACTORS
330
25A3
102
}
330
25A3
100
AcDbCellStyleMap
 90
        3
300
CELLSTYLE
  1
TABLEFORMAT_BEGIN
 90
        5
170
     1
 91
        0
 92
    32768
 62
   257
 93
        1
300
CONTENTFORMAT
  1
CONTENTFORMAT_BEGIN
 90
        0
 91
        0
 92
      512
 93
        0
300

 40
0.0
140
1.0
 94
        5
 62
     0
340
11
144
6.0
309
CONTENTFORMAT_END
171
     1
301
MARGIN
  1
CELLMARGIN_BEGIN
 40
1.5
 40
1.5
 40
1.5
 40
1.5
 40
4.5
 40
4.5
309
CELLMARGIN_END
 94
        6
 95
        1
302
GRIDFORMAT
  1
GRIDFORMAT_BEGIN
 90
        0
 91
        1
 62
     0
 92
       -2
340
0
 93
        0
 40
1.125
309
GRIDFORMAT_END
 95
        2
302
GRIDFORMAT
  1
GRIDFORMAT_BEGIN
 90
        0
 91
        1
 62
     0
 92
       -2
340
0
 93
        0
 40
1.125
309
GRIDFORMAT_END
 95
        4
302
GRIDFORMAT
  1
GRIDFORMAT_BEGIN
 90
        0
 91
        1
 62
     0
 92
       -2
340
0
 93
        0
 40
1.125
309
GRIDFORMAT_END
 95
        8
302
GRIDFORMAT
  1
GRIDFORMAT_BEGIN
 90
        0
 91
        1
 62
     0
 92
       -2
340
0
 93
        0
 40
1.125
309
GRIDFORMAT_END
 95
       16
302
GRIDFORMAT
  1
GRIDFORMAT_BEGIN
 90
        0
 91
        1
 62
     0
 92
       -2
340
0
 93
        0
 40
1.125
309
GRIDFORMAT_END
 95
       32
302
GRIDFORMAT
  1
GRIDFORMAT_BEGIN
 90
        0
 91
        1
 62
     0
 92
       -2
340
0
 93
        0
 40
1.125
309
GRIDFORMAT_END
309
TABLEFORMAT_END
  1
CELLSTYLE_BEGIN
 90
        1
 91
        1
300
_TITLE
309
CELLSTYLE_END
300
CELLSTYLE
  1
TABLEFORMAT_BEGIN
 90
        5
170
     1
 91
        0
 92
        0
 62
   257
 93
        1
300
CONTENTFORMAT
  1
CONTENTFORMAT_BEGIN
 90
        0
 91
        0
 92
      512
 93
        0
300

 40
0.0
140
1.0
 94
        5
 62
     0
340
11
144
4.5
309
CONTENTFORMAT_END
171
     1
301
MARGIN
  1
CELLMARGIN_BEGIN
 40
1.5
 40
1.5
 40
1.5
 40
1.5
 40
4.5
 40
4.5
309
CELLMARGIN_END
 94
        6
 95
        1
302
GRIDFORMAT
  1
GRIDFORMAT_BEGIN
 90
        0
 91
        1
 62
     0
 92
       -2
340
0
 93
        0
 40
1.125
309
GRIDFORMAT_END
 95
        2
302
GRIDFORMAT
  1
GRIDFORMAT_BEGIN
 90
        0
 91
        1
 62
     0
 92
       -2
340
0
 93
        0
 40
1.125
309
GRIDFORMAT_END
 95
        4
302
GRIDFORMAT
  1
GRIDFORMAT_BEGIN
 90
        0
 91
        1
 62
     0
 92
       -2
340
0
 93
        0
 40
1.125
309
GRIDFORMAT_END
 95
        8
302
GRIDFORMAT
  1
GRIDFORMAT_BEGIN
 90
        0
 91
        1
 62
     0
 92
       -2
340
0
 93
        0
 40
1.125
309
GRIDFORMAT_END
 95
       16
302
GRIDFORMAT
  1
GRIDFORMAT_BEGIN
 90
        0
 91
        1
 62
     0
 92
       -2
340
0
 93
        0
 40
1.125
309
GRIDFORMAT_END
 95
       32
302
GRIDFORMAT
  1
GRIDFORMAT_BEGIN
 90
        0
 91
        1
 62
     0
 92
       -2
340
0
 93
        0
 40
1.125
309
GRIDFORMAT_END
309
TABLEFORMAT_END
  1
CELLSTYLE_BEGIN
 90
        2
 91
        1
300
_HEADER
309
CELLSTYLE_END
300
CELLSTYLE
  1
TABLEFORMAT_BEGIN
 90
        5
170
     1
 91
        0
 92
        0
 62
   257
 93
        1
300
CONTENTFORMAT
  1
CONTENTFORMAT_BEGIN
 90
        0
 91
        0
 92
      512
 93
        0
300

 40
0.0
140
1.0
 94
        2
 62
     0
340
11
144
4.5
309
CONTENTFORMAT_END
171
     1
301
MARGIN
  1
CELLMARGIN_BEGIN
 40
1.5
 40
1.5
 40
1.5
 40
1.5
 40
4.5
 40
4.5
309
CELLMARGIN_END
 94
        6
 95
        1
302
GRIDFORMAT
  1
GRIDFORMAT_BEGIN
 90
        0
 91
        1
 62
     0
 92
       -2
340
0
 93
        0
 40
1.125
309
GRIDFORMAT_END
 95
        2
302
GRIDFORMAT
  1
GRIDFORMAT_BEGIN
 90
        0
 91
        1
 62
     0
 92
       -2
340
0
 93
        0
 40
1.125
309
GRIDFORMAT_END
 95
        4
302
GRIDFORMAT
  1
GRIDFORMAT_BEGIN
 90
        0
 91
        1
 62
     0
 92
       -2
340
0
 93
        0
 40
1.125
309
GRIDFORMAT_END
 95
        8
302
GRIDFORMAT
  1
GRIDFORMAT_BEGIN
 90
        0
 91
        1
 62
     0
 92
       -2
340
0
 93
        0
 40
1.125
309
GRIDFORMAT_END
 95
       16
302
GRIDFORMAT
  1
GRIDFORMAT_BEGIN
 90
        0
 91
        1
 62
     0
 92
       -2
340
0
 93
        0
 40
1.125
309
GRIDFORMAT_END
 95
       32
302
GRIDFORMAT
  1
GRIDFORMAT_BEGIN
 90
        0
 91
        1
 62
     0
 92
       -2
340
0
 93
        0
 40
1.125
309
GRIDFORMAT_END
309
TABLEFORMAT_END
  1
CELLSTYLE_BEGIN
 90
        3
 91
        2
300
_DATA
309
CELLSTYLE_END
  0
XRECORD
  5
3B77
102
{ACAD_REACTORS
330
25A3
102
}
330
25A3
100
AcDbXrecord
280
     1
102
ACAD_ROUNDTRIP_PRE2007_TABLESTYLE
 90
      512
 91
        0
  1

 92
      512
 93
        0
  2

 94
      512
 95
        0
  3

  0
XRECORD
  5
3B62
102
{ACAD_REACTORS
330
3B61
102
}
330
3B61
100
AcDbXrecord
280
     1
102
RTVSPropertyOp0
 70
     1
102
RTVSPropertyOp1
 70
     1
102
RTVSPropertyOp2
 70
     1
102
RTVSPropertyOp3
 70
     1
102
RTVSPropertyOp4
 70
     1
102
RTVSPropertyOp5
 70
     1
102
RTVSPropertyOp6
 70
     1
102
RTVSPropertyOp7
 70
     1
102
RTVSPropertyOp8
 70
     1
102
RTVSPropertyOp9
 70
     1
102
RTVSPropertyOp10
 70
     1
102
RTVSPropertyOp11
 70
     1
102
RTVSPropertyOp12
 70
     1
102
RTVSPropertyOp13
 70
     1
102
RTVSPropertyOp14
 70
     1
102
RTVSPropertyOp15
 70
     1
102
RTVSPropertyOp16
 70
     1
102
RTVSPropertyOp17
 70
     1
102
RTVSPropertyOp18
 70
     1
102
RTVSPropertyOp19
 70
     1
102
RTVSPropertyOp20
 70
     1
102
RTVSPropertyOp21
 70
     1
102
RTVSPropertyOp22
 70
     1
102
RTVSPropertyOp23
 70
     1
102
RTVSPropertyOp24
 70
     1
102
RTVSPropertyOp25
 70
     1
102
RTVSPropertyOp26
 70
     1
102
RTVSPropertyOp27
 70
     1
102
RTVSPropertyOp28
 70
     1
102
RTVSPropertyOp29
 70
     1
102
RTVSPropertyOp30
 70
     1
102
RTVSPropertyOp31
 70
     1
102
RTVSPropertyOp32
 70
     1
  0
XRECORD
  5
3B66
102
{ACAD_REACTORS
330
3B65
102
}
330
3B65
100
AcDbXrecord
280
     1
102
RTVSPropertyOp0
 70
     1
102
RTVSPropertyOp1
 70
     1
102
RTVSPropertyOp2
 70
     1
102
RTVSPropertyOp3
 70
     1
102
RTVSPropertyOp4
 70
     1
102
RTVSPropertyOp5
 70
     1
102
RTVSPropertyOp6
 70
     1
102
RTVSPropertyOp7
 70
     1
102
RTVSPropertyOp8
 70
     1
102
RTVSPropertyOp9
 70
     1
102
RTVSPropertyOp10
 70
     1
102
RTVSPropertyOp11
 70
     1
102
RTVSPropertyOp12
 70
     1
102
RTVSPropertyOp13
 70
     1
102
RTVSPropertyOp14
 70
     1
102
RTVSPropertyOp15
 70
     1
102
RTVSPropertyOp16
 70
     1
102
RTVSPropertyOp17
 70
     1
102
RTVSPropertyOp18
 70
     1
102
RTVSPropertyOp19
 70
     1
102
RTVSPropertyOp20
 70
     1
102
RTVSPropertyOp21
 70
     1
102
RTVSPropertyOp22
 70
     1
102
RTVSPropertyOp23
 70
     1
102
RTVSPropertyOp24
 70
     1
102
RTVSPropertyOp25
 70
     1
102
RTVSPropertyOp26
 70
     1
102
RTVSPropertyOp27
 70
     1
102
RTVSPropertyOp28
 70
     1
102
RTVSPropertyOp29
 70
     1
102
RTVSPropertyOp30
 70
     1
102
RTVSPropertyOp31
 70
     1
102
RTVSPropertyOp32
 70
     1
  0
XRECORD
  5
3B64
102
{ACAD_REACTORS
330
3B63
102
}
330
3B63
100
AcDbXrecord
280
     1
102
RTVSPropertyOp0
 70
     1
102
RTVSPropertyOp1
 70
     1
102
RTVSPropertyOp2
 70
     1
102
RTVSPropertyOp3
 70
     1
102
RTVSPropertyOp4
 70
     1
102
RTVSPropertyOp5
 70
     1
102
RTVSPropertyOp6
 70
     1
102
RTVSPropertyOp7
 70
     1
102
RTVSPropertyOp8
 70
     1
102
RTVSPropertyOp9
 70
     1
102
RTVSPropertyOp10
 70
     1
102
RTVSPropertyOp11
 70
     1
102
RTVSPropertyOp12
 70
     1
102
RTVSPropertyOp13
 70
     1
102
RTVSPropertyOp14
 70
     1
102
RTVSPropertyOp15
 70
     1
102
RTVSPropertyOp16
 70
     1
102
RTVSPropertyOp17
 70
     1
102
RTVSPropertyOp18
 70
     1
102
RTVSPropertyOp19
 70
     1
102
RTVSPropertyOp20
 70
     1
102
RTVSPropertyOp21
 70
     1
102
RTVSPropertyOp22
 70
     1
102
RTVSPropertyOp23
 70
     1
102
RTVSPropertyOp24
 70
     1
102
RTVSPropertyOp25
 70
     1
102
RTVSPropertyOp26
 70
     1
102
RTVSPropertyOp27
 70
     1
102
RTVSPropertyOp28
 70
     1
102
RTVSPropertyOp29
 70
     1
102
RTVSPropertyOp30
 70
     1
102
RTVSPropertyOp31
 70
     1
102
RTVSPropertyOp32
 70
     1
  0
XRECORD
  5
3B60
102
{ACAD_REACTORS
330
3B5F
102
}
330
3B5F
100
AcDbXrecord
280
     1
102
RTVSPropertyOp0
 70
     1
102
RTVSPropertyOp1
 70
     1
102
RTVSPropertyOp2
 70
     1
102
RTVSPropertyOp3
 70
     1
102
RTVSPropertyOp4
 70
     1
102
RTVSPropertyOp5
 70
     1
102
RTVSPropertyOp6
 70
     1
102
RTVSPropertyOp7
 70
     1
102
RTVSPropertyOp8
 70
     1
102
RTVSPropertyOp9
 70
     1
102
RTVSPropertyOp10
 70
     1
102
RTVSPropertyOp11
 70
     1
102
RTVSPropertyOp12
 70
     1
102
RTVSPropertyOp13
 70
     1
102
RTVSPropertyOp14
 70
     1
102
RTVSPropertyOp15
 70
     1
102
RTVSPropertyOp16
 70
     1
102
RTVSPropertyOp17
 70
     1
102
RTVSPropertyOp18
 70
     1
102
RTVSPropertyOp19
 70
     1
102
RTVSPropertyOp20
 70
     1
102
RTVSPropertyOp21
 70
     1
102
RTVSPropertyOp22
 70
     1
102
RTVSPropertyOp23
 70
     1
102
RTVSPropertyOp24
 70
     1
102
RTVSPropertyOp25
 70
     1
102
RTVSPropertyOp26
 70
     1
102
RTVSPropertyOp27
 70
     1
102
RTVSPropertyOp28
 70
     1
102
RTVSPropertyOp29
 70
     1
102
RTVSPropertyOp30
 70
     1
102
RTVSPropertyOp31
 70
     1
102
RTVSPropertyOp32
 70
     1
  0
XRECORD
  5
3B6E
102
{ACAD_REACTORS
330
3B6D
102
}
330
3B6D
100
AcDbXrecord
280
     1
102
RTVSPropertyOp0
 70
     1
102
RTVSPropertyOp1
 70
     1
102
RTVSPropertyOp2
 70
     1
102
RTVSPropertyOp3
 70
     1
102
RTVSPropertyOp4
 70
     1
102
RTVSPropertyOp5
 70
     1
102
RTVSPropertyOp6
 70
     1
102
RTVSPropertyOp7
 70
     1
102
RTVSPropertyOp8
 70
     1
102
RTVSPropertyOp9
 70
     1
102
RTVSPropertyOp10
 70
     1
102
RTVSPropertyOp11
 70
     1
102
RTVSPropertyOp12
 70
     1
102
RTVSPropertyOp13
 70
     1
102
RTVSPropertyOp14
 70
     1
102
RTVSPropertyOp15
 70
     1
102
RTVSPropertyOp16
 70
     1
102
RTVSPropertyOp17
 70
     1
102
RTVSPropertyOp18
 70
     1
102
RTVSPropertyOp19
 70
     1
102
RTVSPropertyOp20
 70
     1
102
RTVSPropertyOp21
 70
     1
102
RTVSPropertyOp22
 70
     1
102
RTVSPropertyOp23
 70
     1
102
RTVSPropertyOp24
 70
     1
102
RTVSPropertyOp25
 70
     1
102
RTVSPropertyOp26
 70
     1
102
RTVSPropertyOp27
 70
     1
102
RTVSPropertyOp28
 70
     1
102
RTVSPropertyOp29
 70
     1
102
RTVSPropertyOp30
 70
     1
102
RTVSPropertyOp31
 70
     1
102
RTVSPropertyOp32
 70
     1
  0
XRECORD
  5
3B76
102
{ACAD_REACTORS
330
3B75
102
}
330
3B75
100
AcDbXrecord
280
     1
102
RTVSPropertyOp0
 70
     1
102
RTVSPropertyOp1
 70
     1
102
RTVSPropertyOp2
 70
     1
102
RTVSPropertyOp3
 70
     1
102
RTVSPropertyOp4
 70
     1
102
RTVSPropertyOp5
 70
     1
102
RTVSPropertyOp6
 70
     1
102
RTVSPropertyOp7
 70
     1
102
RTVSPropertyOp8
 70
     1
102
RTVSPropertyOp9
 70
     1
102
RTVSPropertyOp10
 70
     1
102
RTVSPropertyOp11
 70
     1
102
RTVSPropertyOp12
 70
     1
102
RTVSPropertyOp13
 70
     1
102
RTVSPropertyOp14
 70
     1
102
RTVSPropertyOp15
 70
     1
102
RTVSPropertyOp16
 70
     1
102
RTVSPropertyOp17
 70
     1
102
RTVSPropertyOp18
 70
     1
102
RTVSPropertyOp19
 70
     1
102
RTVSPropertyOp20
 70
     1
102
RTVSPropertyOp21
 70
     1
102
RTVSPropertyOp22
 70
     1
102
RTVSPropertyOp23
 70
     1
102
RTVSPropertyOp24
 70
     1
102
RTVSPropertyOp25
 70
     1
102
RTVSPropertyOp26
 70
     1
102
RTVSPropertyOp27
 70
     1
102
RTVSPropertyOp28
 70
     1
102
RTVSPropertyOp29
 70
     1
102
RTVSPropertyOp30
 70
     1
102
RTVSPropertyOp31
 70
     1
102
RTVSPropertyOp32
 70
     1
  0
XRECORD
  5
3B68
102
{ACAD_REACTORS
330
3B67
102
}
330
3B67
100
AcDbXrecord
280
     1
102
RTVSPropertyOp0
 70
     1
102
RTVSPropertyOp1
 70
     1
102
RTVSPropertyOp2
 70
     1
102
RTVSPropertyOp3
 70
     1
102
RTVSPropertyOp4
 70
     1
102
RTVSPropertyOp5
 70
     1
102
RTVSPropertyOp6
 70
     1
102
RTVSPropertyOp7
 70
     1
102
RTVSPropertyOp8
 70
     1
102
RTVSPropertyOp9
 70
     1
102
RTVSPropertyOp10
 70
     1
102
RTVSPropertyOp11
 70
     1
102
RTVSPropertyOp12
 70
     1
102
RTVSPropertyOp13
 70
     1
102
RTVSPropertyOp14
 70
     1
102
RTVSPropertyOp15
 70
     1
102
RTVSPropertyOp16
 70
     1
102
RTVSPropertyOp17
 70
     1
102
RTVSPropertyOp18
 70
     1
102
RTVSPropertyOp19
 70
     1
102
RTVSPropertyOp20
 70
     1
102
RTVSPropertyOp21
 70
     1
102
RTVSPropertyOp22
 70
     1
102
RTVSPropertyOp23
 70
     1
102
RTVSPropertyOp24
 70
     1
102
RTVSPropertyOp25
 70
     1
102
RTVSPropertyOp26
 70
     1
102
RTVSPropertyOp27
 70
     1
102
RTVSPropertyOp28
 70
     1
102
RTVSPropertyOp29
 70
     1
102
RTVSPropertyOp30
 70
     1
102
RTVSPropertyOp31
 70
     1
102
RTVSPropertyOp32
 70
     1
  0
XRECORD
  5
3B6C
102
{ACAD_REACTORS
330
3B6B
102
}
330
3B6B
100
AcDbXrecord
280
     1
102
RTVSPropertyOp0
 70
     1
102
RTVSPropertyOp1
 70
     1
102
RTVSPropertyOp2
 70
     1
102
RTVSPropertyOp3
 70
     1
102
RTVSPropertyOp4
 70
     1
102
RTVSPropertyOp5
 70
     1
102
RTVSPropertyOp6
 70
     1
102
RTVSPropertyOp7
 70
     1
102
RTVSPropertyOp8
 70
     1
102
RTVSPropertyOp9
 70
     1
102
RTVSPropertyOp10
 70
     1
102
RTVSPropertyOp11
 70
     1
102
RTVSPropertyOp12
 70
     1
102
RTVSPropertyOp13
 70
     1
102
RTVSPropertyOp14
 70
     1
102
RTVSPropertyOp15
 70
     1
102
RTVSPropertyOp16
 70
     1
102
RTVSPropertyOp17
 70
     1
102
RTVSPropertyOp18
 70
     1
102
RTVSPropertyOp19
 70
     1
102
RTVSPropertyOp20
 70
     1
102
RTVSPropertyOp21
 70
     1
102
RTVSPropertyOp22
 70
     1
102
RTVSPropertyOp23
 70
     1
102
RTVSPropertyOp24
 70
     1
102
RTVSPropertyOp25
 70
     1
102
RTVSPropertyOp26
 70
     1
102
RTVSPropertyOp27
 70
     1
102
RTVSPropertyOp28
 70
     1
102
RTVSPropertyOp29
 70
     1
102
RTVSPropertyOp30
 70
     1
102
RTVSPropertyOp31
 70
     1
102
RTVSPropertyOp32
 70
     1
  0
XRECORD
  5
3B8B
102
{ACAD_REACTORS
330
3B8A
102
}
330
3B8A
100
AcDbXrecord
280
     1
102
RTVSPropertyOp0
 70
     0
102
RTVSPropertyOp1
 70
     0
102
RTVSPropertyOp2
 70
     0
102
RTVSPropertyOp3
 70
     0
102
RTVSPropertyOp4
 70
     0
102
RTVSPropertyOp5
 70
     0
102
RTVSPropertyOp6
 70
     0
102
RTVSPropertyOp7
 70
     0
102
RTVSPropertyOp8
 70
     0
102
RTVSPropertyOp9
 70
     0
102
RTVSPropertyOp10
 70
     0
102
RTVSPropertyOp11
 70
     0
102
RTVSPropertyOp12
 70
     0
102
RTVSPropertyOp13
 70
     0
102
RTVSPropertyOp14
 70
     2
102
RTVSPropertyOp15
 70
     0
102
RTVSPropertyOp16
 70
     0
102
RTVSPropertyOp17
 70
     0
102
RTVSPropertyOp18
 70
     0
102
RTVSPropertyOp19
 70
     0
102
RTVSPropertyOp20
 70
     0
102
RTVSPropertyOp21
 70
     0
102
RTVSPropertyOp22
 70
     0
102
RTVSPropertyOp23
 70
     0
102
RTVSPropertyOp24
 70
     0
102
RTVSPropertyOp25
 70
     0
102
RTVSPropertyOp26
 70
     0
102
RTVSPropertyOp27
 70
     0
102
RTVSPropertyOp28
 70
     1
102
RTVSPropertyOp29
 70
     1
102
RTVSPropertyOp30
 70
     1
102
RTVSPropertyOp31
 70
     1
102
RTVSPropertyOp32
 70
     1
  0
XRECORD
  5
3B74
102
{ACAD_REACTORS
330
3B73
102
}
330
3B73
100
AcDbXrecord
280
     1
102
RTVSPropertyOp0
 70
     1
102
RTVSPropertyOp1
 70
     1
102
RTVSPropertyOp2
 70
     1
102
RTVSPropertyOp3
 70
     1
102
RTVSPropertyOp4
 70
     1
102
RTVSPropertyOp5
 70
     1
102
RTVSPropertyOp6
 70
     1
102
RTVSPropertyOp7
 70
     1
102
RTVSPropertyOp8
 70
     1
102
RTVSPropertyOp9
 70
     1
102
RTVSPropertyOp10
 70
     1
102
RTVSPropertyOp11
 70
     1
102
RTVSPropertyOp12
 70
     1
102
RTVSPropertyOp13
 70
     1
102
RTVSPropertyOp14
 70
     1
102
RTVSPropertyOp15
 70
     1
102
RTVSPropertyOp16
 70
     1
102
RTVSPropertyOp17
 70
     1
102
RTVSPropertyOp18
 70
     1
102
RTVSPropertyOp19
 70
     1
102
RTVSPropertyOp20
 70
     1
102
RTVSPropertyOp21
 70
     1
102
RTVSPropertyOp22
 70
     1
102
RTVSPropertyOp23
 70
     1
102
RTVSPropertyOp24
 70
     1
102
RTVSPropertyOp25
 70
     1
102
RTVSPropertyOp26
 70
     1
102
RTVSPropertyOp27
 70
     1
102
RTVSPropertyOp28
 70
     1
102
RTVSPropertyOp29
 70
     1
102
RTVSPropertyOp30
 70
     1
102
RTVSPropertyOp31
 70
     1
102
RTVSPropertyOp32
 70
     1
  0
XRECORD
  5
3B58
102
{ACAD_REACTORS
330
3B57
102
}
330
3B57
100
AcDbXrecord
280
     1
102
RTVSPropertyOp0
 70
     1
102
RTVSPropertyOp1
 70
     1
102
RTVSPropertyOp2
 70
     1
102
RTVSPropertyOp3
 70
     1
102
RTVSPropertyOp4
 70
     1
102
RTVSPropertyOp5
 70
     1
102
RTVSPropertyOp6
 70
     1
102
RTVSPropertyOp7
 70
     1
102
RTVSPropertyOp8
 70
     1
102
RTVSPropertyOp9
 70
     1
102
RTVSPropertyOp10
 70
     1
102
RTVSPropertyOp11
 70
     1
102
RTVSPropertyOp12
 70
     1
102
RTVSPropertyOp13
 70
     1
102
RTVSPropertyOp14
 70
     1
102
RTVSPropertyOp15
 70
     1
102
RTVSPropertyOp16
 70
     1
102
RTVSPropertyOp17
 70
     1
102
RTVSPropertyOp18
 70
     1
102
RTVSPropertyOp19
 70
     1
102
RTVSPropertyOp20
 70
     1
102
RTVSPropertyOp21
 70
     1
102
RTVSPropertyOp22
 70
     1
102
RTVSPropertyOp23
 70
     1
102
RTVSPropertyOp24
 70
     1
102
RTVSPropertyOp25
 70
     1
102
RTVSPropertyOp26
 70
     1
102
RTVSPropertyOp27
 70
     1
102
RTVSPropertyOp28
 70
     1
102
RTVSPropertyOp29
 70
     1
102
RTVSPropertyOp30
 70
     1
102
RTVSPropertyOp31
 70
     1
102
RTVSPropertyOp32
 70
     1
  0
XRECORD
  5
3B5A
102
{ACAD_REACTORS
330
3B59
102
}
330
3B59
100
AcDbXrecord
280
     1
102
RTVSPropertyOp0
 70
     1
102
RTVSPropertyOp1
 70
     1
102
RTVSPropertyOp2
 70
     1
102
RTVSPropertyOp3
 70
     1
102
RTVSPropertyOp4
 70
     1
102
RTVSPropertyOp5
 70
     1
102
RTVSPropertyOp6
 70
     1
102
RTVSPropertyOp7
 70
     1
102
RTVSPropertyOp8
 70
     1
102
RTVSPropertyOp9
 70
     1
102
RTVSPropertyOp10
 70
     1
102
RTVSPropertyOp11
 70
     1
102
RTVSPropertyOp12
 70
     1
102
RTVSPropertyOp13
 70
     1
102
RTVSPropertyOp14
 70
     1
102
RTVSPropertyOp15
 70
     1
102
RTVSPropertyOp16
 70
     1
102
RTVSPropertyOp17
 70
     1
102
RTVSPropertyOp18
 70
     1
102
RTVSPropertyOp19
 70
     1
102
RTVSPropertyOp20
 70
     1
102
RTVSPropertyOp21
 70
     1
102
RTVSPropertyOp22
 70
     1
102
RTVSPropertyOp23
 70
     1
102
RTVSPropertyOp24
 70
     1
102
RTVSPropertyOp25
 70
     1
102
RTVSPropertyOp26
 70
     1
102
RTVSPropertyOp27
 70
     1
102
RTVSPropertyOp28
 70
     1
102
RTVSPropertyOp29
 70
     1
102
RTVSPropertyOp30
 70
     1
102
RTVSPropertyOp31
 70
     1
102
RTVSPropertyOp32
 70
     1
  0
XRECORD
  5
3B5C
102
{ACAD_REACTORS
330
3B5B
102
}
330
3B5B
100
AcDbXrecord
280
     1
102
RTVSPropertyOp0
 70
     1
102
RTVSPropertyOp1
 70
     1
102
RTVSPropertyOp2
 70
     1
102
RTVSPropertyOp3
 70
     1
102
RTVSPropertyOp4
 70
     1
102
RTVSPropertyOp5
 70
     1
102
RTVSPropertyOp6
 70
     1
102
RTVSPropertyOp7
 70
     1
102
RTVSPropertyOp8
 70
     1
102
RTVSPropertyOp9
 70
     1
102
RTVSPropertyOp10
 70
     1
102
RTVSPropertyOp11
 70
     1
102
RTVSPropertyOp12
 70
     1
102
RTVSPropertyOp13
 70
     1
102
RTVSPropertyOp14
 70
     1
102
RTVSPropertyOp15
 70
     1
102
RTVSPropertyOp16
 70
     1
102
RTVSPropertyOp17
 70
     1
102
RTVSPropertyOp18
 70
     1
102
RTVSPropertyOp19
 70
     1
102
RTVSPropertyOp20
 70
     1
102
RTVSPropertyOp21
 70
     1
102
RTVSPropertyOp22
 70
     1
102
RTVSPropertyOp23
 70
     1
102
RTVSPropertyOp24
 70
     1
102
RTVSPropertyOp25
 70
     1
102
RTVSPropertyOp26
 70
     1
102
RTVSPropertyOp27
 70
     1
102
RTVSPropertyOp28
 70
     1
102
RTVSPropertyOp29
 70
     1
102
RTVSPropertyOp30
 70
     1
102
RTVSPropertyOp31
 70
     1
102
RTVSPropertyOp32
 70
     1
  0
XRECORD
  5
3B5E
102
{ACAD_REACTORS
330
3B5D
102
}
330
3B5D
100
AcDbXrecord
280
     1
102
RTVSPropertyOp0
 70
     1
102
RTVSPropertyOp1
 70
     1
102
RTVSPropertyOp2
 70
     1
102
RTVSPropertyOp3
 70
     1
102
RTVSPropertyOp4
 70
     1
102
RTVSPropertyOp5
 70
     1
102
RTVSPropertyOp6
 70
     1
102
RTVSPropertyOp7
 70
     1
102
RTVSPropertyOp8
 70
     1
102
RTVSPropertyOp9
 70
     1
102
RTVSPropertyOp10
 70
     1
102
RTVSPropertyOp11
 70
     1
102
RTVSPropertyOp12
 70
     1
102
RTVSPropertyOp13
 70
     1
102
RTVSPropertyOp14
 70
     1
102
RTVSPropertyOp15
 70
     1
102
RTVSPropertyOp16
 70
     1
102
RTVSPropertyOp17
 70
     1
102
RTVSPropertyOp18
 70
     1
102
RTVSPropertyOp19
 70
     1
102
RTVSPropertyOp20
 70
     1
102
RTVSPropertyOp21
 70
     1
102
RTVSPropertyOp22
 70
     1
102
RTVSPropertyOp23
 70
     1
102
RTVSPropertyOp24
 70
     1
102
RTVSPropertyOp25
 70
     1
102
RTVSPropertyOp26
 70
     1
102
RTVSPropertyOp27
 70
     1
102
RTVSPropertyOp28
 70
     1
102
RTVSPropertyOp29
 70
     1
102
RTVSPropertyOp30
 70
     1
102
RTVSPropertyOp31
 70
     1
102
RTVSPropertyOp32
 70
     1
  0
XRECORD
  5
3B7B
102
{ACAD_REACTORS
330
3B7A
102
}
330
3B7A
100
AcDbXrecord
280
     1
102
RTVSPropertyOp0
 70
     1
102
RTVSPropertyOp1
 70
     1
102
RTVSPropertyOp2
 70
     1
102
RTVSPropertyOp3
 70
     1
102
RTVSPropertyOp4
 70
     1
102
RTVSPropertyOp5
 70
     1
102
RTVSPropertyOp6
 70
     1
102
RTVSPropertyOp7
 70
     1
102
RTVSPropertyOp8
 70
     1
102
RTVSPropertyOp9
 70
     1
102
RTVSPropertyOp10
 70
     1
102
RTVSPropertyOp11
 70
     1
102
RTVSPropertyOp12
 70
     1
102
RTVSPropertyOp13
 70
     1
102
RTVSPropertyOp14
 70
     1
102
RTVSPropertyOp15
 70
     1
102
RTVSPropertyOp16
 70
     1
102
RTVSPropertyOp17
 70
     1
102
RTVSPropertyOp18
 70
     1
102
RTVSPropertyOp19
 70
     1
102
RTVSPropertyOp20
 70
     1
102
RTVSPropertyOp21
 70
     1
102
RTVSPropertyOp22
 70
     1
102
RTVSPropertyOp23
 70
     1
102
RTVSPropertyOp24
 70
     1
102
RTVSPropertyOp25
 70
     1
102
RTVSPropertyOp26
 70
     1
102
RTVSPropertyOp27
 70
     1
102
RTVSPropertyOp28
 70
     1
102
RTVSPropertyOp29
 70
     1
102
RTVSPropertyOp30
 70
     1
102
RTVSPropertyOp31
 70
     1
102
RTVSPropertyOp32
 70
     1
  0
XRECORD
  5
3B87
102
{ACAD_REACTORS
330
3B86
102
}
330
3B86
100
AcDbXrecord
280
     1
102
RTVSPropertyOp0
 70
     0
102
RTVSPropertyOp1
 70
     0
102
RTVSPropertyOp2
 70
     0
102
RTVSPropertyOp3
 70
     0
102
RTVSPropertyOp4
 70
     0
102
RTVSPropertyOp5
 70
     0
102
RTVSPropertyOp6
 70
     0
102
RTVSPropertyOp7
 70
     0
102
RTVSPropertyOp8
 70
     0
102
RTVSPropertyOp9
 70
     0
102
RTVSPropertyOp10
 70
     0
102
RTVSPropertyOp11
 70
     0
102
RTVSPropertyOp12
 70
     0
102
RTVSPropertyOp13
 70
     0
102
RTVSPropertyOp14
 70
     2
102
RTVSPropertyOp15
 70
     0
102
RTVSPropertyOp16
 70
     0
102
RTVSPropertyOp17
 70
     0
102
RTVSPropertyOp18
 70
     0
102
RTVSPropertyOp19
 70
     0
102
RTVSPropertyOp20
 70
     0
102
RTVSPropertyOp21
 70
     0
102
RTVSPropertyOp22
 70
     0
102
RTVSPropertyOp23
 70
     0
102
RTVSPropertyOp24
 70
     0
102
RTVSPropertyOp25
 70
     0
102
RTVSPropertyOp26
 70
     0
102
RTVSPropertyOp27
 70
     0
102
RTVSPropertyOp28
 70
     1
102
RTVSPropertyOp29
 70
     1
102
RTVSPropertyOp30
 70
     1
102
RTVSPropertyOp31
 70
     1
102
RTVSPropertyOp32
 70
     1
  0
XRECORD
  5
3B72
102
{ACAD_REACTORS
330
3B71
102
}
330
3B71
100
AcDbXrecord
280
     1
102
RTVSPropertyOp0
 70
     1
102
RTVSPropertyOp1
 70
     1
102
RTVSPropertyOp2
 70
     1
102
RTVSPropertyOp3
 70
     1
102
RTVSPropertyOp4
 70
     1
102
RTVSPropertyOp5
 70
     1
102
RTVSPropertyOp6
 70
     1
102
RTVSPropertyOp7
 70
     1
102
RTVSPropertyOp8
 70
     1
102
RTVSPropertyOp9
 70
     1
102
RTVSPropertyOp10
 70
     1
102
RTVSPropertyOp11
 70
     1
102
RTVSPropertyOp12
 70
     1
102
RTVSPropertyOp13
 70
     1
102
RTVSPropertyOp14
 70
     1
102
RTVSPropertyOp15
 70
     1
102
RTVSPropertyOp16
 70
     1
102
RTVSPropertyOp17
 70
     1
102
RTVSPropertyOp18
 70
     1
102
RTVSPropertyOp19
 70
     1
102
RTVSPropertyOp20
 70
     1
102
RTVSPropertyOp21
 70
     1
102
RTVSPropertyOp22
 70
     1
102
RTVSPropertyOp23
 70
     1
102
RTVSPropertyOp24
 70
     1
102
RTVSPropertyOp25
 70
     1
102
RTVSPropertyOp26
 70
     1
102
RTVSPropertyOp27
 70
     1
102
RTVSPropertyOp28
 70
     1
102
RTVSPropertyOp29
 70
     1
102
RTVSPropertyOp30
 70
     1
102
RTVSPropertyOp31
 70
     1
102
RTVSPropertyOp32
 70
     1
  0
XRECORD
  5
3B89
102
{ACAD_REACTORS
330
3B88
102
}
330
3B88
100
AcDbXrecord
280
     1
102
RTVSPropertyOp0
 70
     0
102
RTVSPropertyOp1
 70
     0
102
RTVSPropertyOp2
 70
     0
102
RTVSPropertyOp3
 70
     0
102
RTVSPropertyOp4
 70
     0
102
RTVSPropertyOp5
 70
     0
102
RTVSPropertyOp6
 70
     0
102
RTVSPropertyOp7
 70
     0
102
RTVSPropertyOp8
 70
     0
102
RTVSPropertyOp9
 70
     0
102
RTVSPropertyOp10
 70
     0
102
RTVSPropertyOp11
 70
     0
102
RTVSPropertyOp12
 70
     0
102
RTVSPropertyOp13
 70
     0
102
RTVSPropertyOp14
 70
     2
102
RTVSPropertyOp15
 70
     0
102
RTVSPropertyOp16
 70
     0
102
RTVSPropertyOp17
 70
     0
102
RTVSPropertyOp18
 70
     0
102
RTVSPropertyOp19
 70
     0
102
RTVSPropertyOp20
 70
     0
102
RTVSPropertyOp21
 70
     0
102
RTVSPropertyOp22
 70
     0
102
RTVSPropertyOp23
 70
     0
102
RTVSPropertyOp24
 70
     0
102
RTVSPropertyOp25
 70
     0
102
RTVSPropertyOp26
 70
     0
102
RTVSPropertyOp27
 70
     0
102
RTVSPropertyOp28
 70
     1
102
RTVSPropertyOp29
 70
     1
102
RTVSPropertyOp30
 70
     1
102
RTVSPropertyOp31
 70
     1
102
RTVSPropertyOp32
 70
     1
  0
XRECORD
  5
3B6A
102
{ACAD_REACTORS
330
3B69
102
}
330
3B69
100
AcDbXrecord
280
     1
102
RTVSPropertyOp0
 70
     1
102
RTVSPropertyOp1
 70
     1
102
RTVSPropertyOp2
 70
     1
102
RTVSPropertyOp3
 70
     1
102
RTVSPropertyOp4
 70
     1
102
RTVSPropertyOp5
 70
     1
102
RTVSPropertyOp6
 70
     1
102
RTVSPropertyOp7
 70
     1
102
RTVSPropertyOp8
 70
     1
102
RTVSPropertyOp9
 70
     1
102
RTVSPropertyOp10
 70
     1
102
RTVSPropertyOp11
 70
     1
102
RTVSPropertyOp12
 70
     1
102
RTVSPropertyOp13
 70
     1
102
RTVSPropertyOp14
 70
     1
102
RTVSPropertyOp15
 70
     1
102
RTVSPropertyOp16
 70
     1
102
RTVSPropertyOp17
 70
     1
102
RTVSPropertyOp18
 70
     1
102
RTVSPropertyOp19
 70
     1
102
RTVSPropertyOp20
 70
     1
102
RTVSPropertyOp21
 70
     1
102
RTVSPropertyOp22
 70
     1
102
RTVSPropertyOp23
 70
     1
102
RTVSPropertyOp24
 70
     1
102
RTVSPropertyOp25
 70
     1
102
RTVSPropertyOp26
 70
     1
102
RTVSPropertyOp27
 70
     1
102
RTVSPropertyOp28
 70
     1
102
RTVSPropertyOp29
 70
     1
102
RTVSPropertyOp30
 70
     1
102
RTVSPropertyOp31
 70
     1
102
RTVSPropertyOp32
 70
     1
  0
XRECORD
  5
3B85
102
{ACAD_REACTORS
330
3B84
102
}
330
3B84
100
AcDbXrecord
280
     1
102
RTVSPropertyOp0
 70
     1
102
RTVSPropertyOp1
 70
     1
102
RTVSPropertyOp2
 70
     1
102
RTVSPropertyOp3
 70
     1
102
RTVSPropertyOp4
 70
     1
102
RTVSPropertyOp5
 70
     1
102
RTVSPropertyOp6
 70
     1
102
RTVSPropertyOp7
 70
     1
102
RTVSPropertyOp8
 70
     1
102
RTVSPropertyOp9
 70
     1
102
RTVSPropertyOp10
 70
     1
102
RTVSPropertyOp11
 70
     1
102
RTVSPropertyOp12
 70
     1
102
RTVSPropertyOp13
 70
     1
102
RTVSPropertyOp14
 70
     1
102
RTVSPropertyOp15
 70
     1
102
RTVSPropertyOp16
 70
     1
102
RTVSPropertyOp17
 70
     1
102
RTVSPropertyOp18
 70
     1
102
RTVSPropertyOp19
 70
     1
102
RTVSPropertyOp20
 70
     1
102
RTVSPropertyOp21
 70
     1
102
RTVSPropertyOp22
 70
     1
102
RTVSPropertyOp23
 70
     1
102
RTVSPropertyOp24
 70
     1
102
RTVSPropertyOp25
 70
     1
102
RTVSPropertyOp26
 70
     1
102
RTVSPropertyOp27
 70
     1
102
RTVSPropertyOp28
 70
     1
102
RTVSPropertyOp29
 70
     1
102
RTVSPropertyOp30
 70
     1
102
RTVSPropertyOp31
 70
     1
102
RTVSPropertyOp32
 70
     1
  0
XRECORD
  5
3B83
102
{ACAD_REACTORS
330
3B82
102
}
330
3B82
100
AcDbXrecord
280
     1
102
RTVSPropertyOp0
 70
     1
102
RTVSPropertyOp1
 70
     1
102
RTVSPropertyOp2
 70
     1
102
RTVSPropertyOp3
 70
     1
102
RTVSPropertyOp4
 70
     1
102
RTVSPropertyOp5
 70
     1
102
RTVSPropertyOp6
 70
     1
102
RTVSPropertyOp7
 70
     1
102
RTVSPropertyOp8
 70
     1
102
RTVSPropertyOp9
 70
     1
102
RTVSPropertyOp10
 70
     1
102
RTVSPropertyOp11
 70
     1
102
RTVSPropertyOp12
 70
     1
102
RTVSPropertyOp13
 70
     1
102
RTVSPropertyOp14
 70
     1
102
RTVSPropertyOp15
 70
     1
102
RTVSPropertyOp16
 70
     1
102
RTVSPropertyOp17
 70
     1
102
RTVSPropertyOp18
 70
     1
102
RTVSPropertyOp19
 70
     1
102
RTVSPropertyOp20
 70
     1
102
RTVSPropertyOp21
 70
     1
102
RTVSPropertyOp22
 70
     1
102
RTVSPropertyOp23
 70
     1
102
RTVSPropertyOp24
 70
     1
102
RTVSPropertyOp25
 70
     1
102
RTVSPropertyOp26
 70
     1
102
RTVSPropertyOp27
 70
     1
102
RTVSPropertyOp28
 70
     1
102
RTVSPropertyOp29
 70
     1
102
RTVSPropertyOp30
 70
     1
102
RTVSPropertyOp31
 70
     1
102
RTVSPropertyOp32
 70
     1
  0
XRECORD
  5
3B7D
102
{ACAD_REACTORS
330
3B7C
102
}
330
3B7C
100
AcDbXrecord
280
     1
102
RTVSPropertyOp0
 70
     1
102
RTVSPropertyOp1
 70
     1
102
RTVSPropertyOp2
 70
     1
102
RTVSPropertyOp3
 70
     1
102
RTVSPropertyOp4
 70
     1
102
RTVSPropertyOp5
 70
     1
102
RTVSPropertyOp6
 70
     1
102
RTVSPropertyOp7
 70
     1
102
RTVSPropertyOp8
 70
     1
102
RTVSPropertyOp9
 70
     1
102
RTVSPropertyOp10
 70
     1
102
RTVSPropertyOp11
 70
     1
102
RTVSPropertyOp12
 70
     1
102
RTVSPropertyOp13
 70
     1
102
RTVSPropertyOp14
 70
     1
102
RTVSPropertyOp15
 70
     1
102
RTVSPropertyOp16
 70
     1
102
RTVSPropertyOp17
 70
     1
102
RTVSPropertyOp18
 70
     1
102
RTVSPropertyOp19
 70
     1
102
RTVSPropertyOp20
 70
     1
102
RTVSPropertyOp21
 70
     1
102
RTVSPropertyOp22
 70
     1
102
RTVSPropertyOp23
 70
     1
102
RTVSPropertyOp24
 70
     1
102
RTVSPropertyOp25
 70
     1
102
RTVSPropertyOp26
 70
     1
102
RTVSPropertyOp27
 70
     1
102
RTVSPropertyOp28
 70
     1
102
RTVSPropertyOp29
 70
     1
102
RTVSPropertyOp30
 70
     1
102
RTVSPropertyOp31
 70
     1
102
RTVSPropertyOp32
 70
     1
  0
XRECORD
  5
3B7F
102
{ACAD_REACTORS
330
3B7E
102
}
330
3B7E
100
AcDbXrecord
280
     1
102
RTVSPropertyOp0
 70
     1
102
RTVSPropertyOp1
 70
     1
102
RTVSPropertyOp2
 70
     1
102
RTVSPropertyOp3
 70
     1
102
RTVSPropertyOp4
 70
     1
102
RTVSPropertyOp5
 70
     1
102
RTVSPropertyOp6
 70
     1
102
RTVSPropertyOp7
 70
     1
102
RTVSPropertyOp8
 70
     1
102
RTVSPropertyOp9
 70
     1
102
RTVSPropertyOp10
 70
     1
102
RTVSPropertyOp11
 70
     1
102
RTVSPropertyOp12
 70
     1
102
RTVSPropertyOp13
 70
     1
102
RTVSPropertyOp14
 70
     1
102
RTVSPropertyOp15
 70
     1
102
RTVSPropertyOp16
 70
     1
102
RTVSPropertyOp17
 70
     1
102
RTVSPropertyOp18
 70
     1
102
RTVSPropertyOp19
 70
     1
102
RTVSPropertyOp20
 70
     1
102
RTVSPropertyOp21
 70
     1
102
RTVSPropertyOp22
 70
     1
102
RTVSPropertyOp23
 70
     1
102
RTVSPropertyOp24
 70
     1
102
RTVSPropertyOp25
 70
     1
102
RTVSPropertyOp26
 70
     1
102
RTVSPropertyOp27
 70
     1
102
RTVSPropertyOp28
 70
     1
102
RTVSPropertyOp29
 70
     1
102
RTVSPropertyOp30
 70
     1
102
RTVSPropertyOp31
 70
     1
102
RTVSPropertyOp32
 70
     1
  0
XRECORD
  5
3B70
102
{ACAD_REACTORS
330
3B6F
102
}
330
3B6F
100
AcDbXrecord
280
     1
102
RTVSPropertyOp0
 70
     1
102
RTVSPropertyOp1
 70
     1
102
RTVSPropertyOp2
 70
     1
102
RTVSPropertyOp3
 70
     1
102
RTVSPropertyOp4
 70
     1
102
RTVSPropertyOp5
 70
     1
102
RTVSPropertyOp6
 70
     1
102
RTVSPropertyOp7
 70
     1
102
RTVSPropertyOp8
 70
     1
102
RTVSPropertyOp9
 70
     1
102
RTVSPropertyOp10
 70
     1
102
RTVSPropertyOp11
 70
     1
102
RTVSPropertyOp12
 70
     1
102
RTVSPropertyOp13
 70
     1
102
RTVSPropertyOp14
 70
     1
102
RTVSPropertyOp15
 70
     1
102
RTVSPropertyOp16
 70
     1
102
RTVSPropertyOp17
 70
     1
102
RTVSPropertyOp18
 70
     1
102
RTVSPropertyOp19
 70
     1
102
RTVSPropertyOp20
 70
     1
102
RTVSPropertyOp21
 70
     1
102
RTVSPropertyOp22
 70
     1
102
RTVSPropertyOp23
 70
     1
102
RTVSPropertyOp24
 70
     1
102
RTVSPropertyOp25
 70
     1
102
RTVSPropertyOp26
 70
     1
102
RTVSPropertyOp27
 70
     1
102
RTVSPropertyOp28
 70
     1
102
RTVSPropertyOp29
 70
     1
102
RTVSPropertyOp30
 70
     1
102
RTVSPropertyOp31
 70
     1
102
RTVSPropertyOp32
 70
     1
  0
XRECORD
  5
3B79
102
{ACAD_REACTORS
330
3B78
102
}
330
3B78
100
AcDbXrecord
280
     1
102
RTVSPropertyOp0
 70
     1
102
RTVSPropertyOp1
 70
     1
102
RTVSPropertyOp2
 70
     1
102
RTVSPropertyOp3
 70
     1
102
RTVSPropertyOp4
 70
     1
102
RTVSPropertyOp5
 70
     1
102
RTVSPropertyOp6
 70
     1
102
RTVSPropertyOp7
 70
     1
102
RTVSPropertyOp8
 70
     1
102
RTVSPropertyOp9
 70
     1
102
RTVSPropertyOp10
 70
     1
102
RTVSPropertyOp11
 70
     1
102
RTVSPropertyOp12
 70
     1
102
RTVSPropertyOp13
 70
     1
102
RTVSPropertyOp14
 70
     1
102
RTVSPropertyOp15
 70
     1
102
RTVSPropertyOp16
 70
     1
102
RTVSPropertyOp17
 70
     1
102
RTVSPropertyOp18
 70
     1
102
RTVSPropertyOp19
 70
     1
102
RTVSPropertyOp20
 70
     1
102
RTVSPropertyOp21
 70
     1
102
RTVSPropertyOp22
 70
     1
102
RTVSPropertyOp23
 70
     1
102
RTVSPropertyOp24
 70
     1
102
RTVSPropertyOp25
 70
     1
102
RTVSPropertyOp26
 70
     1
102
RTVSPropertyOp27
 70
     1
102
RTVSPropertyOp28
 70
     1
102
RTVSPropertyOp29
 70
     1
102
RTVSPropertyOp30
 70
     1
102
RTVSPropertyOp31
 70
     1
102
RTVSPropertyOp32
 70
     1
  0
XRECORD
  5
3B81
102
{ACAD_REACTORS
330
3B80
102
}
330
3B80
100
AcDbXrecord
280
     1
102
RTVSPropertyOp0
 70
     1
102
RTVSPropertyOp1
 70
     1
102
RTVSPropertyOp2
 70
     1
102
RTVSPropertyOp3
 70
     1
102
RTVSPropertyOp4
 70
     1
102
RTVSPropertyOp5
 70
     1
102
RTVSPropertyOp6
 70
     1
102
RTVSPropertyOp7
 70
     1
102
RTVSPropertyOp8
 70
     1
102
RTVSPropertyOp9
 70
     1
102
RTVSPropertyOp10
 70
     1
102
RTVSPropertyOp11
 70
     1
102
RTVSPropertyOp12
 70
     1
102
RTVSPropertyOp13
 70
     1
102
RTVSPropertyOp14
 70
     1
102
RTVSPropertyOp15
 70
     1
102
RTVSPropertyOp16
 70
     1
102
RTVSPropertyOp17
 70
     1
102
RTVSPropertyOp18
 70
     1
102
RTVSPropertyOp19
 70
     1
102
RTVSPropertyOp20
 70
     1
102
RTVSPropertyOp21
 70
     1
102
RTVSPropertyOp22
 70
     1
102
RTVSPropertyOp23
 70
     1
102
RTVSPropertyOp24
 70
     1
102
RTVSPropertyOp25
 70
     1
102
RTVSPropertyOp26
 70
     1
102
RTVSPropertyOp27
 70
     1
102
RTVSPropertyOp28
 70
     1
102
RTVSPropertyOp29
 70
     1
102
RTVSPropertyOp30
 70
     1
102
RTVSPropertyOp31
 70
     1
102
RTVSPropertyOp32
 70
     1
  0
ENDSEC
  0
EOF
