  0
SECTION
  2
HEADER
  9
$ACADVER
  1
AC1018
  9
$ACADMAINTVER
 70
   104
  9
$DWGCODEPAGE
  3
ANSI_1252
  9
$LASTSAVEDBY
  1
Administrator
  9
$CUSTOMPROPERTYTAG
  1
AmdtFileType
  9
$CUSTOMPROPERTY
  1
84
  9
$INSBASE
 10
0.0
 20
0.0
 30
0.0
  9
$EXTMIN
 10
-625.7190998981421
 20
-345.0281265001803
 30
0.0
  9
$EXTMAX
 10
7.842790066422181
 20
435.6097554580223
 30
0.0
  9
$LIMMIN
 10
0.0
 20
0.0
  9
$LIMMAX
 10
420.0
 20
297.0
  9
$ORTHOMODE
 70
     0
  9
$REGENMODE
 70
     1
  9
$FILLMODE
 70
     1
  9
$QTEXTMODE
 70
     0
  9
$MIRRTEXT
 70
     1
  9
$LTSCALE
 40
1.0
  9
$ATTMODE
 70
     1
  9
$TEXTSIZE
 40
2.5
  9
$TRACEWID
 40
1.0
  9
$TEXTSTYLE
  7
STANDARD
  9
$CLAYER
  8
0
  9
$CELTYPE
  6
ByLayer
  9
$CECOLOR
 62
   256
  9
$CELTSCALE
 40
1.0
  9
$DISPSILH
 70
     0
  9
$DIMSCALE
 40
1.0
  9
$DIMASZ
 40
3.5
  9
$DIMEXO
 40
1.0
  9
$DIMDLI
 40
10.0
  9
$DIMRND
 40
0.0
  9
$DIMDLE
 40
0.0
  9
$DIMEXE
 40
1.0
  9
$DIMTP
 40
0.1
  9
$DIMTM
 40
0.1
  9
$DIMTXT
 40
3.5
  9
$DIMCEN
 40
0.0
  9
$DIMTSZ
 40
0.0
  9
$DIMTOL
 70
     0
  9
$DIMLIM
 70
     0
  9
$DIMTIH
 70
     0
  9
$DIMTOH
 70
     0
  9
$DIMSE1
 70
     0
  9
$DIMSE2
 70
     0
  9
$DIMTAD
 70
     1
  9
$DIMZIN
 70
     8
  9
$DIMBLK
  1

  9
$DIMASO
 70
     1
  9
$DIMSHO
 70
     1
  9
$DIMPOST
  1

  9
$DIMAPOST
  1
"
  9
$DIMALT
 70
     0
  9
$DIMALTD
 70
     2
  9
$DIMALTF
 40
0.0393701
  9
$DIMLFAC
 40
1.0
  9
$DIMTOFL
 70
     1
  9
$DIMTVP
 40
0.0
  9
$DIMTIX
 70
     0
  9
$DIMSOXD
 70
     0
  9
$DIMSAH
 70
     0
  9
$DIMBLK1
  1

  9
$DIMBLK2
  1

  9
$DIMSTYLE
  2
AM_DIN
  9
$DIMCLRD
 70
   256
  9
$DIMCLRE
 70
   256
  9
$DIMCLRT
 70
   140
  9
$DIMTFAC
 40
0.71
  9
$DIMGAP
 40
1.5
  9
$DIMJUST
 70
     0
  9
$DIMSD1
 70
     0
  9
$DIMSD2
 70
     0
  9
$DIMTOLJ
 70
     0
  9
$DIMTZIN
 70
     8
  9
$DIMALTZ
 70
     0
  9
$DIMALTTZ
 70
     0
  9
$DIMUPT
 70
     0
  9
$DIMDEC
 70
     2
  9
$DIMTDEC
 70
     3
  9
$DIMALTU
 70
     2
  9
$DIMALTTD
 70
     4
  9
$DIMTXSTY
  7
STANDARD
  9
$DIMAUNIT
 70
     0
  9
$DIMADEC
 70
     0
  9
$DIMALTRND
 40
0.0
  9
$DIMAZIN
 70
     2
  9
$DIMDSEP
 70
    46
  9
$DIMATFIT
 70
     3
  9
$DIMFRAC
 70
     0
  9
$DIMLDRBLK
  1

  9
$DIMLUNIT
 70
     2
  9
$DIMLWD
 70
    -1
  9
$DIMLWE
 70
    -1
  9
$DIMTMOVE
 70
     0
  9
$LUNITS
 70
     2
  9
$LUPREC
 70
     2
  9
$SKETCHINC
 40
1.0
  9
$FILLETRAD
 40
0.0
  9
$AUNITS
 70
     0
  9
$AUPREC
 70
     0
  9
$MENU
  1
.
  9
$ELEVATION
 40
0.0
  9
$PELEVATION
 40
0.0
  9
$THICKNESS
 40
0.0
  9
$LIMCHECK
 70
     0
  9
$CHAMFERA
 40
2.5
  9
$CHAMFERB
 40
2.5
  9
$CHAMFERC
 40
20.0
  9
$CHAMFERD
 40
0.0
  9
$SKPOLY
 70
     0
  9
$TDCREATE
 40
2453918.262673241
  9
$TDUCREATE
 40
2453918.179339908
  9
$TDUPDATE
 40
2457210.741694815
  9
$TDUUPDATE
 40
2457210.658361482
  9
$TDINDWG
 40
0.2790290856
  9
$TDUSRTIMER
 40
0.2790249306
  9
$USRTIMER
 70
     1
  9
$ANGBASE
 50
0.0
  9
$ANGDIR
 70
     0
  9
$PDMODE
 70
     0
  9
$PDSIZE
 40
0.0
  9
$PLINEWID
 40
0.0
  9
$SPLFRAME
 70
     0
  9
$SPLINETYPE
 70
     6
  9
$SPLINESEGS
 70
     8
  9
$HANDSEED
  5
559F
  9
$SURFTAB1
 70
     6
  9
$SURFTAB2
 70
     6
  9
$SURFTYPE
 70
     6
  9
$SURFU
 70
     6
  9
$SURFV
 70
     6
  9
$UCSBASE
  2

  9
$UCSNAME
  2

  9
$UCSORG
 10
0.0
 20
0.0
 30
0.0
  9
$UCSXDIR
 10
1.0
 20
0.0
 30
0.0
  9
$UCSYDIR
 10
0.0
 20
1.0
 30
0.0
  9
$UCSORTHOREF
  2

  9
$UCSORTHOVIEW
 70
     0
  9
$UCSORGTOP
 10
0.0
 20
0.0
 30
0.0
  9
$UCSORGBOTTOM
 10
0.0
 20
0.0
 30
0.0
  9
$UCSORGLEFT
 10
0.0
 20
0.0
 30
0.0
  9
$UCSORGRIGHT
 10
0.0
 20
0.0
 30
0.0
  9
$UCSORGFRONT
 10
0.0
 20
0.0
 30
0.0
  9
$UCSORGBACK
 10
0.0
 20
0.0
 30
0.0
  9
$PUCSBASE
  2

  9
$PUCSNAME
  2

  9
$PUCSORG
 10
0.0
 20
0.0
 30
0.0
  9
$PUCSXDIR
 10
1.0
 20
0.0
 30
0.0
  9
$PUCSYDIR
 10
0.0
 20
1.0
 30
0.0
  9
$PUCSORTHOREF
  2

  9
$PUCSORTHOVIEW
 70
     0
  9
$PUCSORGTOP
 10
0.0
 20
0.0
 30
0.0
  9
$PUCSORGBOTTOM
 10
0.0
 20
0.0
 30
0.0
  9
$PUCSORGLEFT
 10
0.0
 20
0.0
 30
0.0
  9
$PUCSORGRIGHT
 10
0.0
 20
0.0
 30
0.0
  9
$PUCSORGFRONT
 10
0.0
 20
0.0
 30
0.0
  9
$PUCSORGBACK
 10
0.0
 20
0.0
 30
0.0
  9
$USERI1
 70
     0
  9
$USERI2
 70
     0
  9
$USERI3
 70
     0
  9
$USERI4
 70
     0
  9
$USERI5
 70
     0
  9
$USERR1
 40
0.0
  9
$USERR2
 40
0.0
  9
$USERR3
 40
0.0
  9
$USERR4
 40
0.0
  9
$USERR5
 40
0.0
  9
$WORLDVIEW
 70
     1
  9
$SHADEDGE
 70
     3
  9
$SHADEDIF
 70
    70
  9
$TILEMODE
 70
     1
  9
$MAXACTVP
 70
    64
  9
$PINSBASE
 10
0.0
 20
0.0
 30
0.0
  9
$PLIMCHECK
 70
     0
  9
$PEXTMIN
 10
1.000000000000000E+20
 20
1.000000000000000E+20
 30
1.000000000000000E+20
  9
$PEXTMAX
 10
-1.000000000000000E+20
 20
-1.000000000000000E+20
 30
-1.000000000000000E+20
  9
$PLIMMIN
 10
0.0
 20
0.0
  9
$PLIMMAX
 10
420.0
 20
297.0
  9
$UNITMODE
 70
     0
  9
$VISRETAIN
 70
     1
  9
$PLINEGEN
 70
     0
  9
$PSLTSCALE
 70
     1
  9
$TREEDEPTH
 70
  3020
  9
$CMLSTYLE
  2
Standard
  9
$CMLJUST
 70
     0
  9
$CMLSCALE
 40
20.0
  9
$PROXYGRAPHICS
 70
     1
  9
$MEASUREMENT
 70
     1
  9
$CELWEIGHT
370
    -1
  9
$ENDCAPS
280
     0
  9
$JOINSTYLE
280
     0
  9
$LWDISPLAY
290
     0
  9
$INSUNITS
 70
     4
  9
$HYPERLINKBASE
  1

  9
$STYLESHEET
  1

  9
$XEDIT
290
     1
  9
$CEPSNTYPE
380
     0
  9
$PSTYLEMODE
290
     1
  9
$FINGERPRINTGUID
  2
{E66C8CC1-E66B-408F-9010-06FD783B68A0}
  9
$VERSIONGUID
  2
{8EBBE272-3356-40E2-BE68-2DA645182A78}
  9
$EXTNAMES
290
     1
  9
$PSVPSCALE
 40
0.0
  9
$OLESTARTUP
290
     0
  9
$SORTENTS
280
   127
  9
$INDEXCTL
280
     0
  9
$HIDETEXT
280
     1
  9
$XCLIPFRAME
290
     0
  9
$HALOGAP
280
     0
  9
$OBSCOLOR
 70
   257
  9
$OBSLTYPE
280
     0
  9
$INTERSECTIONDISPLAY
280
     0
  9
$INTERSECTIONCOLOR
 70
   257
  9
$DIMASSOC
280
     2
  9
$PROJECTNAME
  1

  0
ENDSEC
  0
SECTION
  2
CLASSES
  0
CLASS
  1
ACDBDICTIONARYWDFLT
  2
AcDbDictionaryWithDefault
  3
ObjectDBX Classes
 90
        0
 91
        1
280
     0
281
     0
  0
CLASS
  1
ACME_DOCUMENT
  2
AcMeDbDoc
  3
AcMeServices
 90
     1024
 91
        2
280
     0
281
     0
  0
CLASS
  1
ACMESCOPE
  2
AcMeScope
  3
AcMeServices
 90
     1024
 91
        1
280
     0
281
     0
  0
CLASS
  1
ACMECOMMANDHISTORY
  2
AcMeCommandHistory
  3
AcMeServices
 90
     1024
 91
        1
280
     0
281
     0
  0
CLASS
  1
ACIMSYSVARMAN
  2
AcImSysVarManager
  3
AcMeServices
 90
     1024
 91
        4
280
     0
281
     0
  0
CLASS
  1
ACIMREALSYSVAR
  2
AcImRealSysVar
  3
AcMeServices
 90
     1024
 91
        1
280
     0
281
     0
  0
CLASS
  1
ACIMINTSYSVAR
  2
AcImIntSysVar
  3
AcMeServices
 90
     1024
 91
       27
280
     0
281
     0
  0
CLASS
  1
ACMEDRAWINGMAN
  2
AcMeDrawingMan
  3
AcMeServices
 90
     1024
 91
        0
280
     0
281
     0
  0
CLASS
  1
ACMEVIEW
  2
AcMeView
  3
AcMeServices
 90
     1024
 91
        0
280
     0
281
     0
  0
CLASS
  1
ACDBENTITYCACHE
  2
AcMeEntityCache
  3
AcMeServices
 90
     1024
 91
        1
280
     0
281
     0
  0
CLASS
  1
GSMANAGER
  2
AcMeGSManager
  3
AcMeServices
 90
     1024
 91
        0
280
     0
281
     0
  0
CLASS
  1
AMDTINTERNALREACTOR
  2
AmdtInternalReactor
  3
AcMeServices
 90
     1024
 91
        1
280
     0
281
     0
  0
CLASS
  1
ACMESTATEMGR
  2
AcMeStateMgr
  3
AcMeServices
 90
     1024
 91
        1
280
     0
281
     0
  0
CLASS
  1
ACGREFMASTER
  2
AcGrefMaster
  3
AcAttribServices
 90
     1024
 91
        1
280
     0
281
     0
  0
CLASS
  1
ACME_DATABASE
  2
AcMeDbDatabase
  3
AcMeServices
 90
     1024
 91
        2
280
     0
281
     0
  0
CLASS
  1
ACRFINSADJUSTERMGR
  2
AcRfInsAdjusterMgr
  3
AcMeServices
 90
     1024
 91
        1
280
     0
281
     0
  0
CLASS
  1
ACGREFACADMASTER
  2
AcGrefacadMaster
  3
AcGrefServices
 90
     1024
 91
        1
280
     0
281
     0
  0
CLASS
  1
AMIMASTER
  2
AmiMaster
  3
AmiServices
 90
     1024
 91
        1
280
     0
281
     0
  0
CLASS
  1
AMGSETTINGSOBJ
  2
AmgSettingsObj
  3
"AcadM|Product Description: AutoCAD Mechanical|Company: Autodesk, Inc."
 90
     1024
 91
        2
280
     0
281
     0
  0
CLASS
  1
ACMDATADICTIONARY
  2
AcmDataDictionary
  3
"AcmSymBB|Product Description: AutoCAD Mechanical|Company: Autodesk, Inc."
 90
     1024
 91
        1
280
     0
281
     0
  0
CLASS
  1
ACMDATAENTRYBLOCK
  2
AcmDataEntryBlock
  3
AcmSymBB|Product Description: AutoCAD Mechanical|Company: Autodesk, Inc.
 90
     1024
 91
        0
280
     0
281
     0
  0
CLASS
  1
ACIMSTRSYSVAR
  2
AcImStrSysVar
  3
AcMeServices
 90
     1024
 91
        5
280
     0
281
     0
  0
CLASS
  1
ACMSTANDARDDIN
  2
AcmStandardDIN
  3
"Amdt_StdImp|Product Description: AutoCAD Mechanical|Company: Autodesk, Inc."
 90
     1024
 91
        1
280
     0
281
     0
  0
CLASS
  1
AMGOBJPROPCFG
  2
AmgObjPropCfg
  3
"AmgLay|Product Description: AutoCAD Mechanical|Company: Autodesk, Inc."
 90
     1025
 91
        1
280
     0
281
     0
  0
CLASS
  1
AMDTEDGESTANDARDDIN
  2
AmdtEdgeStdDIN
  3
"Amdt_StdImp|Product Description: AutoCAD Mechanical|Company: Autodesk, Inc."
 90
     1024
 91
        0
280
     0
281
     0
  0
CLASS
  1
ACMSURFSTANDARDDIN
  2
AcmSurfTextStdDIN
  3
"Amdt_StdImp|Product Description: AutoCAD Mechanical|Company: Autodesk, Inc."
 90
     1024
 91
        0
280
     0
281
     0
  0
CLASS
  1
ACMFCFSTANDARDDIN
  2
AcmFCFStdDIN
  3
"Amdt_StdImp|Product Description: AutoCAD Mechanical|Company: Autodesk, Inc."
 90
     1024
 91
        1
280
     0
281
     0
  0
CLASS
  1
ACMWELDSTANDARDDIN
  2
AcmWeldingStdDIN
  3
"Amdt_StdImp|Product Description: AutoCAD Mechanical|Company: Autodesk, Inc."
 90
     1024
 91
        1
280
     0
281
     0
  0
CLASS
  1
ACMIDSTANDARDDIN
  2
AcmIdStdDIN
  3
"Amdt_StdImp|Product Description: AutoCAD Mechanical|Company: Autodesk, Inc."
 90
     1024
 91
        1
280
     0
281
     0
  0
CLASS
  1
ACMDATUMSTANDARDDIN
  2
AcmDatumStdDIN
  3
"Amdt_StdImp|Product Description: AutoCAD Mechanical|Company: Autodesk, Inc."
 90
     1024
 91
        1
280
     0
281
     0
  0
CLASS
  1
ACMBOMSTANDARDDIN
  2
AcmBOMStdDIN
  3
"Amdt_StdImp|Product Description: AutoCAD Mechanical|Company: Autodesk, Inc."
 90
     1024
 91
        1
280
     0
281
     0
  0
CLASS
  1
ACMDETAILSTANDARDDIN
  2
AmdtDetailSymStdDIN
  3
"Amdt_StdImp|Product Description: AutoCAD Mechanical|Company: Autodesk, Inc."
 90
     1024
 91
        1
280
     0
281
     0
  0
CLASS
  1
ACMSECTIONSTANDARDDIN
  2
AmdtSectionSymStdDIN
  3
"Amdt_StdImp|Product Description: AutoCAD Mechanical|Company: Autodesk, Inc."
 90
     1024
 91
        1
280
     0
281
     0
  0
CLASS
  1
ACMCENTERLINESTANDARDDIN
  2
AmdtCenterLineStdDIN
  3
"Amdt_StdImp|Product Description: AutoCAD Mechanical|Company: Autodesk, Inc."
 90
     1024
 91
        1
280
     0
281
     0
  0
CLASS
  1
ACMNOTESTANDARDDIN
  2
AmdtNoteStdDIN
  3
"Amdt_StdImp|Product Description: AutoCAD Mechanical|Company: Autodesk, Inc."
 90
     1024
 91
        1
280
     0
281
     0
  0
CLASS
  1
ACAMGLAYSTD
  2
AcAmgLayStd
  3
"AmgLay|Product Description: AutoCAD Mechanical|Company: Autodesk, Inc."
 90
     1024
 91
        1
280
     0
281
     0
  0
CLASS
  1
ACAMGDIMSTD
  2
AcAmgDimStd
  3
"AmgDim|Product Description: AutoCAD Mechanical|Company: Autodesk, Inc."
 90
     1024
 91
        1
280
     0
281
     0
  0
CLASS
  1
ACAMGHOLECHARTSTDDIN
  2
AcAmgHoleChartStdDIN
  3
AmgDim|Product Description: AutoCAD Mechanical|Company: Autodesk, Inc.
 90
     1024
 91
        1
280
     0
281
     0
  0
CLASS
  1
ACAMGTITLESTD
  2
AcAmgTitleStd
  3
"AmgTitle|Product Description: AutoCAD Mechanical|Company: Autodesk, Inc."
 90
     4095
 91
        1
280
     0
281
     0
  0
CLASS
  1
LAYER_INDEX
  2
AcDbLayerIndex
  3
ObjectDBX Classes
 90
        0
 91
        0
280
     0
281
     0
  0
CLASS
  1
IDBUFFER
  2
AcDbIdBuffer
  3
ObjectDBX Classes
 90
        0
 91
        0
280
     0
281
     0
  0
CLASS
  1
DICTIONARYVAR
  2
AcDbDictionaryVar
  3
ObjectDBX Classes
 90
        0
 91
       10
280
     0
281
     0
  0
CLASS
  1
ACAMGFILTERDAT
  2
AcAmgFilterDat
  3
"AcadM|Product Description: AutoCAD Mechanical|Company: Autodesk, Inc."
 90
     1024
 91
        0
280
     0
281
     0
  0
CLASS
  1
ACMSTANDARDANSI
  2
AcmStandardANSI
  3
"Amdt_StdImp|Product Description: AutoCAD Mechanical|Company: Autodesk, Inc."
 90
     1024
 91
        0
280
     0
281
     0
  0
CLASS
  1
ACMSURFSTANDARDANSI
  2
AcmSurfTextStdANSI
  3
"Amdt_StdImp|Product Description: AutoCAD Mechanical|Company: Autodesk, Inc."
 90
     1024
 91
        0
280
     0
281
     0
  0
CLASS
  1
ACMFCFSTANDARDANSI
  2
AcmFCFStdANSI
  3
"Amdt_StdImp|Product Description: AutoCAD Mechanical|Company: Autodesk, Inc."
 90
     1024
 91
        0
280
     0
281
     0
  0
CLASS
  1
ACMWELDSTANDARDANSI
  2
AcmWeldingStdANSI
  3
"Amdt_StdImp|Product Description: AutoCAD Mechanical|Company: Autodesk, Inc."
 90
     1024
 91
        0
280
     0
281
     0
  0
CLASS
  1
ACMIDSTANDARDANSI
  2
AcmIdStdANSI
  3
"Amdt_StdImp|Product Description: AutoCAD Mechanical|Company: Autodesk, Inc."
 90
     1024
 91
        0
280
     0
281
     0
  0
CLASS
  1
ACMDATUMSTANDARDANSI
  2
AcmDatumStdANSI
  3
"Amdt_StdImp|Product Description: AutoCAD Mechanical|Company: Autodesk, Inc."
 90
     1024
 91
        0
280
     0
281
     0
  0
CLASS
  1
ACMBOMSTANDARDANSI
  2
AcmBOMStdANSI
  3
"Amdt_StdImp|Product Description: AutoCAD Mechanical|Company: Autodesk, Inc."
 90
     1024
 91
        0
280
     0
281
     0
  0
CLASS
  1
ACMDETAILSTANDARDANSI
  2
AmdtDetailSymStdANSI
  3
"Amdt_StdImp|Product Description: AutoCAD Mechanical|Company: Autodesk, Inc."
 90
     1024
 91
        0
280
     0
281
     0
  0
CLASS
  1
ACMSECTIONSTANDARDANSI
  2
AmdtSectionSymStdANSI
  3
"Amdt_StdImp|Product Description: AutoCAD Mechanical|Company: Autodesk, Inc."
 90
     1024
 91
        0
280
     0
281
     0
  0
CLASS
  1
ACMCENTERLINESTANDARDANSI
  2
AmdtCenterLineStdANSI
  3
"Amdt_StdImp|Product Description: AutoCAD Mechanical|Company: Autodesk, Inc."
 90
     1024
 91
        0
280
     0
281
     0
  0
CLASS
  1
ACMNOTESTANDARDANSI
  2
AmdtNoteStdANSI
  3
"Amdt_StdImp|Product Description: AutoCAD Mechanical|Company: Autodesk, Inc."
 90
     1024
 91
        0
280
     0
281
     0
  0
CLASS
  1
ACAMGHOLECHARTSTDANSI
  2
AcAmgHoleChartStdANSI
  3
AmgDim|Product Description: AutoCAD Mechanical|Company: Autodesk, Inc.
 90
     1024
 91
        0
280
     0
281
     0
  0
CLASS
  1
AMDTFORMULAUPDATEDISPATCHER
  2
AmdtFormulaUpdateDispatcher
  3
AcMeServices
 90
     1024
 91
        0
280
     0
281
     0
  0
CLASS
  1
DIMASSOC
  2
AcDbDimAssoc
  3
"AcDbDimAssoc|Product Desc:     AcDim ARX App For Dimension|Company:          Autodesk, Inc.|WEB Address:      www.autodesk.com"
 90
        0
 91
        0
280
     0
281
     0
  0
CLASS
  1
MATERIAL
  2
AcDbMaterial
  3
ObjectDBX Classes
 90
     1153
 91
        3
280
     0
281
     0
  0
CLASS
  1
VISUALSTYLE
  2
AcDbVisualStyle
  3
ObjectDBX Classes
 90
     4095
 91
       26
280
     0
281
     0
  0
CLASS
  1
TABLESTYLE
  2
AcDbTableStyle
  3
ObjectDBX Classes
 90
     4095
 91
        1
280
     0
281
     0
  0
CLASS
  1
SCALE
  2
AcDbScale
  3
ObjectDBX Classes
 90
     1153
 91
       17
280
     0
281
     0
  0
CLASS
  1
MLEADERSTYLE
  2
AcDbMLeaderStyle
  3
ACDB_MLEADERSTYLE_CLASS
 90
     4095
 91
        1
280
     0
281
     0
  0
CLASS
  1
AM_DRAWING_MGR
  2
AcDmDwgMgr
  3
AcMechDwgViewMgmt
 90
     1024
 91
        1
280
     0
281
     0
  0
CLASS
  1
AM_DWG_DOCUMENT
  2
AcDmDwgDocument
  3
AcMechDwgViewMgmt
 90
     1024
 91
        1
280
     0
281
     0
  0
CLASS
  1
AM_DWG_SHEET
  2
AcDmSheet
  3
AcMechDwgViewMgmt
 90
     1024
 91
        2
280
     0
281
     0
  0
CLASS
  1
AM_VIEWDIMPARMAP
  2
AcDmViewDimParMap
  3
AcMechDwgViewMgmt
 90
     1024
 91
        2
280
     0
281
     0
  0
CLASS
  1
AM_DWGMGR_NAME
  2
AcDmDwgMgrName
  3
AcMechDwgViewMgmt
 90
     1024
 91
        1
280
     0
281
     0
  0
CLASS
  1
AMDTMENUSTATEMGR
  2
AmdtMenuStateMgr
  3
McadcomServices
 90
     1024
 91
        1
280
     0
281
     0
  0
CLASS
  1
AMDTMCOMMENUSTATE
  2
AmdtMcomMenuState
  3
McadcomServices
 90
     1024
 91
        1
280
     0
281
     0
  0
CLASS
  1
MAPIAMMOUDLE
  2
MApiAmModule
  3
MApiAmServices
 90
     1024
 91
        1
280
     0
281
     0
  0
CLASS
  1
AMDTADMENUSTATE
  2
AmdtAdMenuState
  3
DesignerServices
 90
     1024
 91
        0
280
     0
281
     0
  0
CLASS
  1
ADAPPL
  2
AcAdAppl
  3
DesignerAssemblies
 90
     1024
 91
        0
280
     0
281
     0
  0
CLASS
  1
DEPMGR
  2
AcAdDepMgr
  3
DesignerAssemblies
 90
     1024
 91
        0
280
     0
281
     0
  0
CLASS
  1
PARAMMGR
  2
AcAdParamMgr
  3
DesignerAssemblies
 90
     1024
 91
        0
280
     0
281
     0
  0
CLASS
  1
PARAMSCOPE
  2
AcAdParamScope
  3
DesignerAssemblies
 90
     1024
 91
        0
280
     0
281
     0
  0
CLASS
  1
NAMEDAPPL
  2
AcAdNamedAppl
  3
DesignerAssemblies
 90
     1024
 91
        0
280
     0
281
     0
  0
CLASS
  1
AMDTDMMENUSTATE
  2
AmdtDmMenuState
  3
AcMechDwgViewMgmt
 90
     1024
 91
        1
280
     0
281
     0
  0
CLASS
  1
AMDTAMMENUSTATE
  2
AmdtAmMenuState
  3
DesignerAssemblies
 90
     1024
 91
        1
280
     0
281
     0
  0
CLASS
  1
ACAMPROJECT
  2
AcAmProject
  3
DesignerAssemblies
 90
     1024
 91
        1
280
     0
281
     0
  0
CLASS
  1
ACAMGRCOMPDEF
  2
AcAmGrCompDef
  3
DesignerAssemblies
 90
     1024
 91
        1
280
     0
281
     0
  0
CLASS
  1
ACCMCONTEXT
  2
AcCmContext
  3
DesignerAssemblies
 90
     1024
 91
        0
280
     0
281
     0
  0
CLASS
  1
ACAMCOMPDEF
  2
AcAmCompDef
  3
DesignerAssemblies
 90
     1024
 91
        1
280
     0
281
     0
  0
CLASS
  1
ACAMCOMPDEFMGR
  2
AcAmCompDefMgr
  3
DesignerAssemblies
 90
     1024
 91
        1
280
     0
281
     0
  0
CLASS
  1
AMCONTEXTMGR
  2
AcAmContextMgr
  3
DesignerAssemblies
 90
     1024
 91
        1
280
     0
281
     0
  0
CLASS
  1
ACAMCONTEXTMODELER
  2
AcAmContextModeler
  3
DesignerAssemblies
 90
     1024
 91
        1
280
     0
281
     0
  0
CLASS
  1
ACRFATTGENMGR
  2
AcRfAttGeneralMgr
  3
AcAttribServices
 90
     1024
 91
        0
280
     0
281
     0
  0
CLASS
  1
ACRFOBJATTMGR
  2
AcRfObjAttGroupMgr
  3
AcAttribServices
 90
     1024
 91
        0
280
     0
281
     0
  0
CLASS
  1
ACRFMCADAPIATTHOLDER
  2
AcRfMCADAPIAttHolder
  3
AcAttribServices
 90
     1024
 91
        0
280
     0
281
     0
  0
CLASS
  1
AMDTSYSATTR
  2
AmdtSystemAttribute
  3
AcAttribServices
 90
     1024
 91
        0
280
     0
281
     0
  0
CLASS
  1
ACMTHREADLINESTANDARDDIN
  2
AmdtThreadLineStdDIN
  3
"Amdt_StdImp|Product Description: AutoCAD Mechanical|Company: Autodesk, Inc."
 90
     1024
 91
        1
280
     0
281
     0
  0
CLASS
  1
ACMTAPERSTANDARDDIN
  2
AcmTaperStdDIN
  3
"Amdt_StdImp|Product Description: AutoCAD Mechanical|Company: Autodesk, Inc."
 90
     1024
 91
        1
280
     0
281
     0
  0
CLASS
  1
ACMANOOTATIONVIEWSTANDARDDIN
  2
AmdtAnViewStdDIN
  3
"Amdt_StdImp|Product Description: AutoCAD Mechanical|Company: Autodesk, Inc."
 90
     1024
 91
        1
280
     0
281
     0
  0
CLASS
  1
ACMTHREADLINESTANDARDANSI
  2
AmdtThreadLineStdANSI
  3
"Amdt_StdImp|Product Description: AutoCAD Mechanical|Company: Autodesk, Inc."
 90
     1024
 91
        0
280
     0
281
     0
  0
CLASS
  1
ACMTAPERSTANDARDANSI
  2
AcmTaperStdANSI
  3
"Amdt_StdImp|Product Description: AutoCAD Mechanical|Company: Autodesk, Inc."
 90
     1024
 91
        0
280
     0
281
     0
  0
CLASS
  1
ACMANOOTATIONVIEWSTANDARDANSI
  2
AmdtAnViewStdANSI
  3
"Amdt_StdImp|Product Description: AutoCAD Mechanical|Company: Autodesk, Inc."
 90
     1024
 91
        0
280
     0
281
     0
  0
CLASS
  1
CATALOGSTATE
  2
AcAmCatalogState
  3
DesignerAssemblies
 90
     1024
 91
        0
280
     0
281
     0
  0
CLASS
  1
ACAMGRCOMPDEFSET
  2
AcAmGrCompDefSet
  3
DesignerAssemblies
 90
     1024
 91
        1
280
     0
281
     0
  0
CLASS
  1
AMDTBROWSERDBTAB
  2
AmdtBrowserDbTab
  3
McadcomServices
 90
     1024
 91
        1
280
     0
281
     0
  0
CLASS
  1
CBROWSERAPPOBJECT
  2
CBrowserAppObject
  3
McadcomServices
 90
     1024
 91
        2
280
     0
281
     0
  0
CLASS
  1
DM_PLACEHOLDER
  2
AcDmSelsetPlaceholder
  3
AcMechDwgViewMgmt
 90
     1024
 91
        1
280
     0
281
     0
  0
CLASS
  1
SORTENTSTABLE
  2
AcDbSortentsTable
  3
ObjectDBX Classes
 90
        0
 91
        2
280
     0
281
     0
  0
CLASS
  1
CAMSSTRUCTBTNSTATE
  2
StructBtnState
  3
DesignerAssemblies
 90
     1024
 91
        0
280
     0
281
     0
  0
CLASS
  1
CELLSTYLEMAP
  2
AcDbCellStyleMap
  3
ObjectDBX Classes
 90
     1152
 91
        3
280
     0
281
     0
  0
CLASS
  1
AMDTEDGESTANDARDDIN13715
  2
AmdtEdgeStdDIN13715
  3
"Amdt_StdImp|Product Description: AutoCAD Mechanical|Company: Autodesk, Inc."
 90
     1024
 91
        1
280
     0
281
     0
  0
CLASS
  1
ACMSURFSTANDARDDIN2002
  2
AcmSurfTextStdDIN2002
  3
"Amdt_StdImp|Product Description: AutoCAD Mechanical|Company: Autodesk, Inc."
 90
     1024
 91
        1
280
     0
281
     0
  0
CLASS
  1
AMDTNOTETEMPLATEDB
  2
AmdtNoteTemplateDB
  3
AcmSymBB|Product Description: AutoCAD Mechanical|Company: Autodesk, Inc.
 90
     1024
 91
        6
280
     0
281
     0
  0
CLASS
  1
AEC_REFEDIT_STATUS_TRACKER
  2
AecDbRefEditStatusTracker
  3
AecArchBase60|Product Desc: Autodesk Architectural Desktop 2007 |Company: Autodesk,Inc. |WEB Address: www.autodesk.com
 90
      129
 91
        1
280
     0
281
     0
  0
CLASS
  1
NPOCOLLECTION
  2
AcDbImpNonPersistentObjectsCollection
  3
ObjectDBX Classes
 90
     1153
 91
        1
280
     0
281
     0
  0
ENDSEC
  0
SECTION
  2
TABLES
  0
TABLE
  2
VPORT
  5
8
102
{ACAD_XDICTIONARY
360
3C5C
102
}
330
0
100
AcDbSymbolTable
 70
     1
  0
VPORT
  5
3AB9
330
8
100
AcDbSymbolTableRecord
100
AcDbViewportTableRecord
  2
*Active
 70
     0
 10
0.0
 20
0.0
 11
1.0
 21
1.0
 12
-290.3700196406838
 22
41.86981149353107
 13
0.0
 23
0.0
 14
2.5
 24
2.5
 15
10.0
 25
10.0
 16
0.0
 26
0.0
 36
1.0
 17
0.0
 27
0.0
 37
0.0
 40
826.7065630723843
 41
2.261311172668513
 42
50.0
 43
0.0
 44
0.0
 50
0.0
 51
0.0
 71
     0
 72
   100
 73
     1
 74
     3
 75
     0
 76
     0
 77
     0
 78
     0
281
     0
 65
     1
110
0.0
120
0.0
130
0.0
111
1.0
121
0.0
131
0.0
112
0.0
122
1.0
132
0.0
 79
     0
146
0.0
  0
ENDTAB
  0
TABLE
  2
LTYPE
  5
5
330
0
100
AcDbSymbolTable
 70
    25
  0
LTYPE
  5
14
330
5
100
AcDbSymbolTableRecord
100
AcDbLinetypeTableRecord
  2
ByBlock
 70
     0
  3

 72
    65
 73
     0
 40
0.0
  0
LTYPE
  5
15
330
5
100
AcDbSymbolTableRecord
100
AcDbLinetypeTableRecord
  2
ByLayer
 70
     0
  3

 72
    65
 73
     0
 40
0.0
  0
LTYPE
  5
16
330
5
100
AcDbSymbolTableRecord
100
AcDbLinetypeTableRecord
  2
Continuous
 70
     0
  3
Solid line
 72
    65
 73
     0
 40
0.0
  0
LTYPE
  5
50
330
5
100
AcDbSymbolTableRecord
100
AcDbLinetypeTableRecord
  2
Amconstr
 70
     0
  3
_______________________
 72
    65
 73
     2
 40
9999.0
 49
9999.0
 74
     0
 49
0.0
 74
     0
  0
LTYPE
  5
55
330
5
100
AcDbSymbolTableRecord
100
AcDbLinetypeTableRecord
  2
Amzigzag
 70
     0
  3
/\/-/\/-/\/-/\/-/\/-/\/
 72
    65
 73
     2
 40
11.0001
 49
0.0001
 74
     4
 75
   135
340
54
 46
0.04
 50
0.0
 44
0.0
 45
0.0
 49
-11.0
 74
     0
  0
LTYPE
  5
56
330
5
100
AcDbSymbolTableRecord
100
AcDbLinetypeTableRecord
  2
AM_DIN_F_W050
 70
     0
  3
__ __ __ __ __ __ __ __ __ __ __ __ __ __ __
 72
    65
 73
     2
 40
6.25
 49
4.75
 74
     0
 49
-1.5
 74
     0
  0
LTYPE
  5
57
330
5
100
AcDbSymbolTableRecord
100
AcDbLinetypeTableRecord
  2
AM_DIN_G_W050
 70
     0
  3
____ . ____ . ____ . ____ . ____ . ____ . ____
 72
    65
 73
     4
 40
13.75
 49
9.75
 74
     0
 49
-1.5
 74
     0
 49
1.0
 74
     0
 49
-1.5
 74
     0
  0
LTYPE
  5
58
330
5
100
AcDbSymbolTableRecord
100
AcDbLinetypeTableRecord
  2
AM_DIN_K_W050
 70
     0
  3
_____ . . _____ . . _____ . . ____ .. ____
 72
    65
 73
     6
 40
16.25
 49
9.75
 74
     0
 49
-1.5
 74
     0
 49
1.0
 74
     0
 49
-1.5
 74
     0
 49
1.0
 74
     0
 49
-1.5
 74
     0
  0
LTYPE
  5
59
330
5
100
AcDbSymbolTableRecord
100
AcDbLinetypeTableRecord
  2
AM_DIN_G_W050x2
 70
     0
  3
__ . __ . __ . __ . __ . __
 72
    65
 73
     4
 40
6.875
 49
4.75
 74
     0
 49
-0.875
 74
     0
 49
0.375
 74
     0
 49
-0.875
 74
     0
  0
LTYPE
  5
5A
330
5
100
AcDbSymbolTableRecord
100
AcDbLinetypeTableRecord
  2
AM_DIN_F_W050x2
 70
     0
  3
 _ _ _ _ _ _ _ _ _ _ _ _
 72
    65
 73
     2
 40
3.125
 49
2.25
 74
     0
 49
-0.875
 74
     0
  0
LTYPE
  5
68
330
5
100
AcDbSymbolTableRecord
100
AcDbLinetypeTableRecord
  2
ACDINWELD
 70
     0
  3
_ _ _ _ _
 72
    65
 73
     2
 40
2.0
 49
2.0
 74
     0
 49
-1.0
 74
     0
  0
LTYPE
  5
69
330
5
100
AcDbSymbolTableRecord
100
AcDbLinetypeTableRecord
  2
ACDINTGB
 70
     0
  3
__ . . __ . .
 72
    65
 73
     6
 40
9.0
 49
4.0
 74
     0
 49
-1.0
 74
     0
 49
1.0
 74
     0
 49
-1.0
 74
     0
 49
1.0
 74
     0
 49
-1.0
 74
     0
  0
LTYPE
  5
6A
330
5
100
AcDbSymbolTableRecord
100
AcDbLinetypeTableRecord
  2
ACDINTGL
 70
     0
  3
_ _ _ _ _
 72
    65
 73
     2
 40
3.0
 49
2.0
 74
     0
 49
-1.0
 74
     0
  0
LTYPE
  5
6C
330
5
100
AcDbSymbolTableRecord
100
AcDbLinetypeTableRecord
  2
CENTER
 70
     0
  3
__ . __
 72
    65
 73
     4
 40
7.0
 49
4.0
 74
     0
 49
-1.0
 74
     0
 49
1.0
 74
     0
 49
-1.0
 74
     0
  0
LTYPE
  5
33D
330
5
100
AcDbSymbolTableRecord
100
AcDbLinetypeTableRecord
  2
PHANTOM2
 70
     0
  3
Phantom (.5x) ___ _ _ ___ _ _ ___ _ _ ___ _ _
 72
    65
 73
     6
 40
1.25
 49
0.625
 74
     0
 49
-0.125
 74
     0
 49
0.125
 74
     0
 49
-0.125
 74
     0
 49
0.125
 74
     0
 49
-0.125
 74
     0
  0
LTYPE
  5
341
330
5
100
AcDbSymbolTableRecord
100
AcDbLinetypeTableRecord
  2
ACANSTGB
 70
     0
  3
__ . . __ . .
 72
    65
 73
     6
 40
0.35433070866
 49
0.15748031496
 74
     0
 49
-0.03937007874
 74
     0
 49
0.03937007874
 74
     0
 49
-0.03937007874
 74
     0
 49
0.03937007874
 74
     0
 49
-0.03937007874
 74
     0
  0
LTYPE
  5
342
330
5
100
AcDbSymbolTableRecord
100
AcDbLinetypeTableRecord
  2
ACANSTGL
 70
     0
  3
_ _ _ _ _
 72
    65
 73
     2
 40
0.11811023622
 49
0.07874015748
 74
     0
 49
-0.03937007874
 74
     0
  0
LTYPE
  5
3B2A
330
5
100
AcDbSymbolTableRecord
100
AcDbLinetypeTableRecord
  2
HIDDEN
 70
     0
  3
Verdeckt
 72
    65
 73
     2
 40
9.525
 49
6.349999999999999
 74
     0
 49
-3.174999999999999
 74
     0
  0
LTYPE
  5
3CDD
330
5
100
AcDbSymbolTableRecord
100
AcDbLinetypeTableRecord
  2
AM_ISO02W050
 70
     0
  3
__ __ __ __ __ __ __ __ __ __ __ __ __ __ __
 72
    65
 73
     2
 40
7.5
 49
6.0
 74
     0
 49
-1.5
 74
     0
  0
LTYPE
  5
3CDE
330
5
100
AcDbSymbolTableRecord
100
AcDbLinetypeTableRecord
  2
AM_ISO08W050
 70
     0
  3
____ . ____ . ____ . ____ . ____ . ____ . ____
 72
    65
 73
     4
 40
18.0
 49
12.0
 74
     0
 49
-1.5
 74
     0
 49
3.0
 74
     0
 49
-1.5
 74
     0
  0
LTYPE
  5
3CDF
330
5
100
AcDbSymbolTableRecord
100
AcDbLinetypeTableRecord
  2
AM_ISO09W050
 70
     0
  3
_____ . . _____ . . _____ . . ____ .. ____
 72
    65
 73
     6
 40
22.5
 49
12.0
 74
     0
 49
-1.5
 74
     0
 49
3.0
 74
     0
 49
-1.5
 74
     0
 49
3.0
 74
     0
 49
-1.5
 74
     0
  0
LTYPE
  5
3CE0
330
5
100
AcDbSymbolTableRecord
100
AcDbLinetypeTableRecord
  2
AM_ISO08W050x2
 70
     0
  3
__ . __ . __ . __ . __ . __
 72
    65
 73
     4
 40
9.0
 49
6.0
 74
     0
 49
-0.75
 74
     0
 49
1.5
 74
     0
 49
-0.75
 74
     0
  0
LTYPE
  5
3CE1
330
5
100
AcDbSymbolTableRecord
100
AcDbLinetypeTableRecord
  2
AM_ISO02W050x2
 70
     0
  3
 _ _ _ _ _ _ _ _ _ _ _ _
 72
    65
 73
     2
 40
3.75
 49
3.0
 74
     0
 49
-0.75
 74
     0
  0
LTYPE
  5
45F6
330
5
100
AcDbSymbolTableRecord
100
AcDbLinetypeTableRecord
  2
CENTER2
 70
     0
  3
Center (.5x) ___ _ ___ _ ___ _ ___ _ ___ _ ___
 72
    65
 73
     4
 40
1.125
 49
0.75
 74
     0
 49
-0.125
 74
     0
 49
0.125
 74
     0
 49
-0.125
 74
     0
  0
LTYPE
  5
4A98
330
5
100
AcDbSymbolTableRecord
100
AcDbLinetypeTableRecord
  2
HIDDEN2
 70
     0
  3
Hidden (.5x) _ _ _ _ _ _ _ _ _ _ _ _ _ _ _ _ _
 72
    65
 73
     2
 40
0.1875
 49
0.125
 74
     0
 49
-0.0625
 74
     0
  0
LTYPE
  5
4A99
330
5
100
AcDbSymbolTableRecord
100
AcDbLinetypeTableRecord
  2
Amzigzag2
 70
     0
  3
/\/-/\/-/\/-/\/-/\/-/\/
 72
    65
 73
     2
 40
0.4401
 49
0.0001
 74
     4
 75
   136
340
4015
 46
0.0016
 50
0.0
 44
0.0
 45
0.0
 49
-0.4400000000000001
 74
     0
  0
ENDTAB
  0
TABLE
  2
LAYER
  5
2
102
{ACAD_XDICTIONARY
360
4023
102
}
330
0
100
AcDbSymbolTable
 70
     1
  0
LAYER
  5
10
102
{ACAD_XDICTIONARY
360
3B84
102
}
330
2
100
AcDbSymbolTableRecord
100
AcDbLayerTableRecord
  2
0
 70
     0
 62
     7
  6
Continuous
370
    -3
390
F
  0
ENDTAB
  0
TABLE
  2
STYLE
  5
3
330
0
100
AcDbSymbolTable
 70
     7
  0
STYLE
  5
11
330
3
100
AcDbSymbolTableRecord
100
AcDbTextStyleTableRecord
  2
STANDARD
 70
     0
 40
0.0
 41
1.0
 50
0.0
 71
     0
 42
2.5
  3
ISOCP.SHX
  4

  0
STYLE
  5
54
330
3
100
AcDbSymbolTableRecord
100
AcDbTextStyleTableRecord
  2

 70
     1
 40
0.0
 41
1.0
 50
0.0
 71
     0
 42
2.5
  3
ltypeshp.shx
  4

  0
STYLE
  5
5B
330
3
100
AcDbSymbolTableRecord
100
AcDbTextStyleTableRecord
  2
ACDINTS
 70
     0
 40
1.0
 41
1.0
 50
0.0
 71
     0
 42
2.5
  3
isocp.shx
  4

  0
STYLE
  5
67
330
3
100
AcDbSymbolTableRecord
100
AcDbTextStyleTableRecord
  2
ACDINGDT
 70
     0
 40
0.0
 41
1.0
 50
0.0
 71
     0
 42
2.5
  3
amgdt.shx
  4

  0
STYLE
  5
343
330
3
100
AcDbSymbolTableRecord
100
AcDbTextStyleTableRecord
  2
ACANSTS
 70
     0
 40
1.0
 41
1.0
 50
0.0
 71
     0
 42
0.2
  3
romans.shx
  4

  0
STYLE
  5
344
330
3
100
AcDbSymbolTableRecord
100
AcDbTextStyleTableRecord
  2
ACANSGDT
 70
     0
 40
0.0
 41
1.0
 50
0.0
 71
     0
 42
0.2
  3
amgdtans.shx
  4

  0
STYLE
  5
4015
330
3
100
AcDbSymbolTableRecord
100
AcDbTextStyleTableRecord
  2

 70
     1
 40
0.0
 41
1.0
 50
0.0
 71
     0
 42
0.2
  3
genltshp.shx
  4

  0
ENDTAB
  0
TABLE
  2
VIEW
  5
6
330
0
100
AcDbSymbolTable
 70
     1
  0
ENDTAB
  0
TABLE
  2
UCS
  5
7
330
0
100
AcDbSymbolTable
 70
     0
  0
ENDTAB
  0
TABLE
  2
APPID
  5
9
330
0
100
AcDbSymbolTable
 70
    22
  0
APPID
  5
12
330
9
100
AcDbSymbolTableRecord
100
AcDbRegAppTableRecord
  2
ACAD
 70
     0
  0
APPID
  5
2C
330
9
100
AcDbSymbolTableRecord
100
AcDbRegAppTableRecord
  2
MCAD_NO_VIS
 70
     0
  0
APPID
  5
2D
330
9
100
AcDbSymbolTableRecord
100
AcDbRegAppTableRecord
  2
ACAD_TEMP_GRAPHIC
 70
     0
  0
APPID
  5
3E
330
9
100
AcDbSymbolTableRecord
100
AcDbRegAppTableRecord
  2
ACATTRIBSERVICES
 70
     0
  0
APPID
  5
3A3E
330
9
100
AcDbSymbolTableRecord
100
AcDbRegAppTableRecord
  2
DCO15
 70
     0
  0
APPID
  5
3AFC
330
9
100
AcDbSymbolTableRecord
100
AcDbRegAppTableRecord
  2
ACAD_MLEADERVER
 70
     0
  0
APPID
  5
3B2C
330
9
100
AcDbSymbolTableRecord
100
AcDbRegAppTableRecord
  2
AD_DRAW
 70
     0
  0
APPID
  5
3B4B
330
9
100
AcDbSymbolTableRecord
100
AcDbRegAppTableRecord
  2
DESIGNERASSEMBLIES
 70
     0
  0
APPID
  5
3B5A
330
9
100
AcDbSymbolTableRecord
100
AcDbRegAppTableRecord
  2
ACADM_DIM_EDIT
 70
     0
  0
APPID
  5
3B5B
330
9
100
AcDbSymbolTableRecord
100
AcDbRegAppTableRecord
  2
AMDT_DM_ADJ
 70
     0
  0
APPID
  5
3B76
330
9
100
AcDbSymbolTableRecord
100
AcDbRegAppTableRecord
  2
ACAD_EXEMPT_FROM_CAD_STANDARDS
 70
     0
  0
APPID
  5
3BA8
330
9
100
AcDbSymbolTableRecord
100
AcDbRegAppTableRecord
  2
GENIUS_GENODEF_13
 70
     0
  0
APPID
  5
3BA9
330
9
100
AcDbSymbolTableRecord
100
AcDbRegAppTableRecord
  2
GENIUS_GENOBJ-N-FIL_13
 70
     0
  0
APPID
  5
3CF0
330
9
100
AcDbSymbolTableRecord
100
AcDbRegAppTableRecord
  2
ACAD_DSTYLE_DIMJOGGED_JOGANGLE_SYMBOL
 70
     0
  0
APPID
  5
3CF1
330
9
100
AcDbSymbolTableRecord
100
AcDbRegAppTableRecord
  2
ACAD_DSTYLE_DIM_LINETYPE
 70
     0
  0
APPID
  5
3CF2
330
9
100
AcDbSymbolTableRecord
100
AcDbRegAppTableRecord
  2
ACAD_DSTYLE_DIM_EXT1_LINETYPE
 70
     0
  0
APPID
  5
3CF3
330
9
100
AcDbSymbolTableRecord
100
AcDbRegAppTableRecord
  2
ACAD_DSTYLE_DIM_EXT2_LINETYPE
 70
     0
  0
APPID
  5
3F8E
330
9
100
AcDbSymbolTableRecord
100
AcDbRegAppTableRecord
  2
ACAD_DSTYLE_DIMBREAK
 70
     0
  0
APPID
  5
3F8F
330
9
100
AcDbSymbolTableRecord
100
AcDbRegAppTableRecord
  2
ACAD_DSTYLE_DIMJAG
 70
     0
  0
APPID
  5
45F7
330
9
100
AcDbSymbolTableRecord
100
AcDbRegAppTableRecord
  2
GENIUS_GENREC_14
 70
     0
  0
APPID
  5
45F8
330
9
100
AcDbSymbolTableRecord
100
AcDbRegAppTableRecord
  2
GENIUS_GENOBJ-N-REC_13
 70
     0
  0
APPID
  5
535B
330
9
100
AcDbSymbolTableRecord
100
AcDbRegAppTableRecord
  2
ACAD_PSEXT
 70
     0
  0
ENDTAB
  0
TABLE
  2
DIMSTYLE
  5
A
330
0
100
AcDbSymbolTable
 70
    15
100
AcDbDimStyleTable
 71
     1
340
6F
  0
DIMSTYLE
105
6F
102
{ACAD_REACTORS
330
5443
102
}
330
A
100
AcDbSymbolTableRecord
100
AcDbDimStyleTableRecord
  2
AM_DIN
 70
     0
  4
"
 41
3.5
 42
1.0
 43
10.0
 44
1.0
 47
0.1
 48
0.1
 73
     0
 74
     0
 77
     1
 78
     8
 79
     2
140
3.5
141
0.0
143
0.0393701
146
0.71
147
1.5
172
     1
176
   256
177
   256
178
   140
271
     2
272
     3
274
     4
283
     0
284
     8
340
11
371
    -1
372
    -1
1001
ACAD_DSTYLE_DIMJOGGED_JOGANGLE_SYMBOL
1070
   384
1040
1.570796326794896
1001
ACAD_DSTYLE_DIM_LINETYPE
1070
   380
1005
14
1001
ACAD_DSTYLE_DIM_EXT1_LINETYPE
1070
   381
1005
14
1001
ACAD_DSTYLE_DIM_EXT2_LINETYPE
1070
   382
1005
14
  0
DIMSTYLE
105
70
330
A
100
AcDbSymbolTableRecord
100
AcDbDimStyleTableRecord
  2
AM_DIN$3
 70
     0
  4
"
 41
3.5
 42
1.0
 43
10.0
 44
1.0
 47
0.1
 48
0.1
 73
     0
 77
     1
 78
     8
 79
     2
140
3.5
141
0.0
143
0.0393701
146
0.71
147
1.5
176
   256
177
   256
178
   140
271
     2
272
     3
274
     4
283
     0
284
     8
288
     1
289
     0
340
11
371
    -1
372
    -1
1001
ACAD_DSTYLE_DIMJOGGED_JOGANGLE_SYMBOL
1070
   384
1040
1.570796326794896
1001
ACAD_DSTYLE_DIM_LINETYPE
1070
   380
1005
14
1001
ACAD_DSTYLE_DIM_EXT1_LINETYPE
1070
   381
1005
14
1001
ACAD_DSTYLE_DIM_EXT2_LINETYPE
1070
   382
1005
14
  0
DIMSTYLE
105
71
330
A
100
AcDbSymbolTableRecord
100
AcDbDimStyleTableRecord
  2
AM_DIN$4
 70
     0
  4
"
 41
3.5
 42
1.0
 43
10.0
 44
1.0
 47
0.1
 48
0.1
 73
     0
 74
     0
 77
     1
 78
     8
 79
     2
140
3.5
141
0.0
143
0.0393701
146
0.71
147
1.5
172
     1
176
   256
177
   256
178
   140
271
     2
272
     3
274
     4
283
     0
284
     8
340
11
371
    -1
372
    -1
1001
ACAD_DSTYLE_DIMJOGGED_JOGANGLE_SYMBOL
1070
   384
1040
1.570796326794896
1001
ACAD_DSTYLE_DIM_LINETYPE
1070
   380
1005
14
1001
ACAD_DSTYLE_DIM_EXT1_LINETYPE
1070
   381
1005
14
1001
ACAD_DSTYLE_DIM_EXT2_LINETYPE
1070
   382
1005
14
  0
DIMSTYLE
105
72
330
A
100
AcDbSymbolTableRecord
100
AcDbDimStyleTableRecord
  2
AM_DIN$6
 70
     0
  4
"
 41
3.5
 42
1.0
 43
10.0
 44
1.0
 47
0.1
 48
0.1
 73
     0
 74
     0
 78
     8
 79
     2
140
3.5
141
0.0
143
0.0393701
146
0.71
147
1.5
172
     1
176
   256
177
   256
178
   140
271
     2
272
     3
274
     4
283
     0
284
     8
340
11
371
    -1
372
    -1
1001
ACAD_DSTYLE_DIMJOGGED_JOGANGLE_SYMBOL
1070
   384
1040
1.570796326794896
1001
ACAD_DSTYLE_DIM_LINETYPE
1070
   380
1005
14
1001
ACAD_DSTYLE_DIM_EXT1_LINETYPE
1070
   381
1005
14
1001
ACAD_DSTYLE_DIM_EXT2_LINETYPE
1070
   382
1005
14
  0
DIMSTYLE
105
73
330
A
100
AcDbSymbolTableRecord
100
AcDbDimStyleTableRecord
  2
AM_DIN$7
 70
     0
  4
"
 41
3.5
 42
1.0
 43
10.0
 44
1.0
 47
0.1
 48
0.1
 73
     0
 74
     0
 77
     1
 78
     8
 79
     2
140
3.5
141
0.0
143
0.0393701
146
0.71
147
1.5
172
     1
176
   256
177
   256
178
   140
271
     2
272
     3
274
     4
283
     0
284
     8
340
11
371
    -1
372
    -1
1001
ACAD_DSTYLE_DIMJOGGED_JOGANGLE_SYMBOL
1070
   384
1040
1.570796326794896
1001
ACAD_DSTYLE_DIM_LINETYPE
1070
   380
1005
14
1001
ACAD_DSTYLE_DIM_EXT1_LINETYPE
1070
   381
1005
14
1001
ACAD_DSTYLE_DIM_EXT2_LINETYPE
1070
   382
1005
14
  0
DIMSTYLE
105
74
330
A
100
AcDbSymbolTableRecord
100
AcDbDimStyleTableRecord
  2
AM_DIN$SF
 70
     0
  4
"
 41
3.5
 42
1.0
 43
10.0
 44
1.0
 47
0.1
 48
0.1
 73
     0
 74
     0
 75
     1
 76
     1
 77
     1
 78
     8
 79
     2
140
3.5
141
0.0
143
0.0393701
146
0.71
147
1.5
172
     1
176
   256
177
   256
178
   140
271
     2
272
     3
274
     4
283
     0
284
     8
340
11
371
    -1
372
    -1
1001
ACAD_DSTYLE_DIMJOGGED_JOGANGLE_SYMBOL
1070
   384
1040
1.570796326794896
1001
ACAD_DSTYLE_DIM_LINETYPE
1070
   380
1005
14
1001
ACAD_DSTYLE_DIM_EXT1_LINETYPE
1070
   381
1005
14
1001
ACAD_DSTYLE_DIM_EXT2_LINETYPE
1070
   382
1005
14
  0
DIMSTYLE
105
79
330
A
100
AcDbSymbolTableRecord
100
AcDbDimStyleTableRecord
  2
AM_DIN$SH
 70
     0
  4
"
 41
3.5
 42
1.0
 43
10.0
 44
1.0
 47
0.1
 48
0.1
 73
     0
 74
     0
 75
     1
 76
     1
 77
     1
 78
     8
 79
     2
140
3.5
141
0.0
143
0.0393701
144
2.0
146
0.71
147
1.5
172
     1
173
     1
176
   256
177
   256
178
   140
271
     2
272
     3
274
     4
283
     0
284
     8
340
11
343
75
371
    -1
372
    -1
1001
ACAD_DSTYLE_DIMJOGGED_JOGANGLE_SYMBOL
1070
   384
1040
1.570796326794896
1001
ACAD_DSTYLE_DIM_LINETYPE
1070
   380
1005
14
1001
ACAD_DSTYLE_DIM_EXT1_LINETYPE
1070
   381
1005
14
1001
ACAD_DSTYLE_DIM_EXT2_LINETYPE
1070
   382
1005
14
  0
DIMSTYLE
105
92
330
A
100
AcDbSymbolTableRecord
100
AcDbDimStyleTableRecord
  2
STANDARD
 70
     0
279
     2
340
11
  0
DIMSTYLE
105
345
330
A
100
AcDbSymbolTableRecord
100
AcDbDimStyleTableRecord
  2
AM_ANSI
 70
     0
  4
mm
 41
0.1
 42
0.05
 43
0.5
 44
0.1
 47
0.1
 48
0.1
 78
     7
 79
     2
140
0.12
141
0.0
146
0.71
147
0.06
176
   256
177
   256
178
     2
274
     4
284
     7
340
11
371
    -1
372
    -1
  0
DIMSTYLE
105
346
330
A
100
AcDbSymbolTableRecord
100
AcDbDimStyleTableRecord
  2
AM_ANSI$3
 70
     0
  4
mm
 41
0.1
 42
0.05
 43
0.5
 44
0.1
 47
0.1
 48
0.1
 78
     7
 79
     2
140
0.12
141
0.0
146
0.71
147
0.06
176
   256
177
   256
178
     2
274
     4
284
     7
288
     1
289
     0
340
11
371
    -1
372
    -1
  0
DIMSTYLE
105
347
330
A
100
AcDbSymbolTableRecord
100
AcDbDimStyleTableRecord
  2
AM_ANSI$4
 70
     0
  4
mm
 41
0.1
 42
0.05
 43
0.5
 44
0.1
 47
0.1
 48
0.1
 78
     7
 79
     2
140
0.12
141
0.0
146
0.71
147
0.06
176
   256
177
   256
178
     2
274
     4
284
     7
288
     1
289
     0
340
11
371
    -1
372
    -1
  0
DIMSTYLE
105
348
330
A
100
AcDbSymbolTableRecord
100
AcDbDimStyleTableRecord
  2
AM_ANSI$7
 70
     0
  4
mm
 41
0.1
 42
0.05
 43
0.5
 44
0.1
 47
0.1
 48
0.1
 78
     7
 79
     2
140
0.24
141
0.0
146
0.71
147
0.06
176
   256
177
   256
178
     2
274
     4
284
     7
340
11
371
    -1
372
    -1
  0
DIMSTYLE
105
349
330
A
100
AcDbSymbolTableRecord
100
AcDbDimStyleTableRecord
  2
AM_ANSI$SF
 70
     0
  4
mm
 41
0.1
 42
0.05
 43
0.5
 44
0.1
 47
0.1
 48
0.1
 75
     1
 76
     1
 78
     7
 79
     2
140
0.12
141
0.0
146
0.71
147
0.06
176
   256
177
   256
178
     2
274
     4
284
     7
340
11
371
    -1
372
    -1
  0
DIMSTYLE
105
34A
330
A
100
AcDbSymbolTableRecord
100
AcDbDimStyleTableRecord
  2
AM_ANSI$SH
 70
     0
  4
mm
 41
0.1
 42
0.05
 43
0.5
 44
0.1
 47
0.1
 48
0.1
 75
     1
 76
     1
 78
     7
 79
     2
140
0.12
141
0.0
146
0.71
147
0.06
173
     1
176
   256
177
   256
178
     2
274
     4
284
     7
340
11
343
75
371
    -1
372
    -1
  0
ENDTAB
  0
TABLE
  2
BLOCK_RECORD
  5
1
330
0
100
AcDbSymbolTable
 70
    30
  0
BLOCK_RECORD
  5
1F
102
{ACAD_XDICTIONARY
360
81
102
}
330
1
100
AcDbSymbolTableRecord
100
AcDbBlockTableRecord
  2
*Model_Space
340
22
  0
BLOCK_RECORD
  5
1B
330
1
100
AcDbSymbolTableRecord
100
AcDbBlockTableRecord
  2
*Paper_Space
340
1E
  0
BLOCK_RECORD
  5
23
330
1
100
AcDbSymbolTableRecord
100
AcDbBlockTableRecord
  2
*Paper_Space0
340
26
  0
BLOCK_RECORD
  5
75
330
1
100
AcDbSymbolTableRecord
100
AcDbBlockTableRecord
  2
GENAXEH
340
0
  0
BLOCK_RECORD
  5
3F9A
330
1
100
AcDbSymbolTableRecord
100
AcDbBlockTableRecord
  2
AI9-BLK55
340
0
  0
BLOCK_RECORD
  5
3F9F
330
1
100
AcDbSymbolTableRecord
100
AcDbBlockTableRecord
  2
AI9-BLK56
340
0
102
{BLKREFS
331
3F9D
102
}
  0
BLOCK_RECORD
  5
3FA3
330
1
100
AcDbSymbolTableRecord
100
AcDbBlockTableRecord
  2
AI9-BLK57
340
0
102
{BLKREFS
331
3FA1
102
}
  0
BLOCK_RECORD
  5
3FA9
330
1
100
AcDbSymbolTableRecord
100
AcDbBlockTableRecord
  2
AI9-BLK58
340
0
102
{BLKREFS
331
3FA7
102
}
  0
BLOCK_RECORD
  5
3FAE
330
1
100
AcDbSymbolTableRecord
100
AcDbBlockTableRecord
  2
AI9-BLK59
340
0
102
{BLKREFS
331
3FAC
102
}
  0
BLOCK_RECORD
  5
3FB3
330
1
100
AcDbSymbolTableRecord
100
AcDbBlockTableRecord
  2
AI9-BLK60
340
0
102
{BLKREFS
331
3FB1
102
}
  0
BLOCK_RECORD
  5
3FB9
330
1
100
AcDbSymbolTableRecord
100
AcDbBlockTableRecord
  2
AI9-BLK61
340
0
102
{BLKREFS
331
3FB7
102
}
  0
BLOCK_RECORD
  5
3FBF
330
1
100
AcDbSymbolTableRecord
100
AcDbBlockTableRecord
  2
AI9-BLK62
340
0
102
{BLKREFS
331
3FB0
102
}
  0
BLOCK_RECORD
  5
3FC4
330
1
100
AcDbSymbolTableRecord
100
AcDbBlockTableRecord
  2
AI9-BLK63
340
0
102
{BLKREFS
331
3FC2
102
}
  0
BLOCK_RECORD
  5
3FC8
330
1
100
AcDbSymbolTableRecord
100
AcDbBlockTableRecord
  2
AI9-BLK64
340
0
102
{BLKREFS
331
3FC6
102
}
  0
BLOCK_RECORD
  5
3FCC
330
1
100
AcDbSymbolTableRecord
100
AcDbBlockTableRecord
  2
AI9-BLK65
340
0
102
{BLKREFS
331
3FC1
102
}
  0
BLOCK_RECORD
  5
3FD0
330
1
100
AcDbSymbolTableRecord
100
AcDbBlockTableRecord
  2
AI9-BLK66
340
0
102
{BLKREFS
331
3FAB
102
}
  0
BLOCK_RECORD
  5
3FD5
330
1
100
AcDbSymbolTableRecord
100
AcDbBlockTableRecord
  2
AI9-BLK67
340
0
102
{BLKREFS
331
3FD3
102
}
  0
BLOCK_RECORD
  5
3FDB
330
1
100
AcDbSymbolTableRecord
100
AcDbBlockTableRecord
  2
AI9-BLK68
340
0
102
{BLKREFS
331
3FD9
102
}
  0
BLOCK_RECORD
  5
3FE1
330
1
100
AcDbSymbolTableRecord
100
AcDbBlockTableRecord
  2
AI9-BLK69
340
0
102
{BLKREFS
331
3FD2
102
}
  0
BLOCK_RECORD
  5
3FE6
330
1
100
AcDbSymbolTableRecord
100
AcDbBlockTableRecord
  2
AI9-BLK70
340
0
102
{BLKREFS
331
3FE4
102
}
  0
BLOCK_RECORD
  5
3FEA
330
1
100
AcDbSymbolTableRecord
100
AcDbBlockTableRecord
  2
AI9-BLK71
340
0
102
{BLKREFS
331
3FE8
102
}
  0
BLOCK_RECORD
  5
3FEE
330
1
100
AcDbSymbolTableRecord
100
AcDbBlockTableRecord
  2
AI9-BLK72
340
0
102
{BLKREFS
331
3FE3
102
}
  0
BLOCK_RECORD
  5
3FF2
330
1
100
AcDbSymbolTableRecord
100
AcDbBlockTableRecord
  2
AI9-BLK73
340
0
102
{BLKREFS
331
3FA6
102
}
  0
BLOCK_RECORD
  5
3FF7
330
1
100
AcDbSymbolTableRecord
100
AcDbBlockTableRecord
  2
AI9-BLK74
340
0
102
{BLKREFS
331
3FF5
102
}
  0
BLOCK_RECORD
  5
3FFC
330
1
100
AcDbSymbolTableRecord
100
AcDbBlockTableRecord
  2
AI9-BLK75
340
0
102
{BLKREFS
331
3FFA
102
}
  0
BLOCK_RECORD
  5
4000
330
1
100
AcDbSymbolTableRecord
100
AcDbBlockTableRecord
  2
AI9-BLK76
340
0
102
{BLKREFS
331
3FA5
102
}
  0
BLOCK_RECORD
  5
4005
330
1
100
AcDbSymbolTableRecord
100
AcDbBlockTableRecord
  2
AI9-BLK77
340
0
102
{BLKREFS
331
4003
102
}
  0
BLOCK_RECORD
  5
400A
330
1
100
AcDbSymbolTableRecord
100
AcDbBlockTableRecord
  2
AI9-BLK78
340
0
102
{BLKREFS
331
4008
102
}
  0
BLOCK_RECORD
  5
400E
330
1
100
AcDbSymbolTableRecord
100
AcDbBlockTableRecord
  2
AI9-BLK79
340
0
102
{BLKREFS
331
3F9C
102
}
  0
ENDTAB
  0
ENDSEC
  0
SECTION
  2
BLOCKS
  0
BLOCK
  5
20
330
1F
100
AcDbEntity
  8
0
100
AcDbBlockBegin
  2
*Model_Space
 70
     0
 10
0.0
 20
0.0
 30
0.0
  3
*Model_Space
  1

  0
ENDBLK
  5
21
330
1F
100
AcDbEntity
  8
0
100
AcDbBlockEnd
  0
BLOCK
  5
1C
330
1B
100
AcDbEntity
 67
     1
  8
0
100
AcDbBlockBegin
  2
*Paper_Space
 70
     0
 10
0.0
 20
0.0
 30
0.0
  3
*Paper_Space
  1

  0
ENDBLK
  5
1D
330
1B
100
AcDbEntity
 67
     1
  8
0
100
AcDbBlockEnd
  0
BLOCK
  5
24
330
23
100
AcDbEntity
 67
     1
  8
0
100
AcDbBlockBegin
  2
*Paper_Space0
 70
     0
 10
0.0
 20
0.0
 30
0.0
  3
*Paper_Space0
  1

  0
ENDBLK
  5
25
330
23
100
AcDbEntity
 67
     1
  8
0
100
AcDbBlockEnd
  0
BLOCK
  5
77
330
75
100
AcDbEntity
  8
0
100
AcDbBlockBegin
  2
GENAXEH
 70
     0
 10
0.0
 20
0.0
 30
0.0
  3
GENAXEH
  1

  0
LINE
  5
76
330
75
100
AcDbEntity
  8
0
100
AcDbLine
 10
-1.0
 20
0.0
 30
0.0
 11
1.0
 21
0.0
 31
0.0
  0
ENDBLK
  5
78
330
75
100
AcDbEntity
  8
0
100
AcDbBlockEnd
  0
BLOCK
  5
3F9B
330
3F9A
100
AcDbEntity
  8
0
 62
     7
100
AcDbBlockBegin
  2
AI9-BLK55
 70
     0
 10
0.0
 20
0.0
 30
0.0
  3
AI9-BLK55
  1

  0
INSERT
  5
3F9C
330
3F9A
100
AcDbEntity
  8
0
 62
     7
100
AcDbBlockReference
  2
AI9-BLK79
 10
-72.99537217881944
 20
0.18603515625
 30
0.0
  0
INSERT
  5
3F9D
330
3F9A
100
AcDbEntity
  8
0
 62
     7
100
AcDbBlockReference
  2
AI9-BLK56
 10
0.0
 20
0.0
 30
0.0
  0
ENDBLK
  5
3F9E
330
3F9A
100
AcDbEntity
  8
0
100
AcDbBlockEnd
  0
BLOCK
  5
3FA0
330
3F9F
100
AcDbEntity
  8
0
 62
     7
100
AcDbBlockBegin
  2
AI9-BLK56
 70
     0
 10
0.0
 20
0.0
 30
0.0
  3
AI9-BLK56
  1

  0
INSERT
  5
3FA1
330
3F9F
100
AcDbEntity
  8
0
 62
     7
100
AcDbBlockReference
  2
AI9-BLK57
 10
0.0
 20
0.0
 30
0.0
  0
ENDBLK
  5
3FA2
330
3F9F
100
AcDbEntity
  8
0
100
AcDbBlockEnd
  0
BLOCK
  5
3FA4
330
3FA3
100
AcDbEntity
  8
0
 62
     7
100
AcDbBlockBegin
  2
AI9-BLK57
 70
     0
 10
0.0
 20
0.0
 30
0.0
  3
AI9-BLK57
  1

  0
INSERT
  5
3FA5
330
3FA3
100
AcDbEntity
  8
0
 62
     7
100
AcDbBlockReference
  2
AI9-BLK76
 10
307.8806043836805
 20
110.2582139756944
 30
0.0
  0
INSERT
  5
3FA6
330
3FA3
100
AcDbEntity
  8
0
 62
     7
100
AcDbBlockReference
  2
AI9-BLK73
 10
273.4551432291667
 20
-0.2845648871527778
 30
0.0
  0
INSERT
  5
3FA7
330
3FA3
100
AcDbEntity
  8
0
 62
     7
100
AcDbBlockReference
  2
AI9-BLK58
 10
0.0
 20
0.0
 30
0.0
  0
ENDBLK
  5
3FA8
330
3FA3
100
AcDbEntity
  8
0
100
AcDbBlockEnd
  0
BLOCK
  5
3FAA
330
3FA9
100
AcDbEntity
  8
0
 62
     7
100
AcDbBlockBegin
  2
AI9-BLK58
 70
     0
 10
0.0
 20
0.0
 30
0.0
  3
AI9-BLK58
  1

  0
INSERT
  5
3FAB
330
3FA9
100
AcDbEntity
  8
0
 62
     7
100
AcDbBlockReference
  2
AI9-BLK66
 10
0.0027560763888889
 20
100.1558159722222
 30
0.0
  0
INSERT
  5
3FAC
330
3FA9
100
AcDbEntity
  8
0
 62
     7
100
AcDbBlockReference
  2
AI9-BLK59
 10
-0.0013780381944444
 20
-100.155126953125
 30
0.0
  0
ENDBLK
  5
3FAD
330
3FA9
100
AcDbEntity
  8
0
100
AcDbBlockEnd
  0
BLOCK
  5
3FAF
330
3FAE
100
AcDbEntity
  8
0
 62
     7
100
AcDbBlockBegin
  2
AI9-BLK59
 70
     0
 10
0.0
 20
0.0
 30
0.0
  3
AI9-BLK59
  1

  0
INSERT
  5
3FB0
330
3FAE
100
AcDbEntity
  8
0
 62
     7
100
AcDbBlockReference
  2
AI9-BLK62
 10
-133.1115993923611
 20
37.9759765625
 30
0.0
  0
INSERT
  5
3FB1
330
3FAE
100
AcDbEntity
  8
0
 62
     7
100
AcDbBlockReference
  2
AI9-BLK60
 10
0.0
 20
0.0
 30
0.0
  0
ENDBLK
  5
3FB2
330
3FAE
100
AcDbEntity
  8
0
100
AcDbBlockEnd
  0
BLOCK
  5
3FB4
330
3FB3
100
AcDbEntity
  8
0
 62
     7
100
AcDbBlockBegin
  2
AI9-BLK60
 70
     0
 10
0.0
 20
0.0
 30
0.0
  3
AI9-BLK60
  1

  0
SPLINE
  5
3FB5
330
3FB3
100
AcDbEntity
  8
0
 62
     7
100
AcDbSpline
210
0.0
220
0.0
230
1.0
 70
     8
 71
     3
 72
    20
 73
    16
 74
     0
 42
0.0000000001
 43
0.0000000001
 40
0.0
 40
0.0
 40
0.0
 40
0.0
 40
1.0
 40
1.0
 40
1.0
 40
2.0
 40
2.0
 40
2.0
 40
3.0
 40
3.0
 40
3.0
 40
4.0
 40
4.0
 40
4.0
 40
5.0
 40
5.0
 40
5.0
 40
5.0
 10
358.030859375
 20
100.1558159722222
 30
0.0
 10
358.030859375
 20
2.692686631944444
 30
0.0
 10
358.0088107638888
 20
-11.97790798611111
 30
0.0
 10
358.0088107638888
 20
-94.78422309027775
 30
0.0
 10
358.0088107638888
 20
-97.36528862847222
 30
0.0
 10
358.030859375
 20
-99.97942708333333
 30
0.0
 10
353.8995008680555
 20
-99.97942708333333
 30
0.0
 10
353.8995008680555
 20
-99.97942708333333
 30
0.0
 10
259.0298394097222
 20
-99.84437934027777
 30
0.0
 10
259.0298394097222
 20
-99.84437934027777
 30
0.0
 10
228.7915473090277
 20
-99.84437934027777
 30
0.0
 10
193.2243815104166
 20
-71.42234157986111
 30
0.0
 10
189.2074001736111
 20
-34.28834635416666
 30
0.0
 10
183.3714084201388
 20
19.6701171875
 30
0.0
 10
182.8133029513888
 20
41.27775607638888
 30
0.0
 10
182.8133029513888
 20
100.1558159722222
 30
0.0
  0
SPLINE
  5
3FB6
330
3FB3
100
AcDbEntity
  8
0
 62
     7
100
AcDbSpline
210
0.0
220
0.0
230
1.0
 70
     8
 71
     3
 72
    11
 73
     7
 74
     0
 42
0.0000000001
 43
0.0000000001
 40
0.0
 40
0.0
 40
0.0
 40
0.0
 40
1.0
 40
1.0
 40
1.0
 40
2.0
 40
2.0
 40
2.0
 40
2.0
 10
217.0575520833333
 20
-83.72271050347221
 30
0.0
 10
217.0575520833333
 20
-83.72271050347221
 30
0.0
 10
-191.0140082465277
 20
-81.31252170138889
 30
0.0
 10
-191.0140082465277
 20
-81.31252170138889
 30
0.0
 10
-278.76748046875
 20
-81.31252170138889
 30
0.0
 10
-358.030859375
 20
3.79236111111111
 30
0.0
 10
-358.030859375
 20
100.1558159722222
 30
0.0
  0
INSERT
  5
3FB7
330
3FB3
100
AcDbEntity
  8
0
 62
     7
100
AcDbBlockReference
  2
AI9-BLK61
 10
112.2115831163194
 20
30.98794487847222
 30
0.0
  0
ENDBLK
  5
3FB8
330
3FB3
100
AcDbEntity
  8
0
100
AcDbBlockEnd
  0
BLOCK
  5
3FBA
330
3FB9
100
AcDbEntity
  8
0
 62
     7
100
AcDbBlockBegin
  2
AI9-BLK61
 70
     0
 10
0.0
 20
0.0
 30
0.0
  3
AI9-BLK61
  1

  0
CIRCLE
  5
3FBB
330
3FB9
100
AcDbEntity
  8
0
 62
     7
100
AcDbCircle
 10
-0.0006890190972222
 20
-0.0013780381944444
 30
0.0
 40
7.496527777777776
  0
LINE
  5
3FBC
330
3FB9
100
AcDbEntity
  8
0
 62
     7
100
AcDbLine
 10
0.0020670572916667
 20
16.02245008680555
 30
0.0
 11
0.0020670572916667
 21
-16.02245008680555
 31
0.0
  0
LINE
  5
3FBD
330
3FB9
100
AcDbEntity
  8
0
 62
     7
100
AcDbLine
 10
16.02313910590277
 20
-0.0013780381944444
 30
0.0
 11
-16.02313910590277
 21
-0.0013780381944444
 31
0.0
  0
ENDBLK
  5
3FBE
330
3FB9
100
AcDbEntity
  8
0
100
AcDbBlockEnd
  0
BLOCK
  5
3FC0
330
3FBF
100
AcDbEntity
  8
0
 62
     7
100
AcDbBlockBegin
  2
AI9-BLK62
 70
     0
 10
0.0
 20
0.0
 30
0.0
  3
AI9-BLK62
  1

  0
INSERT
  5
3FC1
330
3FBF
100
AcDbEntity
  8
0
 62
     7
100
AcDbBlockReference
  2
AI9-BLK65
 10
0.0
 20
0.0
 30
0.0
  0
INSERT
  5
3FC2
330
3FBF
100
AcDbEntity
  8
0
 62
     7
100
AcDbBlockReference
  2
AI9-BLK63
 10
-0.9756510416666666
 20
1.998155381944444
 30
0.0
  0
ENDBLK
  5
3FC3
330
3FBF
100
AcDbEntity
  8
0
100
AcDbBlockEnd
  0
BLOCK
  5
3FC5
330
3FC4
100
AcDbEntity
  8
0
 62
     7
100
AcDbBlockBegin
  2
AI9-BLK63
 70
     0
 10
0.0
 20
0.0
 30
0.0
  3
AI9-BLK63
  1

  0
INSERT
  5
3FC6
330
3FC4
100
AcDbEntity
  8
0
 62
     7
100
AcDbBlockReference
  2
AI9-BLK64
 10
0.0
 20
0.0
 30
0.0
  0
ENDBLK
  5
3FC7
330
3FC4
100
AcDbEntity
  8
0
100
AcDbBlockEnd
  0
BLOCK
  5
3FC9
330
3FC8
100
AcDbEntity
  8
0
 62
     7
100
AcDbBlockBegin
  2
AI9-BLK64
 70
     0
 10
0.0
 20
0.0
 30
0.0
  3
AI9-BLK64
  1

  0
SPLINE
  5
3FCA
330
3FC8
100
AcDbEntity
  8
0
 62
     7
100
AcDbSpline
210
0.0
220
0.0
230
1.0
 70
     8
 71
     3
 72
    14
 73
    10
 74
     0
 42
0.0000000001
 43
0.0000000001
 40
0.0
 40
0.0
 40
0.0
 40
0.0
 40
1.0
 40
1.0
 40
1.0
 40
2.0
 40
2.0
 40
2.0
 40
3.0
 40
3.0
 40
3.0
 40
3.0
 10
172.4614800347222
 20
60.18168402777777
 30
0.0
 10
172.4614800347222
 20
-4.869986979166665
 30
0.0
 10
122.1079644097222
 20
-60.00529513888888
 30
0.0
 10
46.71136067708332
 20
-60.00529513888888
 30
0.0
 10
8.787749565972221
 20
-60.00529513888888
 30
0.0
 10
-10.45241970486111
 20
-59.87162543402777
 30
0.0
 10
-53.12199435763888
 20
-59.87162543402777
 30
0.0
 10
-116.6784939236111
 20
-59.87162543402777
 30
0.0
 10
-172.4614800347222
 20
-9.720681423611109
 30
0.0
 10
-172.4614800347222
 20
60.18168402777777
 30
0.0
  0
ENDBLK
  5
3FCB
330
3FC8
100
AcDbEntity
  8
0
100
AcDbBlockEnd
  0
BLOCK
  5
3FCD
330
3FCC
100
AcDbEntity
  8
0
 62
     7
100
AcDbBlockBegin
  2
AI9-BLK65
 70
     0
 10
0.0
 20
0.0
 30
0.0
  3
AI9-BLK65
  1

  0
SPLINE
  5
3FCE
330
3FCC
100
AcDbEntity
  8
0
 62
     7
100
AcDbSpline
210
0.0
220
0.0
230
1.0
 70
     8
 71
     3
 72
    14
 73
    10
 74
     0
 42
0.0000000001
 43
0.0000000001
 40
0.0
 40
0.0
 40
0.0
 40
0.0
 40
1.0
 40
1.0
 40
1.0
 40
2.0
 40
2.0
 40
2.0
 40
3.0
 40
3.0
 40
3.0
 40
3.0
 10
177.3493815104166
 20
62.17983940972222
 30
0.0
 10
177.3493815104166
 20
-5.729882812499999
 30
0.0
 10
121.3982747395833
 20
-62.00345052083332
 30
0.0
 10
50.13578559027777
 20
-62.00345052083332
 30
0.0
 10
12.21217447916666
 20
-62.00345052083332
 30
0.0
 10
-11.57138671875
 20
-62.00345052083332
 30
0.0
 10
-51.69985894097222
 20
-62.00345052083332
 30
0.0
 10
-126.2324327256944
 20
-62.00345052083332
 30
0.0
 10
-177.3493815104166
 20
-3.312803819444444
 30
0.0
 10
-177.3493815104166
 20
62.17983940972222
 30
0.0
  0
ENDBLK
  5
3FCF
330
3FCC
100
AcDbEntity
  8
0
100
AcDbBlockEnd
  0
BLOCK
  5
3FD1
330
3FD0
100
AcDbEntity
  8
0
 62
     7
100
AcDbBlockBegin
  2
AI9-BLK66
 70
     0
 10
0.0
 20
0.0
 30
0.0
  3
AI9-BLK66
  1

  0
INSERT
  5
3FD2
330
3FD0
100
AcDbEntity
  8
0
 62
     7
100
AcDbBlockReference
  2
AI9-BLK69
 10
-133.1122884114583
 20
-37.97459852430555
 30
0.0
  0
INSERT
  5
3FD3
330
3FD0
100
AcDbEntity
  8
0
 62
     7
100
AcDbBlockReference
  2
AI9-BLK67
 10
0.0
 20
0.0
 30
0.0
  0
ENDBLK
  5
3FD4
330
3FD0
100
AcDbEntity
  8
0
100
AcDbBlockEnd
  0
BLOCK
  5
3FD6
330
3FD5
100
AcDbEntity
  8
0
 62
     7
100
AcDbBlockBegin
  2
AI9-BLK67
 70
     0
 10
0.0
 20
0.0
 30
0.0
  3
AI9-BLK67
  1

  0
SPLINE
  5
3FD7
330
3FD5
100
AcDbEntity
  8
0
 62
     7
100
AcDbSpline
210
0.0
220
0.0
230
1.0
 70
     8
 71
     3
 72
    20
 73
    16
 74
     0
 42
0.0000000001
 43
0.0000000001
 40
0.0
 40
0.0
 40
0.0
 40
0.0
 40
1.0
 40
1.0
 40
1.0
 40
2.0
 40
2.0
 40
2.0
 40
3.0
 40
3.0
 40
3.0
 40
4.0
 40
4.0
 40
4.0
 40
5.0
 40
5.0
 40
5.0
 40
5.0
 10
358.0294813368055
 20
-100.155126953125
 30
0.0
 10
358.0294813368055
 20
-2.691997612847222
 30
0.0
 10
358.0074327256944
 20
11.97721896701389
 30
0.0
 10
358.0074327256944
 20
94.78353407118055
 30
0.0
 10
358.0074327256944
 20
97.36735568576388
 30
0.0
 10
358.0294813368055
 20
99.9787380642361
 30
0.0
 10
353.8995008680555
 20
99.9787380642361
 30
0.0
 10
353.8995008680555
 20
99.9787380642361
 30
0.0
 10
259.0284613715277
 20
99.84644639756943
 30
0.0
 10
259.0284613715277
 20
99.84644639756943
 30
0.0
 10
228.7929253472222
 20
99.84644639756943
 30
0.0
 10
193.2243815104166
 20
71.42165256076388
 30
0.0
 10
189.2087782118055
 20
34.28903537326389
 30
0.0
 10
183.3727864583333
 20
-19.66942816840277
 30
0.0
 10
182.8119249131944
 20
-41.27568901909722
 30
0.0
 10
182.8119249131944
 20
-100.155126953125
 30
0.0
  0
SPLINE
  5
3FD8
330
3FD5
100
AcDbEntity
  8
0
 62
     7
100
AcDbSpline
210
0.0
220
0.0
230
1.0
 70
     8
 71
     3
 72
    11
 73
     7
 74
     0
 42
0.0000000001
 43
0.0000000001
 40
0.0
 40
0.0
 40
0.0
 40
0.0
 40
1.0
 40
1.0
 40
1.0
 40
2.0
 40
2.0
 40
2.0
 40
2.0
 10
217.0561740451389
 20
83.72339952256943
 30
0.0
 10
217.0561740451389
 20
83.72339952256943
 30
0.0
 10
-191.0126302083333
 20
81.3132107204861
 30
0.0
 10
-191.0126302083333
 20
81.3132107204861
 30
0.0
 10
-278.7661024305555
 20
81.3132107204861
 30
0.0
 10
-358.0294813368055
 20
-3.791672092013888
 30
0.0
 10
-358.0294813368055
 20
-100.155126953125
 30
0.0
  0
INSERT
  5
3FD9
330
3FD5
100
AcDbEntity
  8
0
 62
     7
100
AcDbBlockReference
  2
AI9-BLK68
 10
112.210205078125
 20
-30.98587782118055
 30
0.0
  0
ENDBLK
  5
3FDA
330
3FD5
100
AcDbEntity
  8
0
100
AcDbBlockEnd
  0
BLOCK
  5
3FDC
330
3FDB
100
AcDbEntity
  8
0
 62
     7
100
AcDbBlockBegin
  2
AI9-BLK68
 70
     0
 10
0.0
 20
0.0
 30
0.0
  3
AI9-BLK68
  1

  0
CIRCLE
  5
3FDD
330
3FDB
100
AcDbEntity
  8
0
 62
     7
100
AcDbCircle
 10
0.0006890190972222
 20
0.0
 30
0.0
 40
7.496527777777776
  0
LINE
  5
3FDE
330
3FDB
100
AcDbEntity
  8
0
 62
     7
100
AcDbLine
 10
0.0020670572916667
 20
-16.02245008680555
 30
0.0
 11
0.0020670572916667
 21
16.02245008680555
 31
0.0
  0
LINE
  5
3FDF
330
3FDB
100
AcDbEntity
  8
0
 62
     7
100
AcDbLine
 10
16.02313910590277
 20
0.0
 30
0.0
 11
-16.02313910590277
 21
0.0
 31
0.0
  0
ENDBLK
  5
3FE0
330
3FDB
100
AcDbEntity
  8
0
100
AcDbBlockEnd
  0
BLOCK
  5
3FE2
330
3FE1
100
AcDbEntity
  8
0
 62
     7
100
AcDbBlockBegin
  2
AI9-BLK69
 70
     0
 10
0.0
 20
0.0
 30
0.0
  3
AI9-BLK69
  1

  0
INSERT
  5
3FE3
330
3FE1
100
AcDbEntity
  8
0
 62
     7
100
AcDbBlockReference
  2
AI9-BLK72
 10
0.0
 20
0.0
 30
0.0
  0
INSERT
  5
3FE4
330
3FE1
100
AcDbEntity
  8
0
 62
     7
100
AcDbBlockReference
  2
AI9-BLK70
 10
-0.973583984375
 20
-1.998844401041666
 30
0.0
  0
ENDBLK
  5
3FE5
330
3FE1
100
AcDbEntity
  8
0
100
AcDbBlockEnd
  0
BLOCK
  5
3FE7
330
3FE6
100
AcDbEntity
  8
0
 62
     7
100
AcDbBlockBegin
  2
AI9-BLK70
 70
     0
 10
0.0
 20
0.0
 30
0.0
  3
AI9-BLK70
  1

  0
INSERT
  5
3FE8
330
3FE6
100
AcDbEntity
  8
0
 62
     7
100
AcDbBlockReference
  2
AI9-BLK71
 10
0.0
 20
0.0
 30
0.0
  0
ENDBLK
  5
3FE9
330
3FE6
100
AcDbEntity
  8
0
100
AcDbBlockEnd
  0
BLOCK
  5
3FEB
330
3FEA
100
AcDbEntity
  8
0
 62
     7
100
AcDbBlockBegin
  2
AI9-BLK71
 70
     0
 10
0.0
 20
0.0
 30
0.0
  3
AI9-BLK71
  1

  0
SPLINE
  5
3FEC
330
3FEA
100
AcDbEntity
  8
0
 62
     7
100
AcDbSpline
210
0.0
220
0.0
230
1.0
 70
     8
 71
     3
 72
    14
 73
    10
 74
     0
 42
0.0000000001
 43
0.0000000001
 40
0.0
 40
0.0
 40
0.0
 40
0.0
 40
1.0
 40
1.0
 40
1.0
 40
2.0
 40
2.0
 40
2.0
 40
3.0
 40
3.0
 40
3.0
 40
3.0
 10
172.4614800347222
 20
-60.18168402777777
 30
0.0
 10
172.4614800347222
 20
4.869986979166665
 30
0.0
 10
122.1079644097222
 20
60.00529513888888
 30
0.0
 10
46.71136067708332
 20
60.00529513888888
 30
0.0
 10
8.786371527777777
 20
60.00529513888888
 30
0.0
 10
-10.45517578125
 20
59.87300347222221
 30
0.0
 10
-53.12337239583333
 20
59.87300347222221
 30
0.0
 10
-116.6784939236111
 20
59.87300347222221
 30
0.0
 10
-172.4614800347222
 20
9.720681423611109
 30
0.0
 10
-172.4614800347222
 20
-60.18168402777777
 30
0.0
  0
ENDBLK
  5
3FED
330
3FEA
100
AcDbEntity
  8
0
100
AcDbBlockEnd
  0
BLOCK
  5
3FEF
330
3FEE
100
AcDbEntity
  8
0
 62
     7
100
AcDbBlockBegin
  2
AI9-BLK72
 70
     0
 10
0.0
 20
0.0
 30
0.0
  3
AI9-BLK72
  1

  0
SPLINE
  5
3FF0
330
3FEE
100
AcDbEntity
  8
0
 62
     7
100
AcDbSpline
210
0.0
220
0.0
230
1.0
 70
     8
 71
     3
 72
    14
 73
    10
 74
     0
 42
0.0000000001
 43
0.0000000001
 40
0.0
 40
0.0
 40
0.0
 40
0.0
 40
1.0
 40
1.0
 40
1.0
 40
2.0
 40
2.0
 40
2.0
 40
3.0
 40
3.0
 40
3.0
 40
3.0
 10
177.3486924913194
 20
-62.18052842881943
 30
0.0
 10
177.3486924913194
 20
5.729193793402777
 30
0.0
 10
121.3989637586805
 20
62.00413953993055
 30
0.0
 10
50.13785264756943
 20
62.00413953993055
 30
0.0
 10
12.21424153645833
 20
62.00413953993055
 30
0.0
 10
-11.57069769965278
 20
62.00413953993055
 30
0.0
 10
-51.69916992187499
 20
62.00413953993055
 30
0.0
 10
-126.2331217447916
 20
62.00413953993055
 30
0.0
 10
-177.3486924913194
 20
3.312114800347222
 30
0.0
 10
-177.3486924913194
 20
-62.18052842881943
 30
0.0
  0
ENDBLK
  5
3FF1
330
3FEE
100
AcDbEntity
  8
0
100
AcDbBlockEnd
  0
BLOCK
  5
3FF3
330
3FF2
100
AcDbEntity
  8
0
 62
     7
100
AcDbBlockBegin
  2
AI9-BLK73
 70
     0
 10
0.0
 20
0.0
 30
0.0
  3
AI9-BLK73
  1

  0
LINE
  5
3FF4
330
3FF2
100
AcDbEntity
  8
0
 62
     7
100
AcDbLine
 10
-0.5677517361111111
 20
-34.53501519097222
 30
0.0
 11
-0.5677517361111111
 21
34.53501519097222
 31
0.0
  0
INSERT
  5
3FF5
330
3FF2
100
AcDbEntity
  8
0
 62
     7
100
AcDbBlockReference
  2
AI9-BLK74
 10
0.0
 20
0.2576931423611111
 30
0.0
  0
ENDBLK
  5
3FF6
330
3FF2
100
AcDbEntity
  8
0
100
AcDbBlockEnd
  0
BLOCK
  5
3FF8
330
3FF7
100
AcDbEntity
  8
0
 62
     7
100
AcDbBlockBegin
  2
AI9-BLK74
 70
     0
 10
0.0
 20
0.0
 30
0.0
  3
AI9-BLK74
  1

  0
LINE
  5
3FF9
330
3FF7
100
AcDbEntity
  8
0
 62
     7
100
AcDbLine
 10
-34.22909071180555
 20
0.0275607638888889
 30
0.0
 11
34.22909071180555
 21
0.0275607638888889
 31
0.0
  0
INSERT
  5
3FFA
330
3FF7
100
AcDbEntity
  8
0
 62
     7
100
AcDbBlockReference
  2
AI9-BLK75
 10
-1.081070963541666
 20
0.0
 30
0.0
  0
ENDBLK
  5
3FFB
330
3FF7
100
AcDbEntity
  8
0
100
AcDbBlockEnd
  0
BLOCK
  5
3FFD
330
3FFC
100
AcDbEntity
  8
0
 62
     7
100
AcDbBlockBegin
  2
AI9-BLK75
 70
     0
 10
0.0
 20
0.0
 30
0.0
  3
AI9-BLK75
  1

  0
CIRCLE
  5
3FFE
330
3FFC
100
AcDbEntity
  8
0
 62
     7
100
AcDbCircle
 10
0.0
 20
0.0
 30
0.0
 40
18.66897243923611
  0
ENDBLK
  5
3FFF
330
3FFC
100
AcDbEntity
  8
0
100
AcDbBlockEnd
  0
BLOCK
  5
4001
330
4000
100
AcDbEntity
  8
0
 62
     7
100
AcDbBlockBegin
  2
AI9-BLK76
 70
     0
 10
0.0
 20
0.0
 30
0.0
  3
AI9-BLK76
  1

  0
LINE
  5
4002
330
4000
100
AcDbEntity
  8
0
 62
     7
100
AcDbLine
 10
-0.4513075086805556
 20
-24.63863389756944
 30
0.0
 11
-0.4513075086805556
 21
24.63863389756944
 31
0.0
  0
INSERT
  5
4003
330
4000
100
AcDbEntity
  8
0
 62
     7
100
AcDbBlockReference
  2
AI9-BLK77
 10
0.0
 20
0.204638671875
 30
0.0
  0
ENDBLK
  5
4004
330
4000
100
AcDbEntity
  8
0
100
AcDbBlockEnd
  0
BLOCK
  5
4006
330
4005
100
AcDbEntity
  8
0
 62
     7
100
AcDbBlockBegin
  2
AI9-BLK77
 70
     0
 10
0.0
 20
0.0
 30
0.0
  3
AI9-BLK77
  1

  0
LINE
  5
4007
330
4005
100
AcDbEntity
  8
0
 62
     7
100
AcDbLine
 10
-24.39609917534722
 20
0.0220486111111111
 30
0.0
 11
24.39609917534722
 21
0.0220486111111111
 31
0.0
  0
INSERT
  5
4008
330
4005
100
AcDbEntity
  8
0
 62
     7
100
AcDbBlockReference
  2
AI9-BLK78
 10
-0.859206814236111
 20
0.0
 30
0.0
  0
ENDBLK
  5
4009
330
4005
100
AcDbEntity
  8
0
100
AcDbBlockEnd
  0
BLOCK
  5
400B
330
400A
100
AcDbEntity
  8
0
 62
     7
100
AcDbBlockBegin
  2
AI9-BLK78
 70
     0
 10
0.0
 20
0.0
 30
0.0
  3
AI9-BLK78
  1

  0
CIRCLE
  5
400C
330
400A
100
AcDbEntity
  8
0
 62
     7
100
AcDbCircle
 10
0.0
 20
-0.0013780381944444
 30
0.0
 40
14.83595920138889
  0
ENDBLK
  5
400D
330
400A
100
AcDbEntity
  8
0
100
AcDbBlockEnd
  0
BLOCK
  5
400F
330
400E
100
AcDbEntity
  8
0
 62
     7
100
AcDbBlockBegin
  2
AI9-BLK79
 70
     0
 10
0.0
 20
0.0
 30
0.0
  3
AI9-BLK79
  1

  0
SPLINE
  5
4010
330
400E
100
AcDbEntity
  8
0
 62
     7
100
AcDbSpline
210
0.0
220
0.0
230
1.0
 70
     8
 71
     3
 72
    17
 73
    13
 74
     0
 42
0.0000000001
 43
0.0000000001
 40
0.0
 40
0.0
 40
0.0
 40
0.0
 40
1.0
 40
1.0
 40
1.0
 40
2.0
 40
2.0
 40
2.0
 40
3.0
 40
3.0
 40
3.0
 40
4.0
 40
4.0
 40
4.0
 40
4.0
 10
47.35008138020833
 20
-0.0861273871527778
 30
0.0
 10
47.35008138020833
 20
-0.0861273871527778
 30
0.0
 10
47.35008138020833
 20
30.10944552951389
 30
0.0
 10
47.35008138020833
 20
30.10944552951389
 30
0.0
 10
47.35008138020833
 20
32.81591254340277
 30
0.0
 10
45.17967122395833
 20
34.56050889756944
 30
0.0
 10
42.51454535590277
 20
34.56050889756944
 30
0.0
 10
23.97855360243056
 20
34.56050889756944
 30
0.0
 10
10.94369032118055
 20
34.52881401909722
 30
0.0
 10
-13.97813042534722
 20
34.52881401909722
 30
0.0
 10
-29.59268120659722
 20
34.52881401909722
 30
0.0
 10
-47.34732530381943
 20
21.24039171006944
 30
0.0
 10
-47.34732530381943
 20
-0.1067979600694444
 30
0.0
  0
SPLINE
  5
4011
330
400E
100
AcDbEntity
  8
0
 62
     7
100
AcDbSpline
210
0.0
220
0.0
230
1.0
 70
     8
 71
     3
 72
    17
 73
    13
 74
     0
 42
0.0000000001
 43
0.0000000001
 40
0.0
 40
0.0
 40
0.0
 40
0.0
 40
1.0
 40
1.0
 40
1.0
 40
2.0
 40
2.0
 40
2.0
 40
3.0
 40
3.0
 40
3.0
 40
4.0
 40
4.0
 40
4.0
 40
4.0
 10
47.34456922743055
 20
0.0847493489583333
 30
0.0
 10
47.34456922743055
 20
0.0847493489583333
 30
0.0
 10
47.34456922743055
 20
-30.10944552951389
 30
0.0
 10
47.34456922743055
 20
-30.10944552951389
 30
0.0
 10
47.34456922743055
 20
-32.81729058159722
 30
0.0
 10
45.17553710937499
 20
-34.56050889756944
 30
0.0
 10
42.50903320312499
 20
-34.56050889756944
 30
0.0
 10
23.97304144965278
 20
-34.56050889756944
 30
0.0
 10
10.94093424479166
 20
-34.53019205729166
 30
0.0
 10
-13.98226453993055
 20
-34.53019205729166
 30
0.0
 10
-29.59681532118056
 20
-34.53019205729166
 30
0.0
 10
-47.35008138020833
 20
-21.24176974826389
 30
0.0
 10
-47.35008138020833
 20
0.105419921875
 30
0.0
  0
SPLINE
  5
4012
330
400E
100
AcDbEntity
  8
0
 62
     7
100
AcDbSpline
210
0.0
220
0.0
230
1.0
 70
     8
 71
     3
 72
    17
 73
    13
 74
     0
 42
0.0000000001
 43
0.0000000001
 40
0.0
 40
0.0
 40
0.0
 40
0.0
 40
1.0
 40
1.0
 40
1.0
 40
2.0
 40
2.0
 40
2.0
 40
3.0
 40
3.0
 40
3.0
 40
4.0
 40
4.0
 40
4.0
 40
4.0
 10
-44.20402018229166
 20
0.142626953125
 30
0.0
 10
-44.20402018229166
 20
7.815543619791665
 30
0.0
 10
-42.93622504340277
 20
14.033251953125
 30
0.0
 10
-38.47138129340277
 20
14.033251953125
 30
0.0
 10
-38.47138129340277
 20
14.033251953125
 30
0.0
 10
-38.03040907118055
 20
14.033251953125
 30
0.0
 10
-35.99091254340277
 20
14.033251953125
 30
0.0
 10
-35.439697265625
 20
14.033251953125
 30
0.0
 10
-35.43831922743056
 20
13.07964952256944
 30
0.0
 10
-35.43831922743056
 20
12.40992296006944
 30
0.0
 10
-35.43831922743056
 20
7.56887478298611
 30
0.0
 10
-35.439697265625
 20
5.365391710069443
 30
0.0
 10
-35.439697265625
 20
0.1839680989583333
 30
0.0
  0
SPLINE
  5
4013
330
400E
100
AcDbEntity
  8
0
 62
     7
100
AcDbSpline
210
0.0
220
0.0
230
1.0
 70
     8
 71
     3
 72
    17
 73
    13
 74
     0
 42
0.0000000001
 43
0.0000000001
 40
0.0
 40
0.0
 40
0.0
 40
0.0
 40
1.0
 40
1.0
 40
1.0
 40
2.0
 40
2.0
 40
2.0
 40
3.0
 40
3.0
 40
3.0
 40
4.0
 40
4.0
 40
4.0
 40
4.0
 10
-44.20677625868054
 20
0.1839680989583333
 30
0.0
 10
-44.20677625868054
 20
-7.486192491319443
 30
0.0
 10
-42.93898111979166
 20
-13.70665690104166
 30
0.0
 10
-38.47413736979166
 20
-13.70665690104166
 30
0.0
 10
-38.47413736979166
 20
-13.70665690104166
 30
0.0
 10
-38.03316514756944
 20
-13.70665690104166
 30
0.0
 10
-35.99366861979166
 20
-13.70665690104166
 30
0.0
 10
-35.44245334201388
 20
-13.70665690104166
 30
0.0
 10
-35.44107530381944
 20
-12.75029839409722
 30
0.0
 10
-35.44107530381944
 20
-12.08057183159722
 30
0.0
 10
-35.44107530381944
 20
-7.239523654513888
 30
0.0
 10
-35.44245334201388
 20
-5.03879665798611
 30
0.0
 10
-35.44245334201388
 20
0.142626953125
 30
0.0
  0
ENDBLK
  5
4014
330
400E
100
AcDbEntity
  8
0
100
AcDbBlockEnd
  0
ENDSEC
  0
SECTION
  2
ENTITIES
  0
LINE
  5
5259
330
1F
100
AcDbEntity
  8
0
  6
AM_DIN_F_W050
 62
     6
 48
4.0
100
AcDbLine
 10
-19.87690585839023
 20
-231.0329735312037
 30
0.0
 11
-19.87690585839023
 21
-129.0324284870304
 31
0.0
  0
LINE
  5
525A
330
1F
100
AcDbEntity
  8
0
  6
AM_DIN_F_W050
 62
     6
 48
4.0
100
AcDbLine
 10
-19.87690585839023
 20
-129.0324284870304
 30
0.0
 11
-99.00785332783705
 21
-128.9714504877515
 31
0.0
  0
LINE
  5
525B
330
1F
100
AcDbEntity
  8
0
  6
AM_DIN_F_W050
 62
     6
 48
4.0
100
AcDbLine
 10
-19.87690585839023
 20
-231.0329735312037
 30
0.0
 11
-70.32417112856622
 21
-232.4976771736698
 31
0.0
  0
LINE
  5
525C
330
1F
100
AcDbEntity
  8
0
  6
AM_DIN_F_W050
 62
     6
 48
4.0
100
AcDbLine
 10
-84.73322257719868
 20
-232.9363395086744
 30
0.0
 11
-160.4695645878572
 21
-232.5085064088833
 31
0.0
  0
ARC
  5
525D
330
1F
100
AcDbEntity
  8
0
  6
AM_DIN_F_W050
 62
     6
 48
4.0
100
AcDbCircle
 10
-362.0688256578388
 20
-230.8362867383888
 30
0.0
 40
15.0
100
AcDbArc
 50
186.2710774495034
 51
259.6846946695221
1001
GENIUS_GENODEF_13
1002
{
1000
HIER
1070
     0
1002
}
1002
{
1000
MANEDIT
1070
     0
1002
}
1002
{
1000
NOSEL
1070
     0
1002
}
1002
{
1000
BEHIND
1070
     0
1002
}
1002
{
1000
OTHER
1070
     0
1002
}
1002
{
1000
REACTOR
1002
}
1001
GENIUS_GENOBJ-N-FIL_13
1002
{
1000
OWNER
1000
GEN
1002
}
  0
LINE
  5
525E
330
1F
100
AcDbEntity
  8
0
  6
AM_DIN_F_W050
 62
     6
 48
4.0
100
AcDbLine
 10
-376.9790689879374
 20
-232.4747750164221
 30
0.0
 11
-385.7688344850475
 21
-171.1771706422332
 31
0.0
  0
ARC
  5
525F
330
1F
100
AcDbEntity
  8
0
  6
AM_DIN_F_W050
 62
     6
 48
4.0
100
AcDbCircle
 10
-62.66177493820904
 20
-254.8906671961607
 30
0.0
 40
181.8901805858662
100
AcDbArc
 50
141.2895889748092
 51
182.4252544781825
  0
ARC
  5
5260
330
1F
100
AcDbEntity
  8
0
  6
AM_DIN_F_W050
 62
     6
 48
4.0
100
AcDbCircle
 10
-319.9558784027718
 20
-251.6622448062415
 30
0.0
 40
148.192993109604
100
AcDbArc
 50
344.9938809168887
 51
357.7912177046763
  0
ARC
  5
5261
330
1F
100
AcDbEntity
  8
0
  6
AM_DIN_F_W050
 62
     6
 48
4.0
100
AcDbCircle
 10
-161.4903152205666
 20
-242.8275552589767
 30
0.0
 40
10.41401133918584
100
AcDbArc
 50
97.18761658346465
 51
175.5540379376332
1001
GENIUS_GENODEF_13
1002
{
1000
HIER
1070
     0
1002
}
1002
{
1000
MANEDIT
1070
     0
1002
}
1002
{
1000
NOSEL
1070
     0
1002
}
1002
{
1000
BEHIND
1070
     0
1002
}
1002
{
1000
OTHER
1070
     0
1002
}
1002
{
1000
REACTOR
1002
}
1001
GENIUS_GENOBJ-N-FIL_13
1002
{
1000
OWNER
1000
GEN
1002
}
  0
ARC
  5
5262
330
1F
100
AcDbEntity
  8
0
  6
AM_DIN_F_W050
 62
     6
 48
4.0
100
AcDbCircle
 10
-469.0432090950491
 20
-12.00552720252818
 30
0.0
 40
129.9637405041269
100
AcDbArc
 50
199.7393444169083
 51
255.304478843233
  0
ARC
  5
5263
330
1F
100
AcDbEntity
  8
0
  6
AM_DIN_F_W050
 62
     6
 48
4.0
100
AcDbCircle
 10
-400.679077815146
 20
-172.8156589202667
 30
0.0
 40
15.0
100
AcDbArc
 50
6.27107744950343
 51
83.70235776131307
1001
GENIUS_GENODEF_13
1002
{
1000
HIER
1070
     0
1002
}
1002
{
1000
MANEDIT
1070
     0
1002
}
1002
{
1000
NOSEL
1070
     0
1002
}
1002
{
1000
BEHIND
1070
     0
1002
}
1002
{
1000
OTHER
1070
     0
1002
}
1002
{
1000
REACTOR
1002
}
1001
GENIUS_GENOBJ-N-FIL_13
1002
{
1000
OWNER
1000
GEN
1002
}
  0
LINE
  5
5264
330
1F
100
AcDbEntity
  8
0
  6
AM_DIN_F_W050
 62
     6
 48
4.0
100
AcDbLine
 10
-592.8438293534729
 20
-51.55271761415628
 30
0.0
 11
-254.2480594192971
 21
-54.15473137049179
 31
0.0
  0
LINE
  5
5265
330
1F
100
AcDbEntity
  8
0
  6
AM_DIN_F_W050
 62
     6
 48
4.0
100
AcDbLine
 10
-199.9158072109796
 20
-4.410182813554229
 30
0.0
 11
-207.63109468655
 21
-55.02126138372983
 31
0.0
  0
ARC
  5
5266
330
1F
100
AcDbEntity
  8
0
  6
AM_DIN_F_W050
 62
     6
 48
4.0
100
AcDbCircle
 10
-202.688198241762
 20
-55.77476966908744
 30
0.0
 40
5.0
100
AcDbArc
 50
171.3324092092946
 51
237.6885286921722
1001
GENIUS_GENODEF_13
1002
{
1000
HIER
1070
     0
1002
}
1002
{
1000
MANEDIT
1070
     0
1002
}
1002
{
1000
NOSEL
1070
     0
1002
}
1002
{
1000
BEHIND
1070
     0
1002
}
1002
{
1000
OTHER
1070
     0
1002
}
1002
{
1000
REACTOR
1002
}
1001
GENIUS_GENOBJ-N-FIL_13
1002
{
1000
OWNER
1000
GEN
1002
}
  0
LINE
  5
5267
330
1F
100
AcDbEntity
  8
0
  6
AM_DIN_F_W050
 62
     6
 48
4.0
100
AcDbLine
 10
-205.3608060933525
 20
-60.00054383148858
 30
0.0
 11
-202.3888703479394
 21
-60.44707706183243
 31
0.0
  0
ARC
  5
5268
330
1F
100
AcDbEntity
  8
0
  6
AM_DIN_F_W050
 62
     6
 48
4.0
100
AcDbCircle
 10
-194.9547114553842
 20
-5.032701009121865
 30
0.0
 40
5.0
100
AcDbArc
 50
90.0
 51
172.8479075211155
1001
GENIUS_GENOBJ-N-FIL_13
1002
{
1000
OWNER
1000
GEN
1002
}
1001
GENIUS_GENODEF_13
1002
{
1000
HIER
1070
     0
1002
}
1002
{
1000
MANEDIT
1070
     0
1002
}
1002
{
1000
NOSEL
1070
     0
1002
}
1002
{
1000
BEHIND
1070
     0
1002
}
1002
{
1000
OTHER
1070
     0
1002
}
1002
{
1000
REACTOR
1002
}
  0
ARC
  5
5269
330
1F
100
AcDbEntity
  8
0
  6
AM_DIN_F_W050
 62
     6
 48
4.0
100
AcDbCircle
 10
-429.8929056347951
 20
-161.3534858200433
 30
0.0
 40
8.13938448333924
100
AcDbArc
 50
87.61827106632788
 51
177.6043605210792
  0
ARC
  5
526A
330
1F
100
AcDbEntity
  8
0
  6
AM_DIN_F_W050
 62
     6
 48
4.0
100
AcDbCircle
 10
-311.8633418785054
 20
-51.16070434743699
 30
0.0
 40
140.0104628758386
100
AcDbArc
 50
320.0097856439367
 51
348.0069071226475
  0
ARC
  5
526B
330
1F
100
AcDbEntity
  8
0
  6
AM_DIN_F_W050
 62
     6
 48
4.0
100
AcDbCircle
 10
-190.133159944626
 20
-95.69078669865183
 30
0.0
 40
10.0
100
AcDbArc
 50
341.3941420085715
 51
65.96502823350073
1001
GENIUS_GENODEF_13
1002
{
1000
HIER
1070
     0
1002
}
1002
{
1000
MANEDIT
1070
     0
1002
}
1002
{
1000
NOSEL
1070
     0
1002
}
1002
{
1000
BEHIND
1070
     0
1002
}
1002
{
1000
OTHER
1070
     0
1002
}
1002
{
1000
REACTOR
1002
}
1001
GENIUS_GENOBJ-N-FIL_13
1002
{
1000
OWNER
1000
GEN
1002
}
  0
ARC
  5
526C
330
1F
100
AcDbEntity
  8
0
  6
AM_DIN_F_W050
 62
     6
 48
4.0
100
AcDbCircle
 10
-178.4381603050576
 20
-116.5422132221519
 30
0.0
 40
8.750315051761438
100
AcDbArc
 50
161.7528015887342
 51
263.6644206887687
1001
GENIUS_GENOBJ-N-FIL_13
1002
{
1000
OWNER
1000
GEN
1002
}
1001
GENIUS_GENODEF_13
1002
{
1000
HIER
1070
     0
1002
}
1002
{
1000
MANEDIT
1070
     0
1002
}
1002
{
1000
NOSEL
1070
     0
1002
}
1002
{
1000
BEHIND
1070
     0
1002
}
1002
{
1000
OTHER
1070
     0
1002
}
1002
{
1000
REACTOR
1002
}
  0
LINE
  5
526D
330
1F
100
AcDbEntity
  8
0
  6
AM_DIN_F_W050
 62
     6
 48
4.0
100
AcDbLine
 10
-30.87414866261175
 20
-231.0689248773524
 30
0.0
 11
-30.87414866261175
 21
-129.068379833179
 31
0.0
  0
LINE
  5
526E
330
1F
100
AcDbEntity
  8
0
  6
AM_DIN_G_W050
 62
     4
 48
2.0
100
AcDbLine
 10
-9.043596179591943
 20
-180.032701009117
 30
0.0
 11
-73.20013956091243
 21
-180.032701009117
 31
0.0
  0
LINE
  5
526F
330
1F
100
AcDbEntity
  8
0
  6
AM_DIN_G_W050
 62
     4
 48
2.0
100
AcDbLine
 10
-150.0000829467151
 20
-11.91867571406141
 30
0.0
 11
-150.0000829467151
 21
9.609983963354807
 31
0.0
  0
LINE
  5
5270
330
1F
100
AcDbEntity
  8
0
  6
AM_DIN_F_W050
 62
     6
 48
4.0
100
AcDbLine
 10
-438.025176411438
 20
-161.0132626829907
 30
0.0
 11
-457.020719753786
 21
-283.3929517765302
 31
0.0
  0
LINE
  5
5271
330
1F
100
AcDbEntity
  8
0
  6
AM_DIN_G_W050
 62
     4
 48
2.0
100
AcDbLine
 10
-87.4172576339235
 20
-45.03270100911698
 30
0.0
 11
-6.338691690651061
 21
-45.03270100911698
 31
0.0
  0
LINE
  5
5272
330
1F
100
AcDbEntity
  8
0
  6
AM_DIN_F_W050
 62
     6
 48
4.0
100
AcDbLine
 10
-19.87690585839023
 20
-17.53270100911698
 30
0.0
 11
-69.87690585839023
 21
-17.53270100911698
 31
0.0
  0
LINE
  5
5273
330
1F
100
AcDbEntity
  8
0
  6
AM_DIN_F_W050
 62
     6
 48
4.0
100
AcDbLine
 10
-26.55113797569534
 20
-17.53270100911698
 30
0.0
 11
-26.55113797569534
 21
-7.363897331618943
 31
0.0
  0
ARC
  5
5274
330
1F
100
AcDbEntity
  8
0
  6
AM_DIN_F_W050
 62
     6
 48
4.0
100
AcDbCircle
 10
-23.55113797569534
 20
-4.959401915994135
 30
0.0
 40
3.0
100
AcDbArc
 50
100.3048527121424
 51
180.0
1001
GENIUS_GENOBJ-N-FIL_13
1002
{
1000
OWNER
1000
GEN
1002
}
1001
GENIUS_GENODEF_13
1002
{
1000
HIER
1070
     0
1002
}
1002
{
1000
MANEDIT
1070
     0
1002
}
1002
{
1000
NOSEL
1070
     0
1002
}
1002
{
1000
BEHIND
1070
     0
1002
}
1002
{
1000
OTHER
1070
     0
1002
}
1002
{
1000
REACTOR
1002
}
  0
LINE
  5
5275
330
1F
100
AcDbEntity
  8
0
  6
AM_DIN_F_W050
 62
     6
 48
4.0
100
AcDbLine
 10
-19.87690585839023
 20
-17.53270100911698
 30
0.0
 11
-19.87690585839023
 21
-72.53270100911698
 31
0.0
  0
LINE
  5
5276
330
1F
100
AcDbEntity
  8
0
  6
AM_DIN_F_W050
 62
     6
 48
4.0
100
AcDbLine
 10
-19.87690585839023
 20
-72.53270100911698
 30
0.0
 11
-58.94185472697604
 21
-72.68353500160083
 31
0.0
  0
ARC
  5
5277
330
1F
100
AcDbEntity
  8
0
  6
AM_DIN_F_W050
 62
     6
 48
4.0
100
AcDbCircle
 10
-61.86744365922773
 20
-1641.043949376655
 30
0.0
 40
1568.363146376032
100
AcDbArc
 50
89.89310041883554
 51
93.94538893397637
  0
ARC
  5
5278
330
1F
100
AcDbEntity
  8
0
  6
AM_DIN_F_W050
 62
     6
 48
4.0
100
AcDbCircle
 10
-168.6057014174898
 20
-83.29854961168507
 30
0.0
 40
7.0
100
AcDbArc
 50
99.65447304771197
 51
154.2188592241328
1001
GENIUS_GENOBJ-N-FIL_13
1002
{
1000
OWNER
1000
GEN
1002
}
1001
GENIUS_GENODEF_13
1002
{
1000
HIER
1070
     0
1002
}
1002
{
1000
MANEDIT
1070
     0
1002
}
1002
{
1000
NOSEL
1070
     0
1002
}
1002
{
1000
BEHIND
1070
     0
1002
}
1002
{
1000
OTHER
1070
     0
1002
}
1002
{
1000
REACTOR
1002
}
  0
LINE
  5
5279
330
1F
100
AcDbEntity
  8
0
  6
AM_DIN_F_W050
 62
     6
 48
4.0
100
AcDbLine
 10
-69.87690585839023
 20
-17.53270100911698
 30
0.0
 11
-69.87690585839023
 21
-72.70125486572368
 31
0.0
  0
LINE
  5
527A
330
1F
100
AcDbEntity
  8
0
  6
AM_DIN_F_W050
 62
     6
 48
4.0
100
AcDbLine
 10
-58.94185472697604
 20
-17.53270100911698
 30
0.0
 11
-58.94185472697604
 21
-72.68353500160083
 31
0.0
  0
LINE
  5
527B
330
1F
100
AcDbEntity
  8
0
  6
AM_DIN_F_W050
 62
     6
 48
4.0
100
AcDbLine
 10
-24.08779461192462
 20
-2.007792244172492
 30
0.0
 11
-0.0000829466927862
 21
-0.5383035924556339
 31
0.0
  0
ARC
  5
527C
330
1F
100
AcDbEntity
  8
0
  6
AM_DIN_F_W050
 62
     6
 48
4.0
100
AcDbCircle
 10
-342.7590256843737
 20
-262.0885891819838
 30
0.0
 40
10.0
100
AcDbArc
 50
26.08464126125548
 51
72.93174652079621
1001
GENIUS_GENOBJ-N-FIL_13
1002
{
1000
OWNER
1000
GEN
1002
}
1001
GENIUS_GENODEF_13
1002
{
1000
HIER
1070
     0
1002
}
1002
{
1000
MANEDIT
1070
     0
1002
}
1002
{
1000
NOSEL
1070
     0
1002
}
1002
{
1000
BEHIND
1070
     0
1002
}
1002
{
1000
OTHER
1070
     0
1002
}
1002
{
1000
REACTOR
1002
}
  0
ARC
  5
527D
330
1F
100
AcDbEntity
  8
0
  6
AM_DIN_F_W050
 62
     6
 48
4.0
100
AcDbCircle
 10
-57.18241620741612
 20
-240.4330077495369
 30
0.0
 40
13.62160196169373
100
AcDbArc
 50
183.9682841710749
 51
268.4591447686691
1001
GENIUS_GENODEF_13
1002
{
1000
HIER
1070
     0
1002
}
1002
{
1000
MANEDIT
1070
     0
1002
}
1002
{
1000
NOSEL
1070
     0
1002
}
1002
{
1000
BEHIND
1070
     0
1002
}
1002
{
1000
OTHER
1070
     0
1002
}
1002
{
1000
REACTOR
1002
}
1001
GENIUS_GENOBJ-N-FIL_13
1002
{
1000
OWNER
1000
GEN
1002
}
  0
ARC
  5
527E
330
1F
100
AcDbEntity
  8
0
  6
AM_DIN_F_W050
 62
     6
 48
4.0
100
AcDbCircle
 10
-70.3127706039498
 20
-239.4976678899521
 30
0.0
 40
7.0
100
AcDbArc
 50
90.09331460478923
 51
181.6199189937879
1001
GENIUS_GENODEF_13
1002
{
1000
HIER
1070
     0
1002
}
1002
{
1000
MANEDIT
1070
     0
1002
}
1002
{
1000
NOSEL
1070
     0
1002
}
1002
{
1000
BEHIND
1070
     0
1002
}
1002
{
1000
OTHER
1070
     0
1002
}
1002
{
1000
REACTOR
1002
}
1001
GENIUS_GENOBJ-N-FIL_13
1002
{
1000
OWNER
1000
GEN
1002
}
  0
LINE
  5
527F
330
1F
100
AcDbEntity
  8
0
  6
AM_DIN_F_W050
 62
     6
 48
4.0
100
AcDbLine
 10
-57.548697754348
 20
-254.0496842100832
 30
0.0
 11
-12.95039529197886
 21
-256.5522392599555
 31
0.0
  0
LINE
  5
5280
330
1F
100
AcDbEntity
  8
0
  6
AM_DIN_F_W050
 62
     6
 48
4.0
100
AcDbLine
 10
-77.79656948464806
 20
-238.9967417896433
 30
0.0
 11
-72.40118076213237
 21
-278.8286178249999
 31
0.0
  0
ARC
  5
5281
330
1F
100
AcDbEntity
  8
0
  6
AM_DIN_F_W050
 62
     6
 48
4.0
100
AcDbCircle
 10
-65.45561110183538
 20
-277.9573761283606
 30
0.0
 40
7.0
100
AcDbArc
 50
187.1497515225937
 51
270.2220288353776
1001
GENIUS_GENODEF_13
1002
{
1000
HIER
1070
     0
1002
}
1002
{
1000
MANEDIT
1070
     0
1002
}
1002
{
1000
NOSEL
1070
     0
1002
}
1002
{
1000
BEHIND
1070
     0
1002
}
1002
{
1000
OTHER
1070
     0
1002
}
1002
{
1000
REACTOR
1002
}
1001
GENIUS_GENOBJ-N-FIL_13
1002
{
1000
OWNER
1000
GEN
1002
}
  0
ARC
  5
5282
330
1F
100
AcDbEntity
  8
0
  6
AM_DIN_F_W050
 62
     6
 48
4.0
100
AcDbCircle
 10
-84.73322257719868
 20
-239.9363395086744
 30
0.0
 40
7.0
100
AcDbArc
 50
1.619918993787876
 51
90.09331460478923
1001
GENIUS_GENOBJ-N-FIL_13
1002
{
1000
OWNER
1000
GEN
1002
}
1001
GENIUS_GENODEF_13
1002
{
1000
HIER
1070
     0
1002
}
1002
{
1000
MANEDIT
1070
     0
1002
}
1002
{
1000
NOSEL
1070
     0
1002
}
1002
{
1000
BEHIND
1070
     0
1002
}
1002
{
1000
OTHER
1070
     0
1002
}
1002
{
1000
REACTOR
1002
}
  0
LINE
  5
5283
330
1F
100
AcDbEntity
  8
0
  6
AM_DIN_F_W050
 62
     6
 48
4.0
100
AcDbLine
 10
-364.7548011435317
 20
-245.5938453335718
 30
0.0
 11
-339.8239187536357
 21
-252.5290312787577
 31
0.0
  0
LINE
  5
5284
330
1F
100
AcDbEntity
  8
0
  6
AM_DIN_G_W050
 62
     4
 48
2.0
100
AcDbLine
 10
-13.88851576723955
 20
-80.03270100911697
 30
0.0
 11
7.842790066422181
 21
-80.03270100911697
 31
0.0
  0
LINE
  5
5285
330
1F
100
AcDbEntity
  8
0
  6
AM_DIN_F_W050
 62
     6
 48
4.0
100
AcDbLine
 10
-606.4357625910932
 20
-6.928404132396678
 30
0.0
 11
-254.1719092776917
 21
-6.908352707466917
 31
0.0
  0
LINE
  5
5286
330
1F
100
AcDbEntity
  8
0
  6
AM_DIN_F_W050
 62
     6
 48
4.0
100
AcDbLine
 10
-247.1998432305343
 20
-47.16198982823885
 30
0.0
 11
-247.1661579360373
 21
-13.91544271562719
 31
0.0
  0
ARC
  5
5287
330
1F
100
AcDbEntity
  8
0
  6
AM_DIN_F_W050
 62
     6
 48
4.0
100
AcDbCircle
 10
-254.19983963755
 20
-47.15489745441579
 30
0.0
 40
7.0
100
AcDbArc
 50
269.6053125951977
 51
359.9419481205266
  0
ARC
  5
5288
330
1F
100
AcDbEntity
  8
0
  6
AM_DIN_F_W050
 62
     6
 48
4.0
100
AcDbCircle
 10
-254.1661543430531
 20
-13.90835034180418
 30
0.0
 40
7.0
100
AcDbArc
 50
359.9419481205266
 51
90.04710478618816
1001
GENIUS_GENODEF_13
1002
{
1000
HIER
1070
     0
1002
}
1002
{
1000
MANEDIT
1070
     0
1002
}
1002
{
1000
NOSEL
1070
     0
1002
}
1002
{
1000
BEHIND
1070
     0
1002
}
1002
{
1000
OTHER
1070
     0
1002
}
1002
{
1000
REACTOR
1002
}
1001
GENIUS_GENOBJ-N-FIL_13
1002
{
1000
OWNER
1000
GEN
1002
}
  0
ARC
  5
5289
330
1F
100
AcDbEntity
  8
0
  6
AM_DIN_F_W050
 62
     6
 48
4.0
100
AcDbCircle
 10
-605.780893003458
 20
-19.16920572560644
 30
0.0
 40
12.25830648259115
100
AcDbArc
 50
93.06234257676036
 51
180.189270089391
  0
ARC
  5
528A
330
1F
100
AcDbEntity
  8
0
  6
AM_DIN_F_W050
 62
     6
 48
4.0
100
AcDbCircle
 10
-275.764408130267
 20
743.6181178281088
 30
0.0
 40
909.9128345583279
100
AcDbArc
 50
255.6024583352795
 51
262.2139868053988
  0
ARC
  5
528B
330
1F
100
AcDbEntity
  8
0
  6
AM_DIN_F_W050
 62
     6
 48
4.0
100
AcDbCircle
 10
-420.8559285671403
 20
-309.5026247260498
 30
0.0
 40
101.3263151480819
100
AcDbArc
 50
11.07832403798706
 51
30.75235254689128
  0
LINE
  5
528C
330
1F
100
AcDbEntity
  8
0
  6
AM_DIN_F_W050
 62
     6
 48
4.0
100
AcDbLine
 10
-8.158069055766716
 20
-284.7353919101672
 30
0.0
 11
-65.42848523024334
 21
-284.9573235700983
 31
0.0
  0
LINE
  5
528D
330
1F
100
AcDbEntity
  8
0
  6
AM_DIN_F_W050
 62
     6
 48
4.0
100
AcDbLine
 10
-8.158069055766716
 20
-284.7353919101672
 30
0.0
 11
-8.158069055766716
 21
-275.9193975901677
 31
0.0
  0
ARC
  5
528E
330
1F
100
AcDbEntity
  8
0
  6
AM_DIN_F_W050
 62
     6
 48
4.0
100
AcDbCircle
 10
-15.15806905576672
 20
-275.9193975901677
 30
0.0
 40
7.0
100
AcDbArc
 50
0.0
 51
87.09079863251341
1001
GENIUS_GENOBJ-N-FIL_13
1002
{
1000
OWNER
1000
GEN
1002
}
1001
GENIUS_GENODEF_13
1002
{
1000
HIER
1070
     0
1002
}
1002
{
1000
MANEDIT
1070
     0
1002
}
1002
{
1000
NOSEL
1070
     0
1002
}
1002
{
1000
BEHIND
1070
     0
1002
}
1002
{
1000
OTHER
1070
     0
1002
}
1002
{
1000
REACTOR
1002
}
  0
LINE
  5
528F
330
1F
100
AcDbEntity
  8
0
  6
AM_DIN_F_W050
 62
     6
 48
4.0
100
AcDbLine
 10
-14.80279576033941
 20
-268.9284190545436
 30
0.0
 11
-58.48234281928542
 21
-266.7086759173951
 31
0.0
  0
ARC
  5
5290
330
1F
100
AcDbEntity
  8
0
  6
AM_DIN_F_W050
 62
     6
 48
4.0
100
AcDbCircle
 10
-57.62057496097539
 20
-247.8345908906002
 30
0.0
 40
18.8937484221725
100
AcDbArc
 50
198.5145483395075
 51
267.3857597645344
  0
ARC
  5
5291
330
1F
100
AcDbEntity
  8
0
  6
AM_DIN_F_W050
 62
     6
 48
4.0
100
AcDbCircle
 10
-107.8904008712584
 20
547.4354295535508
 30
0.0
 40
676.4652001530235
100
AcDbArc
 50
263.9315651649373
 51
270.7523625923188
  0
LINE
  5
5292
330
1F
100
AcDbEntity
  8
0
  6
AM_DIN_F_W050
 62
     6
 48
4.0
100
AcDbLine
 10
-99.00785332783694
 20
-128.9714504877515
 30
0.0
 11
-99.23809474385787
 21
-73.12609650679263
 31
0.0
  0
LINE
  5
5293
330
1F
100
AcDbEntity
  8
0
  6
AM_DIN_F_W050
 62
     6
 48
4.0
100
AcDbLine
 10
-572.9820494759523
 20
-6.926499893256504
 30
0.0
 11
-573.0313190442318
 21
-0.0327010091206717
 31
0.0
  0
LINE
  5
5294
330
1F
100
AcDbEntity
  8
0
  6
AM_DIN_F_W050
 62
     6
 48
4.0
100
AcDbLine
 10
-198.158987778544
 20
-64.87068935206798
 30
0.0
 11
-196.9701551785364
 21
-76.22019040233465
 31
0.0
  0
ARC
  5
5295
330
1F
100
AcDbEntity
  8
0
  6
AM_DIN_F_W050
 62
     6
 48
4.0
100
AcDbCircle
 10
-203.1317813269331
 20
-65.39157736795949
 30
0.0
 40
5.0
100
AcDbArc
 50
5.979786840151372
 51
81.45522833178869
1001
GENIUS_GENOBJ-N-FIL_13
1002
{
1000
OWNER
1000
GEN
1002
}
1001
GENIUS_GENODEF_13
1002
{
1000
HIER
1070
     0
1002
}
1002
{
1000
MANEDIT
1070
     0
1002
}
1002
{
1000
NOSEL
1070
     0
1002
}
1002
{
1000
BEHIND
1070
     0
1002
}
1002
{
1000
OTHER
1070
     0
1002
}
1002
{
1000
REACTOR
1002
}
  0
LINE
  5
5296
330
1F
100
AcDbEntity
  8
0
  6
AM_DIN_F_W050
 62
     6
 48
4.0
100
AcDbLine
 10
-191.0975097844927
 20
-84.31138463690677
 30
0.0
 11
-186.0602182418916
 21
-86.55781643229671
 31
0.0
  0
ARC
  5
5297
330
1F
100
AcDbEntity
  8
0
  6
AM_DIN_F_W050
 62
     6
 48
4.0
100
AcDbCircle
 10
-187.0245680817581
 20
-75.17841437055165
 30
0.0
 40
10.0
100
AcDbArc
 50
185.9797868401513
 51
245.9650282335008
1001
GENIUS_GENODEF_13
1002
{
1000
HIER
1070
     0
1002
}
1002
{
1000
MANEDIT
1070
     0
1002
}
1002
{
1000
NOSEL
1070
     0
1002
}
1002
{
1000
BEHIND
1070
     0
1002
}
1002
{
1000
OTHER
1070
     0
1002
}
1002
{
1000
REACTOR
1002
}
1001
GENIUS_GENOBJ-N-FIL_13
1002
{
1000
OWNER
1000
GEN
1002
}
  0
ARC
  5
5298
330
1F
100
AcDbEntity
  8
0
  6
AM_DIN_F_W050
 62
     6
 48
4.0
100
AcDbCircle
 10
-602.1550714988808
 20
-37.51202235460761
 30
0.0
 40
12.60513253563908
100
AcDbArc
 50
200.4977337277414
 51
259.6994105919279
  0
ARC
  5
5299
330
1F
100
AcDbEntity
  8
0
  6
AM_DIN_F_W050
 62
     6
 48
4.0
100
AcDbCircle
 10
-597.9588017461979
 20
-58.26389060078191
 30
0.0
 40
7.0
100
AcDbArc
 50
19.73934441690835
 51
82.27059403706213
1001
GENIUS_GENOBJ-N-FIL_13
1002
{
1000
OWNER
1000
GEN
1002
}
1001
GENIUS_GENODEF_13
1002
{
1000
HIER
1070
     0
1002
}
1002
{
1000
MANEDIT
1070
     0
1002
}
1002
{
1000
NOSEL
1070
     0
1002
}
1002
{
1000
BEHIND
1070
     0
1002
}
1002
{
1000
OTHER
1070
     0
1002
}
1002
{
1000
REACTOR
1002
}
  0
ARC
  5
529A
330
1F
100
AcDbEntity
  8
0
  6
AM_DIN_F_W050
 62
     6
 48
4.0
100
AcDbCircle
 10
-12.95039529197886
 20
-260.6440680745326
 30
0.0
 40
4.091828814577112
100
AcDbArc
 50
10.6177487261265
 51
90.0
  0
LINE
  5
529B
330
1F
100
AcDbEntity
  8
0
100
AcDbLine
 10
-321.4177859258671
 20
-290.0327010091418
 30
0.0
 11
-176.8165361604474
 21
-290.0327010091314
 31
0.0
  0
LINE
  5
529C
330
1F
100
AcDbEntity
  8
0
  6
AM_DIN_F_W050
 62
     6
 48
4.0
100
AcDbLine
 10
-171.8729896357944
 20
-257.373747341491
 30
0.0
 11
-171.8729896357944
 21
-242.0202733007583
 31
0.0
  0
LINE
  5
529D
330
1F
100
AcDbEntity
  8
0
  6
AM_DIN_F_W050
 62
     6
 48
4.0
100
AcDbLine
 10
-591.9612504529781
 20
-53.46253915370971
 30
0.0
 11
-216.5417569771445
 21
-59.81145685487809
 31
0.0
  0
LINE
  5
529E
330
1F
100
AcDbEntity
  8
0
  6
AM_DIN_F_W050
 62
     6
 48
4.0
100
AcDbLine
 10
-604.4090246987386
 20
-49.91400047158061
 30
0.0
 11
-597.0173383497417
 21
-51.32749047729328
 31
0.0
  0
LWPOLYLINE
  5
529F
330
1F
100
AcDbEntity
  8
0
100
AcDbPolyline
 90
       10
 70
     1
 43
0.0
 10
-0.0000829467150688
 20
2.371794406504307
 42
-0.0327136180446957
 10
-53.25966757488522
 20
-0.0327010091206148
 10
-615.0000829468617
 20
-0.0327010091206148
 42
0.4519773596536948
 10
-619.9596113675231
 20
-5.667019469591934
 42
0.1605578082087608
 10
-484.8689695339952
 20
-288.491794380173
 42
0.204478318060596
 10
-481.2586131733882
 20
-290.032701009154
 10
-321.4177859258671
 20
-290.0327010091418
 42
0.3436325125807269
 10
-248.6924073972091
 20
-345.0281265001803
 42
0.3541543607464985
 10
-176.8165361604473
 20
-290.0327010091314
 10
-0.0000829466927862
 20
-290.0327010091182
  0
LINE
  5
5387
330
1F
100
AcDbEntity
  8
0
  6
AM_DIN_F_W050
 62
     6
 48
4.0
100
AcDbLine
 10
-266.1418508458371
 20
-0.0327010091206148
 30
0.0
 11
-266.1418508458371
 21
-6.909034055787246
 31
0.0
  0
LINE
  5
54BF
330
1F
100
AcDbEntity
  8
0
  6
AM_DIN_F_W050
 62
     6
 48
5.0
100
AcDbLine
 10
-158.0042483807377
 20
3.187575118132713
 30
0.0
 11
-142.0073454468061
 21
3.185892282584021
 31
0.0
  0
LINE
  5
54C0
330
1F
100
AcDbEntity
  8
0
  6
AM_DIN_F_W050
 62
     6
 48
5.0
100
AcDbLine
 10
-141.0072402547568
 20
4.185997488252226
 30
0.0
 11
-141.0113952754286
 21
43.67818644496797
 31
0.0
  0
ARC
  5
54C1
330
1F
100
AcDbEntity
  8
0
  6
AM_DIN_F_W050
 62
     6
 48
5.0
100
AcDbCircle
 10
-142.0072402492221
 20
4.185892277050754
 30
0.0
 40
1.0
100
AcDbArc
 50
269.9939726224145
 51
0.0060281578129612
1001
GENIUS_GENODEF_13
1002
{
1000
HIER
1070
     0
1002
}
1002
{
1000
MANEDIT
1070
     0
1002
}
1002
{
1000
NOSEL
1070
     0
1002
}
1002
{
1000
BEHIND
1070
     0
1002
}
1002
{
1000
OTHER
1070
     0
1002
}
1002
{
1000
REACTOR
1002
}
1001
GENIUS_GENOBJ-N-FIL_13
1002
{
1000
OWNER
1000
GEN
1002
}
  0
ARC
  5
54C2
330
1F
100
AcDbEntity
  8
0
  6
AM_DIN_F_W050
 62
     6
 48
5.0
100
AcDbCircle
 10
-142.0113952698939
 20
43.67808123376649
 30
0.0
 40
1.0
100
AcDbArc
 50
0.0060281578129612
 51
89.99397262254474
1001
GENIUS_GENOBJ-N-FIL_13
1002
{
1000
OWNER
1000
GEN
1002
}
1001
GENIUS_GENODEF_13
1002
{
1000
HIER
1070
     0
1002
}
1002
{
1000
MANEDIT
1070
     0
1002
}
1002
{
1000
NOSEL
1070
     0
1002
}
1002
{
1000
BEHIND
1070
     0
1002
}
1002
{
1000
OTHER
1070
     0
1002
}
1002
{
1000
REACTOR
1002
}
  0
LINE
  5
54C3
330
1F
100
AcDbEntity
  8
0
  6
AM_DIN_F_W050
 62
     6
 48
5.0
100
AcDbLine
 10
-159.0082981982909
 20
43.67965885807733
 30
0.0
 11
-159.0041431776191
 21
4.18746990139796
 31
0.0
  0
ARC
  5
54C4
330
1F
100
AcDbEntity
  8
0
  6
AM_DIN_F_W050
 62
     6
 48
5.0
100
AcDbCircle
 10
-158.0041431831538
 20
4.187575112599446
 30
0.0
 40
1.0
100
AcDbArc
 50
180.0060281578129
 51
269.9939726224145
1001
GENIUS_GENOBJ-N-FIL_13
1002
{
1000
OWNER
1000
GEN
1002
}
1001
GENIUS_GENODEF_13
1002
{
1000
HIER
1070
     0
1002
}
1002
{
1000
MANEDIT
1070
     0
1002
}
1002
{
1000
NOSEL
1070
     0
1002
}
1002
{
1000
BEHIND
1070
     0
1002
}
1002
{
1000
OTHER
1070
     0
1002
}
1002
{
1000
REACTOR
1002
}
  0
ARC
  5
54C5
330
1F
100
AcDbEntity
  8
0
  6
AM_DIN_F_W050
 62
     6
 48
5.0
100
AcDbCircle
 10
-158.0082982038257
 20
43.67976406927879
 30
0.0
 40
1.0
100
AcDbArc
 50
89.99397262254474
 51
180.0060281578129
1001
GENIUS_GENODEF_13
1002
{
1000
HIER
1070
     0
1002
}
1002
{
1000
MANEDIT
1070
     0
1002
}
1002
{
1000
NOSEL
1070
     0
1002
}
1002
{
1000
BEHIND
1070
     0
1002
}
1002
{
1000
OTHER
1070
     0
1002
}
1002
{
1000
REACTOR
1002
}
1001
GENIUS_GENOBJ-N-FIL_13
1002
{
1000
OWNER
1000
GEN
1002
}
  0
LINE
  5
54C6
330
1F
100
AcDbEntity
  8
0
  6
AM_DIN_F_W050
 62
     6
 48
5.0
100
AcDbLine
 10
-142.0112900723122
 20
44.67808122823321
 30
0.0
 11
-158.008193006244
 21
44.67976406374553
 31
0.0
  0
LINE
  5
54C7
330
1F
100
AcDbEntity
  8
0
  6
AM_DIN_F_W050
 62
     6
 48
5.0
100
AcDbLine
 10
-239.5802333587919
 20
31.31996704998714
 30
0.0
 11
-241.7583254004232
 21
35.60041998992527
 31
0.0
  0
CIRCLE
  5
54C8
330
1F
100
AcDbEntity
  8
0
  6
AM_DIN_F_W050
 62
     6
 48
5.0
100
AcDbCircle
 10
-207.1104196755152
 20
30.9799098894632
 30
0.0
 40
8.000000000309997
  0
CIRCLE
  5
54C9
330
1F
100
AcDbEntity
  8
0
  6
AM_DIN_F_W050
 62
     6
 48
5.0
100
AcDbCircle
 10
-207.1104196755152
 20
30.9799098894632
 30
0.0
 40
9.900000000489999
  0
LINE
  5
54CA
330
1F
100
AcDbEntity
  8
0
100
AcDbLine
 10
-188.6895965102152
 20
29.55773291592321
 30
0.0
 11
-193.7545326286869
 21
55.08972807542726
 31
0.0
  0
ARC
  5
54CB
330
1F
100
AcDbEntity
  8
0
  6
AM_DIN_F_W050
 62
     6
 48
5.0
100
AcDbCircle
 10
-7860.28019165564
 20
-3656.777166924076
 30
0.0
 40
8461.083544421926
100
AcDbArc
 50
25.82504673079947
 51
25.85770031130425
  0
LINE
  5
54CC
330
1F
100
AcDbEntity
  8
0
100
AcDbLine
 10
-586.6646774426905
 20
4.925259809194756
 30
0.0
 11
-296.49235953205
 21
4.979817198262665
 31
0.0
  0
ARC
  5
54CD
330
1F
100
AcDbEntity
  8
0
100
AcDbCircle
 10
-296.4923595320617
 20
98.58981719826205
 30
0.0
 40
93.6099999999994
100
AcDbArc
 50
270.0000000000065
 51
291.953443743175
1001
GENIUS_GENODEF_13
1002
{
1000
HIER
1070
     0
1002
}
1002
{
1000
MANEDIT
1070
     0
1002
}
1002
{
1000
NOSEL
1070
     0
1002
}
1002
{
1000
BEHIND
1070
     0
1002
}
1002
{
1000
OTHER
1070
     0
1002
}
1002
{
1000
REACTOR
1002
}
1001
GENIUS_GENOBJ-N-FIL_13
1002
{
1000
OWNER
1000
GEN
1002
}
  0
LINE
  5
54CE
330
1F
100
AcDbEntity
  8
0
100
AcDbLine
 10
-546.9749366277419
 20
-0.0180368687911141
 30
0.0
 11
-525.3288479835954
 21
-0.0181494938396156
 31
0.0
  0
ARC
  5
54CF
330
1F
100
AcDbEntity
  8
0
100
AcDbCircle
 10
-547.1036145348626
 20
8.032383326334468
 30
0.0
 40
8.05144852320792
100
AcDbArc
 50
202.6535692421059
 51
270.9157376922869
  0
ARC
  5
54D0
330
1F
100
AcDbEntity
  8
0
100
AcDbCircle
 10
-525.2000740933604
 20
8.032269166519654
 30
0.0
 40
8.05144852320792
100
AcDbArc
 50
269.0835791846316
 51
337.3457476347973
  0
LINE
  5
54D1
330
1F
100
AcDbEntity
  8
0
100
AcDbLine
 10
-383.2994542049907
 20
0.0127369384407672
 30
0.0
 11
-360.3067885406418
 21
0.0307403296501292
 31
0.0
  0
ARC
  5
54D2
330
1F
100
AcDbEntity
  8
0
100
AcDbCircle
 10
-383.4281321121107
 20
8.063157133566377
 30
0.0
 40
8.05144852320792
100
AcDbArc
 50
202.6535692421059
 51
270.9157376922803
  0
ARC
  5
54D3
330
1F
100
AcDbEntity
  8
0
100
AcDbCircle
 10
-360.1780499986681
 20
8.081158990220032
 30
0.0
 40
8.05144852320792
100
AcDbArc
 50
269.0835791846316
 51
337.3457476347973
  0
ARC
  5
54D4
330
1F
100
AcDbEntity
  8
0
  6
AM_DIN_F_W050
 62
     6
 48
5.0
100
AcDbCircle
 10
-585.3121913056718
 20
-22.25326647495201
 30
0.0
 40
34.4899755645231
100
AcDbArc
 50
19.00761866906556
 51
92.41067926973455
  0
LINE
  5
54D5
330
1F
100
AcDbEntity
  8
0
100
AcDbLine
 10
-102.0923912129661
 20
99.34418533896097
 30
0.0
 11
-214.6793149969503
 21
44.98724876649156
 31
0.0
  0
ARC
  5
54D6
330
1F
100
AcDbEntity
  8
0
100
AcDbCircle
 10
-208.1418840539123
 20
30.00561590173452
 30
0.0
 40
16.34586573508295
100
AcDbArc
 50
113.5746777617976
 51
176.265193845516
  0
ARC
  5
54D7
330
1F
100
AcDbEntity
  8
0
100
AcDbCircle
 10
-227.3711168763443
 20
31.33568799621652
 30
0.0
 40
2.930119508267274
100
AcDbArc
 50
295.1120137260464
 51
354.8046646321839
  0
ARC
  5
54D8
330
1F
100
AcDbEntity
  8
0
  6
AM_DIN_F_W050
 62
     6
 48
5.0
100
AcDbCircle
 10
-248.9341348349872
 20
-17.55827135212713
 30
0.0
 40
39.98444131734589
100
AcDbArc
 50
113.0301146294373
 51
170.5888429047197
  0
ARC
  5
54D9
330
1F
100
AcDbEntity
  8
0
  6
AM_DIN_F_W050
 62
     6
 48
5.0
100
AcDbCircle
 10
-248.691304777003
 20
32.27045480171363
 30
0.0
 40
2.634647753676065
100
AcDbArc
 50
25.84779144501288
 51
109.015603444721
  0
ARC
  5
54DA
330
1F
100
AcDbEntity
  8
0
  6
AM_DIN_F_W050
 62
     6
 48
5.0
100
AcDbCircle
 10
-239.3231975212294
 20
36.73324843731077
 30
0.0
 40
2.685730455431485
100
AcDbArc
 50
117.9349271428095
 51
204.9479834266712
  0
ARC
  5
54DB
330
1F
100
AcDbEntity
  8
0
100
AcDbCircle
 10
-197.6226315812013
 20
57.01058925368868
 30
0.0
 40
2.634647753676065
100
AcDbArc
 50
25.84779144501288
 51
109.015603444721
  0
ARC
  5
54DC
330
1F
100
AcDbEntity
  8
0
100
AcDbCircle
 10
-188.2545243254277
 20
61.47338288928579
 30
0.0
 40
2.685730455431485
100
AcDbArc
 50
117.9349271428095
 51
204.9479834266712
  0
LINE
  5
54DD
330
1F
100
AcDbEntity
  8
0
100
AcDbLine
 10
-195.2515660446347
 20
58.15924803995061
 30
0.0
 11
-193.747591637361
 21
55.05473873952595
 31
0.0
  0
LINE
  5
54DE
330
1F
100
AcDbEntity
  8
0
100
AcDbLine
 10
-190.6896522046214
 20
60.3405544419003
 30
0.0
 11
-189.1720158374317
 21
57.30216595180498
 31
0.0
  0
LINE
  5
54DF
330
1F
100
AcDbEntity
  8
0
100
AcDbLine
 10
-243.8118832953344
 20
4.426026231232285
 30
0.0
 11
-256.11434504567
 21
3.504160446991804
 31
0.0
  0
ARC
  5
54E0
330
1F
100
AcDbEntity
  8
0
100
AcDbCircle
 10
-174.3283578320514
 20
8.927885346563229
 30
0.0
 40
3.0
100
AcDbArc
 50
270.0
 51
358.9993608586503
1001
GENIUS_GENOBJ-N-FIL_13
1002
{
1000
OWNER
1000
GEN
1002
}
1001
GENIUS_GENODEF_13
1002
{
1000
HIER
1070
     0
1002
}
1002
{
1000
MANEDIT
1070
     0
1002
}
1002
{
1000
NOSEL
1070
     0
1002
}
1002
{
1000
BEHIND
1070
     0
1002
}
1002
{
1000
OTHER
1070
     0
1002
}
1002
{
1000
REACTOR
1002
}
  0
ARC
  5
54E1
330
1F
100
AcDbEntity
  8
0
100
AcDbCircle
 10
-233.3350188845012
 20
0.0302316170491679
 30
0.0
 40
11.3616767324662
100
AcDbArc
 50
130.3110237843117
 51
157.238463093295
  0
ARC
  5
54E2
330
1F
100
AcDbEntity
  8
0
100
AcDbCircle
 10
-253.7502866789444
 20
22.00269760412692
 30
0.0
 40
18.64979944388926
100
AcDbArc
 50
314.4705761575901
 51
330.7227359223314
  0
ARC
  5
54E3
330
1F
100
AcDbEntity
  8
0
100
AcDbCircle
 10
-249.2660082411431
 20
19.42270063054226
 30
0.0
 40
13.47673766163869
100
AcDbArc
 50
330.9670327227101
 51
13.14669483749375
  0
ARC
  5
54E4
330
1F
100
AcDbEntity
  8
0
100
AcDbCircle
 10
-239.9539881640663
 20
0.2730583566542037
 30
0.0
 40
5.668376929169348
100
AcDbArc
 50
86.03755274220697
 51
132.8905165246833
  0
LINE
  5
54E5
330
1F
100
AcDbEntity
  8
0
100
AcDbLine
 10
-171.3288153308199
 20
8.875494666988771
 30
0.0
 11
-170.3240452136665
 21
66.40196110813649
 31
0.0
  0
LINE
  5
54E6
330
1F
100
AcDbEntity
  8
0
  6
AM_DIN_G_W050
 62
     4
 48
2.0
100
AcDbLine
 10
-207.079307419725
 20
43.36828527618853
 30
0.0
 11
-207.0703924166632
 21
18.59156009970384
 31
0.0
  0
LINE
  5
54E7
330
1F
100
AcDbEntity
  8
0
  6
AM_DIN_G_W050
 62
     4
 48
2.0
100
AcDbLine
 10
-194.6864865280236
 20
30.97993548642917
 30
0.0
 11
-219.4632133083648
 21
30.9799098894632
 31
0.0
  0
LWPOLYLINE
  5
54E8
330
1F
100
AcDbEntity
  8
0
100
AcDbPolyline
 90
        8
 70
     1
 43
0.0
 10
-158.0104196748152
 20
45.87990988946323
 10
-142.0459253472256
 20
45.87990988946323
 42
0.4142135623730951
 10
-141.0459253472256
 20
46.87990988946324
 10
-141.0459253472256
 20
58.22876592766577
 42
0.4142135623730951
 10
-142.0459253472256
 20
59.22876592766577
 10
-158.0104196748152
 20
59.22876592766577
 42
0.4142135623730951
 10
-159.0104196748152
 20
58.22876592766577
 10
-159.0104196748152
 20
46.87990988946324
 42
0.4142135623730951
1001
GENIUS_GENREC_14
1002
{
1000
PYDIR
1011
-159.0104196748152
1021
59.22876592766577
1031
0.0
1002
}
1002
{
1000
PXDIR
1011
-141.0459253472256
1021
45.87990988946323
1031
0.0
1002
}
1002
{
1000
PORI
1011
-159.0104196748152
1021
45.87990988946323
1031
0.0
1002
}
1002
{
1000
PINS
1011
-159.0104196748152
1021
45.87990988946323
1031
0.0
1002
}
1002
{
1000
PINS2
1011
-141.0459253472256
1021
59.22876592766577
1031
0.0
1002
}
1002
{
1000
C
1070
     1
1002
}
1001
GENIUS_GENODEF_13
1002
{
1000
HIER
1070
     0
1002
}
1002
{
1000
MANEDIT
1070
     0
1002
}
1002
{
1000
NOSEL
1070
     0
1002
}
1002
{
1000
BEHIND
1070
     0
1002
}
1002
{
1000
OTHER
1070
     0
1002
}
1002
{
1000
REACTOR
1002
}
1001
GENIUS_GENOBJ-N-REC_13
1002
{
1000
OWNER
1000
GEN
1002
}
  0
CIRCLE
  5
54E9
330
1F
100
AcDbEntity
  8
0
  6
AM_DIN_F_W050
 62
     6
 48
5.0
100
AcDbCircle
 10
-150.0102777250151
 20
38.08616387900325
 30
0.0
 40
4.842439800186997
  0
CIRCLE
  5
54EA
330
1F
100
AcDbEntity
  8
0
  6
AM_DIN_F_W050
 62
     6
 48
5.0
100
AcDbCircle
 10
-150.0014504348152
 20
25.10195839313319
 30
0.0
 40
4.842439800186997
  0
CIRCLE
  5
54EB
330
1F
100
AcDbEntity
  8
0
  6
AM_DIN_F_W050
 62
     6
 48
5.0
100
AcDbCircle
 10
-150.0000829467151
 20
12.10440521556323
 30
0.0
 40
4.842439800186997
  0
LWPOLYLINE
  5
54EC
330
1F
100
AcDbEntity
  8
0
  6
AM_DIN_F_W050
 62
     6
 48
5.0
100
AcDbPolyline
 90
        4
 70
     1
 43
0.0
 10
-206.9453231031548
 20
5.927885346563229
 10
-196.2778331241245
 20
5.927885346563229
 10
-196.2778331241245
 20
12.47060031573345
 10
-206.9453231031548
 20
13.36705913118247
1001
GENIUS_GENREC_14
1002
{
1000
PYDIR
1011
-206.9453231031548
1021
13.36705913118247
1031
0.0
1002
}
1002
{
1000
PXDIR
1011
-196.2778331241245
1021
5.927885346563229
1031
0.0
1002
}
1002
{
1000
PORI
1011
-206.9453231031548
1021
5.927885346563229
1031
0.0
1002
}
1002
{
1000
PINS
1011
-206.9453231031548
1021
5.927885346563229
1031
0.0
1002
}
1002
{
1000
PINS2
1011
-196.2778331241245
1021
12.47060031573345
1031
0.0
1002
}
1002
{
1000
C
1070
     1
1002
}
1001
GENIUS_GENODEF_13
1002
{
1000
HIER
1070
     0
1002
}
1002
{
1000
MANEDIT
1070
     0
1002
}
1002
{
1000
NOSEL
1070
     0
1002
}
1002
{
1000
BEHIND
1070
     0
1002
}
1002
{
1000
OTHER
1070
     0
1002
}
1002
{
1000
REACTOR
1002
}
1001
GENIUS_GENOBJ-N-REC_13
1002
{
1000
OWNER
1000
GEN
1002
}
  0
ARC
  5
54ED
330
1F
100
AcDbEntity
  8
0
100
AcDbCircle
 10
-207.6371677479107
 20
29.03130929070126
 30
0.0
 40
15.95617044214916
100
AcDbArc
 50
1.885140748610819
 51
117.0764963519697
  0
LINE
  5
54EE
330
1F
100
AcDbEntity
  8
0
100
AcDbLine
 10
-174.3283578320514
 20
5.927885346563229
 30
0.0
 11
-239.5622883742583
 21
5.927885346563243
 31
0.0
  0
LINE
  5
54EF
330
1F
100
AcDbEntity
  8
0
100
AcDbLine
 10
-188.6895965102152
 20
29.55773291592321
 30
0.0
 11
-191.6896330901334
 21
29.55620310654057
 31
0.0
  0
ARC
  5
54F0
330
1F
100
AcDbEntity
  8
0
100
AcDbCircle
 10
-207.0748499181941
 20
30.9799226879462
 30
0.0
 40
15.47232192379394
100
AcDbArc
 50
238.1840214543083
 51
354.7203755073752
  0
ARC
  5
54F1
330
1F
100
AcDbEntity
  8
0
100
AcDbCircle
 10
-231.5722034065267
 20
-6.137684324621062
 30
0.0
 40
29.00990673162061
100
AcDbArc
 50
55.71764521988925
 51
104.2109710885651
  0
LINE
  5
54F2
330
1F
100
AcDbEntity
  8
0
  6
AM_DIN_F_W050
 62
     6
 48
5.0
100
AcDbLine
 10
-220.7446580482758
 20
40.4151026458711
 30
0.0
 11
-264.5766436997937
 21
19.23938433236903
 31
0.0
  0
LINE
  5
54F3
330
1F
100
AcDbEntity
  8
0
100
AcDbLine
 10
-220.7446580482758
 20
40.4151026458711
 30
0.0
 11
-214.9000924528158
 21
43.23867709440766
 31
0.0
  0
LINE
  5
54F4
330
1F
100
AcDbEntity
  8
0
100
AcDbLine
 10
-236.5481224361793
 20
-17.17795398962862
 30
0.0
 11
-211.0406191736181
 21
-0.025505065722129
 31
0.0
  0
ELLIPSE
  5
54F5
330
1F
100
AcDbEntity
  8
0
  6
AM_DIN_F_W050
 62
     6
 48
5.0
100
AcDbEllipse
 10
-283.0330037651613
 20
1.296814998887683
 30
0.0
 11
3.683002233017375
 21
335.684010257567
 31
0.0
210
0.0
220
0.0
230
1.0
 40
0.9999999908555269
 41
1.55506594165708
 42
1.570958852679244
  0
LINE
  5
54F6
330
1F
100
AcDbEntity
  8
0
  6
AM_DIN_F_W050
 62
     6
 48
5.0
100
AcDbLine
 10
-290.867018678122
 20
12.20618572356038
 30
0.0
 11
-616.618260419772
 21
12.20618572355978
 31
0.0
  0
ARC
  5
54F7
330
1F
100
AcDbEntity
  8
0
  6
AM_DIN_F_W050
 62
     6
 48
5.0
100
AcDbCircle
 10
-616.618260419772
 20
10.20618572355978
 30
0.0
 40
2.0
100
AcDbArc
 50
90.00000000070999
 51
178.470112206758
1001
GENIUS_GENODEF_13
1002
{
1000
HIER
1070
     0
1002
}
1002
{
1000
MANEDIT
1070
     0
1002
}
1002
{
1000
NOSEL
1070
     0
1002
}
1002
{
1000
BEHIND
1070
     0
1002
}
1002
{
1000
OTHER
1070
     0
1002
}
1002
{
1000
REACTOR
1002
}
1001
GENIUS_GENOBJ-N-FIL_13
1002
{
1000
OWNER
1000
GEN
1002
}
  0
ARC
  5
54F8
330
1F
100
AcDbEntity
  8
0
  6
AM_DIN_F_W050
 62
     6
 48
5.0
100
AcDbCircle
 10
-295.3859998827982
 20
81.75214726719987
 30
0.0
 40
69.69262484766662
100
AcDbArc
 50
273.7177582234342
 51
296.2363393920611
  0
ELLIPSE
  5
54F9
330
1F
100
AcDbEntity
  8
0
  6
AM_DIN_F_W050
 62
     6
 48
5.0
100
AcDbEllipse
 10
-209.4152265122465
 20
118.1707010801199
 30
0.0
 11
317.4390572807155
 21
-109.2234597546762
 31
0.0
210
0.0
220
0.0
230
1.0
 40
0.9999999908555269
 41
1.534397580045986
 42
1.570796326794674
  0
LINE
  5
54FA
330
1F
100
AcDbEntity
  8
0
  6
AM_DIN_F_W050
 62
     6
 48
5.0
100
AcDbLine
 10
-86.9340860226182
 20
427.7097513615432
 30
0.0
 11
-190.5493455255703
 21
111.0175362923924
 31
0.0
  0
ARC
  5
54FB
330
1F
100
AcDbEntity
  8
0
  6
AM_DIN_F_W050
 62
     6
 48
5.0
100
AcDbCircle
 10
-143.0281822203875
 20
95.46957700114957
 30
0.0
 40
50.0
100
AcDbArc
 50
161.8829550170177
 51
187.4892356834884
1001
GENIUS_GENODEF_13
1002
{
1000
HIER
1070
     0
1002
}
1002
{
1000
MANEDIT
1070
     0
1002
}
1002
{
1000
NOSEL
1070
     0
1002
}
1002
{
1000
BEHIND
1070
     0
1002
}
1002
{
1000
OTHER
1070
     0
1002
}
1002
{
1000
REACTOR
1002
}
1001
GENIUS_GENOBJ-N-FIL_13
1002
{
1000
OWNER
1000
GEN
1002
}
  0
ARC
  5
54FC
330
1F
100
AcDbEntity
  8
0
  6
AM_DIN_F_W050
 62
     6
 48
5.0
100
AcDbCircle
 10
-89.79093490001616
 20
428.625401126314
 30
0.0
 40
3.0
100
AcDbArc
 50
342.2288051547773
 51
68.92734656627476
  0
LINE
  5
54FD
330
1F
100
AcDbEntity
  8
0
  6
AM_DIN_F_W050
 62
     6
 48
5.0
100
AcDbLine
 10
-112.7910181215999
 20
397.6433425051468
 30
0.0
 11
-203.5996762789207
 21
124.0017435723231
 31
0.0
  0
ARC
  5
54FE
330
1F
100
AcDbEntity
  8
0
  6
AM_DIN_F_W050
 62
     6
 48
5.0
100
AcDbCircle
 10
-114.7540429321776
 20
94.5180949647308
 30
0.0
 40
93.6099999999994
100
AcDbArc
 50
161.6414442384795
 51
183.5948879816485
1001
GENIUS_GENODEF_13
1002
{
1000
HIER
1070
     0
1002
}
1002
{
1000
MANEDIT
1070
     0
1002
}
1002
{
1000
NOSEL
1070
     0
1002
}
1002
{
1000
BEHIND
1070
     0
1002
}
1002
{
1000
OTHER
1070
     0
1002
}
1002
{
1000
REACTOR
1002
}
1001
GENIUS_GENOBJ-N-FIL_13
1002
{
1000
OWNER
1000
GEN
1002
}
  0
LINE
  5
54FF
330
1F
100
AcDbEntity
  8
0
  6
AM_DIN_F_W050
 62
     6
 48
5.0
100
AcDbLine
 10
-192.6016505300464
 20
88.95258077963454
 30
0.0
 11
-182.7228496618923
 21
13.80654645202513
 31
0.0
  0
LINE
  5
5500
330
1F
100
AcDbEntity
  8
0
  6
AM_DIN_F_W050
 62
     6
 48
5.0
100
AcDbLine
 10
-100.1917677563614
 20
435.6097554580223
 30
0.0
 11
-112.7910181215999
 21
397.6433425051468
 31
0.0
  0
LINE
  5
5501
330
1F
100
AcDbEntity
  8
0
  6
AM_DIN_F_W050
 62
     6
 48
5.0
100
AcDbLine
 10
-205.7584512001588
 20
69.48345534173073
 30
0.0
 11
-208.1798490367602
 21
88.64861000360933
 31
0.0
  0
ARC
  5
5502
330
1F
100
AcDbEntity
  8
0
  6
AM_DIN_F_W050
 62
     6
 48
5.0
100
AcDbCircle
 10
-185.3573241802989
 20
13.77633390799737
 30
0.0
 40
2.634647753676065
100
AcDbArc
 50
277.4892356834917
 51
0.6570476831954179
  0
LINE
  5
5503
330
1F
100
AcDbEntity
  8
0
  6
AM_DIN_F_W050
 62
     6
 48
5.0
100
AcDbLine
 10
-185.0139243911844
 20
11.16416136951785
 30
0.0
 11
-189.8338996555816
 21
10.53052080215515
 31
0.0
  0
ARC
  5
5504
330
1F
100
AcDbEntity
  8
0
  6
AM_DIN_F_W050
 62
     6
 48
5.0
100
AcDbCircle
 10
-208.7583687651721
 20
32.0935977380115
 30
0.0
 40
15.9561704421492
100
AcDbArc
 50
253.5265849870854
 51
6.260530776532547
  0
ARC
  5
5505
330
1F
100
AcDbEntity
  8
0
  6
AM_DIN_F_W050
 62
     6
 48
5.0
100
AcDbCircle
 10
-207.0860409142051
 20
30.9461592549459
 30
0.0
 40
15.47232192379394
100
AcDbArc
 50
129.8254656927847
 51
246.3618197458467
  0
ARC
  5
5506
330
1F
100
AcDbEntity
  8
0
  6
AM_DIN_F_W050
 62
     6
 48
5.0
100
AcDbCircle
 10
-235.123040057851
 20
66.16691892484023
 30
0.0
 40
29.55128580258157
100
AcDbArc
 50
307.838146148968
 51
6.443872758571536
  0
LINE
  5
5507
330
1F
100
AcDbEntity
  8
0
  6
AM_DIN_F_W050
 62
     6
 48
5.0
100
AcDbLine
 10
-195.5321037161975
 20
53.87560323267324
 30
0.0
 11
-189.8338996555816
 21
10.53052080215515
 31
0.0
  0
ARC
  5
5508
330
1F
100
AcDbEntity
  8
0
  6
AM_DIN_F_W050
 62
     6
 48
5.0
100
AcDbCircle
 10
-212.8071485784125
 20
51.44567572253804
 30
0.0
 40
17.44510598122156
100
AcDbArc
 50
8.00675938278797
 51
54.57946550030065
  0
ARC
  5
5509
330
1F
100
AcDbEntity
  8
0
  6
AM_DIN_F_W050
 62
     6
 48
5.0
100
AcDbCircle
 10
-200.5101981242806
 20
70.55130126643304
 30
0.0
 40
5.355787081967337
100
AcDbArc
 50
191.5008047756895
 51
245.9081802041368
  0
LINE
  5
550A
330
1F
100
AcDbEntity
  8
0
100
AcDbLine
 10
-248.0851751861425
 20
-0.021137959127671
 30
0.0
 11
-204.1360632754413
 21
-0.0263190296304714
 31
0.0
  0
LINE
  5
550B
330
1F
100
AcDbEntity
  8
0
100
AcDbLine
 10
-243.8117892468238
 20
20.22509756121177
 30
0.0
 11
-226.1276055320315
 21
28.68252387213862
 31
0.0
  0
LINE
  5
550C
330
1F
100
AcDbEntity
  8
0
100
AcDbLine
 10
-85.71909990882545
 20
-0.0402789621355311
 30
0.0
 11
-85.71909990882545
 21
-0.0402789620752344
 31
0.0
  0
ARC
  5
550E
330
1F
100
AcDbEntity
  8
0
  6
AM_DIN_F_W050
 62
     6
 48
5.0
100
AcDbCircle
 10
-526.7975858365129
 20
11.61254303694237
 30
0.0
 40
6.676548682476148
100
AcDbArc
 50
175.2664493834212
 51
268.9398217263317
  0
ARC
  5
550F
330
1F
100
AcDbEntity
  8
0
  6
AM_DIN_F_W050
 62
     6
 48
5.0
100
AcDbCircle
 10
-520.1871427475428
 20
11.61254303694237
 30
0.0
 40
6.676548682476148
100
AcDbArc
 50
271.0601782736683
 51
4.733550616578756
  0
LINE
  5
5510
330
1F
100
AcDbEntity
  8
0
  6
AM_DIN_F_W050
 62
     6
 48
5.0
100
AcDbLine
 10
-526.9211189833912
 20
4.93713729113962
 30
0.0
 11
-520.0636096006645
 21
4.93713729113962
 31
0.0
  0
REGION
  5
5511
330
1F
100
AcDbEntity
  8
0
100
AcDbModelerGeometry
 70
     1
  1
mogoo nlm m o         
  1
ni ^ *+0;:,4 ^ *+0\^ [ nf ^ LR mniqoqoqkjon QK o  
  1
n fqfffffffffffffffj:rooh n:rono 
  1
>,27:>;:- {rn rn _nm mniqoqoqkjon |
  1
=0;& {rn rn {rn {m {rn {rn |
  1
3*2/ {rn rn {rn {rn {l {n |
  1
,7:33 {rn rn {rn {rn {rn {k {rn {m |
  1
9><: {rn rn {rn {rn {j {l {rn {i 90-(>-; ;0*=3: 0*+ |
  1
300/ {rn rn {rn {rn {h {k |
  1
/3>1:r,*-9><: {rn rn {rn rlloqfklhkognffnnk ngqnnfhiooohhmgjgh o o o n n o o 90-(>-;@) V V V V |
  1
<0:;8: {rn rn {rn {g {f {rn {no -:):-,:; {j {rn |
  1
<0:;8: {rn rn {rn {nn {h {rn {nm -:):-,:; {j {rn |
  1
<0:;8: {rn rn {rn {h {nl {rn {nk -:):-,:; {j {rn |
  1
:;8: {rn rn {rn {nj o {ni ngmqkingohjigkongn {h {nh 90-(>-; _h *1410(1 |
  1
<0:;8: {rn rn {rn {ng {g {rn {nf -:):-,:; {j {rn |
  1
:;8: {rn rn {rn {mo roqmmlkimihmoilhkffm {nj oqmmlkimihmoilhjogh {g {mn 90-(>-; _h *1410(1 |
  1
<0:;8: {rn rn {rn {f {mm {rn {ml -:):-,:; {j {rn |
  1
:;8: {rn rn {rn {ni roqhhjinmfiginomihng {mk oqhhjinmfiginomifmf {f {mj 90-(>-; _h *1410(1 |
  1
):-+:' {rn rn {rn {no {mi |
  1
):-+:' {rn rn {rn {no {mh |
  1
,+->687+r<*-): {rn rn {rn rmiiqifnommhoghniim miqkjhmilijigfhjjl o oqgfffjjkmknmooiknl oqkljfgnfmoolklfmig o V V |
  1
<0:;8: {rn rn {rn {mg {nn {rn {mf -:):-,:; {j {rn |
  1
:;8: {rn rn {rn {lo o {mo llkqnnhhhhjoflhogj {nn {ln 90-(>-; _h *1410(1 |
  1
):-+:' {rn rn {rn {nf {lm |
  1
:336/,:r<*-): {rn rn {rn rmggqkfonnghnoklinj hnqkjjolkgimfooiin o o o n nnqmgjmlhjohjgmhml rkgqhofhghiijmghggk o n V V |
  1
<0:;8: {rn rn {rn {nl {ll {rn {lk -:):-,:; {j {rn |
  1
:;8: {rn rn {rn {mk o {lj lqmllghihgkhionil {nl {li 90-(>-; _h *1410(1 |
  1
):-+:' {rn rn {rn {nk {lh |
  1
:336/,:r<*-): {rn rn {rn rnonqnhjjgljlmihggk nolqlohkkijgnnjjom o ro ro rn oqfjikjgffmkiionik mqgklkkinglonffhii o n V V |
  1
/061+ {rn rn {rn rmiiqifnommhoghniim miqkjhmilijigfhjjl o |
  1
/061+ {rn rn {rn rnomqkgljmfmfmhgmon noiqoohlnmgjljnjmk o |
  1
<0:;8: {rn rn {rn {lg {ng {rn {lf 90-(>-; {j {rn |
  1
:;8: {rn rn {rn {ko roqhijighngggmjojjhn {lo oqhijighngggmjhkki {ng {kn 90-(>-; _h *1410(1 |
  1
):-+:' {rn rn {rn {mf {km |
  1
,+->687+r<*-): {rn rn {rn rimmqlfkhjgijmijgff moqojofkmggojjffhl o oqfffffnniklhgnnofh oqookmolhogjiimokkhmi o V V |
  1
/061+ {rn rn {rn rmggqmhffllmgnilii mnqkjjkhiiklffhlnj o |
  1
<0:;8: {rn rn {rn {mm {kl {rn {kk -:):-,:; {j {rn |
  1
:;8: {rn rn {rn {lj o {kj jqinjhnnonoofmijfl {mm {ki 90-(>-; _h *1410(1 |
  1
):-+:' {rn rn {rn {ml {kh |
  1
,+->687+r<*-): {rn rn {rn rfgqjongmfikmjilgkg nokqiihfhjflfjikgh o oqkjljofhginliiooof roqgfnmjnmfihokffjnk o V V |
  1
/061+ {rn rn {rn rfgqjongmfikmjilgkg nokqiihfhjflfjikgh o |
  1
<0:;8: {rn rn {rn {kg {mg {rn {kf -:):-,:; {j {rn |
  1
:;8: {rn rn {rn {ko nqjlklfhjgookjfggn {jo nqjhohfilmihfkgfii {mg {jn 90-(>-; _h *1410(1 |
  1
):-+:' {rn rn {rn {lf {jm |
  1
:336/,:r<*-): {rn rn {rn rimmqlikoojokiojgij nhqojnnoojnjkmnmnn o ro ro rn rmqnonnjgfokgjoimml mqnknmfnfjfihkimih o n V V |
  1
/061+ {rn rn {rn rimmqlfkhjgijmijgff moqojofkmggojjffhl o |
  1
<0:;8: {rn rn {rn {ll {jl {rn {jk -:):-,:; {j {rn |
  1
:;8: {rn rn {rn {kj o {jj nooqhmknioomkomggj {ll {ji 90-(>-; _h *1410(1 |
  1
):-+:' {rn rn {rn {lk {jh |
  1
,+->687+r<*-): {rn rn {rn rfhqoljmlkghljnjnjn nonqhgjhhfoinhilnf o roqfoojlhnknlofgnjmn roqklkhhfofoomllijjn o V V |
  1
/061+ {rn rn {rn rfhqoljmlkghljnjnjn nonqhgjhhfoinhilnf o |
  1
<0:;8: {rn rn {rn {jg {lg {rn {jf -:):-,:; {j {rn |
  1
:;8: {rn rn {rn {io o {jo lfqojkkmmkjjkjkikm {lg {in 90-(>-; _h *1410(1 |
  1
):-+:' {rn rn {rn {kf {im |
  1
:336/,:r<*-): {rn rn {rn rmfoqoljofmhnommhfi nqmkmmjhiofgjijhfg o o o n lqigloommllonhlhjl lljqigkonomjhjihom o oqffffffffogjjjmifl V V |
  1
/061+ {rn rn {rn rimjqlimhmghjljinhg nhqnlgjffgohngmnng o |
  1
<0:;8: {rn rn {rn {kl {il {rn {ik -:):-,:; {j {rn |
  1
:;8: {rn rn {rn {jj o {ij nngqknifikngfkifih {kl {ii 90-(>-; _h *1410(1 |
  1
):-+:' {rn rn {rn {kk {ih |
  1
,+->687+r<*-): {rn rn {rn rnomqofmlfnmnmfiioj ffqlkkngjllgfiofnm o oqnimjjjhkfmggloooj roqfgiifflioigljkili o V V |
  1
/061+ {rn rn {rn rnomqofmlfnmnmfiioj ffqlkkngjllgfiofnm o |
  1
<0:;8: {rn rn {rn {ig {kg {rn {if -:):-,:; {j {rn |
  1
:;8: {rn rn {rn {ho roqjiillmigojnfghgjn {io oqjiillmigojnfghhk {kg {hn 90-(>-; _h *1410(1 |
  1
):-+:' {rn rn {rn {jf {hm |
  1
,+->687+r<*-): {rn rn {rn rjgiqiikihhkkmighjj kqfmjmjfgofnfkgifg o rn o o V V |
  1
/061+ {rn rn {rn rimjqhnfoffgfgnkmnf kqfmjmjfgofnfkgifg o |
  1
<0:;8: {rn rn {rn {jl {hl {rn {hk -:):-,:; {j {rn |
  1
:;8: {rn rn {rn {ij o {hj liqkihlgggonmikmik {jl {hi 90-(>-; _h *1410(1 |
  1
):-+:' {rn rn {rn {jk {hh |
  1
,+->687+r<*-): {rn rn {rn rgjqhnfofffoggmjkji roqokomhgfimnljjhlifl o roqfffffffflojnmniml oqooonnhgghfkkjmliglhh o V V |
  1
/061+ {rn rn {rn rgjqhnfofffoggmjkji roqokomhgfimnljjhlifl o |
  1
<0:;8: {rn rn {rn {hg {jg {rn {hf -:):-,:; {j {rn |
  1
:;8: {rn rn {rn {go roqiojiljnlllhkomkog {ho oqiojiljnlllhkojnmg {jg {gn 90-(>-; _h *1410(1 |
  1
):-+:' {rn rn {rn {if {gm |
  1
:336/,:r<*-): {rn rn {rn rjgjqognlkmlfgommfn rmlqnolollkfkojiooh o o o n nlqhomnfonlgloghkk mkqjonggohjfgjfnjf o n V V |
  1
/061+ {rn rn {rn rjgiqiikihhkkmighjj kqfmjmjfgofnfkgifg o |
  1
<0:;8: {rn rn {rn {il {gl {rn {gk -:):-,:; {j {rn |
  1
:;8: {rn rn {rn {hj o {gj mkqjmgilihokggjjnk {il {gi 90-(>-; _h *1410(1 |
  1
):-+:' {rn rn {rn {ik {gh |
  1
,+->687+r<*-): {rn rn {rn rmokqnlioilmhjkknmk roqomilnfomfilojkmkkj o roqgmfgmfhljhggjiilk roqjjgoniihjomoimfom o V V |
  1
/061+ {rn rn {rn rmokqnlioilmhjkknmk roqomilnfomfilojkmkkj o |
  1
<0:;8: {rn rn {rn {gg {ig {rn {gf -:):-,:; {j {rn |
  1
:;8: {rn rn {rn {fo o {go mhjqoooohiihoogfgn {ig {fn 90-(>-; _h *1410(1 |
  1
):-+:' {rn rn {rn {hf {fm |
  1
:336/,:r<*-): {rn rn {rn rjjgqjooomhklfffmhg rfqohkikffholigooon o ro ro rn rnqnlgjighmoohgfjlk rnqikkmgnlglfiiogl o n V V |
  1
/061+ {rn rn {rn rjioqlhmnjkhfohglgk rfqhhglnnmkoomhflmm o |
  1
<0:;8: {rn rn {rn {hl {fl {rn {fk -:):-,:; {j {rn |
  1
:;8: {rn rn {rn {gj o {fj gqnoiljgfmmmonfknh {hl {fi 90-(>-; _h *1410(1 |
  1
):-+:' {rn rn {rn {hk {fh |
  1
,+->687+r<*-): {rn rn {rn rmlkqlfhhgiggfmflmf rmoqlhjhloohjnfijkl o roqjjgoniihjomoilnig oqgmfgmfhljhggjikji o V V |
  1
/061+ {rn rn {rn rmlkqlfhhgiggfmflmf rmoqlhjhloohjnfijkl o |
  1
<0:;8: {rn rn {rn {fg {hg {rn {ff -:):-,:; {j {rn |
  1
:;8: {rn rn {rn {noo roqihmjjnhhkikogjkif {fo oqihmjjnhhkikogholj {hg {non 90-(>-; _h *1410(1 |
  1
):-+:' {rn rn {rn {gf {nom |
  1
,+->687+r<*-): {rn rn {rn rmglqkfffjohiffojkn rnnqohkikffholihgjg o rn rmqoiholmgliglogink:roni o V V |
  1
/061+ {rn rn {rn rjjgqjooomhklfffjmg rnnqohkikffholihfnj o |
  1
<0:;8: {rn rn {rn {gl {nol {rn {nok -:):-,:; {j {rn |
  1
:;8: {rn rn {rn {fj o {noj lqjmjnghfkhonnill {gl {noi 90-(>-; _h *1410(1 |
  1
):-+:' {rn rn {rn {gk {noh |
  1
,+->687+r<*-): {rn rn {rn rmkgqogjnhjnginkmjm roqomnnlhfjfnmhhnlijh o roqfffffffflojnmninm oqooonnhgghfkkjmknngjg o V V |
  1
/061+ {rn rn {rn rmkgqogjnhjnginkmjm roqomnnlhfjfnmhhnlijh o |
  1
<0:;8: {rn rn {rn {nog {gg {rn {nof -:):-,:; {j {rn |
  1
:;8: {rn rn {rn {nno roqkolfijljlgfngokgm {noo oqkolfijljlgfngojoj {gg {nnn 90-(>-; _h *1410(1 |
  1
):-+:' {rn rn {rn {ff {nnm |
  1
:336/,:r<*-): {rn rn {rn rmglqkfffjohiffojlj rhqjhkijoomfffokflh o ro ro rn mqngokkklnokflfojl rmqhlhgmohonnnfnnih o n V V |
  1
/061+ {rn rn {rn rmglqkfffjohiffojkn rnnqohkikffholihgjg o |
  1
<0:;8: {rn rn {rn {fl {nnl {rn {nnk -:):-,:; {j {rn |
  1
:;8: {rn rn {rn {noj roqllhljnfgfoognmlfi {nnj oqllhljnfgfoognmmil {fl {nni 90-(>-; _h *1410(1 |
  1
):-+:' {rn rn {rn {fk {nnh |
  1
,+->687+r<*-): {rn rn {rn rmjiqnfnjlkojmonjnl roqomongmlnhnligoojmn o oqomngfikmmfhmkjgkil oqfffhiomkkjgfnhhon o V V |
  1
/061+ {rn rn {rn rmjiqnfnjlkojmonjnl roqomongmlnhnligoojmn o |
  1
<0:;8: {rn rn {rn {nnl {fg {rn {nng -:):-,:; {j {rn |
  1
:;8: {rn rn {rn {nnf o {nno nfqiomjnolgihilg {fg {nmo 90-(>-; _h *1410(1 |
  1
):-+:' {rn rn {rn {nof {nmn |
  1
:336/,:r<*-): {rn rn {rn rmkhqmjmlngminlhjjf rmoqokmmiolnhmfghif o o o n rmjqiooilokilfnfgmn mlqijognhklimhnghj o n V V |
  1
/061+ {rn rn {rn rmgoqogghnlmkmhokhg rgqljhggjhoojikihfi o |
  1
<0:;8: {rn rn {rn {nol {nog {rn {nmm -:):-,:; {j {rn |
  1
:;8: {rn rn {rn {nnj roqogghlolfnfnhinmijg {nml oqogghlolfnfnhinligj {nol {nmk 90-(>-; _h *1410(1 |
  1
):-+:' {rn rn {rn {nok {nmj |
  1
:336/,:r<*-): {rn rn {rn rmjoqfonolikggmihmn mqfmkhoggjkfnihonh o ro ro rn rkqhmhiijofojlnlgoi mqmhmlkoghjkoojhkf o n V V |
  1
/061+ {rn rn {rn rmjiqnnklkjokjiiffj lqjokniokkiffoligf o |
  1
:;8: {rn rn {rn {nmi roqohmijmlmnkoghljjml {nnf oqohmijmlmnkoghljfnm {nog {nmh 90-(>-; _h *1410(1 |
  1
):-+:' {rn rn {rn {nng {nmg |
  1
,+->687+r<*-): {rn rn {rn rmklqgnnhgfmkigmmfn moqmmjofhjinmnmnmk o roqfomnlghmklhnmgimg roqklnkkiogmliifolng o V V |
  1
/061+ {rn rn {rn rminqkfjfhmfininmgf nnqhihihnmjomgiljj o |
  1
:;8: {rn rn {rn {nml roqjlfmkmoknlnimfhkf {nmi oqjlfmkmoknlnimflni {nnl {nmf 90-(>-; _h *1410(1 |
  1
):-+:' {rn rn {rn {nnk {nlo |
  1
:336/,:r<*-): {rn rn {rn rnfhqffmkoohlfnmkmn rjfqlhnfoffnhjjokgm o ro ro rn rjoqjkjfkmllknignlf hoqhilnklmnnffhgmf o n V V |
  1
/061+ {rn rn {rn rmjkqinonolnoonmojh iqillhhjkiihjgjj o |
  1
):-+:' {rn rn {rn {nmm {nln |
  1
:336/,:r<*-): {rn rn {rn rmmfqnijffiighhfglg rnkqojkhgkiogghmlgm o o o n rnmqnngglkojngmgnij ljqmjmjiinglmomfg o n V V |
  1
/061+ {rn rn {rn rmklqgnnhgfmkigmmfn moqmmjofhjinmnmnmk o |
  1
:336/,:r<*-): {rn rn {rn rmkjqhmmhhlhfofhlng mnqiogngggnkomgiij o o o n iqmmkijnnfkimnnill rlqmgilmnfjgimnkgfg o n V V |
  1
/061+ {rn rn {rn rmkmqoiggfniffnolhk njqjfnflmkggfklogh o |
  1
/061+ {rn rn {rn rmlgqiflflmhfhfnokn mnqfgkkhnifmjlkmhn o |
  0
ENDSEC
  0
SECTION
  2
OBJECTS
  0
DICTIONARY
  5
C
330
0
100
AcDbDictionary
281
     1
  3
ACAD_2007HEADERVARS_RT
350
5562
  3
ACAD_COLOR
350
3AE5
  3
ACAD_GROUP
350
D
  3
ACAD_LAYOUT
350
1A
  3
ACAD_MATERIAL
350
3ABB
  3
ACAD_MLEADERSTYLE
350
3AFA
  3
ACAD_MLINESTYLE
350
17
  3
ACAD_PLOTSETTINGS
350
19
  3
ACAD_PLOTSTYLENAME
350
E
  3
ACAD_SCALELIST
350
3AE8
  3
ACAD_TABLESTYLE
350
3AE6
  3
ACAD_VISUALSTYLE
350
3AD4
  3
ACDB_RECOMPOSE_DATA
350
5561
  3
AcDbVariableDictionary
350
86
  3
AcmDictionary
350
45
  3
AEC_PROPERTY_SET_DEFS
350
5255
  3
AMG
350
41
  3
AMGSNAPSETTINGS
350
332
  3
ASE_INDEX_DICTIONARY
350
401E
  0
DICTIONARY
  5
3C5C
330
8
100
AcDbDictionary
280
     1
281
     1
  0
DICTIONARY
  5
4023
330
2
100
AcDbDictionary
280
     1
281
     1
  3
ACAD_LAYERSTATES
360
4024
  0
DICTIONARY
  5
3B84
330
10
100
AcDbDictionary
280
     1
281
     1
  3
ADSK_XREC_LAYER_RECONCILED
360
3B85
  0
DICTIONARY
  5
81
330
1F
100
AcDbDictionary
280
     1
281
     1
  3
ACAD_SORTENTS
360
3B74
  0
DICTIONARY
  5
5562
102
{ACAD_REACTORS
330
C
102
}
330
C
100
AcDbDictionary
281
     1
  3
DIMJOGANG
350
5563
  3
DIMLTEX1
350
5565
  3
DIMLTEX2
350
5566
  3
DIMLTYPE
350
5564
  0
DICTIONARY
  5
3AE5
102
{ACAD_REACTORS
330
C
102
}
330
C
100
AcDbDictionary
281
     1
  0
DICTIONARY
  5
D
102
{ACAD_REACTORS
330
C
102
}
330
C
100
AcDbDictionary
281
     1
  0
DICTIONARY
  5
1A
102
{ACAD_REACTORS
330
C
102
}
330
C
100
AcDbDictionary
281
     1
  3
Layout1
350
1E
  3
Layout2
350
26
  3
Model
350
22
  0
DICTIONARY
  5
3ABB
102
{ACAD_REACTORS
330
C
102
}
330
C
100
AcDbDictionary
281
     1
  3
ByBlock
350
3AC4
  3
ByLayer
350
3ABC
  3
Global
350
3ACC
  0
DICTIONARY
  5
3AFA
102
{ACAD_REACTORS
330
C
102
}
330
C
100
AcDbDictionary
281
     1
  3
Standard
350
3AFB
  0
DICTIONARY
  5
17
102
{ACAD_REACTORS
330
C
102
}
330
C
100
AcDbDictionary
281
     1
  3
Standard
350
18
  0
DICTIONARY
  5
19
102
{ACAD_REACTORS
330
C
102
}
330
C
100
AcDbDictionary
281
     1
  0
ACDBDICTIONARYWDFLT
  5
E
102
{ACAD_REACTORS
330
C
102
}
330
C
100
AcDbDictionary
281
     1
  3
Normal
350
F
100
AcDbDictionaryWithDefault
340
F
  0
DICTIONARY
  5
3AE8
102
{ACAD_REACTORS
330
C
102
}
330
C
100
AcDbDictionary
281
     1
  3
A0
350
3AE9
  3
A1
350
3AEA
  3
A2
350
3AEB
  3
A3
350
3AEC
  3
A4
350
3AED
  3
A5
350
3AEE
  3
A6
350
3AEF
  3
A7
350
3AF0
  3
A8
350
3AF1
  3
A9
350
3AF2
  3
B0
350
3AF3
  3
B1
350
3AF4
  3
B2
350
3AF5
  3
B3
350
3AF6
  3
B4
350
3AF7
  3
B5
350
3AF8
  3
B6
350
3AF9
  0
DICTIONARY
  5
3AE6
102
{ACAD_REACTORS
330
C
102
}
330
C
100
AcDbDictionary
281
     1
  3
Standard
350
3AE7
  0
DICTIONARY
  5
3AD4
102
{ACAD_REACTORS
330
C
102
}
330
C
100
AcDbDictionary
281
     1
  3
2dWireframe
350
3ADA
  3
3D Hidden
350
3ADC
  3
3dWireframe
350
3ADB
  3
Basic
350
3AD9
  3
Brighten
350
3AE0
  3
ColorChange
350
3AE4
  3
Conceptual
350
3ADD
  3
Dim
350
3ADF
  3
EdgeColorOff
350
3F26
  3
Facepattern
350
3AE3
  3
Flat
350
3AD5
  3
FlatWithEdges
350
3AD6
  3
Gouraud
350
3AD7
  3
GouraudWithEdges
350
3AD8
  3
Hidden
350
3F1E
  3
JitterOff
350
3F24
  3
Linepattern
350
3AE2
  3
OverhangOff
350
3F25
  3
Realistic
350
3ADE
  3
Shaded
350
3F23
  3
Shaded with edges
350
3F22
  3
Shades of Gray
350
3F1F
  3
Sketchy
350
3F20
  3
Thicken
350
3AE1
  3
Wireframe
350
3F1D
  3
X-Ray
350
3F21
  0
XRECORD
  5
5561
102
{ACAD_REACTORS
330
C
102
}
330
C
100
AcDbXrecord
280
     1
 90
        1
330
3AE7
  0
DICTIONARY
  5
86
102
{ACAD_REACTORS
330
C
102
}
330
C
100
AcDbDictionary
281
     1
  3
CANNOSCALE
350
3C64
  3
CMLEADERSTYLE
350
3C63
  3
CTABLESTYLE
350
3C62
  3
DIMASSOC
350
89
  3
HIDETEXT
350
88
  3
INDEXCTL
350
87
  3
LAYEREVAL
350
3E31
  3
LAYERNOTIFY
350
3E32
  3
LIGHTINGUNITS
350
3E30
  3
MSLTSCALE
350
3E2F
  0
DICTIONARY
  5
45
102
{ACAD_REACTORS
330
C
102
}
330
C
100
AcDbDictionary
281
     1
  3
AcmStdDictionary
350
4A
  3
AMDTSECTSYM_ARROWCOLOR
350
3B53
  0
DICTIONARY
  5
5255
102
{ACAD_REACTORS
330
C
102
}
330
C
100
AcDbDictionary
281
     1
  0
DICTIONARY
  5
41
102
{ACAD_REACTORS
330
C
102
}
330
C
100
AcDbDictionary
281
     1
  0
DICTIONARY
  5
332
102
{ACAD_REACTORS
330
C
102
}
330
C
100
AcDbDictionary
281
     1
  0
DICTIONARY
  5
401E
102
{ACAD_REACTORS
330
C
102
}
330
C
100
AcDbDictionary
281
     1
  3
ASEBlockHierarchyIndexRecord
350
401F
1001
DCO15
1040
1718452760.572
  0
DICTIONARY
  5
4024
102
{ACAD_REACTORS
330
4023
102
}
330
4023
100
AcDbDictionary
281
     1
  0
XRECORD
  5
3B85
102
{ACAD_REACTORS
330
3B84
102
}
330
3B84
100
AcDbXrecord
280
     1
290
     1
  0
SORTENTSTABLE
  5
3B74
102
{ACAD_REACTORS
330
81
102
}
330
81
100
AcDbSortentsTable
330
1F
  0
XRECORD
  5
5563
102
{ACAD_REACTORS
330
5562
102
}
330
5562
100
AcDbXrecord
280
     1
 40
1.570796326794896
  0
XRECORD
  5
5565
102
{ACAD_REACTORS
330
5562
102
}
330
5562
100
AcDbXrecord
280
     1
340
14
  0
XRECORD
  5
5566
102
{ACAD_REACTORS
330
5562
102
}
330
5562
100
AcDbXrecord
280
     1
340
14
  0
XRECORD
  5
5564
102
{ACAD_REACTORS
330
5562
102
}
330
5562
100
AcDbXrecord
280
     1
340
14
  0
LAYOUT
  5
1E
102
{ACAD_REACTORS
330
1A
102
}
330
1A
100
AcDbPlotSettings
  1

  2
Epson Stylus COLOR 440 ESC/P 2
  4

  6

 40
0.0
 41
0.0
 42
0.0
 43
0.0
 44
0.0
 45
0.0
 46
0.0
 47
0.0
 48
0.0
 49
0.0
140
0.0
141
0.0
142
1.0
143
1.0
 70
   688
 72
     0
 73
     0
 74
     5
  7

 75
    16
147
1.0
 76
     0
 77
     2
 78
   300
148
0.0
149
0.0
100
AcDbLayout
  1
Layout1
 70
     1
 71
     1
 10
0.0
 20
0.0
 11
420.0
 21
297.0
 12
0.0
 22
0.0
 32
0.0
 14
1.000000000000000E+20
 24
1.000000000000000E+20
 34
1.000000000000000E+20
 15
-1.000000000000000E+20
 25
-1.000000000000000E+20
 35
-1.000000000000000E+20
146
0.0
 13
0.0
 23
0.0
 33
0.0
 16
1.0
 26
0.0
 36
0.0
 17
0.0
 27
1.0
 37
0.0
 76
     0
330
1B
  0
LAYOUT
  5
26
102
{ACAD_REACTORS
330
1A
102
}
330
1A
100
AcDbPlotSettings
  1

  2
Epson Stylus COLOR 440 ESC/P 2
  4

  6

 40
0.0
 41
0.0
 42
0.0
 43
0.0
 44
0.0
 45
0.0
 46
0.0
 47
0.0
 48
0.0
 49
0.0
140
0.0
141
0.0
142
1.0
143
1.0
 70
   688
 72
     0
 73
     0
 74
     5
  7

 75
    16
147
1.0
 76
     0
 77
     2
 78
   300
148
0.0
149
0.0
100
AcDbLayout
  1
Layout2
 70
     1
 71
     2
 10
0.0
 20
0.0
 11
12.0
 21
9.0
 12
0.0
 22
0.0
 32
0.0
 14
0.0
 24
0.0
 34
0.0
 15
0.0
 25
0.0
 35
0.0
146
0.0
 13
0.0
 23
0.0
 33
0.0
 16
1.0
 26
0.0
 36
0.0
 17
0.0
 27
1.0
 37
0.0
 76
     0
330
23
  0
LAYOUT
  5
22
102
{ACAD_XDICTIONARY
360
4029
102
}
102
{ACAD_REACTORS
330
1A
102
}
330
1A
100
AcDbPlotSettings
  1

  2
Epson Stylus COLOR 440 ESC/P 2
  4

  6

 40
0.0
 41
0.0
 42
0.0
 43
0.0
 44
0.0
 45
0.0
 46
0.0
 47
0.0
 48
0.0
 49
0.0
140
0.0
141
0.0
142
1.0
143
1.0
 70
  1712
 72
     0
 73
     0
 74
     0
  7

 75
     0
147
1.0
 76
     0
 77
     2
 78
   300
148
0.0
149
0.0
100
AcDbLayout
  1
Model
 70
     1
 71
     0
 10
0.0
 20
0.0
 11
12.0
 21
9.0
 12
0.0
 22
0.0
 32
0.0
 14
0.0
 24
0.0
 34
0.0
 15
0.0
 25
0.0
 35
0.0
146
0.0
 13
0.0
 23
0.0
 33
0.0
 16
1.0
 26
0.0
 36
0.0
 17
0.0
 27
1.0
 37
0.0
 76
     0
330
1F
331
3AB9
  0
MATERIAL
  5
3AC4
102
{ACAD_XDICTIONARY
360
3AC5
102
}
102
{ACAD_REACTORS
330
3ABB
102
}
330
3ABB
100
AcDbMaterial
  1
ByBlock
 72
     0
 43
0.0008202099737533
 43
0.0
 43
0.0
 43
0.0
 43
0.0
 43
0.0008202099737533
 43
0.0
 43
0.0
 43
0.0
 43
0.0
 43
1.0
 43
0.0
 43
0.0
 43
0.0
 43
0.0
 43
1.0
 77
     0
 47
0.0008202099737533
 47
0.0
 47
0.0
 47
0.0
 47
0.0
 47
0.0008202099737533
 47
0.0
 47
0.0
 47
0.0
 47
0.0
 47
1.0
 47
0.0
 47
0.0
 47
0.0
 47
0.0
 47
1.0
171
     0
 49
0.0008202099737533
 49
0.0
 49
0.0
 49
0.0
 49
0.0
 49
0.0008202099737533
 49
0.0
 49
0.0
 49
0.0
 49
0.0
 49
1.0
 49
0.0
 49
0.0
 49
0.0
 49
0.0
 49
1.0
175
     0
142
0.0008202099737533
142
0.0
142
0.0
142
0.0
142
0.0
142
0.0008202099737533
142
0.0
142
0.0
142
0.0
142
0.0
142
1.0
142
0.0
142
0.0
142
0.0
142
0.0
142
1.0
179
     0
144
0.0008202099737533
144
0.0
144
0.0
144
0.0
144
0.0
144
0.0008202099737533
144
0.0
144
0.0
144
0.0
144
0.0
144
1.0
144
0.0
144
0.0
144
0.0
144
0.0
144
1.0
147
0.0008202099737533
147
0.0
147
0.0
147
0.0
147
0.0
147
0.0008202099737533
147
0.0
147
0.0
147
0.0
147
0.0
147
1.0
147
0.0
147
0.0
147
0.0
147
0.0
147
1.0
  0
MATERIAL
  5
3ABC
102
{ACAD_XDICTIONARY
360
3ABD
102
}
102
{ACAD_REACTORS
330
3ABB
102
}
330
3ABB
100
AcDbMaterial
  1
ByLayer
 72
     0
 43
0.0008202099737533
 43
0.0
 43
0.0
 43
0.0
 43
0.0
 43
0.0008202099737533
 43
0.0
 43
0.0
 43
0.0
 43
0.0
 43
1.0
 43
0.0
 43
0.0
 43
0.0
 43
0.0
 43
1.0
 77
     0
 47
0.0008202099737533
 47
0.0
 47
0.0
 47
0.0
 47
0.0
 47
0.0008202099737533
 47
0.0
 47
0.0
 47
0.0
 47
0.0
 47
1.0
 47
0.0
 47
0.0
 47
0.0
 47
0.0
 47
1.0
171
     0
 49
0.0008202099737533
 49
0.0
 49
0.0
 49
0.0
 49
0.0
 49
0.0008202099737533
 49
0.0
 49
0.0
 49
0.0
 49
0.0
 49
1.0
 49
0.0
 49
0.0
 49
0.0
 49
0.0
 49
1.0
175
     0
142
0.0008202099737533
142
0.0
142
0.0
142
0.0
142
0.0
142
0.0008202099737533
142
0.0
142
0.0
142
0.0
142
0.0
142
1.0
142
0.0
142
0.0
142
0.0
142
0.0
142
1.0
179
     0
144
0.0008202099737533
144
0.0
144
0.0
144
0.0
144
0.0
144
0.0008202099737533
144
0.0
144
0.0
144
0.0
144
0.0
144
1.0
144
0.0
144
0.0
144
0.0
144
0.0
144
1.0
147
0.0008202099737533
147
0.0
147
0.0
147
0.0
147
0.0
147
0.0008202099737533
147
0.0
147
0.0
147
0.0
147
0.0
147
1.0
147
0.0
147
0.0
147
0.0
147
0.0
147
1.0
  0
MATERIAL
  5
3ACC
102
{ACAD_XDICTIONARY
360
3ACD
102
}
102
{ACAD_REACTORS
330
3ABB
102
}
330
3ABB
100
AcDbMaterial
  1
Global
 72
     0
 43
0.0008202099737533
 43
0.0
 43
0.0
 43
0.0
 43
0.0
 43
0.0008202099737533
 43
0.0
 43
0.0
 43
0.0
 43
0.0
 43
1.0
 43
0.0
 43
0.0
 43
0.0
 43
0.0
 43
1.0
 77
     0
 47
0.0008202099737533
 47
0.0
 47
0.0
 47
0.0
 47
0.0
 47
0.0008202099737533
 47
0.0
 47
0.0
 47
0.0
 47
0.0
 47
1.0
 47
0.0
 47
0.0
 47
0.0
 47
0.0
 47
1.0
171
     0
 49
0.0008202099737533
 49
0.0
 49
0.0
 49
0.0
 49
0.0
 49
0.0008202099737533
 49
0.0
 49
0.0
 49
0.0
 49
0.0
 49
1.0
 49
0.0
 49
0.0
 49
0.0
 49
0.0
 49
1.0
175
     0
142
0.0008202099737533
142
0.0
142
0.0
142
0.0
142
0.0
142
0.0008202099737533
142
0.0
142
0.0
142
0.0
142
0.0
142
1.0
142
0.0
142
0.0
142
0.0
142
0.0
142
1.0
179
     0
144
0.0008202099737533
144
0.0
144
0.0
144
0.0
144
0.0
144
0.0008202099737533
144
0.0
144
0.0
144
0.0
144
0.0
144
1.0
144
0.0
144
0.0
144
0.0
144
0.0
144
1.0
147
0.0008202099737533
147
0.0
147
0.0
147
0.0
147
0.0
147
0.0008202099737533
147
0.0
147
0.0
147
0.0
147
0.0
147
1.0
147
0.0
147
0.0
147
0.0
147
0.0
147
1.0
  0
MLEADERSTYLE
  5
3AFB
102
{ACAD_REACTORS
330
3AFA
102
}
330
3AFA
100
AcDbMLeaderStyle
170
     2
171
     1
172
     0
 90
        2
 40
0.0
 41
0.0
173
     1
 91
-1056964608
340
14
 92
       -2
290
     1
 42
2.0
291
     1
 43
0.36
  3
Standard
 44
4.0
300

342
11
174
     1
178
     6
175
     1
176
     0
 93
-1056964608
 45
4.0
292
     0
297
     0
 46
4.0
 94
-1056964608
 47
1.0
 49
1.0
140
1.0
293
     1
141
0.0
294
     1
177
     0
142
1.0
295
     0
296
     0
143
0.125
1001
ACAD_MLEADERVER
1070
     2
  0
MLINESTYLE
  5
18
102
{ACAD_REACTORS
330
17
102
}
330
17
100
AcDbMlineStyle
  2
STANDARD
 70
     0
  3

 62
   256
 51
90.0
 52
90.0
 71
     2
 49
0.5
 62
   256
  6
BYLAYER
 49
-0.5
 62
   256
  6
BYLAYER
  0
ACDBPLACEHOLDER
  5
F
102
{ACAD_REACTORS
330
E
102
}
330
E
  0
SCALE
  5
3AE9
102
{ACAD_REACTORS
330
3AE8
102
}
330
3AE8
100
AcDbScale
 70
     0
300
1:1
140
1.0
141
1.0
290
     1
  0
SCALE
  5
3AEA
102
{ACAD_REACTORS
330
3AE8
102
}
330
3AE8
100
AcDbScale
 70
     0
300
1:2
140
1.0
141
2.0
290
     0
  0
SCALE
  5
3AEB
102
{ACAD_REACTORS
330
3AE8
102
}
330
3AE8
100
AcDbScale
 70
     0
300
1:4
140
1.0
141
4.0
290
     0
  0
SCALE
  5
3AEC
102
{ACAD_REACTORS
330
3AE8
102
}
330
3AE8
100
AcDbScale
 70
     0
300
1:5
140
1.0
141
5.0
290
     0
  0
SCALE
  5
3AED
102
{ACAD_REACTORS
330
3AE8
102
}
330
3AE8
100
AcDbScale
 70
     0
300
1:8
140
1.0
141
8.0
290
     0
  0
SCALE
  5
3AEE
102
{ACAD_REACTORS
330
3AE8
102
}
330
3AE8
100
AcDbScale
 70
     0
300
1:10
140
1.0
141
10.0
290
     0
  0
SCALE
  5
3AEF
102
{ACAD_REACTORS
330
3AE8
102
}
330
3AE8
100
AcDbScale
 70
     0
300
1:16
140
1.0
141
16.0
290
     0
  0
SCALE
  5
3AF0
102
{ACAD_REACTORS
330
3AE8
102
}
330
3AE8
100
AcDbScale
 70
     0
300
1:20
140
1.0
141
20.0
290
     0
  0
SCALE
  5
3AF1
102
{ACAD_REACTORS
330
3AE8
102
}
330
3AE8
100
AcDbScale
 70
     0
300
1:30
140
1.0
141
30.0
290
     0
  0
SCALE
  5
3AF2
102
{ACAD_REACTORS
330
3AE8
102
}
330
3AE8
100
AcDbScale
 70
     0
300
1:40
140
1.0
141
40.0
290
     0
  0
SCALE
  5
3AF3
102
{ACAD_REACTORS
330
3AE8
102
}
330
3AE8
100
AcDbScale
 70
     0
300
1:50
140
1.0
141
50.0
290
     0
  0
SCALE
  5
3AF4
102
{ACAD_REACTORS
330
3AE8
102
}
330
3AE8
100
AcDbScale
 70
     0
300
1:100
140
1.0
141
100.0
290
     0
  0
SCALE
  5
3AF5
102
{ACAD_REACTORS
330
3AE8
102
}
330
3AE8
100
AcDbScale
 70
     0
300
2:1
140
2.0
141
1.0
290
     0
  0
SCALE
  5
3AF6
102
{ACAD_REACTORS
330
3AE8
102
}
330
3AE8
100
AcDbScale
 70
     0
300
4:1
140
4.0
141
1.0
290
     0
  0
SCALE
  5
3AF7
102
{ACAD_REACTORS
330
3AE8
102
}
330
3AE8
100
AcDbScale
 70
     0
300
8:1
140
8.0
141
1.0
290
     0
  0
SCALE
  5
3AF8
102
{ACAD_REACTORS
330
3AE8
102
}
330
3AE8
100
AcDbScale
 70
     0
300
10:1
140
10.0
141
1.0
290
     0
  0
SCALE
  5
3AF9
102
{ACAD_REACTORS
330
3AE8
102
}
330
3AE8
100
AcDbScale
 70
     0
300
100:1
140
100.0
141
1.0
290
     0
  0
TABLESTYLE
  5
3AE7
102
{ACAD_XDICTIONARY
360
3C59
102
}
102
{ACAD_REACTORS
330
3AE6
102
}
330
3AE6
100
AcDbTableStyle
  3
Standard
 70
     0
 71
     0
 40
1.5
 41
1.5
280
     0
281
     0
  7
STANDARD
140
4.5
170
     2
 62
     0
 63
     7
283
     0
274
    -2
284
     1
 64
     0
275
    -2
285
     1
 65
     0
276
    -2
286
     1
 66
     0
277
    -2
287
     1
 67
     0
278
    -2
288
     1
 68
     0
279
    -2
289
     1
 69
     0
  7
STANDARD
140
6.0
170
     5
 62
     0
 63
     7
283
     0
274
    -2
284
     1
 64
     0
275
    -2
285
     1
 65
     0
276
    -2
286
     1
 66
     0
277
    -2
287
     1
 67
     0
278
    -2
288
     1
 68
     0
279
    -2
289
     1
 69
     0
  7
STANDARD
140
4.5
170
     5
 62
     0
 63
     7
283
     0
274
    -2
284
     1
 64
     0
275
    -2
285
     1
 65
     0
276
    -2
286
     1
 66
     0
277
    -2
287
     1
 67
     0
278
    -2
288
     1
 68
     0
279
    -2
289
     1
 69
     0
  0
VISUALSTYLE
  5
3ADA
102
{ACAD_XDICTIONARY
360
5574
102
}
102
{ACAD_REACTORS
330
3AD4
102
}
330
3AD4
100
AcDbVisualStyle
  2
2dWireframe
 70
     4
 71
     0
 72
     2
 73
     0
 90
        0
 40
-0.6
 41
-30.0
 62
     5
 63
     7
421
 16777215
 74
     1
 91
        4
 64
     7
 65
   257
 75
     1
175
     1
 42
1.0
 92
        0
 66
   257
 43
1.0
 76
     1
 77
     6
 78
     2
 67
     7
 79
     5
170
     0
171
     0
290
     0
174
     0
 93
        1
 44
0.0
173
     0
291
     0
 45
0.0
1001
ACAD
1000
AcDbSavedByObjectVersion
1070
     0
  0
VISUALSTYLE
  5
3ADC
102
{ACAD_XDICTIONARY
360
5578
102
}
102
{ACAD_REACTORS
330
3AD4
102
}
330
3AD4
100
AcDbVisualStyle
  2
3D Hidden
 70
     6
 71
     1
 72
     2
 73
     2
 90
        0
 40
-0.6
 41
-30.0
 62
     5
 63
     7
421
 16777215
 74
     2
 91
        2
 64
     7
 65
   257
 75
     2
175
     1
 42
40.0
 92
        0
 66
   257
 43
1.0
 76
     1
 77
     6
 78
     2
 67
     7
 79
     3
170
     0
171
     0
290
     0
174
     0
 93
        1
 44
0.0
173
     0
291
     0
 45
0.0
1001
ACAD
1000
AcDbSavedByObjectVersion
1070
     0
  0
VISUALSTYLE
  5
3ADB
102
{ACAD_XDICTIONARY
360
5576
102
}
102
{ACAD_REACTORS
330
3AD4
102
}
330
3AD4
100
AcDbVisualStyle
  2
3dWireframe
 70
     5
 71
     0
 72
     2
 73
     0
 90
        0
 40
-0.6
 41
-30.0
 62
     5
 63
     7
421
 16777215
 74
     1
 91
        4
 64
     7
 65
   257
 75
     1
175
     1
 42
1.0
 92
        0
 66
   257
 43
1.0
 76
     1
 77
     6
 78
     2
 67
     7
 79
     5
170
     0
171
     0
290
     0
174
     0
 93
        1
 44
0.0
173
     0
291
     0
 45
0.0
1001
ACAD
1000
AcDbSavedByObjectVersion
1070
     0
  0
VISUALSTYLE
  5
3AD9
102
{ACAD_XDICTIONARY
360
5572
102
}
102
{ACAD_REACTORS
330
3AD4
102
}
330
3AD4
100
AcDbVisualStyle
  2
Basic
 70
     7
 71
     1
 72
     0
 73
     1
 90
        0
 40
-0.6
 41
-30.0
 62
     5
 63
     7
421
 16777215
 74
     0
 91
        4
 64
     7
 65
   257
 75
     1
175
     1
 42
1.0
 92
        8
 66
     7
 43
1.0
 76
     1
 77
     6
 78
     2
 67
     7
 79
     5
170
     0
171
     0
290
     0
174
     0
 93
        1
 44
0.0
173
     0
291
     1
 45
0.0
1001
ACAD
1000
AcDbSavedByObjectVersion
1070
     0
  0
VISUALSTYLE
  5
3AE0
102
{ACAD_XDICTIONARY
360
5580
102
}
102
{ACAD_REACTORS
330
3AD4
102
}
330
3AD4
100
AcDbVisualStyle
  2
Brighten
 70
    12
 71
     2
 72
     2
 73
     0
 90
        0
 40
-0.6
 41
-30.0
 62
     5
 63
     7
421
 16777215
 74
     1
 91
        4
 64
     7
 65
   257
 75
     1
175
     1
 42
1.0
 92
        8
 66
     7
 43
1.0
 76
     1
 77
     6
 78
     2
 67
     7
 79
     5
170
     0
171
     0
290
     0
174
     0
 93
        1
 44
50.0
173
     0
291
     1
 45
0.0
1001
ACAD
1000
AcDbSavedByObjectVersion
1070
     0
  0
VISUALSTYLE
  5
3AE4
102
{ACAD_XDICTIONARY
360
5588
102
}
102
{ACAD_REACTORS
330
3AD4
102
}
330
3AD4
100
AcDbVisualStyle
  2
ColorChange
 70
    16
 71
     2
 72
     2
 73
     3
 90
        0
 40
-0.6
 41
-30.0
 62
     5
 63
     8
421
  8421504
 74
     1
 91
        4
 64
     7
 65
   257
 75
     1
175
     1
 42
1.0
 92
        8
 66
     8
424
  8421504
 43
1.0
 76
     1
 77
     6
 78
     2
 67
     7
 79
     5
170
     0
171
     0
290
     0
174
     0
 93
        1
 44
0.0
173
     0
291
     1
 45
0.0
1001
ACAD
1000
AcDbSavedByObjectVersion
1070
     0
  0
VISUALSTYLE
  5
3ADD
102
{ACAD_XDICTIONARY
360
557A
102
}
102
{ACAD_REACTORS
330
3AD4
102
}
330
3AD4
100
AcDbVisualStyle
  2
Conceptual
 70
     9
 71
     3
 72
     2
 73
     0
 90
        0
 40
-0.6
 41
-30.0
 62
     5
 63
     7
421
 16777215
 74
     2
 91
        2
 64
     7
 65
   257
 75
     1
175
     1
 42
40.0
 92
        8
 66
     7
 43
1.0
 76
     1
 77
     6
 78
     2
 67
     7
 79
     3
170
     0
171
     0
290
     0
174
     0
 93
        1
 44
0.0
173
     0
291
     0
 45
0.0
1001
ACAD
1000
AcDbSavedByObjectVersion
1070
     0
  0
VISUALSTYLE
  5
3ADF
102
{ACAD_XDICTIONARY
360
557E
102
}
102
{ACAD_REACTORS
330
3AD4
102
}
330
3AD4
100
AcDbVisualStyle
  2
Dim
 70
    11
 71
     2
 72
     2
 73
     0
 90
        0
 40
-0.6
 41
-30.0
 62
     5
 63
     7
421
 16777215
 74
     1
 91
        4
 64
     7
 65
   257
 75
     1
175
     1
 42
1.0
 92
        8
 66
     7
 43
1.0
 76
     1
 77
     6
 78
     2
 67
     7
 79
     5
170
     0
171
     0
290
     0
174
     0
 93
        1
 44
-50.0
173
     0
291
     1
 45
0.0
1001
ACAD
1000
AcDbSavedByObjectVersion
1070
     0
  0
VISUALSTYLE
  5
3F26
102
{ACAD_XDICTIONARY
360
559D
102
}
102
{ACAD_REACTORS
330
3AD4
102
}
330
3AD4
100
AcDbVisualStyle
  2
EdgeColorOff
 70
    22
 71
     2
 72
     2
 73
     0
 90
        0
 40
-0.6
 41
-30.0
 62
     5
 63
     7
421
 16777215
 74
     1
 91
        4
 64
     7
 65
   257
 75
     1
175
     1
 42
1.0
 92
        8
 66
     7
 43
1.0
 76
     1
 77
     6
 78
     2
 67
     7
 79
     5
170
     0
171
     0
290
     0
174
     0
 93
        1
 44
0.0
173
     0
291
     1
 45
0.0
1001
ACAD
1000
AcDbSavedByObjectVersion
1070
     0
  0
VISUALSTYLE
  5
3AE3
102
{ACAD_XDICTIONARY
360
5586
102
}
102
{ACAD_REACTORS
330
3AD4
102
}
330
3AD4
100
AcDbVisualStyle
  2
Facepattern
 70
    15
 71
     2
 72
     2
 73
     0
 90
        0
 40
-0.6
 41
-30.0
 62
     5
 63
     7
421
 16777215
 74
     1
 91
        4
 64
     7
 65
   257
 75
     1
175
     1
 42
1.0
 92
        8
 66
     7
 43
1.0
 76
     1
 77
     6
 78
     2
 67
     7
 79
     5
170
     0
171
     0
290
     0
174
     0
 93
        1
 44
0.0
173
     0
291
     1
 45
0.0
1001
ACAD
1000
AcDbSavedByObjectVersion
1070
     0
  0
VISUALSTYLE
  5
3AD5
102
{ACAD_XDICTIONARY
360
556A
102
}
102
{ACAD_REACTORS
330
3AD4
102
}
330
3AD4
100
AcDbVisualStyle
  2
Flat
 70
     0
 71
     2
 72
     1
 73
     1
 90
        2
 40
-0.6
 41
30.0
 62
     5
 63
     7
421
 16777215
 74
     0
 91
        4
 64
     7
 65
   257
 75
     1
175
     1
 42
1.0
 92
        8
 66
     7
 43
1.0
 76
     1
 77
     6
 78
     2
 67
     7
 79
     5
170
     0
171
     0
290
     0
174
     0
 93
       13
 44
0.0
173
     0
291
     1
 45
0.0
1001
ACAD
1000
AcDbSavedByObjectVersion
1070
     0
  0
VISUALSTYLE
  5
3AD6
102
{ACAD_XDICTIONARY
360
556C
102
}
102
{ACAD_REACTORS
330
3AD4
102
}
330
3AD4
100
AcDbVisualStyle
  2
FlatWithEdges
 70
     1
 71
     2
 72
     1
 73
     1
 90
        2
 40
-0.6
 41
30.0
 62
     5
 63
     7
421
 16777215
 74
     1
 91
        4
 64
     7
 65
   257
 75
     1
175
     1
 42
1.0
 92
        0
 66
   257
 43
1.0
 76
     1
 77
     6
 78
     2
 67
     7
 79
     5
170
     0
171
     0
290
     0
174
     0
 93
       13
 44
0.0
173
     0
291
     1
 45
0.0
1001
ACAD
1000
AcDbSavedByObjectVersion
1070
     0
  0
VISUALSTYLE
  5
3AD7
102
{ACAD_XDICTIONARY
360
556E
102
}
102
{ACAD_REACTORS
330
3AD4
102
}
330
3AD4
100
AcDbVisualStyle
  2
Gouraud
 70
     2
 71
     2
 72
     2
 73
     1
 90
        2
 40
-0.6
 41
30.0
 62
     5
 63
     7
421
 16777215
 74
     0
 91
        4
 64
     7
 65
   257
 75
     1
175
     1
 42
1.0
 92
        0
 66
     7
 43
1.0
 76
     1
 77
     6
 78
     2
 67
     7
 79
     5
170
     0
171
     0
290
     0
174
     0
 93
       13
 44
0.0
173
     0
291
     1
 45
0.0
1001
ACAD
1000
AcDbSavedByObjectVersion
1070
     0
  0
VISUALSTYLE
  5
3AD8
102
{ACAD_XDICTIONARY
360
5570
102
}
102
{ACAD_REACTORS
330
3AD4
102
}
330
3AD4
100
AcDbVisualStyle
  2
GouraudWithEdges
 70
     3
 71
     2
 72
     2
 73
     1
 90
        2
 40
-0.6
 41
30.0
 62
     5
 63
     7
421
 16777215
 74
     1
 91
        4
 64
     7
 65
   257
 75
     1
175
     1
 42
1.0
 92
        0
 66
   257
 43
1.0
 76
     1
 77
     6
 78
     2
 67
     7
 79
     5
170
     0
171
     0
290
     0
174
     0
 93
       13
 44
0.0
173
     0
291
     1
 45
0.0
1001
ACAD
1000
AcDbSavedByObjectVersion
1070
     0
  0
VISUALSTYLE
  5
3F1E
102
{ACAD_XDICTIONARY
360
558D
102
}
102
{ACAD_REACTORS
330
3AD4
102
}
330
3AD4
100
AcDbVisualStyle
  2
Hidden
 70
     6
 71
     1
 72
     2
 73
     2
 90
        0
 40
-0.6
 41
-30.0
 62
     5
 63
     7
421
 16777215
 74
     2
 91
        2
 64
     7
 65
   257
 75
     2
175
     1
 42
40.0
 92
        0
 66
   257
 43
1.0
 76
     1
 77
     6
 78
     2
 67
     7
 79
     3
170
     0
171
     0
290
     0
174
     0
 93
        1
 44
0.0
173
     0
291
     0
 45
0.0
1001
ACAD
1000
AcDbSavedByObjectVersion
1070
     0
  0
VISUALSTYLE
  5
3F24
102
{ACAD_XDICTIONARY
360
5599
102
}
102
{ACAD_REACTORS
330
3AD4
102
}
330
3AD4
100
AcDbVisualStyle
  2
JitterOff
 70
    20
 71
     2
 72
     2
 73
     0
 90
        0
 40
-0.6
 41
-30.0
 62
     5
 63
     7
421
 16777215
 74
     1
 91
        4
 64
     7
 65
   257
 75
     1
175
     1
 42
1.0
 92
       10
 66
     7
 43
1.0
 76
     1
 77
     6
 78
     2
 67
     7
 79
     5
170
     0
171
     0
290
     0
174
     0
 93
        1
 44
0.0
173
     0
291
     1
 45
0.0
1001
ACAD
1000
AcDbSavedByObjectVersion
1070
     0
  0
VISUALSTYLE
  5
3AE2
102
{ACAD_XDICTIONARY
360
5584
102
}
102
{ACAD_REACTORS
330
3AD4
102
}
330
3AD4
100
AcDbVisualStyle
  2
Linepattern
 70
    14
 71
     2
 72
     2
 73
     0
 90
        0
 40
-0.6
 41
-30.0
 62
     5
 63
     7
421
 16777215
 74
     1
 91
        4
 64
     7
 65
   257
 75
     7
175
     7
 42
1.0
 92
        8
 66
     7
 43
1.0
 76
     1
 77
     6
 78
     2
 67
     7
 79
     5
170
     0
171
     0
290
     0
174
     0
 93
        1
 44
0.0
173
     0
291
     1
 45
0.0
1001
ACAD
1000
AcDbSavedByObjectVersion
1070
     0
  0
VISUALSTYLE
  5
3F25
102
{ACAD_XDICTIONARY
360
559B
102
}
102
{ACAD_REACTORS
330
3AD4
102
}
330
3AD4
100
AcDbVisualStyle
  2
OverhangOff
 70
    21
 71
     2
 72
     2
 73
     0
 90
        0
 40
-0.6
 41
-30.0
 62
     5
 63
     7
421
 16777215
 74
     1
 91
        4
 64
     7
 65
   257
 75
     1
175
     1
 42
1.0
 92
        9
 66
     7
 43
1.0
 76
     1
 77
     6
 78
     2
 67
     7
 79
     5
170
     0
171
     0
290
     0
174
     0
 93
        1
 44
0.0
173
     0
291
     1
 45
0.0
1001
ACAD
1000
AcDbSavedByObjectVersion
1070
     0
  0
VISUALSTYLE
  5
3ADE
102
{ACAD_XDICTIONARY
360
557C
102
}
102
{ACAD_REACTORS
330
3AD4
102
}
330
3AD4
100
AcDbVisualStyle
  2
Realistic
 70
     8
 71
     2
 72
     2
 73
     0
 90
        0
 40
-0.6
 41
-30.0
 62
     5
 63
     7
421
 16777215
 74
     1
 91
        0
 64
     7
 65
   257
 75
     1
175
     1
 42
1.0
 92
        8
 66
     8
424
  7895160
 43
1.0
 76
     1
 77
     6
 78
     2
 67
     7
 79
     5
170
     0
171
     0
290
     0
174
     0
 93
       13
 44
0.0
173
     0
291
     0
 45
0.0
1001
ACAD
1000
AcDbSavedByObjectVersion
1070
     0
  0
VISUALSTYLE
  5
3F23
102
{ACAD_XDICTIONARY
360
5597
102
}
102
{ACAD_REACTORS
330
3AD4
102
}
330
3AD4
100
AcDbVisualStyle
  2
Shaded
 70
    27
 71
     2
 72
     2
 73
     1
 90
        2
 40
-0.6
 41
30.0
 62
     5
 63
     7
421
 16777215
 74
     0
 91
        4
 64
     7
 65
   257
 75
     1
175
     1
 42
1.0
 92
        8
 66
   257
 43
1.0
 76
     1
 77
     6
 78
     2
 67
     8
425
  7895160
 79
     3
170
     0
171
     0
290
     0
174
     0
 93
        5
 44
0.0
173
     0
291
     0
 45
0.0
1001
ACAD
1000
AcDbSavedByObjectVersion
1070
     0
  0
VISUALSTYLE
  5
3F22
102
{ACAD_XDICTIONARY
360
5595
102
}
102
{ACAD_REACTORS
330
3AD4
102
}
330
3AD4
100
AcDbVisualStyle
  2
Shaded with edges
 70
    26
 71
     2
 72
     2
 73
     1
 90
        2
 40
-0.6
 41
30.0
 62
     5
 63
     7
421
 16777215
 74
     1
 91
       10
 64
     7
 65
   257
 75
     2
175
     1
 42
1.0
 92
        8
 66
   257
 43
1.0
 76
     1
 77
     6
 78
     2
 67
     7
 79
     3
170
     0
171
     0
290
     0
174
     0
 93
        5
 44
0.0
173
     0
291
     0
 45
0.0
1001
ACAD
1000
AcDbSavedByObjectVersion
1070
     0
  0
VISUALSTYLE
  5
3F1F
102
{ACAD_XDICTIONARY
360
558F
102
}
102
{ACAD_REACTORS
330
3AD4
102
}
330
3AD4
100
AcDbVisualStyle
  2
Shades of Gray
 70
    23
 71
     2
 72
     2
 73
     3
 90
        0
 40
-0.6
 41
-30.0
 62
     5
 63
     7
421
 16777215
 74
     2
 91
        2
 64
     7
 65
     7
 75
     1
175
     1
 42
40.0
 92
        8
 66
     7
 43
1.0
 76
     1
 77
     6
 78
     2
 67
     7
 79
     3
170
     0
171
     0
290
     0
174
     0
 93
        1
 44
0.0
173
     0
291
     0
 45
0.0
1001
ACAD
1000
AcDbSavedByObjectVersion
1070
     0
  0
VISUALSTYLE
  5
3F20
102
{ACAD_XDICTIONARY
360
5591
102
}
102
{ACAD_REACTORS
330
3AD4
102
}
330
3AD4
100
AcDbVisualStyle
  2
Sketchy
 70
    24
 71
     1
 72
     2
 73
     2
 90
        0
 40
-0.6
 41
-30.0
 62
     5
 63
     7
421
 16777215
 74
     2
 91
        2
 64
     7
 65
     7
 75
     1
175
     1
 42
40.0
 92
       11
 66
     7
 43
1.0
 76
     1
 77
     6
 78
     2
 67
     7
 79
     6
170
     0
171
     0
290
     0
174
     0
 93
        1
 44
0.0
173
     0
291
     0
 45
0.0
1001
ACAD
1000
AcDbSavedByObjectVersion
1070
     0
  0
VISUALSTYLE
  5
3AE1
102
{ACAD_XDICTIONARY
360
5582
102
}
102
{ACAD_REACTORS
330
3AD4
102
}
330
3AD4
100
AcDbVisualStyle
  2
Thicken
 70
    13
 71
     2
 72
     2
 73
     0
 90
        0
 40
-0.6
 41
-30.0
 62
     5
 63
     7
421
 16777215
 74
     1
 91
        4
 64
     7
 65
   257
 75
     1
175
     1
 42
1.0
 92
       12
 66
     7
 43
1.0
 76
     1
 77
     6
 78
     2
 67
     7
 79
     5
170
     0
171
     0
290
     0
174
     0
 93
        1
 44
0.0
173
     0
291
     1
 45
0.0
1001
ACAD
1000
AcDbSavedByObjectVersion
1070
     0
  0
VISUALSTYLE
  5
3F1D
102
{ACAD_XDICTIONARY
360
558B
102
}
102
{ACAD_REACTORS
330
3AD4
102
}
330
3AD4
100
AcDbVisualStyle
  2
Wireframe
 70
     5
 71
     0
 72
     2
 73
     0
 90
        0
 40
-0.6
 41
-30.0
 62
     5
 63
     7
421
 16777215
 74
     1
 91
        4
 64
     7
 65
   257
 75
     1
175
     1
 42
1.0
 92
        0
 66
   257
 43
1.0
 76
     1
 77
     6
 78
     2
 67
     7
 79
     3
170
     0
171
     0
290
     0
174
     0
 93
        1
 44
0.0
173
     0
291
     0
 45
0.0
1001
ACAD
1000
AcDbSavedByObjectVersion
1070
     0
  0
VISUALSTYLE
  5
3F21
102
{ACAD_XDICTIONARY
360
5593
102
}
102
{ACAD_REACTORS
330
3AD4
102
}
330
3AD4
100
AcDbVisualStyle
  2
X-Ray
 70
    25
 71
     2
 72
     2
 73
     1
 90
        1
 40
0.5
 41
-30.0
 62
     5
 63
     7
421
 16777215
 74
     1
 91
        0
 64
     7
 65
   257
 75
     1
175
     1
 42
1.0
 92
        8
 66
     7
 43
1.0
 76
     1
 77
     6
 78
     2
 67
     7
 79
     3
170
     0
171
     0
290
     0
174
     0
 93
       13
 44
0.0
173
     0
291
     0
 45
0.0
1001
ACAD
1000
AcDbSavedByObjectVersion
1070
     0
  0
DICTIONARYVAR
  5
3C64
102
{ACAD_REACTORS
330
86
102
}
330
86
100
DictionaryVariables
280
     0
  1
1:1
  0
DICTIONARYVAR
  5
3C63
102
{ACAD_REACTORS
330
86
102
}
330
86
100
DictionaryVariables
280
     0
  1
STANDARD
  0
DICTIONARYVAR
  5
3C62
102
{ACAD_REACTORS
330
86
102
}
330
86
100
DictionaryVariables
280
     0
  1
STANDARD
  0
DICTIONARYVAR
  5
89
102
{ACAD_REACTORS
330
86
102
}
330
86
100
DictionaryVariables
280
     0
  1
2
  0
DICTIONARYVAR
  5
88
102
{ACAD_REACTORS
330
86
102
}
330
86
100
DictionaryVariables
280
     0
  1
1
  0
DICTIONARYVAR
  5
87
102
{ACAD_REACTORS
330
86
102
}
330
86
100
DictionaryVariables
280
     0
  1
1
  0
DICTIONARYVAR
  5
3E31
102
{ACAD_REACTORS
330
86
102
}
330
86
100
DictionaryVariables
280
     0
  1
1
  0
DICTIONARYVAR
  5
3E32
102
{ACAD_REACTORS
330
86
102
}
330
86
100
DictionaryVariables
280
     0
  1
15
  0
DICTIONARYVAR
  5
3E30
102
{ACAD_REACTORS
330
86
102
}
330
86
100
DictionaryVariables
280
     0
  1
0
  0
DICTIONARYVAR
  5
3E2F
102
{ACAD_REACTORS
330
86
102
}
330
86
100
DictionaryVariables
280
     0
  1
0
  0
DICTIONARY
  5
4A
102
{ACAD_REACTORS
330
45
102
}
330
45
100
AcDbDictionary
281
     1
  0
XRECORD
  5
3B53
102
{ACAD_REACTORS
330
45
102
}
330
45
100
AcDbXrecord
280
     1
 90
-1023410169
  0
XRECORD
  5
401F
102
{ACAD_REACTORS
330
401E
102
}
330
401E
100
AcDbXrecord
280
     1
330
3F9C
330
3F9D
330
3FA1
330
3FA5
330
3FA6
330
3FA7
330
3FAB
330
3FAC
330
3FB0
330
3FB1
330
3FB7
330
3FC1
330
3FC2
330
3FC6
330
3FD2
330
3FD3
330
3FD9
330
3FE3
330
3FE4
330
3FE8
330
3FF5
330
3FFA
330
4003
330
4008
  0
DICTIONARY
  5
4029
330
22
100
AcDbDictionary
280
     1
281
     1
  3
ADSK_XREC_LAYOUTTHUMBNAIL
360
402A
  0
DICTIONARY
  5
3AC5
330
3AC4
100
AcDbDictionary
280
     1
281
     1
  3
ACAD_XREC_ROUNDTRIP
360
5568
  3
BUMPTILE
360
3AC7
  3
DIFFUSETILE
360
3AC6
  3
OPACITYTILE
360
3ACA
  3
REFLECTIONTILE
360
3AC9
  3
REFRACTIONTILE
360
3ACB
  3
SPECULARTILE
360
3AC8
  0
DICTIONARY
  5
3ABD
330
3ABC
100
AcDbDictionary
280
     1
281
     1
  3
ACAD_XREC_ROUNDTRIP
360
5567
  3
BUMPTILE
360
3ABF
  3
DIFFUSETILE
360
3ABE
  3
OPACITYTILE
360
3AC2
  3
REFLECTIONTILE
360
3AC1
  3
REFRACTIONTILE
360
3AC3
  3
SPECULARTILE
360
3AC0
  0
DICTIONARY
  5
3ACD
330
3ACC
100
AcDbDictionary
280
     1
281
     1
  3
ACAD_XREC_ROUNDTRIP
360
5569
  3
BUMPTILE
360
3ACF
  3
DIFFUSETILE
360
3ACE
  3
OPACITYTILE
360
3AD2
  3
REFLECTIONTILE
360
3AD1
  3
REFRACTIONTILE
360
3AD3
  3
SPECULARTILE
360
3AD0
  0
DICTIONARY
  5
3C59
330
3AE7
100
AcDbDictionary
280
     1
281
     1
  3
ACAD_ROUNDTRIP_2008_TABLESTYLE_CELLSTYLEMAP
360
5560
  3
ACAD_XREC_ROUNDTRIP
360
558A
  0
DICTIONARY
  5
5574
330
3ADA
100
AcDbDictionary
280
     1
281
     1
  3
ACAD_XREC_ROUNDTRIP
360
5575
  0
DICTIONARY
  5
5578
330
3ADC
100
AcDbDictionary
280
     1
281
     1
  3
ACAD_XREC_ROUNDTRIP
360
5579
  0
DICTIONARY
  5
5576
330
3ADB
100
AcDbDictionary
280
     1
281
     1
  3
ACAD_XREC_ROUNDTRIP
360
5577
  0
DICTIONARY
  5
5572
330
3AD9
100
AcDbDictionary
280
     1
281
     1
  3
ACAD_XREC_ROUNDTRIP
360
5573
  0
DICTIONARY
  5
5580
330
3AE0
100
AcDbDictionary
280
     1
281
     1
  3
ACAD_XREC_ROUNDTRIP
360
5581
  0
DICTIONARY
  5
5588
330
3AE4
100
AcDbDictionary
280
     1
281
     1
  3
ACAD_XREC_ROUNDTRIP
360
5589
  0
DICTIONARY
  5
557A
330
3ADD
100
AcDbDictionary
280
     1
281
     1
  3
ACAD_XREC_ROUNDTRIP
360
557B
  0
DICTIONARY
  5
557E
330
3ADF
100
AcDbDictionary
280
     1
281
     1
  3
ACAD_XREC_ROUNDTRIP
360
557F
  0
DICTIONARY
  5
559D
330
3F26
100
AcDbDictionary
280
     1
281
     1
  3
ACAD_XREC_ROUNDTRIP
360
559E
  0
DICTIONARY
  5
5586
330
3AE3
100
AcDbDictionary
280
     1
281
     1
  3
ACAD_XREC_ROUNDTRIP
360
5587
  0
DICTIONARY
  5
556A
330
3AD5
100
AcDbDictionary
280
     1
281
     1
  3
ACAD_XREC_ROUNDTRIP
360
556B
  0
DICTIONARY
  5
556C
330
3AD6
100
AcDbDictionary
280
     1
281
     1
  3
ACAD_XREC_ROUNDTRIP
360
556D
  0
DICTIONARY
  5
556E
330
3AD7
100
AcDbDictionary
280
     1
281
     1
  3
ACAD_XREC_ROUNDTRIP
360
556F
  0
DICTIONARY
  5
5570
330
3AD8
100
AcDbDictionary
280
     1
281
     1
  3
ACAD_XREC_ROUNDTRIP
360
5571
  0
DICTIONARY
  5
558D
330
3F1E
100
AcDbDictionary
280
     1
281
     1
  3
ACAD_XREC_ROUNDTRIP
360
558E
  0
DICTIONARY
  5
5599
330
3F24
100
AcDbDictionary
280
     1
281
     1
  3
ACAD_XREC_ROUNDTRIP
360
559A
  0
DICTIONARY
  5
5584
330
3AE2
100
AcDbDictionary
280
     1
281
     1
  3
ACAD_XREC_ROUNDTRIP
360
5585
  0
DICTIONARY
  5
559B
330
3F25
100
AcDbDictionary
280
     1
281
     1
  3
ACAD_XREC_ROUNDTRIP
360
559C
  0
DICTIONARY
  5
557C
330
3ADE
100
AcDbDictionary
280
     1
281
     1
  3
ACAD_XREC_ROUNDTRIP
360
557D
  0
DICTIONARY
  5
5597
330
3F23
100
AcDbDictionary
280
     1
281
     1
  3
ACAD_XREC_ROUNDTRIP
360
5598
  0
DICTIONARY
  5
5595
330
3F22
100
AcDbDictionary
280
     1
281
     1
  3
ACAD_XREC_ROUNDTRIP
360
5596
  0
DICTIONARY
  5
558F
330
3F1F
100
AcDbDictionary
280
     1
281
     1
  3
ACAD_XREC_ROUNDTRIP
360
5590
  0
DICTIONARY
  5
5591
330
3F20
100
AcDbDictionary
280
     1
281
     1
  3
ACAD_XREC_ROUNDTRIP
360
5592
  0
DICTIONARY
  5
5582
330
3AE1
100
AcDbDictionary
280
     1
281
     1
  3
ACAD_XREC_ROUNDTRIP
360
5583
  0
DICTIONARY
  5
558B
330
3F1D
100
AcDbDictionary
280
     1
281
     1
  3
ACAD_XREC_ROUNDTRIP
360
558C
  0
DICTIONARY
  5
5593
330
3F21
100
AcDbDictionary
280
     1
281
     1
  3
ACAD_XREC_ROUNDTRIP
360
5594
  0
XRECORD
  5
402A
102
{ACAD_REACTORS
330
4029
102
}
330
4029
100
AcDbXrecord
280
     1
310
28000000000100007100000001000800000000000071000000000000000000000001000000000000FFFFFF0000000000FFFFFF000000000000000000000000000000000000000000000000000000000000000000330000006600000099000000CC000000FF00000000330000333300006633000099330000CC330000FF3300
310
0000660000336600006666000099660000CC660000FF66000000990000339900006699000099990000CC990000FF99000000CC000033CC000066CC000099CC0000CCCC0000FFCC000000FF000033FF000066FF000099FF0000CCFF0000FFFF000000003300330033006600330099003300CC003300FF003300003333003333
310
33006633330099333300CC333300FF33330000663300336633006666330099663300CC663300FF66330000993300339933006699330099993300CC993300FF99330000CC330033CC330066CC330099CC3300CCCC3300FFCC330000FF330033FF330066FF330099FF3300CCFF3300FFFF330000006600330066006600660099
310
006600CC006600FF00660000336600333366006633660099336600CC336600FF33660000666600336666006666660099666600CC666600FF66660000996600339966006699660099996600CC996600FF99660000CC660033CC660066CC660099CC6600CCCC6600FFCC660000FF660033FF660066FF660099FF6600CCFF6600
310
FFFF660000009900330099006600990099009900CC009900FF00990000339900333399006633990099339900CC339900FF33990000669900336699006666990099669900CC669900FF66990000999900339999006699990099999900CC999900FF99990000CC990033CC990066CC990099CC9900CCCC9900FFCC990000FF99
310
0033FF990066FF990099FF9900CCFF9900FFFF99000000CC003300CC006600CC009900CC00CC00CC00FF00CC000033CC003333CC006633CC009933CC00CC33CC00FF33CC000066CC003366CC006666CC009966CC00CC66CC00FF66CC000099CC003399CC006699CC009999CC00CC99CC00FF99CC0000CCCC0033CCCC0066CC
310
CC0099CCCC00CCCCCC00FFCCCC0000FFCC0033FFCC0066FFCC0099FFCC00CCFFCC00FFFFCC000000FF003300FF006600FF009900FF00CC00FF00FF00FF000033FF003333FF006633FF009933FF00CC33FF00FF33FF000066FF003366FF006666FF009966FF00CC66FF00FF66FF000099FF003399FF006699FF009999FF00CC
310
99FF00FF99FF0000CCFF0033CCFF0066CCFF0099CCFF00CCCCFF00FFCCFF0000FFFF0033FFFF0066FFFF0099FFFF00CCFFFF00FFFFFF00000000000D0D0D001A1A1A00282828003535350043434300505050005D5D5D006B6B6B00787878008686860093939300A1A1A100AEAEAE00BBBBBB00C9C9C900D6D6D600E4E4E400
310
F1F1F100FFFFFF000000000000000000000000000000000000000000000000000000000000000000000000000000000000000000000000000000000000000000000000000000000000000000000000000000000000000000000000000000000000000000000000000000000000000000000000000000000000000000000000
310
00000000000000000000000000000000000000000000000000000000000000000000000000000000000000000000000000000000000000000000000000000000000000000000000000000000000000000000000000000000000000000000000000000000000000000000000000000000000000000000000000000000000000
310
00000000000000000000000000000000000000000000000000000000000000000000000000000000000000000000000000000000000000000000000000000000000000000000000000000000000000000000000000000000000000000000000000000000000000000000000000000000000000000000000000000000000000
310
00000000000000000000000000000000000000000000000000000000000000000000000000000000000000000000000000000000000000000000000000000000000000000000000000000000000000000000000000000000000000000000000000000000000000000000000000000000000000000000000000000000000000
310
00000000000000000000000000000000000000000000000000000000000000000000000000000000000000000000000000000000000000000000000000000000000000000000000000000000000000000000000000000000000000000000000000000000000000000000000000000000000000000000000000000000000000
310
00000000000000000000000000000000000000000000000000000000000000000000000000000000000000000000000000000000000000000000000000000000000000000000000000000000000000000000000000000000000000000000000000000000000000000000000000000000000000000000000000000000000000
310
00000000000000000000000000000000000000000000000000000000000000000000000000000000000000000000000000000000000000000000000000000000000000000000000000000000000000000000000000000000000000000000000000000000000000000000000000000000000000000000000000000000000000
310
00000000000000000000000000000000000000000000000000000000000000000000000000000000000000000000000000000000000000000000000000000000000000000000000000000000000000000000000000000000000000000000000000000000000000000000000000000000000000000000000000000000000000
310
00000000000000000000000000000000000000000000000000000000000000000000000000000000000000000000000000000000000000000000000000000000000000000000000000000000000000000000000000000000000000000000000000000000000000000000000000000000000000000000000000000000000000
310
00000000000000000000000000000000000000000000000000000000000000000000000000000000000000000000000000000000000000000000E2E2E2E2E2E2E2E2E2000000000000000000000000000000000000000000000000000000000000000000000000000000000000000000000000000000000000000000000000
310
00000000000000000000000000000000000000000000000000000000000000000000000000000000000000000000000000000000000000000000000000000000000000000000000000000000000000000000000000000000000000000000000000000000000000000000000000000000000000000000000000000000000000
310
0000000000000000000000000000000000000000000000000000000000000000000000000000000000000000000000000000000000000000000000E2000000000000000000E2E20000000000000000000000000000000000000000000000000000000000000000000000000000000000000000000000000000000000000000
310
00000000000000000000000000000000000000000000000000000000000000000000000000000000000000000000000000000000000000000000000000000000000000000000000000000000000000000000000000000000000000000000000000000000000000000000000000000000000000000000000000000000000000
310
0000000000000000000000000000000000000000000000000000000000000000000000000000000000000000000000000000000000000000000000E2E2000000000000000000000000E20000000000000000000000000000000000000000000000000000000000000000000000000000000000000000000000000000000000
310
00000000000000000000000000000000000000000000000000000000000000000000000000000000000000000000000000000000000000000000000000000000000000000000000000000000000000000000000000000000000000000000000000000000000000000000000000000000000000000000000000000000000000
310
00000000000000000000000000000000000000000000000000000000000000000000000000000000000000000000000000000000000000000000000000E20000000000000000000000000000E20000000000000000000000000000000000000000000000000000000000000000000000000000000000000000000000000000
310
00000000000000000000000000000000000000000000000000000000000000000000000000000000000000000000000000000000000000000000000000000000000000000000000000000000000000000000000000000000000000000000000000000000000000000000000000000000000000000000000000000000000000
310
0000000000000000000000000000000000000000000000000000000000000000000000000000000000000000000000000000000000000000000000000000E2000000000000000000000000000000E2000000000000000000000000000000000000000000000000000000000000000000000000000000000000000000000000
310
00000000000000000000000000000000000000000000000000000000000000000000000000000000000000000000000000000000000000000000000000000000000000000000000000000000000000000000000000000000000000000000000000000000000000000000000000000000000000000000000000000000000000
310
000000000000000000000000000000000000000000000000000000000000000000000000000000000000000000000000000000000000000000000000000000E20000000000000000000000000000000000E2000000000000000000000000000000000000000000000000000000000000000000000000000000000000000000
310
00000000000000000000000000000000000000000000000000000000000000000000000000000000000000000000000000000000000000000000000000000000000000000000000000000000000000000000000000000000000000000000000000000000000000000000000000000000000000000000000000000000000000
310
0000000000000000000000000000000000000000000000000000000000000000000000000000000000000000000000000000000000000000000000000000000000E2000000000000000000000000000000000000E2000000000000000000000000000000000000000000000000000000000000000000000000000000000000
310
00000000000000000000000000000000000000000000000000000000000000000000000000000000000000000000000000000000000000000000000000000000000000000000000000000000000000000000000000000000000000000000000000000000000000000000000000000000000000000000000000000000000000
310
0000000000000000000000000000000000000000000000000000000000000000000000000000000000000000E2E2E2E2E2E2E2E2E2E2E2E2E2E2E2E2E2E2E2E2E2E2E2E2E2E2E2E2E2E2E2E2E2E2E2E2E2E2E2E2E2E2E2E2E2E2E2E2E2E2E2E2E2E2E2E2E2E2E2E2E2E2E2E2E2E2E200000000000000000000000000000000
310
00000000000000000000000000000000000000000000000000000000000000000000000000000000000000000000000000000000000000000000000000000000000000000000000000000000000000000000000000000000000000000000000000000000000000000000000000000000000000000000000000000000000000
310
000000000000000000000000000000000000000000000000000000000000000000000000000000000000000000E200000000C30000000000000000000000000000000000C300000000000000000000000000000000000000C300000000000000000000000000C3C3C3C3C3C3C3C3C3C3E20000000000000000000000000000
310
00000000000000000000000000000000000000000000000000000000000000000000000000000000000000000000000000000000000000000000000000000000000000000000000000000000000000000000000000000000000000000000000000000000000000000000000000000000000000000000000000000000000000
310
00000000000000000000000000000000000000000000000000000000000000000000000000000000000000000000E20000000000C30000000000000000000000000000000000C300000000000000000000000000000000000000C300000000000000000000000000C30000000000000000C3E2000000000000000000000000
310
00000000000000000000000000000000000000000000000000000000000000000000000000000000000000000000000000000000000000000000000000000000000000000000000000000000000000000000000000000000000000000000000000000000000000000000000000000000000000000000000000000000000000
310
0000000000000000000000000000000000000000000000000000000000000000000000000000000000000000000000E2000000000000C300000000000000000000000000000000C30000000000000000000000000000000000000000C300000000000000000000000000C3C3C3C3C3C3C3C3C3C3E200000000000000000000
310
00000000000000000000000000000000000000000000000000000000000000000000000000000000000000000000000000000000000000000000000000000000000000000000000000000000000000000000000000000000000000000000000000000000000000000000000000000000000000000000000000000000000000
310
000000000000000000000000000000000000000000000000000000000000000000000000000000000000000000000000E200000000000000C300000000000000000000000000000000C30000000000000000000000C3000000000000000000C3000000000000000000000000C30000000000000000C3E20000000000000000
310
00000000000000000000000000000000000000000000000000000000000000000000000000000000000000000000000000000000000000000000000000000000000000000000000000000000000000000000000000000000000000000000000000000000000000000000000000000000000000000000000000000000000000
310
00000000000000000000000000000000000000000000000000000000000000000000000000000000000000000000000000E20000000000000000C300000000000000000000000000C3C3C3000000000000000000000000C3000000000000000000C3000000000000000000000000C3C3C3C3C3C3C3C3C300E2000000000000
310
00000000000000000000000000000000000000000000000000000000000000000000000000000000000000000000000000000000000000000000000000000000000000000000000000000000000000000000000000000000000000000000000000000000000000000000000000000000000000000000000000000000000000
310
000000000000000000000000000000000000000000000000000000000000000000000000000000000000000000000000000000E2000000000000000000C300000000000000000000C3C3C30000000000000000000000000000C3000000000000000000C3000000000000000000000000C3C30000000000000000E200000000
310
00000000000000000000000000000000000000000000000000000000000000000000000000000000000000000000000000000000000000000000000000000000000000000000000000000000000000000000000000000000000000000000000000000000000000000000000000000000000000000000000000000000000000
310
00000000000000000000000000000000000000000000000000000000000000000000000000000000000000000000000000000000E200000000000000000000C3000000000000000000C30000000000000000000000000000000000C3000000000000000000C30000000000000000000000C3C3000000000000000000E20000
310
00000000000000000000000000000000000000000000000000000000000000000000000000000000000000000000000000000000000000000000000000000000000000000000000000000000000000000000000000000000000000000000000000000000000000000000000000000000000000000000000000000000000000
310
000000000000000000000000000000000000000000000000000000000000000000000000000000000000000000000000000000000000E200000000000000000000C3000000000000000000C30000000000000000000000000000000000C3000000000000000000C3C3C3C3C3C3C3C3C3C3C3C3C3C3C3C3C3C3C3C3C30000E2
310
00000000000000000000000000000000000000000000000000000000000000000000000000000000000000000000000000000000000000000000000000000000000000000000000000000000000000000000000000000000000000000000000000000000000000000000000000000000000000000000000000000000000000
310
00000000000000000000000000000000000000000000000000000000000000000000000000000000000000000000000000000000000000E20000000000000000000000C3000000000000000000C30000000000000000000000000000000000C300000000000000000000000000000000000000000000000000000000C3C300
310
00E20000000000000000000000000000000000000000000000000000000000000000000000000000000000000000000000000000000000000000000000000000000000000000000000000000000000000000000000000000000000000000000000000000000000000000000000000000000000000000000000000000000000
310
0000000000000000000000000000000000000000000000000000000000000000000000000000000000000000000000000000000000000000E2000000000000000000000000C30000000000000000C3000000000000000000000000000000000000C300000000000000000000000000000000000000000000000000000000C3
310
C30000E2000000000000000000000000000000000000000000000000000000000000000000000000000000000000000000000000000000000000000000000000000000000000000000000000000000000000000000000000000000000000000000000000000000000000000000000000000000000000000000000000000000
310
00000000000000000000000000000000000000000000000000000000000000000000000000000000000000000000000000000000000000000000E2000000000000000000000000C30000000000000000C3000000000000000000000000000000000000C3000000000000000000000000000000000000000000000000000000
310
00C3C30000E200000000000000000000000000000000000000000000000000000000000000000000000000000000000000000000000000000000000000000000000000000000000000000000000000000000000000000000000000000000000000000000000000000000000000000000000000000000000000000000000000
310
0000000000000000000000000000000000000000000000000000000000000000000000000000000000000000000000000000000000000000000000E200000000000000000000000000C30000000000000000C300000000000000000000000000000000000000C3000000000000000000000000000000000000000000000000
310
000000C3C30000E20000000000000000000000000000000000000000000000000000000000000000000000000000000000000000000000000000000000000000000000000000000000000000000000000000000000000000000000000000000000000000000000000000000000000000000000000000000000000000000000
310
000000000000000000000000000000000000000000000000000000000000000000000000000000000000000000000000000000000000000000000000E2000000000000000000000000000000C300000000000000C300000000000000000000000000000000000000C300000000000000000000000000000000000000000000
310
0000000000C3C30000E2000000000000000000000000000000000000000000000000000000000000000000000000000000000000000000000000000000000000000000000000000000000000000000000000000000000000000000000000000000000000000000000000000000000000000000000000000000000000000000
310
0000000000000000000000000000000000000000000000000000000000000000000000000000000000000000000000000000000000000000000000000000E2000000000000000000000000000000C300000000000000C30000000000000000000000000000000000000000C300000000000000000000000000000000000000
310
00000000000000C3C30000E200000000000000000000000000000000000000000000000000000000000000000000000000000000000000000000000000000000000000000000000000000000000000000000000000000000000000000000000000000000000000000000000000000000000000000000000000000000000000
310
000000000000000000000000000000000000000000000000000000000000000000000000000000000000000000000000000000000000000000000000000000E200000000000000000000000000000000C300000000000000C30000000000000000000000000000000000000000C30000000000000000000000000000000000
310
0000002D2D2D2D2D2D2D2D2D2DE20000000000000000000000000000000000000000000000000000000000000000000000000000000000000000000000000000000000000000000000000000000000000000000000000000000000000000000000000000000000000000000000000000000000000000000000000000000000
310
0000000000000000000000000000000000000000000000000000000000000000000000000000000000000000000000000000000000000000000000000000000000E200000000000000000000000000000000C3000000000000C300000000000000000000000000000000000000000000C30000000000000000000000000000
310
0000000000000000000000C3C30000E2000000000000000000000000000000000000000000000000000000000000000000000000000000000000000000000000000000000000000000000000000000000000000000000000000000000000000000000000000000000000000000000000000000000000000000000000000000
310
000000000000000000000000000000000000000000000000000000000000000000000000000000000000000000000000000000000000000000000000000000000000E20000000000000000000000000000000000C3000000000000C300000000000000000000000000000000000000000000C3000000000000000000000000
310
00000000000000000000000000C3C30000E200000000000000000000000000000000000000000000000000000000000000000000000000000000000000000000000000000000000000000000000000000000000000000000000000000000000000000000000000000000000000000000000000000000000000000000000000
310
0000000000000000000000000000000000000000000000000000000000000000000000000000000000000000000000000000000000000000000000000000000000000000E20000000000000000000000000000000000C3C300C3C3C3C3C30000000000000000000000000000000000000000000000C3000000000000000000
310
000000000000000000000000000000C3C30000E20000000000000000000000000000000000000000000000000000000000000000000000000000000000000000000000000000000000000000000000000000000000000000000000000000000000000000000000000000000000000000000000000000000000000000000000
310
00000000000000000000000000000000000000000000000000000000000000000000000000000000000000000000000000000000000000000000000000000000000000000000E20000000000000000000000000000C3C3C3C3C3C300000000000000000000000000000000000000000000000000000000C300000000000000
310
0000000000000000000000000000000000C3C30000E2000000000000000000000000000000000000000000000000000000000000000000000000000000000000000000000000000000000000000000000000000000000000000000000000000000000000000000000000000000000000000000000000000000000000000000
310
0000000000000000000000000000000000000000000000000000000000000000000000000000000000000000000000000000000000000000000000000000000000000000000000E20000000000000000000000C3C3C3C3C300000000000000000000000000000000000000000000000000000000000000000000C300000000
310
00000000000000000000000000000000000000C3C30000E200000000000000000000000000000000000000000000000000000000000000000000000000000000000000000000000000000000000000000000000000000000000000000000000000000000000000000000000000000000000000000000000000000000000000
310
00000000000000000000000000000000000000000000000000000000000000000000000000000000000000000000000000000000000000000000000000000000000000000000000000E200000000000000C3C3C3C300000000000000000000000000000000000000000000000000000000000000000000000000000000C300
310
000000000000000000000000000000000000000000C3C30000E20000000000000000000000000000000000000000000000000000000000000000000000000000000000000000000000000000000000000000000000000000000000000000000000000000000000000000000000000000000000000000000000000000000000
310
0000000000000000000000000000000000000000000000000000000000000000000000000000000000000000000000000000000000000000000000000000000000000000000000000000E2000000000000C3C30000000000000000000000000000000000000000000000000000000000000000000000000000000000000000
310
00C300C3C3C3C3C3C3C3C3C3C3C3C3C3C3C3C3C3C3C3C3C3C30000E2000000000000000000000000000000000000000000000000000000000000000000000000000000000000000000000000000000000000000000000000000000000000000000000000000000000000000000000000000000000000000000000000000000
310
00000000000000000000000000000000000000000000000000000000000000000000000000000000000000000000000000000000000000000000000000000000000000000000000000000000E2000000000000C300000000000000000000000000000000000000000000000000000000000000000000000000000000000000
310
000000C3C30000000000000000000000C3000000000000000000000000E200000000000000000000000000000000000000000000000000000000000000000000000000000000000000000000000000000000000000000000000000000000000000000000000000000000000000000000000000000000000000000000000000
310
000000000000000000000000000000000000000000000000000000000000000000000000000000000000000000000000000000000000000000000000000000000000000000000000000000000000E2000000C3C3C3000000000000000000000000000000000000000000000000000000000000000000000000000000000000
310
000000000000C30000000000000000000000C3000000000000000000000000E20000000000000000000000000000000000000000000000000000000000000000000000000000000000000000000000000000000000000000000000000000000000000000000000000000000000000000000000000000000000000000000000
310
00000000000000000000000000000000000000000000000000000000000000000000000000000000000000000000000000000000000000000000000000000000000000000000000000000000000000E200000000C3000000000000000000000000000000000000000000000000000000000000000000000000000000000000
310
0000000000000000C30000000000000000000000C3000000000000000000000000E2000000000000000000000000000000000000000000000000000000000000000000000000000000000000000000000000000000000000000000000000000000000000000000000000000000000000000000000000000000000000000000
310
000000000000000000000000000000000000000000000000000000000000000000000000000000000000000000000000000000000000000000000000000000000000000000000000000000000000000000E2000000C30000000000000000000000000000000000000000000000000000000000000000000000000000000000
310
00000000000000000000C3C300000000000000000000C3000000000000000000000000E200000000000000000000000000000000000000000000000000000000000000000000000000000000000000000000000000000000000000000000000000000000000000000000000000000000000000000000000000000000000000
310
00000000000000000000000000000000000000000000000000000000000000000000000000000000000000000000000000000000000000000000000000000000000000000000000000000000000000000000E2000000C300000000000000000000000000000000000000000000000000000000000000000000000000000000
310
000000000000000000000000C3C300000000000000000000C3000000000000000000000000E20000000000000000000000000000000000000000000000000000000000000000000000000000000000000000000000000000000000000000000000000000000000000000000000000000000000000000000000000000000000
310
000000000000000000000000000000000000000000000000000000000000000000000000000000000000000000000000000000000000000000000000000000000000000000000000000000000000000000000000E2000000C30000000000000000000000000000000000000000000000000000000000000000000000000000
310
000000000000000000000000C3C3C3C300000000000000000000C3000000000000000000002D2DE22D0000000000000000000000000000000000000000000000000000000000000000000000000000000000000000000000000000000000000000000000000000000000000000000000000000000000000000000000000000
310
0000000000000000000000000000000000000000000000000000000000000000000000000000000000000000000000000000000000000000000000000000000000000000000000000000000000000000000000000000E20000C300000000000000000000000000000000000000000000000000000000000000000000000000
310
0000000000000000000000000000C3000000C3C3C3C3C3C3C3C3C3C3C3C3C3C3C3C3C3C3C300000000E200000000000000000000000000000000000000000000000000000000000000000000000000000000000000000000000000000000000000000000000000000000000000000000000000000000000000000000000000
310
000000000000000000000000000000000000000000000000000000000000000000000000000000000000000000000000000000000000000000000000000000000000000000000000000000000000000000000000000000E20000C3000000000000000000000000000000000000000000000000000000000000000000000000
310
00000000000000000000000000000000C30000000000000000000000000000000000C3C3000000C3C30000E20000000000000000000000000000000000000000000000000000000000000000000000000000000000000000000000000000000000000000000000000000000000000000000000000000000000000000000000
310
0000000000000000000000000000000000000000000000000000000000000000000000000000000000000000000000000000000000000000000000000000000000000000000000000000000000000000000000000000000000E20000C3000000000000000000000000000000000000000000000000000000000000000000C3
310
C3C3C3C3C3C3C3C3C3C3C3C3C3C3C3C3C3C3C30000000000000000000000000000000000C3C300000000C30000E2000000000000000000000000000000000000000000000000000000000000000000000000000000000000000000000000000000000000000000000000000000000000000000000000000000000000000000
310
000000000000000000000000000000000000000000000000000000000000000000000000000000000000000000000000000000000000000000000000000000000000000000000000000000000000000000000000000000000000E20000C3C3C3C3C3C3C3C3C3C3C3C3C3C3C3C3C3C3C3C3C3C3C3C3C3C3C3C3C3C3C3C3C3C3
310
C3C3C3C3C3C3C3C3C3C3C3C3C3C30000000000C3000000000000000000000000000000000000C3C300000000C30000E200000000000000000000000000000000000000000000000000000000000000000000000000000000000000000000000000000000000000000000000000000000000000000000000000000000000000
310
0000000000000000000000000000000000000000000000000000000000000000000000000000000000000000000000000000000000000000000000000000000000000000000000000000000000000000000000000000000000000000E2C3C30000000000000000000000000000000000000000000000000000000000000000
310
000000000000000000000000000000C30000000000C30000000000000000000000000000002D2D2DC3C32D2D2D2DC32D2DE20000000000000000000000000000000000000000000000000000000000000000000000000000000000000000000000000000000000000000000000000000000000000000000000000000000000
310
00000000000000000000000000000000000000000000000000000000000000000000000000000000000000000000000000000000000000000000000000000000000000000000000000000000000000000000000000000000000000000000E20000000000000000000000000000000000000000000000000000000000000000
310
0000000000000000000000000000000000C30000000000C3000000000000000000000000000000000000C3C300000000C30000E2000000000000000000000000000000000000000000000000000000000000000000000000000000000000000000000000000000000000000000000000000000000000000000000000000000
310
000000000000000000000000000000000000000000000000000000000000000000000000000000000000000000000000000000000000000000000000000000000000000000000000000000000000000000000000000000000000000000000000E2000000000000000000000000000000000000000000000000000000000000
310
00000000000000000000000000000000000000C30000000000C3000000000000000000000000000000000000C3C300000000C30000E200000000000000000000000000000000000000000000000000000000000000000000000000000000000000000000000000000000000000000000000000000000000000000000000000
310
0000000000000000000000000000000000000000000000000000000000000000000000000000000000000000000000000000000000000000000000000000000000000000000000000000000000000000000000000000000000000000000000000000E200000000000000000000000000000000000000000000000000000000
310
000000000000000000000000000000000000000000C3000000000000C30000000000000000000000000000000000C3C300000000C30000E20000000000000000000000000000000000000000000000000000000000000000000000000000000000000000000000000000000000000000000000000000000000000000000000
310
00000000000000000000000000000000000000000000000000000000000000000000000000000000000000000000000000000000000000000000000000000000000000000000000000000000000000000000000000000000000000000000000000000000E20000000000000000000000000000000000000000000000000000
310
0000000000000000000000000000000000000000000000C300E200000000C30000000000000000000000000000000000C3C3C3C3C3C3C30000E2000000000000000000000000000000000000000000000000000000000000000000000000000000000000000000000000000000000000000000000000000000000000000000
310
000000000000000000000000000000000000000000000000000000000000000000000000000000000000000000000000000000000000000000000000000000000000000000000000000000000000000000000000000000000000000000000000000000000000E2C3C3C3C3C3C3C3E2E2E2E2E2E2E2E2E2E2E2E2E2E2E2E2E2
310
E2E2E2E2E2E2E2E2E2E2E2E2E2E2E2E2E2E2E2E2E2E2C3C3C3C3E200E2E20000C30000000000002D000000000000000000000000000000C3000000E200000000000000000000000000000000000000000000000000000000000000000000000000000000000000000000000000000000000000000000000000000000000000
310
0000000000000000000000000000000000000000000000000000000000000000000000000000000000000000000000000000000000000000000000000000000000000000000000000000000000000000000000000000000000000000000000000000000000000000E2E2E2E2E2E2E2E2C3E2E2E2E2E2E2E2E2E2E2E2E2E2E2
310
E2E2E2E2E2E2E2E2E2E2E2E2E2E2E2E2E2E2E2E2E2E2C3E2E2C3E2E2E2E2E2E2E2E2E2E2E2E2E2E2E2E2E2E2E2E2E2E2E2E2E2E2E2E2E2E2E2E2C3C3C3E20000000000000000000000000000000000000000000000000000000000000000000000000000000000000000000000000000000000000000000000000000000000
310
000000000000000000000000000000000000000000000000000000000000000000000000000000000000000000000000000000000000000000000000000000000000000000000000000000000000000000000000000000000000000000000000000000000000000000E2E2E2E2E2E2E2E2C3E2E2E2C3C3C3C3E2E2E2E2E2E2
310
E2E2E2E2E2E2E2E2E2E2E2E2E2E2E2E2E2E2E2E2E2E2E2E2E2C3E200E2E2E2E2E2E2E2E2E2E2E2E2E2C3C3C3C3000000000000E20000000000000000E2E2E2E2000000000000000000000000000000000000000000000000000000000000000000000000000000000000000000000000000000000000000000000000000000
310
0000000000000000000000000000000000000000000000000000000000000000000000000000000000000000000000000000000000000000000000000000000000000000000000000000000000000000000000000000000000000000000000000000000000000000000000E2C3C3C3C3C3C3C3C3C3C3C3C3C3C3C3C3C3C3C3
310
C3C3C3C3C3C3C3C3C3C3C3C3C3C3C3C3C3C3C3C3C3C3C3C3C3C3C3C3C3E2E2E2E2E2000000E2C3C3C300E2C3C3C3C3000000000000E200000000000000000000000000000000000000000000000000000000000000000000000000000000000000000000000000000000000000000000000000000000000000000000000000
310
00000000000000000000000000000000000000000000000000000000000000000000000000000000000000000000000000000000000000000000000000000000000000000000000000000000000000000000000000000000000000000000000000000000000000000000000000E2E2E2E2E2E2E2E2E2E2E2E2E2E2E2E2E2E2
310
E2E2E2E2E2E2E2E2E2E2E2E2E2E2E2E2E2E2E2E2E2E2E2E2E2E2E2E2E2E2C3C3C3E2E2E2E2C3C3C3C3C3C300E2C3C3C3C3000000000000E20000000000000000000000000000000000000000000000000000000000000000000000000000000000000000000000000000000000000000000000000000000000000000000000
310
00000000000000000000000000000000000000000000000000000000000000000000000000000000000000000000000000000000000000000000000000000000000000000000000000000000000000000000000000000000000000000000000000000000000000000000000000000000000000000000000000000000000000
310
0000000000000000000000000000000000000000000000000000000000000000E2E200C3C3E2E2C3C32DC3C3C300E2C3C3C3C30000000000E200000000000000000000000000000000000000000000000000000000000000000000000000000000000000000000000000000000000000000000000000000000000000000000
310
00000000000000000000000000000000000000000000000000000000000000000000000000000000000000000000000000000000000000000000000000000000000000000000000000000000000000000000000000000000000000000000000000000000000000000000000000000000000000000000000000000000000000
310
000000000000000000000000000000000000000000000000000000000000000000000000E2E2C3C3E2C32D2D2DC3C300E2C3C3C3C30000000000E20000000000000000000000000000000000000000000000000000000000000000000000000000000000000000000000000000000000000000000000000000000000000000
310
00000000000000000000000000000000000000000000000000000000000000000000000000000000000000000000000000000000000000000000000000000000000000000000000000000000000000000000000000000000000000000000000000000000000000000000000000000000000000000000000000000000000000
310
00000000000000000000000000000000000000000000000000000000000000000000000000000000E2E2C3E2C3E2E2C3C300E2C3C3C3C30000000000E2000000000000000000000000000000000000000000000000000000000000000000000000000000000000000000000000000000000000000000000000000000000000
310
00000000000000000000000000000000000000000000000000000000000000000000000000000000000000000000000000000000000000000000000000000000000000000000000000000000000000000000000000000000000000000000000000000000000000000000000000000000000000000000000000000000000000
310
0000000000000000000000000000000000000000000000000000000000000000000000000000000000000000E2E2C3E2C3E2C300E2E2E2E2E20000000000E200000000000000000000000000000000000000000000000000000000000000000000000000000000000000000000000000000000000000000000000000000000
310
00000000000000000000000000000000000000000000000000000000000000000000000000000000000000000000000000000000000000000000000000000000000000000000000000000000000000000000000000000000000000000000000000000000000000000000000000000000000000000000000000000000000000
310
000000000000000000000000000000000000000000000000000000000000000000000000000000000000000000000000E2E2C3C3E200E2E2E2E2E20000000000E20000000000000000000000000000000000000000000000000000000000000000000000000000000000000000000000000000000000000000000000000000
310
00000000000000000000000000000000000000000000000000000000000000000000000000000000000000000000000000000000000000000000000000000000000000000000000000000000000000000000000000000000000000000000000000000000000000000000000000000000000000000000000000000000000000
310
000000000000000000000000000000000000000000000000000000000000000000000000000000000000000000000000000000C3E2E200E2E2000000000000000000E2000000000000000000000000000000000000000000000000000000000000000000000000000000000000000000000000000000000000000000000000
310
00000000000000000000000000000000000000000000000000000000000000000000000000000000000000000000000000000000000000000000000000000000000000000000000000000000000000000000000000000000000000000000000000000000000000000000000000000000000000000000000000000000000000
310
0000000000000000000000000000000000000000000000000000000000000000000000000000000000000000000000000000000000C300C3E2E200E2E200000000000000E200000000000000000000000000000000000000000000000000000000000000000000000000000000000000000000000000000000000000000000
310
00000000000000000000000000000000000000000000000000000000000000000000000000000000000000000000000000000000000000000000000000000000000000000000000000000000000000000000000000000000000000000000000000000000000000000000000000000000000000000000000000000000000000
310
00000000000000000000000000000000000000000000000000000000000000000000000000000000000000000000000000000000000000C300C30000E2E200E2E200000000E2000000000000000000000000000000000000000000000000000000000000000000000000000000000000000000000000000000000000000000
310
00000000000000000000000000000000000000000000000000000000000000000000000000000000000000000000000000000000000000000000000000000000000000000000000000000000000000000000000000000000000000000000000000000000000000000000000000000000000000000000000000000000000000
310
000000000000000000000000000000000000000000000000000000000000000000000000000000000000000000000000000000000000000000C300C300000000E2E200E2E20000E200000000000000000000000000000000000000000000000000000000000000000000000000000000000000000000000000000000000000
310
00000000000000000000000000000000000000000000000000000000000000000000000000000000000000000000000000000000000000000000000000000000000000000000000000000000000000000000000000000000000000000000000000000000000000000000000000000000000000000000000000000000000000
310
0000000000000000000000000000000000000000000000000000000000000000000000000000000000000000000000000000000000000000000000C300C3000000000000E2E200E2E2E20000000000000000000000000000000000000000000000000000000000000000000000000000000000000000000000000000000000
310
00000000000000000000000000000000000000000000000000000000000000000000000000000000000000000000000000000000000000000000000000000000000000000000000000000000000000000000000000000000000000000000000000000000000000000000000000000000000000000000000000000000000000
310
00000000000000000000000000000000000000000000000000000000000000000000000000000000000000000000000000000000000000000000000000C300C30000000000000000E2E200E2E20000000000000000000000000000000000000000000000000000000000000000000000000000000000000000000000000000
310
00000000000000000000000000000000000000000000000000000000000000000000000000000000000000000000000000000000000000000000000000000000000000000000000000000000000000000000000000000000000000000000000000000000000000000000000000000000000000000000000000000000000000
310
000000000000000000000000000000000000000000000000000000000000000000000000000000000000000000000000000000000000000000000000000000C300C300000000000000000000E2E2E2000000000000000000000000000000000000000000000000000000000000000000000000000000000000000000000000
310
00000000000000000000000000000000000000000000000000000000000000000000000000000000000000000000000000000000000000000000000000000000000000000000000000000000000000000000000000000000000000000000000000000000000000000000000000000000000000000000000000000000000000
310
0000000000000000000000000000000000000000000000000000000000000000000000000000000000000000000000000000000000000000000000000000000000C300C30000000000000000000000000000000000000000000000000000000000000000000000000000000000000000000000000000000000000000000000
310
00000000000000000000000000000000000000000000000000000000000000000000000000000000000000000000000000000000000000000000000000000000000000000000000000000000000000000000000000000000000000000000000000000000000000000000000000000000000000000000000000000000000000
310
00000000000000000000000000000000000000000000000000000000000000000000000000000000000000000000000000000000000000000000000000000000000000C30000C30000000000000000000000000000000000000000000000000000000000000000000000000000000000000000000000000000000000000000
310
00000000000000000000000000000000000000000000000000000000000000000000000000000000000000000000000000000000000000000000000000000000000000000000000000000000000000000000000000000000000000000000000000000000000000000000000000000000000000000000000000000000000000
310
00000000000000000000000000000000000000000000000000000000000000000000000000000000000000000000000000000000000000000000000000000000000000000000C300C3000000000000000000000000000000000000000000000000000000000000000000000000000000000000000000000000000000000000
310
00000000000000000000000000000000000000000000000000000000000000000000000000000000000000000000000000000000000000000000000000000000000000000000000000000000000000000000000000000000000000000000000000000000000000000000000000000000000000000000000000000000000000
310
000000000000000000000000000000000000000000000000000000000000000000000000000000000000000000000000000000000000000000000000000000000000000000000000C300C300000000000000000000000000000000000000000000000000000000000000000000000000000000000000000000000000000000
310
00000000000000000000000000000000000000000000000000000000000000000000000000000000000000000000000000000000000000000000000000000000000000000000000000000000000000000000000000000000000000000000000000000000000000000000000000000000000000000000000000000000000000
310
0000000000000000000000000000000000000000000000000000000000000000000000000000000000000000000000000000000000000000000000000000000000000000000000000000C300C30000000000000000000000000000000000000000000000000000000000000000000000000000000000000000000000000000
310
00000000000000000000000000000000000000000000000000000000000000000000000000000000000000000000000000000000000000000000000000000000000000000000000000000000000000000000000000000000000000000000000000000000000000000000000000000000000000000000000000000000000000
310
00000000000000000000000000000000000000000000000000000000000000000000000000000000000000000000000000000000000000000000000000000000000000000000000000000000C30000C30000000000000000000000000000000000000000000000000000000000000000000000000000000000000000000000
310
00000000000000000000000000000000000000000000000000000000000000000000000000000000000000000000000000000000000000000000000000000000000000000000000000000000000000000000000000000000000000000000000000000000000000000000000000000000000000000000000000000000000000
310
00000000000000000000000000000000000000000000000000000000000000000000000000000000000000000000000000000000000000000000000000000000000000000000000000000000000000C300C3000000000000000000000000000000000000000000000000000000000000000000000000000000000000000000
310
00000000000000000000000000000000000000000000000000000000000000000000000000000000000000000000000000000000000000000000000000000000000000000000000000000000000000000000000000000000000000000000000000000000000000000000000000000000000000000000000000000000000000
310
000000000000000000000000000000000000000000000000000000000000000000000000000000000000000000000000000000000000000000000000000000000000000000000000000000000000000000C30000C3000000000000000000000000000000000000000000000000000000000000000000000000000000000000
310
00000000000000000000000000000000000000000000000000000000000000000000000000000000000000000000000000000000000000000000000000000000000000000000000000000000000000000000000000000000000000000000000000000000000000000000000000000000000000000000000000000000000000
310
000000000000000000000000000000000000000000000000000000000000000000000000000000000000000000000000000000000000000000000000000000000000000000000000000000000000000000000000C300C300000000000000000000000000000000000000000000000000000000000000000000000000000000
310
00000000000000000000000000000000000000000000000000000000000000000000000000000000000000000000000000000000000000000000000000000000000000000000000000000000000000000000000000000000000000000000000000000000000000000000000000000000000000000000000000000000000000
310
0000000000000000000000000000000000000000000000000000000000000000000000000000000000000000000000000000000000000000000000000000000000000000000000000000000000000000000000000000C30000C300000000000000000000000000000000000000000000000000000000000000000000000000
310
00000000000000000000000000000000000000000000000000000000000000000000000000000000000000000000000000000000000000000000000000000000000000000000000000000000000000000000000000000000000000000000000000000000000000000000000000000000000000000000000000000000000000
310
0000000000000000000000000000000000000000000000000000000000000000000000000000000000000000000000000000000000000000000000000000000000000000000000000000000000000000000000000000000000C300C30000000000000000000000000000000000000000000000000000000000000000000000
310
00000000000000000000000000000000000000000000000000000000000000000000000000000000000000000000000000000000000000000000000000000000000000000000000000000000000000000000000000000000000000000000000000000000000000000000000000000000000000000000000000000000000000
310
00000000000000000000000000000000000000000000000000000000000000000000000000000000000000000000000000000000000000000000000000000000000000000000000000000000000000000000000000000000000000C300C3000000000000000000000000000000000000000000000000000000000000000000
310
00000000000000000000000000000000000000000000000000000000000000000000000000000000000000000000000000000000000000000000000000000000000000000000000000000000000000000000000000000000000000000000000000000000000000000000000000000000000000000000000000000000000000
310
000000000000000000000000000000000000000000000000000000000000000000000000000000000000000000000000000000000000000000000000000000000000000000000000000000000000000000000000000000000000000000C300C300000000000000000000000000000000000000000000000000000000000000
310
00000000000000000000000000000000000000000000000000000000000000000000000000000000000000000000000000000000000000000000000000000000000000000000000000000000000000000000000000000000000000000000000000000000000000000000000000000000000000000000000000000000000000
310
0000000000000000000000000000000000000000000000000000000000000000000000000000000000000000000000000000000000000000000000000000000000000000000000000000000000000000000000000000000000000000000000C30000C300000000000000000000000000000000000000000000000000000000
310
00000000000000000000000000000000000000000000000000000000000000000000000000000000000000000000000000000000000000000000000000000000000000000000000000000000000000000000000000000000000000000000000000000000000000000000000000000000000000000000000000000000000000
310
0000000000000000000000000000000000000000000000000000000000000000000000000000000000000000000000000000000000000000000000000000000000000000000000000000000000000000000000000000000000000000000000000000C300C30000000000000000000000000000000000000000000000000000
310
00000000000000000000000000000000000000000000000000000000000000000000000000000000000000000000000000000000000000000000000000000000000000000000000000000000000000000000000000000000000000000000000000000000000000000000000000000000000000000000000000000000000000
310
00000000000000000000000000000000000000000000000000000000000000000000000000000000000000000000000000000000000000000000000000000000000000000000000000000000000000000000000000000000000000000000000000000000C300C3000000000000000000000000000000000000000000000000
310
00000000000000000000000000000000000000000000000000000000000000000000000000000000000000000000000000000000000000000000000000000000000000000000000000000000000000000000000000000000000000000000000000000000000000000000000000000000000000000000000000000000000000
310
000000000000000000000000000000000000000000000000000000000000000000000000000000000000000000000000000000000000000000000000000000000000000000000000000000000000000000000000000000000000000000000000000000000000C300C300000000000000000000000000000000000000000000
310
00000000000000000000000000000000000000000000000000000000000000000000000000000000000000000000000000000000000000000000000000000000000000000000000000000000000000000000000000000000000000000000000000000000000000000000000000000000000000000000000000000000000000
310
0000000000000000000000000000000000000000000000000000000000000000000000000000000000000000000000000000000000000000000000000000000000000000000000000000000000000000000000000000000000000000000000000000000000000000C30000C300000000000000000000000000000000000000
310
00000000000000000000000000000000000000000000000000000000000000000000000000000000000000000000000000000000000000000000000000000000000000000000000000000000000000000000000000000000000000000000000000000000000000000000000000000000000000000000000000000000000000
310
0000000000000000000000000000000000000000000000000000000000000000000000000000000000000000000000000000000000000000000000000000000000000000000000000000000000000000000000000000000000000000000000000000000000000000000000C300C30000000000000000000000000000000000
310
00000000000000000000000000000000000000000000000000000000000000000000000000000000000000000000000000000000000000000000000000000000000000000000000000000000000000000000000000000000000000000000000000000000000000000000000000000000000000000000000000000000000000
310
00000000000000000000000000000000000000000000000000000000000000000000000000000000000000000000000000000000000000000000000000000000000000000000000000000000000000000000000000000000000000000000000000000000000000000000000000C30000C30000000000000000000000000000
310
00000000000000000000000000000000000000000000000000000000000000000000000000000000000000000000000000000000000000000000000000000000000000000000000000000000000000000000000000000000000000000000000000000000000000000000000000000000000000000000000000000000000000
310
00000000000000000000000000000000000000000000000000000000000000000000000000000000000000000000000000000000000000000000000000000000000000000000000000000000000000000000000000000000000000000000000000000000000000000000000000000000C300C3000000000000000000000000
310
00000000000000000000000000000000000000000000000000000000000000000000000000000000000000000000000000000000000000000000000000000000000000000000000000000000000000000000000000000000000000000000000000000000000000000000000000000000000000000000000000000000000000
310
000000000000000000000000000000000000000000000000000000000000000000000000000000000000000000000000000000000000000000000000000000000000000000000000000000000000000000000000000000000000000000000000000000000000000000000000000000000000C30000C3000000000000000000
310
00000000000000000000000000000000000000000000000000000000000000000000000000000000000000000000000000000000000000000000000000000000000000000000000000000000000000000000000000000000000000000000000000000000000000000000000000000000000000000000000000000000000000
310
000000000000000000000000000000000000000000000000000000000000000000000000000000000000000000000000000000000000000000000000000000000000000000000000000000000000000000000000000000000000000000000000000000000000000000000000000000000000000000C300C300000000000000
310
00000000000000000000000000000000000000000000000000000000000000000000000000000000000000000000000000000000000000000000000000000000000000000000000000000000000000000000000000000000000000000000000000000000000000000000000000000000000000000000000000000000000000
310
0000000000000000000000000000000000000000000000000000000000000000000000000000000000000000000000000000000000000000000000000000000000000000000000000000000000000000000000000000000000000000000000000000000000000000000000000000000000000000000000C300C30000000000
310
00000000000000000000000000000000000000000000000000000000000000000000000000000000000000000000000000000000000000000000000000000000000000000000000000000000000000000000000000000000000000000000000000000000000000000000000000000000000000000000000000000000000000
310
00000000000000000000000000000000000000000000000000000000000000000000000000000000000000000000000000000000000000000000000000000000000000000000000000000000000000000000000000000000000000000000000000000000000000000000000000000000000000000000000000C300C3000000
310
00000000000000000000000000000000000000000000000000000000000000000000000000000000000000000000000000000000000000000000000000000000000000000000000000000000000000000000000000000000000000000000000000000000000000000000000000000000000000000000000000000000000000
310
000000000000000000000000000000000000000000000000000000000000000000000000000000000000000000000000000000000000000000000000000000000000000000000000000000000000000000000000000000000000000000000000000000000000000000000000000000000000000000000000000000C30000C3
310
00000000000000000000000000000000000000000000000000000000000000000000000000000000000000000000000000000000000000000000000000000000000000000000000000000000000000000000000000000000000000000000000000000000000000000000000000000000000000000000000000000000000000
310
000000000000000000000000000000000000000000000000000000000000000000000000000000000000000000000000000000000000000000000000000000000000000000000000000000000000000000000000000000000000000000000000000000000000000000000000000000000000000000000000000000000000C3
310
00C30000000000000000000000000000000000000000000000000000000000000000000000000000000000000000000000000000000000000000000000000000000000000000000000000000000000000000000000000000000000000000000000000000000000000000000000000000000000000000000000000000000000
310
00000000000000000000000000000000000000000000000000000000000000000000000000000000000000000000000000000000000000000000000000000000000000000000000000000000000000000000000000000000000000000000000000000000000000000000000000000000000000000000000000000000000000
310
00C300C3000000000000000000000000000000000000000000000000000000000000000000000000000000000000000000000000000000000000000000000000000000000000000000000000000000000000000000000000000000000000000000000000000000000000000000000000000000000000000000000000000000
310
00000000000000000000000000000000000000000000000000000000000000000000000000000000000000000000000000000000000000000000000000000000000000000000000000000000000000000000000000000000000000000000000000000000000000000000000000000000000000000000000000000000000000
310
000000C300C300000000000000000000000000000000000000000000000000000000000000000000000000000000000000000000000000000000000000000000000000000000000000000000000000000000000000000000000000000000000000000000000000000000000000000000000000000000000000000000000000
310
00000000000000000000000000000000000000000000000000000000000000000000000000000000000000000000000000000000000000000000000000000000000000000000000000000000000000000000000000000000000000000000000000000000000000000000000000000000000000000000000000000000000000
310
0000000000C30000C300000000000000000000000000000000000000000000000000000000000000000000000000000000000000000000000000000000000000000000000000000000000000000000000000000000000000000000000000000000000000000000000000000000000000000000000000000000000000000000
310
00000000000000000000000000000000000000000000000000000000000000000000000000000000000000000000000000000000000000000000000000000000000000000000000000000000000000000000000000000000000000000000000000000000000000000000000000000000000000000000000000000000000000
310
0000000000000000C300C30000000000000000000000000000000000000000000000000000000000000000000000000000000000000000000000000000000000000000000000000000000000000000000000000000000000000000000000000000000000000000000000000000000000000000000000000000000000000000
310
00000000000000000000000000000000000000000000000000000000000000000000000000000000000000000000000000000000000000000000000000000000000000000000000000000000000000000000000000000000000000000000000000000000000000000000000000000000000000000000000000000000000000
310
00000000000000000000C30000C30000000000000000000000000000000000000000000000000000000000000000000000000000000000000000000000000000000000000000000000000000000000000000000000000000000000000000000000000000000000000000000000000000000000000000000000000000000000
310
00000000000000000000000000000000000000000000000000000000000000000000000000000000000000000000000000000000000000000000000000000000000000000000000000000000000000000000000000000000000000000000000000000000000000000000000000000000000000000000000000000000000000
310
00000000000000000000000000C300C3000000000000000000000000000000000000000000000000000000000000000000000000000000000000000000000000000000000000000000000000000000000000000000000000000000000000000000000000000000000000000000000000000000000000000000000000000000
310
00000000000000000000000000000000000000000000000000000000000000000000000000000000000000000000000000000000000000000000000000000000000000000000000000000000000000000000000000000000000000000000000000000000000000000000000000000000000000000000000000000000000000
310
000000000000000000000000000000C30000C3000000000000000000000000000000000000000000000000000000000000000000000000000000000000000000000000000000000000000000000000000000000000000000000000000000000000000000000000000000000000000000000000000000000000000000000000
310
00000000000000000000000000000000000000000000000000000000000000000000000000000000000000000000000000000000000000000000000000000000000000000000000000000000000000000000000000000000000000000000000000000000000000000000000000000000000000000000000000000000000000
310
000000000000000000000000000000000000C300C300000000000000000000000000000000000000000000000000000000000000000000000000000000000000000000000000000000000000000000000000000000000000000000000000000000000000000000000000000000000000000000000000000000000000000000
310
00000000000000000000000000000000000000000000000000000000000000000000000000000000000000000000000000000000000000000000000000000000000000000000000000000000000000000000000000000000000000000000000000000000000000000000000000000000000000000000000000000000000000
310
0000000000000000000000000000000000000000C300C30000000000000000000000000000000000000000000000000000000000000000000000000000000000000000000000000000000000000000000000000000000000000000000000000000000000000000000000000000000000000000000000000000000000000000
310
00000000000000000000000000000000000000000000000000000000000000000000000000000000000000000000000000000000000000000000000000000000000000000000000000000000000000000000000000000000000000000000000000000000000000000000000000000000000000000000000000000000000000
310
00000000000000000000000000000000000000000000C300C3000000000000000000000000000000000000000000000000000000000000000000000000000000000000000000000000000000000000000000000000000000000000000000000000000000000000000000000000000000000000000000000000000000000000
310
00000000000000000000000000000000000000000000000000000000000000000000000000000000000000000000000000000000000000000000000000000000000000000000000000000000000000000000000000000000000000000000000000000000000000000000000000000000000000000000000000000000000000
310
00000000000000000000000000000000000000000000000000C300C3000000000000000000000000000000000000000000000000000000000000000000000000000000000000000000000000000000000000000000000000000000000000000000000000000000000000000000000000000000000000000000000000000000
310
00000000000000000000000000000000000000000000000000000000000000000000000000000000000000000000000000000000000000000000000000000000000000000000000000000000000000000000000000000000000000000000000000000000000000000000000000000000000000000000000000000000000000
310
000000000000000000000000000000000000000000000000000000C300C300000000000000000000000000000000000000000000000000000000000000000000000000000000000000000000000000000000000000000000000000000000000000000000000000000000000000000000000000000000000000000000000000
310
00000000000000000000000000000000000000000000000000000000000000000000000000000000000000000000000000000000000000000000000000000000000000000000000000000000000000000000000000000000000000000000000000000000000000000000000000000000000000000000000000000000000000
310
0000000000000000000000000000000000000000000000000000000000C300C30000000000000000000000000000000000000000000000000000000000000000000000000000000000000000000000000000000000000000000000000000000000000000000000000000000000000000000000000000000000000000000000
310
00000000000000000000000000000000000000000000000000000000000000000000000000000000000000000000000000000000000000000000000000000000000000000000000000000000000000000000000000000000000000000000000000000000000000000000000000000000000000000000000000000000000000
310
00000000000000000000000000000000000000000000000000000000000000C300C3000000000000000000000000000000000000000000000000000000000000000000000000000000000000000000000000000000000000000000000000000000000000000000000000000000000000000000000000000000000000000000
310
00000000000000000000000000000000000000000000000000000000000000000000000000000000000000000000000000000000000000000000000000000000000000000000000000000000000000000000000000000000000000000000000000000000000000000000000000000000000000000000000000000000000000
310
00000000000000000000000000000000000000000000000000000000000000000000C300C3000000000000000000000000000000000000000000000000000000000000000000000000000000000000000000000000000000000000000000000000000000000000000000000000000000000000000000000000000000000000
310
00000000000000000000000000000000000000000000000000000000000000000000000000000000000000000000000000000000000000000000000000000000000000000000000000000000000000000000000000000000000000000000000000000000000000000000000000000000000000000000000000000000000000
310
000000000000000000000000000000000000000000000000000000000000000000000000C300C300000000000000000000000000000000000000000000000000000000000000000000000000000000000000000000000000000000000000000000000000000000000000000000000000000000000000000000000000000000
310
00000000000000000000000000000000000000000000000000000000000000000000000000000000000000000000000000000000000000000000000000000000000000000000000000000000000000000000000000000000000000000000000000000000000000000000000000000000000000000000000000000000000000
310
0000000000000000000000000000000000000000000000000000000000000000000000000000C3C3C30000000000000000000000000000000000000000000000000000000000000000000000000000000000000000000000000000000000000000000000000000000000000000000000000000000000000000000000000000
310
00000000000000000000000000000000000000000000000000000000000000000000000000000000000000000000000000000000000000000000000000000000000000000000000000000000000000000000000000000000000000000000000000000000000000000000000000000000000000000000000000000000000000
310
00000000000000000000000000000000000000000000000000000000000000000000000000000000000000000000000000000000000000000000000000000000000000000000000000000000000000000000000000000000000000000000000000000000000000000000000000000000000000000000000000000000000000
310
00000000000000000000000000000000000000000000000000000000000000000000000000000000000000000000000000000000000000000000000000000000000000000000000000000000000000000000000000000000000000000000000000000000000000000000000000000000000000000000000000000000000000
310
00000000000000000000000000000000000000000000000000000000000000000000000000000000000000000000000000000000000000000000000000000000000000000000000000000000000000000000000000000000000000000000000000000000000000000000000000000000000000000000000000000000000000
310
00000000000000000000000000000000000000000000000000000000000000000000000000000000000000000000000000000000000000000000000000000000000000000000000000000000000000000000000000000000000000000000000000000000000000000000000000000000000000000000000000000000000000
310
00000000000000000000000000000000000000000000000000000000000000000000000000000000000000000000000000000000000000000000000000000000000000000000000000000000000000000000000000000000000000000000000000000000000000000000000000000000000000000000000000000000000000
310
0000000000000000000000000000000000000000
  0
XRECORD
  5
5568
102
{ACAD_REACTORS
330
3AC5
102
}
330
3AC5
100
AcDbXrecord
280
     1
102
MATERIAL
148
0.0
149
0.0
149
0.0
 93
        0
 94
      127
282
     0
 72
     0
 77
     0
171
     0
175
     0
179
     0
273
     0
  0
XRECORD
  5
3AC7
102
{ACAD_REACTORS
330
3AC5
102
}
330
3AC5
100
AcDbXrecord
280
     1
270
     1
271
     1
  0
XRECORD
  5
3AC6
102
{ACAD_REACTORS
330
3AC5
102
}
330
3AC5
100
AcDbXrecord
280
     1
270
     1
271
     1
  0
XRECORD
  5
3ACA
102
{ACAD_REACTORS
330
3AC5
102
}
330
3AC5
100
AcDbXrecord
280
     1
270
     1
271
     1
  0
XRECORD
  5
3AC9
102
{ACAD_REACTORS
330
3AC5
102
}
330
3AC5
100
AcDbXrecord
280
     1
270
     1
271
     1
  0
XRECORD
  5
3ACB
102
{ACAD_REACTORS
330
3AC5
102
}
330
3AC5
100
AcDbXrecord
280
     1
270
     1
271
     1
  0
XRECORD
  5
3AC8
102
{ACAD_REACTORS
330
3AC5
102
}
330
3AC5
100
AcDbXrecord
280
     1
270
     1
271
     1
  0
XRECORD
  5
5567
102
{ACAD_REACTORS
330
3ABD
102
}
330
3ABD
100
AcDbXrecord
280
     1
102
MATERIAL
148
0.0
149
0.0
149
0.0
 93
        0
 94
      127
282
     0
 72
     0
 77
     0
171
     0
175
     0
179
     0
273
     0
  0
XRECORD
  5
3ABF
102
{ACAD_REACTORS
330
3ABD
102
}
330
3ABD
100
AcDbXrecord
280
     1
270
     1
271
     1
  0
XRECORD
  5
3ABE
102
{ACAD_REACTORS
330
3ABD
102
}
330
3ABD
100
AcDbXrecord
280
     1
270
     1
271
     1
  0
XRECORD
  5
3AC2
102
{ACAD_REACTORS
330
3ABD
102
}
330
3ABD
100
AcDbXrecord
280
     1
270
     1
271
     1
  0
XRECORD
  5
3AC1
102
{ACAD_REACTORS
330
3ABD
102
}
330
3ABD
100
AcDbXrecord
280
     1
270
     1
271
     1
  0
XRECORD
  5
3AC3
102
{ACAD_REACTORS
330
3ABD
102
}
330
3ABD
100
AcDbXrecord
280
     1
270
     1
271
     1
  0
XRECORD
  5
3AC0
102
{ACAD_REACTORS
330
3ABD
102
}
330
3ABD
100
AcDbXrecord
280
     1
270
     1
271
     1
  0
XRECORD
  5
5569
102
{ACAD_REACTORS
330
3ACD
102
}
330
3ACD
100
AcDbXrecord
280
     1
102
MATERIAL
148
0.0
149
0.0
149
0.0
 93
        0
 94
      127
282
     0
 72
     0
 77
     0
171
     0
175
     0
179
     0
273
     0
  0
XRECORD
  5
3ACF
102
{ACAD_REACTORS
330
3ACD
102
}
330
3ACD
100
AcDbXrecord
280
     1
270
     1
271
     1
  0
XRECORD
  5
3ACE
102
{ACAD_REACTORS
330
3ACD
102
}
330
3ACD
100
AcDbXrecord
280
     1
270
     1
271
     1
  0
XRECORD
  5
3AD2
102
{ACAD_REACTORS
330
3ACD
102
}
330
3ACD
100
AcDbXrecord
280
     1
270
     1
271
     1
  0
XRECORD
  5
3AD1
102
{ACAD_REACTORS
330
3ACD
102
}
330
3ACD
100
AcDbXrecord
280
     1
270
     1
271
     1
  0
XRECORD
  5
3AD3
102
{ACAD_REACTORS
330
3ACD
102
}
330
3ACD
100
AcDbXrecord
280
     1
270
     1
271
     1
  0
XRECORD
  5
3AD0
102
{ACAD_REACTORS
330
3ACD
102
}
330
3ACD
100
AcDbXrecord
280
     1
270
     1
271
     1
  0
CELLSTYLEMAP
  5
5560
102
{ACAD_REACTORS
330
3C59
102
}
330
3C59
100
AcDbCellStyleMap
 90
        3
300
CELLSTYLE
  1
TABLEFORMAT_BEGIN
 90
        5
170
     1
 91
        0
 92
    32768
 62
   257
 93
        1
300
CONTENTFORMAT
  1
CONTENTFORMAT_BEGIN
 90
        0
 91
        0
 92
      512
 93
        0
300

 40
0.0
140
1.0
 94
        5
 62
     0
340
11
144
6.0
309
CONTENTFORMAT_END
171
     1
301
MARGIN
  1
CELLMARGIN_BEGIN
 40
1.5
 40
1.5
 40
1.5
 40
1.5
 40
4.5
 40
4.5
309
CELLMARGIN_END
 94
        6
 95
        1
302
GRIDFORMAT
  1
GRIDFORMAT_BEGIN
 90
        0
 91
        1
 62
     0
 92
       -2
340
0
 93
        0
 40
1.125
309
GRIDFORMAT_END
 95
        2
302
GRIDFORMAT
  1
GRIDFORMAT_BEGIN
 90
        0
 91
        1
 62
     0
 92
       -2
340
0
 93
        0
 40
1.125
309
GRIDFORMAT_END
 95
        4
302
GRIDFORMAT
  1
GRIDFORMAT_BEGIN
 90
        0
 91
        1
 62
     0
 92
       -2
340
0
 93
        0
 40
1.125
309
GRIDFORMAT_END
 95
        8
302
GRIDFORMAT
  1
GRIDFORMAT_BEGIN
 90
        0
 91
        1
 62
     0
 92
       -2
340
0
 93
        0
 40
1.125
309
GRIDFORMAT_END
 95
       16
302
GRIDFORMAT
  1
GRIDFORMAT_BEGIN
 90
        0
 91
        1
 62
     0
 92
       -2
340
0
 93
        0
 40
1.125
309
GRIDFORMAT_END
 95
       32
302
GRIDFORMAT
  1
GRIDFORMAT_BEGIN
 90
        0
 91
        1
 62
     0
 92
       -2
340
0
 93
        0
 40
1.125
309
GRIDFORMAT_END
309
TABLEFORMAT_END
  1
CELLSTYLE_BEGIN
 90
        1
 91
        1
300
_TITLE
309
CELLSTYLE_END
300
CELLSTYLE
  1
TABLEFORMAT_BEGIN
 90
        5
170
     1
 91
        0
 92
        0
 62
   257
 93
        1
300
CONTENTFORMAT
  1
CONTENTFORMAT_BEGIN
 90
        0
 91
        0
 92
      512
 93
        0
300

 40
0.0
140
1.0
 94
        5
 62
     0
340
11
144
4.5
309
CONTENTFORMAT_END
171
     1
301
MARGIN
  1
CELLMARGIN_BEGIN
 40
1.5
 40
1.5
 40
1.5
 40
1.5
 40
4.5
 40
4.5
309
CELLMARGIN_END
 94
        6
 95
        1
302
GRIDFORMAT
  1
GRIDFORMAT_BEGIN
 90
        0
 91
        1
 62
     0
 92
       -2
340
0
 93
        0
 40
1.125
309
GRIDFORMAT_END
 95
        2
302
GRIDFORMAT
  1
GRIDFORMAT_BEGIN
 90
        0
 91
        1
 62
     0
 92
       -2
340
0
 93
        0
 40
1.125
309
GRIDFORMAT_END
 95
        4
302
GRIDFORMAT
  1
GRIDFORMAT_BEGIN
 90
        0
 91
        1
 62
     0
 92
       -2
340
0
 93
        0
 40
1.125
309
GRIDFORMAT_END
 95
        8
302
GRIDFORMAT
  1
GRIDFORMAT_BEGIN
 90
        0
 91
        1
 62
     0
 92
       -2
340
0
 93
        0
 40
1.125
309
GRIDFORMAT_END
 95
       16
302
GRIDFORMAT
  1
GRIDFORMAT_BEGIN
 90
        0
 91
        1
 62
     0
 92
       -2
340
0
 93
        0
 40
1.125
309
GRIDFORMAT_END
 95
       32
302
GRIDFORMAT
  1
GRIDFORMAT_BEGIN
 90
        0
 91
        1
 62
     0
 92
       -2
340
0
 93
        0
 40
1.125
309
GRIDFORMAT_END
309
TABLEFORMAT_END
  1
CELLSTYLE_BEGIN
 90
        2
 91
        1
300
_HEADER
309
CELLSTYLE_END
300
CELLSTYLE
  1
TABLEFORMAT_BEGIN
 90
        5
170
     1
 91
        0
 92
        0
 62
   257
 93
        1
300
CONTENTFORMAT
  1
CONTENTFORMAT_BEGIN
 90
        0
 91
        0
 92
      512
 93
        0
300

 40
0.0
140
1.0
 94
        2
 62
     0
340
11
144
4.5
309
CONTENTFORMAT_END
171
     1
301
MARGIN
  1
CELLMARGIN_BEGIN
 40
1.5
 40
1.5
 40
1.5
 40
1.5
 40
4.5
 40
4.5
309
CELLMARGIN_END
 94
        6
 95
        1
302
GRIDFORMAT
  1
GRIDFORMAT_BEGIN
 90
        0
 91
        1
 62
     0
 92
       -2
340
0
 93
        0
 40
1.125
309
GRIDFORMAT_END
 95
        2
302
GRIDFORMAT
  1
GRIDFORMAT_BEGIN
 90
        0
 91
        1
 62
     0
 92
       -2
340
0
 93
        0
 40
1.125
309
GRIDFORMAT_END
 95
        4
302
GRIDFORMAT
  1
GRIDFORMAT_BEGIN
 90
        0
 91
        1
 62
     0
 92
       -2
340
0
 93
        0
 40
1.125
309
GRIDFORMAT_END
 95
        8
302
GRIDFORMAT
  1
GRIDFORMAT_BEGIN
 90
        0
 91
        1
 62
     0
 92
       -2
340
0
 93
        0
 40
1.125
309
GRIDFORMAT_END
 95
       16
302
GRIDFORMAT
  1
GRIDFORMAT_BEGIN
 90
        0
 91
        1
 62
     0
 92
       -2
340
0
 93
        0
 40
1.125
309
GRIDFORMAT_END
 95
       32
302
GRIDFORMAT
  1
GRIDFORMAT_BEGIN
 90
        0
 91
        1
 62
     0
 92
       -2
340
0
 93
        0
 40
1.125
309
GRIDFORMAT_END
309
TABLEFORMAT_END
  1
CELLSTYLE_BEGIN
 90
        3
 91
        2
300
_DATA
309
CELLSTYLE_END
  0
XRECORD
  5
558A
102
{ACAD_REACTORS
330
3C59
102
}
330
3C59
100
AcDbXrecord
280
     1
102
ACAD_ROUNDTRIP_PRE2007_TABLESTYLE
 90
      512
 91
        0
  1

 92
      512
 93
        0
  2

 94
      512
 95
        0
  3

  0
XRECORD
  5
5575
102
{ACAD_REACTORS
330
5574
102
}
330
5574
100
AcDbXrecord
280
     1
102
RTVSPropertyOp0
 70
     1
102
RTVSPropertyOp1
 70
     1
102
RTVSPropertyOp2
 70
     1
102
RTVSPropertyOp3
 70
     1
102
RTVSPropertyOp4
 70
     1
102
RTVSPropertyOp5
 70
     1
102
RTVSPropertyOp6
 70
     1
102
RTVSPropertyOp7
 70
     1
102
RTVSPropertyOp8
 70
     1
102
RTVSPropertyOp9
 70
     1
102
RTVSPropertyOp10
 70
     1
102
RTVSPropertyOp11
 70
     1
102
RTVSPropertyOp12
 70
     1
102
RTVSPropertyOp13
 70
     1
102
RTVSPropertyOp14
 70
     1
102
RTVSPropertyOp15
 70
     1
102
RTVSPropertyOp16
 70
     1
102
RTVSPropertyOp17
 70
     1
102
RTVSPropertyOp18
 70
     1
102
RTVSPropertyOp19
 70
     1
102
RTVSPropertyOp20
 70
     1
102
RTVSPropertyOp21
 70
     1
102
RTVSPropertyOp22
 70
     1
102
RTVSPropertyOp23
 70
     1
102
RTVSPropertyOp24
 70
     1
102
RTVSPropertyOp25
 70
     1
102
RTVSPropertyOp26
 70
     1
102
RTVSPropertyOp27
 70
     1
102
RTVSPropertyOp28
 70
     1
102
RTVSPropertyOp29
 70
     1
102
RTVSPropertyOp30
 70
     1
102
RTVSPropertyOp31
 70
     1
102
RTVSPropertyOp32
 70
     1
  0
XRECORD
  5
5579
102
{ACAD_REACTORS
330
5578
102
}
330
5578
100
AcDbXrecord
280
     1
102
RTVSPropertyOp0
 70
     1
102
RTVSPropertyOp1
 70
     1
102
RTVSPropertyOp2
 70
     1
102
RTVSPropertyOp3
 70
     1
102
RTVSPropertyOp4
 70
     1
102
RTVSPropertyOp5
 70
     1
102
RTVSPropertyOp6
 70
     1
102
RTVSPropertyOp7
 70
     1
102
RTVSPropertyOp8
 70
     1
102
RTVSPropertyOp9
 70
     1
102
RTVSPropertyOp10
 70
     1
102
RTVSPropertyOp11
 70
     1
102
RTVSPropertyOp12
 70
     1
102
RTVSPropertyOp13
 70
     1
102
RTVSPropertyOp14
 70
     1
102
RTVSPropertyOp15
 70
     1
102
RTVSPropertyOp16
 70
     1
102
RTVSPropertyOp17
 70
     1
102
RTVSPropertyOp18
 70
     1
102
RTVSPropertyOp19
 70
     1
102
RTVSPropertyOp20
 70
     1
102
RTVSPropertyOp21
 70
     1
102
RTVSPropertyOp22
 70
     1
102
RTVSPropertyOp23
 70
     1
102
RTVSPropertyOp24
 70
     1
102
RTVSPropertyOp25
 70
     1
102
RTVSPropertyOp26
 70
     1
102
RTVSPropertyOp27
 70
     1
102
RTVSPropertyOp28
 70
     1
102
RTVSPropertyOp29
 70
     1
102
RTVSPropertyOp30
 70
     1
102
RTVSPropertyOp31
 70
     1
102
RTVSPropertyOp32
 70
     1
  0
XRECORD
  5
5577
102
{ACAD_REACTORS
330
5576
102
}
330
5576
100
AcDbXrecord
280
     1
102
RTVSPropertyOp0
 70
     1
102
RTVSPropertyOp1
 70
     1
102
RTVSPropertyOp2
 70
     1
102
RTVSPropertyOp3
 70
     1
102
RTVSPropertyOp4
 70
     1
102
RTVSPropertyOp5
 70
     1
102
RTVSPropertyOp6
 70
     1
102
RTVSPropertyOp7
 70
     1
102
RTVSPropertyOp8
 70
     1
102
RTVSPropertyOp9
 70
     1
102
RTVSPropertyOp10
 70
     1
102
RTVSPropertyOp11
 70
     1
102
RTVSPropertyOp12
 70
     1
102
RTVSPropertyOp13
 70
     1
102
RTVSPropertyOp14
 70
     1
102
RTVSPropertyOp15
 70
     1
102
RTVSPropertyOp16
 70
     1
102
RTVSPropertyOp17
 70
     1
102
RTVSPropertyOp18
 70
     1
102
RTVSPropertyOp19
 70
     1
102
RTVSPropertyOp20
 70
     1
102
RTVSPropertyOp21
 70
     1
102
RTVSPropertyOp22
 70
     1
102
RTVSPropertyOp23
 70
     1
102
RTVSPropertyOp24
 70
     1
102
RTVSPropertyOp25
 70
     1
102
RTVSPropertyOp26
 70
     1
102
RTVSPropertyOp27
 70
     1
102
RTVSPropertyOp28
 70
     1
102
RTVSPropertyOp29
 70
     1
102
RTVSPropertyOp30
 70
     1
102
RTVSPropertyOp31
 70
     1
102
RTVSPropertyOp32
 70
     1
  0
XRECORD
  5
5573
102
{ACAD_REACTORS
330
5572
102
}
330
5572
100
AcDbXrecord
280
     1
102
RTVSPropertyOp0
 70
     1
102
RTVSPropertyOp1
 70
     1
102
RTVSPropertyOp2
 70
     1
102
RTVSPropertyOp3
 70
     1
102
RTVSPropertyOp4
 70
     1
102
RTVSPropertyOp5
 70
     1
102
RTVSPropertyOp6
 70
     1
102
RTVSPropertyOp7
 70
     1
102
RTVSPropertyOp8
 70
     1
102
RTVSPropertyOp9
 70
     1
102
RTVSPropertyOp10
 70
     1
102
RTVSPropertyOp11
 70
     1
102
RTVSPropertyOp12
 70
     1
102
RTVSPropertyOp13
 70
     1
102
RTVSPropertyOp14
 70
     1
102
RTVSPropertyOp15
 70
     1
102
RTVSPropertyOp16
 70
     1
102
RTVSPropertyOp17
 70
     1
102
RTVSPropertyOp18
 70
     1
102
RTVSPropertyOp19
 70
     1
102
RTVSPropertyOp20
 70
     1
102
RTVSPropertyOp21
 70
     1
102
RTVSPropertyOp22
 70
     1
102
RTVSPropertyOp23
 70
     1
102
RTVSPropertyOp24
 70
     1
102
RTVSPropertyOp25
 70
     1
102
RTVSPropertyOp26
 70
     1
102
RTVSPropertyOp27
 70
     1
102
RTVSPropertyOp28
 70
     1
102
RTVSPropertyOp29
 70
     1
102
RTVSPropertyOp30
 70
     1
102
RTVSPropertyOp31
 70
     1
102
RTVSPropertyOp32
 70
     1
  0
XRECORD
  5
5581
102
{ACAD_REACTORS
330
5580
102
}
330
5580
100
AcDbXrecord
280
     1
102
RTVSPropertyOp0
 70
     1
102
RTVSPropertyOp1
 70
     1
102
RTVSPropertyOp2
 70
     1
102
RTVSPropertyOp3
 70
     1
102
RTVSPropertyOp4
 70
     1
102
RTVSPropertyOp5
 70
     1
102
RTVSPropertyOp6
 70
     1
102
RTVSPropertyOp7
 70
     1
102
RTVSPropertyOp8
 70
     1
102
RTVSPropertyOp9
 70
     1
102
RTVSPropertyOp10
 70
     1
102
RTVSPropertyOp11
 70
     1
102
RTVSPropertyOp12
 70
     1
102
RTVSPropertyOp13
 70
     1
102
RTVSPropertyOp14
 70
     1
102
RTVSPropertyOp15
 70
     1
102
RTVSPropertyOp16
 70
     1
102
RTVSPropertyOp17
 70
     1
102
RTVSPropertyOp18
 70
     1
102
RTVSPropertyOp19
 70
     1
102
RTVSPropertyOp20
 70
     1
102
RTVSPropertyOp21
 70
     1
102
RTVSPropertyOp22
 70
     1
102
RTVSPropertyOp23
 70
     1
102
RTVSPropertyOp24
 70
     1
102
RTVSPropertyOp25
 70
     1
102
RTVSPropertyOp26
 70
     1
102
RTVSPropertyOp27
 70
     1
102
RTVSPropertyOp28
 70
     1
102
RTVSPropertyOp29
 70
     1
102
RTVSPropertyOp30
 70
     1
102
RTVSPropertyOp31
 70
     1
102
RTVSPropertyOp32
 70
     1
  0
XRECORD
  5
5589
102
{ACAD_REACTORS
330
5588
102
}
330
5588
100
AcDbXrecord
280
     1
102
RTVSPropertyOp0
 70
     1
102
RTVSPropertyOp1
 70
     1
102
RTVSPropertyOp2
 70
     1
102
RTVSPropertyOp3
 70
     1
102
RTVSPropertyOp4
 70
     1
102
RTVSPropertyOp5
 70
     1
102
RTVSPropertyOp6
 70
     1
102
RTVSPropertyOp7
 70
     1
102
RTVSPropertyOp8
 70
     1
102
RTVSPropertyOp9
 70
     1
102
RTVSPropertyOp10
 70
     1
102
RTVSPropertyOp11
 70
     1
102
RTVSPropertyOp12
 70
     1
102
RTVSPropertyOp13
 70
     1
102
RTVSPropertyOp14
 70
     1
102
RTVSPropertyOp15
 70
     1
102
RTVSPropertyOp16
 70
     1
102
RTVSPropertyOp17
 70
     1
102
RTVSPropertyOp18
 70
     1
102
RTVSPropertyOp19
 70
     1
102
RTVSPropertyOp20
 70
     1
102
RTVSPropertyOp21
 70
     1
102
RTVSPropertyOp22
 70
     1
102
RTVSPropertyOp23
 70
     1
102
RTVSPropertyOp24
 70
     1
102
RTVSPropertyOp25
 70
     1
102
RTVSPropertyOp26
 70
     1
102
RTVSPropertyOp27
 70
     1
102
RTVSPropertyOp28
 70
     1
102
RTVSPropertyOp29
 70
     1
102
RTVSPropertyOp30
 70
     1
102
RTVSPropertyOp31
 70
     1
102
RTVSPropertyOp32
 70
     1
  0
XRECORD
  5
557B
102
{ACAD_REACTORS
330
557A
102
}
330
557A
100
AcDbXrecord
280
     1
102
RTVSPropertyOp0
 70
     1
102
RTVSPropertyOp1
 70
     1
102
RTVSPropertyOp2
 70
     1
102
RTVSPropertyOp3
 70
     1
102
RTVSPropertyOp4
 70
     1
102
RTVSPropertyOp5
 70
     1
102
RTVSPropertyOp6
 70
     1
102
RTVSPropertyOp7
 70
     1
102
RTVSPropertyOp8
 70
     1
102
RTVSPropertyOp9
 70
     1
102
RTVSPropertyOp10
 70
     1
102
RTVSPropertyOp11
 70
     1
102
RTVSPropertyOp12
 70
     1
102
RTVSPropertyOp13
 70
     1
102
RTVSPropertyOp14
 70
     1
102
RTVSPropertyOp15
 70
     1
102
RTVSPropertyOp16
 70
     1
102
RTVSPropertyOp17
 70
     1
102
RTVSPropertyOp18
 70
     1
102
RTVSPropertyOp19
 70
     1
102
RTVSPropertyOp20
 70
     1
102
RTVSPropertyOp21
 70
     1
102
RTVSPropertyOp22
 70
     1
102
RTVSPropertyOp23
 70
     1
102
RTVSPropertyOp24
 70
     1
102
RTVSPropertyOp25
 70
     1
102
RTVSPropertyOp26
 70
     1
102
RTVSPropertyOp27
 70
     1
102
RTVSPropertyOp28
 70
     1
102
RTVSPropertyOp29
 70
     1
102
RTVSPropertyOp30
 70
     1
102
RTVSPropertyOp31
 70
     1
102
RTVSPropertyOp32
 70
     1
  0
XRECORD
  5
557F
102
{ACAD_REACTORS
330
557E
102
}
330
557E
100
AcDbXrecord
280
     1
102
RTVSPropertyOp0
 70
     1
102
RTVSPropertyOp1
 70
     1
102
RTVSPropertyOp2
 70
     1
102
RTVSPropertyOp3
 70
     1
102
RTVSPropertyOp4
 70
     1
102
RTVSPropertyOp5
 70
     1
102
RTVSPropertyOp6
 70
     1
102
RTVSPropertyOp7
 70
     1
102
RTVSPropertyOp8
 70
     1
102
RTVSPropertyOp9
 70
     1
102
RTVSPropertyOp10
 70
     1
102
RTVSPropertyOp11
 70
     1
102
RTVSPropertyOp12
 70
     1
102
RTVSPropertyOp13
 70
     1
102
RTVSPropertyOp14
 70
     1
102
RTVSPropertyOp15
 70
     1
102
RTVSPropertyOp16
 70
     1
102
RTVSPropertyOp17
 70
     1
102
RTVSPropertyOp18
 70
     1
102
RTVSPropertyOp19
 70
     1
102
RTVSPropertyOp20
 70
     1
102
RTVSPropertyOp21
 70
     1
102
RTVSPropertyOp22
 70
     1
102
RTVSPropertyOp23
 70
     1
102
RTVSPropertyOp24
 70
     1
102
RTVSPropertyOp25
 70
     1
102
RTVSPropertyOp26
 70
     1
102
RTVSPropertyOp27
 70
     1
102
RTVSPropertyOp28
 70
     1
102
RTVSPropertyOp29
 70
     1
102
RTVSPropertyOp30
 70
     1
102
RTVSPropertyOp31
 70
     1
102
RTVSPropertyOp32
 70
     1
  0
XRECORD
  5
559E
102
{ACAD_REACTORS
330
559D
102
}
330
559D
100
AcDbXrecord
280
     1
102
RTVSPropertyOp0
 70
     0
102
RTVSPropertyOp1
 70
     0
102
RTVSPropertyOp2
 70
     0
102
RTVSPropertyOp3
 70
     0
102
RTVSPropertyOp4
 70
     0
102
RTVSPropertyOp5
 70
     0
102
RTVSPropertyOp6
 70
     0
102
RTVSPropertyOp7
 70
     0
102
RTVSPropertyOp8
 70
     0
102
RTVSPropertyOp9
 70
     0
102
RTVSPropertyOp10
 70
     0
102
RTVSPropertyOp11
 70
     0
102
RTVSPropertyOp12
 70
     0
102
RTVSPropertyOp13
 70
     0
102
RTVSPropertyOp14
 70
     2
102
RTVSPropertyOp15
 70
     0
102
RTVSPropertyOp16
 70
     0
102
RTVSPropertyOp17
 70
     0
102
RTVSPropertyOp18
 70
     0
102
RTVSPropertyOp19
 70
     0
102
RTVSPropertyOp20
 70
     0
102
RTVSPropertyOp21
 70
     0
102
RTVSPropertyOp22
 70
     0
102
RTVSPropertyOp23
 70
     0
102
RTVSPropertyOp24
 70
     0
102
RTVSPropertyOp25
 70
     0
102
RTVSPropertyOp26
 70
     0
102
RTVSPropertyOp27
 70
     0
102
RTVSPropertyOp28
 70
     1
102
RTVSPropertyOp29
 70
     1
102
RTVSPropertyOp30
 70
     1
102
RTVSPropertyOp31
 70
     1
102
RTVSPropertyOp32
 70
     1
  0
XRECORD
  5
5587
102
{ACAD_REACTORS
330
5586
102
}
330
5586
100
AcDbXrecord
280
     1
102
RTVSPropertyOp0
 70
     1
102
RTVSPropertyOp1
 70
     1
102
RTVSPropertyOp2
 70
     1
102
RTVSPropertyOp3
 70
     1
102
RTVSPropertyOp4
 70
     1
102
RTVSPropertyOp5
 70
     1
102
RTVSPropertyOp6
 70
     1
102
RTVSPropertyOp7
 70
     1
102
RTVSPropertyOp8
 70
     1
102
RTVSPropertyOp9
 70
     1
102
RTVSPropertyOp10
 70
     1
102
RTVSPropertyOp11
 70
     1
102
RTVSPropertyOp12
 70
     1
102
RTVSPropertyOp13
 70
     1
102
RTVSPropertyOp14
 70
     1
102
RTVSPropertyOp15
 70
     1
102
RTVSPropertyOp16
 70
     1
102
RTVSPropertyOp17
 70
     1
102
RTVSPropertyOp18
 70
     1
102
RTVSPropertyOp19
 70
     1
102
RTVSPropertyOp20
 70
     1
102
RTVSPropertyOp21
 70
     1
102
RTVSPropertyOp22
 70
     1
102
RTVSPropertyOp23
 70
     1
102
RTVSPropertyOp24
 70
     1
102
RTVSPropertyOp25
 70
     1
102
RTVSPropertyOp26
 70
     1
102
RTVSPropertyOp27
 70
     1
102
RTVSPropertyOp28
 70
     1
102
RTVSPropertyOp29
 70
     1
102
RTVSPropertyOp30
 70
     1
102
RTVSPropertyOp31
 70
     1
102
RTVSPropertyOp32
 70
     1
  0
XRECORD
  5
556B
102
{ACAD_REACTORS
330
556A
102
}
330
556A
100
AcDbXrecord
280
     1
102
RTVSPropertyOp0
 70
     1
102
RTVSPropertyOp1
 70
     1
102
RTVSPropertyOp2
 70
     1
102
RTVSPropertyOp3
 70
     1
102
RTVSPropertyOp4
 70
     1
102
RTVSPropertyOp5
 70
     1
102
RTVSPropertyOp6
 70
     1
102
RTVSPropertyOp7
 70
     1
102
RTVSPropertyOp8
 70
     1
102
RTVSPropertyOp9
 70
     1
102
RTVSPropertyOp10
 70
     1
102
RTVSPropertyOp11
 70
     1
102
RTVSPropertyOp12
 70
     1
102
RTVSPropertyOp13
 70
     1
102
RTVSPropertyOp14
 70
     1
102
RTVSPropertyOp15
 70
     1
102
RTVSPropertyOp16
 70
     1
102
RTVSPropertyOp17
 70
     1
102
RTVSPropertyOp18
 70
     1
102
RTVSPropertyOp19
 70
     1
102
RTVSPropertyOp20
 70
     1
102
RTVSPropertyOp21
 70
     1
102
RTVSPropertyOp22
 70
     1
102
RTVSPropertyOp23
 70
     1
102
RTVSPropertyOp24
 70
     1
102
RTVSPropertyOp25
 70
     1
102
RTVSPropertyOp26
 70
     1
102
RTVSPropertyOp27
 70
     1
102
RTVSPropertyOp28
 70
     1
102
RTVSPropertyOp29
 70
     1
102
RTVSPropertyOp30
 70
     1
102
RTVSPropertyOp31
 70
     1
102
RTVSPropertyOp32
 70
     1
  0
XRECORD
  5
556D
102
{ACAD_REACTORS
330
556C
102
}
330
556C
100
AcDbXrecord
280
     1
102
RTVSPropertyOp0
 70
     1
102
RTVSPropertyOp1
 70
     1
102
RTVSPropertyOp2
 70
     1
102
RTVSPropertyOp3
 70
     1
102
RTVSPropertyOp4
 70
     1
102
RTVSPropertyOp5
 70
     1
102
RTVSPropertyOp6
 70
     1
102
RTVSPropertyOp7
 70
     1
102
RTVSPropertyOp8
 70
     1
102
RTVSPropertyOp9
 70
     1
102
RTVSPropertyOp10
 70
     1
102
RTVSPropertyOp11
 70
     1
102
RTVSPropertyOp12
 70
     1
102
RTVSPropertyOp13
 70
     1
102
RTVSPropertyOp14
 70
     1
102
RTVSPropertyOp15
 70
     1
102
RTVSPropertyOp16
 70
     1
102
RTVSPropertyOp17
 70
     1
102
RTVSPropertyOp18
 70
     1
102
RTVSPropertyOp19
 70
     1
102
RTVSPropertyOp20
 70
     1
102
RTVSPropertyOp21
 70
     1
102
RTVSPropertyOp22
 70
     1
102
RTVSPropertyOp23
 70
     1
102
RTVSPropertyOp24
 70
     1
102
RTVSPropertyOp25
 70
     1
102
RTVSPropertyOp26
 70
     1
102
RTVSPropertyOp27
 70
     1
102
RTVSPropertyOp28
 70
     1
102
RTVSPropertyOp29
 70
     1
102
RTVSPropertyOp30
 70
     1
102
RTVSPropertyOp31
 70
     1
102
RTVSPropertyOp32
 70
     1
  0
XRECORD
  5
556F
102
{ACAD_REACTORS
330
556E
102
}
330
556E
100
AcDbXrecord
280
     1
102
RTVSPropertyOp0
 70
     1
102
RTVSPropertyOp1
 70
     1
102
RTVSPropertyOp2
 70
     1
102
RTVSPropertyOp3
 70
     1
102
RTVSPropertyOp4
 70
     1
102
RTVSPropertyOp5
 70
     1
102
RTVSPropertyOp6
 70
     1
102
RTVSPropertyOp7
 70
     1
102
RTVSPropertyOp8
 70
     1
102
RTVSPropertyOp9
 70
     1
102
RTVSPropertyOp10
 70
     1
102
RTVSPropertyOp11
 70
     1
102
RTVSPropertyOp12
 70
     1
102
RTVSPropertyOp13
 70
     1
102
RTVSPropertyOp14
 70
     1
102
RTVSPropertyOp15
 70
     1
102
RTVSPropertyOp16
 70
     1
102
RTVSPropertyOp17
 70
     1
102
RTVSPropertyOp18
 70
     1
102
RTVSPropertyOp19
 70
     1
102
RTVSPropertyOp20
 70
     1
102
RTVSPropertyOp21
 70
     1
102
RTVSPropertyOp22
 70
     1
102
RTVSPropertyOp23
 70
     1
102
RTVSPropertyOp24
 70
     1
102
RTVSPropertyOp25
 70
     1
102
RTVSPropertyOp26
 70
     1
102
RTVSPropertyOp27
 70
     1
102
RTVSPropertyOp28
 70
     1
102
RTVSPropertyOp29
 70
     1
102
RTVSPropertyOp30
 70
     1
102
RTVSPropertyOp31
 70
     1
102
RTVSPropertyOp32
 70
     1
  0
XRECORD
  5
5571
102
{ACAD_REACTORS
330
5570
102
}
330
5570
100
AcDbXrecord
280
     1
102
RTVSPropertyOp0
 70
     1
102
RTVSPropertyOp1
 70
     1
102
RTVSPropertyOp2
 70
     1
102
RTVSPropertyOp3
 70
     1
102
RTVSPropertyOp4
 70
     1
102
RTVSPropertyOp5
 70
     1
102
RTVSPropertyOp6
 70
     1
102
RTVSPropertyOp7
 70
     1
102
RTVSPropertyOp8
 70
     1
102
RTVSPropertyOp9
 70
     1
102
RTVSPropertyOp10
 70
     1
102
RTVSPropertyOp11
 70
     1
102
RTVSPropertyOp12
 70
     1
102
RTVSPropertyOp13
 70
     1
102
RTVSPropertyOp14
 70
     1
102
RTVSPropertyOp15
 70
     1
102
RTVSPropertyOp16
 70
     1
102
RTVSPropertyOp17
 70
     1
102
RTVSPropertyOp18
 70
     1
102
RTVSPropertyOp19
 70
     1
102
RTVSPropertyOp20
 70
     1
102
RTVSPropertyOp21
 70
     1
102
RTVSPropertyOp22
 70
     1
102
RTVSPropertyOp23
 70
     1
102
RTVSPropertyOp24
 70
     1
102
RTVSPropertyOp25
 70
     1
102
RTVSPropertyOp26
 70
     1
102
RTVSPropertyOp27
 70
     1
102
RTVSPropertyOp28
 70
     1
102
RTVSPropertyOp29
 70
     1
102
RTVSPropertyOp30
 70
     1
102
RTVSPropertyOp31
 70
     1
102
RTVSPropertyOp32
 70
     1
  0
XRECORD
  5
558E
102
{ACAD_REACTORS
330
558D
102
}
330
558D
100
AcDbXrecord
280
     1
102
RTVSPropertyOp0
 70
     1
102
RTVSPropertyOp1
 70
     1
102
RTVSPropertyOp2
 70
     1
102
RTVSPropertyOp3
 70
     1
102
RTVSPropertyOp4
 70
     1
102
RTVSPropertyOp5
 70
     1
102
RTVSPropertyOp6
 70
     1
102
RTVSPropertyOp7
 70
     1
102
RTVSPropertyOp8
 70
     1
102
RTVSPropertyOp9
 70
     1
102
RTVSPropertyOp10
 70
     1
102
RTVSPropertyOp11
 70
     1
102
RTVSPropertyOp12
 70
     1
102
RTVSPropertyOp13
 70
     1
102
RTVSPropertyOp14
 70
     1
102
RTVSPropertyOp15
 70
     1
102
RTVSPropertyOp16
 70
     1
102
RTVSPropertyOp17
 70
     1
102
RTVSPropertyOp18
 70
     1
102
RTVSPropertyOp19
 70
     1
102
RTVSPropertyOp20
 70
     1
102
RTVSPropertyOp21
 70
     1
102
RTVSPropertyOp22
 70
     1
102
RTVSPropertyOp23
 70
     1
102
RTVSPropertyOp24
 70
     1
102
RTVSPropertyOp25
 70
     1
102
RTVSPropertyOp26
 70
     1
102
RTVSPropertyOp27
 70
     1
102
RTVSPropertyOp28
 70
     1
102
RTVSPropertyOp29
 70
     1
102
RTVSPropertyOp30
 70
     1
102
RTVSPropertyOp31
 70
     1
102
RTVSPropertyOp32
 70
     1
  0
XRECORD
  5
559A
102
{ACAD_REACTORS
330
5599
102
}
330
5599
100
AcDbXrecord
280
     1
102
RTVSPropertyOp0
 70
     0
102
RTVSPropertyOp1
 70
     0
102
RTVSPropertyOp2
 70
     0
102
RTVSPropertyOp3
 70
     0
102
RTVSPropertyOp4
 70
     0
102
RTVSPropertyOp5
 70
     0
102
RTVSPropertyOp6
 70
     0
102
RTVSPropertyOp7
 70
     0
102
RTVSPropertyOp8
 70
     0
102
RTVSPropertyOp9
 70
     0
102
RTVSPropertyOp10
 70
     0
102
RTVSPropertyOp11
 70
     0
102
RTVSPropertyOp12
 70
     0
102
RTVSPropertyOp13
 70
     0
102
RTVSPropertyOp14
 70
     2
102
RTVSPropertyOp15
 70
     0
102
RTVSPropertyOp16
 70
     0
102
RTVSPropertyOp17
 70
     0
102
RTVSPropertyOp18
 70
     0
102
RTVSPropertyOp19
 70
     0
102
RTVSPropertyOp20
 70
     0
102
RTVSPropertyOp21
 70
     0
102
RTVSPropertyOp22
 70
     0
102
RTVSPropertyOp23
 70
     0
102
RTVSPropertyOp24
 70
     0
102
RTVSPropertyOp25
 70
     0
102
RTVSPropertyOp26
 70
     0
102
RTVSPropertyOp27
 70
     0
102
RTVSPropertyOp28
 70
     1
102
RTVSPropertyOp29
 70
     1
102
RTVSPropertyOp30
 70
     1
102
RTVSPropertyOp31
 70
     1
102
RTVSPropertyOp32
 70
     1
  0
XRECORD
  5
5585
102
{ACAD_REACTORS
330
5584
102
}
330
5584
100
AcDbXrecord
280
     1
102
RTVSPropertyOp0
 70
     1
102
RTVSPropertyOp1
 70
     1
102
RTVSPropertyOp2
 70
     1
102
RTVSPropertyOp3
 70
     1
102
RTVSPropertyOp4
 70
     1
102
RTVSPropertyOp5
 70
     1
102
RTVSPropertyOp6
 70
     1
102
RTVSPropertyOp7
 70
     1
102
RTVSPropertyOp8
 70
     1
102
RTVSPropertyOp9
 70
     1
102
RTVSPropertyOp10
 70
     1
102
RTVSPropertyOp11
 70
     1
102
RTVSPropertyOp12
 70
     1
102
RTVSPropertyOp13
 70
     1
102
RTVSPropertyOp14
 70
     1
102
RTVSPropertyOp15
 70
     1
102
RTVSPropertyOp16
 70
     1
102
RTVSPropertyOp17
 70
     1
102
RTVSPropertyOp18
 70
     1
102
RTVSPropertyOp19
 70
     1
102
RTVSPropertyOp20
 70
     1
102
RTVSPropertyOp21
 70
     1
102
RTVSPropertyOp22
 70
     1
102
RTVSPropertyOp23
 70
     1
102
RTVSPropertyOp24
 70
     1
102
RTVSPropertyOp25
 70
     1
102
RTVSPropertyOp26
 70
     1
102
RTVSPropertyOp27
 70
     1
102
RTVSPropertyOp28
 70
     1
102
RTVSPropertyOp29
 70
     1
102
RTVSPropertyOp30
 70
     1
102
RTVSPropertyOp31
 70
     1
102
RTVSPropertyOp32
 70
     1
  0
XRECORD
  5
559C
102
{ACAD_REACTORS
330
559B
102
}
330
559B
100
AcDbXrecord
280
     1
102
RTVSPropertyOp0
 70
     0
102
RTVSPropertyOp1
 70
     0
102
RTVSPropertyOp2
 70
     0
102
RTVSPropertyOp3
 70
     0
102
RTVSPropertyOp4
 70
     0
102
RTVSPropertyOp5
 70
     0
102
RTVSPropertyOp6
 70
     0
102
RTVSPropertyOp7
 70
     0
102
RTVSPropertyOp8
 70
     0
102
RTVSPropertyOp9
 70
     0
102
RTVSPropertyOp10
 70
     0
102
RTVSPropertyOp11
 70
     0
102
RTVSPropertyOp12
 70
     0
102
RTVSPropertyOp13
 70
     0
102
RTVSPropertyOp14
 70
     2
102
RTVSPropertyOp15
 70
     0
102
RTVSPropertyOp16
 70
     0
102
RTVSPropertyOp17
 70
     0
102
RTVSPropertyOp18
 70
     0
102
RTVSPropertyOp19
 70
     0
102
RTVSPropertyOp20
 70
     0
102
RTVSPropertyOp21
 70
     0
102
RTVSPropertyOp22
 70
     0
102
RTVSPropertyOp23
 70
     0
102
RTVSPropertyOp24
 70
     0
102
RTVSPropertyOp25
 70
     0
102
RTVSPropertyOp26
 70
     0
102
RTVSPropertyOp27
 70
     0
102
RTVSPropertyOp28
 70
     1
102
RTVSPropertyOp29
 70
     1
102
RTVSPropertyOp30
 70
     1
102
RTVSPropertyOp31
 70
     1
102
RTVSPropertyOp32
 70
     1
  0
XRECORD
  5
557D
102
{ACAD_REACTORS
330
557C
102
}
330
557C
100
AcDbXrecord
280
     1
102
RTVSPropertyOp0
 70
     1
102
RTVSPropertyOp1
 70
     1
102
RTVSPropertyOp2
 70
     1
102
RTVSPropertyOp3
 70
     1
102
RTVSPropertyOp4
 70
     1
102
RTVSPropertyOp5
 70
     1
102
RTVSPropertyOp6
 70
     1
102
RTVSPropertyOp7
 70
     1
102
RTVSPropertyOp8
 70
     1
102
RTVSPropertyOp9
 70
     1
102
RTVSPropertyOp10
 70
     1
102
RTVSPropertyOp11
 70
     1
102
RTVSPropertyOp12
 70
     1
102
RTVSPropertyOp13
 70
     1
102
RTVSPropertyOp14
 70
     1
102
RTVSPropertyOp15
 70
     1
102
RTVSPropertyOp16
 70
     1
102
RTVSPropertyOp17
 70
     1
102
RTVSPropertyOp18
 70
     1
102
RTVSPropertyOp19
 70
     1
102
RTVSPropertyOp20
 70
     1
102
RTVSPropertyOp21
 70
     1
102
RTVSPropertyOp22
 70
     1
102
RTVSPropertyOp23
 70
     1
102
RTVSPropertyOp24
 70
     1
102
RTVSPropertyOp25
 70
     1
102
RTVSPropertyOp26
 70
     1
102
RTVSPropertyOp27
 70
     1
102
RTVSPropertyOp28
 70
     1
102
RTVSPropertyOp29
 70
     1
102
RTVSPropertyOp30
 70
     1
102
RTVSPropertyOp31
 70
     1
102
RTVSPropertyOp32
 70
     1
  0
XRECORD
  5
5598
102
{ACAD_REACTORS
330
5597
102
}
330
5597
100
AcDbXrecord
280
     1
102
RTVSPropertyOp0
 70
     1
102
RTVSPropertyOp1
 70
     1
102
RTVSPropertyOp2
 70
     1
102
RTVSPropertyOp3
 70
     1
102
RTVSPropertyOp4
 70
     1
102
RTVSPropertyOp5
 70
     1
102
RTVSPropertyOp6
 70
     1
102
RTVSPropertyOp7
 70
     1
102
RTVSPropertyOp8
 70
     1
102
RTVSPropertyOp9
 70
     1
102
RTVSPropertyOp10
 70
     1
102
RTVSPropertyOp11
 70
     1
102
RTVSPropertyOp12
 70
     1
102
RTVSPropertyOp13
 70
     1
102
RTVSPropertyOp14
 70
     1
102
RTVSPropertyOp15
 70
     1
102
RTVSPropertyOp16
 70
     1
102
RTVSPropertyOp17
 70
     1
102
RTVSPropertyOp18
 70
     1
102
RTVSPropertyOp19
 70
     1
102
RTVSPropertyOp20
 70
     1
102
RTVSPropertyOp21
 70
     1
102
RTVSPropertyOp22
 70
     1
102
RTVSPropertyOp23
 70
     1
102
RTVSPropertyOp24
 70
     1
102
RTVSPropertyOp25
 70
     1
102
RTVSPropertyOp26
 70
     1
102
RTVSPropertyOp27
 70
     1
102
RTVSPropertyOp28
 70
     1
102
RTVSPropertyOp29
 70
     1
102
RTVSPropertyOp30
 70
     1
102
RTVSPropertyOp31
 70
     1
102
RTVSPropertyOp32
 70
     1
  0
XRECORD
  5
5596
102
{ACAD_REACTORS
330
5595
102
}
330
5595
100
AcDbXrecord
280
     1
102
RTVSPropertyOp0
 70
     1
102
RTVSPropertyOp1
 70
     1
102
RTVSPropertyOp2
 70
     1
102
RTVSPropertyOp3
 70
     1
102
RTVSPropertyOp4
 70
     1
102
RTVSPropertyOp5
 70
     1
102
RTVSPropertyOp6
 70
     1
102
RTVSPropertyOp7
 70
     1
102
RTVSPropertyOp8
 70
     1
102
RTVSPropertyOp9
 70
     1
102
RTVSPropertyOp10
 70
     1
102
RTVSPropertyOp11
 70
     1
102
RTVSPropertyOp12
 70
     1
102
RTVSPropertyOp13
 70
     1
102
RTVSPropertyOp14
 70
     1
102
RTVSPropertyOp15
 70
     1
102
RTVSPropertyOp16
 70
     1
102
RTVSPropertyOp17
 70
     1
102
RTVSPropertyOp18
 70
     1
102
RTVSPropertyOp19
 70
     1
102
RTVSPropertyOp20
 70
     1
102
RTVSPropertyOp21
 70
     1
102
RTVSPropertyOp22
 70
     1
102
RTVSPropertyOp23
 70
     1
102
RTVSPropertyOp24
 70
     1
102
RTVSPropertyOp25
 70
     1
102
RTVSPropertyOp26
 70
     1
102
RTVSPropertyOp27
 70
     1
102
RTVSPropertyOp28
 70
     1
102
RTVSPropertyOp29
 70
     1
102
RTVSPropertyOp30
 70
     1
102
RTVSPropertyOp31
 70
     1
102
RTVSPropertyOp32
 70
     1
  0
XRECORD
  5
5590
102
{ACAD_REACTORS
330
558F
102
}
330
558F
100
AcDbXrecord
280
     1
102
RTVSPropertyOp0
 70
     1
102
RTVSPropertyOp1
 70
     1
102
RTVSPropertyOp2
 70
     1
102
RTVSPropertyOp3
 70
     1
102
RTVSPropertyOp4
 70
     1
102
RTVSPropertyOp5
 70
     1
102
RTVSPropertyOp6
 70
     1
102
RTVSPropertyOp7
 70
     1
102
RTVSPropertyOp8
 70
     1
102
RTVSPropertyOp9
 70
     1
102
RTVSPropertyOp10
 70
     1
102
RTVSPropertyOp11
 70
     1
102
RTVSPropertyOp12
 70
     1
102
RTVSPropertyOp13
 70
     1
102
RTVSPropertyOp14
 70
     1
102
RTVSPropertyOp15
 70
     1
102
RTVSPropertyOp16
 70
     1
102
RTVSPropertyOp17
 70
     1
102
RTVSPropertyOp18
 70
     1
102
RTVSPropertyOp19
 70
     1
102
RTVSPropertyOp20
 70
     1
102
RTVSPropertyOp21
 70
     1
102
RTVSPropertyOp22
 70
     1
102
RTVSPropertyOp23
 70
     1
102
RTVSPropertyOp24
 70
     1
102
RTVSPropertyOp25
 70
     1
102
RTVSPropertyOp26
 70
     1
102
RTVSPropertyOp27
 70
     1
102
RTVSPropertyOp28
 70
     1
102
RTVSPropertyOp29
 70
     1
102
RTVSPropertyOp30
 70
     1
102
RTVSPropertyOp31
 70
     1
102
RTVSPropertyOp32
 70
     1
  0
XRECORD
  5
5592
102
{ACAD_REACTORS
330
5591
102
}
330
5591
100
AcDbXrecord
280
     1
102
RTVSPropertyOp0
 70
     1
102
RTVSPropertyOp1
 70
     1
102
RTVSPropertyOp2
 70
     1
102
RTVSPropertyOp3
 70
     1
102
RTVSPropertyOp4
 70
     1
102
RTVSPropertyOp5
 70
     1
102
RTVSPropertyOp6
 70
     1
102
RTVSPropertyOp7
 70
     1
102
RTVSPropertyOp8
 70
     1
102
RTVSPropertyOp9
 70
     1
102
RTVSPropertyOp10
 70
     1
102
RTVSPropertyOp11
 70
     1
102
RTVSPropertyOp12
 70
     1
102
RTVSPropertyOp13
 70
     1
102
RTVSPropertyOp14
 70
     1
102
RTVSPropertyOp15
 70
     1
102
RTVSPropertyOp16
 70
     1
102
RTVSPropertyOp17
 70
     1
102
RTVSPropertyOp18
 70
     1
102
RTVSPropertyOp19
 70
     1
102
RTVSPropertyOp20
 70
     1
102
RTVSPropertyOp21
 70
     1
102
RTVSPropertyOp22
 70
     1
102
RTVSPropertyOp23
 70
     1
102
RTVSPropertyOp24
 70
     1
102
RTVSPropertyOp25
 70
     1
102
RTVSPropertyOp26
 70
     1
102
RTVSPropertyOp27
 70
     1
102
RTVSPropertyOp28
 70
     1
102
RTVSPropertyOp29
 70
     1
102
RTVSPropertyOp30
 70
     1
102
RTVSPropertyOp31
 70
     1
102
RTVSPropertyOp32
 70
     1
  0
XRECORD
  5
5583
102
{ACAD_REACTORS
330
5582
102
}
330
5582
100
AcDbXrecord
280
     1
102
RTVSPropertyOp0
 70
     1
102
RTVSPropertyOp1
 70
     1
102
RTVSPropertyOp2
 70
     1
102
RTVSPropertyOp3
 70
     1
102
RTVSPropertyOp4
 70
     1
102
RTVSPropertyOp5
 70
     1
102
RTVSPropertyOp6
 70
     1
102
RTVSPropertyOp7
 70
     1
102
RTVSPropertyOp8
 70
     1
102
RTVSPropertyOp9
 70
     1
102
RTVSPropertyOp10
 70
     1
102
RTVSPropertyOp11
 70
     1
102
RTVSPropertyOp12
 70
     1
102
RTVSPropertyOp13
 70
     1
102
RTVSPropertyOp14
 70
     1
102
RTVSPropertyOp15
 70
     1
102
RTVSPropertyOp16
 70
     1
102
RTVSPropertyOp17
 70
     1
102
RTVSPropertyOp18
 70
     1
102
RTVSPropertyOp19
 70
     1
102
RTVSPropertyOp20
 70
     1
102
RTVSPropertyOp21
 70
     1
102
RTVSPropertyOp22
 70
     1
102
RTVSPropertyOp23
 70
     1
102
RTVSPropertyOp24
 70
     1
102
RTVSPropertyOp25
 70
     1
102
RTVSPropertyOp26
 70
     1
102
RTVSPropertyOp27
 70
     1
102
RTVSPropertyOp28
 70
     1
102
RTVSPropertyOp29
 70
     1
102
RTVSPropertyOp30
 70
     1
102
RTVSPropertyOp31
 70
     1
102
RTVSPropertyOp32
 70
     1
  0
XRECORD
  5
558C
102
{ACAD_REACTORS
330
558B
102
}
330
558B
100
AcDbXrecord
280
     1
102
RTVSPropertyOp0
 70
     1
102
RTVSPropertyOp1
 70
     1
102
RTVSPropertyOp2
 70
     1
102
RTVSPropertyOp3
 70
     1
102
RTVSPropertyOp4
 70
     1
102
RTVSPropertyOp5
 70
     1
102
RTVSPropertyOp6
 70
     1
102
RTVSPropertyOp7
 70
     1
102
RTVSPropertyOp8
 70
     1
102
RTVSPropertyOp9
 70
     1
102
RTVSPropertyOp10
 70
     1
102
RTVSPropertyOp11
 70
     1
102
RTVSPropertyOp12
 70
     1
102
RTVSPropertyOp13
 70
     1
102
RTVSPropertyOp14
 70
     1
102
RTVSPropertyOp15
 70
     1
102
RTVSPropertyOp16
 70
     1
102
RTVSPropertyOp17
 70
     1
102
RTVSPropertyOp18
 70
     1
102
RTVSPropertyOp19
 70
     1
102
RTVSPropertyOp20
 70
     1
102
RTVSPropertyOp21
 70
     1
102
RTVSPropertyOp22
 70
     1
102
RTVSPropertyOp23
 70
     1
102
RTVSPropertyOp24
 70
     1
102
RTVSPropertyOp25
 70
     1
102
RTVSPropertyOp26
 70
     1
102
RTVSPropertyOp27
 70
     1
102
RTVSPropertyOp28
 70
     1
102
RTVSPropertyOp29
 70
     1
102
RTVSPropertyOp30
 70
     1
102
RTVSPropertyOp31
 70
     1
102
RTVSPropertyOp32
 70
     1
  0
XRECORD
  5
5594
102
{ACAD_REACTORS
330
5593
102
}
330
5593
100
AcDbXrecord
280
     1
102
RTVSPropertyOp0
 70
     1
102
RTVSPropertyOp1
 70
     1
102
RTVSPropertyOp2
 70
     1
102
RTVSPropertyOp3
 70
     1
102
RTVSPropertyOp4
 70
     1
102
RTVSPropertyOp5
 70
     1
102
RTVSPropertyOp6
 70
     1
102
RTVSPropertyOp7
 70
     1
102
RTVSPropertyOp8
 70
     1
102
RTVSPropertyOp9
 70
     1
102
RTVSPropertyOp10
 70
     1
102
RTVSPropertyOp11
 70
     1
102
RTVSPropertyOp12
 70
     1
102
RTVSPropertyOp13
 70
     1
102
RTVSPropertyOp14
 70
     1
102
RTVSPropertyOp15
 70
     1
102
RTVSPropertyOp16
 70
     1
102
RTVSPropertyOp17
 70
     1
102
RTVSPropertyOp18
 70
     1
102
RTVSPropertyOp19
 70
     1
102
RTVSPropertyOp20
 70
     1
102
RTVSPropertyOp21
 70
     1
102
RTVSPropertyOp22
 70
     1
102
RTVSPropertyOp23
 70
     1
102
RTVSPropertyOp24
 70
     1
102
RTVSPropertyOp25
 70
     1
102
RTVSPropertyOp26
 70
     1
102
RTVSPropertyOp27
 70
     1
102
RTVSPropertyOp28
 70
     1
102
RTVSPropertyOp29
 70
     1
102
RTVSPropertyOp30
 70
     1
102
RTVSPropertyOp31
 70
     1
102
RTVSPropertyOp32
 70
     1
  0
ENDSEC
  0
EOF
