  0
SECTION
  2
HEADER
  9
$ACADVER
  1
AC1018
  9
$ACADMAINTVER
 70
     2
  9
$DWGCODEPAGE
  3
ANSI_1252
  9
$CUSTOMPROPERTYTAG
  1
AmdtFileType
  9
$CUSTOMPROPERTY
  1
84
  9
$INSBASE
 10
0.0
 20
0.0
 30
0.0
  9
$EXTMIN
 10
-666.3851005721554
 20
-178.9280525411329
 30
0.0
  9
$EXTMAX
 10
1.035533905932737
 20
178.9280790712118
 30
0.0
  9
$LIMMIN
 10
0.0
 20
0.0
  9
$LIMMAX
 10
420.0
 20
297.0
  9
$ORTHOMODE
 70
     1
  9
$REGENMODE
 70
     1
  9
$FILLMODE
 70
     1
  9
$QTEXTMODE
 70
     0
  9
$MIRRTEXT
 70
     1
  9
$LTSCALE
 40
1.0
  9
$ATTMODE
 70
     1
  9
$TEXTSIZE
 40
2.5
  9
$TRACEWID
 40
1.0
  9
$TEXTSTYLE
  7
STANDARD
  9
$CLAYER
  8
0
  9
$CELTYPE
  6
ByLayer
  9
$CECOLOR
 62
   256
  9
$CELTSCALE
 40
1.0
  9
$DISPSILH
 70
     0
  9
$DIMSCALE
 40
1.0
  9
$DIMASZ
 40
2.5
  9
$DIMEXO
 40
1.0
  9
$DIMDLI
 40
10.0
  9
$DIMRND
 40
0.0
  9
$DIMDLE
 40
0.0
  9
$DIMEXE
 40
1.0
  9
$DIMTP
 40
0.1
  9
$DIMTM
 40
0.1
  9
$DIMTXT
 40
3.5
  9
$DIMCEN
 40
0.0
  9
$DIMTSZ
 40
0.0
  9
$DIMTOL
 70
     0
  9
$DIMLIM
 70
     0
  9
$DIMTIH
 70
     0
  9
$DIMTOH
 70
     0
  9
$DIMSE1
 70
     0
  9
$DIMSE2
 70
     0
  9
$DIMTAD
 70
     1
  9
$DIMZIN
 70
     8
  9
$DIMBLK
  1

  9
$DIMASO
 70
     1
  9
$DIMSHO
 70
     1
  9
$DIMPOST
  1

  9
$DIMAPOST
  1
"
  9
$DIMALT
 70
     0
  9
$DIMALTD
 70
     2
  9
$DIMALTF
 40
0.0393701
  9
$DIMLFAC
 40
1.0
  9
$DIMTOFL
 70
     1
  9
$DIMTVP
 40
0.0
  9
$DIMTIX
 70
     0
  9
$DIMSOXD
 70
     0
  9
$DIMSAH
 70
     0
  9
$DIMBLK1
  1

  9
$DIMBLK2
  1

  9
$DIMSTYLE
  2
AM_DIN
  9
$DIMCLRD
 70
   256
  9
$DIMCLRE
 70
   256
  9
$DIMCLRT
 70
     2
  9
$DIMTFAC
 40
0.71
  9
$DIMGAP
 40
1.5
  9
$DIMJUST
 70
     0
  9
$DIMSD1
 70
     0
  9
$DIMSD2
 70
     0
  9
$DIMTOLJ
 70
     0
  9
$DIMTZIN
 70
     8
  9
$DIMALTZ
 70
     0
  9
$DIMALTTZ
 70
     0
  9
$DIMUPT
 70
     0
  9
$DIMDEC
 70
     2
  9
$DIMTDEC
 70
     3
  9
$DIMALTU
 70
     2
  9
$DIMALTTD
 70
     4
  9
$DIMTXSTY
  7
STANDARD
  9
$DIMAUNIT
 70
     0
  9
$DIMADEC
 70
     0
  9
$DIMALTRND
 40
0.0
  9
$DIMAZIN
 70
     2
  9
$DIMDSEP
 70
    46
  9
$DIMATFIT
 70
     3
  9
$DIMFRAC
 70
     0
  9
$DIMLDRBLK
  1

  9
$DIMLUNIT
 70
     2
  9
$DIMLWD
 70
    -1
  9
$DIMLWE
 70
    -1
  9
$DIMTMOVE
 70
     0
  9
$LUNITS
 70
     2
  9
$LUPREC
 70
     2
  9
$SKETCHINC
 40
1.0
  9
$FILLETRAD
 40
10.0
  9
$AUNITS
 70
     0
  9
$AUPREC
 70
     0
  9
$MENU
  1
.
  9
$ELEVATION
 40
0.0
  9
$PELEVATION
 40
0.0
  9
$THICKNESS
 40
0.0
  9
$LIMCHECK
 70
     0
  9
$CHAMFERA
 40
2.5
  9
$CHAMFERB
 40
2.5
  9
$CHAMFERC
 40
20.0
  9
$CHAMFERD
 40
0.0
  9
$SKPOLY
 70
     0
  9
$TDCREATE
 40
2453918.221006574
  9
$TDUCREATE
 40
2453918.179339908
  9
$TDUPDATE
 40
2454064.608572396
  9
$TDUUPDATE
 40
2454064.566905729
  9
$TDINDWG
 40
0.1360199653
  9
$TDUSRTIMER
 40
0.1360158102
  9
$USRTIMER
 70
     1
  9
$ANGBASE
 50
0.0
  9
$ANGDIR
 70
     0
  9
$PDMODE
 70
     0
  9
$PDSIZE
 40
0.0
  9
$PLINEWID
 40
0.0
  9
$SPLFRAME
 70
     0
  9
$SPLINETYPE
 70
     6
  9
$SPLINESEGS
 70
     8
  9
$HANDSEED
  5
3BA0
  9
$SURFTAB1
 70
     6
  9
$SURFTAB2
 70
     6
  9
$SURFTYPE
 70
     6
  9
$SURFU
 70
     6
  9
$SURFV
 70
     6
  9
$UCSBASE
  2

  9
$UCSNAME
  2

  9
$UCSORG
 10
0.0
 20
0.0
 30
0.0
  9
$UCSXDIR
 10
1.0
 20
0.0
 30
0.0
  9
$UCSYDIR
 10
0.0
 20
1.0
 30
0.0
  9
$UCSORTHOREF
  2

  9
$UCSORTHOVIEW
 70
     0
  9
$UCSORGTOP
 10
0.0
 20
0.0
 30
0.0
  9
$UCSORGBOTTOM
 10
0.0
 20
0.0
 30
0.0
  9
$UCSORGLEFT
 10
0.0
 20
0.0
 30
0.0
  9
$UCSORGRIGHT
 10
0.0
 20
0.0
 30
0.0
  9
$UCSORGFRONT
 10
0.0
 20
0.0
 30
0.0
  9
$UCSORGBACK
 10
0.0
 20
0.0
 30
0.0
  9
$PUCSBASE
  2

  9
$PUCSNAME
  2

  9
$PUCSORG
 10
0.0
 20
0.0
 30
0.0
  9
$PUCSXDIR
 10
1.0
 20
0.0
 30
0.0
  9
$PUCSYDIR
 10
0.0
 20
1.0
 30
0.0
  9
$PUCSORTHOREF
  2

  9
$PUCSORTHOVIEW
 70
     0
  9
$PUCSORGTOP
 10
0.0
 20
0.0
 30
0.0
  9
$PUCSORGBOTTOM
 10
0.0
 20
0.0
 30
0.0
  9
$PUCSORGLEFT
 10
0.0
 20
0.0
 30
0.0
  9
$PUCSORGRIGHT
 10
0.0
 20
0.0
 30
0.0
  9
$PUCSORGFRONT
 10
0.0
 20
0.0
 30
0.0
  9
$PUCSORGBACK
 10
0.0
 20
0.0
 30
0.0
  9
$USERI1
 70
     0
  9
$USERI2
 70
     0
  9
$USERI3
 70
     0
  9
$USERI4
 70
     0
  9
$USERI5
 70
     0
  9
$USERR1
 40
0.0
  9
$USERR2
 40
0.0
  9
$USERR3
 40
0.0
  9
$USERR4
 40
0.0
  9
$USERR5
 40
0.0
  9
$WORLDVIEW
 70
     1
  9
$SHADEDGE
 70
     3
  9
$SHADEDIF
 70
    70
  9
$TILEMODE
 70
     1
  9
$MAXACTVP
 70
    64
  9
$PINSBASE
 10
0.0
 20
0.0
 30
0.0
  9
$PLIMCHECK
 70
     0
  9
$PEXTMIN
 10
1.000000000000000E+20
 20
1.000000000000000E+20
 30
1.000000000000000E+20
  9
$PEXTMAX
 10
-1.000000000000000E+20
 20
-1.000000000000000E+20
 30
-1.000000000000000E+20
  9
$PLIMMIN
 10
0.0
 20
0.0
  9
$PLIMMAX
 10
420.0
 20
297.0
  9
$UNITMODE
 70
     0
  9
$VISRETAIN
 70
     1
  9
$PLINEGEN
 70
     0
  9
$PSLTSCALE
 70
     1
  9
$TREEDEPTH
 70
  3020
  9
$CMLSTYLE
  2
Standard
  9
$CMLJUST
 70
     0
  9
$CMLSCALE
 40
20.0
  9
$PROXYGRAPHICS
 70
     1
  9
$MEASUREMENT
 70
     1
  9
$CELWEIGHT
370
    -1
  9
$ENDCAPS
280
     0
  9
$JOINSTYLE
280
     0
  9
$LWDISPLAY
290
     0
  9
$INSUNITS
 70
     4
  9
$HYPERLINKBASE
  1

  9
$STYLESHEET
  1

  9
$XEDIT
290
     1
  9
$CEPSNTYPE
380
     0
  9
$PSTYLEMODE
290
     1
  9
$FINGERPRINTGUID
  2
{E66C8CC1-E66B-408F-9010-06FD783B68A0}
  9
$VERSIONGUID
  2
{338750F6-0350-44A0-B2D3-559E290F7502}
  9
$EXTNAMES
290
     1
  9
$PSVPSCALE
 40
0.0
  9
$OLESTARTUP
290
     0
  9
$SORTENTS
280
   127
  9
$INDEXCTL
280
     1
  9
$HIDETEXT
280
     1
  9
$XCLIPFRAME
290
     0
  9
$HALOGAP
280
     0
  9
$OBSCOLOR
 70
   257
  9
$OBSLTYPE
280
     0
  9
$INTERSECTIONDISPLAY
280
     0
  9
$INTERSECTIONCOLOR
 70
   257
  9
$DIMASSOC
280
     2
  9
$PROJECTNAME
  1

  0
ENDSEC
  0
SECTION
  2
CLASSES
  0
CLASS
  1
ACDBDICTIONARYWDFLT
  2
AcDbDictionaryWithDefault
  3
ObjectDBX Classes
 90
        0
 91
        1
280
     0
281
     0
  0
CLASS
  1
ACME_DOCUMENT
  2
AcMeDbDoc
  3
AcMeServices
 90
        0
 91
        2
280
     0
281
     0
  0
CLASS
  1
ACMESCOPE
  2
AcMeScope
  3
AcMeServices
 90
        0
 91
        1
280
     0
281
     0
  0
CLASS
  1
ACMECOMMANDHISTORY
  2
AcMeCommandHistory
  3
AcMeServices
 90
        0
 91
        1
280
     0
281
     0
  0
CLASS
  1
ACIMSYSVARMAN
  2
AcImSysVarManager
  3
AcMeServices
 90
        0
 91
        6
280
     0
281
     0
  0
CLASS
  1
ACIMREALSYSVAR
  2
AcImRealSysVar
  3
AcMeServices
 90
        0
 91
       16
280
     0
281
     0
  0
CLASS
  1
ACIMINTSYSVAR
  2
AcImIntSysVar
  3
AcMeServices
 90
        0
 91
       45
280
     0
281
     0
  0
CLASS
  1
ACMEDRAWINGMAN
  2
AcMeDrawingMan
  3
AcMeServices
 90
        0
 91
        1
280
     0
281
     0
  0
CLASS
  1
ACMEVIEW
  2
AcMeView
  3
AcMeServices
 90
        0
 91
        1
280
     0
281
     0
  0
CLASS
  1
ACDBENTITYCACHE
  2
AcMeEntityCache
  3
AcMeServices
 90
        0
 91
        1
280
     0
281
     0
  0
CLASS
  1
GSMANAGER
  2
AcMeGSManager
  3
AcMeServices
 90
        0
 91
        1
280
     0
281
     0
  0
CLASS
  1
AMDTINTERNALREACTOR
  2
AmdtInternalReactor
  3
AcMeServices
 90
        0
 91
        2
280
     0
281
     0
  0
CLASS
  1
ACMESTATEMGR
  2
AcMeStateMgr
  3
AcMeServices
 90
        0
 91
        1
280
     0
281
     0
  0
CLASS
  1
ACGREFMASTER
  2
AcGrefMaster
  3
AcAttribServices
 90
        0
 91
        1
280
     0
281
     0
  0
CLASS
  1
ACME_DATABASE
  2
AcMeDbDatabase
  3
AcMeServices
 90
        0
 91
        1
280
     0
281
     0
  0
CLASS
  1
ACRFINSADJUSTERMGR
  2
AcRfInsAdjusterMgr
  3
AcMeServices
 90
        0
 91
        1
280
     0
281
     0
  0
CLASS
  1
ACGREFACADMASTER
  2
AcGrefacadMaster
  3
AcGrefServices
 90
        0
 91
        1
280
     0
281
     0
  0
CLASS
  1
AMIMASTER
  2
AmiMaster
  3
AmiServices
 90
        0
 91
        1
280
     0
281
     0
  0
CLASS
  1
AMGSETTINGSOBJ
  2
AmgSettingsObj
  3
"AcadM|Product Description: AutoCAD Mechanical 2000|Company: Autodesk"
 90
        0
 91
        2
280
     0
281
     0
  0
CLASS
  1
ACMDATADICTIONARY
  2
AcmDataDictionary
  3
"AcmSymBB|Product Description: AutoCAD Mechanical 2004 DX|Company: Autodesk"
 90
        0
 91
        1
280
     0
281
     0
  0
CLASS
  1
ACMDATAENTRYBLOCK
  2
AcmDataEntryBlock
  3
"AcmSymBB|Product Description: AutoCAD Mechanical 2004 DX|Company: Autodesk"
 90
        0
 91
        1
280
     0
281
     0
  0
CLASS
  1
ACIMSTRSYSVAR
  2
AcImStrSysVar
  3
AcMeServices
 90
        0
 91
       11
280
     0
281
     0
  0
CLASS
  1
ACMSTANDARDDIN
  2
AcmStandardDIN
  3
"Amdt_StdImp|Product Description: AutoCAD Mechanical 2004 DX|Company: Autodesk"
 90
        0
 91
        1
280
     0
281
     0
  0
CLASS
  1
AMGOBJPROPCFG
  2
AmgObjPropCfg
  3
"AmgLay|Product Description: AutoCAD Mechanical 2000|Company: Autodesk"
 90
        1
 91
        1
280
     0
281
     0
  0
CLASS
  1
AMDTEDGESTANDARDDIN
  2
AmdtEdgeStdDIN
  3
"Amdt_StdImp|Product Description: AutoCAD Mechanical 2004 DX|Company: Autodesk"
 90
        0
 91
        1
280
     0
281
     0
  0
CLASS
  1
ACMSURFSTANDARDDIN
  2
AcmSurfTextStdDIN
  3
"Amdt_StdImp|Product Description: AutoCAD Mechanical 2004 DX|Company: Autodesk"
 90
        0
 91
        1
280
     0
281
     0
  0
CLASS
  1
ACMFCFSTANDARDDIN
  2
AcmFCFStdDIN
  3
"Amdt_StdImp|Product Description: AutoCAD Mechanical 2004 DX|Company: Autodesk"
 90
        0
 91
        1
280
     0
281
     0
  0
CLASS
  1
ACMWELDSTANDARDDIN
  2
AcmWeldingStdDIN
  3
"Amdt_StdImp|Product Description: AutoCAD Mechanical 2004 DX|Company: Autodesk"
 90
        0
 91
        1
280
     0
281
     0
  0
CLASS
  1
ACMIDSTANDARDDIN
  2
AcmIdStdDIN
  3
"Amdt_StdImp|Product Description: AutoCAD Mechanical 2004 DX|Company: Autodesk"
 90
        0
 91
        1
280
     0
281
     0
  0
CLASS
  1
ACMDATUMSTANDARDDIN
  2
AcmDatumStdDIN
  3
"Amdt_StdImp|Product Description: AutoCAD Mechanical 2004 DX|Company: Autodesk"
 90
        0
 91
        1
280
     0
281
     0
  0
CLASS
  1
ACMBOMSTANDARDDIN
  2
AcmBOMStdDIN
  3
"Amdt_StdImp|Product Description: AutoCAD Mechanical 2004 DX|Company: Autodesk"
 90
        0
 91
        1
280
     0
281
     0
  0
CLASS
  1
ACMDETAILSTANDARDDIN
  2
AmdtDetailSymStdDIN
  3
"Amdt_StdImp|Product Description: AutoCAD Mechanical 2004 DX|Company: Autodesk"
 90
        0
 91
        1
280
     0
281
     0
  0
CLASS
  1
ACMSECTIONSTANDARDDIN
  2
AmdtSectionSymStdDIN
  3
"Amdt_StdImp|Product Description: AutoCAD Mechanical 2004 DX|Company: Autodesk"
 90
        0
 91
        1
280
     0
281
     0
  0
CLASS
  1
ACMCENTERLINESTANDARDDIN
  2
AmdtCenterLineStdDIN
  3
"Amdt_StdImp|Product Description: AutoCAD Mechanical 2004 DX|Company: Autodesk"
 90
        0
 91
        1
280
     0
281
     0
  0
CLASS
  1
ACMNOTESTANDARDDIN
  2
AmdtNoteStdDIN
  3
"Amdt_StdImp|Product Description: AutoCAD Mechanical 2004 DX|Company: Autodesk"
 90
        0
 91
        1
280
     0
281
     0
  0
CLASS
  1
ACAMGLAYSTD
  2
AcAmgLayStd
  3
"AcAmgLayStd|Product Description: AutoCAD Mechanical 2000|Company: Autodesk"
 90
        0
 91
        2
280
     0
281
     0
  0
CLASS
  1
ACAMGDIMSTD
  2
AcAmgDimStd
  3
"AcAmgDimStd|Product Description: AutoCAD Mechanical 2000|Company: Autodesk"
 90
        0
 91
        2
280
     0
281
     0
  0
CLASS
  1
ACAMGHOLECHARTSTDDIN
  2
AcAmgHoleChartStdDIN
  3
ACMSYMBB_MODULE_NAME
 90
        0
 91
        1
280
     0
281
     0
  0
CLASS
  1
ACAMGTITLESTD
  2
AcAmgTitleStd
  3
"TITLEAPP"
 90
        0
 91
        2
280
     0
281
     0
  0
CLASS
  1
LAYER_INDEX
  2
AcDbLayerIndex
  3
ObjectDBX Classes
 90
        0
 91
        1
280
     0
281
     0
  0
CLASS
  1
IDBUFFER
  2
AcDbIdBuffer
  3
ObjectDBX Classes
 90
        0
 91
        1
280
     0
281
     0
  0
CLASS
  1
DICTIONARYVAR
  2
AcDbDictionaryVar
  3
ObjectDBX Classes
 90
        0
 91
        3
280
     0
281
     0
  0
CLASS
  1
ACAMGFILTERDAT
  2
AcAmgFilterDat
  3
"AcadM|Product Description: AutoCAD Mechanical 2000|Company: Autodesk"
 90
        0
 91
        6
280
     0
281
     0
  0
CLASS
  1
ACMSTANDARDANSI
  2
AcmStandardANSI
  3
"Amdt_StdImp|Product Description: AutoCAD Mechanical 2004 DX|Company: Autodesk"
 90
        0
 91
        1
280
     0
281
     0
  0
CLASS
  1
ACMSURFSTANDARDANSI
  2
AcmSurfTextStdANSI
  3
"Amdt_StdImp|Product Description: AutoCAD Mechanical 2004 DX|Company: Autodesk"
 90
        0
 91
        1
280
     0
281
     0
  0
CLASS
  1
ACMFCFSTANDARDANSI
  2
AcmFCFStdANSI
  3
"Amdt_StdImp|Product Description: AutoCAD Mechanical 2004 DX|Company: Autodesk"
 90
        0
 91
        1
280
     0
281
     0
  0
CLASS
  1
ACMWELDSTANDARDANSI
  2
AcmWeldingStdANSI
  3
"Amdt_StdImp|Product Description: AutoCAD Mechanical 2004 DX|Company: Autodesk"
 90
        0
 91
        1
280
     0
281
     0
  0
CLASS
  1
ACMIDSTANDARDANSI
  2
AcmIdStdANSI
  3
"Amdt_StdImp|Product Description: AutoCAD Mechanical 2004 DX|Company: Autodesk"
 90
        0
 91
        1
280
     0
281
     0
  0
CLASS
  1
ACMDATUMSTANDARDANSI
  2
AcmDatumStdANSI
  3
"Amdt_StdImp|Product Description: AutoCAD Mechanical 2004 DX|Company: Autodesk"
 90
        0
 91
        1
280
     0
281
     0
  0
CLASS
  1
ACMBOMSTANDARDANSI
  2
AcmBOMStdANSI
  3
"Amdt_StdImp|Product Description: AutoCAD Mechanical 2004 DX|Company: Autodesk"
 90
        0
 91
        1
280
     0
281
     0
  0
CLASS
  1
ACMDETAILSTANDARDANSI
  2
AmdtDetailSymStdANSI
  3
"Amdt_StdImp|Product Description: AutoCAD Mechanical 2004 DX|Company: Autodesk"
 90
        0
 91
        1
280
     0
281
     0
  0
CLASS
  1
ACMSECTIONSTANDARDANSI
  2
AmdtSectionSymStdANSI
  3
"Amdt_StdImp|Product Description: AutoCAD Mechanical 2004 DX|Company: Autodesk"
 90
        0
 91
        1
280
     0
281
     0
  0
CLASS
  1
ACMCENTERLINESTANDARDANSI
  2
AmdtCenterLineStdANSI
  3
"Amdt_StdImp|Product Description: AutoCAD Mechanical 2004 DX|Company: Autodesk"
 90
        0
 91
        1
280
     0
281
     0
  0
CLASS
  1
ACMNOTESTANDARDANSI
  2
AmdtNoteStdANSI
  3
"Amdt_StdImp|Product Description: AutoCAD Mechanical 2004 DX|Company: Autodesk"
 90
        0
 91
        1
280
     0
281
     0
  0
CLASS
  1
ACAMGHOLECHARTSTDANSI
  2
AcAmgHoleChartStdANSI
  3
ACMSYMBB_MODULE_NAME
 90
        0
 91
        1
280
     0
281
     0
  0
CLASS
  1
AMDTFORMULAUPDATEDISPATCHER
  2
AmdtFormulaUpdateDispatcher
  3
AcMeServices
 90
        0
 91
        1
280
     0
281
     0
  0
CLASS
  1
DIMASSOC
  2
AcDbDimAssoc
  3
"AcDbDimAssoc|Product Desc:     AcDim ARX App For Dimension|Company:          Autodesk, Inc.|WEB Address:      www.autodesk.com"
 90
        0
 91
        0
280
     0
281
     0
  0
CLASS
  1
AM_DRAWING_MGR
  2
AcDmDwgMgr
  3
AcMechDwgViewMgmt
 90
        0
 91
        1
280
     0
281
     0
  0
CLASS
  1
AM_DWG_DOCUMENT
  2
AcDmDwgDocument
  3
AcMechDwgViewMgmt
 90
        0
 91
        1
280
     0
281
     0
  0
CLASS
  1
AM_DWG_SHEET
  2
AcDmSheet
  3
AcMechDwgViewMgmt
 90
        0
 91
        2
280
     0
281
     0
  0
CLASS
  1
AM_VIEWDIMPARMAP
  2
AcDmViewDimParMap
  3
AcMechDwgViewMgmt
 90
        0
 91
        2
280
     0
281
     0
  0
CLASS
  1
AM_DWGMGR_NAME
  2
AcDmDwgMgrName
  3
AcMechDwgViewMgmt
 90
        0
 91
        1
280
     0
281
     0
  0
CLASS
  1
AMDTMENUSTATEMGR
  2
AmdtMenuStateMgr
  3
McadcomServices
 90
        0
 91
        1
280
     0
281
     0
  0
CLASS
  1
AMDTMCOMMENUSTATE
  2
AmdtMcomMenuState
  3
McadcomServices
 90
        0
 91
        1
280
     0
281
     0
  0
CLASS
  1
ASAPP
  2
AcAsAppObject
  3
AutoSurfServices
 90
        0
 91
        1
280
     0
281
     0
  0
CLASS
  1
IM_STATIC_MAN
  2
AcImStaticVarManager
  3
AcMeServices
 90
        0
 91
        1
280
     0
281
     0
  0
CLASS
  1
ACIMDBLSTATICVAR
  2
AcImDblStaticVar
  3
AcMeServices
 90
        0
 91
       20
280
     0
281
     0
  0
CLASS
  1
ACIMSTRSTATICVAR
  2
AcImStrStaticVar
  3
AcMeServices
 90
        0
 91
       12
280
     0
281
     0
  0
CLASS
  1
ACIMINTSTATICVAR
  2
AcImIntStaticVar
  3
AcMeServices
 90
        0
 91
       17
280
     0
281
     0
  0
CLASS
  1
ACASGREFMASTER
  2
AcAsGrefMaster
  3
AutoSurfResolverServices
 90
        0
 91
        1
280
     0
281
     0
  0
CLASS
  1
ACADGREFMODULE
  2
AcAdGrefModule
  3
AdGrefServices
 90
        0
 91
        1
280
     0
281
     0
  0
CLASS
  1
AMDTMAPISURFMOUDULE
  2
AmdtMApiSurfModule
  3
MApiSurfServices
 90
        0
 91
        1
280
     0
281
     0
  0
CLASS
  1
MAPIAMMOUDLE
  2
MApiAmModule
  3
MApiAmServices
 90
        0
 91
        1
280
     0
281
     0
  0
CLASS
  1
AMDTADMENUSTATE
  2
AmdtAdMenuState
  3
DesignerServices
 90
        0
 91
        1
280
     0
281
     0
  0
CLASS
  1
ADAPPL
  2
AcAdAppl
  3
DesignerServices
 90
        0
 91
        1
280
     0
281
     0
  0
CLASS
  1
DEPMGR
  2
AcAdDepMgr
  3
DesignerServices
 90
        0
 91
        1
280
     0
281
     0
  0
CLASS
  1
PARAMMGR
  2
AcAdParamMgr
  3
DesignerServices
 90
        0
 91
        1
280
     0
281
     0
  0
CLASS
  1
PARAMSCOPE
  2
AcAdParamScope
  3
DesignerServices
 90
        0
 91
        1
280
     0
281
     0
  0
CLASS
  1
NAMEDAPPL
  2
AcAdNamedAppl
  3
DesignerServices
 90
        0
 91
        1
280
     0
281
     0
  0
CLASS
  1
AMDTDMMENUSTATE
  2
AmdtDmMenuState
  3
AcMechDwgViewMgmt
 90
        0
 91
        1
280
     0
281
     0
  0
CLASS
  1
MAPIADMODULE
  2
MApiAdModule
  3
MApiAdServices
 90
        0
 91
        1
280
     0
281
     0
  0
CLASS
  1
AMDTAMMENUSTATE
  2
AmdtAmMenuState
  3
DesignerAssemblies
 90
        0
 91
        1
280
     0
281
     0
  0
CLASS
  1
ACAMPROJECT
  2
AcAmProject
  3
DesignerAssemblies
 90
        0
 91
        1
280
     0
281
     0
  0
CLASS
  1
ACAMGRCOMPDEF
  2
AcAmGrCompDef
  3
DesignerAssemblies
 90
        0
 91
        1
280
     0
281
     0
  0
CLASS
  1
ACCMCONTEXT
  2
AcCmContext
  3
DesignerAssemblies
 90
        0
 91
        1
280
     0
281
     0
  0
CLASS
  1
ACAMCOMPDEF
  2
AcAmCompDef
  3
DesignerAssemblies
 90
        0
 91
        1
280
     0
281
     0
  0
CLASS
  1
ACAMCOMPDEFMGR
  2
AcAmCompDefMgr
  3
DesignerAssemblies
 90
        0
 91
        1
280
     0
281
     0
  0
CLASS
  1
AMCONTEXTMGR
  2
AcAmContextMgr
  3
DesignerAssemblies
 90
        0
 91
        1
280
     0
281
     0
  0
CLASS
  1
ACAMCONTEXTMODELER
  2
AcAmContextModeler
  3
DesignerAssemblies
 90
        0
 91
        1
280
     0
281
     0
  0
CLASS
  1
ACMTHREADLINESTANDARDDIN
  2
AmdtThreadLineStdDIN
  3
"Amdt_StdImp|Product Description: AutoCAD Mechanical 2004 DX|Company: Autodesk"
 90
        0
 91
        1
280
     0
281
     0
  0
CLASS
  1
ACMTHREADLINESTANDARDANSI
  2
AmdtThreadLineStdANSI
  3
"Amdt_StdImp|Product Description: AutoCAD Mechanical 2004 DX|Company: Autodesk"
 90
        0
 91
        1
280
     0
281
     0
  0
CLASS
  1
CATALOGSTATE
  2
AcAmCatalogState
  3
DesignerAssemblies
 90
        0
 91
        1
280
     0
281
     0
  0
CLASS
  1
ACAMGRCOMPDEFSET
  2
AcAmGrCompDefSet
  3
DesignerAssemblies
 90
        0
 91
        1
280
     0
281
     0
  0
CLASS
  1
AMDTBROWSERDBTAB
  2
AmdtBrowserDbTab
  3
McadcomServices
 90
        0
 91
        1
280
     0
281
     0
  0
CLASS
  1
CBROWSERAPPOBJECT
  2
CBrowserAppObject
  3
McadcomServices
 90
        0
 91
        3
280
     0
281
     0
  0
CLASS
  1
DM_PLACEHOLDER
  2
AcDmSelsetPlaceholder
  3
AcMechDwgViewMgmt
 90
        0
 91
        1
280
     0
281
     0
  0
ENDSEC
  0
SECTION
  2
TABLES
  0
TABLE
  2
VPORT
  5
8
330
0
100
AcDbSymbolTable
 70
     4
  0
VPORT
  5
3B9F
330
8
100
AcDbSymbolTableRecord
100
AcDbViewportTableRecord
  2
*Active
 70
     0
 10
0.0
 20
0.0
 11
1.0
 21
1.0
 12
0.0
 22
0.0
 13
0.0
 23
0.0
 14
2.5
 24
2.5
 15
10.0
 25
10.0
 16
0.0
 26
0.0
 36
1.0
 17
-311.0014100285028
 27
-0.0093117870787864
 37
0.0
 40
385.71378656288
 41
1.853846153846153
 42
50.0
 43
0.0
 44
0.0
 50
0.0
 51
0.0
 71
     0
 72
   100
 73
     1
 74
     3
 75
     0
 76
     0
 77
     0
 78
     0
281
     0
 65
     0
110
0.0
120
0.0
130
0.0
111
1.0
121
0.0
131
0.0
112
0.0
122
1.0
132
0.0
 79
     0
146
0.0
  0
ENDTAB
  0
TABLE
  2
LTYPE
  5
5
330
0
100
AcDbSymbolTable
 70
    18
  0
LTYPE
  5
14
330
5
100
AcDbSymbolTableRecord
100
AcDbLinetypeTableRecord
  2
ByBlock
 70
     0
  3

 72
    65
 73
     0
 40
0.0
  0
LTYPE
  5
15
330
5
100
AcDbSymbolTableRecord
100
AcDbLinetypeTableRecord
  2
ByLayer
 70
     0
  3

 72
    65
 73
     0
 40
0.0
  0
LTYPE
  5
16
330
5
100
AcDbSymbolTableRecord
100
AcDbLinetypeTableRecord
  2
Continuous
 70
     0
  3
Solid line
 72
    65
 73
     0
 40
0.0
  0
LTYPE
  5
50
330
5
100
AcDbSymbolTableRecord
100
AcDbLinetypeTableRecord
  2
Amconstr
 70
     0
  3
_______________________
 72
    65
 73
     2
 40
9999.0
 49
9999.0
 74
     0
 49
0.0
 74
     0
  0
LTYPE
  5
55
330
5
100
AcDbSymbolTableRecord
100
AcDbLinetypeTableRecord
  2
Amzigzag
 70
     0
  3
/\/-/\/-/\/-/\/-/\/-/\/
 72
    65
 73
     2
 40
11.0001
 49
0.0001
 74
     4
 75
   135
340
54
 46
0.04
 50
0.0
 44
0.0
 45
0.0
 49
-11.0
 74
     0
  0
LTYPE
  5
56
330
5
100
AcDbSymbolTableRecord
100
AcDbLinetypeTableRecord
  2
AM_DIN_F_W050
 70
     0
  3
__ __ __ __ __ __ __ __ __ __ __ __ __ __ __
 72
    65
 73
     2
 40
6.25
 49
4.75
 74
     0
 49
-1.5
 74
     0
  0
LTYPE
  5
57
330
5
100
AcDbSymbolTableRecord
100
AcDbLinetypeTableRecord
  2
AM_DIN_G_W050
 70
     0
  3
____ . ____ . ____ . ____ . ____ . ____ . ____
 72
    65
 73
     4
 40
13.75
 49
9.75
 74
     0
 49
-1.5
 74
     0
 49
1.0
 74
     0
 49
-1.5
 74
     0
  0
LTYPE
  5
58
330
5
100
AcDbSymbolTableRecord
100
AcDbLinetypeTableRecord
  2
AM_DIN_K_W050
 70
     0
  3
_____ . . _____ . . _____ . . ____ .. ____
 72
    65
 73
     6
 40
16.25
 49
9.75
 74
     0
 49
-1.5
 74
     0
 49
1.0
 74
     0
 49
-1.5
 74
     0
 49
1.0
 74
     0
 49
-1.5
 74
     0
  0
LTYPE
  5
59
330
5
100
AcDbSymbolTableRecord
100
AcDbLinetypeTableRecord
  2
AM_DIN_G_W050x2
 70
     0
  3
__ . __ . __ . __ . __ . __
 72
    65
 73
     4
 40
6.875
 49
4.75
 74
     0
 49
-0.875
 74
     0
 49
0.375
 74
     0
 49
-0.875
 74
     0
  0
LTYPE
  5
5A
330
5
100
AcDbSymbolTableRecord
100
AcDbLinetypeTableRecord
  2
AM_DIN_F_W050x2
 70
     0
  3
 _ _ _ _ _ _ _ _ _ _ _ _
 72
    65
 73
     2
 40
3.125
 49
2.25
 74
     0
 49
-0.875
 74
     0
  0
LTYPE
  5
68
330
5
100
AcDbSymbolTableRecord
100
AcDbLinetypeTableRecord
  2
ACDINWELD
 70
     0
  3
_ _ _ _ _
 72
    65
 73
     2
 40
2.0
 49
2.0
 74
     0
 49
-1.0
 74
     0
  0
LTYPE
  5
69
330
5
100
AcDbSymbolTableRecord
100
AcDbLinetypeTableRecord
  2
ACDINTGB
 70
     0
  3
__ . . __ . .
 72
    65
 73
     6
 40
9.0
 49
4.0
 74
     0
 49
-1.0
 74
     0
 49
1.0
 74
     0
 49
-1.0
 74
     0
 49
1.0
 74
     0
 49
-1.0
 74
     0
  0
LTYPE
  5
6A
330
5
100
AcDbSymbolTableRecord
100
AcDbLinetypeTableRecord
  2
ACDINTGL
 70
     0
  3
_ _ _ _ _
 72
    65
 73
     2
 40
3.0
 49
2.0
 74
     0
 49
-1.0
 74
     0
  0
LTYPE
  5
6C
330
5
100
AcDbSymbolTableRecord
100
AcDbLinetypeTableRecord
  2
CENTER
 70
     0
  3
__ . __
 72
    65
 73
     4
 40
7.0
 49
4.0
 74
     0
 49
-1.0
 74
     0
 49
1.0
 74
     0
 49
-1.0
 74
     0
  0
LTYPE
  5
33D
330
5
100
AcDbSymbolTableRecord
100
AcDbLinetypeTableRecord
  2
PHANTOM2
 70
     0
  3
Phantom (.5x) ___ _ _ ___ _ _ ___ _ _ ___ _ _
 72
    65
 73
     6
 40
1.25
 49
0.625
 74
     0
 49
-0.125
 74
     0
 49
0.125
 74
     0
 49
-0.125
 74
     0
 49
0.125
 74
     0
 49
-0.125
 74
     0
  0
LTYPE
  5
341
330
5
100
AcDbSymbolTableRecord
100
AcDbLinetypeTableRecord
  2
ACANSTGB
 70
     0
  3
__ . . __ . .
 72
    65
 73
     6
 40
0.35433070866
 49
0.15748031496
 74
     0
 49
-0.03937007874
 74
     0
 49
0.03937007874
 74
     0
 49
-0.03937007874
 74
     0
 49
0.03937007874
 74
     0
 49
-0.03937007874
 74
     0
  0
LTYPE
  5
342
330
5
100
AcDbSymbolTableRecord
100
AcDbLinetypeTableRecord
  2
ACANSTGL
 70
     0
  3
_ _ _ _ _
 72
    65
 73
     2
 40
0.11811023622
 49
0.07874015748
 74
     0
 49
-0.03937007874
 74
     0
  0
LTYPE
  5
3ADA
330
5
100
AcDbSymbolTableRecord
100
AcDbLinetypeTableRecord
  2
HIDDEN
 70
     0
  3
Verdeckt
 72
    65
 73
     2
 40
9.525
 49
6.349999999999999
 74
     0
 49
-3.174999999999999
 74
     0
  0
LTYPE
  5
3B39
330
5
100
AcDbSymbolTableRecord
100
AcDbLinetypeTableRecord
  2
ASULTYPE
 70
     0
  3
Ausgezogene Linie
 72
    65
 73
     2
 40
3.0
 49
2.5
 74
     0
 49
0.5
 74
     0
  0
LTYPE
  5
3B3A
330
5
100
AcDbSymbolTableRecord
100
AcDbLinetypeTableRecord
  2
ASVLTYPE
 70
     0
  3
__ __ __ __ __ __ __ __ __ __ __ __ __ __ __ __ __ __ __ __ __
 72
    65
 73
     2
 40
0.75
 49
0.5
 74
     0
 49
-0.25
 74
     0
  0
ENDTAB
  0
TABLE
  2
LAYER
  5
2
330
0
100
AcDbSymbolTable
 70
     1
  0
LAYER
  5
10
330
2
100
AcDbSymbolTableRecord
100
AcDbLayerTableRecord
  2
0
 70
     0
 62
     7
  6
Continuous
370
    -3
390
F
  0
ENDTAB
  0
TABLE
  2
STYLE
  5
3
330
0
100
AcDbSymbolTable
 70
     6
  0
STYLE
  5
11
330
3
100
AcDbSymbolTableRecord
100
AcDbTextStyleTableRecord
  2
STANDARD
 70
     0
 40
0.0
 41
1.0
 50
0.0
 71
     0
 42
2.5
  3
ISOCP.SHX
  4

  0
STYLE
  5
54
330
3
100
AcDbSymbolTableRecord
100
AcDbTextStyleTableRecord
  2

 70
     1
 40
0.0
 41
1.0
 50
0.0
 71
     0
 42
2.5
  3
ltypeshp.shx
  4

  0
STYLE
  5
5B
330
3
100
AcDbSymbolTableRecord
100
AcDbTextStyleTableRecord
  2
ACDINTS
 70
     0
 40
1.0
 41
1.0
 50
0.0
 71
     0
 42
2.5
  3
isocp.shx
  4

  0
STYLE
  5
67
330
3
100
AcDbSymbolTableRecord
100
AcDbTextStyleTableRecord
  2
ACDINGDT
 70
     0
 40
0.0
 41
1.0
 50
0.0
 71
     0
 42
2.5
  3
amgdt.shx
  4

  0
STYLE
  5
343
330
3
100
AcDbSymbolTableRecord
100
AcDbTextStyleTableRecord
  2
ACANSTS
 70
     0
 40
1.0
 41
1.0
 50
0.0
 71
     0
 42
0.2
  3
romans.shx
  4

  0
STYLE
  5
344
330
3
100
AcDbSymbolTableRecord
100
AcDbTextStyleTableRecord
  2
ACANSGDT
 70
     0
 40
0.0
 41
1.0
 50
0.0
 71
     0
 42
0.2
  3
amgdtans.shx
  4

  0
ENDTAB
  0
TABLE
  2
VIEW
  5
6
330
0
100
AcDbSymbolTable
 70
     0
  0
ENDTAB
  0
TABLE
  2
UCS
  5
7
330
0
100
AcDbSymbolTable
 70
     0
  0
ENDTAB
  0
TABLE
  2
APPID
  5
9
330
0
100
AcDbSymbolTable
 70
    14
  0
APPID
  5
12
330
9
100
AcDbSymbolTableRecord
100
AcDbRegAppTableRecord
  2
ACAD
 70
     0
  0
APPID
  5
2C
330
9
100
AcDbSymbolTableRecord
100
AcDbRegAppTableRecord
  2
MCAD_NO_VIS
 70
     0
  0
APPID
  5
2D
330
9
100
AcDbSymbolTableRecord
100
AcDbRegAppTableRecord
  2
ACAD_TEMP_GRAPHIC
 70
     0
  0
APPID
  5
3E
330
9
100
AcDbSymbolTableRecord
100
AcDbRegAppTableRecord
  2
ACATTRIBSERVICES
 70
     0
  0
APPID
  5
3A3E
330
9
100
AcDbSymbolTableRecord
100
AcDbRegAppTableRecord
  2
DCO15
 70
     0
  0
APPID
  5
3AC4
330
9
100
AcDbSymbolTableRecord
100
AcDbRegAppTableRecord
  2
GENIUS_GENDIM_13
 70
     0
  0
APPID
  5
3AC5
330
9
100
AcDbSymbolTableRecord
100
AcDbRegAppTableRecord
  2
GENIUS_GENDTOL_13
 70
     0
  0
APPID
  5
3AC6
330
9
100
AcDbSymbolTableRecord
100
AcDbRegAppTableRecord
  2
GENIUS_GE3DTOL_13
 70
     0
  0
APPID
  5
3AEF
330
9
100
AcDbSymbolTableRecord
100
AcDbRegAppTableRecord
  2
AD_DRAW
 70
     0
  0
APPID
  5
3B3B
330
9
100
AcDbSymbolTableRecord
100
AcDbRegAppTableRecord
  2
ASURF_PCURVE_APPNAME
 70
     0
  0
APPID
  5
3B40
330
9
100
AcDbSymbolTableRecord
100
AcDbRegAppTableRecord
  2
AMG_3D2D_5.0
 70
     0
  0
APPID
  5
3B6F
330
9
100
AcDbSymbolTableRecord
100
AcDbRegAppTableRecord
  2
DESIGNERASSEMBLIES
 70
     0
  0
APPID
  5
3B75
330
9
100
AcDbSymbolTableRecord
100
AcDbRegAppTableRecord
  2
ACADM_DIM_EDIT
 70
     0
  0
APPID
  5
3B76
330
9
100
AcDbSymbolTableRecord
100
AcDbRegAppTableRecord
  2
AMDT_DM_ADJ
 70
     0
  0
ENDTAB
  0
TABLE
  2
DIMSTYLE
  5
A
330
0
100
AcDbSymbolTable
 70
    14
100
AcDbDimStyleTable
 71
     1
340
6F
  0
DIMSTYLE
105
6F
330
A
100
AcDbSymbolTableRecord
100
AcDbDimStyleTableRecord
  2
AM_DIN
 70
     0
  4
"
 41
2.5
 42
1.0
 43
10.0
 44
1.0
 47
0.1
 48
0.1
 73
     0
 74
     0
 77
     1
 78
     8
 79
     2
140
3.5
141
0.0
143
0.0393701
146
0.71
147
1.5
172
     1
176
   256
177
   256
178
     2
271
     2
272
     3
274
     4
283
     0
284
     8
340
11
371
    -1
372
    -1
  0
DIMSTYLE
105
70
330
A
100
AcDbSymbolTableRecord
100
AcDbDimStyleTableRecord
  2
AM_DIN$3
 70
     0
  4
"
 41
2.5
 42
1.0
 43
10.0
 44
1.0
 47
0.1
 48
0.1
 73
     0
 77
     1
 78
     8
 79
     2
140
3.5
141
0.0
143
0.0393701
146
0.71
147
1.5
176
   256
177
   256
178
     2
271
     2
272
     3
274
     4
283
     0
284
     8
288
     1
289
     0
340
11
371
    -1
372
    -1
  0
DIMSTYLE
105
71
330
A
100
AcDbSymbolTableRecord
100
AcDbDimStyleTableRecord
  2
AM_DIN$4
 70
     0
  4
"
 41
2.5
 42
1.0
 43
10.0
 44
1.0
 47
0.1
 48
0.1
 73
     0
 77
     1
 78
     8
 79
     2
140
3.5
141
0.0
143
0.0393701
146
0.71
147
1.5
176
   256
177
   256
178
     2
271
     2
272
     3
274
     4
283
     0
284
     8
288
     1
289
     0
340
11
371
    -1
372
    -1
  0
DIMSTYLE
105
72
330
A
100
AcDbSymbolTableRecord
100
AcDbDimStyleTableRecord
  2
AM_DIN$6
 70
     0
  4
"
 41
2.5
 42
1.0
 43
10.0
 44
1.0
 47
0.1
 48
0.1
 73
     0
 74
     0
 78
     8
 79
     2
140
3.5
141
0.0
143
0.0393701
146
0.71
147
1.5
172
     1
176
   256
177
   256
178
     2
271
     2
272
     3
274
     4
283
     0
284
     8
340
11
371
    -1
372
    -1
  0
DIMSTYLE
105
73
330
A
100
AcDbSymbolTableRecord
100
AcDbDimStyleTableRecord
  2
AM_DIN$7
 70
     0
  4
"
 41
2.5
 42
1.0
 43
10.0
 44
1.0
 47
0.1
 48
0.1
 73
     0
 74
     0
 77
     1
 78
     8
 79
     2
140
5.0
141
0.0
143
0.0393701
146
0.71
147
1.5
172
     1
176
   256
177
   256
178
     2
271
     2
272
     3
274
     4
283
     0
284
     8
340
11
371
    -1
372
    -1
  0
DIMSTYLE
105
74
330
A
100
AcDbSymbolTableRecord
100
AcDbDimStyleTableRecord
  2
AM_DIN$SF
 70
     0
  4
"
 41
2.5
 42
1.0
 43
10.0
 44
1.0
 47
0.1
 48
0.1
 73
     0
 74
     0
 75
     1
 76
     1
 77
     1
 78
     8
 79
     2
140
3.5
141
0.0
143
0.0393701
146
0.71
147
1.5
172
     1
176
   256
177
   256
178
     2
271
     2
272
     3
274
     4
283
     0
284
     8
340
11
371
    -1
372
    -1
  0
DIMSTYLE
105
79
330
A
100
AcDbSymbolTableRecord
100
AcDbDimStyleTableRecord
  2
AM_DIN$SH
 70
     0
  4
"
 41
2.5
 42
1.0
 43
10.0
 44
1.0
 47
0.1
 48
0.1
 73
     0
 74
     0
 75
     1
 76
     1
 77
     1
 78
     8
 79
     2
140
3.5
141
0.0
143
0.0393701
144
2.0
146
0.71
147
1.5
172
     1
173
     1
176
   256
177
   256
178
     2
271
     2
272
     3
274
     4
283
     0
284
     8
340
11
343
75
371
    -1
372
    -1
  0
DIMSTYLE
105
92
330
A
100
AcDbSymbolTableRecord
100
AcDbDimStyleTableRecord
  2
STANDARD
 70
     0
279
     2
340
11
  0
DIMSTYLE
105
345
330
A
100
AcDbSymbolTableRecord
100
AcDbDimStyleTableRecord
  2
AM_ANSI
 70
     0
  4
mm
 41
0.1
 42
0.05
 43
0.5
 44
0.1
 47
0.1
 48
0.1
 78
     7
 79
     2
140
0.12
141
0.0
146
0.71
147
0.06
176
   256
177
   256
178
     2
274
     4
284
     7
340
11
371
    -1
372
    -1
  0
DIMSTYLE
105
346
330
A
100
AcDbSymbolTableRecord
100
AcDbDimStyleTableRecord
  2
AM_ANSI$3
 70
     0
  4
mm
 41
0.1
 42
0.05
 43
0.5
 44
0.1
 47
0.1
 48
0.1
 78
     7
 79
     2
140
0.12
141
0.0
146
0.71
147
0.06
176
   256
177
   256
178
     2
274
     4
284
     7
288
     1
289
     0
340
11
371
    -1
372
    -1
  0
DIMSTYLE
105
347
330
A
100
AcDbSymbolTableRecord
100
AcDbDimStyleTableRecord
  2
AM_ANSI$4
 70
     0
  4
mm
 41
0.1
 42
0.05
 43
0.5
 44
0.1
 47
0.1
 48
0.1
 78
     7
 79
     2
140
0.12
141
0.0
146
0.71
147
0.06
176
   256
177
   256
178
     2
274
     4
284
     7
288
     1
289
     0
340
11
371
    -1
372
    -1
  0
DIMSTYLE
105
348
330
A
100
AcDbSymbolTableRecord
100
AcDbDimStyleTableRecord
  2
AM_ANSI$7
 70
     0
  4
mm
 41
0.1
 42
0.05
 43
0.5
 44
0.1
 47
0.1
 48
0.1
 78
     7
 79
     2
140
0.24
141
0.0
146
0.71
147
0.06
176
   256
177
   256
178
     2
274
     4
284
     7
340
11
371
    -1
372
    -1
  0
DIMSTYLE
105
349
330
A
100
AcDbSymbolTableRecord
100
AcDbDimStyleTableRecord
  2
AM_ANSI$SF
 70
     0
  4
mm
 41
0.1
 42
0.05
 43
0.5
 44
0.1
 47
0.1
 48
0.1
 75
     1
 76
     1
 78
     7
 79
     2
140
0.12
141
0.0
146
0.71
147
0.06
176
   256
177
   256
178
     2
274
     4
284
     7
340
11
371
    -1
372
    -1
  0
DIMSTYLE
105
34A
330
A
100
AcDbSymbolTableRecord
100
AcDbDimStyleTableRecord
  2
AM_ANSI$SH
 70
     0
  4
mm
 41
0.1
 42
0.05
 43
0.5
 44
0.1
 47
0.1
 48
0.1
 75
     1
 76
     1
 78
     7
 79
     2
140
0.12
141
0.0
146
0.71
147
0.06
173
     1
176
   256
177
   256
178
     2
274
     4
284
     7
340
11
343
75
371
    -1
372
    -1
  0
ENDTAB
  0
TABLE
  2
BLOCK_RECORD
  5
1
330
0
100
AcDbSymbolTable
 70
     3
  0
BLOCK_RECORD
  5
1F
102
{ACAD_XDICTIONARY
360
81
102
}
330
1
100
AcDbSymbolTableRecord
100
AcDbBlockTableRecord
  2
*Model_Space
340
22
  0
BLOCK_RECORD
  5
1B
330
1
100
AcDbSymbolTableRecord
100
AcDbBlockTableRecord
  2
*Paper_Space
340
1E
  0
BLOCK_RECORD
  5
23
330
1
100
AcDbSymbolTableRecord
100
AcDbBlockTableRecord
  2
*Paper_Space0
340
26
  0
BLOCK_RECORD
  5
75
330
1
100
AcDbSymbolTableRecord
100
AcDbBlockTableRecord
  2
GENAXEH
340
0
  0
BLOCK_RECORD
  5
3B66
330
1
100
AcDbSymbolTableRecord
100
AcDbBlockTableRecord
  2
*U2
340
0
  0
ENDTAB
  0
ENDSEC
  0
SECTION
  2
BLOCKS
  0
BLOCK
  5
20
330
1F
100
AcDbEntity
  8
0
100
AcDbBlockBegin
  2
*Model_Space
 70
     0
 10
0.0
 20
0.0
 30
0.0
  3
*Model_Space
  1

  0
ENDBLK
  5
21
330
1F
100
AcDbEntity
  8
0
100
AcDbBlockEnd
  0
BLOCK
  5
1C
330
1B
100
AcDbEntity
 67
     1
  8
0
100
AcDbBlockBegin
  2
*Paper_Space
 70
     0
 10
0.0
 20
0.0
 30
0.0
  3
*Paper_Space
  1

  0
ENDBLK
  5
1D
330
1B
100
AcDbEntity
 67
     1
  8
0
100
AcDbBlockEnd
  0
BLOCK
  5
24
330
23
100
AcDbEntity
  8
0
100
AcDbBlockBegin
  2
*Paper_Space0
 70
     0
 10
0.0
 20
0.0
 30
0.0
  3
*Paper_Space0
  1

  0
ENDBLK
  5
25
330
23
100
AcDbEntity
  8
0
100
AcDbBlockEnd
  0
BLOCK
  5
77
330
75
100
AcDbEntity
  8
0
100
AcDbBlockBegin
  2
GENAXEH
 70
     0
 10
0.0
 20
0.0
 30
0.0
  3
GENAXEH
  1

  0
LINE
  5
76
330
75
100
AcDbEntity
  8
0
100
AcDbLine
 10
-1.0
 20
0.0
 30
0.0
 11
1.0
 21
0.0
 31
0.0
  0
ENDBLK
  5
78
330
75
100
AcDbEntity
  8
0
100
AcDbBlockEnd
  0
BLOCK
  5
3B67
330
3B66
100
AcDbEntity
  8
0
100
AcDbBlockBegin
  2
*U2
 70
     1
 10
0.0
 20
0.0
 30
0.0
  3
*U2
  1

  0
ENDBLK
  5
3B68
330
3B66
100
AcDbEntity
  8
0
100
AcDbBlockEnd
  0
ENDSEC
  0
SECTION
  2
ENTITIES
  0
LINE
  5
2FDB
330
1F
100
AcDbEntity
  8
0
100
AcDbLine
 10
-299.098129
 20
-85.95849599999993
 30
0.0
 11
-342.2037499999999
 21
-59.89538599999995
 31
0.0
  0
LINE
  5
2FDC
330
1F
100
AcDbEntity
  8
0
100
AcDbLine
 10
-299.098129
 20
85.45980800000009
 30
0.0
 11
-342.2037499999999
 21
59.39608799999999
 31
0.0
  0
LINE
  5
2FDD
330
1F
100
AcDbEntity
  8
0
100
AcDbLine
 10
-334.2516730191686
 20
129.4157537699885
 30
0.0
 11
-296.8626960267866
 21
90.36546416707878
 31
0.0
  0
LINE
  5
2FDE
330
1F
100
AcDbEntity
  8
0
100
AcDbLine
 10
-339.9135859078333
 20
-129.8001441251587
 30
0.0
 11
-297.2514214955295
 21
-89.86027827829722
 31
0.0
  0
POLYLINE
  5
2FE1
330
1F
100
AcDbEntity
  8
0
100
AcDb2dPolyline
 66
     1
 10
0.0
 20
0.0
 30
0.0
  0
VERTEX
  5
2FE2
330
2FE1
100
AcDbEntity
  8
0
100
AcDbVertex
100
AcDb2dVertex
 10
-465.5049409999999
 20
56.38961800000007
 30
0.0
  0
VERTEX
  5
2FE3
330
2FE1
100
AcDbEntity
  8
0
100
AcDbVertex
100
AcDb2dVertex
 10
-465.6441559999998
 20
56.01364100000004
 30
0.0
  0
VERTEX
  5
2FE4
330
2FE1
100
AcDbEntity
  8
0
100
AcDbVertex
100
AcDb2dVertex
 10
-466.0322299999998
 20
54.90795900000003
 30
0.0
  0
VERTEX
  5
2FE5
330
2FE1
100
AcDbEntity
  8
0
100
AcDbVertex
100
AcDb2dVertex
 10
-466.6248039999999
 20
53.10607900000005
 30
0.0
  0
VERTEX
  5
2FE6
330
2FE1
100
AcDbEntity
  8
0
100
AcDbVertex
100
AcDb2dVertex
 10
-467.3775189999998
 20
50.64144900000011
 30
0.0
  0
VERTEX
  5
2FE7
330
2FE1
100
AcDbEntity
  8
0
100
AcDbVertex
100
AcDb2dVertex
 10
-468.2460179999999
 20
47.547516
 30
0.0
  0
VERTEX
  5
2FE8
330
2FE1
100
AcDbEntity
  8
0
100
AcDbVertex
100
AcDb2dVertex
 10
-469.1859409999999
 20
43.85775800000002
 30
0.0
  0
VERTEX
  5
2FE9
330
2FE1
100
AcDbEntity
  8
0
100
AcDbVertex
100
AcDb2dVertex
 10
-470.1529309999998
 20
39.60559100000003
 30
0.0
  0
VERTEX
  5
2FEA
330
2FE1
100
AcDbEntity
  8
0
100
AcDbVertex
100
AcDb2dVertex
 10
-471.1026289999998
 20
34.82452400000003
 30
0.0
  0
VERTEX
  5
2FEB
330
2FE1
100
AcDbEntity
  8
0
100
AcDbVertex
100
AcDb2dVertex
 10
-471.9906759999998
 20
29.5479740000001
 30
0.0
  0
VERTEX
  5
2FEC
330
2FE1
100
AcDbEntity
  8
0
100
AcDbVertex
100
AcDb2dVertex
 10
-472.7727149999998
 20
23.80941800000008
 30
0.0
  0
VERTEX
  5
2FED
330
2FE1
100
AcDbEntity
  8
0
100
AcDbVertex
100
AcDb2dVertex
 10
-473.4043869999999
 20
17.64233400000003
 30
0.0
  0
VERTEX
  5
2FEE
330
2FE1
100
AcDbEntity
  8
0
100
AcDbVertex
100
AcDb2dVertex
 10
-473.8413319999999
 20
11.08013900000006
 30
0.0
  0
VERTEX
  5
2FEF
330
2FE1
100
AcDbEntity
  8
0
100
AcDbVertex
100
AcDb2dVertex
 10
-474.0391939999999
 20
4.156311000000101
 30
0.0
  0
VERTEX
  5
2FF0
330
2FE1
100
AcDbEntity
  8
0
100
AcDbVertex
100
AcDb2dVertex
 10
-473.9536129999999
 20
-3.095672999999948
 30
0.0
  0
VERTEX
  5
2FF1
330
2FE1
100
AcDbEntity
  8
0
100
AcDbVertex
100
AcDb2dVertex
 10
-473.5402309999999
 20
-10.64239499999994
 30
0.0
  0
VERTEX
  5
2FF2
330
2FE1
100
AcDbEntity
  8
0
100
AcDbVertex
100
AcDb2dVertex
 10
-472.7546889999998
 20
-18.45036299999995
 30
0.0
  0
VERTEX
  5
2FF3
330
2FE1
100
AcDbEntity
  8
0
100
AcDbVertex
100
AcDb2dVertex
 10
-471.5526299999999
 20
-26.48612999999995
 30
0.0
  0
VERTEX
  5
2FF4
330
2FE1
100
AcDbEntity
  8
0
100
AcDbVertex
100
AcDb2dVertex
 10
-469.8896949999998
 20
-34.71623199999994
 30
0.0
  0
VERTEX
  5
2FF5
330
2FE1
100
AcDbEntity
  8
0
100
AcDbVertex
100
AcDb2dVertex
 10
-467.7215259999999
 20
-43.10722399999995
 30
0.0
  0
VERTEX
  5
2FF6
330
2FE1
100
AcDbEntity
  8
0
100
AcDbVertex
100
AcDb2dVertex
 10
-465.0037629999999
 20
-51.62564099999994
 30
0.0
  0
SEQEND
  5
2FF7
330
2FE1
100
AcDbEntity
  8
0
  0
LINE
  5
2FFA
330
1F
100
AcDbEntity
  8
0
100
AcDbLine
 10
-564.7477339999999
 20
-125.0546949999999
 30
0.0
 11
-516.6300269999999
 21
-63.90481599999995
 31
0.0
  0
LINE
  5
2FFE
330
1F
100
AcDbEntity
  8
0
100
AcDbLine
 10
-616.8754879999998
 20
-78.94200099999998
 30
0.0
 11
-551.7158729999998
 21
-46.86352499999995
 31
0.0
  0
LINE
  5
2FFF
330
1F
100
AcDbEntity
  8
0
100
AcDbLine
 10
-461.4952089999999
 20
-41.85113499999997
 30
0.0
 11
-397.2896039999998
 21
-41.85113499999997
 31
0.0
  0
LINE
  5
3018
330
1F
100
AcDbEntity
  8
0
100
AcDbLine
 10
-564.7477339999999
 20
124.556
 30
0.0
 11
-516.6300269999999
 21
63.40548700000002
 31
0.0
  0
LINE
  5
301C
330
1F
100
AcDbEntity
  8
0
100
AcDbLine
 10
-616.8754879999998
 20
78.442688
 30
0.0
 11
-551.7158729999998
 21
46.36422700000006
 31
0.0
  0
LINE
  5
301D
330
1F
100
AcDbEntity
  8
0
100
AcDbLine
 10
-343.2061079999999
 20
126.560699
 30
0.0
 11
-372.2769009999999
 21
77.44094800000008
 31
0.0
  0
LINE
  5
301E
330
1F
100
AcDbEntity
  8
0
100
AcDbLine
 10
-461.4952089999999
 20
45.36184700000004
 30
0.0
 11
-397.2896039999998
 21
45.36184700000004
 31
0.0
  0
LINE
  5
3036
330
1F
100
AcDbEntity
  8
0
100
AcDbLine
 10
-377.2896039999998
 20
-21.85113499999997
 30
0.0
 11
-377.2896039999998
 21
25.36184700000004
 31
0.0
  0
POLYLINE
  5
3038
330
1F
100
AcDbEntity
  8
0
100
AcDb2dPolyline
 66
     1
 10
0.0
 20
0.0
 30
0.0
  0
VERTEX
  5
3039
330
3038
100
AcDbEntity
  8
0
100
AcDbVertex
100
AcDb2dVertex
 10
-129.1928099999999
 20
-26.21592699999994
 30
0.0
  0
VERTEX
  5
303A
330
3038
100
AcDbEntity
  8
0
100
AcDbVertex
100
AcDb2dVertex
 10
-129.1293029999999
 20
-26.35032699999994
 30
0.0
  0
VERTEX
  5
303B
330
3038
100
AcDbEntity
  8
0
100
AcDbVertex
100
AcDb2dVertex
 10
-126.5685729999999
 20
-31.26844799999995
 30
0.0
  0
VERTEX
  5
303C
330
3038
100
AcDbEntity
  8
0
100
AcDbVertex
100
AcDb2dVertex
 10
-123.5948179999998
 20
-35.94511399999996
 30
0.0
  0
VERTEX
  5
303D
330
3038
100
AcDbEntity
  8
0
100
AcDbVertex
100
AcDb2dVertex
 10
-120.2143859999998
 20
-40.34220899999994
 30
0.0
  0
VERTEX
  5
303E
330
3038
100
AcDbEntity
  8
0
100
AcDbVertex
100
AcDb2dVertex
 10
-116.4718009999999
 20
-44.42793299999991
 30
0.0
  0
VERTEX
  5
303F
330
3038
100
AcDbEntity
  8
0
100
AcDbVertex
100
AcDb2dVertex
 10
-112.3860469999999
 20
-48.17054799999997
 30
0.0
  0
VERTEX
  5
3040
330
3038
100
AcDbEntity
  8
0
100
AcDbVertex
100
AcDb2dVertex
 10
-107.9889829999999
 20
-51.55096399999994
 30
0.0
  0
VERTEX
  5
3041
330
3038
100
AcDbEntity
  8
0
100
AcDbVertex
100
AcDb2dVertex
 10
-103.3122859999998
 20
-54.52471899999998
 30
0.0
  0
VERTEX
  5
3042
330
3038
100
AcDbEntity
  8
0
100
AcDbVertex
100
AcDb2dVertex
 10
-98.39416499999993
 20
-57.08544899999996
 30
0.0
  0
VERTEX
  5
3043
330
3038
100
AcDbEntity
  8
0
100
AcDbVertex
100
AcDb2dVertex
 10
-93.27270499999986
 20
-59.20774799999995
 30
0.0
  0
VERTEX
  5
3044
330
3038
100
AcDbEntity
  8
0
100
AcDbVertex
100
AcDb2dVertex
 10
-87.98605299999985
 20
-60.87252799999996
 30
0.0
  0
VERTEX
  5
3045
330
3038
100
AcDbEntity
  8
0
100
AcDbVertex
100
AcDb2dVertex
 10
-82.57229599999982
 20
-62.07347099999996
 30
0.0
  0
VERTEX
  5
3046
330
3038
100
AcDbEntity
  8
0
100
AcDbVertex
100
AcDb2dVertex
 10
-77.08227499999998
 20
-62.79785199999995
 30
0.0
  0
VERTEX
  5
3047
330
3038
100
AcDbEntity
  8
0
100
AcDbVertex
100
AcDb2dVertex
 10
-71.54144199999996
 20
-63.03930699999998
 30
0.0
  0
VERTEX
  5
3048
330
3038
100
AcDbEntity
  8
0
100
AcDbVertex
100
AcDb2dVertex
 10
-66.00061000000005
 20
-62.79785199999995
 30
0.0
  0
VERTEX
  5
3049
330
3038
100
AcDbEntity
  8
0
100
AcDbVertex
100
AcDb2dVertex
 10
-60.51058899999998
 20
-62.07347099999996
 30
0.0
  0
VERTEX
  5
304A
330
3038
100
AcDbEntity
  8
0
100
AcDbVertex
100
AcDb2dVertex
 10
-55.09683199999995
 20
-60.87252799999996
 30
0.0
  0
VERTEX
  5
304B
330
3038
100
AcDbEntity
  8
0
100
AcDbVertex
100
AcDb2dVertex
 10
-49.81017999999995
 20
-59.20774799999995
 30
0.0
  0
VERTEX
  5
304C
330
3038
100
AcDbEntity
  8
0
100
AcDbVertex
100
AcDb2dVertex
 10
-44.68871999999987
 20
-57.08544899999996
 30
0.0
  0
VERTEX
  5
304D
330
3038
100
AcDbEntity
  8
0
100
AcDbVertex
100
AcDb2dVertex
 10
-39.77059899999995
 20
-54.52471899999998
 30
0.0
  0
VERTEX
  5
304E
330
3038
100
AcDbEntity
  8
0
100
AcDbVertex
100
AcDb2dVertex
 10
-35.09390199999984
 20
-51.55096399999994
 30
0.0
  0
VERTEX
  5
304F
330
3038
100
AcDbEntity
  8
0
100
AcDbVertex
100
AcDb2dVertex
 10
-30.69683799999984
 20
-48.17054799999997
 30
0.0
  0
VERTEX
  5
3050
330
3038
100
AcDbEntity
  8
0
100
AcDbVertex
100
AcDb2dVertex
 10
-26.61108399999989
 20
-44.42793299999991
 30
0.0
  0
VERTEX
  5
3051
330
3038
100
AcDbEntity
  8
0
100
AcDbVertex
100
AcDb2dVertex
 10
-22.86849899999993
 20
-40.34220899999994
 30
0.0
  0
VERTEX
  5
3052
330
3038
100
AcDbEntity
  8
0
100
AcDbVertex
100
AcDb2dVertex
 10
-19.48806699999977
 20
-35.94511399999996
 30
0.0
  0
VERTEX
  5
3053
330
3038
100
AcDbEntity
  8
0
100
AcDbVertex
100
AcDb2dVertex
 10
-16.51431199999979
 20
-31.26844799999995
 30
0.0
  0
VERTEX
  5
3054
330
3038
100
AcDbEntity
  8
0
100
AcDbVertex
100
AcDb2dVertex
 10
-13.95358199999987
 20
-26.35032699999994
 30
0.0
  0
VERTEX
  5
3055
330
3038
100
AcDbEntity
  8
0
100
AcDbVertex
100
AcDb2dVertex
 10
-11.83129799999983
 20
-21.22885099999994
 30
0.0
  0
VERTEX
  5
3056
330
3038
100
AcDbEntity
  8
0
100
AcDbVertex
100
AcDb2dVertex
 10
-10.16650299999992
 20
-15.94218499999996
 30
0.0
  0
VERTEX
  5
3057
330
3038
100
AcDbEntity
  8
0
100
AcDbVertex
100
AcDb2dVertex
 10
-8.96554500000002
 20
-10.52842699999994
 30
0.0
  0
VERTEX
  5
3058
330
3038
100
AcDbEntity
  8
0
100
AcDbVertex
100
AcDb2dVertex
 10
-8.241179999999985
 20
-5.03842199999994
 30
0.0
  0
VERTEX
  5
3059
330
3038
100
AcDbEntity
  8
0
100
AcDbVertex
100
AcDb2dVertex
 10
-7.999724999999898
 20
0.5024110000000804
 30
0.0
  0
VERTEX
  5
305A
330
3038
100
AcDbEntity
  8
0
100
AcDbVertex
100
AcDb2dVertex
 10
-7.999724999999898
 20
0.5024110000000804
 30
0.0
  0
SEQEND
  5
305B
330
3038
100
AcDbEntity
  8
0
  0
POLYLINE
  5
305C
330
1F
100
AcDbEntity
  8
0
100
AcDb2dPolyline
 66
     1
 10
0.0
 20
0.0
 30
0.0
 70
     1
  0
VERTEX
  5
305D
330
305C
100
AcDbEntity
  8
0
100
AcDbVertex
100
AcDb2dVertex
 10
-17.9838249999998
 20
0.0000000000000284
 30
0.0
  0
VERTEX
  5
305E
330
305C
100
AcDbEntity
  8
0
100
AcDbVertex
100
AcDb2dVertex
 10
-18.18542399999978
 20
4.62652600000004
 30
0.0
  0
VERTEX
  5
305F
330
305C
100
AcDbEntity
  8
0
100
AcDbVertex
100
AcDb2dVertex
 10
-18.79028299999982
 20
9.210602000000022
 30
0.0
  0
VERTEX
  5
3060
330
305C
100
AcDbEntity
  8
0
100
AcDbVertex
100
AcDb2dVertex
 10
-19.79305999999997
 20
13.73101800000009
 30
0.0
  0
VERTEX
  5
3061
330
305C
100
AcDbEntity
  8
0
100
AcDbVertex
100
AcDb2dVertex
 10
-21.18313599999988
 20
18.14530900000008
 30
0.0
  0
VERTEX
  5
3062
330
305C
100
AcDbEntity
  8
0
100
AcDbVertex
100
AcDb2dVertex
 10
-22.95519999999988
 20
22.42166100000011
 30
0.0
  0
VERTEX
  5
3063
330
305C
100
AcDbEntity
  8
0
100
AcDbVertex
100
AcDb2dVertex
 10
-25.09338299999991
 20
26.52822900000004
 30
0.0
  0
VERTEX
  5
3064
330
305C
100
AcDbEntity
  8
0
100
AcDbVertex
100
AcDb2dVertex
 10
-27.57644600000003
 20
30.43319700000009
 30
0.0
  0
VERTEX
  5
3065
330
305C
100
AcDbEntity
  8
0
100
AcDbVertex
100
AcDb2dVertex
 10
-30.39904699999989
 20
34.10467500000007
 30
0.0
  0
VERTEX
  5
3066
330
305C
100
AcDbEntity
  8
0
100
AcDbVertex
100
AcDb2dVertex
 10
-33.52407799999992
 20
37.51620500000004
 30
0.0
  0
VERTEX
  5
3067
330
305C
100
AcDbEntity
  8
0
100
AcDbVertex
100
AcDb2dVertex
 10
-36.93560699999989
 20
40.64123500000007
 30
0.0
  0
VERTEX
  5
3068
330
305C
100
AcDbEntity
  8
0
100
AcDbVertex
100
AcDb2dVertex
 10
-40.60708599999998
 20
43.46383700000004
 30
0.0
  0
VERTEX
  5
3069
330
305C
100
AcDbEntity
  8
0
100
AcDbVertex
100
AcDb2dVertex
 10
-44.5120539999998
 20
45.94689900000005
 30
0.0
  0
VERTEX
  5
306A
330
305C
100
AcDbEntity
  8
0
100
AcDbVertex
100
AcDb2dVertex
 10
-48.61862099999985
 20
48.08508300000008
 30
0.0
  0
VERTEX
  5
306B
330
305C
100
AcDbEntity
  8
0
100
AcDbVertex
100
AcDb2dVertex
 10
-52.8949889999999
 20
49.85714700000008
 30
0.0
  0
VERTEX
  5
306C
330
305C
100
AcDbEntity
  8
0
100
AcDbVertex
100
AcDb2dVertex
 10
-57.30926499999987
 20
51.24722299999999
 30
0.0
  0
VERTEX
  5
306D
330
305C
100
AcDbEntity
  8
0
100
AcDbVertex
100
AcDb2dVertex
 10
-61.82968099999993
 20
52.25000000000003
 30
0.0
  0
VERTEX
  5
306E
330
305C
100
AcDbEntity
  8
0
100
AcDbVertex
100
AcDb2dVertex
 10
-66.4137569999998
 20
52.85485800000007
 30
0.0
  0
VERTEX
  5
306F
330
305C
100
AcDbEntity
  8
0
100
AcDbVertex
100
AcDb2dVertex
 10
-71.04028299999981
 20
53.05645700000005
 30
0.0
  0
VERTEX
  5
3070
330
305C
100
AcDbEntity
  8
0
100
AcDbVertex
100
AcDb2dVertex
 10
-75.66680899999983
 20
52.85485800000007
 30
0.0
  0
VERTEX
  5
3071
330
305C
100
AcDbEntity
  8
0
100
AcDbVertex
100
AcDb2dVertex
 10
-80.25088499999993
 20
52.25000000000003
 30
0.0
  0
VERTEX
  5
3072
330
305C
100
AcDbEntity
  8
0
100
AcDbVertex
100
AcDb2dVertex
 10
-84.77130099999987
 20
51.24722299999999
 30
0.0
  0
VERTEX
  5
3073
330
305C
100
AcDbEntity
  8
0
100
AcDbVertex
100
AcDb2dVertex
 10
-89.18557699999997
 20
49.85714700000008
 30
0.0
  0
VERTEX
  5
3074
330
305C
100
AcDbEntity
  8
0
100
AcDbVertex
100
AcDb2dVertex
 10
-93.46194399999991
 20
48.08508300000008
 30
0.0
  0
VERTEX
  5
3075
330
305C
100
AcDbEntity
  8
0
100
AcDbVertex
100
AcDb2dVertex
 10
-97.56851199999994
 20
45.94689900000005
 30
0.0
  0
VERTEX
  5
3076
330
305C
100
AcDbEntity
  8
0
100
AcDbVertex
100
AcDb2dVertex
 10
-101.4734799999999
 20
43.46383700000004
 30
0.0
  0
VERTEX
  5
3077
330
305C
100
AcDbEntity
  8
0
100
AcDbVertex
100
AcDb2dVertex
 10
-105.1449579999998
 20
40.64123500000007
 30
0.0
  0
VERTEX
  5
3078
330
305C
100
AcDbEntity
  8
0
100
AcDbVertex
100
AcDb2dVertex
 10
-108.5564879999999
 20
37.51620500000004
 30
0.0
  0
VERTEX
  5
3079
330
305C
100
AcDbEntity
  8
0
100
AcDbVertex
100
AcDb2dVertex
 10
-111.6815179999999
 20
34.10467500000007
 30
0.0
  0
VERTEX
  5
307A
330
305C
100
AcDbEntity
  8
0
100
AcDbVertex
100
AcDb2dVertex
 10
-114.5041189999999
 20
30.43319700000009
 30
0.0
  0
VERTEX
  5
307B
330
305C
100
AcDbEntity
  8
0
100
AcDbVertex
100
AcDb2dVertex
 10
-116.9871819999998
 20
26.52822900000004
 30
0.0
  0
VERTEX
  5
307C
330
305C
100
AcDbEntity
  8
0
100
AcDbVertex
100
AcDb2dVertex
 10
-119.125366
 20
22.42166100000011
 30
0.0
  0
VERTEX
  5
307D
330
305C
100
AcDbEntity
  8
0
100
AcDbVertex
100
AcDb2dVertex
 10
-120.8974299999999
 20
18.14530900000008
 30
0.0
  0
VERTEX
  5
307E
330
305C
100
AcDbEntity
  8
0
100
AcDbVertex
100
AcDb2dVertex
 10
-122.2875059999999
 20
13.73101800000009
 30
0.0
  0
VERTEX
  5
307F
330
305C
100
AcDbEntity
  8
0
100
AcDbVertex
100
AcDb2dVertex
 10
-123.2902829999999
 20
9.210602000000022
 30
0.0
  0
VERTEX
  5
3080
330
305C
100
AcDbEntity
  8
0
100
AcDbVertex
100
AcDb2dVertex
 10
-123.8951409999999
 20
4.62652600000004
 30
0.0
  0
VERTEX
  5
3081
330
305C
100
AcDbEntity
  8
0
100
AcDbVertex
100
AcDb2dVertex
 10
-124.0967399999999
 20
0.0000000000000284
 30
0.0
  0
VERTEX
  5
3082
330
305C
100
AcDbEntity
  8
0
100
AcDbVertex
100
AcDb2dVertex
 10
-123.8951409999999
 20
-4.626525999999927
 30
0.0
  0
VERTEX
  5
3083
330
305C
100
AcDbEntity
  8
0
100
AcDbVertex
100
AcDb2dVertex
 10
-123.2902829999999
 20
-9.210601999999965
 30
0.0
  0
VERTEX
  5
3084
330
305C
100
AcDbEntity
  8
0
100
AcDbVertex
100
AcDb2dVertex
 10
-122.2875059999999
 20
-13.73101799999992
 30
0.0
  0
VERTEX
  5
3085
330
305C
100
AcDbEntity
  8
0
100
AcDbVertex
100
AcDb2dVertex
 10
-120.8974299999999
 20
-18.14530999999997
 30
0.0
  0
VERTEX
  5
3086
330
305C
100
AcDbEntity
  8
0
100
AcDbVertex
100
AcDb2dVertex
 10
-119.125366
 20
-22.42166099999995
 30
0.0
  0
VERTEX
  5
3087
330
305C
100
AcDbEntity
  8
0
100
AcDbVertex
100
AcDb2dVertex
 10
-116.9871819999998
 20
-26.52822899999995
 30
0.0
  0
VERTEX
  5
3088
330
305C
100
AcDbEntity
  8
0
100
AcDbVertex
100
AcDb2dVertex
 10
-114.5041189999999
 20
-30.43318199999993
 30
0.0
  0
VERTEX
  5
3089
330
305C
100
AcDbEntity
  8
0
100
AcDbVertex
100
AcDb2dVertex
 10
-111.6815179999999
 20
-34.10469099999995
 30
0.0
  0
VERTEX
  5
308A
330
305C
100
AcDbEntity
  8
0
100
AcDbVertex
100
AcDb2dVertex
 10
-108.5564879999999
 20
-37.51621999999995
 30
0.0
  0
VERTEX
  5
308B
330
305C
100
AcDbEntity
  8
0
100
AcDbVertex
100
AcDb2dVertex
 10
-105.1449579999998
 20
-40.64125099999992
 30
0.0
  0
VERTEX
  5
308C
330
305C
100
AcDbEntity
  8
0
100
AcDbVertex
100
AcDb2dVertex
 10
-101.4734799999999
 20
-43.46385199999994
 30
0.0
  0
VERTEX
  5
308D
330
305C
100
AcDbEntity
  8
0
100
AcDbVertex
100
AcDb2dVertex
 10
-97.56851199999994
 20
-45.946899
 30
0.0
  0
VERTEX
  5
308E
330
305C
100
AcDbEntity
  8
0
100
AcDbVertex
100
AcDb2dVertex
 10
-93.46194399999991
 20
-48.08506799999995
 30
0.0
  0
VERTEX
  5
308F
330
305C
100
AcDbEntity
  8
0
100
AcDbVertex
100
AcDb2dVertex
 10
-89.18557699999997
 20
-49.85714699999997
 30
0.0
  0
VERTEX
  5
3090
330
305C
100
AcDbEntity
  8
0
100
AcDbVertex
100
AcDb2dVertex
 10
-84.77130099999987
 20
-51.24723799999995
 30
0.0
  0
VERTEX
  5
3091
330
305C
100
AcDbEntity
  8
0
100
AcDbVertex
100
AcDb2dVertex
 10
-80.25088499999993
 20
-52.24999999999997
 30
0.0
  0
VERTEX
  5
3092
330
305C
100
AcDbEntity
  8
0
100
AcDbVertex
100
AcDb2dVertex
 10
-75.66680899999983
 20
-52.85484299999993
 30
0.0
  0
VERTEX
  5
3093
330
305C
100
AcDbEntity
  8
0
100
AcDbVertex
100
AcDb2dVertex
 10
-71.04028299999981
 20
-53.05645799999993
 30
0.0
  0
VERTEX
  5
3094
330
305C
100
AcDbEntity
  8
0
100
AcDbVertex
100
AcDb2dVertex
 10
-66.4137569999998
 20
-52.85484299999993
 30
0.0
  0
VERTEX
  5
3095
330
305C
100
AcDbEntity
  8
0
100
AcDbVertex
100
AcDb2dVertex
 10
-61.82968099999993
 20
-52.24999999999997
 30
0.0
  0
VERTEX
  5
3096
330
305C
100
AcDbEntity
  8
0
100
AcDbVertex
100
AcDb2dVertex
 10
-57.30926499999987
 20
-51.24723799999995
 30
0.0
  0
VERTEX
  5
3097
330
305C
100
AcDbEntity
  8
0
100
AcDbVertex
100
AcDb2dVertex
 10
-52.8949889999999
 20
-49.85714699999997
 30
0.0
  0
VERTEX
  5
3098
330
305C
100
AcDbEntity
  8
0
100
AcDbVertex
100
AcDb2dVertex
 10
-48.61862099999985
 20
-48.08506799999995
 30
0.0
  0
VERTEX
  5
3099
330
305C
100
AcDbEntity
  8
0
100
AcDbVertex
100
AcDb2dVertex
 10
-44.5120539999998
 20
-45.946899
 30
0.0
  0
VERTEX
  5
309A
330
305C
100
AcDbEntity
  8
0
100
AcDbVertex
100
AcDb2dVertex
 10
-40.60708599999998
 20
-43.46385199999994
 30
0.0
  0
VERTEX
  5
309B
330
305C
100
AcDbEntity
  8
0
100
AcDbVertex
100
AcDb2dVertex
 10
-36.93560699999989
 20
-40.64125099999992
 30
0.0
  0
VERTEX
  5
309C
330
305C
100
AcDbEntity
  8
0
100
AcDbVertex
100
AcDb2dVertex
 10
-33.52407799999992
 20
-37.51621999999995
 30
0.0
  0
VERTEX
  5
309D
330
305C
100
AcDbEntity
  8
0
100
AcDbVertex
100
AcDb2dVertex
 10
-30.39904699999989
 20
-34.10469099999995
 30
0.0
  0
VERTEX
  5
309E
330
305C
100
AcDbEntity
  8
0
100
AcDbVertex
100
AcDb2dVertex
 10
-27.57644600000003
 20
-30.43318199999993
 30
0.0
  0
VERTEX
  5
309F
330
305C
100
AcDbEntity
  8
0
100
AcDbVertex
100
AcDb2dVertex
 10
-25.09338299999991
 20
-26.52822899999995
 30
0.0
  0
VERTEX
  5
30A0
330
305C
100
AcDbEntity
  8
0
100
AcDbVertex
100
AcDb2dVertex
 10
-22.95519999999988
 20
-22.42166099999995
 30
0.0
  0
VERTEX
  5
30A1
330
305C
100
AcDbEntity
  8
0
100
AcDbVertex
100
AcDb2dVertex
 10
-21.18313599999988
 20
-18.14530999999997
 30
0.0
  0
VERTEX
  5
30A2
330
305C
100
AcDbEntity
  8
0
100
AcDbVertex
100
AcDb2dVertex
 10
-19.79305999999997
 20
-13.73101799999992
 30
0.0
  0
VERTEX
  5
30A3
330
305C
100
AcDbEntity
  8
0
100
AcDbVertex
100
AcDb2dVertex
 10
-18.79028299999982
 20
-9.210601999999965
 30
0.0
  0
VERTEX
  5
30A4
330
305C
100
AcDbEntity
  8
0
100
AcDbVertex
100
AcDb2dVertex
 10
-18.18542399999978
 20
-4.626525999999927
 30
0.0
  0
VERTEX
  5
30A5
330
305C
100
AcDbEntity
  8
0
100
AcDbVertex
100
AcDb2dVertex
 10
-17.9838249999998
 20
0.0000000000000284
 30
0.0
  0
VERTEX
  5
30A6
330
305C
100
AcDbEntity
  8
0
100
AcDbVertex
100
AcDb2dVertex
 10
-17.9838249999998
 20
0.0000000000000284
 30
0.0
  0
SEQEND
  5
30A7
330
305C
100
AcDbEntity
  8
0
  0
POLYLINE
  5
30A8
330
1F
100
AcDbEntity
  8
0
100
AcDb2dPolyline
 66
     1
 10
0.0
 20
0.0
 30
0.0
 70
     1
  0
VERTEX
  5
30A9
330
30A8
100
AcDbEntity
  8
0
100
AcDbVertex
100
AcDb2dVertex
 10
-25.74746699999991
 20
-0.5005649999999094
 30
0.0
  0
VERTEX
  5
30AA
330
30A8
100
AcDbEntity
  8
0
100
AcDbVertex
100
AcDb2dVertex
 10
-25.92147799999998
 20
3.492676000000102
 30
0.0
  0
VERTEX
  5
30AB
330
30A8
100
AcDbEntity
  8
0
100
AcDbVertex
100
AcDb2dVertex
 10
-26.44354199999998
 20
7.449264000000056
 30
0.0
  0
VERTEX
  5
30AC
330
30A8
100
AcDbEntity
  8
0
100
AcDbVertex
100
AcDb2dVertex
 10
-27.30905099999996
 20
11.35092200000005
 30
0.0
  0
VERTEX
  5
30AD
330
30A8
100
AcDbEntity
  8
0
100
AcDbVertex
100
AcDb2dVertex
 10
-28.50884999999994
 20
15.16098000000008
 30
0.0
  0
VERTEX
  5
30AE
330
30A8
100
AcDbEntity
  8
0
100
AcDbVertex
100
AcDb2dVertex
 10
-30.03835999999978
 20
18.85197400000007
 30
0.0
  0
VERTEX
  5
30AF
330
30A8
100
AcDbEntity
  8
0
100
AcDbVertex
100
AcDb2dVertex
 10
-31.88384999999994
 20
22.39642300000006
 30
0.0
  0
VERTEX
  5
30B0
330
30A8
100
AcDbEntity
  8
0
100
AcDbVertex
100
AcDb2dVertex
 10
-34.02700800000002
 20
25.76686100000009
 30
0.0
  0
VERTEX
  5
30B1
330
30A8
100
AcDbEntity
  8
0
100
AcDbVertex
100
AcDb2dVertex
 10
-36.463256
 20
28.93580600000004
 30
0.0
  0
VERTEX
  5
30B2
330
30A8
100
AcDbEntity
  8
0
100
AcDbVertex
100
AcDb2dVertex
 10
-39.1605219999999
 20
31.88034100000007
 30
0.0
  0
VERTEX
  5
30B3
330
30A8
100
AcDbEntity
  8
0
100
AcDbVertex
100
AcDb2dVertex
 10
-42.10507199999983
 20
34.57760600000009
 30
0.0
  0
VERTEX
  5
30B4
330
30A8
100
AcDbEntity
  8
0
100
AcDbVertex
100
AcDb2dVertex
 10
-45.27401699999995
 20
37.01385500000006
 30
0.0
  0
VERTEX
  5
30B5
330
30A8
100
AcDbEntity
  8
0
100
AcDbVertex
100
AcDb2dVertex
 10
-48.64443899999992
 20
39.15701300000004
 30
0.0
  0
VERTEX
  5
30B6
330
30A8
100
AcDbEntity
  8
0
100
AcDbVertex
100
AcDb2dVertex
 10
-52.18890299999976
 20
41.00250200000007
 30
0.0
  0
VERTEX
  5
30B7
330
30A8
100
AcDbEntity
  8
0
100
AcDbVertex
100
AcDb2dVertex
 10
-55.87991299999976
 20
42.53204300000007
 30
0.0
  0
VERTEX
  5
30B8
330
30A8
100
AcDbEntity
  8
0
100
AcDbVertex
100
AcDb2dVertex
 10
-59.68997099999978
 20
43.73184200000006
 30
0.0
  0
VERTEX
  5
30B9
330
30A8
100
AcDbEntity
  8
0
100
AcDbVertex
100
AcDb2dVertex
 10
-63.59161299999982
 20
44.59735100000003
 30
0.0
  0
VERTEX
  5
30BA
330
30A8
100
AcDbEntity
  8
0
100
AcDbVertex
100
AcDb2dVertex
 10
-67.54821700000002
 20
45.11938499999999
 30
0.0
  0
VERTEX
  5
30BB
330
30A8
100
AcDbEntity
  8
0
100
AcDbVertex
100
AcDb2dVertex
 10
-71.54144199999996
 20
45.29342600000009
 30
0.0
  0
VERTEX
  5
30BC
330
30A8
100
AcDbEntity
  8
0
100
AcDbVertex
100
AcDb2dVertex
 10
-75.53466799999978
 20
45.11938499999999
 30
0.0
  0
VERTEX
  5
30BD
330
30A8
100
AcDbEntity
  8
0
100
AcDbVertex
100
AcDb2dVertex
 10
-79.49127199999987
 20
44.59735100000003
 30
0.0
  0
VERTEX
  5
30BE
330
30A8
100
AcDbEntity
  8
0
100
AcDbVertex
100
AcDb2dVertex
 10
-83.3929129999999
 20
43.73184200000006
 30
0.0
  0
VERTEX
  5
30BF
330
30A8
100
AcDbEntity
  8
0
100
AcDbVertex
100
AcDb2dVertex
 10
-87.20297199999981
 20
42.53204300000007
 30
0.0
  0
VERTEX
  5
30C0
330
30A8
100
AcDbEntity
  8
0
100
AcDbVertex
100
AcDb2dVertex
 10
-90.89398199999981
 20
41.00250200000007
 30
0.0
  0
VERTEX
  5
30C1
330
30A8
100
AcDbEntity
  8
0
100
AcDbVertex
100
AcDb2dVertex
 10
-94.43844599999989
 20
39.15701300000004
 30
0.0
  0
VERTEX
  5
30C2
330
30A8
100
AcDbEntity
  8
0
100
AcDbVertex
100
AcDb2dVertex
 10
-97.80886799999985
 20
37.01385500000006
 30
0.0
  0
VERTEX
  5
30C3
330
30A8
100
AcDbEntity
  8
0
100
AcDbVertex
100
AcDb2dVertex
 10
-100.9778129999999
 20
34.57760600000009
 30
0.0
  0
VERTEX
  5
30C4
330
30A8
100
AcDbEntity
  8
0
100
AcDbVertex
100
AcDb2dVertex
 10
-103.9223629999999
 20
31.88034100000007
 30
0.0
  0
VERTEX
  5
30C5
330
30A8
100
AcDbEntity
  8
0
100
AcDbVertex
100
AcDb2dVertex
 10
-106.6196279999999
 20
28.93580600000004
 30
0.0
  0
VERTEX
  5
30C6
330
30A8
100
AcDbEntity
  8
0
100
AcDbVertex
100
AcDb2dVertex
 10
-109.0558769999999
 20
25.76686100000009
 30
0.0
  0
VERTEX
  5
30C7
330
30A8
100
AcDbEntity
  8
0
100
AcDbVertex
100
AcDb2dVertex
 10
-111.1990349999999
 20
22.39642300000006
 30
0.0
  0
VERTEX
  5
30C8
330
30A8
100
AcDbEntity
  8
0
100
AcDbVertex
100
AcDb2dVertex
 10
-113.0445249999999
 20
18.85197400000007
 30
0.0
  0
VERTEX
  5
30C9
330
30A8
100
AcDbEntity
  8
0
100
AcDbVertex
100
AcDb2dVertex
 10
-114.5740349999998
 20
15.16098000000008
 30
0.0
  0
VERTEX
  5
30CA
330
30A8
100
AcDbEntity
  8
0
100
AcDbVertex
100
AcDb2dVertex
 10
-115.7738339999998
 20
11.35092200000005
 30
0.0
  0
VERTEX
  5
30CB
330
30A8
100
AcDbEntity
  8
0
100
AcDbVertex
100
AcDb2dVertex
 10
-116.6393429999998
 20
7.449264000000056
 30
0.0
  0
VERTEX
  5
30CC
330
30A8
100
AcDbEntity
  8
0
100
AcDbVertex
100
AcDb2dVertex
 10
-117.1614069999998
 20
3.492676000000102
 30
0.0
  0
VERTEX
  5
30CD
330
30A8
100
AcDbEntity
  8
0
100
AcDbVertex
100
AcDb2dVertex
 10
-117.3354179999999
 20
-0.5005649999999094
 30
0.0
  0
VERTEX
  5
30CE
330
30A8
100
AcDbEntity
  8
0
100
AcDbVertex
100
AcDb2dVertex
 10
-117.1614069999998
 20
-4.493804999999923
 30
0.0
  0
VERTEX
  5
30CF
330
30A8
100
AcDbEntity
  8
0
100
AcDbVertex
100
AcDb2dVertex
 10
-116.6393429999998
 20
-8.450393999999931
 30
0.0
  0
VERTEX
  5
30D0
330
30A8
100
AcDbEntity
  8
0
100
AcDbVertex
100
AcDb2dVertex
 10
-115.7738339999998
 20
-12.35205099999993
 30
0.0
  0
VERTEX
  5
30D1
330
30A8
100
AcDbEntity
  8
0
100
AcDbVertex
100
AcDb2dVertex
 10
-114.5740349999998
 20
-16.16210899999996
 30
0.0
  0
VERTEX
  5
30D2
330
30A8
100
AcDbEntity
  8
0
100
AcDbVertex
100
AcDb2dVertex
 10
-113.0445249999999
 20
-19.85310399999994
 30
0.0
  0
VERTEX
  5
30D3
330
30A8
100
AcDbEntity
  8
0
100
AcDbVertex
100
AcDb2dVertex
 10
-111.1990349999999
 20
-23.39755299999993
 30
0.0
  0
VERTEX
  5
30D4
330
30A8
100
AcDbEntity
  8
0
100
AcDbVertex
100
AcDb2dVertex
 10
-109.0558769999999
 20
-26.76798999999994
 30
0.0
  0
VERTEX
  5
30D5
330
30A8
100
AcDbEntity
  8
0
100
AcDbVertex
100
AcDb2dVertex
 10
-106.6196279999999
 20
-29.93693499999995
 30
0.0
  0
VERTEX
  5
30D6
330
30A8
100
AcDbEntity
  8
0
100
AcDbVertex
100
AcDb2dVertex
 10
-103.9223629999999
 20
-32.88148499999994
 30
0.0
  0
VERTEX
  5
30D7
330
30A8
100
AcDbEntity
  8
0
100
AcDbVertex
100
AcDb2dVertex
 10
-100.9778129999999
 20
-35.57875099999993
 30
0.0
  0
VERTEX
  5
30D8
330
30A8
100
AcDbEntity
  8
0
100
AcDbVertex
100
AcDb2dVertex
 10
-97.80886799999985
 20
-38.01498399999994
 30
0.0
  0
VERTEX
  5
30D9
330
30A8
100
AcDbEntity
  8
0
100
AcDbVertex
100
AcDb2dVertex
 10
-94.43844599999989
 20
-40.15814199999996
 30
0.0
  0
VERTEX
  5
30DA
330
30A8
100
AcDbEntity
  8
0
100
AcDbVertex
100
AcDb2dVertex
 10
-90.89398199999981
 20
-42.00364699999997
 30
0.0
  0
VERTEX
  5
30DB
330
30A8
100
AcDbEntity
  8
0
100
AcDbVertex
100
AcDb2dVertex
 10
-87.20297199999981
 20
-43.53315699999993
 30
0.0
  0
VERTEX
  5
30DC
330
30A8
100
AcDbEntity
  8
0
100
AcDbVertex
100
AcDb2dVertex
 10
-83.3929129999999
 20
-44.73297099999999
 30
0.0
  0
VERTEX
  5
30DD
330
30A8
100
AcDbEntity
  8
0
100
AcDbVertex
100
AcDb2dVertex
 10
-79.49127199999987
 20
-45.59846499999994
 30
0.0
  0
VERTEX
  5
30DE
330
30A8
100
AcDbEntity
  8
0
100
AcDbVertex
100
AcDb2dVertex
 10
-75.53466799999978
 20
-46.12052899999994
 30
0.0
  0
VERTEX
  5
30DF
330
30A8
100
AcDbEntity
  8
0
100
AcDbVertex
100
AcDb2dVertex
 10
-71.54144199999996
 20
-46.29453999999995
 30
0.0
  0
VERTEX
  5
30E0
330
30A8
100
AcDbEntity
  8
0
100
AcDbVertex
100
AcDb2dVertex
 10
-67.54821700000002
 20
-46.12052899999994
 30
0.0
  0
VERTEX
  5
30E1
330
30A8
100
AcDbEntity
  8
0
100
AcDbVertex
100
AcDb2dVertex
 10
-63.59161299999982
 20
-45.59846499999994
 30
0.0
  0
VERTEX
  5
30E2
330
30A8
100
AcDbEntity
  8
0
100
AcDbVertex
100
AcDb2dVertex
 10
-59.68997099999978
 20
-44.73297099999999
 30
0.0
  0
VERTEX
  5
30E3
330
30A8
100
AcDbEntity
  8
0
100
AcDbVertex
100
AcDb2dVertex
 10
-55.87991299999976
 20
-43.53315699999993
 30
0.0
  0
VERTEX
  5
30E4
330
30A8
100
AcDbEntity
  8
0
100
AcDbVertex
100
AcDb2dVertex
 10
-52.18890299999976
 20
-42.00364699999997
 30
0.0
  0
VERTEX
  5
30E5
330
30A8
100
AcDbEntity
  8
0
100
AcDbVertex
100
AcDb2dVertex
 10
-48.64443899999992
 20
-40.15814199999996
 30
0.0
  0
VERTEX
  5
30E6
330
30A8
100
AcDbEntity
  8
0
100
AcDbVertex
100
AcDb2dVertex
 10
-45.27401699999995
 20
-38.01498399999994
 30
0.0
  0
VERTEX
  5
30E7
330
30A8
100
AcDbEntity
  8
0
100
AcDbVertex
100
AcDb2dVertex
 10
-42.10507199999983
 20
-35.57875099999993
 30
0.0
  0
VERTEX
  5
30E8
330
30A8
100
AcDbEntity
  8
0
100
AcDbVertex
100
AcDb2dVertex
 10
-39.1605219999999
 20
-32.88148499999994
 30
0.0
  0
VERTEX
  5
30E9
330
30A8
100
AcDbEntity
  8
0
100
AcDbVertex
100
AcDb2dVertex
 10
-36.463256
 20
-29.93693499999995
 30
0.0
  0
VERTEX
  5
30EA
330
30A8
100
AcDbEntity
  8
0
100
AcDbVertex
100
AcDb2dVertex
 10
-34.02700800000002
 20
-26.76798999999994
 30
0.0
  0
VERTEX
  5
30EB
330
30A8
100
AcDbEntity
  8
0
100
AcDbVertex
100
AcDb2dVertex
 10
-31.88384999999994
 20
-23.39755299999993
 30
0.0
  0
VERTEX
  5
30EC
330
30A8
100
AcDbEntity
  8
0
100
AcDbVertex
100
AcDb2dVertex
 10
-30.03835999999978
 20
-19.85310399999994
 30
0.0
  0
VERTEX
  5
30ED
330
30A8
100
AcDbEntity
  8
0
100
AcDbVertex
100
AcDb2dVertex
 10
-28.50884999999994
 20
-16.16210899999996
 30
0.0
  0
VERTEX
  5
30EE
330
30A8
100
AcDbEntity
  8
0
100
AcDbVertex
100
AcDb2dVertex
 10
-27.30905099999996
 20
-12.35205099999993
 30
0.0
  0
VERTEX
  5
30EF
330
30A8
100
AcDbEntity
  8
0
100
AcDbVertex
100
AcDb2dVertex
 10
-26.44354199999998
 20
-8.450393999999931
 30
0.0
  0
VERTEX
  5
30F0
330
30A8
100
AcDbEntity
  8
0
100
AcDbVertex
100
AcDb2dVertex
 10
-25.92147799999998
 20
-4.493804999999923
 30
0.0
  0
VERTEX
  5
30F1
330
30A8
100
AcDbEntity
  8
0
100
AcDbVertex
100
AcDb2dVertex
 10
-25.74746699999991
 20
-0.5005649999999094
 30
0.0
  0
VERTEX
  5
30F2
330
30A8
100
AcDbEntity
  8
0
100
AcDbVertex
100
AcDb2dVertex
 10
-25.74746699999991
 20
-0.5005649999999094
 30
0.0
  0
SEQEND
  5
30F3
330
30A8
100
AcDbEntity
  8
0
  0
LINE
  5
30F4
330
1F
100
AcDbEntity
  8
0
 62
     4
100
AcDbLine
 10
-71.54144199999996
 20
60.54117466802782
 30
0.0
 11
-71.54144199999996
 21
-60.75560833197219
 31
0.0
  0
LINE
  5
30F5
330
1F
100
AcDbEntity
  8
0
100
AcDbLine
 10
-140.7107839999999
 20
-108.2636869999999
 30
0.0
 11
-140.7107839999999
 21
108.2636870000006
 31
0.0
  0
LINE
  5
30F6
330
1F
100
AcDbEntity
  8
0
100
AcDbLine
 10
-294.0857389999997
 20
-82.56013415313839
 30
0.0
 11
-294.0857390000001
 21
83.44971039709026
 31
0.0
  0
LINE
  5
30F7
330
1F
100
AcDbEntity
  8
0
100
AcDbLine
 10
-28.90213874058679
 20
-111.772553
 30
0.0
 11
-116.6517939999998
 21
-111.772553
 31
0.0
  0
LINE
  5
30FA
330
1F
100
AcDbEntity
  8
0
 62
     4
100
AcDbLine
 10
-241.457428
 20
-60.64746099999993
 30
0.0
 11
-241.457428
 21
-97.73771699999995
 31
0.0
  0
LINE
  5
30FB
330
1F
100
AcDbEntity
  8
0
 62
     4
100
AcDbLine
 10
-257.9978329999999
 20
-78.18992599999993
 30
0.0
 11
-223.9143519999999
 21
-78.18992599999993
 31
0.0
  0
LINE
  5
3124
330
1F
100
AcDbEntity
  8
0
100
AcDbLine
 10
-129.1824639999999
 20
-26.21968099999995
 30
0.0
 11
-129.1824639999999
 21
-100.7454069999999
 31
0.0
  0
POLYLINE
  5
3153
330
1F
100
AcDbEntity
  8
0
100
AcDb2dPolyline
 66
     1
 10
0.0
 20
0.0
 30
0.0
  0
VERTEX
  5
3154
330
3153
100
AcDbEntity
  8
0
100
AcDbVertex
100
AcDb2dVertex
 10
-17.91046099999994
 20
-100.2448429999999
 30
0.0
  0
VERTEX
  5
3155
330
3153
100
AcDbEntity
  8
0
100
AcDbVertex
100
AcDb2dVertex
 10
-17.83840899999995
 20
-99.37609099999995
 30
0.0
  0
VERTEX
  5
3156
330
3153
100
AcDbEntity
  8
0
100
AcDbVertex
100
AcDb2dVertex
 10
-17.62798999999995
 20
-98.57275399999995
 30
0.0
  0
VERTEX
  5
3157
330
3153
100
AcDbEntity
  8
0
100
AcDbVertex
100
AcDb2dVertex
 10
-17.28793299999984
 20
-97.83258099999997
 30
0.0
  0
VERTEX
  5
3158
330
3153
100
AcDbEntity
  8
0
100
AcDbVertex
100
AcDb2dVertex
 10
-16.82690400000001
 20
-97.15331999999998
 30
0.0
  0
VERTEX
  5
3159
330
3153
100
AcDbEntity
  8
0
100
AcDbVertex
100
AcDb2dVertex
 10
-16.25360099999989
 20
-96.53269999999995
 30
0.0
  0
VERTEX
  5
315A
330
3153
100
AcDbEntity
  8
0
100
AcDbVertex
100
AcDb2dVertex
 10
-15.57668999999987
 20
-95.9684599999999
 30
0.0
  0
VERTEX
  5
315B
330
3153
100
AcDbEntity
  8
0
100
AcDbVertex
100
AcDb2dVertex
 10
-14.80490099999997
 20
-95.45837399999996
 30
0.0
  0
VERTEX
  5
315C
330
3153
100
AcDbEntity
  8
0
100
AcDbVertex
100
AcDb2dVertex
 10
-13.94689900000003
 20
-95.00016799999995
 30
0.0
  0
VERTEX
  5
315D
330
3153
100
AcDbEntity
  8
0
100
AcDbVertex
100
AcDb2dVertex
 10
-13.01138300000002
 20
-94.59156799999997
 30
0.0
  0
VERTEX
  5
315E
330
3153
100
AcDbEntity
  8
0
100
AcDbVertex
100
AcDb2dVertex
 10
-12.0070189999999
 20
-94.23034699999996
 30
0.0
  0
VERTEX
  5
315F
330
3153
100
AcDbEntity
  8
0
100
AcDbVertex
100
AcDb2dVertex
 10
-10.94250399999987
 20
-93.91424599999997
 30
0.0
  0
VERTEX
  5
3160
330
3153
100
AcDbEntity
  8
0
100
AcDbVertex
100
AcDb2dVertex
 10
-9.8265379999998
 20
-93.64099099999995
 30
0.0
  0
VERTEX
  5
3161
330
3153
100
AcDbEntity
  8
0
100
AcDbVertex
100
AcDb2dVertex
 10
-8.667815999999902
 20
-93.40832499999995
 30
0.0
  0
VERTEX
  5
3162
330
3153
100
AcDbEntity
  8
0
100
AcDbVertex
100
AcDb2dVertex
 10
-7.474974999999858
 20
-93.2140049999999
 30
0.0
  0
VERTEX
  5
3163
330
3153
100
AcDbEntity
  8
0
100
AcDbVertex
100
AcDb2dVertex
 10
-6.25677399999995
 20
-93.05577099999997
 30
0.0
  0
VERTEX
  5
3164
330
3153
100
AcDbEntity
  8
0
100
AcDbVertex
100
AcDb2dVertex
 10
-5.021880999999893
 20
-92.93138099999996
 30
0.0
  0
VERTEX
  5
3165
330
3153
100
AcDbEntity
  8
0
100
AcDbVertex
100
AcDb2dVertex
 10
-3.778929999999945
 20
-92.83854699999992
 30
0.0
  0
VERTEX
  5
3166
330
3153
100
AcDbEntity
  8
0
100
AcDbVertex
100
AcDb2dVertex
 10
-2.536681999999927
 20
-92.77502400000001
 30
0.0
  0
VERTEX
  5
3167
330
3153
100
AcDbEntity
  8
0
100
AcDbVertex
100
AcDb2dVertex
 10
-1.303801999999905
 20
-92.73857099999995
 30
0.0
  0
VERTEX
  5
3168
330
3153
100
AcDbEntity
  8
0
100
AcDbVertex
100
AcDb2dVertex
 10
-0.0889579999998205
 20
-92.7269289999999
 30
0.0
  0
SEQEND
  5
3169
330
3153
100
AcDbEntity
  8
0
  0
LINE
  5
316A
330
1F
100
AcDbEntity
  8
0
 62
     4
100
AcDbLine
 10
-72.04293799999982
 20
-66.66221599999992
 30
0.0
 11
-72.04293799999982
 21
-103.7518539999999
 31
0.0
  0
LINE
  5
31AA
330
1F
100
AcDbEntity
  8
0
 62
     4
100
AcDbLine
 10
-88.5833429999999
 20
-84.20407099999996
 30
0.0
 11
-54.49984699999982
 21
-84.20407099999996
 31
0.0
  0
POLYLINE
  5
31AC
330
1F
100
AcDbEntity
  8
0
100
AcDb2dPolyline
 66
     1
 10
0.0
 20
0.0
 30
0.0
  0
VERTEX
  5
31AD
330
31AC
100
AcDbEntity
  8
0
100
AcDbVertex
100
AcDb2dVertex
 10
-7.999724999999898
 20
0.5024110000000804
 30
0.0
  0
VERTEX
  5
31AE
330
31AC
100
AcDbEntity
  8
0
100
AcDbVertex
100
AcDb2dVertex
 10
-8.241179999999985
 20
6.043243000000046
 30
0.0
  0
VERTEX
  5
31AF
330
31AC
100
AcDbEntity
  8
0
100
AcDbVertex
100
AcDb2dVertex
 10
-8.96554500000002
 20
11.5332490000001
 30
0.0
  0
VERTEX
  5
31B0
330
31AC
100
AcDbEntity
  8
0
100
AcDbVertex
100
AcDb2dVertex
 10
-10.16650299999992
 20
16.94700600000001
 30
0.0
  0
VERTEX
  5
31B1
330
31AC
100
AcDbEntity
  8
0
100
AcDbVertex
100
AcDb2dVertex
 10
-11.83129799999983
 20
22.23367300000004
 30
0.0
  0
VERTEX
  5
31B2
330
31AC
100
AcDbEntity
  8
0
100
AcDbVertex
100
AcDb2dVertex
 10
-13.95358199999987
 20
27.35514800000002
 30
0.0
  0
VERTEX
  5
31B3
330
31AC
100
AcDbEntity
  8
0
100
AcDbVertex
100
AcDb2dVertex
 10
-16.51431199999979
 20
32.27328500000002
 30
0.0
  0
VERTEX
  5
31B4
330
31AC
100
AcDbEntity
  8
0
100
AcDbVertex
100
AcDb2dVertex
 10
-19.48806699999977
 20
36.94995100000009
 30
0.0
  0
VERTEX
  5
31B5
330
31AC
100
AcDbEntity
  8
0
100
AcDbVertex
100
AcDb2dVertex
 10
-22.86849899999993
 20
41.34701500000008
 30
0.0
  0
VERTEX
  5
31B6
330
31AC
100
AcDbEntity
  8
0
100
AcDbVertex
100
AcDb2dVertex
 10
-26.61108399999989
 20
45.43277000000003
 30
0.0
  0
VERTEX
  5
31B7
330
31AC
100
AcDbEntity
  8
0
100
AcDbVertex
100
AcDb2dVertex
 10
-30.69683799999984
 20
49.175354
 30
0.0
  0
VERTEX
  5
31B8
330
31AC
100
AcDbEntity
  8
0
100
AcDbVertex
100
AcDb2dVertex
 10
-35.09390199999984
 20
52.55578600000004
 30
0.0
  0
VERTEX
  5
31B9
330
31AC
100
AcDbEntity
  8
0
100
AcDbVertex
100
AcDb2dVertex
 10
-39.77059899999995
 20
55.52954100000002
 30
0.0
  0
VERTEX
  5
31BA
330
31AC
100
AcDbEntity
  8
0
100
AcDbVertex
100
AcDb2dVertex
 10
-44.68871999999987
 20
58.09027100000005
 30
0.0
  0
VERTEX
  5
31BB
330
31AC
100
AcDbEntity
  8
0
100
AcDbVertex
100
AcDb2dVertex
 10
-49.81017999999995
 20
60.21255500000009
 30
0.0
  0
VERTEX
  5
31BC
330
31AC
100
AcDbEntity
  8
0
100
AcDbVertex
100
AcDb2dVertex
 10
-55.09683199999995
 20
61.87735
 30
0.0
  0
VERTEX
  5
31BD
330
31AC
100
AcDbEntity
  8
0
100
AcDbVertex
100
AcDb2dVertex
 10
-60.51058899999998
 20
63.07830800000002
 30
0.0
  0
VERTEX
  5
31BE
330
31AC
100
AcDbEntity
  8
0
100
AcDbVertex
100
AcDb2dVertex
 10
-66.00061000000005
 20
63.80267300000006
 30
0.0
  0
VERTEX
  5
31BF
330
31AC
100
AcDbEntity
  8
0
100
AcDbVertex
100
AcDb2dVertex
 10
-71.54144199999996
 20
64.04412800000002
 30
0.0
  0
VERTEX
  5
31C0
330
31AC
100
AcDbEntity
  8
0
100
AcDbVertex
100
AcDb2dVertex
 10
-77.08227499999998
 20
63.80267300000006
 30
0.0
  0
VERTEX
  5
31C1
330
31AC
100
AcDbEntity
  8
0
100
AcDbVertex
100
AcDb2dVertex
 10
-82.57229599999982
 20
63.07830800000002
 30
0.0
  0
VERTEX
  5
31C2
330
31AC
100
AcDbEntity
  8
0
100
AcDbVertex
100
AcDb2dVertex
 10
-87.98605299999985
 20
61.87735
 30
0.0
  0
VERTEX
  5
31C3
330
31AC
100
AcDbEntity
  8
0
100
AcDbVertex
100
AcDb2dVertex
 10
-93.27270499999986
 20
60.21255500000009
 30
0.0
  0
VERTEX
  5
31C4
330
31AC
100
AcDbEntity
  8
0
100
AcDbVertex
100
AcDb2dVertex
 10
-98.39416499999993
 20
58.09027100000005
 30
0.0
  0
VERTEX
  5
31C5
330
31AC
100
AcDbEntity
  8
0
100
AcDbVertex
100
AcDb2dVertex
 10
-103.3122859999998
 20
55.52954100000002
 30
0.0
  0
VERTEX
  5
31C6
330
31AC
100
AcDbEntity
  8
0
100
AcDbVertex
100
AcDb2dVertex
 10
-107.9889829999999
 20
52.55578600000004
 30
0.0
  0
VERTEX
  5
31C7
330
31AC
100
AcDbEntity
  8
0
100
AcDbVertex
100
AcDb2dVertex
 10
-112.3860469999999
 20
49.175354
 30
0.0
  0
VERTEX
  5
31C8
330
31AC
100
AcDbEntity
  8
0
100
AcDbVertex
100
AcDb2dVertex
 10
-116.4718009999999
 20
45.43277000000003
 30
0.0
  0
VERTEX
  5
31C9
330
31AC
100
AcDbEntity
  8
0
100
AcDbVertex
100
AcDb2dVertex
 10
-120.2143859999998
 20
41.34701500000008
 30
0.0
  0
VERTEX
  5
31CA
330
31AC
100
AcDbEntity
  8
0
100
AcDbVertex
100
AcDb2dVertex
 10
-123.5948179999998
 20
36.94995100000009
 30
0.0
  0
VERTEX
  5
31CB
330
31AC
100
AcDbEntity
  8
0
100
AcDbVertex
100
AcDb2dVertex
 10
-126.5685729999999
 20
32.27328500000002
 30
0.0
  0
VERTEX
  5
31CC
330
31AC
100
AcDbEntity
  8
0
100
AcDbVertex
100
AcDb2dVertex
 10
-129.1293029999999
 20
27.35514800000002
 30
0.0
  0
VERTEX
  5
31CD
330
31AC
100
AcDbEntity
  8
0
100
AcDbVertex
100
AcDb2dVertex
 10
-129.1928099999999
 20
27.2207490000001
 30
0.0
  0
SEQEND
  5
31CE
330
31AC
100
AcDbEntity
  8
0
  0
LINE
  5
31CF
330
1F
100
AcDbEntity
  8
0
 62
     4
100
AcDbLine
 10
-151.2364499999999
 20
0.0000000000000284
 30
0.0
 11
0.0
 21
0.0000000000000284
 31
0.0
  0
LINE
  5
31E8
330
1F
100
AcDbEntity
  8
0
 62
     4
100
AcDbLine
 10
-241.457428
 20
94.73251300000006
 30
0.0
 11
-241.457428
 21
57.6416320000001
 31
0.0
  0
LINE
  5
3211
330
1F
100
AcDbEntity
  8
0
 62
     4
100
AcDbLine
 10
-257.9978329999999
 20
77.19067400000009
 30
0.0
 11
-223.9143519999999
 21
77.19067400000009
 31
0.0
  0
LINE
  5
3259
330
1F
100
AcDbEntity
  8
0
 62
     4
100
AcDbLine
 10
-88.5833429999999
 20
81.70004300000007
 30
0.0
 11
-54.49984699999982
 21
81.70004300000007
 31
0.0
  0
LINE
  5
325A
330
1F
100
AcDbEntity
  8
0
 62
     4
100
AcDbLine
 10
-72.04293799999982
 20
99.24374400000003
 30
0.0
 11
-72.04293799999982
 21
62.15347299999999
 31
0.0
  0
ARC
  5
32C7
330
1F
100
AcDbEntity
  8
0
100
AcDbCircle
 10
-397.2896039999998
 20
25.36184700000004
 30
0.0
 40
20.0
100
AcDbArc
 50
0.0
 51
90.0
  0
ARC
  5
32C8
330
1F
100
AcDbEntity
  8
0
100
AcDbCircle
 10
-397.2896039999998
 20
-21.85113499999997
 30
0.0
 40
20.0
100
AcDbArc
 50
270.0
 51
0.0
  0
ARC
  5
35A7
330
1F
100
AcDbEntity
  8
0
100
AcDbCircle
 10
-33.45782404902621
 20
-96.61419072310136
 30
0.0
 40
16.13313041234349
100
AcDbArc
 50
294.1546370158439
 51
343.7117859245355
  0
LINE
  5
35A8
330
1F
100
AcDbEntity
  8
0
100
AcDbLine
 10
-17.97222899999997
 20
-101.1390379999999
 30
0.0
 11
-17.91046099999994
 21
-100.2448429999999
 31
0.0
  0
ARC
  5
35A9
330
1F
100
AcDbEntity
  8
0
100
AcDbCircle
 10
-28.90213874058679
 20
-106.772553
 30
0.0
 40
5.0
100
AcDbArc
 50
270.0
 51
294.1546370158439
  0
ARC
  5
35C5
330
1F
100
AcDbEntity
  8
0
100
AcDbCircle
 10
-121.7472475560748
 20
-108.6078893261231
 30
0.0
 40
18.96665995111899
100
AcDbArc
 50
178.9601530630791
 51
246.920059097554
  0
ARC
  5
35C6
330
1F
100
AcDbEntity
  8
0
100
AcDbCircle
 10
-116.7647369837896
 20
-99.26772459576694
 30
0.0
 40
12.50533844151774
100
AcDbArc
 50
186.7861609730138
 51
270.5174785396692
  0
ARC
  5
35C7
330
1F
100
AcDbEntity
  8
0
100
AcDbCircle
 10
-33.45782404902621
 20
96.61419072310142
 30
0.0
 40
16.13313041234349
100
AcDbArc
 50
16.28821407546446
 51
65.8453629841561
  0
ARC
  5
35C8
330
1F
100
AcDbEntity
  8
0
100
AcDbCircle
 10
-28.90213874058679
 20
106.772553
 30
0.0
 40
5.0
100
AcDbArc
 50
65.8453629841561
 51
90.00000000000003
  0
POLYLINE
  5
35C9
330
1F
100
AcDbEntity
  8
0
100
AcDb2dPolyline
 66
     1
 10
0.0
 20
0.0
 30
0.0
  0
VERTEX
  5
35CA
330
35C9
100
AcDbEntity
  8
0
100
AcDbVertex
100
AcDb2dVertex
 10
-17.91046099999994
 20
100.244843
 30
0.0
  0
VERTEX
  5
35CB
330
35C9
100
AcDbEntity
  8
0
100
AcDbVertex
100
AcDb2dVertex
 10
-17.83840899999995
 20
99.37609100000001
 30
0.0
  0
VERTEX
  5
35CC
330
35C9
100
AcDbEntity
  8
0
100
AcDbVertex
100
AcDb2dVertex
 10
-17.62798999999995
 20
98.572754
 30
0.0
  0
VERTEX
  5
35CD
330
35C9
100
AcDbEntity
  8
0
100
AcDbVertex
100
AcDb2dVertex
 10
-17.28793299999984
 20
97.83258100000004
 30
0.0
  0
VERTEX
  5
35CE
330
35C9
100
AcDbEntity
  8
0
100
AcDbVertex
100
AcDb2dVertex
 10
-16.82690400000001
 20
97.15332000000003
 30
0.0
  0
VERTEX
  5
35CF
330
35C9
100
AcDbEntity
  8
0
100
AcDbVertex
100
AcDb2dVertex
 10
-16.25360099999989
 20
96.5327
 30
0.0
  0
VERTEX
  5
35D0
330
35C9
100
AcDbEntity
  8
0
100
AcDbVertex
100
AcDb2dVertex
 10
-15.57668999999987
 20
95.96845999999997
 30
0.0
  0
VERTEX
  5
35D1
330
35C9
100
AcDbEntity
  8
0
100
AcDbVertex
100
AcDb2dVertex
 10
-14.80490099999997
 20
95.45837400000001
 30
0.0
  0
VERTEX
  5
35D2
330
35C9
100
AcDbEntity
  8
0
100
AcDbVertex
100
AcDb2dVertex
 10
-13.94689900000003
 20
95.000168
 30
0.0
  0
VERTEX
  5
35D3
330
35C9
100
AcDbEntity
  8
0
100
AcDbVertex
100
AcDb2dVertex
 10
-13.01138300000002
 20
94.59156800000002
 30
0.0
  0
VERTEX
  5
35D4
330
35C9
100
AcDbEntity
  8
0
100
AcDbVertex
100
AcDb2dVertex
 10
-12.0070189999999
 20
94.23034700000002
 30
0.0
  0
VERTEX
  5
35D5
330
35C9
100
AcDbEntity
  8
0
100
AcDbVertex
100
AcDb2dVertex
 10
-10.94250399999987
 20
93.91424600000002
 30
0.0
  0
VERTEX
  5
35D6
330
35C9
100
AcDbEntity
  8
0
100
AcDbVertex
100
AcDb2dVertex
 10
-9.8265379999998
 20
93.64099100000002
 30
0.0
  0
VERTEX
  5
35D7
330
35C9
100
AcDbEntity
  8
0
100
AcDbVertex
100
AcDb2dVertex
 10
-8.667815999999902
 20
93.40832500000002
 30
0.0
  0
VERTEX
  5
35D8
330
35C9
100
AcDbEntity
  8
0
100
AcDbVertex
100
AcDb2dVertex
 10
-7.474974999999858
 20
93.21400499999995
 30
0.0
  0
VERTEX
  5
35D9
330
35C9
100
AcDbEntity
  8
0
100
AcDbVertex
100
AcDb2dVertex
 10
-6.25677399999995
 20
93.05577100000002
 30
0.0
  0
VERTEX
  5
35DA
330
35C9
100
AcDbEntity
  8
0
100
AcDbVertex
100
AcDb2dVertex
 10
-5.021880999999893
 20
92.93138100000001
 30
0.0
  0
VERTEX
  5
35DB
330
35C9
100
AcDbEntity
  8
0
100
AcDbVertex
100
AcDb2dVertex
 10
-3.778929999999945
 20
92.83854699999997
 30
0.0
  0
VERTEX
  5
35DC
330
35C9
100
AcDbEntity
  8
0
100
AcDbVertex
100
AcDb2dVertex
 10
-2.536681999999927
 20
92.77502400000006
 30
0.0
  0
VERTEX
  5
35DD
330
35C9
100
AcDbEntity
  8
0
100
AcDbVertex
100
AcDb2dVertex
 10
-1.303801999999905
 20
92.738571
 30
0.0
  0
VERTEX
  5
35DE
330
35C9
100
AcDbEntity
  8
0
100
AcDbVertex
100
AcDb2dVertex
 10
-0.0889579999998205
 20
92.72692899999995
 30
0.0
  0
SEQEND
  5
35DF
330
35C9
100
AcDbEntity
  8
0
  0
LINE
  5
35E0
330
1F
100
AcDbEntity
  8
0
100
AcDbLine
 10
-17.97222899999997
 20
101.139038
 30
0.0
 11
-17.91046099999994
 21
100.244843
 31
0.0
  0
LINE
  5
35E1
330
1F
100
AcDbEntity
  8
0
100
AcDbLine
 10
-28.90213874058679
 20
111.772553
 30
0.0
 11
-116.6517939999998
 21
111.772553
 31
0.0
  0
ARC
  5
35E2
330
1F
100
AcDbEntity
  8
0
100
AcDbCircle
 10
-116.7647369837896
 20
99.26772459576696
 30
0.0
 40
12.50533844151774
100
AcDbArc
 50
89.48252146033075
 51
173.2138390269861
  0
LINE
  5
35E3
330
1F
100
AcDbEntity
  8
0
100
AcDbLine
 10
-129.1824639999999
 20
26.21968100000001
 30
0.0
 11
-129.1824639999999
 21
100.745407
 31
0.0
  0
ARC
  5
3758
330
1F
100
AcDbEntity
  8
0
100
AcDbCircle
 10
-121.7472475560748
 20
108.6078893261231
 30
0.0
 40
18.96665995111899
100
AcDbArc
 50
113.0799409024459
 51
181.0398469369209
  0
LWPOLYLINE
  5
397D
330
1F
100
AcDbEntity
  8
0
100
AcDbPolyline
 90
       20
 70
     1
 43
0.0
 10
0.0
 20
121.0564349999999
 42
0.4142135623730951
 10
-5.0
 20
126.0564349999999
 10
-228.274749346445
 20
126.056435
 42
-0.1978532300458729
 10
-242.3591224631429
 20
131.8567718381627
 10
-282.52815458848
 20
171.6996631618373
 42
0.197853230045873
 10
-296.6125277051779
 20
177.5
 10
-579.6389113829717
 20
177.5
 42
0.2006354899241387
 10
-593.8744693269004
 20
171.5480920421618
 10
-659.2355579439286
 20
105.3147870856286
 42
0.1971903803314319
 10
-665.0
 20
91.26669504346669
 10
-665.0
 20
-93.77064561925056
 42
0.1971924937381488
 10
-659.2354436311033
 20
-107.8188534987517
 10
-596.3443078458417
 20
-171.5482078795011
 42
0.2006333737310102
 10
-582.1088642147383
 20
-177.5
 10
-296.6125277051779
 20
-177.5
 42
0.1978532300458729
 10
-282.52815458848
 20
-171.6996631618373
 10
-242.3591224631429
 20
-131.8567718381627
 42
-0.1978532300458727
 10
-228.274749346445
 20
-126.056435
 10
-5.0
 20
-126.0564349999999
 42
0.4142135623730951
 10
0.0
 20
-121.0564349999999
  0
LINE
  5
39E9
330
1F
100
AcDbEntity
  8
0
100
AcDbLine
 10
-343.2061079999999
 20
-122.9825422177621
 30
0.0
 11
-372.2769009999999
 21
-73.86279121776212
 31
0.0
  0
LINE
  5
3A01
330
1F
100
AcDbEntity
  8
0
100
AcDbLine
 10
-341.4747159923821
 20
132.5
 30
0.0
 11
-565.0053593055007
 21
132.5
 31
0.0
  0
LINE
  5
3A02
330
1F
100
AcDbEntity
  8
0
100
AcDbLine
 10
-572.123138277465
 20
129.5240460210809
 30
0.0
 11
-617.1177789719642
 21
83.92897070050256
 31
0.0
  0
LINE
  5
3A03
330
1F
100
AcDbEntity
  8
0
100
AcDbLine
 10
-620.0
 20
76.90492467942161
 30
0.0
 11
-620.0
 21
-79.40870887671533
 31
0.0
  0
LINE
  5
3A04
330
1F
100
AcDbEntity
  8
0
100
AcDbLine
 10
-617.1177218155516
 20
-86.4328128164659
 30
0.0
 11
-574.593201246811
 21
-129.5241039397505
 31
0.0
  0
LINE
  5
3A05
330
1F
100
AcDbEntity
  8
0
100
AcDbLine
 10
-567.4754794312593
 20
-132.4999999999999
 30
0.0
 11
-346.7479034123036
 21
-132.4999999999999
 31
0.0
  0
ARC
  5
3A53
330
1F
100
AcDbEntity
  8
0
100
AcDbCircle
 10
-304.0857390000001
 20
83.44971039709024
 30
0.0
 40
10.0
100
AcDbArc
 50
0.0000000000001018
 51
43.75494333928778
  0
ARC
  5
3A54
330
1F
100
AcDbEntity
  8
0
100
AcDbCircle
 10
-341.4747159923821
 20
122.5
 30
0.0
 40
10.0
100
AcDbArc
 50
43.75494333928773
 51
90.0
  0
ARC
  5
3A55
330
1F
100
AcDbEntity
  8
0
100
AcDbCircle
 10
-565.0053593055007
 20
122.5
 30
0.0
 40
10.0
100
AcDbArc
 50
90.0
 51
135.3797546531174
  0
ARC
  5
3A56
330
1F
100
AcDbEntity
  8
0
100
AcDbCircle
 10
-610.0
 20
76.90492467942161
 30
0.0
 40
10.0
100
AcDbArc
 50
135.3797546531173
 51
180.0
  0
ARC
  5
3A57
330
1F
100
AcDbEntity
  8
0
100
AcDbCircle
 10
-610.0
 20
-79.40870887671533
 30
0.0
 40
10.0
100
AcDbArc
 50
180.0
 51
224.6207115749941
  0
ARC
  5
3A58
330
1F
100
AcDbEntity
  8
0
100
AcDbCircle
 10
-567.4754794312593
 20
-122.4999999999999
 30
0.0
 40
10.0
100
AcDbArc
 50
224.6207115749941
 51
270.0
  0
ARC
  5
3A59
330
1F
100
AcDbEntity
  8
0
100
AcDbCircle
 10
-346.7479034123036
 20
-122.4999999999999
 30
0.0
 40
10.0
100
AcDbArc
 50
270.0
 51
313.1123976803605
  0
ARC
  5
3A5A
330
1F
100
AcDbEntity
  8
0
100
AcDbCircle
 10
-304.0857389999997
 20
-82.56013415313841
 30
0.0
 40
10.0
100
AcDbArc
 50
313.1123976803605
 51
0.0000000000001145
  0
CIRCLE
  5
3AB2
330
1F
100
AcDbEntity
  8
0
100
AcDbCircle
 10
-241.457428
 20
77.19067400000009
 30
0.0
 40
10.0
  0
CIRCLE
  5
3AB3
330
1F
100
AcDbEntity
  8
0
100
AcDbCircle
 10
-241.457428
 20
-78.18992599999993
 30
0.0
 40
10.0
  0
CIRCLE
  5
3AB4
330
1F
100
AcDbEntity
  8
0
100
AcDbCircle
 10
-71.54159499999986
 20
-84.20407099999996
 30
0.0
 40
10.0
  0
CIRCLE
  5
3AB5
330
1F
100
AcDbEntity
  8
0
100
AcDbCircle
 10
-72.04293799999982
 20
81.70004300000007
 30
0.0
 40
10.0
  0
ENDSEC
  0
SECTION
  2
OBJECTS
  0
DICTIONARY
  5
C
330
0
100
AcDbDictionary
281
     1
  3
ACAD_COLOR
350
3ABC
  3
ACAD_GROUP
350
D
  3
ACAD_LAYOUT
350
1A
  3
ACAD_MATERIAL
350
3ABB
  3
ACAD_MLINESTYLE
350
17
  3
ACAD_PLOTSETTINGS
350
19
  3
ACAD_PLOTSTYLENAME
350
E
  3
AcDbVariableDictionary
350
86
  3
AcmDictionary
350
45
  3
AMG
350
41
  3
AMGSNAPSETTINGS
350
332
  3
ASE_INDEX_DICTIONARY
350
3A3D
  3
MAPISURF_MODULE
350
3B3E
  0
DICTIONARY
  5
81
330
1F
100
AcDbDictionary
280
     1
281
     1
  3
ACAD_INDEX
360
82
  0
DICTIONARY
  5
3ABC
102
{ACAD_REACTORS
330
C
102
}
330
C
100
AcDbDictionary
281
     1
  0
DICTIONARY
  5
D
102
{ACAD_REACTORS
330
C
102
}
330
C
100
AcDbDictionary
281
     1
  0
DICTIONARY
  5
1A
102
{ACAD_REACTORS
330
C
102
}
330
C
100
AcDbDictionary
281
     1
  3
Layout1
350
1E
  3
Layout2
350
26
  3
Model
350
22
  0
DICTIONARY
  5
3ABB
102
{ACAD_REACTORS
330
C
102
}
330
C
100
AcDbDictionary
281
     1
  0
DICTIONARY
  5
17
102
{ACAD_REACTORS
330
C
102
}
330
C
100
AcDbDictionary
281
     1
  3
Standard
350
18
  0
DICTIONARY
  5
19
102
{ACAD_REACTORS
330
C
102
}
330
C
100
AcDbDictionary
281
     1
  0
ACDBDICTIONARYWDFLT
  5
E
102
{ACAD_REACTORS
330
C
102
}
330
C
100
AcDbDictionary
281
     1
  3
Normal
350
F
100
AcDbDictionaryWithDefault
340
F
  0
DICTIONARY
  5
86
102
{ACAD_REACTORS
330
C
102
}
330
C
100
AcDbDictionary
281
     1
  3
DIMASSOC
350
89
  3
HIDETEXT
350
88
  3
INDEXCTL
350
87
  0
DICTIONARY
  5
45
102
{ACAD_REACTORS
330
C
102
}
330
C
100
AcDbDictionary
281
     1
  3
AcmBOMDATA
350
46
  3
AcmStdDictionary
350
4A
  0
DICTIONARY
  5
41
102
{ACAD_REACTORS
330
C
102
}
330
C
100
AcDbDictionary
281
     1
  3
AcMgSettings
350
42
  3
AMGLAYCFG
350
4C
  0
DICTIONARY
  5
332
102
{ACAD_REACTORS
330
C
102
}
330
C
100
AcDbDictionary
281
     1
  3
DIMENSION
350
337
  3
FEA
350
336
  3
HATCH (1)
350
333
  3
HATCH (2)
350
334
  3
SIMPLE WELD
350
338
  3
SYMBOLS
350
335
  0
DICTIONARY
  5
3A3D
102
{ACAD_REACTORS
330
C
102
}
330
C
100
AcDbDictionary
281
     1
  3
ASEBlockHierarchyIndexRecord
350
3A3F
1001
DCO15
1040
1576487401.484
  0
DICTIONARY
  5
82
102
{ACAD_REACTORS
330
81
102
}
330
81
100
AcDbDictionary
281
     1
  3
*A1
350
83
  0
LAYOUT
  5
1E
102
{ACAD_REACTORS
330
1A
102
}
330
1A
100
AcDbPlotSettings
  1

  2
Epson Stylus COLOR 440 ESC/P 2
  4

  6

 40
0.0
 41
0.0
 42
0.0
 43
0.0
 44
0.0
 45
0.0
 46
0.0
 47
0.0
 48
0.0
 49
0.0
140
0.0
141
0.0
142
1.0
143
1.0
 70
   688
 72
     0
 73
     0
 74
     5
  7

 75
    16
147
1.0
 76
     0
 77
     2
 78
   300
148
0.0
149
0.0
100
AcDbLayout
  1
Layout1
 70
     1
 71
     1
 10
0.0
 20
0.0
 11
420.0
 21
297.0
 12
0.0
 22
0.0
 32
0.0
 14
1.000000000000000E+20
 24
1.000000000000000E+20
 34
1.000000000000000E+20
 15
-1.000000000000000E+20
 25
-1.000000000000000E+20
 35
-1.000000000000000E+20
146
0.0
 13
0.0
 23
0.0
 33
0.0
 16
1.0
 26
0.0
 36
0.0
 17
0.0
 27
1.0
 37
0.0
 76
     0
330
1B
  0
LAYOUT
  5
26
102
{ACAD_REACTORS
330
1A
102
}
330
1A
100
AcDbPlotSettings
  1

  2
Epson Stylus COLOR 440 ESC/P 2
  4

  6

 40
0.0
 41
0.0
 42
0.0
 43
0.0
 44
0.0
 45
0.0
 46
0.0
 47
0.0
 48
0.0
 49
0.0
140
0.0
141
0.0
142
1.0
143
1.0
 70
   688
 72
     0
 73
     0
 74
     5
  7

 75
    16
147
1.0
 76
     0
 77
     2
 78
   300
148
0.0
149
0.0
100
AcDbLayout
  1
Layout2
 70
     1
 71
     2
 10
0.0
 20
0.0
 11
12.0
 21
9.0
 12
0.0
 22
0.0
 32
0.0
 14
0.0
 24
0.0
 34
0.0
 15
0.0
 25
0.0
 35
0.0
146
0.0
 13
0.0
 23
0.0
 33
0.0
 16
1.0
 26
0.0
 36
0.0
 17
0.0
 27
1.0
 37
0.0
 76
     0
330
23
  0
LAYOUT
  5
22
102
{ACAD_REACTORS
330
1A
102
}
330
1A
100
AcDbPlotSettings
  1

  2
Epson Stylus COLOR 440 ESC/P 2
  4

  6

 40
0.0
 41
0.0
 42
0.0
 43
0.0
 44
0.0
 45
0.0
 46
0.0
 47
0.0
 48
0.0
 49
0.0
140
0.0
141
0.0
142
1.0
143
1.0
 70
  1712
 72
     0
 73
     0
 74
     0
  7

 75
     0
147
1.0
 76
     0
 77
     2
 78
   300
148
0.0
149
0.0
100
AcDbLayout
  1
Model
 70
     1
 71
     0
 10
0.0
 20
0.0
 11
12.0
 21
9.0
 12
0.0
 22
0.0
 32
0.0
 14
0.0
 24
0.0
 34
0.0
 15
0.0
 25
0.0
 35
0.0
146
0.0
 13
0.0
 23
0.0
 33
0.0
 16
1.0
 26
0.0
 36
0.0
 17
0.0
 27
1.0
 37
0.0
 76
     0
330
1F
  0
MLINESTYLE
  5
18
102
{ACAD_REACTORS
330
17
102
}
330
17
100
AcDbMlineStyle
  2
STANDARD
 70
     0
  3

 62
   256
 51
90.0
 52
90.0
 71
     2
 49
0.5
 62
   256
  6
BYLAYER
 49
-0.5
 62
   256
  6
BYLAYER
  0
ACDBPLACEHOLDER
  5
F
102
{ACAD_REACTORS
330
E
102
}
330
E
  0
DICTIONARYVAR
  5
89
102
{ACAD_REACTORS
330
86
102
}
330
86
100
DictionaryVariables
280
     0
  1
2
  0
DICTIONARYVAR
  5
88
102
{ACAD_REACTORS
330
86
102
}
330
86
100
DictionaryVariables
280
     0
  1
1
  0
DICTIONARYVAR
  5
87
102
{ACAD_REACTORS
330
86
102
}
330
86
100
DictionaryVariables
280
     0
  1
1
  0
ACMDATADICTIONARY
  5
46
102
{ACAD_REACTORS
330
45
102
}
330
45
100
AcDbDictionary
281
     1
  3
*A1
350
47
100
AcmDataDictionary
  0
DICTIONARY
  5
4A
102
{ACAD_REACTORS
330
45
102
}
330
45
100
AcDbDictionary
281
     1
  3
ANSI
350
360
  3
DIN
350
4B
  0
DICTIONARY
  5
42
102
{ACAD_REACTORS
330
41
102
}
330
41
100
AcDbDictionary
281
     1
  3
DWGSETTINGS
350
43
  3
TRANSSETTINGS
350
44
  0
ACAMGFILTERDAT
  5
337
102
{ACAD_REACTORS
330
332
102
}
330
332
100
AcAmgFilterDat
 70
    15
  1
DIMENSION,AMDT_*_DIM
  2
*
  3
*
  4
*
  5
*
290
     1
  0
ACAMGFILTERDAT
  5
336
102
{ACAD_REACTORS
330
332
102
}
330
332
100
AcAmgFilterDat
 70
    15
  1
*
  2
AM_FEA-AM_*
  3
*
  4
*
  5
*
290
     1
  0
ACAMGFILTERDAT
  5
333
102
{ACAD_REACTORS
330
332
102
}
330
332
100
AcAmgFilterDat
 70
    15
  1
HATCH
  2
*
  3
*
  4
*
  5
*
290
     1
  0
ACAMGFILTERDAT
  5
334
102
{ACAD_REACTORS
330
332
102
}
330
332
100
AcAmgFilterDat
 70
    15
  1
LINE
  2
8,8N,*-8,*-8N,AM_8,AM_8N,*-AM_8,*-AM_8N
  3
*
  4
*
  5
INSERT,STDPART2D
290
     1
  0
ACAMGFILTERDAT
  5
338
102
{ACAD_REACTORS
330
332
102
}
330
332
100
AcAmgFilterDat
 70
    15
  1
ARC
  2
AM_5
  3
*
  4
2
  5
INSERT
290
     0
  0
ACAMGFILTERDAT
  5
335
102
{ACAD_REACTORS
330
332
102
}
330
332
100
AcAmgFilterDat
 70
    15
  1
ACMFCFRAME,ACMDATUMTARGET,ACMDATUMID,ACMWELDSYM,ACMSURFSYM,ACMFEATID,ACMPARTREF,ACMBALLOON,AMDTEDGESYM,AMGSCREWCALCTABLE
  2
*
  3
*
  4
*
  5
*
290
     1
  0
XRECORD
  5
3A3F
102
{ACAD_REACTORS
330
3A3D
102
}
330
3A3D
100
AcDbXrecord
280
     1
  0
LAYER_INDEX
  5
83
102
{ACAD_REACTORS
330
82
102
}
330
82
100
AcDbIndex
 40
2454064.608572396
100
AcDbLayerIndex
  8
0
360
84
 90
       66
  0
ACMDATAENTRYBLOCK
  5
47
102
{ACAD_REACTORS
330
46
102
}
330
46
100
AcmDataEntry
100
AcmDataEntryBlock
  0
IDBUFFER
  5
84
330
0
100
AcDbIdBuffer
330
2FDB
330
2FDC
330
2FDD
330
2FDE
330
2FE1
330
2FFA
330
2FFE
330
2FFF
330
3018
330
301C
330
301D
330
301E
330
3036
330
3038
330
305C
330
30A8
330
30F4
330
30F5
330
30F6
330
30F7
330
30FA
330
30FB
330
3124
330
3153
330
316A
330
31AA
330
31AC
330
31CF
330
31E8
330
3211
330
3259
330
325A
330
32C7
330
32C8
330
35A7
330
35A8
330
35A9
330
35C5
330
35C6
330
35C7
330
35C8
330
35C9
330
35E0
330
35E1
330
35E2
330
35E3
330
3758
330
397D
330
39E9
330
3A01
330
3A02
330
3A03
330
3A04
330
3A05
330
3A53
330
3A54
330
3A55
330
3A56
330
3A57
330
3A58
330
3A59
330
3A5A
330
3AB2
330
3AB3
330
3AB4
330
3AB5
  0
ENDSEC
  0
EOF
