  0
SECTION
  2
HEADER
  9
$ACADVER
  1
AC1015
  9
$ACADMAINTVER
 70
     6
  9
$DWGCODEPAGE
  3
ANSI_1252
  9
$INSBASE
 10
0.0
 20
0.0
 30
0.0
  9
$EXTMIN
 10
0.0
 20
0.0
 30
0.0
  9
$EXTMAX
 10
1682.0
 20
2378.0
 30
0.0
  9
$LIMMIN
 10
0.0
 20
0.0
  9
$LIMMAX
 10
1682.0
 20
2378.0
  9
$ORTHOMODE
 70
     0
  9
$REGENMODE
 70
     1
  9
$FILLMODE
 70
     1
  9
$QTEXTMODE
 70
     0
  9
$MIRRTEXT
 70
     1
  9
$LTSCALE
 40
1.0
  9
$ATTMODE
 70
     1
  9
$TEXTSIZE
 40
2.5
  9
$TRACEWID
 40
1.0
  9
$TEXTSTYLE
  7
Standard
  9
$CLAYER
  8
0
  9
$CELTYPE
  6
ByLayer
  9
$CECOLOR
 62
   256
  9
$CELTSCALE
 40
1.0
  9
$DISPSILH
 70
     0
  9
$DIMSCALE
 40
1.0
  9
$DIMASZ
 40
2.5
  9
$DIMEXO
 40
0.625
  9
$DIMDLI
 40
3.75
  9
$DIMRND
 40
0.0
  9
$DIMDLE
 40
0.0
  9
$DIMEXE
 40
1.25
  9
$DIMTP
 40
0.0
  9
$DIMTM
 40
0.0
  9
$DIMTXT
 40
2.5
  9
$DIMCEN
 40
2.5
  9
$DIMTSZ
 40
0.0
  9
$DIMTOL
 70
     0
  9
$DIMLIM
 70
     0
  9
$DIMTIH
 70
     0
  9
$DIMTOH
 70
     0
  9
$DIMSE1
 70
     0
  9
$DIMSE2
 70
     0
  9
$DIMTAD
 70
     1
  9
$DIMZIN
 70
     8
  9
$DIMBLK
  1

  9
$DIMASO
 70
     1
  9
$DIMSHO
 70
     1
  9
$DIMPOST
  1

  9
$DIMAPOST
  1

  9
$DIMALT
 70
     0
  9
$DIMALTD
 70
     3
  9
$DIMALTF
 40
0.0393700787
  9
$DIMLFAC
 40
1.0
  9
$DIMTOFL
 70
     1
  9
$DIMTVP
 40
0.0
  9
$DIMTIX
 70
     0
  9
$DIMSOXD
 70
     0
  9
$DIMSAH
 70
     0
  9
$DIMBLK1
  1

  9
$DIMBLK2
  1

  9
$DIMSTYLE
  2
ISO-25
  9
$DIMCLRD
 70
     0
  9
$DIMCLRE
 70
     0
  9
$DIMCLRT
 70
     0
  9
$DIMTFAC
 40
1.0
  9
$DIMGAP
 40
0.625
  9
$DIMJUST
 70
     0
  9
$DIMSD1
 70
     0
  9
$DIMSD2
 70
     0
  9
$DIMTOLJ
 70
     0
  9
$DIMTZIN
 70
     8
  9
$DIMALTZ
 70
     0
  9
$DIMALTTZ
 70
     0
  9
$DIMUPT
 70
     0
  9
$DIMDEC
 70
     2
  9
$DIMTDEC
 70
     2
  9
$DIMALTU
 70
     2
  9
$DIMALTTD
 70
     3
  9
$DIMTXSTY
  7
Standard
  9
$DIMAUNIT
 70
     0
  9
$DIMADEC
 70
     0
  9
$DIMALTRND
 40
0.0
  9
$DIMAZIN
 70
     0
  9
$DIMDSEP
 70
    44
  9
$DIMATFIT
 70
     3
  9
$DIMFRAC
 70
     0
  9
$DIMLDRBLK
  1

  9
$DIMLUNIT
 70
     2
  9
$DIMLWD
 70
    -2
  9
$DIMLWE
 70
    -2
  9
$DIMTMOVE
 70
     0
  9
$LUNITS
 70
     2
  9
$LUPREC
 70
     4
  9
$SKETCHINC
 40
1.0
  9
$FILLETRAD
 40
10.0
  9
$AUNITS
 70
     0
  9
$AUPREC
 70
     0
  9
$MENU
  1
.
  9
$ELEVATION
 40
0.0
  9
$PELEVATION
 40
0.0
  9
$THICKNESS
 40
0.0
  9
$LIMCHECK
 70
     0
  9
$CHAMFERA
 40
10.0
  9
$CHAMFERB
 40
10.0
  9
$CHAMFERC
 40
20.0
  9
$CHAMFERD
 40
0.0
  9
$SKPOLY
 70
     0
  9
$TDCREATE
 40
2455566.481648414
  9
$TDUCREATE
 40
2455566.439981748
  9
$TDUPDATE
 40
2455566.481648426
  9
$TDUUPDATE
 40
2455566.439981759
  9
$TDINDWG
 40
0.0000000116
  9
$TDUSRTIMER
 40
0.0000000116
  9
$USRTIMER
 70
     1
  9
$ANGBASE
 50
0.0
  9
$ANGDIR
 70
     0
  9
$PDMODE
 70
     0
  9
$PDSIZE
 40
0.0
  9
$PLINEWID
 40
0.0
  9
$SPLFRAME
 70
     0
  9
$SPLINETYPE
 70
     6
  9
$SPLINESEGS
 70
     8
  9
$HANDSEED
  5
323
  9
$SURFTAB1
 70
     6
  9
$SURFTAB2
 70
     6
  9
$SURFTYPE
 70
     6
  9
$SURFU
 70
     6
  9
$SURFV
 70
     6
  9
$UCSBASE
  2

  9
$UCSNAME
  2

  9
$UCSORG
 10
0.0
 20
0.0
 30
0.0
  9
$UCSXDIR
 10
1.0
 20
0.0
 30
0.0
  9
$UCSYDIR
 10
0.0
 20
1.0
 30
0.0
  9
$UCSORTHOREF
  2

  9
$UCSORTHOVIEW
 70
     0
  9
$UCSORGTOP
 10
0.0
 20
0.0
 30
0.0
  9
$UCSORGBOTTOM
 10
0.0
 20
0.0
 30
0.0
  9
$UCSORGLEFT
 10
0.0
 20
0.0
 30
0.0
  9
$UCSORGRIGHT
 10
0.0
 20
0.0
 30
0.0
  9
$UCSORGFRONT
 10
0.0
 20
0.0
 30
0.0
  9
$UCSORGBACK
 10
0.0
 20
0.0
 30
0.0
  9
$PUCSBASE
  2

  9
$PUCSNAME
  2

  9
$PUCSORG
 10
0.0
 20
0.0
 30
0.0
  9
$PUCSXDIR
 10
1.0
 20
0.0
 30
0.0
  9
$PUCSYDIR
 10
0.0
 20
1.0
 30
0.0
  9
$PUCSORTHOREF
  2

  9
$PUCSORTHOVIEW
 70
     0
  9
$PUCSORGTOP
 10
0.0
 20
0.0
 30
0.0
  9
$PUCSORGBOTTOM
 10
0.0
 20
0.0
 30
0.0
  9
$PUCSORGLEFT
 10
0.0
 20
0.0
 30
0.0
  9
$PUCSORGRIGHT
 10
0.0
 20
0.0
 30
0.0
  9
$PUCSORGFRONT
 10
0.0
 20
0.0
 30
0.0
  9
$PUCSORGBACK
 10
0.0
 20
0.0
 30
0.0
  9
$USERI1
 70
     0
  9
$USERI2
 70
     0
  9
$USERI3
 70
     0
  9
$USERI4
 70
     0
  9
$USERI5
 70
     0
  9
$USERR1
 40
0.0
  9
$USERR2
 40
0.0
  9
$USERR3
 40
0.0
  9
$USERR4
 40
0.0
  9
$USERR5
 40
0.0
  9
$WORLDVIEW
 70
     1
  9
$SHADEDGE
 70
     3
  9
$SHADEDIF
 70
    70
  9
$TILEMODE
 70
     1
  9
$MAXACTVP
 70
    64
  9
$PINSBASE
 10
0.0
 20
0.0
 30
0.0
  9
$PLIMCHECK
 70
     0
  9
$PEXTMIN
 10
0.0
 20
0.0
 30
0.0
  9
$PEXTMAX
 10
1682.0
 20
2378.0
 30
0.0
  9
$PLIMMIN
 10
0.0
 20
0.0
  9
$PLIMMAX
 10
1682.0
 20
2378.0
  9
$UNITMODE
 70
     0
  9
$VISRETAIN
 70
     1
  9
$PLINEGEN
 70
     0
  9
$PSLTSCALE
 70
     1
  9
$TREEDEPTH
 70
  3020
  9
$CMLSTYLE
  2
Standard
  9
$CMLJUST
 70
     0
  9
$CMLSCALE
 40
20.0
  9
$PROXYGRAPHICS
 70
     1
  9
$MEASUREMENT
 70
     1
  9
$CELWEIGHT
370
    -1
  9
$ENDCAPS
280
     0
  9
$JOINSTYLE
280
     0
  9
$LWDISPLAY
290
     0
  9
$INSUNITS
 70
     4
  9
$HYPERLINKBASE
  1

  9
$STYLESHEET
  1

  9
$XEDIT
290
     1
  9
$CEPSNTYPE
380
     0
  9
$PSTYLEMODE
290
     1
  9
$FINGERPRINTGUID
  2
{93919D19-70A8-435D-8E2F-C40BB43C21F8}
  9
$VERSIONGUID
  2
{FAEB1C32-E019-11D5-929B-00C0DF256EC4}
  9
$EXTNAMES
290
     1
  9
$PSVPSCALE
 40
0.0
  9
$OLESTARTUP
290
     0
  0
ENDSEC
  0
SECTION
  2
CLASSES
  0
CLASS
  1
ACDBDICTIONARYWDFLT
  2
AcDbDictionaryWithDefault
  3
ObjectDBX Classes
 90
        0
280
     0
281
     0
  0
CLASS
  1
VISUALSTYLE
  2
AcDbVisualStyle
  3
ObjectDBX Classes
 90
     4095
280
     0
281
     0
  0
CLASS
  1
SCALE
  2
AcDbScale
  3
ObjectDBX Classes
 90
     1153
280
     0
281
     0
  0
CLASS
  1
DICTIONARYVAR
  2
AcDbDictionaryVar
  3
ObjectDBX Classes
 90
        0
280
     0
281
     0
  0
CLASS
  1
ACDBPLACEHOLDER
  2
AcDbPlaceHolder
  3
ObjectDBX Classes
 90
        0
280
     0
281
     0
  0
CLASS
  1
LAYOUT
  2
AcDbLayout
  3
ObjectDBX Classes
 90
        0
280
     0
281
     0
  0
ENDSEC
  0
SECTION
  2
TABLES
  0
TABLE
  2
VPORT
  5
8
330
0
100
AcDbSymbolTable
 70
     1
  0
VPORT
  5
29
330
8
100
AcDbSymbolTableRecord
100
AcDbViewportTableRecord
  2
*Active
 70
     0
 10
0.0
 20
0.0
 11
1.0
 21
1.0
 12
344.1869158879
 22
148.5
 13
0.0
 23
0.0
 14
10.0
 24
10.0
 15
10.0
 25
10.0
 16
0.0
 26
0.0
 36
1.0
 17
0.0
 27
0.0
 37
0.0
 40
297.0
 41
1.9729729729
 42
50.0
 43
0.0
 44
0.0
 50
0.0
 51
0.0
 71
     0
 72
   100
 73
     1
 74
     3
 75
     0
 76
     0
 77
     0
 78
     0
281
     0
 65
     1
110
0.0
120
0.0
130
0.0
111
1.0
121
0.0
131
0.0
112
0.0
122
1.0
132
0.0
 79
     0
146
0.0
  0
ENDTAB
  0
TABLE
  2
LTYPE
  5
5
330
0
100
AcDbSymbolTable
 70
     2
  0
LTYPE
  5
14
330
5
100
AcDbSymbolTableRecord
100
AcDbLinetypeTableRecord
  2
ByBlock
 70
     0
  3

 72
    65
 73
     0
 40
0.0
  0
LTYPE
  5
15
330
5
100
AcDbSymbolTableRecord
100
AcDbLinetypeTableRecord
  2
ByLayer
 70
     0
  3

 72
    65
 73
     0
 40
0.0
  0
LTYPE
  5
16
330
5
100
AcDbSymbolTableRecord
100
AcDbLinetypeTableRecord
  2
Continuous
 70
     0
  3
Solid line
 72
    65
 73
     0
 40
0.0
  0
LTYPE
  5
61
330
5
100
AcDbSymbolTableRecord
100
AcDbLinetypeTableRecord
  2
CENTER2
 70
     0
  3
Center (.5x) ___ _ ___ _ ___ _ ___ _ ___ _ ___
 72
    65
 73
     4
 40
28.575
 49
19.05
 74
     4
 75
     0
340
0
 46
0.0
 50
0.0
 44
0.0
 45
0.0
 49
-3.175
 74
     4
 75
     0
340
0
 46
0.0
 50
0.0
 44
0.0
 45
0.0
 49
3.175
 74
     4
 75
     0
340
0
 46
0.0
 50
0.0
 44
0.0
 45
0.0
 49
-3.175
 74
     4
 75
     0
340
0
 46
0.0
 50
0.0
 44
0.0
 45
0.0
  0
ENDTAB
  0
TABLE
  2
LAYER
  5
2
330
0
100
AcDbSymbolTable
 70
     5
  0
LAYER
  5
10
330
2
100
AcDbSymbolTableRecord
100
AcDbLayerTableRecord
  2
0
 70
     0
 62
     7
  6
Continuous
370
    -3
390
F
  0
LAYER
  5
5D
330
2
100
AcDbSymbolTableRecord
100
AcDbLayerTableRecord
  2
Default
 70
     0
 62
     7
  6
Continuous
370
    -3
390
F
  0
LAYER
  5
80
330
2
100
AcDbSymbolTableRecord
100
AcDbLayerTableRecord
  2
DV1_Standard
 70
     0
 62
     7
  6
Continuous
370
    -3
390
F
  0
LAYER
  5
17E
330
2
100
AcDbSymbolTableRecord
100
AcDbLayerTableRecord
  2
DV2_Standard
 70
     0
 62
     7
  6
Continuous
370
    -3
390
F
  0
LAYER
  5
24A
330
2
100
AcDbSymbolTableRecord
100
AcDbLayerTableRecord
  2
DV3_Standard
 70
     0
 62
     7
  6
Continuous
370
    -3
390
F
  0
ENDTAB
  0
TABLE
  2
STYLE
  5
3
330
0
100
AcDbSymbolTable
 70
     2
  0
STYLE
  5
11
330
3
100
AcDbSymbolTableRecord
100
AcDbTextStyleTableRecord
  2
Standard
 70
     0
 40
0.0
 41
1.0
 50
0.0
 71
     0
 42
2.5
  3
txt
  4

  0
STYLE
  5
312
330
3
100
AcDbSymbolTableRecord
100
AcDbTextStyleTableRecord
  2
SEACAD_seiso_ttf
 70
     0
 40
0.0
 41
1.0
 50
0.0
 71
     0
 42
0.2
  3
seiso.ttf
  4

  0
ENDTAB
  0
TABLE
  2
VIEW
  5
6
330
0
100
AcDbSymbolTable
 70
     0
  0
ENDTAB
  0
TABLE
  2
UCS
  5
7
330
0
100
AcDbSymbolTable
 70
     0
  0
ENDTAB
  0
TABLE
  2
APPID
  5
9
330
0
100
AcDbSymbolTable
 70
     1
  0
APPID
  5
12
330
9
100
AcDbSymbolTableRecord
100
AcDbRegAppTableRecord
  2
ACAD
 70
     0
  0
ENDTAB
  0
TABLE
  2
DIMSTYLE
  5
A
330
0
100
AcDbSymbolTable
 70
     1
100
AcDbDimStyleTable
  0
DIMSTYLE
105
27
330
A
100
AcDbSymbolTableRecord
100
AcDbDimStyleTableRecord
  2
ISO-25
 70
     0
 41
2.5
 42
0.625
 43
3.75
 44
1.25
 73
     0
 74
     0
 77
     1
 78
     8
140
2.5
141
2.5
143
0.0393700787
147
0.625
171
     3
172
     1
271
     2
272
     2
274
     3
278
    44
283
     0
284
     8
340
11
  0
ENDTAB
  0
TABLE
  2
BLOCK_RECORD
  5
1
330
0
100
AcDbSymbolTable
 70
     9
  0
BLOCK_RECORD
  5
1F
330
1
100
AcDbSymbolTableRecord
100
AcDbBlockTableRecord
  2
*Model_Space
340
22
  0
BLOCK_RECORD
  5
1B
330
1
100
AcDbSymbolTableRecord
100
AcDbBlockTableRecord
  2
*Paper_Space
340
1E
  0
BLOCK_RECORD
  5
5F
330
1
100
AcDbSymbolTableRecord
100
AcDbBlockTableRecord
  2
SEANNOT_GROUP
340
0
102
{BLKREFS
331
60
102
}
  0
BLOCK_RECORD
  5
66
330
1
100
AcDbSymbolTableRecord
100
AcDbBlockTableRecord
  2
SEANNOT_GROUP1
340
0
102
{BLKREFS
331
67
102
}
  0
BLOCK_RECORD
  5
6C
330
1
100
AcDbSymbolTableRecord
100
AcDbBlockTableRecord
  2
SEANNOT_GROUP2
340
0
102
{BLKREFS
331
6D
102
}
  0
BLOCK_RECORD
  5
72
330
1
100
AcDbSymbolTableRecord
100
AcDbBlockTableRecord
  2
SEANNOT_GROUP3
340
0
102
{BLKREFS
331
73
102
}
  0
BLOCK_RECORD
  5
78
330
1
100
AcDbSymbolTableRecord
100
AcDbBlockTableRecord
  2
SEANNOT_GROUP4
340
0
102
{BLKREFS
331
79
102
}
  0
BLOCK_RECORD
  5
7E
330
1
100
AcDbSymbolTableRecord
100
AcDbBlockTableRecord
  2
SE
340
0
102
{BLKREFS
331
7F
102
}
  0
BLOCK_RECORD
  5
17C
330
1
100
AcDbSymbolTableRecord
100
AcDbBlockTableRecord
  2
SE1
340
0
102
{BLKREFS
331
17D
102
}
  0
BLOCK_RECORD
  5
248
330
1
100
AcDbSymbolTableRecord
100
AcDbBlockTableRecord
  2
SE2
340
0
102
{BLKREFS
331
249
102
}
  0
ENDTAB
  0
ENDSEC
  0
SECTION
  2
BLOCKS
  0
BLOCK
  5
20
330
1F
100
AcDbEntity
  8
0
100
AcDbBlockBegin
  2
*Model_Space
 70
     0
 10
0.0
 20
0.0
 30
0.0
  3
*Model_Space
  1

  0
ENDBLK
  5
21
330
1F
100
AcDbEntity
  8
0
100
AcDbBlockEnd
  0
BLOCK
  5
1C
330
1B
100
AcDbEntity
 67
     1
  8
0
100
AcDbBlockBegin
  2
*Paper_Space
 70
     0
 10
0.0
 20
0.0
 30
0.0
  3
*Paper_Space
  1

  0
ENDBLK
  5
1D
330
1B
100
AcDbEntity
 67
     1
  8
0
100
AcDbBlockEnd
  0
BLOCK
  5
64
330
5F
100
AcDbEntity
  8
0
100
AcDbBlockBegin
  2
SEANNOT_GROUP
 70
     0
 10
0.0
 20
0.0
 30
0.0
  3
SEANNOT_GROUP
  1

  0
LINE
  5
62
330
5F
100
AcDbEntity
  8
Default
  6
CENTER2
 62
     7
100
AcDbLine
 10
46.9025393685
 20
266.116263757
 30
0.0
 11
6.9025402626
 21
266.116263757
 31
0.0
  0
LINE
  5
63
330
5F
100
AcDbEntity
  8
Default
  6
CENTER2
 62
     7
100
AcDbLine
 10
26.9025398156
 20
286.11626331
 30
0.0
 11
26.9025398156
 21
246.116264204
 31
0.0
  0
ENDBLK
  5
65
330
5F
100
AcDbEntity
  8
0
100
AcDbBlockEnd
  0
BLOCK
  5
6A
330
66
100
AcDbEntity
  8
0
100
AcDbBlockBegin
  2
SEANNOT_GROUP1
 70
     0
 10
0.0
 20
0.0
 30
0.0
  3
SEANNOT_GROUP1
  1

  0
LINE
  5
68
330
66
100
AcDbEntity
  8
Default
  6
CENTER2
 62
     7
100
AcDbLine
 10
46.9025393685
 20
204.5444314815
 30
0.0
 11
6.9025402626
 21
204.5444314815
 31
0.0
  0
LINE
  5
69
330
66
100
AcDbEntity
  8
Default
  6
CENTER2
 62
     7
100
AcDbLine
 10
26.9025398156
 20
224.5444310345
 30
0.0
 11
26.9025398156
 21
184.5444319285
 31
0.0
  0
ENDBLK
  5
6B
330
66
100
AcDbEntity
  8
0
100
AcDbBlockEnd
  0
BLOCK
  5
70
330
6C
100
AcDbEntity
  8
0
100
AcDbBlockBegin
  2
SEANNOT_GROUP2
 70
     0
 10
0.0
 20
0.0
 30
0.0
  3
SEANNOT_GROUP2
  1

  0
LINE
  5
6E
330
6C
100
AcDbEntity
  8
Default
  6
CENTER2
 62
     7
100
AcDbLine
 10
129.6090779165
 20
306.116263757
 30
0.0
 11
89.6090788105
 21
306.116263757
 31
0.0
  0
LINE
  5
6F
330
6C
100
AcDbEntity
  8
Default
  6
CENTER2
 62
     7
100
AcDbLine
 10
109.6090783635
 20
326.11626331
 30
0.0
 11
109.6090783635
 21
286.116264204
 31
0.0
  0
ENDBLK
  5
71
330
6C
100
AcDbEntity
  8
0
100
AcDbBlockEnd
  0
BLOCK
  5
76
330
72
100
AcDbEntity
  8
0
100
AcDbBlockBegin
  2
SEANNOT_GROUP3
 70
     0
 10
0.0
 20
0.0
 30
0.0
  3
SEANNOT_GROUP3
  1

  0
LINE
  5
74
330
72
100
AcDbEntity
  8
Default
  6
CENTER2
 62
     7
100
AcDbLine
 10
177.6090779165
 20
266.116263757
 30
0.0
 11
137.6090788105
 21
266.116263757
 31
0.0
  0
LINE
  5
75
330
72
100
AcDbEntity
  8
Default
  6
CENTER2
 62
     7
100
AcDbLine
 10
157.6090783635
 20
286.11626331
 30
0.0
 11
157.6090783635
 21
246.116264204
 31
0.0
  0
ENDBLK
  5
77
330
72
100
AcDbEntity
  8
0
100
AcDbBlockEnd
  0
BLOCK
  5
7C
330
78
100
AcDbEntity
  8
0
100
AcDbBlockBegin
  2
SEANNOT_GROUP4
 70
     0
 10
0.0
 20
0.0
 30
0.0
  3
SEANNOT_GROUP4
  1

  0
LINE
  5
7A
330
78
100
AcDbEntity
  8
Default
  6
CENTER2
 62
     7
100
AcDbLine
 10
46.9025393685
 20
156.5444314815
 30
0.0
 11
6.9025402626
 21
156.5444314815
 31
0.0
  0
LINE
  5
7B
330
78
100
AcDbEntity
  8
Default
  6
CENTER2
 62
     7
100
AcDbLine
 10
26.9025398156
 20
176.5444310345
 30
0.0
 11
26.9025398156
 21
136.5444319285
 31
0.0
  0
ENDBLK
  5
7D
330
78
100
AcDbEntity
  8
0
100
AcDbBlockEnd
  0
BLOCK
  5
17A
330
7E
100
AcDbEntity
  8
0
100
AcDbBlockBegin
  2
SE
 70
     0
 10
0.0
 20
0.0
 30
0.0
  3
SE
  1

  0
LINE
  5
81
330
7E
100
AcDbEntity
  8
DV1_Standard
  6
Continuous
 62
     7
100
AcDbLine
 10
27.9901639891
 20
279.366263757
 30
0.0
 11
27.9901639891
 21
279.3100048538
 31
0.0
  0
LINE
  5
82
330
7E
100
AcDbEntity
  8
DV1_Standard
  6
Continuous
 62
     7
100
AcDbLine
 10
25.814915642
 20
279.3100048538
 30
0.0
 11
25.814915642
 21
279.366263757
 31
0.0
  0
LINE
  5
83
330
7E
100
AcDbEntity
  8
DV1_Standard
  6
Continuous
 62
     7
100
AcDbLine
 10
13.4025398156
 20
279.3100048538
 30
0.0
 11
13.4025398156
 21
279.366263757
 31
0.0
  0
LINE
  5
84
330
7E
100
AcDbEntity
  8
DV1_Standard
  6
Continuous
 62
     7
100
AcDbLine
 10
14.4901639891
 20
279.366263757
 30
0.0
 11
14.4901639891
 21
279.3100048538
 31
0.0
  0
LINE
  5
85
330
7E
100
AcDbEntity
  8
DV1_Standard
  6
Continuous
 62
     7
100
AcDbLine
 10
13.6525398156
 20
267.116263757
 30
0.0
 11
40.1525398156
 21
267.116263757
 31
0.0
  0
LINE
  5
86
330
7E
100
AcDbEntity
  8
DV1_Standard
  6
Continuous
 62
     7
100
AcDbLine
 10
13.6525398156
 20
277.116263757
 30
0.0
 11
40.1525398156
 21
277.116263757
 31
0.0
  0
LINE
  5
87
330
7E
100
AcDbEntity
  8
DV1_Standard
  6
Continuous
 62
     7
100
AcDbLine
 10
39.1525398173
 20
266.116263757
 30
0.0
 11
14.6525398138
 21
266.116263757
 31
0.0
  0
LINE
  5
88
330
7E
100
AcDbEntity
  8
DV1_Standard
  6
Continuous
 62
     7
100
AcDbLine
 10
13.4025398156
 20
279.3100048538
 30
0.0
 11
13.4025398156
 21
277.1886849502
 31
0.0
  0
LINE
  5
89
330
7E
100
AcDbEntity
  8
DV1_Standard
  6
Continuous
 62
     7
100
AcDbLine
 10
40.4025398156
 20
279.3100048538
 30
0.0
 11
40.4025398156
 21
277.1886849502
 31
0.0
  0
LINE
  5
8A
330
7E
100
AcDbEntity
  8
DV1_Standard
  6
Continuous
 62
     7
100
AcDbLine
 10
39.314915642
 20
279.3100048538
 30
0.0
 11
40.4025398156
 21
279.3100048538
 31
0.0
  0
SPLINE
  5
8B
330
7E
100
AcDbEntity
  8
DV1_Standard
  6
Continuous
 62
     7
100
AcDbSpline
210
0.0
220
0.0
230
1.0
 70
     8
 71
     3
 72
    22
 73
    18
 74
     0
 42
0.0000000007591437
 43
0.0000000001
 40
0.0
 40
0.0
 40
0.0
 40
0.0
 40
0.0625000000000004
 40
0.0625000000000004
 40
0.1250000000000007
 40
0.1250000000000007
 40
0.2500000000000011
 40
0.2500000000000011
 40
0.5000000000000011
 40
0.5000000000000011
 40
0.7500000000000012
 40
0.7500000000000012
 40
0.8750000000000007
 40
0.8750000000000007
 40
0.9375000000000004
 40
0.9375000000000004
 40
1.0
 40
1.0
 40
1.0
 40
1.0
 10
27.99016398910129
 20
279.3100048538437
 30
0.0
 10
27.99016398910127
 20
278.9960921491148
 30
0.0
 10
28.12806549457049
 20
278.7036596556891
 30
0.0
 10
28.49709915920062
 20
278.2572930325164
 30
0.0
 10
28.72776671997197
 20
278.0875519782167
 30
0.0
 10
29.44438815211224
 20
277.680875751535
 30
0.0
 10
29.96966253568394
 20
277.5324162826223
 30
0.0
 10
31.53032578890639
 20
277.2233323899364
 30
0.0
 10
32.59663558826314
 20
277.1884989996081
 30
0.0
 10
34.71848286151516
 20
277.1888709007228
 30
0.0
 10
35.78678538707354
 20
277.223772675523
 30
0.0
 10
37.35135690936788
 20
277.536564924307
 30
0.0
 10
37.87295093750735
 20
277.6854553533126
 30
0.0
 10
38.58693646268642
 20
278.0942417062149
 30
0.0
 10
38.8124775720841
 20
278.2609899694658
 30
0.0
 10
39.18102159230163
 20
278.7102900002038
 30
0.0
 10
39.31491564200878
 20
278.9988695651055
 30
0.0
 10
39.31491564200744
 20
279.3100048538437
 30
0.0
  0
SPLINE
  5
8C
330
7E
100
AcDbEntity
  8
DV1_Standard
  6
Continuous
 62
     7
100
AcDbSpline
210
0.0
220
0.0
230
1.0
 70
     8
 71
     3
 72
    22
 73
    18
 74
     0
 42
0.0000000007591437
 43
0.0000000001
 40
0.0
 40
0.0
 40
0.0
 40
0.0
 40
0.0625
 40
0.0625
 40
0.1249999999999999
 40
0.1249999999999999
 40
0.2500000000000001
 40
0.2500000000000001
 40
0.5000000000000003
 40
0.5000000000000003
 40
0.7500000000000006
 40
0.7500000000000006
 40
0.8750000000000008
 40
0.8750000000000008
 40
0.9375000000000003
 40
0.9375000000000003
 40
1.0
 40
1.0
 40
1.0
 40
1.0
 10
14.4901639891013
 20
279.3100048538437
 30
0.0
 10
14.4901639891013
 20
278.9960921491148
 30
0.0
 10
14.62806549457051
 20
278.7036596556891
 30
0.0
 10
14.99709915920064
 20
278.2572930325165
 30
0.0
 10
15.22776671997198
 20
278.0875519782167
 30
0.0
 10
15.94438815211225
 20
277.680875751535
 30
0.0
 10
16.46966253568395
 20
277.5324162826223
 30
0.0
 10
18.03032578890639
 20
277.2233323899364
 30
0.0
 10
19.09663558826313
 20
277.1884989996081
 30
0.0
 10
21.21848286151515
 20
277.1888709007228
 30
0.0
 10
22.28678538707353
 20
277.223772675523
 30
0.0
 10
23.85135690936787
 20
277.536564924307
 30
0.0
 10
24.37295093750733
 20
277.6854553533126
 30
0.0
 10
25.08693646268639
 20
278.0942417062149
 30
0.0
 10
25.31247757208409
 20
278.2609899694658
 30
0.0
 10
25.68102159230163
 20
278.7102900002037
 30
0.0
 10
25.81491564200876
 20
278.9988695651055
 30
0.0
 10
25.81491564200743
 20
279.3100048538437
 30
0.0
  0
LINE
  5
8D
330
7E
100
AcDbEntity
  8
DV1_Standard
  6
Continuous
 62
     7
100
AcDbLine
 10
13.4025398156
 20
279.366263757
 30
0.0
 11
13.4025398156
 21
281.4875836607
 31
0.0
  0
SPLINE
  5
8E
330
7E
100
AcDbEntity
  8
DV1_Standard
  6
Continuous
 62
     7
100
AcDbSpline
210
0.0
220
0.0
230
1.0
 70
     8
 71
     3
 72
    22
 73
    18
 74
     0
 42
0.0000000007591437
 43
0.0000000001
 40
0.0
 40
0.0
 40
0.0
 40
0.0
 40
0.0625000000000005
 40
0.0625000000000005
 40
0.125000000000001
 40
0.125000000000001
 40
0.2500000000000007
 40
0.2500000000000007
 40
0.5000000000000003
 40
0.5000000000000003
 40
0.7499999999999999
 40
0.7499999999999999
 40
0.8749999999999996
 40
0.8749999999999996
 40
0.9374999999999999
 40
0.9374999999999999
 40
1.0
 40
1.0
 40
1.0
 40
1.0
 10
25.81491564200743
 20
279.3662637569957
 30
0.0
 10
25.81491564200743
 20
279.6801764617247
 30
0.0
 10
25.67701413653824
 20
279.9726089551503
 30
0.0
 10
25.30798047190811
 20
280.4189755783229
 30
0.0
 10
25.07731291113676
 20
280.5887166326227
 30
0.0
 10
24.36069147899649
 20
280.9953928593044
 30
0.0
 10
23.83541709542478
 20
281.1438523282171
 30
0.0
 10
22.27475384220235
 20
281.452936220903
 30
0.0
 10
21.2084440428456
 20
281.4877696112313
 30
0.0
 10
19.08659676959359
 20
281.4873977101167
 30
0.0
 10
18.01829424403521
 20
281.4524959353164
 30
0.0
 10
16.45372272174088
 20
281.1397036865325
 30
0.0
 10
15.93212869360142
 20
280.9908132575269
 30
0.0
 10
15.21814316842236
 20
280.5820269046246
 30
0.0
 10
14.99260205902466
 20
280.4152786413736
 30
0.0
 10
14.62405803880713
 20
279.9659786106357
 30
0.0
 10
14.49016398909994
 20
279.6773990457338
 30
0.0
 10
14.4901639891013
 20
279.3662637569957
 30
0.0
  0
SPLINE
  5
8F
330
7E
100
AcDbEntity
  8
DV1_Standard
  6
Continuous
 62
     7
100
AcDbSpline
210
0.0
220
0.0
230
1.0
 70
     8
 71
     3
 72
    22
 73
    18
 74
     0
 42
0.0000000007591437
 43
0.0000000001
 40
0.0
 40
0.0
 40
0.0
 40
0.0
 40
0.0624999999999999
 40
0.0624999999999999
 40
0.1249999999999999
 40
0.1249999999999999
 40
0.2499999999999995
 40
0.2499999999999995
 40
0.4999999999999997
 40
0.4999999999999997
 40
0.7499999999999997
 40
0.7499999999999997
 40
0.875
 40
0.875
 40
0.9375
 40
0.9375
 40
1.0
 40
1.0
 40
1.0
 40
1.0
 10
39.31491564200744
 20
279.3662637569957
 30
0.0
 10
39.31491564200745
 20
279.6801764617247
 30
0.0
 10
39.17701413653823
 20
279.9726089551503
 30
0.0
 10
38.80798047190812
 20
280.4189755783229
 30
0.0
 10
38.57731291113677
 20
280.5887166326227
 30
0.0
 10
37.8606914789965
 20
280.9953928593044
 30
0.0
 10
37.3354170954248
 20
281.1438523282171
 30
0.0
 10
35.77475384220237
 20
281.452936220903
 30
0.0
 10
34.70844404284561
 20
281.4877696112313
 30
0.0
 10
32.58659676959359
 20
281.4873977101167
 30
0.0
 10
31.5182942440352
 20
281.4524959353164
 30
0.0
 10
29.95372272174086
 20
281.1397036865325
 30
0.0
 10
29.4321286936014
 20
280.9908132575269
 30
0.0
 10
28.71814316842233
 20
280.5820269046246
 30
0.0
 10
28.49260205902464
 20
280.4152786413736
 30
0.0
 10
28.1240580388071
 20
279.9659786106357
 30
0.0
 10
27.99016398909989
 20
279.6773990457338
 30
0.0
 10
27.99016398910129
 20
279.3662637569957
 30
0.0
  0
LINE
  5
90
330
7E
100
AcDbEntity
  8
DV1_Standard
  6
Continuous
 62
     7
100
AcDbLine
 10
40.4025398156
 20
279.366263757
 30
0.0
 11
39.314915642
 21
279.366263757
 31
0.0
  0
LINE
  5
91
330
7E
100
AcDbEntity
  8
DV1_Standard
  6
Continuous
 62
     7
100
AcDbLine
 10
40.4025398156
 20
279.366263757
 30
0.0
 11
40.4025398156
 21
281.4875836607
 31
0.0
  0
LINE
  5
92
330
7E
100
AcDbEntity
  8
DV1_Standard
  6
Continuous
 62
     7
100
AcDbLine
 10
14.1525398156
 20
281.616263757
 30
0.0
 11
39.6525398156
 21
281.616263757
 31
0.0
  0
LINE
  5
93
330
7E
100
AcDbEntity
  8
DV1_Standard
  6
Continuous
 62
     7
100
AcDbLine
 10
39.314915642
 20
279.3100048538
 30
0.0
 11
39.314915642
 21
279.366263757
 31
0.0
  0
LINE
  5
94
330
7E
100
AcDbEntity
  8
DV1_Standard
  6
Continuous
 62
     7
100
AcDbLine
 10
40.4025398156
 20
279.366263757
 30
0.0
 11
40.4025398156
 21
279.3100048538
 31
0.0
  0
LINE
  5
95
330
7E
100
AcDbEntity
  8
DV1_Standard
  6
Continuous
 62
     7
100
AcDbLine
 10
13.6525398156
 20
277.116263757
 30
0.0
 11
13.6525398156
 21
267.116263757
 31
0.0
  0
LINE
  5
96
330
7E
100
AcDbEntity
  8
DV1_Standard
  6
Continuous
 62
     7
100
AcDbLine
 10
40.1525398156
 20
267.116263757
 30
0.0
 11
40.1525398156
 21
277.116263757
 31
0.0
  0
ARC
  5
97
330
7E
100
AcDbEntity
  8
DV1_Standard
  6
Continuous
 62
     7
100
AcDbCircle
 10
39.6525398156
 20
279.3100048538
 30
0.0
 40
2.249999999999986
100
AcDbArc
 50
282.8395884069
 51
289.5086225143
  0
ARC
  5
98
330
7E
100
AcDbEntity
  8
DV1_Standard
  6
Continuous
 62
     7
100
AcDbCircle
 10
14.1525398156
 20
279.3100048538
 30
0.0
 40
2.249999999999999
100
AcDbArc
 50
250.4896195757
 51
257.1604115931
  0
ARC
  5
99
330
7E
100
AcDbEntity
  8
DV1_Standard
  6
Continuous
 62
     7
100
AcDbCircle
 10
14.1525398156
 20
279.366263757
 30
0.0
 40
2.249999999999999
100
AcDbArc
 50
90.0
 51
109.5086225143
  0
ARC
  5
9A
330
7E
100
AcDbEntity
  8
DV1_Standard
  6
Continuous
 62
     7
100
AcDbCircle
 10
39.6525398156
 20
279.366263757
 30
0.0
 40
2.250000000000001
100
AcDbArc
 50
70.4896195757
 51
90.0
  0
LINE
  5
9B
330
7E
100
AcDbEntity
  8
DV1_Standard
  6
Continuous
 62
     7
100
AcDbLine
 10
13.6525398156
 20
267.116263757
 30
0.0
 11
14.6525398138
 21
266.116263757
 31
0.0
  0
LINE
  5
9C
330
7E
100
AcDbEntity
  8
DV1_Standard
  6
Continuous
 62
     7
100
AcDbLine
 10
39.1525398173
 20
266.116263757
 30
0.0
 11
40.1525398156
 21
267.116263757
 31
0.0
  0
ARC
  5
9D
330
7E
100
AcDbEntity
  8
DV1_Standard
  6
Continuous
 62
     7
100
AcDbCircle
 10
-447.9843294543
 20
307.6761124684
 30
0.0
 40
466.5011803887381
100
AcDbArc
 50
0.9405399833
 51
3.6800357386
  0
ARC
  5
9E
330
7E
100
AcDbEntity
  8
DV1_Standard
  6
Continuous
 62
     7
100
AcDbCircle
 10
564.1812727161
 20
305.1589801582
 30
0.0
 40
528.9280621731189
100
AcDbArc
 50
176.4816553419
 51
178.8977701015
  0
SPLINE
  5
9F
330
7E
100
AcDbEntity
  8
DV1_Standard
  6
Continuous
 62
     7
100
AcDbSpline
210
0.0
220
0.0
230
1.0
 70
     8
 71
     3
 72
    26
 73
    22
 74
     0
 42
0.0000000004561086
 43
0.0000000001
 40
0.0
 40
0.0
 40
0.0
 40
0.0
 40
0.0625
 40
0.0625
 40
0.1249999999999999
 40
0.1249999999999999
 40
0.1875
 40
0.1875
 40
0.2500000000000001
 40
0.2500000000000001
 40
0.5
 40
0.5
 40
0.7499999999999999
 40
0.7499999999999999
 40
0.8124999999999999
 40
0.8124999999999999
 40
0.8749999999999999
 40
0.8749999999999999
 40
0.9374999999999999
 40
0.9374999999999999
 40
1.0
 40
1.0
 40
1.0
 40
1.0
 10
36.25013359127869
 20
337.6182977194723
 30
0.0
 10
36.04314255838025
 20
337.2422463944946
 30
0.0
 10
35.83288320810835
 20
336.8653254428619
 30
0.0
 10
35.40571653202149
 20
336.1098663566634
 30
0.0
 10
35.18011628328413
 20
335.7293286726269
 30
0.0
 10
34.56026809641967
 20
335.1099990005407
 30
0.0
 10
34.18761364745296
 20
334.8488356566098
 30
0.0
 10
33.37692285927449
 20
334.4514388480665
 30
0.0
 10
32.92819308170316
 20
334.3314976012948
 30
0.0
 10
30.66230223428402
 20
333.8261964620977
 30
0.0
 10
28.80381257084382
 20
333.6229082290469
 30
0.0
 10
25.02541381608111
 20
333.6211627025346
 30
0.0
 10
23.17161897385285
 20
333.8216287021356
 30
0.0
 10
20.89900516223711
 20
334.3261140150087
 30
0.0
 10
20.45185698788325
 20
334.4424230797401
 30
0.0
 10
19.63312706532256
 20
334.8386787311337
 30
0.0
 10
19.25690063183199
 20
335.099778917839
 30
0.0
 10
18.62816691424458
 20
335.7243124592535
 30
0.0
 10
18.40166191676369
 20
336.1058287324185
 30
0.0
 10
17.97334282972061
 20
336.8632734890956
 30
0.0
 10
17.76250831999723
 20
337.2412099489205
 30
0.0
 10
17.5549457769582
 20
337.6182987827215
 30
0.0
  0
ARC
  5
A0
330
7E
100
AcDbEntity
  8
DV1_Standard
  6
Continuous
 62
     7
100
AcDbCircle
 10
23.2964524015
 20
325.7775388767
 30
0.0
 40
11.5114823574523
100
AcDbArc
 50
188.9361107877
 51
197.5236762827
  0
ARC
  5
A1
330
7E
100
AcDbEntity
  8
DV1_Standard
  6
Continuous
 62
     7
100
AcDbCircle
 10
-281.9857569937
 20
305.7114954045
 30
0.0
 40
300.5847253370058
100
AcDbArc
 50
1.835342846
 51
6.2267475159
  0
ARC
  5
A2
330
7E
100
AcDbEntity
  8
DV1_Standard
  6
Continuous
 62
     7
100
AcDbCircle
 10
22.4857195565
 20
351.474902841
 30
0.0
 40
14.3264459845396
100
AcDbArc
 50
200.3957298233
 51
246.729135984
  0
ARC
  5
A3
330
7E
100
AcDbEntity
  8
DV1_Standard
  6
Continuous
 62
     7
100
AcDbCircle
 10
22.4857195565
 20
351.474902841
 30
0.0
 40
14.3264459845396
100
AcDbArc
 50
187.279648871
 51
200.3957298233
  0
ARC
  5
A4
330
7E
100
AcDbEntity
  8
DV1_Standard
  6
Continuous
 62
     7
100
AcDbCircle
 10
335.7908352074
 20
305.7114905448
 30
0.0
 40
300.5847240833137
100
AcDbArc
 50
173.7732514891
 51
178.1646562203
  0
ARC
  5
A5
330
7E
100
AcDbEntity
  8
DV1_Standard
  6
Continuous
 62
     7
100
AcDbCircle
 10
30.8115911236
 20
325.5492018817
 30
0.0
 40
11.1781528904927
100
AcDbArc
 50
343.0764432758
 51
351.9788908547
  0
ARC
  5
A6
330
7E
100
AcDbEntity
  8
DV1_Standard
  6
Continuous
 62
     7
100
AcDbCircle
 10
31.7179218084
 20
351.1745171611
 30
0.0
 40
13.89523800750214
100
AcDbArc
 50
340.0079744987
 51
353.7407916455
  0
ARC
  5
A7
330
7E
100
AcDbEntity
  8
DV1_Standard
  6
Continuous
 62
     7
100
AcDbCircle
 10
31.7179218084
 20
351.1745171611
 30
0.0
 40
13.89523800750214
100
AcDbArc
 50
292.2504251033
 51
340.0079744987
  0
SPLINE
  5
A8
330
7E
100
AcDbEntity
  8
DV1_Standard
  6
Continuous
 62
     7
100
AcDbSpline
210
0.0
220
0.0
230
1.0
 70
     8
 71
     3
 72
     8
 73
     4
 74
     0
 42
0.0000003360845912
 43
0.0000000001
 40
0.0
 40
0.0
 40
0.0
 40
0.0
 40
0.9999999999999999
 40
0.9999999999999999
 40
0.9999999999999999
 40
0.9999999999999999
 10
47.35410608386415
 20
352.1215336089169
 30
0.0
 10
47.35120266441664
 20
352.1120453692596
 30
0.0
 10
47.34823111105596
 20
352.1025828199085
 30
0.0
 10
47.34519136109418
 20
352.0931466218721
 30
0.0
  0
SPLINE
  5
A9
330
7E
100
AcDbEntity
  8
DV1_Standard
  6
Continuous
 62
     7
100
AcDbSpline
210
0.0
220
0.0
230
1.0
 70
     8
 71
     3
 72
    12
 73
     8
 74
     0
 42
0.0000000043406498
 43
0.0000000001
 40
0.0
 40
0.0
 40
0.0
 40
0.0
 40
0.1227196691261451
 40
0.1227196691261451
 40
0.5613598345630729
 40
0.5613598345630729
 40
0.9999999999999999
 40
0.9999999999999999
 40
0.9999999999999999
 40
0.9999999999999999
 10
47.34519136109418
 20
352.0931466218721
 30
0.0
 10
47.31727691278452
 20
352.0064926978197
 30
0.0
 10
47.28361144146989
 20
351.9220609815405
 30
0.0
 10
47.10308545967359
 20
351.5483494215572
 30
0.0
 10
46.8610134458033
 20
351.3081337225312
 30
0.0
 10
46.36894562704651
 20
350.8443544509834
 30
0.0
 10
46.11866273941336
 20
350.6104518537405
 30
0.0
 10
45.86417255433534
 20
350.3744782288567
 30
0.0
  0
SPLINE
  5
AA
330
7E
100
AcDbEntity
  8
DV1_Standard
  6
Continuous
 62
     7
100
AcDbSpline
210
0.0
220
0.0
230
1.0
 70
     8
 71
     3
 72
    12
 73
     8
 74
     0
 42
0.0000000043403128
 43
0.0000000001
 40
0.0
 40
0.0
 40
0.0
 40
0.0
 40
0.4364811867208108
 40
0.4364811867208108
 40
0.8729623734416216
 40
0.8729623734416216
 40
1.0
 40
1.0
 40
1.0
 40
1.0
 10
7.940907076773591
 20
350.3744782288562
 30
0.0
 10
7.68711827221024
 20
350.6098015052701
 30
0.0
 10
7.437495614557816
 20
350.8430817129521
 30
0.0
 10
6.946668705469637
 20
351.3056703095218
 30
0.0
 10
6.705094347487645
 20
351.5450001035153
 30
0.0
 10
6.523434920747411
 20
351.9171447620986
 30
0.0
 10
6.488587733483754
 20
352.0040976987993
 30
0.0
 10
6.459824874364893
 20
352.0934979480531
 30
0.0
  0
SPLINE
  5
AB
330
7E
100
AcDbEntity
  8
DV1_Standard
  6
Continuous
 62
     7
100
AcDbSpline
210
0.0
220
0.0
230
1.0
 70
     8
 71
     3
 72
     8
 73
     4
 74
     0
 42
0.0000003450709667
 43
0.0000000001
 40
0.0
 40
0.0
 40
0.0
 40
0.0
 40
1.0
 40
1.0
 40
1.0
 40
1.0
 10
6.459824874364893
 20
352.0934979480531
 30
0.0
 10
6.456867920289395
 20
352.1026887044479
 30
0.0
 10
6.453975270168111
 20
352.1119053259623
 30
0.0
 10
6.451146901050066
 20
352.1211471490703
 30
0.0
  0
LINE
  5
AC
330
7E
100
AcDbEntity
  8
DV1_Standard
  6
Continuous
 62
     7
100
AcDbLine
 10
18.44476673
 20
315.3384118916
 30
0.0
 11
18.4539984775
 21
315.3336277491
 31
0.0
  0
ARC
  5
AD
330
7E
100
AcDbEntity
  8
DV1_Standard
  6
Continuous
 62
     7
100
AcDbCircle
 10
16.0984315346
 20
336.8214519187
 30
0.0
 40
1.660240543652964
100
AcDbArc
 50
28.6827035398
 51
64.022380935
  0
ARC
  5
AE
330
7E
100
AcDbEntity
  8
DV1_Standard
  6
Continuous
 62
     7
100
AcDbCircle
 10
7.2397843288
 20
349.6116685906
 30
0.0
 40
1.036075118856358
100
AcDbArc
 50
5.4197174334
 51
47.4128906753
  0
ARC
  5
AF
330
7E
100
AcDbEntity
  8
DV1_Standard
  6
Continuous
 62
     7
100
AcDbCircle
 10
46.565294101
 20
349.6116691516
 30
0.0
 40
1.03607389294633
100
AcDbArc
 50
132.5870814075
 51
169.2371766655
  0
ARC
  5
B0
330
7E
100
AcDbEntity
  8
DV1_Standard
  6
Continuous
 62
     7
100
AcDbCircle
 10
46.565294101
 20
349.6116691516
 30
0.0
 40
1.03607389294633
100
AcDbArc
 50
169.2371766655
 51
170.042167008
  0
LINE
  5
B1
330
7E
100
AcDbEntity
  8
DV1_Standard
  6
Continuous
 62
     7
100
AcDbLine
 10
35.3510811607
 20
315.3336277528
 30
0.0
 11
35.3603128936
 21
315.3384118877
 31
0.0
  0
ARC
  5
B2
330
7E
100
AcDbEntity
  8
DV1_Standard
  6
Continuous
 62
     7
100
AcDbCircle
 10
37.706649981
 20
336.8214506134
 30
0.0
 40
1.660242543733747
100
AcDbArc
 50
115.9776426137
 51
151.317324701
  0
ELLIPSE
  5
B3
330
7E
100
AcDbEntity
  8
DV1_Standard
  6
Continuous
 62
     7
100
AcDbEllipse
 10
35.3164746383
 20
362.8486095488
 30
0.0
 11
-0.110430507071874
 21
-0.2789356612336313
 31
0.0
210
0.0
220
0.0
230
0.9999999999999998
 40
0.2955737805
 41
3.131042627382279
 42
3.15321099064165
  0
ELLIPSE
  5
B4
330
7E
100
AcDbEntity
  8
DV1_Standard
  6
Continuous
 62
     7
100
AcDbEllipse
 10
18.4886049929
 20
362.8486095488
 30
0.0
 11
0.110430507071841
 21
-0.2789356612335827
 31
0.0
210
0.0
220
0.0
230
1.0
 40
0.2955737805
 41
3.127458049771234
 42
3.150375297853512
  0
ELLIPSE
  5
B5
330
7E
100
AcDbEntity
  8
DV1_Standard
  6
Continuous
 62
     7
100
AcDbEllipse
 10
18.6124462577
 20
315.5418195744
 30
0.0
 11
0.1380303667554237
 21
0.2663599404064843
 31
0.0
210
0.0
220
0.0
230
1.0
 40
0.3601615391
 41
2.604424879797244
 42
3.189990206683761
  0
ELLIPSE
  5
B6
330
7E
100
AcDbEntity
  8
DV1_Standard
  6
Continuous
 62
     7
100
AcDbEllipse
 10
18.6230636124
 20
315.5362843412
 30
0.0
 11
0.1393415382476681
 21
0.2656763740320062
 31
0.0
210
0.0
220
0.0
230
1.0
 40
0.3631334699
 41
2.606041276435497
 42
3.142326198379234
  0
ELLIPSE
  5
B7
330
7E
100
AcDbEntity
  8
DV1_Standard
  6
Continuous
 62
     7
100
AcDbEllipse
 10
35.1820160282
 20
315.5362843463
 30
0.0
 11
-0.1393415360070993
 21
0.2656763752071148
 31
0.0
210
0.0
220
0.0
230
1.0
 40
0.3631334648
 41
3.14117342039354
 42
3.677144033548846
  0
ELLIPSE
  5
B8
330
7E
100
AcDbEntity
  8
DV1_Standard
  6
Continuous
 62
     7
100
AcDbEllipse
 10
35.192633366
 20
315.5418195706
 30
0.0
 11
-0.1380303666029936
 21
0.2663599404855374
 31
0.0
210
0.0
220
0.0
230
1.0
 40
0.3601615388
 41
3.093195152645197
 42
3.678760427587419
  0
ARC
  5
B9
330
7E
100
AcDbEntity
  8
DV1_Standard
  6
Continuous
 62
     7
100
AcDbCircle
 10
-362.6719886754
 20
282.7599938428
 30
0.0
 40
376.8578983694462
100
AcDbArc
 50
6.248276334
 51
10.034021225
  0
ARC
  5
BA
330
7E
100
AcDbEntity
  8
DV1_Standard
  6
Continuous
 62
     7
100
AcDbCircle
 10
416.5404942864
 20
282.751028927
 30
0.0
 40
376.921923419492
100
AcDbArc
 50
169.9663236547
 51
173.751441862
  0
ARC
  5
BB
330
7E
100
AcDbEntity
  8
DV1_Standard
  6
Continuous
 62
     7
100
AcDbCircle
 10
152.9343458341
 20
317.67961459
 30
0.0
 40
111.0554923530662
100
AcDbArc
 50
161.9480279269
 51
171.2464025544
  0
ARC
  5
BC
330
7E
100
AcDbEntity
  8
DV1_Standard
  6
Continuous
 62
     7
100
AcDbCircle
 10
-99.3052076244
 20
317.6463229308
 30
0.0
 40
111.2332285488296
100
AcDbArc
 50
8.7541873617
 51
18.0406661487
  0
ARC
  5
BD
330
7E
100
AcDbEntity
  8
DV1_Standard
  6
Continuous
 62
     7
100
AcDbCircle
 10
-368.6031471326
 20
283.2321859186
 30
0.0
 40
382.6927113983966
100
AcDbArc
 50
10.0089790504
 51
10.0157103297
  0
ARC
  5
BE
330
7E
100
AcDbEntity
  8
DV1_Standard
  6
Continuous
 62
     7
100
AcDbCircle
 10
46.6180387146
 20
349.6200151048
 30
0.0
 40
1.084960416121138
100
AcDbArc
 50
170.2987296007
 51
177.2209282766
  0
SPLINE
  5
BF
330
7E
100
AcDbEntity
  8
DV1_Standard
  6
Continuous
 62
     7
100
AcDbSpline
210
0.0
220
0.0
230
1.0
 70
     8
 71
     3
 72
    42
 73
    38
 74
     0
 42
0.0000000005997742
 43
0.0000000001
 40
0.0
 40
0.0
 40
0.0
 40
0.0
 40
0.0140072012960505
 40
0.0307874149965229
 40
0.047855711816041
 40
0.0659635193103931
 40
0.085313629518826
 40
0.1062346370042026
 40
0.1289447677004365
 40
0.1562138215990885
 40
0.1971359004481389
 40
0.2381152707807165
 40
0.2792263845100664
 40
0.3203985395409495
 40
0.3616413892175492
 40
0.4029014714412438
 40
0.4440528395723424
 40
0.4851577158988813
 40
0.5262256241423954
 40
0.5673111807353944
 40
0.6084805744392825
 40
0.6498297215998253
 40
0.6911689256813369
 40
0.7167490601406834
 40
0.7389550169372089
 40
0.7592567580269524
 40
0.7779706331311882
 40
0.7955330308260815
 40
0.8123725038317895
 40
0.8301299883251442
 40
0.8478710341166176
 40
0.8661476339366633
 40
0.8851170254047178
 40
0.9049347101120642
 40
0.9254206792576779
 40
0.9497895484695761
 40
1.0
 40
1.0
 40
1.0
 40
1.0
 10
47.34942571258463
 20
352.1227762749697
 30
0.0
 10
47.37160163598206
 20
352.1930437977113
 30
0.0
 10
47.4119184181068
 20
352.323902872468
 30
0.0
 10
47.44502338431872
 20
352.5578757608548
 30
0.0
 10
47.45436947450892
 20
352.8084307779941
 30
0.0
 10
47.43671360157261
 20
353.0758177216752
 30
0.0
 10
47.39127784167942
 20
353.361716644712
 30
0.0
 10
47.31660551052074
 20
353.6697409617591
 30
0.0
 10
47.20669976658597
 20
354.0114919502972
 30
0.0
 10
47.05500458208499
 20
354.4430815799121
 30
0.0
 10
46.8498609701106
 20
354.9581640631525
 30
0.0
 10
46.58976326744523
 20
355.5307751870191
 30
0.0
 10
46.29999373943026
 20
356.0964865029329
 30
0.0
 10
45.98106814040075
 20
356.6542920105201
 30
0.0
 10
45.63365692661517
 20
357.2028564352389
 30
0.0
 10
45.25869146551305
 20
357.7405694802397
 30
0.0
 10
44.85717591326745
 20
358.2660703134456
 30
0.0
 10
44.43015305757028
 20
358.7785117709206
 30
0.0
 10
43.97769008552599
 20
359.2775633860848
 30
0.0
 10
43.50003775533658
 20
359.7629942485545
 30
0.0
 10
42.99701820799649
 20
360.2348651393307
 30
0.0
 10
42.46976815354943
 20
360.6925237475295
 30
0.0
 10
41.98802495815857
 20
361.0781249692193
 30
0.0
 10
41.58075597395013
 20
361.3866541083319
 30
0.0
 10
41.25496512310659
 20
361.6147802873382
 30
0.0
 10
40.94672946065469
 20
361.8097336071958
 30
0.0
 10
40.64752121412799
 20
361.9790024045512
 30
0.0
 10
40.35356054302641
 20
362.125871924896
 30
0.0
 10
40.05306559438134
 20
362.2565219177717
 30
0.0
 10
39.74110907811766
 20
362.371894435809
 30
0.0
 10
39.41278624718521
 20
362.4737927517205
 30
0.0
 10
39.07171036779359
 20
362.560982724257
 30
0.0
 10
38.71490183723013
 20
362.6338987669554
 30
0.0
 10
38.34291043696626
 20
362.6920842925435
 30
0.0
 10
37.94051259679684
 20
362.7359383100338
 30
0.0
 10
37.3386132988558
 20
362.7999962866537
 30
0.0
 10
36.90975221333479
 20
362.835161851473
 30
0.0
 10
36.5637180586766
 20
362.8634480495284
 30
0.0
  0
ARC
  5
C0
330
7E
100
AcDbEntity
  8
DV1_Standard
  6
Continuous
 62
     7
100
AcDbCircle
 10
36.8642723961
 20
366.7974138221
 30
0.0
 40
3.941261276413217
100
AcDbArc
 50
248.6143363014
 51
265.6273944218
  0
ARC
  5
C1
330
7E
100
AcDbEntity
  8
DV1_Standard
  6
Continuous
 62
     7
100
AcDbCircle
 10
26.9040734541
 20
341.0060715814
 30
0.0
 40
23.70326388453141
100
AcDbArc
 50
68.9321024934
 51
111.0741913635
  0
ARC
  5
C2
330
7E
100
AcDbEntity
  8
DV1_Standard
  6
Continuous
 62
     7
100
AcDbCircle
 10
7.8713846031
 20
349.6903199639
 30
0.0
 40
0.3985423204957413
100
AcDbArc
 50
357.4157021199
 51
15.0345934434
  0
ARC
  5
C3
330
7E
100
AcDbEntity
  8
DV1_Standard
  6
Continuous
 62
     7
100
AcDbCircle
 10
16.936609168
 20
366.7804365562
 30
0.0
 40
3.925555125866136
100
AcDbArc
 50
274.4526194367
 51
291.5263368144
  0
SPLINE
  5
C4
330
7E
100
AcDbEntity
  8
DV1_Standard
  6
Continuous
 62
     7
100
AcDbSpline
210
0.0
220
0.0
230
1.0
 70
     8
 71
     3
 72
    42
 73
    38
 74
     0
 42
0.0000000005997712
 43
0.0000000001
 40
0.0
 40
0.0
 40
0.0
 40
0.0
 40
0.0377675990278655
 40
0.0708997238171206
 40
0.0932709364265153
 40
0.1134514452343387
 40
0.1324381108397922
 40
0.1503595308370504
 40
0.167464775899092
 40
0.1857292505747784
 40
0.2031597752920828
 40
0.2210497221111908
 40
0.2398355355626692
 40
0.2597879187728829
 40
0.2812340971229059
 40
0.3043713316055895
 40
0.334464607686135
 40
0.375563303891134
 40
0.4167449293348158
 40
0.4579980208121673
 40
0.4992923183021731
 40
0.5406242452926483
 40
0.5819287304700409
 40
0.622986220120139
 40
0.6641227240043692
 40
0.705169949716511
 40
0.7462214403523187
 40
0.7873488636057917
 40
0.8286443553169148
 40
0.8698599112790265
 40
0.89371419790302
 40
0.9154070960887256
 40
0.9350467439170287
 40
0.9530956396775342
 40
0.9699655331394623
 40
0.9862389656352966
 40
1.0
 40
1.0
 40
1.0
 40
1.0
 10
17.24151674020755
 20
362.8622515855793
 30
0.0
 10
16.98110975771905
 20
362.8420973556392
 30
0.0
 10
16.57010295197435
 20
362.8101551475901
 30
0.0
 10
15.97593752703357
 20
362.7480687296804
 30
0.0
 10
15.50530493107339
 20
362.6970445019103
 30
0.0
 10
15.11911964936698
 20
362.6375701689017
 30
0.0
 10
14.76202425954936
 20
362.5664107711775
 30
0.0
 10
14.42650983041457
 20
362.4829307547967
 30
0.0
 10
14.10020961464511
 20
362.3844319008323
 30
0.0
 10
13.7844920677937
 20
362.2696914096303
 30
0.0
 10
13.47505612836691
 20
362.1364846374832
 30
0.0
 10
13.17465033874364
 20
361.9879042485805
 30
0.0
 10
12.87406131021493
 20
361.8193978749242
 30
0.0
 10
12.56975122553307
 20
361.6286107515481
 30
0.0
 10
12.25996920979031
 20
361.4127057611328
 30
0.0
 10
11.91804019099798
 20
361.1549595489281
 30
0.0
 10
11.49420089495064
 20
360.8220896669218
 30
0.0
 10
11.00784743650241
 20
360.4123798241104
 30
0.0
 10
10.49602252984164
 20
359.9465350894155
 30
0.0
 10
10.00753455708035
 20
359.4649694634372
 30
0.0
 10
9.543196122270302
 20
358.9686298574489
 30
0.0
 10
9.104167053708055
 20
358.4586162052361
 30
0.0
 10
8.692191793316109
 20
357.9368232394532
 30
0.0
 10
8.307540987294928
 20
357.4040742587692
 30
0.0
 10
7.950824690657332
 20
356.8613853299781
 30
0.0
 10
7.622038049589677
 20
356.3084829379295
 30
0.0
 10
7.321683782698319
 20
355.7461962138301
 30
0.0
 10
7.04956836067537
 20
355.1744682413771
 30
0.0
 10
6.806334354678048
 20
354.5937247987594
 30
0.0
 10
6.623281216370409
 20
354.0900300881539
 30
0.0
 10
6.489801537678814
 20
353.6717509192648
 30
0.0
 10
6.41282407525013
 20
353.3535598238391
 30
0.0
 10
6.366863334014081
 20
353.0626635466887
 30
0.0
 10
6.350000000000001
 20
352.794906218419
 30
0.0
 10
6.36036165270569
 20
352.5476716196843
 30
0.0
 10
6.395110448953647
 20
352.3184590334189
 30
0.0
 10
6.43407936769353
 20
352.1913659314321
 30
0.0
 10
6.455703135418073
 20
352.1226234207609
 30
0.0
  0
ARC
  5
C5
330
7E
100
AcDbEntity
  8
DV1_Standard
  6
Continuous
 62
     7
100
AcDbCircle
 10
23.6046439313
 20
326.0898220857
 30
0.0
 40
11.96540189782521
100
AcDbArc
 50
198.6122619757
 51
244.6239556189
  0
ARC
  5
C6
330
7E
100
AcDbEntity
  8
DV1_Standard
  6
Continuous
 62
     7
100
AcDbCircle
 10
26.9027389264
 20
332.184323766
 30
0.0
 40
18.89535598593238
100
AcDbArc
 50
243.5382762739
 51
296.4606030474
  0
ARC
  5
C7
330
7E
100
AcDbEntity
  8
DV1_Standard
  6
Continuous
 62
     7
100
AcDbCircle
 10
30.2025816278
 20
326.0876074896
 30
0.0
 40
11.96237442382303
100
AcDbArc
 50
295.3712380739
 51
341.3521776641
  0
LINE
  5
C8
330
7E
100
AcDbEntity
  8
DV1_Standard
  6
Continuous
 62
     7
100
AcDbLine
 10
43.4025398156
 20
304.1987278117
 30
0.0
 11
10.4025398156
 21
304.1987278117
 31
0.0
  0
SPLINE
  5
C9
330
7E
100
AcDbEntity
  8
DV1_Standard
  6
Continuous
 62
     7
100
AcDbSpline
210
0.0
220
0.0
230
1.0
 70
     8
 71
     3
 72
     8
 73
     4
 74
     0
 42
0.0000017292943166
 43
0.0000000001
 40
0.0
 40
0.0
 40
0.0
 40
0.0
 40
1.0
 40
1.0
 40
1.0
 40
1.0
 10
39.9118068915361
 20
308.3588144114605
 30
0.0
 10
39.91057024689945
 20
308.360294638216
 30
0.0
 10
39.90933239116173
 20
308.3617722141297
 30
0.0
 10
39.90809332176462
 20
308.3632471355094
 30
0.0
  0
SPLINE
  5
CA
330
7E
100
AcDbEntity
  8
DV1_Standard
  6
Continuous
 62
     7
100
AcDbSpline
210
0.0
220
0.0
230
1.0
 70
     8
 71
     3
 72
    23
 73
    19
 74
     0
 42
0.0000000003752419
 43
0.0000000001
 40
0.0
 40
0.0
 40
0.0
 40
0.0
 40
0.0000117209963319
 40
0.0724642139080896
 40
0.1514145197987146
 40
0.2267970933315595
 40
0.3027278873632198
 40
0.3785948313266934
 40
0.4542450599075895
 40
0.5408253586300255
 40
0.6059898874219639
 40
0.6820743943818802
 40
0.7124654568812281
 40
0.7581273845623756
 40
0.8343901754083951
 40
0.9102965088314331
 40
0.9869171042672811
 40
1.0
 40
1.0
 40
1.0
 40
1.0
 10
39.90809332176462
 20
308.3632471355094
 30
0.0
 10
39.90805909478797
 20
308.3632878774563
 30
0.0
 10
39.69644755642894
 20
308.6151595015127
 30
0.0
 10
39.18031802467921
 20
308.979671618226
 30
0.0
 10
38.04454912351463
 20
309.0652233365669
 30
0.0
 10
36.43052865986339
 20
308.8227529190503
 30
0.0
 10
34.33523271061929
 20
308.4526624470698
 30
0.0
 10
31.749020744142
 20
308.0968857757845
 30
0.0
 10
28.64648360804344
 20
307.8607867362193
 30
0.0
 10
25.49707136224388
 20
307.8540035132579
 30
0.0
 10
22.50353862042306
 20
308.0530583645918
 30
0.0
 10
20.48194093166592
 20
308.3078201945474
 30
0.0
 10
18.9211694189172
 20
308.5543381993963
 30
0.0
 10
17.52186666346117
 20
308.7983694919125
 30
0.0
 10
16.04635893655689
 20
309.0337095127974
 30
0.0
 10
14.81867751144495
 20
309.0342202688202
 30
0.0
 10
14.20479890889042
 20
308.704449561938
 30
0.0
 10
13.93426555217123
 20
308.4075426284681
 30
0.0
 10
13.89602889351646
 20
308.3618138041751
 30
0.0
  0
LINE
  5
CB
330
7E
100
AcDbEntity
  8
DV1_Standard
  6
Continuous
 62
     7
100
AcDbLine
 10
10.4025398156
 20
284.116263757
 30
0.0
 11
43.4025398156
 21
284.116263757
 31
0.0
  0
LINE
  5
CC
330
7E
100
AcDbEntity
  8
DV1_Standard
  6
Continuous
 62
     7
100
AcDbLine
 10
40.1525398156
 20
308.071926994
 30
0.0
 11
40.1525398156
 21
319.4057617088
 31
0.0
  0
LINE
  5
CD
330
7E
100
AcDbEntity
  8
DV1_Standard
  6
Continuous
 62
     7
100
AcDbLine
 10
13.6525398156
 20
319.4071882231
 30
0.0
 11
13.6525398156
 21
308.071926994
 31
0.0
  0
LINE
  5
CE
330
7E
100
AcDbEntity
  8
DV1_Standard
  6
Continuous
 62
     7
100
AcDbLine
 10
43.4025648156
 20
304.1986980179
 30
0.0
 11
39.9090406955
 21
308.3621179455
 31
0.0
  0
LINE
  5
CF
330
7E
100
AcDbEntity
  8
DV1_Standard
  6
Continuous
 62
     7
100
AcDbLine
 10
13.8942074177
 20
308.3599352275
 30
0.0
 11
10.4025148156
 21
304.1986980179
 31
0.0
  0
LINE
  5
D0
330
7E
100
AcDbEntity
  8
DV1_Standard
  6
Continuous
 62
     7
100
AcDbLine
 10
43.4025398156
 20
284.116263757
 30
0.0
 11
43.4025398156
 21
304.1987278117
 31
0.0
  0
LINE
  5
D1
330
7E
100
AcDbEntity
  8
DV1_Standard
  6
Continuous
 62
     7
100
AcDbLine
 10
10.4025398156
 20
304.1987278117
 30
0.0
 11
10.4025398156
 21
284.116263757
 31
0.0
  0
SPLINE
  5
D2
330
7E
100
AcDbEntity
  8
DV1_Standard
  6
Continuous
 62
     7
100
AcDbSpline
210
0.0
220
0.0
230
1.0
 70
     8
 71
     3
 72
    16
 73
    12
 74
     0
 42
0.0000000179870024
 43
0.0000000001
 40
0.0
 40
0.0
 40
0.0
 40
0.0
 40
0.0515883328295746
 40
0.2018796848342908
 40
0.3394088548891359
 40
0.4344057105511674
 40
0.5213509626494174
 40
0.6333363835313596
 40
0.7256845135998238
 40
0.8475559457941175
 40
0.9999999999999999
 40
0.9999999999999999
 40
0.9999999999999999
 40
0.9999999999999999
 10
14.18998460433317
 20
308.8333664433513
 30
0.0
 10
14.18991583152155
 20
308.8332302862705
 30
0.0
 10
14.1888600793867
 20
308.8304621268828
 30
0.0
 10
14.18090523865061
 20
308.809647936621
 30
0.0
 10
14.16497437734644
 20
308.7737099145183
 30
0.0
 10
14.14654183263664
 20
308.7354897255412
 30
0.0
 10
14.11956292444664
 20
308.6838384056393
 30
0.0
 10
14.08598217351661
 20
308.6254231783236
 30
0.0
 10
14.04159719085731
 20
308.5551001685411
 30
0.0
 10
13.97989046328439
 20
308.4658204667564
 30
0.0
 10
13.93043820256096
 20
308.4044998891483
 30
0.0
 10
13.8972580456181
 20
308.3635575731534
 30
0.0
  0
SPLINE
  5
D3
330
7E
100
AcDbEntity
  8
DV1_Standard
  6
Continuous
 62
     7
100
AcDbSpline
210
0.0
220
0.0
230
1.0
 70
     8
 71
     3
 72
    17
 73
    13
 74
     0
 42
0.0000000180258888
 43
0.0000000001
 40
0.0
 40
0.0
 40
0.0
 40
0.0
 40
0.1572120449508209
 40
0.2800325332989639
 40
0.3698257111100833
 40
0.4642511748521259
 40
0.5420513613857425
 40
0.6137751452434735
 40
0.7146574412203875
 40
0.845623160058641
 40
0.9707874211276445
 40
1.0
 40
1.0
 40
1.0
 40
1.0
 10
39.90735608678225
 20
308.3639809923558
 30
0.0
 10
39.87328759973212
 20
308.4060553400421
 30
0.0
 10
39.8230680657941
 20
308.4683871190643
 30
0.0
 10
39.76100882646097
 20
308.5586049789358
 30
0.0
 10
39.71938383780028
 20
308.6248858948954
 30
0.0
 10
39.68910349731767
 20
308.6773129901889
 30
0.0
 10
39.66566549066378
 20
308.7213530155908
 30
0.0
 10
39.64851798704166
 20
308.755823698635
 30
0.0
 10
39.63388331777633
 20
308.787177390986
 30
0.0
 10
39.62071602909977
 20
308.8182128072939
 30
0.0
 10
39.61586928153125
 20
308.8313175621278
 30
0.0
 10
39.61531568350632
 20
308.8327135030395
 30
0.0
 10
39.6152766049841
 20
308.8327891207986
 30
0.0
  0
LINE
  5
D4
330
7E
100
AcDbEntity
  8
DV1_Standard
  6
Continuous
 62
     7
100
AcDbLine
 10
14.5025398156
 20
284.116263757
 30
0.0
 11
14.5025398156
 21
281.616263757
 31
0.0
  0
LINE
  5
D5
330
7E
100
AcDbEntity
  8
DV1_Standard
  6
Continuous
 62
     7
100
AcDbLine
 10
39.3025398156
 20
281.616263757
 30
0.0
 11
39.3025398156
 21
284.116263757
 31
0.0
  0
SPLINE
  5
D6
330
7E
100
AcDbEntity
  8
DV1_Standard
  6
Continuous
 62
     7
100
AcDbSpline
210
0.0
220
0.0
230
1.0
 70
    11
 71
     3
 72
    62
 73
    58
 74
     0
 42
0.0000000016688666
 43
0.0000000001
 40
0.0
 40
0.0
 40
0.0
 40
0.0
 40
0.0546729114623041
 40
0.0546729114623041
 40
0.0546729114623041
 40
0.1093932353809173
 40
0.1093932353809173
 40
0.1093932353809173
 40
0.1633824926231177
 40
0.1633824926231177
 40
0.1633824926231177
 40
0.2162927319252566
 40
0.2162927319252566
 40
0.2162927319252566
 40
0.2684968717132492
 40
0.2684968717132492
 40
0.2684968717132492
 40
0.3206536084561599
 40
0.3206536084561599
 40
0.3206536084561599
 40
0.3734191198488563
 40
0.3734191198488563
 40
0.3734191198488563
 40
0.4271970342010216
 40
0.4271970342010216
 40
0.4271970342010216
 40
0.4819783774851374
 40
0.4819783774851374
 40
0.4819783774851374
 40
0.5373171739363258
 40
0.5373171739363258
 40
0.5373171739363258
 40
0.5924923568322308
 40
0.5924923568322308
 40
0.5924923568322308
 40
0.6468356499108121
 40
0.6468356499108121
 40
0.6468356499108121
 40
0.7000653415663312
 40
0.7000653415663312
 40
0.7000653415663312
 40
0.752415148137217
 40
0.752415148137217
 40
0.752415148137217
 40
0.8044945985897646
 40
0.8044945985897646
 40
0.8044945985897646
 40
0.8570035818679276
 40
0.8570035818679276
 40
0.8570035818679276
 40
0.9104519545869363
 40
0.9104519545869363
 40
0.9104519545869363
 40
0.964962679422488
 40
0.964962679422488
 40
0.964962679422488
 40
1.0
 40
1.0
 40
1.0
 40
1.0
 10
27.88166648424789
 20
342.8335196395566
 30
0.0
 10
27.85872439969529
 20
342.9326754917505
 30
0.0
 10
27.8162055549143
 20
343.0297573325519
 30
0.0
 10
27.75736084618317
 20
343.1167113474169
 30
0.0
 10
27.69848672640961
 20
343.203708822574
 30
0.0
 10
27.6215872963573
 20
343.2829817972833
 30
0.0
 10
27.53291465112753
 20
343.3475646915696
 30
0.0
 10
27.4454264920337
 20
343.4112848897819
 30
0.0
 10
27.34398031915978
 20
343.462485637107
 30
0.0
 10
27.23715279857174
 20
343.4965051621687
 30
0.0
 10
27.13242495402651
 20
343.5298560394759
 30
0.0
 10
27.01958351916147
 20
343.5476232681786
 30
0.0
 10
26.90819395031099
 20
343.5481881039228
 30
0.0
 10
26.79824918885091
 20
343.5487456133179
 30
0.0
 10
26.68668719705725
 20
343.5325716133106
 30
0.0
 10
26.58273451821661
 20
343.5011038550173
 30
0.0
 10
26.47885020925978
 20
343.4696567931313
 30
0.0
 10
26.37973906914238
 20
343.4221065272752
 30
0.0
 10
26.2932750573651
 20
343.3625216270389
 30
0.0
 10
26.20579900739831
 20
343.3022393014423
 30
0.0
 10
26.12889956831801
 20
343.2280402853124
 30
0.0
 10
26.06844762450974
 20
343.1460461032743
 30
0.0
 10
26.00684720055196
 20
343.0624941766127
 30
0.0
 10
25.96065070744296
 20
342.9686099226665
 30
0.0
 10
25.9333012057767
 20
342.8719830752108
 30
0.0
 10
25.90545061097168
 20
342.7735858463101
 30
0.0
 10
25.89638307739837
 20
342.6696650915139
 30
0.0
 10
25.90677454229403
 20
342.5686675778289
 30
0.0
 10
25.91726807551768
 20
342.4666780339098
 30
0.0
 10
25.94791441863823
 20
342.3648413587441
 30
0.0
 10
25.99634525763665
 20
342.271695540523
 30
0.0
 10
26.04462256224322
 20
342.1788450111478
 30
0.0
 10
26.11196402997868
 20
342.092023825614
 30
0.0
 10
26.19292559278319
 20
342.0188350448638
 30
0.0
 10
26.27266967098893
 20
341.9467468630928
 30
0.0
 10
26.36791482342804
 20
341.8858584110583
 30
0.0
 10
26.47066343265257
 20
341.8416927071515
 30
0.0
 10
26.57133561044573
 20
341.7984195414161
 30
0.0
 10
26.68205643484382
 20
341.7699931086945
 30
0.0
 10
26.79341341296135
 20
341.7590183961749
 30
0.0
 10
26.90297277029294
 20
341.7482208469699
 30
0.0
 10
27.01618580357717
 20
341.7540101988741
 30
0.0
 10
27.12359358282846
 20
341.7758652982549
 30
0.0
 10
27.23047984551876
 20
341.7976142805895
 30
0.0
 10
27.33453423651699
 20
341.8358439335724
 30
0.0
 10
27.42738440440674
 20
341.8872359229588
 30
0.0
 10
27.52101014314028
 20
341.9390571859747
 30
0.0
 10
27.60577924208445
 20
342.0056323866522
 30
0.0
 10
27.67515198960799
 20
342.0814071418347
 30
0.0
 10
27.74575685731696
 20
342.1585277224133
 30
0.0
 10
27.80232877162257
 20
342.247234811648
 30
0.0
 10
27.84063118542764
 20
342.3403261294227
 30
0.0
 10
27.8796830874497
 20
342.4352390254961
 30
0.0
 10
27.90080993045524
 20
342.5372800571876
 30
0.0
 10
27.90243538354794
 20
342.6381904435495
 30
0.0
 10
27.90348867221275
 20
342.7035800672751
 30
0.0
 10
27.89649267752462
 20
342.7694407270335
 30
0.0
 10
27.88166648424789
 20
342.8335196395566
 30
0.0
  0
LINE
  5
D7
330
7E
100
AcDbEntity
  8
DV1_Standard
  6
Continuous
 62
     7
100
AcDbLine
 10
31.6373969584
 20
351.195136609
 30
0.0
 11
31.4316824786
 21
351.0628880701
 31
0.0
  0
LINE
  5
D8
330
7E
100
AcDbEntity
  8
DV1_Standard
  6
Continuous
 62
     7
100
AcDbLine
 10
22.3802541013
 20
351.0632214943
 30
0.0
 11
22.1745396854
 21
351.1954852658
 31
0.0
  0
LINE
  5
D9
330
7E
100
AcDbEntity
  8
DV1_Standard
  6
Continuous
 62
     7
100
AcDbLine
 10
32.3162541013
 20
351.5792345268
 30
0.0
 11
32.4979688455
 21
351.7680942181
 31
0.0
  0
LINE
  5
DA
330
7E
100
AcDbEntity
  8
DV1_Standard
  6
Continuous
 62
     7
100
AcDbLine
 10
21.313968387
 20
351.7685071975
 30
0.0
 11
21.4956829242
 21
351.5796338003
 31
0.0
  0
SPLINE
  5
DB
330
7E
100
AcDbEntity
  8
DV1_Standard
  6
Continuous
 62
     7
100
AcDbSpline
210
0.0
220
0.0
230
1.0
 70
     8
 71
     3
 72
    14
 73
    10
 74
     0
 42
0.0000000217203244
 43
0.0000000001
 40
0.0
 40
0.0
 40
0.0
 40
0.0
 40
0.25
 40
0.25
 40
0.5
 40
0.5
 40
0.75
 40
0.75
 40
1.0
 40
1.0
 40
1.0
 40
1.0
 10
24.71995410126854
 20
353.7144717032608
 30
0.0
 10
24.71989584747037
 20
353.7475406563584
 30
0.0
 10
24.71478879000095
 20
353.7798226356838
 30
0.0
 10
24.68665953783323
 20
353.8416444801429
 30
0.0
 10
24.66566675994511
 20
353.8709276611678
 30
0.0
 10
24.60840730258138
 20
353.9196308191866
 30
0.0
 10
24.56937103438277
 20
353.935811255718
 30
0.0
 10
24.48713247478743
 20
353.9556266521421
 30
0.0
 10
24.44277921763045
 20
353.9588998547976
 30
0.0
 10
24.39862838698282
 20
353.9567906575097
 30
0.0
  0
ELLIPSE
  5
DC
330
7E
100
AcDbEntity
  8
DV1_Standard
  6
Continuous
 62
     7
100
AcDbEllipse
 10
26.9025390083
 20
314.1372128062
 30
0.0
 11
59.99992989737909
 21
8.631832713879017E-7
 31
0.0
210
0.0
220
0.0
230
1.0
 40
0.6427877395
 41
1.533630562278718
 42
1.54269771681686
  0
LINE
  5
DD
330
7E
100
AcDbEntity
  8
DV1_Standard
  6
Continuous
 62
     7
100
AcDbLine
 10
29.131968387
 20
352.7421220738
 30
0.0
 11
29.131968387
 21
352.6777988794
 31
0.0
  0
ARC
  5
DE
330
7E
100
AcDbEntity
  8
DV1_Standard
  6
Continuous
 62
     7
100
AcDbCircle
 10
21.8951667895
 20
355.266800841
 30
0.0
 40
2.740328550657092
100
AcDbArc
 50
272.8739277412
 51
294.2786319453
  0
LINE
  5
DF
330
7E
100
AcDbEntity
  8
DV1_Standard
  6
Continuous
 62
     7
100
AcDbLine
 10
23.0219198156
 20
352.8336086615
 30
0.0
 11
23.0219198156
 21
352.7688360326
 31
0.0
  0
LINE
  5
E0
330
7E
100
AcDbEntity
  8
DV1_Standard
  6
Continuous
 62
     7
100
AcDbLine
 10
23.4002541013
 20
350.6987029883
 30
0.0
 11
23.1088254073
 21
350.8015023204
 31
0.0
  0
LINE
  5
E1
330
7E
100
AcDbEntity
  8
DV1_Standard
  6
Continuous
 62
     7
100
AcDbLine
 10
30.7031112441
 20
350.8012228208
 30
0.0
 11
30.4116825502
 21
350.6984450082
 31
0.0
  0
ELLIPSE
  5
E2
330
7E
100
AcDbEntity
  8
DV1_Standard
  6
Continuous
 62
     7
100
AcDbEllipse
 10
26.9025398156
 20
351.1161936129
 30
0.0
 11
16.09999999999995
 21
-1.387778780781446E-14
 31
0.0
210
0.0
220
0.0
230
1.0
 40
0.7660444431
 41
2.950967779150142
 42
3.339306978931551
  0
ELLIPSE
  5
E3
330
7E
100
AcDbEntity
  8
DV1_Standard
  6
Continuous
 62
     7
100
AcDbEllipse
 10
26.9025398156
 20
351.1161936129
 30
0.0
 11
16.09999999999995
 21
-1.387778780781446E-14
 31
0.0
210
0.0
220
0.0
230
1.0
 40
0.7660444431
 41
-0.1995965519733252
 42
0.2073527103723944
  0
LINE
  5
E4
330
7E
100
AcDbEntity
  8
DV1_Standard
  6
Continuous
 62
     7
100
AcDbLine
 10
23.5791941861
 20
338.9753159405
 30
0.0
 11
23.5262520282
 21
338.9799846348
 31
0.0
  0
ARC
  5
E5
330
7E
100
AcDbEntity
  8
DV1_Standard
  6
Continuous
 62
     7
100
AcDbCircle
 10
26.9025398156
 20
581.1777663354
 30
0.0
 40
242.2252497232135
100
AcDbArc
 50
269.2138736442
 51
270.7861263558
  0
LINE
  5
E6
330
7E
100
AcDbEntity
  8
DV1_Standard
  6
Continuous
 62
     7
100
AcDbLine
 10
30.2788276029
 20
338.9799846348
 30
0.0
 11
30.225885445
 21
338.9753159405
 31
0.0
  0
ELLIPSE
  5
E7
330
7E
100
AcDbEntity
  8
DV1_Standard
  6
Continuous
 62
     7
100
AcDbEllipse
 10
26.9025398156
 20
351.0390590997
 30
0.0
 11
16.09999999999993
 21
2.775557561562891E-14
 31
0.0
210
0.0
220
0.0
230
1.0
 40
0.7660444431
 41
3.141592653589786
 42
4.501113370314887
  0
ELLIPSE
  5
E8
330
7E
100
AcDbEntity
  8
DV1_Standard
  6
Continuous
 62
     7
100
AcDbEllipse
 10
26.9025398156
 20
351.0390590997
 30
0.0
 11
16.09999999999993
 21
2.775557561562891E-14
 31
0.0
210
0.0
220
0.0
230
1.0
 40
0.7660444431
 41
-1.359520716731066
 42
-0.0000000000000069
  0
ARC
  5
E9
330
7E
100
AcDbEntity
  8
DV1_Standard
  6
Continuous
 62
     7
100
AcDbCircle
 10
-6.7099323076
 20
265.8784394223
 30
0.0
 40
90.06684283795838
100
AcDbArc
 50
70.4694555064
 51
70.6660457537
  0
ARC
  5
EA
330
7E
100
AcDbEntity
  8
DV1_Standard
  6
Continuous
 62
     7
100
AcDbCircle
 10
59.9862577543
 20
267.3789593582
 30
0.0
 40
88.473354977538
100
AcDbArc
 50
109.3284298957
 51
109.5285562925
  0
LINE
  5
EB
330
7E
100
AcDbEntity
  8
DV1_Standard
  6
Continuous
 62
     7
100
AcDbLine
 10
23.4002541013
 20
350.7631427157
 30
0.0
 11
23.4002541013
 21
350.6987029883
 31
0.0
  0
SPLINE
  5
EC
330
7E
100
AcDbEntity
  8
DV1_Standard
  6
Continuous
 62
     7
100
AcDbSpline
210
0.0
220
0.0
230
1.0
 70
     8
 71
     3
 72
    12
 73
     8
 74
     0
 42
0.0000000027883892
 43
0.0000000001
 40
0.0
 40
0.0
 40
0.0
 40
0.0
 40
0.2500000000000003
 40
0.2500000000000003
 40
0.5000000000000007
 40
0.5000000000000007
 40
1.0
 40
1.0
 40
1.0
 40
1.0
 10
23.40025410126854
 20
350.7631427157372
 30
0.0
 10
23.6861304820243
 20
350.8441984617858
 30
0.0
 10
23.97875923947933
 20
350.9114812137212
 30
0.0
 10
24.57355495191741
 20
350.9390596498532
 30
0.0
 10
24.87288505776068
 20
350.8943869250272
 30
0.0
 10
25.73624768825264
 20
350.707393671144
 30
0.0
 10
26.29155160214875
 20
350.4993468324587
 30
0.0
 10
26.90596838698281
 20
350.4949723766403
 30
0.0
  0
SPLINE
  5
ED
330
7E
100
AcDbEntity
  8
DV1_Standard
  6
Continuous
 62
     7
100
AcDbSpline
210
0.0
220
0.0
230
1.0
 70
     8
 71
     3
 72
    16
 73
    12
 74
     0
 42
0.0000000027993769
 43
0.0000000001
 40
0.0
 40
0.0
 40
0.0
 40
0.0
 40
0.249999999999999
 40
0.249999999999999
 40
0.499999999999998
 40
0.499999999999998
 40
0.6249999999999984
 40
0.6249999999999984
 40
0.749999999999999
 40
0.749999999999999
 40
1.0
 40
1.0
 40
1.0
 40
1.0
 10
26.90596838698281
 20
350.4306229439206
 30
0.0
 10
26.59703511634338
 20
350.432822609663
 30
0.0
 10
26.30553431889154
 20
350.4894009832013
 30
0.0
 10
25.73039987762801
 20
350.6249089093551
 30
0.0
 10
25.44718249161129
 20
350.7057226107847
 30
0.0
 10
25.01505604988295
 20
350.799199701678
 30
0.0
 10
24.86987616824686
 20
350.8257492571898
 30
0.0
 10
24.57468731619478
 20
350.8602228360939
 30
0.0
 10
24.42243655717224
 20
350.8678693475376
 30
0.0
 10
23.97395799040511
 20
350.8464650290928
 30
0.0
 10
23.68572087058255
 20
350.7796643633349
 30
0.0
 10
23.40025410126854
 20
350.698702988293
 30
0.0
  0
LINE
  5
EE
330
7E
100
AcDbEntity
  8
DV1_Standard
  6
Continuous
 62
     7
100
AcDbLine
 10
30.7031112441
 20
350.8656760948
 30
0.0
 11
30.7031112441
 21
350.8012228208
 31
0.0
  0
SPLINE
  5
EF
330
7E
100
AcDbEntity
  8
DV1_Standard
  6
Continuous
 62
     7
100
AcDbSpline
210
0.0
220
0.0
230
1.0
 70
     8
 71
     3
 72
    20
 73
    16
 74
     0
 42
0.000000001286816
 43
0.0000000001
 40
0.0
 40
0.0
 40
0.0
 40
0.0
 40
0.1250000000000001
 40
0.1250000000000001
 40
0.2500000000000002
 40
0.2500000000000002
 40
0.3750000000000004
 40
0.3750000000000004
 40
0.5000000000000006
 40
0.5000000000000006
 40
0.7500000000000008
 40
0.7500000000000008
 40
0.8750000000000004
 40
0.8750000000000004
 40
1.0
 40
1.0
 40
1.0
 40
1.0
 10
30.70311124412565
 20
350.8656760947785
 30
0.0
 10
30.39096345125465
 20
350.9616358541589
 30
0.0
 10
30.07676263776047
 20
351.0528064607918
 30
0.0
 10
29.42584603402446
 20
351.13170700186
 30
0.0
 10
29.08936934036205
 20
351.1006435847333
 30
0.0
 10
28.45311349327508
 20
350.9748822820663
 30
0.0
 10
28.14218875291232
 20
350.8850812934329
 30
0.0
 10
27.50993391475013
 20
350.7357263239489
 30
0.0
 10
27.17764008443304
 20
350.6742230641097
 30
0.0
 10
26.19249692947348
 20
350.6963247060087
 30
0.0
 10
25.6040417573855
 20
350.9335229731162
 30
0.0
 10
24.67016579488766
 20
351.1071400638428
 30
0.0
 10
24.35450656687025
 20
351.1308314053269
 30
0.0
 10
23.71392835128868
 20
351.0474614313417
 30
0.0
 10
23.41039728679272
 20
350.9586415429675
 30
0.0
 10
23.10882552983998
 20
350.8659553280126
 30
0.0
  0
LINE
  5
F0
330
7E
100
AcDbEntity
  8
DV1_Standard
  6
Continuous
 62
     7
100
AcDbLine
 10
23.1088255298
 20
350.865955328
 30
0.0
 11
23.1088255298
 21
350.801502522
 31
0.0
  0
SPLINE
  5
F1
330
7E
100
AcDbEntity
  8
DV1_Standard
  6
Continuous
 62
     7
100
AcDbSpline
210
0.0
220
0.0
230
1.0
 70
     8
 71
     3
 72
     8
 73
     4
 74
     0
 42
0.000000096027068
 43
0.0000000001
 40
0.0
 40
0.0
 40
0.0
 40
0.0
 40
1.0
 40
1.0
 40
1.0
 40
1.0
 10
23.10882552983998
 20
350.801502521957
 30
0.0
 10
23.1420096510384
 20
350.8117041713265
 30
0.0
 10
23.17520561755696
 20
350.8218524712749
 30
0.0
 10
23.2084301158135
 20
350.8318910169129
 30
0.0
  0
SPLINE
  5
F2
330
7E
100
AcDbEntity
  8
DV1_Standard
  6
Continuous
 62
     7
100
AcDbSpline
210
0.0
220
0.0
230
1.0
 70
     8
 71
     3
 72
     8
 73
     4
 74
     0
 42
0.0000000947571033
 43
0.0000000001
 40
0.0
 40
0.0
 40
0.0
 40
0.0
 40
1.0
 40
1.0
 40
1.0
 40
1.0
 10
30.60216563300709
 20
350.8319984587174
 30
0.0
 10
30.63587436232563
 20
350.8218299491342
 30
0.0
 10
30.66952240066979
 20
350.81155137831
 30
0.0
 10
30.70311124412565
 20
350.8012228208049
 30
0.0
  0
LINE
  5
F3
330
7E
100
AcDbEntity
  8
DV1_Standard
  6
Continuous
 62
     7
100
AcDbLine
 10
26.905968387
 20
350.4949723766
 30
0.0
 11
26.905968387
 21
350.4306229439
 31
0.0
  0
SPLINE
  5
F4
330
7E
100
AcDbEntity
  8
DV1_Standard
  6
Continuous
 62
     7
100
AcDbSpline
210
0.0
220
0.0
230
1.0
 70
     8
 71
     3
 72
    16
 73
    12
 74
     0
 42
0.0000000027993975
 43
0.0000000001
 40
0.0
 40
0.0
 40
0.0
 40
0.0
 40
0.2500000000000002
 40
0.2500000000000002
 40
0.5000000000000004
 40
0.5000000000000004
 40
0.6250000000000003
 40
0.6250000000000003
 40
0.7500000000000002
 40
0.7500000000000002
 40
1.0
 40
1.0
 40
1.0
 40
1.0
 10
26.90596838698281
 20
350.4949723766403
 30
0.0
 10
27.21490190807102
 20
350.4971492051185
 30
0.0
 10
27.50640303334925
 20
350.5537050660458
 30
0.0
 10
28.08153784480197
 20
350.6891715952754
 30
0.0
 10
28.3647552267178
 20
350.7699663531278
 30
0.0
 10
28.79688140284735
 20
350.8634196299361
 30
0.0
 10
28.94206117023386
 20
350.8899620189438
 30
0.0
 10
29.23724970788086
 20
350.9244232235517
 30
0.0
 10
29.389500212328
 20
350.9320644864381
 30
0.0
 10
29.83797839373865
 20
350.9106487681136
 30
0.0
 10
30.12621561542567
 20
350.8438457299458
 30
0.0
 10
30.41168267269708
 20
350.7628849657933
 30
0.0
  0
LINE
  5
F5
330
7E
100
AcDbEntity
  8
DV1_Standard
  6
Continuous
 62
     7
100
AcDbLine
 10
30.4116826727
 20
350.7628849658
 30
0.0
 11
30.4116826727
 21
350.6984448066
 31
0.0
  0
SPLINE
  5
F6
330
7E
100
AcDbEntity
  8
DV1_Standard
  6
Continuous
 62
     7
100
AcDbSpline
210
0.0
220
0.0
230
1.0
 70
     8
 71
     3
 72
    16
 73
    12
 74
     0
 42
0.0000000027993565
 43
0.0000000001
 40
0.0
 40
0.0
 40
0.0
 40
0.0
 40
0.2499999999999984
 40
0.2499999999999984
 40
0.3749999999999979
 40
0.3749999999999979
 40
0.4999999999999973
 40
0.4999999999999973
 40
0.7499999999999987
 40
0.7499999999999987
 40
1.0
 40
1.0
 40
1.0
 40
1.0
 10
30.41168267269708
 20
350.698444806607
 30
0.0
 10
30.12539913313352
 20
350.7796589975802
 30
0.0
 10
29.83614360050708
 20
350.846814528943
 30
0.0
 10
29.38455494129488
 20
350.8676795473197
 30
0.0
 10
29.23336313825888
 20
350.8597439785178
 30
0.0
 10
28.93915803233954
 20
350.8251110845006
 30
0.0
 10
28.79430182483732
 20
350.7985556414191
 30
0.0
 10
28.36291938751882
 20
350.7051118551394
 30
0.0
 10
28.08003027828924
 20
350.624430496921
 30
0.0
 10
27.50565434234629
 20
350.4892178587955
 30
0.0
 10
27.21452307549862
 20
350.4327972222487
 30
0.0
 10
26.90596838698281
 20
350.4306229439206
 30
0.0
  0
ARC
  5
F7
330
7E
100
AcDbEntity
  8
DV1_Standard
  6
Continuous
 62
     7
100
AcDbCircle
 10
23.0419116441
 20
352.3828249971
 30
0.0
 40
1.418834714423213
100
AcDbArc
 50
232.3144915177
 51
242.2031048318
  0
ARC
  5
F8
330
7E
100
AcDbEntity
  8
DV1_Standard
  6
Continuous
 62
     7
100
AcDbCircle
 10
30.7696714128
 20
352.3831711685
 30
0.0
 40
1.419600483780232
100
AcDbArc
 50
297.7967404622
 51
307.6796733479
  0
SPLINE
  5
F9
330
7E
100
AcDbEntity
  8
DV1_Standard
  6
Continuous
 62
     7
100
AcDbSpline
210
0.0
220
0.0
230
1.0
 70
     8
 71
     3
 72
    16
 73
    12
 74
     0
 42
0.0000000028543172
 43
0.0000000001
 40
0.0
 40
0.0
 40
0.0
 40
0.0
 40
0.2499999999999998
 40
0.2499999999999998
 40
0.3749999999999999
 40
0.3749999999999999
 40
0.5
 40
0.5
 40
0.75
 40
0.75
 40
1.0
 40
1.0
 40
1.0
 40
1.0
 10
23.46489981555424
 20
351.4292588700876
 30
0.0
 10
23.74709170439431
 20
351.5059108148347
 30
0.0
 10
24.03760360330404
 20
351.5668102006049
 30
0.0
 10
24.47493391338779
 20
351.5774340457722
 30
0.0
 10
24.6225739698053
 20
351.5675103462283
 30
0.0
 10
24.91278708176528
 20
351.5302851890989
 30
0.0
 10
25.05513982263921
 20
351.5033129386957
 30
0.0
 10
25.47847171719686
 20
351.4104550426405
 30
0.0
 10
25.75558505707806
 20
351.3324644435528
 30
0.0
 10
26.32021977688139
 20
351.2022748436157
 30
0.0
 10
26.6117400675876
 20
351.1489791387925
 30
0.0
 10
26.90596838698281
 20
351.146907438394
 30
0.0
  0
SPLINE
  5
FA
330
7E
100
AcDbEntity
  8
DV1_Standard
  6
Continuous
 62
     7
100
AcDbSpline
210
0.0
220
0.0
230
1.0
 70
     8
 71
     3
 72
    16
 73
    12
 74
     0
 42
0.0000000028541506
 43
0.0000000001
 40
0.0
 40
0.0
 40
0.0
 40
0.0
 40
0.2499999999999988
 40
0.2499999999999988
 40
0.4999999999999976
 40
0.4999999999999976
 40
0.6249999999999982
 40
0.6249999999999982
 40
0.749999999999999
 40
0.749999999999999
 40
1.0
 40
1.0
 40
1.0
 40
1.0
 10
26.90596838698281
 20
351.0825933467457
 30
0.0
 10
26.60370143354765
 20
351.0847217622845
 30
0.0
 10
26.31792318141587
 20
351.1384301884943
 30
0.0
 10
25.7542787834441
 20
351.2685094591425
 30
0.0
 10
25.47680110889366
 20
351.3465500801523
 30
0.0
 10
25.054191522413
 20
351.439166958196
 30
0.0
 10
24.91231050043781
 20
351.4659908069683
 30
0.0
 10
24.62415123340958
 20
351.5029872657844
 30
0.0
 10
24.47636073758759
 20
351.5131703026765
 30
0.0
 10
24.03229975194286
 20
351.5022114305829
 30
0.0
 10
23.74704679240256
 20
351.4415124878618
 30
0.0
 10
23.46489981555424
 20
351.3648529981536
 30
0.0
  0
LINE
  5
FB
330
7E
100
AcDbEntity
  8
DV1_Standard
  6
Continuous
 62
     7
100
AcDbLine
 10
22.3802541013
 20
351.1277149449
 30
0.0
 11
22.3802541013
 21
351.0632214943
 31
0.0
  0
ELLIPSE
  5
FC
330
7E
100
AcDbEntity
  8
DV1_Standard
  6
Continuous
 62
     7
100
AcDbEllipse
 10
27.045265058
 20
313.6966865252
 30
0.0
 11
55.95946691250339
 21
21.91577671146747
 31
0.0
210
0.0
220
0.0
230
1.0
 40
0.6156769857
 41
1.396430061188439
 42
1.415321546794145
  0
ELLIPSE
  5
FD
330
7E
100
AcDbEntity
  8
DV1_Standard
  6
Continuous
 62
     7
100
AcDbEllipse
 10
27.0452653469
 20
313.6966838835
 30
0.0
 11
55.86635172459714
 21
21.87931012157734
 31
0.0
210
0.0
220
0.0
230
0.9999999999999999
 40
0.6156770062
 41
1.39653392213714
 42
1.415457058772355
  0
LINE
  5
FE
330
7E
100
AcDbEntity
  8
DV1_Standard
  6
Continuous
 62
     7
100
AcDbLine
 10
31.6373969584
 20
351.2596419472
 30
0.0
 11
31.6373969584
 21
351.195136609
 31
0.0
  0
SPLINE
  5
FF
330
7E
100
AcDbEntity
  8
DV1_Standard
  6
Continuous
 62
     7
100
AcDbSpline
210
0.0
220
0.0
230
1.0
 70
     8
 71
     3
 72
    18
 73
    14
 74
     0
 42
0.0000000010232686
 43
0.0000000001
 40
0.0
 40
0.0
 40
0.0
 40
0.0
 40
0.1249999999999997
 40
0.1249999999999997
 40
0.2499999999999994
 40
0.2499999999999994
 40
0.4999999999999996
 40
0.4999999999999996
 40
0.7499999999999997
 40
0.7499999999999997
 40
0.8749999999999998
 40
0.8749999999999998
 40
1.0
 40
1.0
 40
1.0
 40
1.0
 10
31.63739695841136
 20
351.259641947195
 30
0.0
 10
31.25009117395203
 20
351.3694866211778
 30
0.0
 10
30.86249524434889
 20
351.4767675762063
 30
0.0
 10
30.08672308358349
 20
351.6862019487602
 30
0.0
 10
29.6841020814722
 20
351.7749938632545
 30
0.0
 10
28.48284151227879
 20
351.7054222233289
 30
0.0
 10
27.73352630786927
 20
351.3379045120277
 30
0.0
 10
26.12241975263515
 20
351.3239231914211
 30
0.0
 10
25.38919363471845
 20
351.6860405342103
 30
0.0
 10
24.18288095430524
 20
351.7791856183566
 30
0.0
 10
23.76006869979053
 20
351.6957195429437
 30
0.0
 10
22.96689907804066
 20
351.4818892794366
 30
0.0
 10
22.57057247285229
 20
351.3722805401256
 30
0.0
 10
22.17453981555424
 20
351.2599901659467
 30
0.0
  0
LINE
  5
100
330
7E
100
AcDbEntity
  8
DV1_Standard
  6
Continuous
 62
     7
100
AcDbLine
 10
22.1745398156
 20
351.2599901659
 30
0.0
 11
22.1745398156
 21
351.1954854122
 31
0.0
  0
SPLINE
  5
101
330
7E
100
AcDbEntity
  8
DV1_Standard
  6
Continuous
 62
     7
100
AcDbSpline
210
0.0
220
0.0
230
1.0
 70
     8
 71
     3
 72
     8
 73
     4
 74
     0
 42
0.0000001489185977
 43
0.0000000001
 40
0.0
 40
0.0
 40
0.0
 40
0.0
 40
0.9999999999999999
 40
0.9999999999999999
 40
0.9999999999999999
 40
0.9999999999999999
 10
22.17453981555424
 20
351.1954854122154
 30
0.0
 10
22.19607529456958
 20
351.2015935717442
 30
0.0
 10
22.21761160563114
 20
351.2076937778826
 30
0.0
 10
22.23914874889234
 20
351.2137860303059
 30
0.0
  0
SPLINE
  5
102
330
7E
100
AcDbEntity
  8
DV1_Standard
  6
Continuous
 62
     7
100
AcDbSpline
210
0.0
220
0.0
230
1.0
 70
     8
 71
     3
 72
     8
 73
     4
 74
     0
 42
0.0000001494548693
 43
0.0000000001
 40
0.0
 40
0.0
 40
0.0
 40
0.0
 40
1.0
 40
1.0
 40
1.0
 40
1.0
 10
31.57302112617268
 20
351.2133760524617
 30
0.0
 10
31.5944805377406
 20
351.2073041463175
 30
0.0
 10
31.61593914849362
 20
351.2012243318981
 30
0.0
 10
31.63739695841136
 20
351.1951366090022
 30
0.0
  0
ELLIPSE
  5
103
330
7E
100
AcDbEntity
  8
DV1_Standard
  6
Continuous
 62
     7
100
AcDbEllipse
 10
26.7603788625
 20
313.6981250296
 30
0.0
 11
-55.95954027792096
 21
21.91563205621062
 31
0.0
210
0.0
220
0.0
230
1.0
 40
0.6156773817
 41
-1.41543281080968
 42
-1.396541044514592
  0
LINE
  5
104
330
7E
100
AcDbEntity
  8
DV1_Standard
  6
Continuous
 62
     7
100
AcDbLine
 10
31.4316826727
 20
351.1273819245
 30
0.0
 11
31.4316826727
 21
351.0628879151
 31
0.0
  0
ELLIPSE
  5
105
330
7E
100
AcDbEntity
  8
DV1_Standard
  6
Continuous
 62
     7
100
AcDbEllipse
 10
26.7603787889
 20
313.6981243836
 30
0.0
 11
-55.86642367952842
 21
21.87916464908539
 31
0.0
210
0.0
220
0.0
230
1.0
 40
0.6156773867
 41
-1.415568516531089
 42
-1.396645097750595
  0
LINE
  5
106
330
7E
100
AcDbEntity
  8
DV1_Standard
  6
Continuous
 62
     7
100
AcDbLine
 10
26.905968387
 20
351.1469074384
 30
0.0
 11
26.905968387
 21
351.0825933467
 31
0.0
  0
SPLINE
  5
107
330
7E
100
AcDbEntity
  8
DV1_Standard
  6
Continuous
 62
     7
100
AcDbSpline
210
0.0
220
0.0
230
1.0
 70
     8
 71
     3
 72
    16
 73
    12
 74
     0
 42
0.0000000028541765
 43
0.0000000001
 40
0.0
 40
0.0
 40
0.0
 40
0.0
 40
0.2499999999999994
 40
0.2499999999999994
 40
0.4999999999999989
 40
0.4999999999999989
 40
0.6249999999999992
 40
0.6249999999999992
 40
0.7499999999999997
 40
0.7499999999999997
 40
1.0
 40
1.0
 40
1.0
 40
1.0
 10
26.90596838698281
 20
351.146907438394
 30
0.0
 10
27.20823485661891
 20
351.14901355632
 30
0.0
 10
27.49401275013608
 20
351.2027008449354
 30
0.0
 10
28.05765611388886
 20
351.3327420192784
 30
0.0
 10
28.33513305890508
 20
351.4107655640021
 30
0.0
 10
28.75774151998284
 20
351.5033606501501
 30
0.0
 10
28.89962219395847
 20
351.5301778806405
 30
0.0
 10
29.18778087302492
 20
351.5671626549347
 30
0.0
 10
29.33557141979383
 20
351.5773405503576
 30
0.0
 10
29.77963019892352
 20
351.5663698777452
 30
0.0
 10
30.06488248640499
 20
351.5056685472202
 30
0.0
 10
30.3470283869828
 20
351.4290063221885
 30
0.0
  0
SPLINE
  5
108
330
7E
100
AcDbEntity
  8
DV1_Standard
  6
Continuous
 62
     7
100
AcDbSpline
210
0.0
220
0.0
230
1.0
 70
     8
 71
     3
 72
    16
 73
    12
 74
     0
 42
0.0000000028541744
 43
0.0000000001
 40
0.0
 40
0.0
 40
0.0
 40
0.0
 40
0.2500000000000011
 40
0.2500000000000011
 40
0.3750000000000016
 40
0.3750000000000016
 40
0.5000000000000021
 40
0.5000000000000021
 40
0.7500000000000011
 40
0.7500000000000011
 40
1.0
 40
1.0
 40
1.0
 40
1.0
 10
30.3470283869828
 20
351.3646000276707
 30
0.0
 10
30.06417624737688
 20
351.4414739747905
 30
0.0
 10
29.77823534524629
 20
351.5022831680228
 30
0.0
 10
29.33324589302551
 20
351.5129238261032
 30
0.0
 10
29.18499667852554
 20
351.502578034467
 30
0.0
 10
28.89658786470601
 20
351.4653368150332
 30
0.0
 10
28.75474563210765
 20
351.4384332221554
 30
0.0
 10
28.33245206254531
 20
351.3457388390512
 30
0.0
 10
28.05526273865469
 20
351.2678038357578
 30
0.0
 10
27.49228463406447
 20
351.1380577016996
 30
0.0
 10
27.20696209864023
 20
351.084690673135
 30
0.0
 10
26.90596838698281
 20
351.0825933467457
 30
0.0
  0
LINE
  5
109
330
7E
100
AcDbEntity
  8
DV1_Standard
  6
Continuous
 62
     7
100
AcDbLine
 10
21.313968387
 20
351.8330734261
 30
0.0
 11
21.313968387
 21
351.7685071975
 31
0.0
  0
SPLINE
  5
10A
330
7E
100
AcDbEntity
  8
DV1_Standard
  6
Continuous
 62
     7
100
AcDbSpline
210
0.0
220
0.0
230
1.0
 70
     8
 71
     3
 72
     8
 73
     4
 74
     0
 42
0.0000001892590078
 43
0.0000000001
 40
0.0
 40
0.0
 40
0.0
 40
0.0
 40
1.0
 40
1.0
 40
1.0
 40
1.0
 10
32.49796838698278
 20
351.7680945586503
 30
0.0
 10
32.48038901556037
 20
351.7668256274242
 30
0.0
 10
32.46281024822006
 20
351.7657430689067
 30
0.0
 10
32.44523288035606
 20
351.7648416870805
 30
0.0
  0
SPLINE
  5
10B
330
7E
100
AcDbEntity
  8
DV1_Standard
  6
Continuous
 62
     7
100
AcDbSpline
210
0.0
220
0.0
230
1.0
 70
     8
 71
     3
 72
     8
 73
     4
 74
     0
 42
0.0000001834433693
 43
0.0000000001
 40
0.0
 40
0.0
 40
0.0
 40
0.0
 40
0.9999999999999999
 40
0.9999999999999999
 40
0.9999999999999999
 40
0.9999999999999999
 10
21.36837670139881
 20
351.7651692527293
 30
0.0
 10
21.35023793730843
 20
351.7660861283987
 30
0.0
 10
21.33210130791551
 20
351.7671968016306
 30
0.0
 10
21.31396838698285
 20
351.7685071974938
 30
0.0
  0
LINE
  5
10C
330
7E
100
AcDbEntity
  8
DV1_Standard
  6
Continuous
 62
     7
100
AcDbLine
 10
32.497968387
 20
351.83266148
 30
0.0
 11
32.497968387
 21
351.7680945587
 31
0.0
  0
SPLINE
  5
10D
330
7E
100
AcDbEntity
  8
DV1_Standard
  6
Continuous
 62
     7
100
AcDbSpline
210
0.0
220
0.0
230
1.0
 70
     8
 71
     3
 72
    12
 73
     8
 74
     0
 42
0.0000000017811244
 43
0.0000000001
 40
0.0
 40
0.0
 40
0.0
 40
0.0
 40
0.5
 40
0.5
 40
0.75
 40
0.75
 40
1.0
 40
1.0
 40
1.0
 40
1.0
 10
21.49568267269713
 20
351.5796336744739
 30
0.0
 10
22.42338035316097
 20
351.5576886331928
 30
0.0
 10
23.24421448570769
 20
352.0626800384425
 30
0.0
 10
24.64542113563475
 20
352.1798607935797
 30
0.0
 10
25.10360303515471
 20
352.0762849884113
 30
0.0
 10
25.98978142396728
 20
351.8564035089409
 30
0.0
 10
26.42928622547545
 20
351.7306040611043
 30
0.0
 10
26.90596838698281
 20
351.7272812603243
 30
0.0
  0
LINE
  5
10E
330
7E
100
AcDbEntity
  8
DV1_Standard
  6
Continuous
 62
     7
100
AcDbLine
 10
21.4956826727
 20
351.6441866226
 30
0.0
 11
21.4956826727
 21
351.5796336745
 31
0.0
  0
LINE
  5
10F
330
7E
100
AcDbEntity
  8
DV1_Standard
  6
Continuous
 62
     7
100
AcDbLine
 10
32.3162541013
 20
351.6437881448
 30
0.0
 11
32.3162541013
 21
351.5792345268
 31
0.0
  0
SPLINE
  5
110
330
7E
100
AcDbEntity
  8
DV1_Standard
  6
Continuous
 62
     7
100
AcDbSpline
210
0.0
220
0.0
230
1.0
 70
     8
 71
     3
 72
    12
 73
     8
 74
     0
 42
0.0000000017794389
 43
0.0000000001
 40
0.0
 40
0.0
 40
0.0
 40
0.0
 40
0.2500000000000001
 40
0.2500000000000001
 40
0.5
 40
0.5
 40
1.0
 40
1.0
 40
1.0
 40
1.0
 10
26.90596838698281
 20
351.7272812603243
 30
0.0
 10
27.3748113056634
 20
351.730514967828
 30
0.0
 10
27.81117481853575
 20
351.8533846882905
 30
0.0
 10
28.68840382635405
 20
352.0714287763944
 30
0.0
 10
29.14517419126913
 20
352.1760495721219
 30
0.0
 10
30.51841745079004
 20
352.0768740455945
 30
0.0
 10
31.34580907542811
 20
351.5563504500543
 30
0.0
 10
32.31625410126851
 20
351.5792345268209
 30
0.0
  0
LINE
  5
111
330
7E
100
AcDbEntity
  8
DV1_Standard
  6
Continuous
 62
     7
100
AcDbLine
 10
26.905968387
 20
351.7915721583
 30
0.0
 11
26.905968387
 21
351.7272812603
 31
0.0
  0
SPLINE
  5
112
330
7E
100
AcDbEntity
  8
DV1_Standard
  6
Continuous
 62
     7
100
AcDbSpline
210
0.0
220
0.0
230
1.0
 70
     8
 71
     3
 72
    12
 73
     8
 74
     0
 42
0.0000000017810652
 43
0.0000000001
 40
0.0
 40
0.0
 40
0.0
 40
0.0
 40
0.2499999999999998
 40
0.2499999999999998
 40
0.4999999999999997
 40
0.4999999999999997
 40
1.0
 40
1.0
 40
1.0
 40
1.0
 10
26.90596838698281
 20
351.7915721583173
 30
0.0
 10
26.44497717123438
 20
351.7947854688401
 30
0.0
 10
26.00371210867304
 20
351.9169992962657
 30
0.0
 10
25.12227327107751
 20
352.1361936615175
 30
0.0
 10
24.66151291969219
 20
352.2411134594301
 30
0.0
 10
23.2874053638523
 20
352.1391659842864
 30
0.0
 10
22.43718681869452
 20
351.6218251392459
 30
0.0
 10
21.49568267269713
 20
351.6441866225916
 30
0.0
  0
ARC
  5
113
330
7E
100
AcDbEntity
  8
DV1_Standard
  6
Continuous
 62
     7
100
AcDbCircle
 10
22.2403620658
 20
352.5424390887
 30
0.0
 40
1.16679256570943
100
AcDbArc
 50
217.4422952016
 51
230.3402061883
  0
SPLINE
  5
114
330
7E
100
AcDbEntity
  8
DV1_Standard
  6
Continuous
 62
     7
100
AcDbSpline
210
0.0
220
0.0
230
1.0
 70
     8
 71
     3
 72
    18
 73
    14
 74
     0
 42
0.0000000008600923
 43
0.0000000001
 40
0.0
 40
0.0
 40
0.0
 40
0.0
 40
0.1249999999999999
 40
0.1249999999999999
 40
0.2499999999999998
 40
0.2499999999999998
 40
0.4999999999999998
 40
0.4999999999999998
 40
0.7499999999999998
 40
0.7499999999999998
 40
0.8749999999999999
 40
0.8749999999999999
 40
1.0
 40
1.0
 40
1.0
 40
1.0
 10
21.31396838698285
 20
351.833073426111
 30
0.0
 10
21.78471371198894
 20
351.7990082636194
 30
0.0
 10
22.25986170148968
 20
351.8993263499017
 30
0.0
 10
23.17195753381623
 20
352.1684771036767
 30
0.0
 10
23.61943978591111
 20
352.3281105564786
 30
0.0
 10
25.05377520528729
 20
352.4807478586371
 30
0.0
 10
25.926890459469
 20
351.9777189009955
 30
0.0
 10
27.86279815847757
 20
351.9691858477286
 30
0.0
 10
28.74532347695139
 20
352.4772501529648
 30
0.0
 10
30.17791085436025
 20
352.3317347721512
 30
0.0
 10
30.62739434020872
 20
352.1723416254472
 30
0.0
 10
31.5401718144999
 20
351.9020833582933
 30
0.0
 10
32.02882045566083
 20
351.798750862749
 30
0.0
 10
32.49796838698278
 20
351.8326614800118
 30
0.0
  0
ARC
  5
115
330
7E
100
AcDbEntity
  8
DV1_Standard
  6
Continuous
 62
     7
100
AcDbCircle
 10
31.5780937294
 20
352.5358192708
 30
0.0
 40
1.157842935990075
100
AcDbArc
 50
309.6079325587
 51
322.6054835775
  0
SPLINE
  5
116
330
7E
100
AcDbEntity
  8
DV1_Standard
  6
Continuous
 62
     7
100
AcDbSpline
210
0.0
220
0.0
230
1.0
 70
     8
 71
     3
 72
    12
 73
     8
 74
     0
 42
0.0000000017795166
 43
0.0000000001
 40
0.0
 40
0.0
 40
0.0
 40
0.0
 40
0.2499999999999998
 40
0.2499999999999998
 40
0.4999999999999997
 40
0.4999999999999997
 40
1.0
 40
1.0
 40
1.0
 40
1.0
 10
32.31625410126851
 20
351.643788144758
 30
0.0
 10
31.84938121380657
 20
351.6327341976839
 30
0.0
 10
31.38549835773046
 20
351.7594611007236
 30
0.0
 10
30.49917504585125
 20
352.028428211212
 30
0.0
 10
30.05979966210449
 20
352.1764668293233
 30
0.0
 10
28.65340769225973
 20
352.2715797919629
 30
0.0
 10
27.81569662402559
 20
351.7978466309386
 30
0.0
 10
26.90596838698281
 20
351.7915721583173
 30
0.0
  0
ARC
  5
117
330
7E
100
AcDbEntity
  8
DV1_Standard
  6
Continuous
 62
     7
100
AcDbCircle
 10
21.9190960631
 20
354.296407843
 30
0.0
 40
1.410298242035925
100
AcDbArc
 50
272.927361628
 51
292.5629717436
  0
ELLIPSE
  5
118
330
7E
100
AcDbEntity
  8
DV1_Standard
  6
Continuous
 62
     7
100
AcDbEllipse
 10
26.9025411096
 20
314.9428696938
 30
0.0
 11
-60.08898562952231
 21
1.406466238612625E-6
 31
0.0
210
0.0
220
0.0
230
1.0
 40
0.6427877091
 41
-1.506170093865684
 42
-1.496799853169827
  0
LINE
  5
119
330
7E
100
AcDbEntity
  8
DV1_Standard
  6
Continuous
 62
     7
100
AcDbLine
 10
23.0219198156
 20
352.8332501854
 30
0.0
 11
23.0219198156
 21
353.4867007734
 31
0.0
  0
ARC
  5
11A
330
7E
100
AcDbEntity
  8
DV1_Standard
  6
Continuous
 62
     7
100
AcDbCircle
 10
21.894002537
 20
355.3369206343
 30
0.0
 40
2.74600857684523
100
AcDbArc
 50
272.8923011282
 51
294.2518258798
  0
SPLINE
  5
11B
330
7E
100
AcDbEntity
  8
DV1_Standard
  6
Continuous
 62
     7
100
AcDbSpline
210
0.0
220
0.0
230
1.0
 70
     8
 71
     3
 72
    14
 73
    10
 74
     0
 42
0.0000000029328733
 43
0.0000000001
 40
0.0
 40
0.0
 40
0.0
 40
0.0
 40
0.25
 40
0.25
 40
0.5
 40
0.5
 40
0.75
 40
0.75
 40
1.0
 40
1.0
 40
1.0
 40
1.0
 10
22.03256267269713
 20
354.2728119582629
 30
0.0
 10
21.72200552652966
 20
354.2622601840519
 30
0.0
 10
21.3929332420956
 20
354.1919199596977
 30
0.0
 10
20.93627701210581
 20
353.8531756416508
 30
0.0
 10
20.82087701886249
 20
353.6074035226957
 30
0.0
 10
20.81872135811601
 20
353.1354749416232
 30
0.0
 10
20.93208426135402
 20
352.9002882475971
 30
0.0
 10
21.39329032060288
 20
352.6050915904701
 30
0.0
 10
21.72230138044051
 20
352.5723298612195
 30
0.0
 10
22.03256267269713
 20
352.5944100704526
 30
0.0
  0
LINE
  5
11C
330
7E
100
AcDbEntity
  8
DV1_Standard
  6
Continuous
 62
     7
100
AcDbLine
 10
22.0325626727
 20
352.5944100705
 30
0.0
 11
22.0325626727
 21
352.5299188675
 31
0.0
  0
SPLINE
  5
11D
330
7E
100
AcDbEntity
  8
DV1_Standard
  6
Continuous
 62
     7
100
AcDbSpline
210
0.0
220
0.0
230
1.0
 70
     8
 71
     3
 72
    23
 73
    19
 74
     0
 42
0.0000000055801206
 43
0.0000000001
 40
0.0
 40
0.0
 40
0.0
 40
0.0
 40
0.2586554287454152
 40
0.2586554287454152
 40
0.2586554287454152
 40
0.4096475747099839
 40
0.4096475747099839
 40
0.4096475747099839
 40
0.5635960879648403
 40
0.5635960879648403
 40
0.5635960879648403
 40
0.7586435260365894
 40
0.7586435260365894
 40
0.7586435260365894
 40
0.9443323677328228
 40
0.9443323677328228
 40
0.9443323677328228
 40
1.0
 40
1.0
 40
1.0
 40
1.0
 10
22.03256267269713
 20
352.5299188674792
 30
0.0
 10
21.85617518323692
 20
352.5173505262566
 30
0.0
 10
21.67553768783206
 20
352.5245988872072
 30
0.0
 10
21.50886531128397
 20
352.5590537636136
 30
0.0
 10
21.41070572162705
 20
352.5793455276106
 30
0.0
 10
21.31500834050242
 20
352.6086883047134
 30
0.0
 10
21.23074866019407
 20
352.6499851327983
 30
0.0
 10
21.14553049835796
 20
352.6917517258614
 30
0.0
 10
21.07518228980954
 20
352.7505700416658
 30
0.0
 10
21.01709177003549
 20
352.8136593743951
 30
0.0
 10
20.94351705495055
 20
352.8935653504221
 30
0.0
 10
20.8833666940822
 20
352.9835846064024
 30
0.0
 10
20.85257505563968
 20
353.0798630539384
 30
0.0
 10
20.82306815810233
 20
353.1721244089748
 30
0.0
 10
20.81505209460637
 20
353.2700174370138
 30
0.0
 10
20.82206830170407
 20
353.3666561862549
 30
0.0
 10
20.82416564840691
 20
353.3955442962074
 30
0.0
 10
20.82788133984392
 20
353.4246122709491
 30
0.0
 10
20.83337957097552
 20
353.4536161233094
 30
0.0
  0
ARC
  5
11E
330
7E
100
AcDbEntity
  8
DV1_Standard
  6
Continuous
 62
     7
100
AcDbCircle
 10
22.1795622733
 20
351.6685353091
 30
0.0
 40
2.608422080091401
100
AcDbArc
 50
72.7920407895
 51
93.2306586423
  0
LINE
  5
11F
330
7E
100
AcDbEntity
  8
DV1_Standard
  6
Continuous
 62
     7
100
AcDbLine
 10
22.9512398156
 20
353.8514874936
 30
0.0
 11
22.9512398156
 21
354.1601973084
 31
0.0
  0
ARC
  5
120
330
7E
100
AcDbEntity
  8
DV1_Standard
  6
Continuous
 62
     7
100
AcDbCircle
 10
22.2621080244
 20
352.2606531716
 30
0.0
 40
1.733682919577064
100
AcDbArc
 50
66.578274063
 51
93.3670277016
  0
LINE
  5
121
330
7E
100
AcDbEntity
  8
DV1_Standard
  6
Continuous
 62
     7
100
AcDbLine
 10
22.9512398156
 20
353.8514874936
 30
0.0
 11
22.9512398156
 21
353.7870449641
 31
0.0
  0
ARC
  5
122
330
7E
100
AcDbEntity
  8
DV1_Standard
  6
Continuous
 62
     7
100
AcDbCircle
 10
22.2631236998
 20
352.2010991496
 30
0.0
 40
1.728793774658617
100
AcDbArc
 50
66.5447616849
 51
93.4102816015
  0
SPLINE
  5
123
330
7E
100
AcDbEntity
  8
DV1_Standard
  6
Continuous
 62
     7
100
AcDbSpline
210
0.0
220
0.0
230
1.0
 70
     8
 71
     3
 72
    16
 73
    12
 74
     0
 42
0.0000000093033074
 43
0.0000000001
 40
0.0
 40
0.0
 40
0.0
 40
0.0
 40
0.2500000000000048
 40
0.2500000000000048
 40
0.3750000000000068
 40
0.3750000000000068
 40
0.5000000000000088
 40
0.5000000000000088
 40
0.7500000000000044
 40
0.7500000000000044
 40
1.0
 40
1.0
 40
1.0
 40
1.0
 10
21.4006512441257
 20
353.4050830931219
 30
0.0
 10
21.40078906005698
 20
353.4803565604274
 30
0.0
 10
21.41468612687048
 20
353.5563061327604
 30
0.0
 10
21.46871487611259
 20
353.6635835176936
 30
0.0
 10
21.49267854684089
 20
353.6984105599847
 30
0.0
 10
21.54569153914719
 20
353.7650445810016
 30
0.0
 10
21.57520786662515
 20
353.7975866778474
 30
0.0
 10
21.68073994883772
 20
353.881540871535
 30
0.0
 10
21.77262458790661
 20
353.9209400489216
 30
0.0
 10
21.96244923790807
 20
353.9747645223104
 30
0.0
 10
22.06183568262369
 20
353.9882192853832
 30
0.0
 10
22.16028552983998
 20
353.9913433938517
 30
0.0
  0
LINE
  5
124
330
7E
100
AcDbEntity
  8
DV1_Standard
  6
Continuous
 62
     7
100
AcDbLine
 10
22.1602855298
 20
353.9913433939
 30
0.0
 11
22.1602855298
 21
353.9268315235
 31
0.0
  0
SPLINE
  5
125
330
7E
100
AcDbEntity
  8
DV1_Standard
  6
Continuous
 62
     7
100
AcDbSpline
210
0.0
220
0.0
230
1.0
 70
     8
 71
     3
 72
    16
 73
    12
 74
     0
 42
0.0000000093030716
 43
0.0000000001
 40
0.0
 40
0.0
 40
0.0
 40
0.0
 40
0.250000000000005
 40
0.250000000000005
 40
0.50000000000001
 40
0.50000000000001
 40
0.6250000000000074
 40
0.6250000000000074
 40
0.750000000000005
 40
0.750000000000005
 40
1.0
 40
1.0
 40
1.0
 40
1.0
 10
22.16028552983998
 20
353.9268315234697
 30
0.0
 10
22.06053819692834
 20
353.9236576311546
 30
0.0
 10
21.96269272347596
 20
353.9103176192988
 30
0.0
 10
21.77213414675603
 20
353.8562440690591
 30
0.0
 10
21.67954408398267
 20
353.8162982211134
 30
0.0
 10
21.5745695661018
 20
353.7323885044311
 30
0.0
 10
21.5455298111108
 20
353.7002875957562
 30
0.0
 10
21.49272606056209
 20
353.6339018485891
 30
0.0
 10
21.4692572078443
 20
353.5998691178933
 30
0.0
 10
21.41519469520933
 20
353.4931961179728
 30
0.0
 10
21.40078983097252
 20
353.4162133215655
 30
0.0
 10
21.4006512441257
 20
353.3405208632111
 30
0.0
  0
SPLINE
  5
126
330
7E
100
AcDbEntity
  8
DV1_Standard
  6
Continuous
 62
     7
100
AcDbSpline
210
0.0
220
0.0
230
1.0
 70
     8
 71
     3
 72
    14
 73
    10
 74
     0
 42
0.0000000110208363
 43
0.0000000001
 40
0.0
 40
0.0
 40
0.0
 40
0.0
 40
0.25
 40
0.25
 40
0.5
 40
0.5
 40
0.75
 40
0.75
 40
1.0
 40
1.0
 40
1.0
 40
1.0
 10
21.99111981555424
 20
352.8879499236375
 30
0.0
 10
21.90253283371324
 20
352.8810503901063
 30
0.0
 10
21.81309392907421
 20
352.8883511747292
 30
0.0
 10
21.65174057034434
 20
352.9375215362209
 30
0.0
 10
21.58168002578867
 20
352.9788343192037
 30
0.0
 10
21.48844863819681
 20
353.0859301691701
 30
0.0
 10
21.45305709633667
 20
353.1463197634432
 30
0.0
 10
21.40892912438282
 20
353.2721031523856
 30
0.0
 10
21.40074768551659
 20
353.3387642728665
 30
0.0
 10
21.4006512441257
 20
353.4050830931219
 30
0.0
  0
LINE
  5
127
330
7E
100
AcDbEntity
  8
DV1_Standard
  6
Continuous
 62
     7
100
AcDbLine
 10
22.4602255298
 20
353.461635759
 30
0.0
 11
22.4602255298
 21
352.9940561118
 31
0.0
  0
LINE
  5
128
330
7E
100
AcDbEntity
  8
DV1_Standard
  6
Continuous
 62
     7
100
AcDbLine
 10
24.8674941013
 20
353.3883339446
 30
0.0
 11
24.8843112441
 21
353.3936877461
 31
0.0
  0
SPLINE
  5
129
330
7E
100
AcDbEntity
  8
DV1_Standard
  6
Continuous
 62
     7
100
AcDbSpline
210
0.0
220
0.0
230
1.0
 70
    12
 71
     2
 72
     6
 73
     3
 74
     0
 42
0.0000000311526868
 43
0.0000000001
 40
0.0
 40
0.0
 40
0.0
 40
1.0
 40
1.0
 40
1.0
 10
24.42789981555423
 20
353.5200960774428
 30
0.0
 41
1.0
 10
24.26744528041059
 20
353.515844964144
 30
0.0
 41
1.0
 10
24.10702838698282
 20
353.5110426349926
 30
0.0
 41
1.0
  0
SPLINE
  5
12A
330
7E
100
AcDbEntity
  8
DV1_Standard
  6
Continuous
 62
     7
100
AcDbSpline
210
0.0
220
0.0
230
1.0
 70
     8
 71
     3
 72
    12
 73
     8
 74
     0
 42
0.0000000214985912
 43
0.0000000001
 40
0.0
 40
0.0
 40
0.0
 40
0.0
 40
0.2500000000000103
 40
0.2500000000000103
 40
0.5000000000000207
 40
0.5000000000000207
 40
1.0
 40
1.0
 40
1.0
 40
1.0
 10
24.39862838698282
 20
354.021154364846
 30
0.0
 10
24.44270122247411
 20
354.023257900949
 30
0.0
 10
24.48639854234181
 20
354.0201286033251
 30
0.0
 10
24.56952704263597
 20
354.0001632057571
 30
0.0
 10
24.60839971846045
 20
353.9839480558084
 30
0.0
 10
24.69396416738488
 20
353.9112890256698
 30
0.0
 10
24.71983742745013
 20
353.8450467534446
 30
0.0
 10
24.71995410126854
 20
353.7788121696148
 30
0.0
  0
LINE
  5
12B
330
7E
100
AcDbEntity
  8
DV1_Standard
  6
Continuous
 62
     7
100
AcDbLine
 10
24.8843112441
 20
353.3936877461
 30
0.0
 11
24.8843112441
 21
353.3734664333
 31
0.0
  0
SPLINE
  5
12C
330
7E
100
AcDbEntity
  8
DV1_Standard
  6
Continuous
 62
     7
100
AcDbSpline
210
0.0
220
0.0
230
1.0
 70
     8
 71
     3
 72
    14
 73
    10
 74
     0
 42
0.000000015652866
 43
0.0000000001
 40
0.0
 40
0.0
 40
0.0
 40
0.0
 40
0.25
 40
0.25
 40
0.5
 40
0.5
 40
0.75
 40
0.75
 40
1.0
 40
1.0
 40
1.0
 40
1.0
 10
24.88431124412568
 20
353.3936877461034
 30
0.0
 10
24.94270869186826
 20
353.4128597506852
 30
0.0
 10
24.99836079318598
 20
353.4364979901642
 30
0.0
 10
25.09459703502213
 20
353.5001480699783
 30
0.0
 10
25.13239315370015
 20
353.5389699350636
 30
0.0
 10
25.20038015758965
 20
353.6201094011944
 30
0.0
 10
25.22640200894267
 20
353.6629251645054
 30
0.0
 10
25.25876394738398
 20
353.7539712739406
 30
0.0
 10
25.26539928085625
 20
353.8015071193956
 30
0.0
 10
25.26549981555424
 20
353.8482924804542
 30
0.0
  0
SPLINE
  5
12D
330
7E
100
AcDbEntity
  8
DV1_Standard
  6
Continuous
 62
     7
100
AcDbSpline
210
0.0
220
0.0
230
1.0
 70
     8
 71
     3
 72
    14
 73
    10
 74
     0
 42
0.0000000166226672
 43
0.0000000001
 40
0.0
 40
0.0
 40
0.0
 40
0.0
 40
0.2632374036919483
 40
0.2632374036919483
 40
0.5264748073838965
 40
0.5264748073838965
 40
0.7897122110758448
 40
0.7897122110758448
 40
1.0
 40
1.0
 40
1.0
 40
1.0
 10
25.26549981555424
 20
353.7839685408408
 30
0.0
 10
25.26539825181024
 20
353.736706033582
 30
0.0
 10
25.25887885836108
 20
353.690015856202
 30
0.0
 10
25.226358925126
 20
353.5984431489169
 30
0.0
 10
25.19947294641587
 20
353.5545798150687
 30
0.0
 10
25.13197163382383
 20
353.4742797948777
 30
0.0
 10
25.09357914112062
 20
353.4351216562085
 30
0.0
 10
25.00850405726465
 20
353.3789147167435
 30
0.0
 10
24.96499051486846
 20
353.3585207361159
 30
0.0
 10
24.91924015508264
 20
353.3415506253951
 30
0.0
  0
ELLIPSE
  5
12E
330
7E
100
AcDbEntity
  8
DV1_Standard
  6
Continuous
 62
     7
100
AcDbEllipse
 10
26.1672149841
 20
313.5909251039
 30
0.0
 11
-32.37267092988365
 21
50.62709724888296
 31
0.0
210
0.0
220
0.0
230
0.9999999999999999
 40
0.4119067081
 41
-0.9830682655904628
 42
-0.9647690421359645
  0
ELLIPSE
  5
12F
330
7E
100
AcDbEntity
  8
DV1_Standard
  6
Continuous
 62
     7
100
AcDbEllipse
 10
26.9025405872
 20
314.1372106547
 30
0.0
 11
-60.09993170420857
 21
8.448602980409836E-7
 31
0.0
210
0.0
220
0.0
230
1.0
 40
0.6427877572
 41
-1.548654656040047
 42
-1.53712658237106
  0
LINE
  5
130
330
7E
100
AcDbEntity
  8
DV1_Standard
  6
Continuous
 62
     7
100
AcDbLine
 10
25.5719369584
 20
352.759241755
 30
0.0
 11
25.5719369584
 21
352.6949471201
 31
0.0
  0
ELLIPSE
  5
131
330
7E
100
AcDbEntity
  8
DV1_Standard
  6
Continuous
 62
     7
100
AcDbEllipse
 10
26.9025400061
 20
314.1372238029
 30
0.0
 11
-59.9999213274979
 21
2.038819633953803E-7
 31
0.0
210
0.0
220
0.0
230
1.0
 40
0.6427876481
 41
-1.548617759885091
 42
-1.537070455521294
  0
LINE
  5
132
330
7E
100
AcDbEntity
  8
DV1_Standard
  6
Continuous
 62
     7
100
AcDbLine
 10
24.107028387
 20
353.511042635
 30
0.0
 11
24.107028387
 21
353.4466826498
 31
0.0
  0
ARC
  5
133
330
7E
100
AcDbEntity
  8
DV1_Standard
  6
Continuous
 62
     7
100
AcDbCircle
 10
-41.0720003001
 20
286.8671919288
 30
0.0
 40
93.21860660583769
100
AcDbArc
 50
44.9688160884
 51
45.6366471864
  0
LINE
  5
134
330
7E
100
AcDbEntity
  8
DV1_Standard
  6
Continuous
 62
     7
100
AcDbLine
 10
24.8793741013
 20
352.7468157294
 30
0.0
 11
24.8793741013
 21
352.6825003676
 31
0.0
  0
LINE
  5
135
330
7E
100
AcDbEntity
  8
DV1_Standard
  6
Continuous
 62
     7
100
AcDbLine
 10
24.8793741013
 20
352.6825003676
 30
0.0
 11
24.107028848
 21
353.4466829239
 31
0.0
  0
SPLINE
  5
136
330
7E
100
AcDbEntity
  8
DV1_Standard
  6
Continuous
 62
     7
100
AcDbSpline
210
0.0
220
0.0
230
1.0
 70
     8
 71
     3
 72
    12
 73
     8
 74
     0
 42
0.000000022632476
 43
0.0000000001
 40
0.0
 40
0.0
 40
0.0
 40
0.0
 40
0.2500000000000046
 40
0.2500000000000046
 40
0.5000000000000091
 40
0.5000000000000091
 40
1.0
 40
1.0
 40
1.0
 40
1.0
 10
24.71995410126854
 20
353.7788121696148
 30
0.0
 10
24.71989924375403
 20
353.7476675324099
 30
0.0
 10
24.71515070177488
 20
353.7161497773138
 30
0.0
 10
24.69050309742318
 20
353.6565861469599
 30
0.0
 10
24.67109681292936
 20
353.627781824393
 30
0.0
 10
24.59571007405764
 20
353.5504928359829
 30
0.0
 10
24.51033615962689
 20
353.5250709842209
 30
0.0
 10
24.42789981555423
 20
353.5200960774428
 30
0.0
  0
SPLINE
  5
137
330
7E
100
AcDbEntity
  8
DV1_Standard
  6
Continuous
 62
     7
100
AcDbSpline
210
0.0
220
0.0
230
1.0
 70
    12
 71
     2
 72
     6
 73
     3
 74
     0
 42
0.0000000276274522
 43
0.0000000001
 40
0.0
 40
0.0
 40
0.0
 40
1.0
 40
1.0
 40
1.0
 10
24.03681981555424
 20
354.010749953348
 30
0.0
 41
1.0
 10
24.21769970487803
 20
354.0163026864386
 30
0.0
 41
1.0
 10
24.39862838698282
 20
354.0211543648459
 30
0.0
 41
1.0
  0
LINE
  5
138
330
7E
100
AcDbEntity
  8
DV1_Standard
  6
Continuous
 62
     7
100
AcDbLine
 10
24.398628387
 20
354.0211543648
 30
0.0
 11
24.398628387
 21
353.9567906575
 31
0.0
  0
SPLINE
  5
139
330
7E
100
AcDbEntity
  8
DV1_Standard
  6
Continuous
 62
     7
100
AcDbSpline
210
0.0
220
0.0
230
1.0
 70
    12
 71
     2
 72
     6
 73
     3
 74
     0
 42
0.0000000276274139
 43
0.0000000001
 40
0.0
 40
0.0
 40
0.0
 40
1.0
 40
1.0
 40
1.0
 10
24.39862838698282
 20
353.9567906575097
 30
0.0
 41
1.0
 10
24.21769962325095
 20
353.951930869375
 30
0.0
 41
1.0
 10
24.03681981555424
 20
353.946368854723
 30
0.0
 41
1.0
  0
LINE
  5
13A
330
7E
100
AcDbEntity
  8
DV1_Standard
  6
Continuous
 62
     7
100
AcDbLine
 10
24.0368198156
 20
352.7247691292
 30
0.0
 11
24.0368198156
 21
354.0107499533
 31
0.0
  0
ELLIPSE
  5
13B
330
7E
100
AcDbEntity
  8
DV1_Standard
  6
Continuous
 62
     7
100
AcDbEllipse
 10
26.9025394197
 20
314.1372331946
 30
0.0
 11
-60.09991414008544
 21
-4.172737450708341E-7
 31
0.0
210
0.0
220
0.0
230
1.0
 40
0.6427875701
 41
-1.52309565333724
 42
-1.513789773234535
  0
LINE
  5
13C
330
7E
100
AcDbEntity
  8
DV1_Standard
  6
Continuous
 62
     7
100
AcDbLine
 10
24.0368198156
 20
352.7247691292
 30
0.0
 11
24.0368198156
 21
352.66041696
 31
0.0
  0
ELLIPSE
  5
13D
330
7E
100
AcDbEntity
  8
DV1_Standard
  6
Continuous
 62
     7
100
AcDbEllipse
 10
26.9025411373
 20
314.1372120814
 30
0.0
 11
-59.99993049295235
 21
1.439006127798570E-6
 31
0.0
210
0.0
220
0.0
230
1.0
 40
0.6427877452
 41
-1.523016056083691
 42
-1.513694625883482
  0
LINE
  5
13E
330
7E
100
AcDbEntity
  8
DV1_Standard
  6
Continuous
 62
     7
100
AcDbLine
 10
23.4783055298
 20
354.2913174534
 30
0.0
 11
23.4783055298
 21
352.7059566709
 31
0.0
  0
LINE
  5
13F
330
7E
100
AcDbEntity
  8
DV1_Standard
  6
Continuous
 62
     7
100
AcDbLine
 10
23.4783055298
 20
352.7059566709
 30
0.0
 11
23.4783055298
 21
352.6415730606
 31
0.0
  0
ELLIPSE
  5
140
330
7E
100
AcDbEntity
  8
DV1_Standard
  6
Continuous
 62
     7
100
AcDbEllipse
 10
26.9025403171
 20
315.7485283807
 30
0.0
 11
-60.05962411059863
 21
5.492400700912725E-7
 31
0.0
210
0.0
220
0.0
230
1.0
 40
0.642787665
 41
-1.530755821908585
 42
-1.513751464476218
  0
LINE
  5
141
330
7E
100
AcDbEntity
  8
DV1_Standard
  6
Continuous
 62
     7
100
AcDbLine
 10
25.2654998156
 20
353.8482924805
 30
0.0
 11
25.2654998156
 21
353.7839685408
 31
0.0
  0
SPLINE
  5
142
330
7E
100
AcDbEntity
  8
DV1_Standard
  6
Continuous
 62
     7
100
AcDbSpline
210
0.0
220
0.0
230
1.0
 70
     8
 71
     3
 72
    18
 73
    14
 74
     0
 42
0.0000000098163199
 43
0.0000000001
 40
0.0
 40
0.0
 40
0.0
 40
0.0
 40
0.2499999999999822
 40
0.2499999999999822
 40
0.3749999999999843
 40
0.3749999999999843
 40
0.4999999999999866
 40
0.4999999999999866
 40
0.6249999999999888
 40
0.6249999999999888
 40
0.7499999999999915
 40
0.7499999999999915
 40
1.0
 40
1.0
 40
1.0
 40
1.0
 10
25.26549981555424
 20
353.8482924804542
 30
0.0
 10
25.26534464211753
 20
353.9205026083249
 30
0.0
 10
25.24895398952481
 20
353.9921991122093
 30
0.0
 10
25.1885131263807
 20
354.0879882550807
 30
0.0
 10
25.16298350080947
 20
354.1174832501077
 30
0.0
 10
25.10695618212172
 20
354.1741839604931
 30
0.0
 10
25.07537059829583
 20
354.2006530165937
 30
0.0
 10
25.00177614630807
 20
354.2436006887475
 30
0.0
 10
24.95954199577194
 20
354.2607425959693
 30
0.0
 10
24.87318422973851
 20
354.2884409857971
 30
0.0
 10
24.82837479049339
 20
354.2990963176718
 30
0.0
 10
24.68976264332625
 20
354.3228474866402
 30
0.0
 10
24.59419291855756
 20
354.3272836950784
 30
0.0
 10
24.49836552983997
 20
354.3231710310067
 30
0.0
  0
SPLINE
  5
143
330
7E
100
AcDbEntity
  8
DV1_Standard
  6
Continuous
 62
     7
100
AcDbSpline
210
0.0
220
0.0
230
1.0
 70
     8
 71
     3
 72
    16
 73
    12
 74
     0
 42
0.0000000097364636
 43
0.0000000001
 40
0.0
 40
0.0
 40
0.0
 40
0.0
 40
0.2500000000000087
 40
0.2500000000000087
 40
0.5000000000000174
 40
0.5000000000000174
 40
0.6250000000000218
 40
0.6250000000000218
 40
0.7500000000000262
 40
0.7500000000000262
 40
1.0
 40
1.0
 40
1.0
 40
1.0
 10
26.90253981555424
 20
353.013817003622
 30
0.0
 10
26.8055421753955
 20
353.0117952751996
 30
0.0
 10
26.7079259063021
 20
353.0210335987942
 30
0.0
 10
26.52446636756533
 20
353.0683692150336
 30
0.0
 10
26.43703276584572
 20
353.1055867892147
 30
0.0
 10
26.34039807639054
 20
353.1874118223352
 30
0.0
 10
26.31379688500908
 20
353.2188725754312
 30
0.0
 10
26.2656756126379
 20
353.2822043692688
 30
0.0
 10
26.24465738434586
 20
353.3149902399924
 30
0.0
 10
26.19638090625069
 20
353.418857197073
 30
0.0
 10
26.18457875254982
 20
353.4923888899208
 30
0.0
 10
26.18445124412567
 20
353.5645729832985
 30
0.0
  0
SPLINE
  5
144
330
7E
100
AcDbEntity
  8
DV1_Standard
  6
Continuous
 62
     7
100
AcDbSpline
210
0.0
220
0.0
230
1.0
 70
     8
 71
     3
 72
    16
 73
    12
 74
     0
 42
0.0000000097365023
 43
0.0000000001
 40
0.0
 40
0.0
 40
0.0
 40
0.0
 40
0.2499999999999687
 40
0.2499999999999687
 40
0.3749999999999706
 40
0.3749999999999706
 40
0.4999999999999725
 40
0.4999999999999725
 40
0.7499999999999862
 40
0.7499999999999862
 40
1.0
 40
1.0
 40
1.0
 40
1.0
 10
27.62061981555424
 20
353.5645730491449
 30
0.0
 10
27.62049094039439
 20
353.4916152298005
 30
0.0
 10
27.60820193716892
 20
353.4175102512966
 30
0.0
 10
27.56019516563213
 20
353.3146616828541
 30
0.0
 10
27.539095036102
 20
353.2817400763341
 30
0.0
 10
27.49053027640717
 20
353.2179507590331
 30
0.0
 10
27.46437223186924
 20
353.1870288166439
 30
0.0
 10
27.36655286929666
 20
353.1045788114525
 30
0.0
 10
27.2792066849184
 20
353.0679181120269
 30
0.0
 10
27.09697882120867
 20
353.0210789758871
 30
0.0
 10
26.99907850090414
 20
353.011804841226
 30
0.0
 10
26.90253981555424
 20
353.013817003622
 30
0.0
  0
ARC
  5
145
330
7E
100
AcDbEntity
  8
DV1_Standard
  6
Continuous
 62
     7
100
AcDbCircle
 10
26.8982853238
 20
352.7033764613
 30
0.0
 40
1.726774001690098
100
AcDbArc
 50
54.5366355225
 51
104.5002486576
  0
SPLINE
  5
146
330
7E
100
AcDbEntity
  8
DV1_Standard
  6
Continuous
 62
     7
100
AcDbSpline
210
0.0
220
0.0
230
1.0
 70
     8
 71
     3
 72
    12
 73
     8
 74
     0
 42
0.000000002777832
 43
0.0000000001
 40
0.0
 40
0.0
 40
0.0
 40
0.0
 40
0.5
 40
0.5
 40
0.75
 40
0.75
 40
1.0
 40
1.0
 40
1.0
 40
1.0
 10
27.33915124412567
 20
352.7449602940545
 30
0.0
 10
26.72586265840807
 20
352.5980995748889
 30
0.0
 10
25.97532065756468
 20
352.7896940556092
 30
0.0
 10
25.57104252081707
 20
353.4523329955165
 30
0.0
 10
25.58428057032504
 20
353.7176937305686
 30
0.0
 10
25.88650951264327
 20
354.1440061998453
 30
0.0
 10
26.16028153106074
 20
354.3013555591792
 30
0.0
 10
26.46592838698281
 20
354.3751467601797
 30
0.0
  0
SPLINE
  5
147
330
7E
100
AcDbEntity
  8
DV1_Standard
  6
Continuous
 62
     7
100
AcDbSpline
210
0.0
220
0.0
230
1.0
 70
     8
 71
     3
 72
    26
 73
    22
 74
     0
 42
0.0000000046330988
 43
0.0000000001
 40
0.0
 40
0.0
 40
0.0
 40
0.0
 40
0.0344809566480741
 40
0.0344809566480741
 40
0.0344809566480741
 40
0.1817429592451198
 40
0.1817429592451198
 40
0.1817429592451198
 40
0.3285319019145806
 40
0.3285319019145806
 40
0.3285319019145806
 40
0.4884772883940863
 40
0.4884772883940863
 40
0.4884772883940863
 40
0.6657608780136555
 40
0.6657608780136555
 40
0.6657608780136555
 40
0.8614667252466196
 40
0.8614667252466196
 40
0.8614667252466196
 40
1.0
 40
1.0
 40
1.0
 40
1.0
 10
25.60998556835784
 20
353.4940958587785
 30
0.0
 10
25.6099856171606
 20
353.4734565515602
 30
0.0
 10
25.61108850872933
 20
353.452805183035
 30
0.0
 10
25.61328723982852
 20
353.4322415855909
 30
0.0
 10
25.622554136016
 20
353.3455730871896
 30
0.0
 10
25.65201815811513
 20
353.259077255439
 30
0.0
 10
25.69840088875509
 20
353.1795609967317
 30
0.0
 10
25.74469821929766
 20
353.1001911437264
 30
0.0
 10
25.80883272787054
 20
353.0257677666799
 30
0.0
 10
25.88499010761103
 20
352.9608036480867
 30
0.0
 10
25.96794105620884
 20
352.890044448118
 30
0.0
 10
26.06703410765983
 20
352.8287542631876
 30
0.0
 10
26.17433639372923
 20
352.7799086070895
 30
0.0
 10
26.2931679004466
 20
352.7258146718775
 30
0.0
 10
26.42488823352704
 20
352.6856090626952
 30
0.0
 10
26.55988002450258
 20
352.6608472945634
 30
0.0
 10
26.70867506968003
 20
352.6335535726176
 30
0.0
 10
26.86526347173741
 20
352.624307351226
 30
0.0
 10
27.01795585911838
 20
352.6334387212199
 30
0.0
 10
27.12671354567455
 20
352.6399426910161
 30
0.0
 10
27.23521200730751
 20
352.6557909047949
 30
0.0
 10
27.33915124412567
 20
352.6806797907498
 30
0.0
  0
SPLINE
  5
148
330
7E
100
AcDbEntity
  8
DV1_Standard
  6
Continuous
 62
     7
100
AcDbSpline
210
0.0
220
0.0
230
1.0
 70
     8
 71
     3
 72
    26
 73
    22
 74
     0
 42
0.0000000051893669
 43
0.0000000001
 40
0.0
 40
0.0
 40
0.0
 40
0.0
 40
0.0230312739780804
 40
0.0230312739780804
 40
0.0230312739780804
 40
0.1761371135181744
 40
0.1761371135181744
 40
0.1761371135181744
 40
0.3280542903031421
 40
0.3280542903031421
 40
0.3280542903031421
 40
0.4800030890796434
 40
0.4800030890796434
 40
0.4800030890796434
 40
0.6466504027493917
 40
0.6466504027493917
 40
0.6466504027493917
 40
0.822120618685006
 40
0.822120618685006
 40
0.822120618685006
 40
1.0
 40
1.0
 40
1.0
 40
1.0
 10
27.90012900642025
 20
354.109810849639
 30
0.0
 10
27.91214725334702
 20
354.10001059979
 30
0.0
 10
27.92387945696588
 20
354.0900060892581
 30
0.0
 10
27.93530328852071
 20
354.0798094683487
 30
0.0
 10
28.01039708667946
 20
354.0127826578782
 30
0.0
 10
28.072917485811
 20
353.9362439427039
 30
0.0
 10
28.11699190875017
 20
353.8550776855088
 30
0.0
 10
28.16067795503883
 20
353.7746266521784
 30
0.0
 10
28.18718033365083
 20
353.6875848319204
 30
0.0
 10
28.1935348392906
 20
353.6008843526538
 30
0.0
 10
28.19988927669074
 20
353.5141848044445
 30
0.0
 10
28.1862327841817
 20
353.4255421032007
 30
0.0
 10
28.15414067875412
 20
353.3422579765764
 30
0.0
 10
28.11899907974334
 20
353.2510599282465
 30
0.0
 10
28.06079069875705
 20
353.1636462772813
 30
0.0
 10
27.98635590560204
 20
353.0870828353638
 30
0.0
 10
27.90793455688462
 20
353.0064188323739
 30
0.0
 10
27.8094616352453
 20
352.9353789835114
 30
0.0
 10
27.70046709892514
 20
352.8782708210494
 30
0.0
 10
27.59040882921497
 20
352.8206053108404
 30
0.0
 10
27.46699851528471
 20
352.7755763463757
 30
0.0
 10
27.33915124412567
 20
352.7449602940545
 30
0.0
  0
SPLINE
  5
149
330
7E
100
AcDbEntity
  8
DV1_Standard
  6
Continuous
 62
     7
100
AcDbSpline
210
0.0
220
0.0
230
1.0
 70
     8
 71
     3
 72
    17
 73
    13
 74
     0
 42
0.0000000078316605
 43
0.0000000001
 40
0.0
 40
0.0
 40
0.0
 40
0.0
 40
0.3023667422795248
 40
0.3023667422795248
 40
0.3023667422795248
 40
0.6066526891633705
 40
0.6066526891633705
 40
0.6066526891633705
 40
0.8798789500021185
 40
0.8798789500021185
 40
0.8798789500021185
 40
1.0
 40
1.0
 40
1.0
 40
1.0
 10
27.33915124412567
 20
352.6806797907498
 30
0.0
 10
27.48023487577657
 20
352.7144644485968
 30
0.0
 10
27.61611097663835
 20
352.7659346482142
 30
0.0
 10
27.73469339049162
 20
352.8325577059057
 30
0.0
 10
27.853707621528
 20
352.8994233710815
 30
0.0
 10
27.95880645190713
 20
352.9839023501687
 30
0.0
 10
28.0366604098287
 20
353.0791092219191
 30
0.0
 10
28.10665106322514
 20
353.1647001326389
 30
0.0
 10
28.15665058303692
 20
353.2617877068063
 30
0.0
 10
28.17970130372917
 20
353.3609024899583
 30
0.0
 10
28.18986455296216
 20
353.4046029996862
 30
0.0
 10
28.19494362376662
 20
353.4493215063725
 30
0.0
 10
28.19494316960138
 20
353.4940602039161
 30
0.0
  0
SPLINE
  5
14A
330
7E
100
AcDbEntity
  8
DV1_Standard
  6
Continuous
 62
     7
100
AcDbSpline
210
0.0
220
0.0
230
1.0
 70
     8
 71
     3
 72
    16
 73
    12
 74
     0
 42
0.0000000097406311
 43
0.0000000001
 40
0.0
 40
0.0
 40
0.0
 40
0.0
 40
0.250000000000008
 40
0.250000000000008
 40
0.3750000000000008
 40
0.3750000000000008
 40
0.4999999999999937
 40
0.4999999999999937
 40
0.7499999999999968
 40
0.7499999999999968
 40
1.0
 40
1.0
 40
1.0
 40
1.0
 10
26.18445124412567
 20
353.5645729832985
 30
0.0
 10
26.18458009288095
 20
353.6375178343463
 30
0.0
 10
26.19686043999923
 20
353.7114900619752
 30
0.0
 10
26.24487571566923
 20
353.8142151630032
 30
0.0
 10
26.26596183533556
 20
353.8470771239633
 30
0.0
 10
26.31452573056363
 20
353.9107493459935
 30
0.0
 10
26.34067947974592
 20
353.9415666022663
 30
0.0
 10
26.43840032236074
 20
354.0238188014237
 30
0.0
 10
26.5258186806518
 20
354.0606674247667
 30
0.0
 10
26.70809075570087
 20
354.107718433569
 30
0.0
 10
26.80595205539668
 20
354.1171051684159
 30
0.0
 10
26.90253981555424
 20
354.1151333209366
 30
0.0
  0
SPLINE
  5
14B
330
7E
100
AcDbEntity
  8
DV1_Standard
  6
Continuous
 62
     7
100
AcDbSpline
210
0.0
220
0.0
230
1.0
 70
     8
 71
     3
 72
    16
 73
    12
 74
     0
 42
0.0000000097406688
 43
0.0000000001
 40
0.0
 40
0.0
 40
0.0
 40
0.0
 40
0.2500000000000006
 40
0.2500000000000006
 40
0.500000000000001
 40
0.500000000000001
 40
0.6250000000000063
 40
0.6250000000000063
 40
0.7500000000000115
 40
0.7500000000000115
 40
1.0
 40
1.0
 40
1.0
 40
1.0
 10
26.90253981555424
 20
354.0508229805961
 30
0.0
 10
26.8051511608243
 20
354.0528110888729
 30
0.0
 10
26.70781066319858
 20
354.0434108154311
 30
0.0
 10
26.52478360878132
 20
353.9960155992143
 30
0.0
 10
26.43765476898141
 20
353.958914286328
 30
0.0
 10
26.3409189268327
 20
353.8774466000297
 30
0.0
 10
26.31440505881239
 20
353.8462685908287
 30
0.0
 10
26.26637824510338
 20
353.7833374225451
 30
0.0
 10
26.24531504888844
 20
353.7507256024143
 30
0.0
 10
26.19677945899807
 20
353.6472689414737
 30
0.0
 10
26.18458121536042
 20
353.5738561262446
 30
0.0
 10
26.18445124412567
 20
353.5002778113238
 30
0.0
  0
LINE
  5
14C
330
7E
100
AcDbEntity
  8
DV1_Standard
  6
Continuous
 62
     7
100
AcDbLine
 10
26.9025398156
 20
354.1151333209
 30
0.0
 11
26.9025398156
 21
354.0508229806
 31
0.0
  0
SPLINE
  5
14D
330
7E
100
AcDbEntity
  8
DV1_Standard
  6
Continuous
 62
     7
100
AcDbSpline
210
0.0
220
0.0
230
1.0
 70
     8
 71
     3
 72
    16
 73
    12
 74
     0
 42
0.0000000098335316
 43
0.0000000001
 40
0.0
 40
0.0
 40
0.0
 40
0.0
 40
0.2500000000000204
 40
0.2500000000000204
 40
0.3750000000000259
 40
0.3750000000000259
 40
0.5000000000000313
 40
0.5000000000000313
 40
0.7500000000000157
 40
0.7500000000000157
 40
1.0
 40
1.0
 40
1.0
 40
1.0
 10
26.90253981555424
 20
354.1151333209366
 30
0.0
 10
26.99909243394821
 20
354.1171044509938
 30
0.0
 10
27.09577530304194
 20
354.1058250279855
 30
0.0
 10
27.22764871402171
 20
354.0631247360918
 30
0.0
 10
27.26895392669626
 20
354.0449559009922
 30
0.0
 10
27.34897048935141
 20
354.0047304680892
 30
0.0
 10
27.38700463630549
 20
353.9826688528372
 30
0.0
 10
27.48855019563592
 20
353.9074028720705
 30
0.0
 10
27.54272255136189
 20
353.8453125013741
 30
0.0
 10
27.60867788594523
 20
353.7104590853309
 30
0.0
 10
27.62049141111309
 20
353.6372663616401
 30
0.0
 10
27.62061981555424
 20
353.5645730491449
 30
0.0
  0
SPLINE
  5
14E
330
7E
100
AcDbEntity
  8
DV1_Standard
  6
Continuous
 62
     7
100
AcDbSpline
210
0.0
220
0.0
230
1.0
 70
     8
 71
     3
 72
    16
 73
    12
 74
     0
 42
0.0000000101902223
 43
0.0000000001
 40
0.0
 40
0.0
 40
0.0
 40
0.0
 40
0.2185363601995323
 40
0.2185363601995323
 40
0.4790242401330215
 40
0.4790242401330215
 40
0.6092681800997661
 40
0.6092681800997661
 40
0.7395121200665108
 40
0.7395121200665108
 40
1.0
 40
1.0
 40
1.0
 40
1.0
 10
27.61966283612843
 20
353.5352000918838
 30
0.0
 10
27.6163661955107
 20
353.5956237981923
 30
0.0
 10
27.60413251166857
 20
353.6548724428753
 30
0.0
 10
27.54332913834286
 20
353.7804457704448
 30
0.0
 10
27.48931185493544
 20
353.8425087251502
 30
0.0
 10
27.38678515058776
 20
353.9185371484284
 30
0.0
 10
27.34884065516213
 20
353.9404936103834
 30
0.0
 10
27.26885588040625
 20
353.9806914591054
 30
0.0
 10
27.22727957398536
 20
353.9989343376752
 30
0.0
 10
27.09655430134434
 20
354.0412644798766
 30
0.0
 10
26.99923004011396
 20
354.0527968310026
 30
0.0
 10
26.90253981555424
 20
354.0508229805961
 30
0.0
  0
LINE
  5
14F
330
7E
100
AcDbEntity
  8
DV1_Standard
  6
Continuous
 62
     7
100
AcDbLine
 10
30.1017055298
 20
353.3932612333
 30
0.0
 11
30.1017055298
 21
352.7139406716
 31
0.0
  0
LINE
  5
150
330
7E
100
AcDbEntity
  8
DV1_Standard
  6
Continuous
 62
     7
100
AcDbLine
 10
29.131968387
 20
352.7421220738
 30
0.0
 11
29.131968387
 21
353.4214464523
 31
0.0
  0
ELLIPSE
  5
151
330
7E
100
AcDbEntity
  8
DV1_Standard
  6
Continuous
 62
     7
100
AcDbEllipse
 10
26.9025390367
 20
314.1372130976
 30
0.0
 11
60.09992980700623
 21
8.500444202697022E-7
 31
0.0
210
0.0
220
0.0
230
1.0
 40
0.6427877369
 41
1.533692431199262
 42
1.542744482813712
  0
ELLIPSE
  5
152
330
7E
100
AcDbEntity
  8
DV1_Standard
  6
Continuous
 62
     7
100
AcDbEllipse
 10
26.902536929
 20
315.7484782543
 30
0.0
 11
60.05966315433315
 21
3.162973606987696E-6
 31
0.0
210
0.0
220
0.0
230
1.0
 40
0.6427880817
 41
1.533667483802708
 42
1.542725610816767
  0
LINE
  5
153
330
7E
100
AcDbEntity
  8
DV1_Standard
  6
Continuous
 62
     7
100
AcDbLine
 10
29.131968387
 20
353.7483183407
 30
0.0
 11
29.131968387
 21
354.327507179
 31
0.0
  0
LINE
  5
154
330
7E
100
AcDbEntity
  8
DV1_Standard
  6
Continuous
 62
     7
100
AcDbLine
 10
30.1017055298
 20
354.2993068276
 30
0.0
 11
30.1017055298
 21
353.720129013
 31
0.0
  0
LINE
  5
155
330
7E
100
AcDbEntity
  8
DV1_Standard
  6
Continuous
 62
     7
100
AcDbLine
 10
30.6488712441
 20
352.6935835391
 30
0.0
 11
30.6488712441
 21
354.2789359897
 31
0.0
  0
LINE
  5
156
330
7E
100
AcDbEntity
  8
DV1_Standard
  6
Continuous
 62
     7
100
AcDbLine
 10
30.1017055298
 20
352.7139406716
 30
0.0
 11
30.1017055298
 21
352.6495704087
 31
0.0
  0
ELLIPSE
  5
157
330
7E
100
AcDbEntity
  8
DV1_Standard
  6
Continuous
 62
     7
100
AcDbEllipse
 10
26.9025400179
 20
314.1372305793
 30
0.0
 11
60.09991618103723
 21
-2.119458965971210E-7
 31
0.0
210
0.0
220
0.0
230
1.0
 40
0.6427875917
 41
1.508420840424942
 42
1.517540376982923
  0
LINE
  5
158
330
7E
100
AcDbEntity
  8
DV1_Standard
  6
Continuous
 62
     7
100
AcDbLine
 10
30.6488712441
 20
352.6935835391
 30
0.0
 11
30.6488712441
 21
352.6291792328
 31
0.0
  0
ELLIPSE
  5
159
330
7E
100
AcDbEntity
  8
DV1_Standard
  6
Continuous
 62
     7
100
AcDbEllipse
 10
26.9025355498
 20
314.1371813076
 30
0.0
 11
59.99995456485134
 21
4.669944304522278E-6
 31
0.0
210
0.0
220
0.0
230
1.0
 40
0.6427880002
 41
1.508316658869345
 42
1.517451440006373
  0
ELLIPSE
  5
15A
330
7E
100
AcDbEntity
  8
DV1_Standard
  6
Continuous
 62
     7
100
AcDbEllipse
 10
26.9025396631
 20
314.8217744748
 30
0.0
 11
60.09179826872334
 21
1.710158212958612E-7
 31
0.0
210
0.0
220
0.0
230
1.0
 40
0.6427876279
 41
1.517533165717591
 42
1.533687425741452
  0
ELLIPSE
  5
15B
330
7E
100
AcDbEntity
  8
DV1_Standard
  6
Continuous
 62
     7
100
AcDbEllipse
 10
26.9025398424
 20
314.8217770269
 30
0.0
 11
59.9917826031064
 21
-3.066364870352167E-8
 31
0.0
210
0.0
220
0.0
230
1.0
 40
0.6427876067
 41
1.517444288590341
 42
1.533625536078335
  0
LINE
  5
15C
330
7E
100
AcDbEntity
  8
DV1_Standard
  6
Continuous
 62
     7
100
AcDbLine
 10
28.5882312441
 20
354.3389050641
 30
0.0
 11
28.5882312441
 21
352.753512308
 31
0.0
  0
LINE
  5
15D
330
7E
100
AcDbEntity
  8
DV1_Standard
  6
Continuous
 62
     7
100
AcDbLine
 10
28.5882312441
 20
352.753512308
 30
0.0
 11
28.5882312441
 21
352.6892081179
 31
0.0
  0
ELLIPSE
  5
15E
330
7E
100
AcDbEntity
  8
DV1_Standard
  6
Continuous
 62
     7
100
AcDbEllipse
 10
26.9025394577
 20
315.1542655517
 30
0.0
 11
60.08306017329699
 21
3.903828284940181E-7
 31
0.0
210
0.0
220
0.0
230
1.0
 40
0.6427876516
 41
1.517525406358443
 42
1.533682020612854
  0
ELLIPSE
  5
15F
330
7E
100
AcDbEntity
  8
DV1_Standard
  6
Continuous
 62
     7
100
AcDbEllipse
 10
26.9025418725
 20
315.7485576259
 30
0.0
 11
60.05960125355813
 21
-2.262202846922690E-6
 31
0.0
210
0.0
220
0.0
230
1.0
 40
0.6427874227
 41
1.50837896940544
 42
1.517504647995076
  0
LINE
  5
160
330
7E
100
AcDbEntity
  8
DV1_Standard
  6
Continuous
 62
     7
100
AcDbLine
 10
32.5357512441
 20
353.2972283597
 30
0.0
 11
32.5357512441
 21
353.2326555182
 31
0.0
  0
ELLIPSE
  5
161
330
7E
100
AcDbEntity
  8
DV1_Standard
  6
Continuous
 62
     7
100
AcDbEllipse
 10
26.9025389837
 20
314.8413309483
 30
0.0
 11
59.99135962339459
 21
9.069815315454478E-7
 31
0.0
210
0.0
220
0.0
230
1.0
 40
0.6427876601
 41
1.476757382344356
 42
1.489287641422155
  0
LINE
  5
162
330
7E
100
AcDbEntity
  8
DV1_Standard
  6
Continuous
 62
     7
100
AcDbLine
 10
32.6793741013
 20
353.8757238463
 30
0.0
 11
32.6793741013
 21
353.8111162466
 31
0.0
  0
ELLIPSE
  5
163
330
7E
100
AcDbEntity
  8
DV1_Standard
  6
Continuous
 62
     7
100
AcDbEllipse
 10
26.9025389788
 20
315.4404806141
 30
0.0
 11
59.9729795774716
 21
9.120511099830475E-7
 31
0.0
210
0.0
220
0.0
230
1.0
 40
0.6427876598
 41
1.47432277383218
 42
1.489262605654861
  0
LINE
  5
164
330
7E
100
AcDbEntity
  8
DV1_Standard
  6
Continuous
 62
     7
100
AcDbLine
 10
32.8197998156
 20
352.5810122657
 30
0.0
 11
32.8197998156
 21
352.5164190535
 31
0.0
  0
ELLIPSE
  5
165
330
7E
100
AcDbEntity
  8
DV1_Standard
  6
Continuous
 62
     7
100
AcDbEllipse
 10
26.9025399006
 20
314.1372290536
 30
0.0
 11
59.99991723428381
 21
-9.274993967300915E-8
 31
0.0
210
0.0
220
0.0
230
1.0
 40
0.6427876044
 41
1.472014622421452
 42
1.498388689689765
  0
LINE
  5
166
330
7E
100
AcDbEntity
  8
DV1_Standard
  6
Continuous
 62
     7
100
AcDbLine
 10
31.2431969584
 20
352.6678223749
 30
0.0
 11
31.2431969584
 21
352.6033749364
 31
0.0
  0
LINE
  5
167
330
7E
100
AcDbEntity
  8
DV1_Standard
  6
Continuous
 62
     7
100
AcDbLine
 10
31.2431969584
 20
352.6678223749
 30
0.0
 11
31.2431969584
 21
354.2531574611
 31
0.0
  0
ELLIPSE
  5
168
330
7E
100
AcDbEntity
  8
DV1_Standard
  6
Continuous
 62
     7
100
AcDbEllipse
 10
26.9025398412
 20
315.7485352315
 30
0.0
 11
60.05961876186556
 21
-2.793576134307862E-8
 31
0.0
210
0.0
220
0.0
230
1.0
 40
0.6427876082
 41
1.47446239895711
 42
1.498460789792153
  0
LINE
  5
169
330
7E
100
AcDbEntity
  8
DV1_Standard
  6
Continuous
 62
     7
100
AcDbLine
 10
32.6793741013
 20
354.1751181708
 30
0.0
 11
32.6793741013
 21
353.8757238463
 31
0.0
  0
ELLIPSE
  5
16A
330
7E
100
AcDbEntity
  8
DV1_Standard
  6
Continuous
 62
     7
100
AcDbEllipse
 10
26.9025401213
 20
315.4404888989
 30
0.0
 11
60.07301804480282
 21
-3.338507092304210E-7
 31
0.0
210
0.0
220
0.0
230
1.0
 40
0.6427875915
 41
1.474483960885197
 42
1.489398715555456
  0
LINE
  5
16B
330
7E
100
AcDbEntity
  8
DV1_Standard
  6
Continuous
 62
     7
100
AcDbLine
 10
31.7869426727
 20
353.9268295365
 30
0.0
 11
31.7869426727
 21
353.6327088582
 31
0.0
  0
ELLIPSE
  5
16C
330
7E
100
AcDbEntity
  8
DV1_Standard
  6
Continuous
 62
     7
100
AcDbEllipse
 10
26.902539542
 20
315.1395999387
 30
0.0
 11
60.0835095482721
 21
2.965761022183377E-7
 31
0.0
210
0.0
220
0.0
230
1.0
 40
0.6427876262
 41
1.476902051168919
 42
1.489412943875309
  0
LINE
  5
16D
330
7E
100
AcDbEntity
  8
DV1_Standard
  6
Continuous
 62
     7
100
AcDbLine
 10
32.5357512441
 20
353.590417784
 30
0.0
 11
32.5357512441
 21
353.2972283597
 31
0.0
  0
ELLIPSE
  5
16E
330
7E
100
AcDbEntity
  8
DV1_Standard
  6
Continuous
 62
     7
100
AcDbEllipse
 10
26.9025384418
 20
314.8413269765
 30
0.0
 11
60.09137713500928
 21
1.493186884901632E-6
 31
0.0
210
0.0
220
0.0
230
1.0
 40
0.6427876927
 41
1.47691434952825
 42
1.489423591575356
  0
LINE
  5
16F
330
7E
100
AcDbEntity
  8
DV1_Standard
  6
Continuous
 62
     7
100
AcDbLine
 10
31.7869426727
 20
353.3395138584
 30
0.0
 11
31.7869426727
 21
352.947663888
 31
0.0
  0
ELLIPSE
  5
170
330
7E
100
AcDbEntity
  8
DV1_Standard
  6
Continuous
 62
     7
100
AcDbEllipse
 10
26.9025393132
 20
314.4452666241
 30
0.0
 11
60.09791063077571
 21
5.480039790006774E-7
 31
0.0
210
0.0
220
0.0
230
1.0
 40
0.6427876391
 41
1.47217620014104
 42
1.489432482176261
  0
LINE
  5
171
330
7E
100
AcDbEntity
  8
DV1_Standard
  6
Continuous
 62
     7
100
AcDbLine
 10
32.8197998156
 20
352.8877557052
 30
0.0
 11
32.8197998156
 21
352.5810122657
 31
0.0
  0
ELLIPSE
  5
172
330
7E
100
AcDbEntity
  8
DV1_Standard
  6
Continuous
 62
     7
100
AcDbEllipse
 10
26.9025397693
 20
314.137228067
 30
0.0
 11
60.09991814687471
 21
5.021941543170705E-8
 31
0.0
210
0.0
220
0.0
230
1.0
 40
0.6427876125
 41
1.472179518018111
 42
1.49850937629964
  0
SPLINE
  5
173
330
7E
100
AcDbEntity
  8
DV1_Standard
  6
Continuous
 62
     7
100
AcDbSpline
210
0.0
220
0.0
230
1.0
 70
     8
 71
     3
 72
    71
 73
    67
 74
     0
 42
0.0000000002502132
 43
0.0000000001
 40
0.0
 40
0.0
 40
0.0
 40
0.0
 40
0.0060013934895449
 40
0.0219671854754094
 40
0.0379376739125893
 40
0.053913392209177
 40
0.0698946751353441
 40
0.0858816664230207
 40
0.101874336351222
 40
0.1178725064763726
 40
0.1338758785200855
 40
0.1498840646420705
 40
0.1658966167927873
 40
0.1819130534375605
 40
0.1979328825630844
 40
0.2139556204383518
 40
0.2299808060569631
 40
0.2460080115181596
 40
0.2620368488133439
 40
0.278066973590966
 40
0.2940980864991922
 40
0.3101299326770731
 40
0.3261622999026842
 40
0.3421950158281195
 40
0.3582279446483753
 40
0.3742609625394917
 40
0.3902939975748102
 40
0.4063270093533182
 40
0.4223599782329593
 40
0.4383929020155732
 40
0.4544257928342554
 40
0.4704586742352536
 40
0.486491578432664
 40
0.5025245437041727
 40
0.5185576118889272
 40
0.5345908138231148
 40
0.550624189648617
 40
0.5666577787428435
 40
0.5826916150151606
 40
0.5987257242818944
 40
0.6147601214905983
 40
0.6307948077577286
 40
0.6468297671928287
 40
0.6628649634954817
 40
0.6789003363292839
 40
0.6949357645600702
 40
0.7109711146320297
 40
0.727006218278967
 40
0.7430408664478357
 40
0.7590748060001007
 40
0.7751077371911135
 40
0.7911393123411893
 40
0.8071691361985591
 40
0.8231967685685923
 40
0.8392217298311158
 40
0.8552435099665353
 40
0.871261581637453
 40
0.8872754176994756
 40
0.9032845132210279
 40
0.9192884116671143
 40
0.935286734355267
 40
0.9512792116627082
 40
0.9672657138238161
 40
0.9832462786113448
 40
0.9992211328683674
 40
1.0
 40
1.0
 40
1.0
 40
1.0
 10
42.65123866451402
 20
353.6761460320678
 30
0.0
 10
42.63219620236713
 20
353.7496298592273
 30
0.0
 10
42.57237921240282
 20
353.9788954803602
 30
0.0
 10
42.42819642342653
 20
354.4074142521616
 30
0.0
 10
42.22824570906742
 20
354.9246488605612
 30
0.0
 10
41.9955344252833
 20
355.4392550180056
 30
0.0
 10
41.73457997442851
 20
355.9443036387964
 30
0.0
 10
41.44478097568497
 20
356.4404116496578
 30
0.0
 10
41.1269805883206
 20
356.9261915125142
 30
0.0
 10
40.78170640137914
 20
357.4008147570895
 30
0.0
 10
40.4096412505187
 20
357.8633279977816
 30
0.0
 10
40.01149549276063
 20
358.3128395448061
 30
0.0
 10
39.58803934157032
 20
358.7484724883939
 30
0.0
 10
39.14009195740648
 20
359.1693801890201
 30
0.0
 10
38.66852187151775
 20
359.574744796581
 30
0.0
 10
38.17424418391708
 20
359.9637800607748
 30
0.0
 10
37.65821850086226
 20
360.3357327360359
 30
0.0
 10
37.12144659853159
 20
360.6898841249887
 30
0.0
 10
36.56497012040258
 20
361.0255513714968
 30
0.0
 10
35.98986824910649
 20
361.3420886355271
 30
0.0
 10
35.39725538124373
 20
361.6388881417252
 30
0.0
 10
34.78827880212229
 20
361.915381128178
 30
0.0
 10
34.16411636033652
 20
362.1710387082732
 30
0.0
 10
33.52597413812059
 20
362.4053726574687
 30
0.0
 10
32.87508439609795
 20
362.6179360400964
 30
0.0
 10
32.21270293671551
 20
362.8083240087651
 30
0.0
 10
31.54010664104792
 20
362.9761744191017
 30
0.0
 10
30.85859078156773
 20
363.1211683906592
 30
0.0
 10
30.16946693513833
 20
363.2430306643523
 30
0.0
 10
29.4740606579304
 20
363.341529993002
 30
0.0
 10
28.77370903865248
 20
363.4164794956524
 30
0.0
 10
28.06975823259557
 20
363.4677369444614
 30
0.0
 10
27.36356097983517
 20
363.4952049819286
 30
0.0
 10
26.65647411165405
 20
363.4988312665971
 30
0.0
 10
25.94985622772062
 20
363.4786085509371
 30
0.0
 10
25.24506503506245
 20
363.434574703711
 30
0.0
 10
24.54345479833889
 20
363.3668126346273
 30
0.0
 10
23.84637365813606
 20
363.2754501077289
 30
0.0
 10
23.15516129752
 20
363.1606595122045
 30
0.0
 10
22.47114651468364
 20
363.0226575661906
 30
0.0
 10
21.79564478666365
 20
362.8617049500212
 30
0.0
 10
21.12995586026504
 20
362.6781058738187
 30
0.0
 10
20.47536137351467
 20
362.4722075828038
 30
0.0
 10
19.83312251011679
 20
362.2443998041217
 30
0.0
 10
19.20447811845362
 20
361.9951143097261
 30
0.0
 10
18.59064213179607
 20
361.7248242283321
 30
0.0
 10
17.99280127400923
 20
361.4340433598613
 30
0.0
 10
17.41211244203948
 20
361.1233252210887
 30
0.0
 10
16.84970077149323
 20
360.7932623525894
 30
0.0
 10
16.30665747336096
 20
360.444485488153
 30
0.0
 10
15.78403764857639
 20
360.0776626555274
 30
0.0
 10
15.28285810512972
 20
359.6934982144861
 30
0.0
 10
14.80409516341807
 20
359.2927318078301
 30
0.0
 10
14.34868247743394
 20
358.8761372429482
 30
0.0
 10
13.91750875856425
 20
358.4445211412074
 30
0.0
 10
13.51141583995616
 20
357.9987218434697
 30
0.0
 10
13.13119550002582
 20
357.5396066148978
 30
0.0
 10
12.77759104582502
 20
357.0680743093414
 30
0.0
 10
12.45128142757984
 20
356.5850366524936
 30
0.0
 10
12.15293102481946
 20
356.0914781772989
 30
0.0
 10
11.88299524010453
 20
355.5882216257885
 30
0.0
 10
11.64243804842182
 20
355.0767909092718
 30
0.0
 10
11.43004933200279
 20
354.5561792220432
 30
0.0
 10
11.25244668084464
 20
354.0348902689613
 30
0.0
 10
11.1392814502575
 20
353.6599879260426
 30
0.0
 10
11.09946245861298
 20
353.4823178371595
 30
0.0
 10
11.09731642599084
 20
353.472733412588
 30
0.0
  0
LINE
  5
174
330
7E
100
AcDbEntity
  8
DV1_Standard
  6
Continuous
 62
     7
100
AcDbLine
 10
43.0025398156
 20
351.0390590997
 30
0.0
 11
43.0025398156
 21
351.1161936129
 31
0.0
  0
LINE
  5
175
330
7E
100
AcDbEntity
  8
DV1_Standard
  6
Continuous
 62
     7
100
AcDbLine
 10
10.8025398156
 20
351.1161936129
 30
0.0
 11
10.8025398156
 21
351.0390590997
 31
0.0
  0
LINE
  5
176
330
7E
100
AcDbEntity
  8
DV1_Standard
  6
Continuous
 62
     7
100
AcDbLine
 10
20.8197912441
 20
353.3046539349
 30
0.0
 11
20.8197912441
 21
353.3692591896
 31
0.0
  0
LINE
  5
177
330
7E
100
AcDbEntity
  8
DV1_Standard
  6
Continuous
 62
     7
100
AcDbLine
 10
20.8197912441
 20
353.3694245153
 30
0.0
 11
20.8197912441
 21
353.3692751313
 31
0.0
  0
LINE
  5
178
330
7E
100
AcDbEntity
  8
DV1_Standard
  6
Continuous
 62
     7
100
AcDbLine
 10
25.6099855298
 20
353.5584110952
 30
0.0
 11
25.6099855298
 21
353.4940893352
 31
0.0
  0
LINE
  5
179
330
7E
100
AcDbEntity
  8
DV1_Standard
  6
Continuous
 62
     7
100
AcDbLine
 10
28.1950910635
 20
353.4941379831
 30
0.0
 11
28.1950910635
 21
353.55840866
 31
0.0
  0
ENDBLK
  5
17B
330
7E
100
AcDbEntity
  8
0
100
AcDbBlockEnd
  0
BLOCK
  5
246
330
17C
100
AcDbEntity
  8
0
100
AcDbBlockBegin
  2
SE1
 70
     0
 10
0.0
 20
0.0
 30
0.0
  3
SE1
  1

  0
LINE
  5
17F
330
17C
100
AcDbEntity
  8
DV2_Standard
  6
Continuous
 62
     7
100
AcDbLine
 10
172.5695955222
 20
279.3100048538
 30
0.0
 11
172.5695955222
 21
279.366263757
 31
0.0
  0
LINE
  5
180
330
17C
100
AcDbEntity
  8
DV2_Standard
  6
Continuous
 62
     7
100
AcDbLine
 10
164.1474267788
 20
279.3100048538
 30
0.0
 11
164.1474267788
 21
279.366263757
 31
0.0
  0
LINE
  5
181
330
17C
100
AcDbEntity
  8
DV2_Standard
  6
Continuous
 62
     7
100
AcDbLine
 10
166.0312471069
 20
279.366263757
 30
0.0
 11
166.0312471069
 21
279.3100048538
 31
0.0
  0
LINE
  5
182
330
17C
100
AcDbEntity
  8
DV2_Standard
  6
Continuous
 62
     7
100
AcDbLine
 10
170.8590783635
 20
267.116263757
 30
0.0
 11
144.3590783635
 21
267.116263757
 31
0.0
  0
LINE
  5
183
330
17C
100
AcDbEntity
  8
DV2_Standard
  6
Continuous
 62
     7
100
AcDbLine
 10
170.8590783635
 20
277.116263757
 30
0.0
 11
144.3590783635
 21
277.116263757
 31
0.0
  0
LINE
  5
184
330
17C
100
AcDbEntity
  8
DV2_Standard
  6
Continuous
 62
     7
100
AcDbLine
 10
169.8590783653
 20
266.116263757
 30
0.0
 11
145.3590783617
 21
266.116263757
 31
0.0
  0
SPLINE
  5
185
330
17C
100
AcDbEntity
  8
DV2_Standard
  6
Continuous
 62
     7
100
AcDbSpline
210
0.0
220
0.0
230
1.0
 70
     8
 71
     3
 72
    22
 73
    18
 74
     0
 42
0.0000000006751573
 43
0.0000000001
 40
0.0
 40
0.0
 40
0.0
 40
0.0
 40
0.0624999999999995
 40
0.0624999999999995
 40
0.124999999999999
 40
0.124999999999999
 40
0.2499999999999989
 40
0.2499999999999989
 40
0.4999999999999989
 40
0.4999999999999989
 40
0.7499999999999989
 40
0.7499999999999989
 40
0.8749999999999988
 40
0.8749999999999988
 40
0.9374999999999993
 40
0.9374999999999993
 40
1.0
 40
1.0
 40
1.0
 40
1.0
 10
151.0707299481906
 20
279.3100048538437
 30
0.0
 10
151.0707299481906
 20
278.9960921491148
 30
0.0
 10
151.2299648907993
 20
278.7036596556891
 30
0.0
 10
151.6560882620277
 20
278.2572930325165
 30
0.0
 10
151.922440218637
 20
278.0875519782168
 30
0.0
 10
152.7499233721435
 20
277.680875751535
 30
0.0
 10
153.3564579856505
 20
277.5324162826224
 30
0.0
 10
155.1585566843752
 20
277.2233323899364
 30
0.0
 10
156.3898251837715
 20
277.1884989996081
 30
0.0
 10
158.8399233725542
 20
277.1888709007228
 30
0.0
 10
160.0734928739683
 20
277.223772675523
 30
0.0
 10
161.8801044530944
 20
277.536564924307
 30
0.0
 10
162.4823893582025
 20
277.6854553533126
 30
0.0
 10
163.3068288285216
 20
278.0942417062149
 30
0.0
 10
163.5672612689698
 20
278.2609899694659
 30
0.0
 10
163.9928192475315
 20
278.7102900002038
 30
0.0
 10
164.1474267788142
 20
278.9988695651055
 30
0.0
 10
164.1474267788126
 20
279.3100048538437
 30
0.0
  0
LINE
  5
186
330
17C
100
AcDbEntity
  8
DV2_Standard
  6
Continuous
 62
     7
100
AcDbLine
 10
149.1869096201
 20
279.3100048538
 30
0.0
 11
151.0707299482
 21
279.3100048538
 31
0.0
  0
SPLINE
  5
187
330
17C
100
AcDbEntity
  8
DV2_Standard
  6
Continuous
 62
     7
100
AcDbSpline
210
0.0
220
0.0
230
1.0
 70
     8
 71
     3
 72
    22
 73
    18
 74
     0
 42
0.0000000011301755
 43
0.0000000001
 40
0.0
 40
0.0
 40
0.0
 40
0.0
 40
0.0625000000000002
 40
0.0625000000000002
 40
0.1250000000000005
 40
0.1250000000000005
 40
0.2500000000000007
 40
0.2500000000000007
 40
0.5000000000000003
 40
0.5000000000000003
 40
0.7500000000000001
 40
0.7500000000000001
 40
0.8749999999999997
 40
0.8749999999999997
 40
0.9374999999999999
 40
0.9374999999999999
 40
1.0
 40
1.0
 40
1.0
 40
1.0
 10
142.6485612047562
 20
279.3100048538437
 30
0.0
 10
142.6485612047562
 20
278.9960921491148
 30
0.0
 10
142.7281786760605
 20
278.7036596556891
 30
0.0
 10
142.9412403616747
 20
278.2572930325165
 30
0.0
 10
143.0744163399794
 20
278.0875519782168
 30
0.0
 10
143.4881579167326
 20
277.680875751535
 30
0.0
 10
143.7914252234862
 20
277.5324162826224
 30
0.0
 10
144.6924745728485
 20
277.2233323899364
 30
0.0
 10
145.3081088225466
 20
277.1884989996081
 30
0.0
 10
146.533157916938
 20
277.1888709007228
 30
0.0
 10
147.149942667645
 20
277.223772675523
 30
0.0
 10
148.0532484572081
 20
277.536564924307
 30
0.0
 10
148.3543909097621
 20
277.6854553533126
 30
0.0
 10
148.7666106449217
 20
278.0942417062149
 30
0.0
 10
148.8968268651458
 20
278.2609899694659
 30
0.0
 10
149.1096058544266
 20
278.7102900002038
 30
0.0
 10
149.186909620068
 20
278.9988695651055
 30
0.0
 10
149.1869096200672
 20
279.3100048538437
 30
0.0
  0
LINE
  5
188
330
17C
100
AcDbEntity
  8
DV2_Standard
  6
Continuous
 62
     7
100
AcDbLine
 10
142.6485612048
 20
279.3100048538
 30
0.0
 11
142.6090783635
 21
279.3100048538
 31
0.0
  0
SPLINE
  5
189
330
17C
100
AcDbEntity
  8
DV2_Standard
  6
Continuous
 62
     7
100
AcDbSpline
210
0.0
220
0.0
230
1.0
 70
     8
 71
     3
 72
    22
 73
    18
 74
     0
 42
0.0000000011301755
 43
0.0000000001
 40
0.0
 40
0.0
 40
0.0
 40
0.0
 40
0.0625
 40
0.0625
 40
0.1249999999999999
 40
0.1249999999999999
 40
0.2500000000000001
 40
0.2500000000000001
 40
0.5000000000000003
 40
0.5000000000000003
 40
0.7500000000000006
 40
0.7500000000000006
 40
0.8750000000000008
 40
0.8750000000000008
 40
0.9375000000000003
 40
0.9375000000000003
 40
1.0
 40
1.0
 40
1.0
 40
1.0
 10
166.031247106936
 20
279.3100048538437
 30
0.0
 10
166.031247106936
 20
278.9960921491148
 30
0.0
 10
166.1108645782403
 20
278.7036596556891
 30
0.0
 10
166.3239262638546
 20
278.2572930325165
 30
0.0
 10
166.4571022421592
 20
278.0875519782167
 30
0.0
 10
166.8708438189124
 20
277.680875751535
 30
0.0
 10
167.174111125666
 20
277.5324162826223
 30
0.0
 10
168.0751604750283
 20
277.2233323899364
 30
0.0
 10
168.6907947247265
 20
277.1884989996081
 30
0.0
 10
169.9158438191178
 20
277.1888709007228
 30
0.0
 10
170.5326285698249
 20
277.223772675523
 30
0.0
 10
171.4359343593879
 20
277.536564924307
 30
0.0
 10
171.737076811942
 20
277.6854553533126
 30
0.0
 10
172.1492965471016
 20
278.0942417062149
 30
0.0
 10
172.2795127673257
 20
278.2609899694658
 30
0.0
 10
172.4922917566065
 20
278.7102900002037
 30
0.0
 10
172.5695955222478
 20
278.9988695651055
 30
0.0
 10
172.569595522247
 20
279.3100048538437
 30
0.0
  0
SPLINE
  5
18A
330
17C
100
AcDbEntity
  8
DV2_Standard
  6
Continuous
 62
     7
100
AcDbSpline
210
0.0
220
0.0
230
1.0
 70
     8
 71
     3
 72
    22
 73
    18
 74
     0
 42
0.0000000006751573
 43
0.0000000001
 40
0.0
 40
0.0
 40
0.0
 40
0.0
 40
0.0624999999999994
 40
0.0624999999999994
 40
0.1249999999999989
 40
0.1249999999999989
 40
0.2499999999999981
 40
0.2499999999999981
 40
0.4999999999999979
 40
0.4999999999999979
 40
0.7499999999999977
 40
0.7499999999999977
 40
0.8749999999999983
 40
0.8749999999999983
 40
0.9374999999999991
 40
0.9374999999999991
 40
1.0
 40
1.0
 40
1.0
 40
1.0
 10
164.1474267788126
 20
279.3662637569957
 30
0.0
 10
164.1474267788126
 20
279.6801764617247
 30
0.0
 10
163.988191836204
 20
279.9726089551503
 30
0.0
 10
163.5620684649755
 20
280.4189755783229
 30
0.0
 10
163.2957165083662
 20
280.5887166326227
 30
0.0
 10
162.4682333548597
 20
280.9953928593044
 30
0.0
 10
161.8616987413527
 20
281.1438523282171
 30
0.0
 10
160.059600042628
 20
281.4529362209029
 30
0.0
 10
158.8283315432317
 20
281.4877696112313
 30
0.0
 10
156.3782333544491
 20
281.4873977101166
 30
0.0
 10
155.1446638530349
 20
281.4524959353164
 30
0.0
 10
153.3380522739088
 20
281.1397036865325
 30
0.0
 10
152.7357673688008
 20
280.9908132575268
 30
0.0
 10
151.9113278984815
 20
280.5820269046245
 30
0.0
 10
151.6508954580334
 20
280.4152786413736
 30
0.0
 10
151.2253374794718
 20
279.9659786106357
 30
0.0
 10
151.070729948189
 20
279.6773990457338
 30
0.0
 10
151.0707299481906
 20
279.3662637569957
 30
0.0
  0
SPLINE
  5
18B
330
17C
100
AcDbEntity
  8
DV2_Standard
  6
Continuous
 62
     7
100
AcDbSpline
210
0.0
220
0.0
230
1.0
 70
     8
 71
     3
 72
    22
 73
    18
 74
     0
 42
0.0000000011301755
 43
0.0000000001
 40
0.0
 40
0.0
 40
0.0
 40
0.0
 40
0.0625000000000005
 40
0.0625000000000005
 40
0.125000000000001
 40
0.125000000000001
 40
0.2500000000000007
 40
0.2500000000000007
 40
0.5000000000000003
 40
0.5000000000000003
 40
0.7499999999999999
 40
0.7499999999999999
 40
0.8749999999999996
 40
0.8749999999999996
 40
0.9374999999999999
 40
0.9374999999999999
 40
1.0
 40
1.0
 40
1.0
 40
1.0
 10
172.569595522247
 20
279.3662637569957
 30
0.0
 10
172.569595522247
 20
279.6801764617247
 30
0.0
 10
172.4899780509427
 20
279.9726089551503
 30
0.0
 10
172.2769163653285
 20
280.4189755783229
 30
0.0
 10
172.1437403870239
 20
280.5887166326227
 30
0.0
 10
171.7299988102706
 20
280.9953928593044
 30
0.0
 10
171.4267315035171
 20
281.1438523282171
 30
0.0
 10
170.5256821541547
 20
281.452936220903
 30
0.0
 10
169.9100479044566
 20
281.4877696112313
 30
0.0
 10
168.6849988100653
 20
281.4873977101167
 30
0.0
 10
168.0682140593582
 20
281.4524959353164
 30
0.0
 10
167.1649082697951
 20
281.1397036865325
 30
0.0
 10
166.8637658172411
 20
280.9908132575269
 30
0.0
 10
166.4515460820814
 20
280.5820269046246
 30
0.0
 10
166.3213298618574
 20
280.4152786413736
 30
0.0
 10
166.1085508725766
 20
279.9659786106357
 30
0.0
 10
166.0312471069352
 20
279.6773990457338
 30
0.0
 10
166.031247106936
 20
279.3662637569957
 30
0.0
  0
LINE
  5
18C
330
17C
100
AcDbEntity
  8
DV2_Standard
  6
Continuous
 62
     7
100
AcDbLine
 10
142.6485612048
 20
279.366263757
 30
0.0
 11
142.6090783635
 21
279.366263757
 31
0.0
  0
SPLINE
  5
18D
330
17C
100
AcDbEntity
  8
DV2_Standard
  6
Continuous
 62
     7
100
AcDbSpline
210
0.0
220
0.0
230
1.0
 70
     8
 71
     3
 72
    22
 73
    18
 74
     0
 42
0.0000000011301755
 43
0.0000000001
 40
0.0
 40
0.0
 40
0.0
 40
0.0
 40
0.0625
 40
0.0625
 40
0.125
 40
0.125
 40
0.2500000000000004
 40
0.2500000000000004
 40
0.5000000000000008
 40
0.5000000000000008
 40
0.7500000000000011
 40
0.7500000000000011
 40
0.8750000000000008
 40
0.8750000000000008
 40
0.9375000000000004
 40
0.9375000000000004
 40
1.0
 40
1.0
 40
1.0
 40
1.0
 10
149.1869096200672
 20
279.3662637569957
 30
0.0
 10
149.1869096200672
 20
279.6801764617247
 30
0.0
 10
149.1072921487629
 20
279.9726089551503
 30
0.0
 10
148.8942304631487
 20
280.4189755783229
 30
0.0
 10
148.761054484844
 20
280.5887166326227
 30
0.0
 10
148.3473129080907
 20
280.9953928593044
 30
0.0
 10
148.0440456013372
 20
281.1438523282171
 30
0.0
 10
147.1429962519749
 20
281.4529362209029
 30
0.0
 10
146.5273620022767
 20
281.4877696112313
 30
0.0
 10
145.3023129078854
 20
281.4873977101166
 30
0.0
 10
144.6855281571783
 20
281.4524959353164
 30
0.0
 10
143.7822223676152
 20
281.1397036865325
 30
0.0
 10
143.4810799150612
 20
280.9908132575268
 30
0.0
 10
143.0688601799016
 20
280.5820269046245
 30
0.0
 10
142.9386439596775
 20
280.4152786413736
 30
0.0
 10
142.7258649703967
 20
279.9659786106357
 30
0.0
 10
142.6485612047554
 20
279.6773990457338
 30
0.0
 10
142.6485612047562
 20
279.3662637569957
 30
0.0
  0
LINE
  5
18E
330
17C
100
AcDbEntity
  8
DV2_Standard
  6
Continuous
 62
     7
100
AcDbLine
 10
151.0707299482
 20
279.366263757
 30
0.0
 11
149.1869096201
 21
279.366263757
 31
0.0
  0
LINE
  5
18F
330
17C
100
AcDbEntity
  8
DV2_Standard
  6
Continuous
 62
     7
100
AcDbLine
 10
170.3590783635
 20
281.616263757
 30
0.0
 11
144.8590783635
 21
281.616263757
 31
0.0
  0
LINE
  5
190
330
17C
100
AcDbEntity
  8
DV2_Standard
  6
Continuous
 62
     7
100
AcDbLine
 10
149.1869096201
 20
279.3100048538
 30
0.0
 11
149.1869096201
 21
279.366263757
 31
0.0
  0
LINE
  5
191
330
17C
100
AcDbEntity
  8
DV2_Standard
  6
Continuous
 62
     7
100
AcDbLine
 10
142.6485612048
 20
279.366263757
 30
0.0
 11
142.6485612048
 21
279.3100048538
 31
0.0
  0
LINE
  5
192
330
17C
100
AcDbEntity
  8
DV2_Standard
  6
Continuous
 62
     7
100
AcDbLine
 10
151.0707299482
 20
279.366263757
 30
0.0
 11
151.0707299482
 21
279.3100048538
 31
0.0
  0
LINE
  5
193
330
17C
100
AcDbEntity
  8
DV2_Standard
  6
Continuous
 62
     7
100
AcDbLine
 10
172.6090783635
 20
279.3100048538
 30
0.0
 11
172.6090783635
 21
279.366263757
 31
0.0
  0
LINE
  5
194
330
17C
100
AcDbEntity
  8
DV2_Standard
  6
Continuous
 62
     7
100
AcDbLine
 10
144.3590783635
 20
277.116263757
 30
0.0
 11
144.3590783635
 21
267.116263757
 31
0.0
  0
LINE
  5
195
330
17C
100
AcDbEntity
  8
DV2_Standard
  6
Continuous
 62
     7
100
AcDbLine
 10
170.8590783635
 20
267.116263757
 30
0.0
 11
170.8590783635
 21
277.116263757
 31
0.0
  0
ARC
  5
196
330
17C
100
AcDbEntity
  8
DV2_Standard
  6
Continuous
 62
     7
100
AcDbCircle
 10
170.3590783635
 20
279.3100048538
 30
0.0
 40
2.249999999999986
100
AcDbArc
 50
282.8395884069
 51
0.0
  0
ARC
  5
197
330
17C
100
AcDbEntity
  8
DV2_Standard
  6
Continuous
 62
     7
100
AcDbCircle
 10
144.8590783635
 20
279.3100048538
 30
0.0
 40
2.250000000000002
100
AcDbArc
 50
180.0
 51
257.1604115931
  0
ARC
  5
198
330
17C
100
AcDbEntity
  8
DV2_Standard
  6
Continuous
 62
     7
100
AcDbCircle
 10
144.8590783635
 20
279.366263757
 30
0.0
 40
2.249999999999999
100
AcDbArc
 50
90.0
 51
180.0
  0
ARC
  5
199
330
17C
100
AcDbEntity
  8
DV2_Standard
  6
Continuous
 62
     7
100
AcDbCircle
 10
170.3590783635
 20
279.366263757
 30
0.0
 40
2.250000000000002
100
AcDbArc
 50
0.0
 51
90.0
  0
LINE
  5
19A
330
17C
100
AcDbEntity
  8
DV2_Standard
  6
Continuous
 62
     7
100
AcDbLine
 10
144.3590783635
 20
267.116263757
 30
0.0
 11
145.3590783617
 21
266.116263757
 31
0.0
  0
LINE
  5
19B
330
17C
100
AcDbEntity
  8
DV2_Standard
  6
Continuous
 62
     7
100
AcDbLine
 10
169.8590783653
 20
266.116263757
 30
0.0
 11
170.8590783635
 21
267.116263757
 31
0.0
  0
LINE
  5
19C
330
17C
100
AcDbEntity
  8
DV2_Standard
  6
Continuous
 62
     7
100
AcDbLine
 10
156.1002835732
 20
333.3136066011
 30
0.0
 11
155.9470746845
 21
333.1850490792
 31
0.0
  0
LINE
  5
19D
330
17C
100
AcDbEntity
  8
DV2_Standard
  6
Continuous
 62
     7
100
AcDbLine
 10
171.1695708571
 20
315.0435845772
 30
0.0
 11
171.3227797458
 21
315.1721420992
 31
0.0
  0
ARC
  5
19E
330
17C
100
AcDbEntity
  8
DV2_Standard
  6
Continuous
 62
     7
100
AcDbCircle
 10
538.2323842546
 20
-189.3946177908
 30
0.0
 40
623.3573434421253
100
AcDbArc
 50
122.2806012319
 51
125.9340261541
  0
ARC
  5
19F
330
17C
100
AcDbEntity
  8
DV2_Standard
  6
Continuous
 62
     7
100
AcDbCircle
 10
219.4418187124
 20
343.1349662999
 30
0.0
 40
15.16266396762418
100
AcDbArc
 50
201.3357405903
 51
218.8579543445
  0
ARC
  5
1A0
330
17C
100
AcDbEntity
  8
DV2_Standard
  6
Continuous
 62
     7
100
AcDbCircle
 10
1142.9854418154
 20
-796.6371692217
 30
0.0
 40
1487.268055854017
100
AcDbArc
 50
129.5796280886
 51
131.1072760114
  0
ARC
  5
1A1
330
17C
100
AcDbEntity
  8
DV2_Standard
  6
Continuous
 62
     7
100
AcDbCircle
 10
1243.4760070567
 20
-1164.5223673633
 30
0.0
 40
1826.792953336604
100
AcDbArc
 50
124.6476600774
 51
125.8955913256
  0
SPLINE
  5
1A2
330
17C
100
AcDbEntity
  8
DV2_Standard
  6
Continuous
 62
     7
100
AcDbSpline
210
0.0
220
0.0
230
1.0
 70
     8
 71
     3
 72
    12
 73
     8
 74
     0
 42
0.0000000006751933
 43
0.0000000001
 40
0.0
 40
0.0
 40
0.0
 40
0.0
 40
0.25
 40
0.25
 40
0.5
 40
0.5
 40
1.0
 40
1.0
 40
1.0
 40
1.0
 10
204.8925985981472
 20
338.3139504154975
 30
0.0
 10
204.3736634011956
 20
338.9315112134912
 30
0.0
 10
203.7701874247128
 20
339.6521570944476
 30
0.0
 10
202.4046410658997
 20
341.2798577183351
 30
0.0
 10
201.6298945063392
 20
342.2023512309666
 30
0.0
 10
199.1636903185874
 20
345.1414344145786
 30
0.0
 10
197.2911127264755
 20
347.3717415433431
 30
0.0
 10
195.3726176673078
 20
349.6595661282142
 30
0.0
  0
SPLINE
  5
1A3
330
17C
100
AcDbEntity
  8
DV2_Standard
  6
Continuous
 62
     7
100
AcDbSpline
210
0.0
220
0.0
230
1.0
 70
     8
 71
     3
 72
     8
 73
     4
 74
     0
 42
0.00001
 43
0.0000000001
 40
0.0
 40
0.0
 40
0.0
 40
0.0
 40
1.0
 40
1.0
 40
1.0
 40
1.0
 10
154.776252075588
 20
336.3523380430593
 30
0.0
 10
154.7758395498227
 20
336.3528294803444
 30
0.0
 10
154.7756334755705
 20
336.3530749577311
 30
0.0
 10
154.7756339976985
 20
336.3530743101123
 30
0.0
  0
ARC
  5
1A4
330
17C
100
AcDbEntity
  8
DV2_Standard
  6
Continuous
 62
     7
100
AcDbCircle
 10
-405.8126594097
 20
937.3286479159
 30
0.0
 40
823.3342393057818
100
AcDbArc
 50
313.0031968146
 51
315.7709792768
  0
SPLINE
  5
1A5
330
17C
100
AcDbEntity
  8
DV2_Standard
  6
Continuous
 62
     7
100
AcDbSpline
210
0.0
220
0.0
230
1.0
 70
     8
 71
     3
 72
    12
 73
     8
 74
     0
 42
0.0000000048171254
 43
0.0000000001
 40
0.0
 40
0.0
 40
0.0
 40
0.0
 40
0.4992034613416687
 40
0.4992034613416687
 40
0.9984069226833374
 40
0.9984069226833374
 40
1.0
 40
1.0
 40
1.0
 40
1.0
 10
184.1535796225181
 20
363.0298525006713
 30
0.0
 10
183.7116895529423
 20
363.555586307896
 30
0.0
 10
183.3846663394664
 20
363.9467904904864
 30
0.0
 10
182.9380106092075
 20
364.4792700354186
 30
0.0
 10
182.8199289698151
 20
364.6191933017715
 30
0.0
 10
182.8191812949829
 20
364.6200843871813
 30
0.0
 10
182.8191800722481
 20
364.6200858400862
 30
0.0
 10
182.8191800051042
 20
364.6200859114083
 30
0.0
  0
ARC
  5
1A6
330
17C
100
AcDbEntity
  8
DV2_Standard
  6
Continuous
 62
     7
100
AcDbCircle
 10
-358.0161764763
 20
894.2459416437
 30
0.0
 40
759.2533907154362
100
AcDbArc
 50
315.154488687
 51
315.3667940666
  0
ARC
  5
1A7
330
17C
100
AcDbEntity
  8
DV2_Standard
  6
Continuous
 62
     7
100
AcDbCircle
 10
-358.0161764763
 20
894.2459416437
 30
0.0
 40
759.2533907154362
100
AcDbArc
 50
312.5828301106
 51
315.154488687
  0
ARC
  5
1A8
330
17C
100
AcDbEntity
  8
DV2_Standard
  6
Continuous
 62
     7
100
AcDbCircle
 10
-1453.7008428925
 20
2162.4710640288
 30
0.0
 40
2449.619967149426
100
AcDbArc
 50
311.3651138163
 51
312.2902163657
  0
SPLINE
  5
1A9
330
17C
100
AcDbEntity
  8
DV2_Standard
  6
Continuous
 62
     7
100
AcDbSpline
210
0.0
220
0.0
230
1.0
 70
     8
 71
     3
 72
    24
 73
    20
 74
     0
 42
0.0000000006049804
 43
0.0000000001
 40
0.0
 40
0.0
 40
0.0
 40
0.0
 40
0.0680897431965666
 40
0.0680897431965666
 40
0.1361794863931332
 40
0.1361794863931332
 40
0.2042692295896999
 40
0.2042692295896999
 40
0.2723589727862665
 40
0.2723589727862665
 40
0.5447179455725291
 40
0.5447179455725291
 40
0.8170769183587917
 40
0.8170769183587917
 40
0.8851666615553568
 40
0.8851666615553568
 40
0.953256404751922
 40
0.953256404751922
 40
1.0
 40
1.0
 40
1.0
 40
1.0
 10
194.6146448674427
 20
350.3744782288562
 30
0.0
 10
194.2953043988311
 20
350.6098015052701
 30
0.0
 10
193.9713995774474
 20
350.8430817129521
 30
0.0
 10
193.3144797018013
 20
351.3056703095218
 30
0.0
 10
192.9774582757629
 20
351.5450001035153
 30
0.0
 10
192.2982570574048
 20
352.1214995508541
 30
0.0
 10
191.9537295778802
 20
352.4458490126276
 30
0.0
 10
191.3021526958483
 20
353.1172081274012
 30
0.0
 10
190.9995648350995
 20
353.4701149907187
 30
0.0
 10
189.5207832206514
 20
355.2155998706195
 30
0.0
 10
188.3989399136146
 20
356.5462181042956
 30
0.0
 10
186.2948531796618
 20
359.053713046389
 30
0.0
 10
185.3489433406649
 20
360.1871853347823
 30
0.0
 10
184.3009111590589
 20
361.453017528452
 30
0.0
 10
184.1027476703855
 20
361.6952616637388
 30
0.0
 10
183.846350359017
 20
362.1045795468985
 30
0.0
 10
183.7738288270164
 20
362.2768031698668
 30
0.0
 10
183.7627006014154
 20
362.4877385684402
 30
0.0
 10
183.8017389515526
 20
362.5430731666251
 30
0.0
 10
183.8560754775839
 20
362.586238726181
 30
0.0
  0
ARC
  5
1AA
330
17C
100
AcDbEntity
  8
DV2_Standard
  6
Continuous
 62
     7
100
AcDbCircle
 10
202.0045094102
 20
336.0683436173
 30
0.0
 40
3.658388859782647
100
AcDbArc
 50
25.0666038318
 51
37.8665179579
  0
LINE
  5
1AB
330
17C
100
AcDbEntity
  8
DV2_Standard
  6
Continuous
 62
     7
100
AcDbLine
 10
165.1427998434
 20
323.9979900268
 30
0.0
 11
165.1499213822
 21
323.9894255649
 31
0.0
  0
ARC
  5
1AC
330
17C
100
AcDbEntity
  8
DV2_Standard
  6
Continuous
 62
     7
100
AcDbCircle
 10
192.1424455926
 20
346.9941034353
 30
0.0
 40
4.187923471056559
100
AcDbArc
 50
39.528654373
 51
53.8205465944
  0
SPLINE
  5
1AD
330
17C
100
AcDbEntity
  8
DV2_Standard
  6
Continuous
 62
     7
100
AcDbSpline
210
0.0
220
0.0
230
1.0
 70
     8
 71
     3
 72
     8
 73
     4
 74
     0
 42
0.0000000342743806
 43
0.0000000001
 40
0.0
 40
0.0
 40
0.0
 40
0.0
 40
1.0
 40
1.0
 40
1.0
 40
1.0
 10
184.2327069719688
 20
362.7942878387273
 30
0.0
 10
184.2747798203465
 20
362.8365323517104
 30
0.0
 10
184.2486309005112
 20
362.9169129255439
 30
0.0
 10
184.1535796225181
 20
363.0298525006713
 30
0.0
  0
SPLINE
  5
1AE
330
17C
100
AcDbEntity
  8
DV2_Standard
  6
Continuous
 62
     7
100
AcDbSpline
210
0.0
220
0.0
230
1.0
 70
     8
 71
     3
 72
     8
 73
     4
 74
     0
 42
0.0000001190519278
 43
0.0000000001
 40
0.0
 40
0.0
 40
0.0
 40
0.0
 40
1.0
 40
1.0
 40
1.0
 40
1.0
 10
205.8710147434287
 20
338.8991206394467
 30
0.0
 10
205.8709219872761
 20
338.8992153288049
 30
0.0
 10
205.8528730327939
 20
338.9207104108374
 30
0.0
 10
205.817015681927
 20
338.9634597750255
 30
0.0
  0
LINE
  5
1AF
330
17C
100
AcDbEntity
  8
DV2_Standard
  6
Continuous
 62
     7
100
AcDbLine
 10
172.0406057853
 20
315.3434480634
 30
0.0
 11
173.6776903847
 21
313.3924466107
 31
0.0
  0
LINE
  5
1B0
330
17C
100
AcDbEntity
  8
DV2_Standard
  6
Continuous
 62
     7
100
AcDbLine
 10
172.0406057896
 20
315.3434480583
 30
0.0
 11
172.0359611775
 21
315.3489832915
 31
0.0
  0
LINE
  5
1B1
330
17C
100
AcDbEntity
  8
DV2_Standard
  6
Continuous
 62
     7
100
AcDbLine
 10
172.0359611775
 20
315.3489832915
 30
0.0
 11
164.9225505839
 21
323.826415922
 31
0.0
  0
LINE
  5
1B2
330
17C
100
AcDbEntity
  8
DV2_Standard
  6
Continuous
 62
     7
100
AcDbLine
 10
164.9225505839
 20
323.826415922
 30
0.0
 11
164.9143179239
 21
323.8362272241
 31
0.0
  0
LINE
  5
1B3
330
17C
100
AcDbEntity
  8
DV2_Standard
  6
Continuous
 62
     7
100
AcDbLine
 10
164.9143179239
 20
323.8362272241
 30
0.0
 11
155.6964392697
 21
334.8216672263
 31
0.0
  0
LINE
  5
1B4
330
17C
100
AcDbEntity
  8
DV2_Standard
  6
Continuous
 62
     7
100
AcDbLine
 10
155.6964392697
 20
334.8216672263
 30
0.0
 11
155.6928512087
 21
334.825943311
 31
0.0
  0
LINE
  5
1B5
330
17C
100
AcDbEntity
  8
DV2_Standard
  6
Continuous
 62
     7
100
AcDbLine
 10
155.6928512087
 20
334.825943311
 30
0.0
 11
154.7542772696
 21
335.9444921748
 31
0.0
  0
ELLIPSE
  5
1B6
330
17C
100
AcDbEntity
  8
DV2_Standard
  6
Continuous
 62
     7
100
AcDbEllipse
 10
165.1441312568
 20
324.029063507
 30
0.0
 11
0.2298133329356883
 21
0.1928362829059643
 31
0.0
210
0.0
220
0.0
230
1.0
 40
0.0766808197
 41
3.141592653589793
 42
4.642353173531137
  0
ELLIPSE
  5
1B7
330
17C
100
AcDbEntity
  8
DV2_Standard
  6
Continuous
 62
     7
100
AcDbEllipse
 10
165.1523639168
 20
324.0192522049
 30
0.0
 11
0.2298133329357299
 21
0.1928362829058915
 31
0.0
210
0.0
220
0.0
230
1.0
 40
0.0711034742
 41
3.141592653591117
 42
4.642187049329476
  0
SPLINE
  5
1B8
330
17C
100
AcDbEntity
  8
DV2_Standard
  6
Continuous
 62
     7
100
AcDbSpline
210
0.0
220
0.0
230
1.0
 70
     8
 71
     3
 72
    12
 73
     8
 74
     0
 42
0.000000000254754
 43
0.0000000001
 40
0.0
 40
0.0
 40
0.0
 40
0.0
 40
0.2003128801191887
 40
0.4066632866288523
 40
0.6131762904598759
 40
0.8200967392081844
 40
1.0
 40
1.0
 40
1.0
 40
1.0
 10
174.0854018836794
 20
313.3387503792689
 30
0.0
 10
176.4325533441919
 20
315.0121100804337
 30
0.0
 10
180.4543515507219
 20
317.8647562816786
 30
0.0
 10
187.3301919764795
 20
322.3246457979015
 30
0.0
 10
194.2022930688424
 20
326.460352641843
 30
0.0
 10
201.1340481628307
 20
330.3282772405768
 30
0.0
 10
205.3271433609242
 20
332.4454151061149
 30
0.0
 10
207.6407060179765
 20
333.6071824974393
 30
0.0
  0
SPLINE
  5
1B9
330
17C
100
AcDbEntity
  8
DV2_Standard
  6
Continuous
 62
     7
100
AcDbSpline
210
0.0
220
0.0
230
1.0
 70
     8
 71
     3
 72
    10
 73
     6
 74
     0
 42
0.0000000002511227
 43
0.0000000001
 40
0.0
 40
0.0
 40
0.0
 40
0.0
 40
0.3313373450801845
 40
0.6686578928594018
 40
1.0
 40
1.0
 40
1.0
 40
1.0
 10
182.8174198747249
 20
364.6206782425805
 30
0.0
 10
179.4718995254632
 20
361.1262105362084
 30
0.0
 10
173.8176782634541
 20
355.2324282930527
 30
0.0
 10
164.0908875476095
 20
345.4281136567933
 30
0.0
 10
158.2421178555769
 20
339.727263625528
 30
0.0
 10
154.7742582536773
 20
336.3540702609245
 30
0.0
  0
ARC
  5
1BA
330
17C
100
AcDbEntity
  8
DV2_Standard
  6
Continuous
 62
     7
100
AcDbCircle
 10
164.9230499871
 20
377.8467419794
 30
0.0
 40
24.31622536048144
100
AcDbArc
 50
314.853916346
 51
321.2128176483
  0
SPLINE
  5
1BB
330
17C
100
AcDbEntity
  8
DV2_Standard
  6
Continuous
 62
     7
100
AcDbSpline
210
0.0
220
0.0
230
1.0
 70
     8
 71
     3
 72
     8
 73
     4
 74
     0
 42
0.0000000018872968
 43
0.0000000001
 40
0.0
 40
0.0
 40
0.0
 40
0.0
 40
1.0
 40
1.0
 40
1.0
 40
1.0
 10
207.7800705168638
 20
333.9951216850345
 30
0.0
 10
207.2324990575644
 20
335.629376716823
 30
0.0
 10
206.5918795594551
 20
337.2739003591199
 30
0.0
 10
205.8582120225357
 20
338.9286926119251
 30
0.0
  0
SPLINE
  5
1BC
330
17C
100
AcDbEntity
  8
DV2_Standard
  6
Continuous
 62
     7
100
AcDbSpline
210
0.0
220
0.0
230
1.0
 70
     8
 71
     3
 72
     8
 73
     4
 74
     0
 42
0.0000000037574975
 43
0.0000000001
 40
0.0
 40
0.0
 40
0.0
 40
0.0
 40
1.0
 40
1.0
 40
1.0
 40
1.0
 10
185.4444550756729
 20
363.2301574812826
 30
0.0
 10
183.9539320459391
 20
364.1854591300177
 30
0.0
 10
183.2066571012533
 20
364.6631907804008
 30
0.0
 10
183.2026302416155
 20
364.6633524324317
 30
0.0
  0
ARC
  5
1BD
330
17C
100
AcDbEntity
  8
DV2_Standard
  6
Continuous
 62
     7
100
AcDbCircle
 10
207.5011905741
 20
333.890738052
 30
0.0
 40
0.3000000000073259
100
AcDbArc
 50
296.1259566177
 51
20.5774592051
  0
ARC
  5
1BE
330
17C
100
AcDbEntity
  8
DV2_Standard
  6
Continuous
 62
     7
100
AcDbCircle
 10
183.0365722764
 20
364.4133478584
 30
0.0
 40
0.299999999999822
100
AcDbArc
 50
56.2831937563
 51
136.6612704102
  0
SPLINE
  5
1BF
330
17C
100
AcDbEntity
  8
DV2_Standard
  6
Continuous
 62
     7
100
AcDbSpline
210
0.0
220
0.0
230
1.0
 70
     8
 71
     3
 72
    11
 73
     7
 74
     0
 42
0.000000018513355
 43
0.0000000001
 40
0.0
 40
0.0
 40
0.0
 40
0.0
 40
0.2238586424184654
 40
0.5931986495268827
 40
0.8696281428428936
 40
1.0
 40
1.0
 40
1.0
 40
1.0
 10
184.3113610354268
 20
362.8505699415542
 30
0.0
 10
184.2842174406633
 20
362.8410036942909
 30
0.0
 10
184.222435044786
 20
362.8181949226592
 30
0.0
 10
184.077868742994
 20
362.7637256670728
 30
0.0
 10
183.9354410873612
 20
362.6877068743431
 30
0.0
 10
183.8739212827178
 20
362.6165760073543
 30
0.0
 10
183.850722385541
 20
362.5896571973629
 30
0.0
  0
ARC
  5
1C0
330
17C
100
AcDbEntity
  8
DV2_Standard
  6
Continuous
 62
     7
100
AcDbCircle
 10
154.9840902568
 20
336.1373288697
 30
0.0
 40
0.2999999999999771
100
AcDbArc
 50
134.1065118154
 51
219.9999997945
  0
ARC
  5
1C1
330
17C
100
AcDbEntity
  8
DV2_Standard
  6
Continuous
 62
     7
100
AcDbCircle
 10
173.9075048735
 20
313.5852815161
 30
0.0
 40
0.2999999999726252
100
AcDbArc
 50
219.9999912383
 51
305.676123582
  0
LINE
  5
1C2
330
17C
100
AcDbEntity
  8
DV2_Standard
  6
Continuous
 62
     7
100
AcDbLine
 10
155.1367454936
 20
334.6137701924
 30
0.0
 11
172.435874299
 21
313.9974712899
 31
0.0
  0
LINE
  5
1C3
330
17C
100
AcDbEntity
  8
DV2_Standard
  6
Continuous
 62
     7
100
AcDbLine
 10
172.2968355692
 20
314.0113075722
 30
0.0
 11
155.1262277497
 21
334.4744411281
 31
0.0
  0
LINE
  5
1C4
330
17C
100
AcDbEntity
  8
DV2_Standard
  6
Continuous
 62
     7
100
AcDbLine
 10
155.5644018839
 20
334.9790232553
 30
0.0
 11
155.1367454936
 21
334.6137701924
 31
0.0
  0
ARC
  5
1C5
330
17C
100
AcDbEntity
  8
DV2_Standard
  6
Continuous
 62
     7
100
AcDbCircle
 10
155.202832194
 20
334.5387198891
 30
0.0
 40
0.0999999999999941
100
AcDbArc
 50
131.3660290071
 51
220.0
  0
ARC
  5
1C6
330
17C
100
AcDbEntity
  8
DV2_Standard
  6
Continuous
 62
     7
100
AcDbCircle
 10
172.3734400135
 20
314.0755863332
 30
0.0
 40
0.1000000000000104
100
AcDbArc
 50
220.0
 51
308.6339709929
  0
LINE
  5
1C7
330
17C
100
AcDbEntity
  8
DV2_Standard
  6
Continuous
 62
     7
100
AcDbLine
 10
155.0413869425
 20
334.2644056995
 30
0.0
 11
172.0752585992
 21
313.9642279569
 31
0.0
  0
SPLINE
  5
1C8
330
17C
100
AcDbEntity
  8
DV2_Standard
  6
Continuous
 62
     7
100
AcDbSpline
210
0.0
220
0.0
230
1.0
 70
     8
 71
     3
 72
    15
 73
    11
 74
     0
 42
0.0000000006820223
 43
0.0000000001
 40
0.0
 40
0.0
 40
0.0
 40
0.0
 40
0.0007042075458793
 40
0.2452778102506698
 40
0.365423500683659
 40
0.4936044899520249
 40
0.6122736592469135
 40
0.7456078643657015
 40
0.851490829831362
 40
0.9999999999999999
 40
0.9999999999999999
 40
0.9999999999999999
 40
0.9999999999999999
 10
138.4017424065763
 20
320.3020854771846
 30
0.0
 10
138.401742329487
 20
320.3020857402522
 30
0.0
 10
138.4020225790567
 20
320.3010070095702
 30
0.0
 10
138.5618844156341
 20
319.6917778087006
 30
0.0
 10
139.0371570104301
 20
317.8665875497965
 30
0.0
 10
139.5047009320589
 20
316.0847011389433
 30
0.0
 10
140.0727028268642
 20
313.9004996711186
 30
0.0
 10
140.6764829409951
 20
311.6046040571349
 30
0.0
 10
141.3606286596444
 20
308.9620399251856
 30
0.0
 10
141.8332002692093
 20
307.1652150786633
 30
0.0
 10
142.1090783635016
 20
306.1162637569957
 30
0.0
  0
LINE
  5
1C9
330
17C
100
AcDbEntity
  8
DV2_Standard
  6
Continuous
 62
     7
100
AcDbLine
 10
122.6090783635
 20
319.3662608061
 30
0.0
 11
122.6090783635
 21
292.8662639657
 31
0.0
  0
LINE
  5
1CA
330
17C
100
AcDbEntity
  8
DV2_Standard
  6
Continuous
 62
     7
100
AcDbLine
 10
174.1090783635
 20
304.1987278117
 30
0.0
 11
149.8711108451
 21
304.1987278117
 31
0.0
  0
SPLINE
  5
1CB
330
17C
100
AcDbEntity
  8
DV2_Standard
  6
Continuous
 62
     7
100
AcDbSpline
210
0.0
220
0.0
230
1.0
 70
     8
 71
     3
 72
    29
 73
    25
 74
     0
 42
0.0000000002264542
 43
0.0000000001
 40
0.0
 40
0.0
 40
0.0
 40
0.0
 40
0.0311502134389702
 40
0.0607862908589967
 40
0.0891347707261505
 40
0.1164849883446052
 40
0.1431934090692036
 40
0.1943040955253764
 40
0.2499985812197373
 40
0.3031762556551656
 40
0.3567406652448685
 40
0.4102600326188499
 40
0.4636265208920024
 40
0.5247034876524668
 40
0.5706729728323
 40
0.6243458172454937
 40
0.6457848044224559
 40
0.6779964285488749
 40
0.7317950410541879
 40
0.7853421952197145
 40
0.8393932164064731
 40
0.8924833685108522
 40
0.943899322755286
 40
1.0
 40
1.0
 40
1.0
 40
1.0
 10
150.2810020094335
 20
304.8244735976671
 30
0.0
 10
150.7804606104066
 20
305.1502439566928
 30
0.0
 10
151.7551003379668
 20
305.7859497856504
 30
0.0
 10
153.239729607466
 20
306.6214939593217
 30
0.0
 10
154.7009546686304
 20
307.3358268499414
 30
0.0
 10
156.1518342353329
 20
307.9226585745661
 30
0.0
 10
158.0442945473619
 20
308.5240424194506
 30
0.0
 10
160.503426687128
 20
308.979671618226
 30
0.0
 10
163.3840580263255
 20
309.0652233365669
 30
0.0
 10
166.0716275922898
 20
308.8227529190503
 30
0.0
 10
168.3375242325529
 20
308.4526624470698
 30
0.0
 10
170.0465271361198
 20
308.0968857757845
 30
0.0
 10
171.061960861131
 20
307.8607867362193
 30
0.0
 10
171.0898077855264
 20
307.8540035132579
 30
0.0
 10
170.2343723486945
 20
308.0530583645918
 30
0.0
 10
169.0443122892931
 20
308.3078201945474
 30
0.0
 10
167.7128353543033
 20
308.5543381993963
 30
0.0
 10
166.2027076871254
 20
308.7983694919125
 30
0.0
 10
163.9489842217439
 20
309.0337095127974
 30
0.0
 10
161.0775031488513
 20
309.0342202688202
 30
0.0
 10
158.1180502491943
 20
308.5806423253931
 30
0.0
 10
155.2615909677593
 20
307.6312744753831
 30
0.0
 10
152.5079530056601
 20
306.2757559466815
 30
0.0
 10
150.7857322866647
 20
305.1462631490564
 30
0.0
 10
149.8871015554471
 20
304.5569095841219
 30
0.0
  0
LINE
  5
1CC
330
17C
100
AcDbEntity
  8
DV2_Standard
  6
Continuous
 62
     7
100
AcDbLine
 10
174.1090783635
 20
284.116263757
 30
0.0
 11
141.1090783635
 21
284.116263757
 31
0.0
  0
LINE
  5
1CD
330
17C
100
AcDbEntity
  8
DV2_Standard
  6
Continuous
 62
     7
100
AcDbLine
 10
147.492339327
 20
300.8195789916
 30
0.0
 11
148.0043404352
 21
303.3133092968
 31
0.0
  0
LINE
  5
1CE
330
17C
100
AcDbEntity
  8
DV2_Standard
  6
Continuous
 62
     7
100
AcDbLine
 10
149.8711108451
 20
304.1987278311
 30
0.0
 11
148.0711539333
 21
303.6807093208
 31
0.0
  0
LINE
  5
1CF
330
17C
100
AcDbEntity
  8
DV2_Standard
  6
Continuous
 62
     7
100
AcDbLine
 10
148.0711338362
 20
303.6807402102
 30
0.0
 11
147.492339327
 21
300.8195789916
 31
0.0
  0
ARC
  5
1D0
330
17C
100
AcDbEntity
  8
DV2_Standard
  6
Continuous
 62
     7
100
AcDbCircle
 10
133.8588173735
 20
303.7920266203
 30
0.0
 40
13.95379395583667
100
AcDbArc
 50
334.4208535096
 51
347.7005651939
  0
ARC
  5
1D1
330
17C
100
AcDbEntity
  8
DV2_Standard
  6
Continuous
 62
     7
100
AcDbCircle
 10
80.7100109851
 20
331.1234015304
 30
0.0
 40
73.71372338247924
100
AcDbArc
 50
325.0221283094
 51
333.0953082554
  0
LINE
  5
1D2
330
17C
100
AcDbEntity
  8
DV2_Standard
  6
Continuous
 62
     7
100
AcDbLine
 10
110.6090783653
 20
316.646263757
 30
0.0
 11
110.6090783653
 21
295.586263757
 31
0.0
  0
LINE
  5
1D3
330
17C
100
AcDbEntity
  8
DV2_Standard
  6
Continuous
 62
     7
100
AcDbLine
 10
109.6090783635
 20
315.646263757
 30
0.0
 11
109.6090783635
 21
296.586263757
 31
0.0
  0
LINE
  5
1D4
330
17C
100
AcDbEntity
  8
DV2_Standard
  6
Continuous
 62
     7
100
AcDbLine
 10
171.523209287
 20
313.5010035827
 30
0.0
 11
172.0752585992
 21
313.9642279569
 31
0.0
  0
LINE
  5
1D5
330
17C
100
AcDbEntity
  8
DV2_Standard
  6
Continuous
 62
     7
100
AcDbLine
 10
155.0413869425
 20
334.2644056995
 30
0.0
 11
138.4014604459
 21
320.3018495135
 31
0.0
  0
LINE
  5
1D6
330
17C
100
AcDbEntity
  8
DV2_Standard
  6
Continuous
 62
     7
100
AcDbLine
 10
122.6090783635
 20
292.866263757
 30
0.0
 11
137.1093658473
 21
292.866263757
 31
0.0
  0
LINE
  5
1D7
330
17C
100
AcDbEntity
  8
DV2_Standard
  6
Continuous
 62
     7
100
AcDbLine
 10
135.8309595588
 20
319.366263757
 30
0.0
 11
122.6090783635
 21
319.366263757
 31
0.0
  0
ARC
  5
1D8
330
17C
100
AcDbEntity
  8
DV2_Standard
  6
Continuous
 62
     7
100
AcDbCircle
 10
135.8305918108
 20
323.3662637889
 30
0.0
 40
3.99999994201118
100
AcDbArc
 50
269.9999995653
 51
310.0000004384
  0
LINE
  5
1D9
330
17C
100
AcDbEntity
  8
DV2_Standard
  6
Continuous
 62
     7
100
AcDbLine
 10
174.1091033635
 20
304.1986980179
 30
0.0
 11
171.0257068442
 21
307.8733469032
 31
0.0
  0
LINE
  5
1DA
330
17C
100
AcDbEntity
  8
DV2_Standard
  6
Continuous
 62
     7
100
AcDbLine
 10
174.1090783635
 20
284.116263757
 30
0.0
 11
174.1090783635
 21
304.1987278117
 31
0.0
  0
LINE
  5
1DB
330
17C
100
AcDbEntity
  8
DV2_Standard
  6
Continuous
 62
     7
100
AcDbLine
 10
141.1090783635
 20
288.8668253955
 30
0.0
 11
141.1090783635
 21
284.116263757
 31
0.0
  0
ARC
  5
1DC
330
17C
100
AcDbEntity
  8
DV2_Standard
  6
Continuous
 62
     7
100
AcDbCircle
 10
174.095510973
 20
310.4377923119
 30
0.0
 40
4.000001011588136
100
AcDbArc
 50
130.0000165864
 51
219.9999814027
  0
ARC
  5
1DD
330
17C
100
AcDbEntity
  8
DV2_Standard
  6
Continuous
 62
     7
100
AcDbCircle
 10
137.1090783427
 20
288.8662637342
 30
0.0
 40
4.000000100709706
100
AcDbArc
 50
0.0000017898
 51
89.9999982898
  0
LINE
  5
1DE
330
17C
100
AcDbEntity
  8
DV2_Standard
  6
Continuous
 62
     7
100
AcDbLine
 10
110.6090783653
 20
295.586263757
 30
0.0
 11
122.6090783635
 21
295.586263757
 31
0.0
  0
LINE
  5
1DF
330
17C
100
AcDbEntity
  8
DV2_Standard
  6
Continuous
 62
     7
100
AcDbLine
 10
122.6090783635
 20
316.646263757
 30
0.0
 11
110.6090783653
 21
316.646263757
 31
0.0
  0
LINE
  5
1E0
330
17C
100
AcDbEntity
  8
DV2_Standard
  6
Continuous
 62
     7
100
AcDbLine
 10
110.6090783653
 20
316.646263757
 30
0.0
 11
109.6090783635
 21
315.646263757
 31
0.0
  0
LINE
  5
1E1
330
17C
100
AcDbEntity
  8
DV2_Standard
  6
Continuous
 62
     7
100
AcDbLine
 10
109.6090783635
 20
296.586263757
 30
0.0
 11
110.6090783653
 21
295.586263757
 31
0.0
  0
LINE
  5
1E2
330
17C
100
AcDbEntity
  8
DV2_Standard
  6
Continuous
 62
     7
100
AcDbLine
 10
145.2090783635
 20
284.116263757
 30
0.0
 11
145.2090783635
 21
281.616263757
 31
0.0
  0
LINE
  5
1E3
330
17C
100
AcDbEntity
  8
DV2_Standard
  6
Continuous
 62
     7
100
AcDbLine
 10
170.0090783635
 20
281.616263757
 30
0.0
 11
170.0090783635
 21
284.116263757
 31
0.0
  0
LINE
  5
1E4
330
17C
100
AcDbEntity
  8
DV2_Standard
  6
Continuous
 62
     7
100
AcDbLine
 10
198.592207836
 20
351.0632214943
 30
0.0
 11
198.4675234026
 21
351.1954852658
 31
0.0
  0
LINE
  5
1E5
330
17C
100
AcDbEntity
  8
DV2_Standard
  6
Continuous
 62
     7
100
AcDbLine
 10
197.9122634816
 20
351.7685071975
 30
0.0
 11
198.0868159362
 21
351.5796338003
 31
0.0
  0
LINE
  5
1E6
330
17C
100
AcDbEntity
  8
DV2_Standard
  6
Continuous
 62
     7
100
AcDbLine
 10
198.9632653857
 20
350.6987029883
 30
0.0
 11
198.8611262805
 21
350.8015023204
 31
0.0
  0
LINE
  5
1E7
330
17C
100
AcDbEntity
  8
DV2_Standard
  6
Continuous
 62
     7
100
AcDbLine
 10
205.7693021247
 20
338.9753159405
 30
0.0
 11
205.7647460384
 21
338.9799846348
 31
0.0
  0
LINE
  5
1E8
330
17C
100
AcDbEntity
  8
DV2_Standard
  6
Continuous
 62
     7
100
AcDbLine
 10
205.7693021247
 20
338.9753159405
 30
0.0
 11
205.8139238564
 21
338.958010495
 31
0.0
  0
LINE
  5
1E9
330
17C
100
AcDbEntity
  8
DV2_Standard
  6
Continuous
 62
     7
100
AcDbLine
 10
185.2971005866
 20
363.3723746339
 30
0.0
 11
205.7647460384
 21
338.9799846348
 31
0.0
  0
ARC
  5
1EA
330
17C
100
AcDbEntity
  8
DV2_Standard
  6
Continuous
 62
     7
100
AcDbCircle
 10
190.5190341092
 20
342.4013404988
 30
0.0
 40
11.93849433045322
100
AcDbArc
 50
44.4596480913
 51
45.1551239209
  0
LINE
  5
1EB
330
17C
100
AcDbEntity
  8
DV2_Standard
  6
Continuous
 62
     7
100
AcDbLine
 10
199.0400616624
 20
350.7631427157
 30
0.0
 11
198.9632653857
 21
350.6987029883
 31
0.0
  0
SPLINE
  5
1EC
330
17C
100
AcDbEntity
  8
DV2_Standard
  6
Continuous
 62
     7
100
AcDbSpline
210
0.0
220
0.0
230
1.0
 70
     8
 71
     3
 72
    10
 73
     6
 74
     0
 42
0.0000000545855601
 43
0.0000000001
 40
0.0
 40
0.0
 40
0.0
 40
0.0
 40
0.9520334985764316
 40
0.9520334985764316
 40
1.0
 40
1.0
 40
1.0
 40
1.0
 10
199.0400616624053
 20
350.7631427157372
 30
0.0
 10
198.9984776340478
 20
350.8441984617858
 30
0.0
 10
198.9651598592115
 20
350.9114812137213
 30
0.0
 10
198.9712048813477
 20
350.925965176824
 30
0.0
 10
198.9716043501293
 20
350.9265118193287
 30
0.0
 10
198.9721090250436
 20
350.9269154258229
 30
0.0
  0
SPLINE
  5
1ED
330
17C
100
AcDbEntity
  8
DV2_Standard
  6
Continuous
 62
     7
100
AcDbSpline
210
0.0
220
0.0
230
1.0
 70
     8
 71
     3
 72
    14
 73
    10
 74
     0
 42
0.000000017193647
 43
0.0000000001
 40
0.0
 40
0.0
 40
0.0
 40
0.0
 40
0.0844230630451016
 40
0.0844230630451016
 40
0.267538450436082
 40
0.267538450436082
 40
0.6337692252180409
 40
0.6337692252180409
 40
1.0
 40
1.0
 40
1.0
 40
1.0
 10
198.9843075477995
 20
350.9244827900961
 30
0.0
 10
198.9904306274522
 20
350.9210759941765
 30
0.0
 10
198.9983642258422
 20
350.9151361754592
 30
0.0
 10
199.0279371629327
 20
350.8898233514216
 30
0.0
 10
199.0545577540883
 20
350.8632213827133
 30
0.0
 10
199.1427537707852
 20
350.7697247557717
 30
0.0
 10
199.2126867461755
 20
350.6890654777944
 30
0.0
 10
199.327068560876
 20
350.5537477199995
 30
0.0
 10
199.3730676018549
 20
350.4971596045496
 30
0.0
 10
199.3747127955072
 20
350.4949723766403
 30
0.0
  0
SPLINE
  5
1EE
330
17C
100
AcDbEntity
  8
DV2_Standard
  6
Continuous
 62
     7
100
AcDbSpline
210
0.0
220
0.0
230
1.0
 70
     8
 71
     3
 72
    10
 73
     6
 74
     0
 42
0.0000000235931868
 43
0.0000000001
 40
0.0
 40
0.0
 40
0.0
 40
0.0
 40
0.5217908800840387
 40
0.5217908800840387
 40
1.0
 40
1.0
 40
1.0
 40
1.0
 10
199.2980241278822
 20
350.4306229439206
 30
0.0
 10
199.2963698843759
 20
350.432822609663
 30
0.0
 10
199.2503820666687
 20
350.4894009832013
 30
0.0
 10
199.140618494529
 20
350.6192498664665
 30
0.0
 10
199.0773743770649
 20
350.6923140437696
 30
0.0
 10
199.0218983389193
 20
350.7520569189532
 30
0.0
  0
SPLINE
  5
1EF
330
17C
100
AcDbEntity
  8
DV2_Standard
  6
Continuous
 62
     7
100
AcDbSpline
210
0.0
220
0.0
230
1.0
 70
     8
 71
     3
 72
    10
 73
     6
 74
     0
 42
0.0000000546061271
 43
0.0000000001
 40
0.0
 40
0.0
 40
0.0
 40
0.0
 40
0.051604692400388
 40
0.051604692400388
 40
1.0
 40
1.0
 40
1.0
 40
1.0
 10
198.8954066116708
 20
350.8625454342403
 30
0.0
 10
198.8948533606701
 20
350.8621124081344
 30
0.0
 10
198.8944237611814
 20
350.8615110183712
 30
0.0
 10
198.8886054204944
 20
350.8464650290928
 30
0.0
 10
198.9217668820198
 20
350.7796643633349
 30
0.0
 10
198.9632653857179
 20
350.698702988293
 30
0.0
  0
SPLINE
  5
1F0
330
17C
100
AcDbEntity
  8
DV2_Standard
  6
Continuous
 62
     7
100
AcDbSpline
210
0.0
220
0.0
230
1.0
 70
     8
 71
     3
 72
    14
 73
    10
 74
     0
 42
0.0000000110181959
 43
0.0000000001
 40
0.0
 40
0.0
 40
0.0
 40
0.0
 40
0.0133065317833168
 40
0.0133065317833168
 40
0.5066532658916594
 40
0.5066532658916594
 40
0.7533266329458298
 40
0.7533266329458298
 40
1.0
 40
1.0
 40
1.0
 40
1.0
 10
199.2323445624532
 20
350.6809905141945
 30
0.0
 10
199.2323408704375
 20
350.6809958545682
 30
0.0
 10
199.2321797907916
 20
350.6811928615735
 30
0.0
 10
199.2197974908256
 20
350.6963247060087
 30
0.0
 10
199.0238216747106
 20
350.9335229731162
 30
0.0
 10
198.8502382471217
 20
351.1071400638428
 30
0.0
 10
198.8157028244459
 20
351.1308314053269
 30
0.0
 10
198.8421493897783
 20
351.0474614313417
 30
0.0
 10
198.8900664263981
 20
350.9586415429675
 30
0.0
 10
198.9379379969247
 20
350.8659553280126
 30
0.0
  0
LINE
  5
1F1
330
17C
100
AcDbEntity
  8
DV2_Standard
  6
Continuous
 62
     7
100
AcDbLine
 10
198.9379379969
 20
350.865955328
 30
0.0
 11
198.8611261338
 21
350.801502522
 31
0.0
  0
SPLINE
  5
1F2
330
17C
100
AcDbEntity
  8
DV2_Standard
  6
Continuous
 62
     7
100
AcDbSpline
210
0.0
220
0.0
230
1.0
 70
     8
 71
     3
 72
    10
 73
     6
 74
     0
 42
0.0000000367886061
 43
0.0000000001
 40
0.0
 40
0.0
 40
0.0
 40
0.0
 40
0.8043572969102687
 40
0.8043572969102687
 40
1.0
 40
1.0
 40
1.0
 40
1.0
 10
198.8611261337551
 20
350.801502521957
 30
0.0
 10
198.811556306063
 20
350.8975613545352
 30
0.0
 10
198.762286805174
 20
350.9888901610508
 30
0.0
 10
198.7483742632771
 20
351.0380101173557
 30
0.0
 10
198.7487431470137
 20
351.0434174804686
 30
0.0
 10
198.7517319259765
 20
351.0452105054634
 30
0.0
  0
LINE
  5
1F3
330
17C
100
AcDbEntity
  8
DV2_Standard
  6
Continuous
 62
     7
100
AcDbLine
 10
199.3747127955
 20
350.4949723766
 30
0.0
 11
199.2980241279
 21
350.4306229439
 31
0.0
  0
ARC
  5
1F4
330
17C
100
AcDbEntity
  8
DV2_Standard
  6
Continuous
 62
     7
100
AcDbCircle
 10
203.9268298309
 20
356.2081113521
 30
0.0
 40
7.31125746221938
100
AcDbArc
 50
222.5926194317
 51
224.0171087194
  0
SPLINE
  5
1F5
330
17C
100
AcDbEntity
  8
DV2_Standard
  6
Continuous
 62
     7
100
AcDbSpline
210
0.0
220
0.0
230
1.0
 70
     8
 71
     3
 72
     8
 73
     4
 74
     0
 42
0.0000000603753582
 43
0.0000000001
 40
0.0
 40
0.0
 40
0.0
 40
0.0
 40
0.9999999999999999
 40
0.9999999999999999
 40
0.9999999999999999
 40
0.9999999999999999
 10
198.5221927704323
 20
351.4292588700876
 30
0.0
 10
198.4822334271282
 20
351.5051669458183
 30
0.0
 10
198.4523826845705
 20
351.5656267205443
 30
0.0
 10
198.4618448917591
 20
351.5736713955857
 30
0.0
  0
SPLINE
  5
1F6
330
17C
100
AcDbEntity
  8
DV2_Standard
  6
Continuous
 62
     7
100
AcDbSpline
210
0.0
220
0.0
230
1.0
 70
     8
 71
     3
 72
    14
 73
    10
 74
     0
 42
0.0000000176988585
 43
0.0000000001
 40
0.0
 40
0.0
 40
0.0
 40
0.0
 40
0.051010958534743
 40
0.051010958534743
 40
0.2408087668277945
 40
0.2408087668277945
 40
0.6204043834138973
 40
0.6204043834138973
 40
1.0
 40
1.0
 40
1.0
 40
1.0
 10
198.4882193925683
 20
351.5619293484059
 30
0.0
 10
198.4930271777602
 20
351.5582749406247
 30
0.0
 10
198.4983557868989
 20
351.5539001724961
 30
0.0
 10
198.5255964156113
 20
351.5302851890989
 30
0.0
 10
198.5529233676218
 20
351.5033129386957
 30
0.0
 10
198.6421953544829
 20
351.4104550426405
 30
0.0
 10
198.7115409755963
 20
351.3324644435529
 30
0.0
 10
198.8245309730835
 20
351.2022748436158
 30
0.0
 10
198.8690636316331
 20
351.1489791387924
 30
0.0
 10
198.870666858603
 20
351.146907438394
 30
0.0
  0
SPLINE
  5
1F7
330
17C
100
AcDbEntity
  8
DV2_Standard
  6
Continuous
 62
     7
100
AcDbSpline
210
0.0
220
0.0
230
1.0
 70
     8
 71
     3
 72
    10
 73
     6
 74
     0
 42
0.0000000283299655
 43
0.0000000001
 40
0.0
 40
0.0
 40
0.0
 40
0.0
 40
0.5893266215443964
 40
0.5893266215443964
 40
1.0
 40
1.0
 40
1.0
 40
1.0
 10
198.7940203088268
 20
351.0825933467457
 30
0.0
 10
198.7923734159012
 20
351.0847217622844
 30
0.0
 10
198.7474844689006
 20
351.1384301884943
 30
0.0
 10
198.6516848713466
 20
351.2487928175465
 30
0.0
 10
198.6060518241463
 20
351.3004291234203
 30
0.0
 10
198.5619032179695
 20
351.3484648321522
 30
0.0
  0
SPLINE
  5
1F8
330
17C
100
AcDbEntity
  8
DV2_Standard
  6
Continuous
 62
     7
100
AcDbSpline
210
0.0
220
0.0
230
1.0
 70
     8
 71
     3
 72
     8
 73
     4
 74
     0
 42
0.0000000602383778
 43
0.0000000001
 40
0.0
 40
0.0
 40
0.0
 40
0.0
 40
0.9999999999999999
 40
0.9999999999999999
 40
0.9999999999999999
 40
0.9999999999999999
 10
198.385180457287
 20
351.5093428774533
 30
0.0
 10
198.3754294903013
 20
351.501294594761
 30
0.0
 10
198.4054200798739
 20
351.4409341044968
 30
0.0
 10
198.4454368411708
 20
351.3648529981536
 30
0.0
  0
LINE
  5
1F9
330
17C
100
AcDbEntity
  8
DV2_Standard
  6
Continuous
 62
     7
100
AcDbLine
 10
198.6690681374
 20
351.1277149449
 30
0.0
 11
198.592207836
 21
351.0632214943
 31
0.0
  0
ELLIPSE
  5
1FA
330
17C
100
AcDbEntity
  8
DV2_Standard
  6
Continuous
 62
     7
100
AcDbEllipse
 10
151.8831846411
 20
313.6966865252
 30
0.0
 11
46.03769753600639
 21
38.63021507058924
 31
0.0
210
0.0
220
0.0
230
1.0
 40
0.2873576113
 41
-0.0811305001148428
 42
-0.0622390145091485
  0
ELLIPSE
  5
1FB
330
17C
100
AcDbEntity
  8
DV2_Standard
  6
Continuous
 62
     7
100
AcDbEllipse
 10
151.883181358
 20
313.6966838835
 30
0.0
 11
45.96109375917021
 21
38.56593674667094
 31
0.0
210
0.0
220
0.0
230
1.0
 40
0.2873576013
 41
-0.0812660217972541
 42
-0.0623428851619616
  0
SPLINE
  5
1FC
330
17C
100
AcDbEntity
  8
DV2_Standard
  6
Continuous
 62
     7
100
AcDbSpline
210
0.0
220
0.0
230
1.0
 70
     8
 71
     3
 72
    12
 73
     8
 74
     0
 42
0.0000000082759496
 43
0.0000000001
 40
0.0
 40
0.0
 40
0.0
 40
0.0
 40
0.4977454430165503
 40
0.4977454430165503
 40
0.748872721508275
 40
0.748872721508275
 40
1.0
 40
1.0
 40
1.0
 40
1.0
 10
198.7258740923606
 20
351.3308143366513
 30
0.0
 10
198.7262673955223
 20
351.3304010050153
 30
0.0
 10
198.4246724978551
 20
351.6865980228305
 30
0.0
 10
198.2906143920349
 20
351.7791856183566
 30
0.0
 10
198.3314624159691
 20
351.6957195429437
 30
0.0
 10
198.4429237486456
 20
351.4818892794366
 30
0.0
 10
198.4953278883019
 20
351.3722805401256
 30
0.0
 10
198.5443970717969
 20
351.2599901659467
 30
0.0
  0
LINE
  5
1FD
330
17C
100
AcDbEntity
  8
DV2_Standard
  6
Continuous
 62
     7
100
AcDbLine
 10
198.5443970718
 20
351.2599901659
 30
0.0
 11
198.4675232998
 21
351.1954854122
 31
0.0
  0
SPLINE
  5
1FE
330
17C
100
AcDbEntity
  8
DV2_Standard
  6
Continuous
 62
     7
100
AcDbSpline
210
0.0
220
0.0
230
1.0
 70
     8
 71
     3
 72
    12
 73
     8
 74
     0
 42
0.0000000119218877
 43
0.0000000001
 40
0.0
 40
0.0
 40
0.0
 40
0.0
 40
0.3722611109590195
 40
0.3722611109590195
 40
0.7445222219180387
 40
0.7445222219180387
 40
0.9999999999999999
 40
0.9999999999999999
 40
0.9999999999999999
 40
0.9999999999999999
 10
198.4675232997981
 20
351.1954854122154
 30
0.0
 10
198.4186361473834
 20
351.3074979254644
 30
0.0
 10
198.3664289288894
 20
351.4168358029185
 30
0.0
 10
198.2553809975689
 20
351.63015828555
 30
0.0
 10
198.2134469097088
 20
351.7142882845836
 30
0.0
 10
198.2876666290694
 20
351.6645165177054
 30
0.0
 10
198.3451921479758
 20
351.6068811107938
 30
0.0
 10
198.4066756997621
 20
351.5409877193233
 30
0.0
  0
LINE
  5
1FF
330
17C
100
AcDbEntity
  8
DV2_Standard
  6
Continuous
 62
     7
100
AcDbLine
 10
198.8706668586
 20
351.1469074384
 30
0.0
 11
198.8279475787
 21
351.1110617064
 31
0.0
  0
LINE
  5
200
330
17C
100
AcDbEntity
  8
DV2_Standard
  6
Continuous
 62
     7
100
AcDbLine
 10
197.9892105165
 20
351.8330734261
 30
0.0
 11
197.9122634816
 21
351.7685071975
 31
0.0
  0
SPLINE
  5
201
330
17C
100
AcDbEntity
  8
DV2_Standard
  6
Continuous
 62
     7
100
AcDbSpline
210
0.0
220
0.0
230
1.0
 70
     8
 71
     3
 72
    12
 73
     8
 74
     0
 42
0.0000000107379128
 43
0.0000000001
 40
0.0
 40
0.0
 40
0.0
 40
0.0
 40
0.3635586737042846
 40
0.3635586737042846
 40
0.7428548147355154
 40
0.7428548147355154
 40
0.9999999999999999
 40
0.9999999999999999
 40
0.9999999999999999
 40
0.9999999999999999
 10
197.8994057858534
 20
352.1673614452431
 30
0.0
 10
197.7978872349801
 20
352.2740837658613
 30
0.0
 10
197.7043823483034
 20
352.363074791201
 30
0.0
 10
197.728377021182
 20
352.2656044689987
 30
0.0
 10
197.8255619155775
 20
352.1068828314063
 30
0.0
 10
197.941432790285
 20
351.8813790425427
 30
0.0
 10
197.9722798542197
 20
351.8041827266247
 30
0.0
 10
197.9605824530796
 20
351.7746687802716
 30
0.0
  0
SPLINE
  5
202
330
17C
100
AcDbEntity
  8
DV2_Standard
  6
Continuous
 62
     7
100
AcDbSpline
210
0.0
220
0.0
230
1.0
 70
     8
 71
     3
 72
     8
 73
     4
 74
     0
 42
0.0000001970395833
 43
0.0000000001
 40
0.0
 40
0.0
 40
0.0
 40
0.0
 40
1.0
 40
1.0
 40
1.0
 40
1.0
 10
197.9571088581261
 20
351.768711469057
 30
0.0
 10
197.9497816332722
 20
351.7599694961036
 30
0.0
 10
197.9353915717503
 20
351.7591919021881
 30
0.0
 10
197.9122634815672
 20
351.7685071974938
 30
0.0
  0
SPLINE
  5
203
330
17C
100
AcDbEntity
  8
DV2_Standard
  6
Continuous
 62
     7
100
AcDbSpline
210
0.0
220
0.0
230
1.0
 70
     8
 71
     3
 72
     8
 73
     4
 74
     0
 42
0.0000004184553645
 43
0.0000000001
 40
0.0
 40
0.0
 40
0.0
 40
0.0
 40
1.0
 40
1.0
 40
1.0
 40
1.0
 10
198.0868160084568
 20
351.5796336744739
 30
0.0
 10
198.0968921136289
 20
351.5778724641328
 30
0.0
 10
198.1039801896762
 20
351.5795052229204
 30
0.0
 10
198.1084901460015
 20
351.5840389074497
 30
0.0
  0
SPLINE
  5
204
330
17C
100
AcDbEntity
  8
DV2_Standard
  6
Continuous
 62
     7
100
AcDbSpline
210
0.0
220
0.0
230
1.0
 70
     8
 71
     3
 72
     8
 73
     4
 74
     0
 42
0.0000000681105777
 43
0.0000000001
 40
0.0
 40
0.0
 40
0.0
 40
0.0
 40
1.0
 40
1.0
 40
1.0
 40
1.0
 10
198.113271658607
 20
351.6195424517362
 30
0.0
 10
198.1078231420767
 20
351.6517858864998
 30
0.0
 10
198.0874372567507
 20
351.700498508255
 30
0.0
 10
198.0605094714059
 20
351.755582157919
 30
0.0
  0
SPLINE
  5
205
330
17C
100
AcDbEntity
  8
DV2_Standard
  6
Continuous
 62
     7
100
AcDbSpline
210
0.0
220
0.0
230
1.0
 70
     8
 71
     3
 72
     8
 73
     4
 74
     0
 42
0.0000000448830155
 43
0.0000000001
 40
0.0
 40
0.0
 40
0.0
 40
0.0
 40
1.0
 40
1.0
 40
1.0
 40
1.0
 10
198.1339075484686
 20
351.8942887611344
 30
0.0
 10
198.2122092246991
 20
351.8077794540104
 30
0.0
 10
198.2792772720484
 20
351.7298864538022
 30
0.0
 10
198.2813508918245
 20
351.7272812603243
 30
0.0
  0
LINE
  5
206
330
17C
100
AcDbEntity
  8
DV2_Standard
  6
Continuous
 62
     7
100
AcDbLine
 10
198.1637472163
 20
351.6441866226
 30
0.0
 11
198.0868160085
 21
351.5796336745
 31
0.0
  0
LINE
  5
207
330
17C
100
AcDbEntity
  8
DV2_Standard
  6
Continuous
 62
     7
100
AcDbLine
 10
198.3579698005
 20
351.7915721583
 30
0.0
 11
198.3290099669
 21
351.7672719727
 31
0.0
  0
SPLINE
  5
208
330
17C
100
AcDbEntity
  8
DV2_Standard
  6
Continuous
 62
     7
100
AcDbSpline
210
0.0
220
0.0
230
1.0
 70
     8
 71
     3
 72
    10
 73
     6
 74
     0
 42
0.0000000164862883
 43
0.0000000001
 40
0.0
 40
0.0
 40
0.0
 40
0.0
 40
0.5224155448179337
 40
0.5224155448179337
 40
0.9999999999999999
 40
0.9999999999999999
 40
0.9999999999999999
 40
0.9999999999999999
 10
198.3579698004786
 20
351.7915721583173
 30
0.0
 10
198.3554119203352
 20
351.7947854688402
 30
0.0
 10
198.2501962545161
 20
351.9169992962657
 30
0.0
 10
198.0549060755594
 20
352.1267885793623
 30
0.0
 10
197.9581425460413
 20
352.2230716293895
 30
0.0
 10
197.9432110640082
 20
352.2128956963984
 30
0.0
  0
SPLINE
  5
209
330
17C
100
AcDbEntity
  8
DV2_Standard
  6
Continuous
 62
     7
100
AcDbSpline
210
0.0
220
0.0
230
1.0
 70
     8
 71
     3
 72
     8
 73
     4
 74
     0
 42
0.0000000298918403
 43
0.0000000001
 40
0.0
 40
0.0
 40
0.0
 40
0.0
 40
1.0
 40
1.0
 40
1.0
 40
1.0
 10
198.1081169587701
 20
351.8786188753901
 30
0.0
 10
198.1758825681348
 20
351.748825186278
 30
0.0
 10
198.2253277120622
 20
351.6333704089302
 30
0.0
 10
198.1637472162886
 20
351.6441866225916
 30
0.0
  0
ARC
  5
20A
330
17C
100
AcDbEntity
  8
DV2_Standard
  6
Continuous
 62
     7
100
AcDbCircle
 10
206.6745020825
 20
359.6834444266
 30
0.0
 40
11.70737436110371
100
AcDbArc
 50
222.1094697044
 51
223.3681289504
  0
SPLINE
  5
20B
330
17C
100
AcDbEntity
  8
DV2_Standard
  6
Continuous
 62
     7
100
AcDbSpline
210
0.0
220
0.0
230
1.0
 70
     8
 71
     3
 72
     8
 73
     4
 74
     0
 42
0.0000001972431766
 43
0.0000000001
 40
0.0
 40
0.0
 40
0.0
 40
0.0
 40
1.0
 40
1.0
 40
1.0
 40
1.0
 10
197.9892105164821
 20
351.833073426111
 30
0.0
 10
198.0122830626811
 20
351.8237618022042
 30
0.0
 10
198.0266833011395
 20
351.8244911341987
 30
0.0
 10
198.0340192901559
 20
351.8332164302963
 30
0.0
  0
SPLINE
  5
20C
330
17C
100
AcDbEntity
  8
DV2_Standard
  6
Continuous
 62
     7
100
AcDbSpline
210
0.0
220
0.0
230
1.0
 70
     8
 71
     3
 72
    14
 73
    10
 74
     0
 42
0.0000000072063324
 43
0.0000000001
 40
0.0
 40
0.0
 40
0.0
 40
0.0
 40
0.1868371271774341
 40
0.1868371271774341
 40
0.4572163985308973
 40
0.4572163985308973
 40
0.9979749412378242
 40
0.9979749412378242
 40
1.0
 40
1.0
 40
1.0
 40
1.0
 10
198.0365316880103
 20
351.8370318731043
 30
0.0
 10
198.0504899871599
 20
351.8642716179704
 30
0.0
 10
198.0206423370947
 20
351.9409076274982
 30
0.0
 10
197.9039765332147
 20
352.1684771036767
 30
0.0
 10
197.8061658894983
 20
352.3281105564786
 30
0.0
 10
197.766667494493
 20
352.4807478586371
 30
0.0
 10
198.2070616760562
 20
351.9777189009955
 30
0.0
 10
198.2107036337872
 20
351.9734363968666
 30
0.0
 10
198.2107109364318
 20
351.9734276042421
 30
0.0
 10
198.2107120020956
 20
351.9734259378056
 30
0.0
  0
SPLINE
  5
20D
330
17C
100
AcDbEntity
  8
DV2_Standard
  6
Continuous
 62
     7
100
AcDbSpline
210
0.0
220
0.0
230
1.0
 70
     8
 71
     3
 72
     8
 73
     4
 74
     0
 42
0.000000080271486
 43
0.0000000001
 40
0.0
 40
0.0
 40
0.0
 40
0.0
 40
1.0
 40
1.0
 40
1.0
 40
1.0
 10
197.1460416158136
 20
352.9940561117879
 30
0.0
 10
197.1841133854289
 20
352.932858807064
 30
0.0
 10
197.1986372718638
 20
352.8964338301898
 30
0.0
 10
197.1884074447293
 20
352.8879499236375
 30
0.0
  0
LINE
  5
20E
330
17C
100
AcDbEntity
  8
DV2_Standard
  6
Continuous
 62
     7
100
AcDbLine
 10
196.7722353924
 20
353.4867007734
 30
0.0
 11
196.7423640714
 21
353.461635759
 31
0.0
  0
ARC
  5
20F
330
17C
100
AcDbEntity
  8
DV2_Standard
  6
Continuous
 62
     7
100
AcDbCircle
 10
151.5773876805
 20
314.0611186127
 30
0.0
 40
59.97458452057509
100
AcDbArc
 50
40.2764338846
 51
40.5056533848
  0
SPLINE
  5
210
330
17C
100
AcDbEntity
  8
DV2_Standard
  6
Continuous
 62
     7
100
AcDbSpline
210
0.0
220
0.0
230
1.0
 70
     8
 71
     3
 72
     8
 73
     4
 74
     0
 42
0.0000000351812784
 43
0.0000000001
 40
0.0
 40
0.0
 40
0.0
 40
0.0
 40
1.0
 40
1.0
 40
1.0
 40
1.0
 10
197.4410854387185
 20
352.5944100704526
 30
0.0
 10
197.4624970782262
 20
352.6123765692664
 30
0.0
 10
197.4255854386683
 20
352.6949191598521
 30
0.0
 10
197.3340549730823
 20
352.8332501853749
 30
0.0
  0
SPLINE
  5
211
330
17C
100
AcDbEntity
  8
DV2_Standard
  6
Continuous
 62
     7
100
AcDbSpline
210
0.0
220
0.0
230
1.0
 70
     8
 71
     3
 72
    14
 73
    10
 74
     0
 42
0.0000000043462178
 43
0.0000000001
 40
0.0
 40
0.0
 40
0.0
 40
0.0
 40
0.2412931530080653
 40
0.2412931530080653
 40
0.4941954353387102
 40
0.4941954353387102
 40
0.7470977176693552
 40
0.7470977176693552
 40
1.0
 40
1.0
 40
1.0
 40
1.0
 10
195.9737955056758
 20
354.2709771203757
 30
0.0
 10
195.9547637737056
 20
354.2555937683698
 30
0.0
 10
195.9819890797046
 20
354.1841451651026
 30
0.0
 10
196.2215559032589
 20
353.8531756416508
 30
0.0
 10
196.4239342441188
 20
353.6074035226957
 30
0.0
 10
196.8354238917107
 20
353.1354749416232
 30
0.0
 10
197.0524499946381
 20
352.900288247597
 30
0.0
 10
197.3607803793707
 20
352.6050915904701
 30
0.0
 10
197.4266918704708
 20
352.5723298612195
 30
0.0
 10
197.4410854387185
 20
352.5944100704526
 30
0.0
  0
ARC
  5
212
330
17C
100
AcDbEntity
  8
DV2_Standard
  6
Continuous
 62
     7
100
AcDbCircle
 10
201.0412217749
 20
357.2162093527
 30
0.0
 40
5.957249596582492
100
AcDbArc
 50
210.3293742895
 51
231.8793298769
  0
SPLINE
  5
213
330
17C
100
AcDbEntity
  8
DV2_Standard
  6
Continuous
 62
     7
100
AcDbSpline
210
0.0
220
0.0
230
1.0
 70
     8
 71
     3
 72
     8
 73
     4
 74
     0
 42
0.0000000412487168
 43
0.0000000001
 40
0.0
 40
0.0
 40
0.0
 40
0.0
 40
1.0
 40
1.0
 40
1.0
 40
1.0
 10
196.1695519704686
 20
354.1601973083995
 30
0.0
 10
196.0627480683821
 20
354.2507884575222
 30
0.0
 10
195.9966362460444
 20
354.2894071566502
 30
0.0
 10
195.9768588587465
 20
354.2728119582629
 30
0.0
  0
SPLINE
  5
214
330
17C
100
AcDbEntity
  8
DV2_Standard
  6
Continuous
 62
     7
100
AcDbSpline
210
0.0
220
0.0
230
1.0
 70
     8
 71
     3
 72
     8
 73
     4
 74
     0
 42
0.0000000669882403
 43
0.0000000001
 40
0.0
 40
0.0
 40
0.0
 40
0.0
 40
1.0
 40
1.0
 40
1.0
 40
1.0
 10
195.9740962966167
 20
354.1859538583876
 30
0.0
 10
196.0049683740407
 20
354.1666112623443
 30
0.0
 10
196.0448010081354
 20
354.1363765401533
 30
0.0
 10
196.0927359880334
 20
354.0957410458696
 30
0.0
  0
ARC
  5
215
330
17C
100
AcDbEntity
  8
DV2_Standard
  6
Continuous
 62
     7
100
AcDbCircle
 10
151.5773876805
 20
314.0611186127
 30
0.0
 40
59.96996938726931
100
AcDbArc
 50
41.5677278136
 51
41.9631603391
  0
SPLINE
  5
216
330
17C
100
AcDbEntity
  8
DV2_Standard
  6
Continuous
 62
     7
100
AcDbSpline
210
0.0
220
0.0
230
1.0
 70
     8
 71
     3
 72
     8
 73
     4
 74
     0
 42
0.000000038032084
 43
0.0000000001
 40
0.0
 40
0.0
 40
0.0
 40
0.0
 40
1.0
 40
1.0
 40
1.0
 40
1.0
 10
196.243909519723
 20
353.9913433938517
 30
0.0
 10
196.2608829418332
 20
354.0055636836374
 30
0.0
 10
196.3314009493407
 20
353.9566095299645
 30
0.0
 10
196.4452355520629
 20
353.8514874936455
 30
0.0
  0
LINE
  5
217
330
17C
100
AcDbEntity
  8
DV2_Standard
  6
Continuous
 62
     7
100
AcDbLine
 10
196.4452355521
 20
353.8514874936
 30
0.0
 11
196.368435936
 21
353.7870449641
 31
0.0
  0
SPLINE
  5
218
330
17C
100
AcDbEntity
  8
DV2_Standard
  6
Continuous
 62
     7
100
AcDbSpline
210
0.0
220
0.0
230
1.0
 70
     8
 71
     3
 72
    16
 73
    12
 74
     0
 42
0.0000000134787042
 43
0.0000000001
 40
0.0
 40
0.0
 40
0.0
 40
0.0
 40
0.2500000000000048
 40
0.2500000000000048
 40
0.3750000000000068
 40
0.3750000000000068
 40
0.5000000000000088
 40
0.5000000000000088
 40
0.7500000000000044
 40
0.7500000000000044
 40
1.0
 40
1.0
 40
1.0
 40
1.0
 10
196.6749672287226
 20
353.4050830931219
 30
0.0
 10
196.609314073814
 20
353.4803565604274
 30
0.0
 10
196.5444142153675
 20
353.5563061327604
 30
0.0
 10
196.4564561050948
 20
353.6635835176936
 30
0.0
 10
196.4285971690016
 20
353.6984105599847
 30
0.0
 10
196.3759919410085
 20
353.7650445810016
 30
0.0
 10
196.3506507883988
 20
353.7975866778474
 30
0.0
 10
196.2885336572108
 20
353.881540871535
 30
0.0
 10
196.2640581222627
 20
353.9209400489216
 30
0.0
 10
196.2373953565845
 20
353.9747645223104
 30
0.0
 10
196.2362499160104
 20
353.9882192853832
 30
0.0
 10
196.243909519723
 20
353.9913433938517
 30
0.0
  0
SPLINE
  5
219
330
17C
100
AcDbEntity
  8
DV2_Standard
  6
Continuous
 62
     7
100
AcDbSpline
210
0.0
220
0.0
230
1.0
 70
     8
 71
     3
 72
    14
 73
    10
 74
     0
 42
0.0000000134947657
 43
0.0000000001
 40
0.0
 40
0.0
 40
0.0
 40
0.0
 40
0.25
 40
0.25
 40
0.5
 40
0.5
 40
0.75
 40
0.75
 40
1.0
 40
1.0
 40
1.0
 40
1.0
 10
197.1884074447293
 20
352.8879499236375
 30
0.0
 10
197.184741645309
 20
352.8810503901063
 30
0.0
 10
197.1686321523706
 20
352.8883511747292
 30
0.0
 10
197.1083927579826
 20
352.9375215362209
 30
0.0
 10
197.0649413772858
 20
352.9788343192037
 30
0.0
 10
196.9620699613956
 20
353.0859301691701
 30
0.0
 10
196.9058322400453
 20
353.1463197634432
 30
0.0
 10
196.7917286586818
 20
353.2721031523856
 30
0.0
 10
196.7328367628404
 20
353.3387642728665
 30
0.0
 10
196.6749672287226
 20
353.4050830931219
 30
0.0
  0
LINE
  5
21A
330
17C
100
AcDbEntity
  8
DV2_Standard
  6
Continuous
 62
     7
100
AcDbLine
 10
196.7423640714
 20
353.461635759
 30
0.0
 11
196.6749672287
 21
353.4050830931
 31
0.0
  0
ARC
  5
21B
330
17C
100
AcDbEntity
  8
DV2_Standard
  6
Continuous
 62
     7
100
AcDbCircle
 10
151.5773876805
 20
314.0611186127
 30
0.0
 40
59.93559746750634
100
AcDbArc
 50
40.5099080697
 51
41.1004300872
  0
LINE
  5
21C
330
17C
100
AcDbEntity
  8
DV2_Standard
  6
Continuous
 62
     7
100
AcDbLine
 10
197.1460416158
 20
352.9940561118
 30
0.0
 11
197.0692236477
 21
352.9295981831
 31
0.0
  0
LINE
  5
21D
330
17C
100
AcDbEntity
  8
DV2_Standard
  6
Continuous
 62
     7
100
AcDbLine
 10
197.5266383717
 20
352.7468157294
 30
0.0
 11
197.5414471324
 21
352.759241755
 31
0.0
  0
LINE
  5
21E
330
17C
100
AcDbEntity
  8
DV2_Standard
  6
Continuous
 62
     7
100
AcDbLine
 10
197.5266383717
 20
352.7468157294
 30
0.0
 11
197.5003642567
 21
352.7247691292
 31
0.0
  0
LINE
  5
21F
330
17C
100
AcDbEntity
  8
DV2_Standard
  6
Continuous
 62
     7
100
AcDbLine
 10
196.6301471755
 20
353.7788121696
 30
0.0
 11
196.6081421872
 21
353.760347792
 31
0.0
  0
LINE
  5
220
330
17C
100
AcDbEntity
  8
DV2_Standard
  6
Continuous
 62
     7
100
AcDbLine
 10
197.4779444419
 20
352.7059566709
 30
0.0
 11
197.5003642567
 21
352.7247691292
 31
0.0
  0
ARC
  5
221
330
17C
100
AcDbEntity
  8
DV2_Standard
  6
Continuous
 62
     7
100
AcDbCircle
 10
151.5773876805
 20
314.0611186127
 30
0.0
 40
60.00237178275995
100
AcDbArc
 50
40.0948726472
 51
42.1038759178
  0
LINE
  5
222
330
17C
100
AcDbEntity
  8
DV2_Standard
  6
Continuous
 62
     7
100
AcDbLine
 10
197.4779444419
 20
352.7059566709
 30
0.0
 11
197.4306954983
 21
352.6663100997
 31
0.0
  0
ARC
  5
223
330
17C
100
AcDbEntity
  8
DV2_Standard
  6
Continuous
 62
     7
100
AcDbCircle
 10
151.5773876805
 20
314.0611186127
 30
0.0
 40
59.90220880365388
100
AcDbArc
 50
41.1010435273
 51
41.5695016499
  0
LINE
  5
224
330
17C
100
AcDbEntity
  8
DV2_Standard
  6
Continuous
 62
     7
100
AcDbLine
 10
196.1329381885
 20
354.323171031
 30
0.0
 11
196.0949765729
 21
354.2913174534
 31
0.0
  0
SPLINE
  5
225
330
17C
100
AcDbEntity
  8
DV2_Standard
  6
Continuous
 62
     7
100
AcDbSpline
210
0.0
220
0.0
230
1.0
 70
     8
 71
     3
 72
    18
 73
    14
 74
     0
 42
0.0000000249138969
 43
0.0000000001
 40
0.0
 40
0.0
 40
0.0
 40
0.0
 40
0.0161389968703397
 40
0.0161389968703397
 40
0.180115830725282
 40
0.180115830725282
 40
0.3440926645802244
 40
0.3440926645802244
 40
0.5080694984351668
 40
0.5080694984351668
 40
0.6720463322901097
 40
0.6720463322901097
 40
1.0
 40
1.0
 40
1.0
 40
1.0
 10
196.4140201250063
 20
354.0465746761397
 30
0.0
 10
196.4111141402538
 20
354.0497543618829
 30
0.0
 10
196.4082214189358
 20
354.0529159410285
 30
0.0
 10
196.3760941352995
 20
354.0879882550807
 30
0.0
 10
196.3487388645703
 20
354.1174832501077
 30
0.0
 10
196.2957302124357
 20
354.1741839604931
 30
0.0
 10
196.2706923242439
 20
354.2006530165937
 30
0.0
 10
196.2290111803255
 20
354.2436006887475
 30
0.0
 10
196.211760698964
 20
354.2607425959693
 30
0.0
 10
196.1829536366959
 20
354.2884409857971
 30
0.0
 10
196.1712804738524
 20
354.2990963176718
 30
0.0
 10
196.1432484315613
 20
354.3228474866402
 30
0.0
 10
196.1343925851943
 20
354.3272836950784
 30
0.0
 10
196.1329381884547
 20
354.3231710310067
 30
0.0
  0
ARC
  5
226
330
17C
100
AcDbEntity
  8
DV2_Standard
  6
Continuous
 62
     7
100
AcDbCircle
 10
366.4770632983
 20
501.5264313415
 30
0.0
 40
225.0894645179829
100
AcDbArc
 50
220.8074837517
 51
220.8246167248
  0
SPLINE
  5
227
330
17C
100
AcDbEntity
  8
DV2_Standard
  6
Continuous
 62
     7
100
AcDbSpline
210
0.0
220
0.0
230
1.0
 70
     8
 71
     3
 72
     8
 73
     4
 74
     0
 42
0.0000001479515378
 43
0.0000000001
 40
0.0
 40
0.0
 40
0.0
 40
0.0
 40
1.0
 40
1.0
 40
1.0
 40
1.0
 10
196.0278336106795
 20
354.3619531229834
 30
0.0
 10
196.0278253098946
 20
354.3619608382836
 30
0.0
 10
196.0424845305573
 20
354.3449884596614
 30
0.0
 10
196.07200265118
 20
354.3108218298524
 30
0.0
  0
ARC
  5
228
330
17C
100
AcDbEntity
  8
DV2_Standard
  6
Continuous
 62
     7
100
AcDbCircle
 10
367.6506202391
 20
502.5263777002
 30
0.0
 40
226.6312177711529
100
AcDbArc
 50
221.362091444
 51
221.385252952
  0
ARC
  5
229
330
17C
100
AcDbEntity
  8
DV2_Standard
  6
Continuous
 62
     7
100
AcDbCircle
 10
367.6506202391
 20
502.5263777002
 30
0.0
 40
226.6312177711529
100
AcDbArc
 50
220.82195351
 51
220.932821228
  0
SPLINE
  5
22A
330
17C
100
AcDbEntity
  8
DV2_Standard
  6
Continuous
 62
     7
100
AcDbSpline
210
0.0
220
0.0
230
1.0
 70
     8
 71
     3
 72
    11
 73
     7
 74
     0
 42
0.0000001486564262
 43
0.0000000001
 40
0.0
 40
0.0
 40
0.0
 40
0.0
 40
0.2186630601675988
 40
0.2186630601675988
 40
0.2186630601675988
 40
0.9999999999999999
 40
0.9999999999999999
 40
0.9999999999999999
 40
0.9999999999999999
 10
197.4941930578433
 20
352.6805045985733
 30
0.0
 10
197.5006819523056
 20
352.6731376122299
 30
0.0
 10
197.5064599232191
 20
352.6665787476894
 30
0.0
 10
197.5115093108459
 20
352.6608472945634
 30
0.0
 10
197.5295248594832
 20
352.6403982262435
 30
0.0
 10
197.5386189878853
 20
352.6300798377479
 30
0.0
 10
197.538662790157
 20
352.630030953459
 30
0.0
  0
ARC
  5
22B
330
17C
100
AcDbEntity
  8
DV2_Standard
  6
Continuous
 62
     7
100
AcDbCircle
 10
308.5332173031
 20
451.4990192068
 30
0.0
 40
148.5292483198709
100
AcDbArc
 50
220.969174128
 51
220.9878431805
  0
ARC
  5
22C
330
17C
100
AcDbEntity
  8
DV2_Standard
  6
Continuous
 62
     7
100
AcDbCircle
 10
151.5773876805
 20
314.0611186127
 30
0.0
 40
60.00000000000001
100
AcDbArc
 50
27.4983693721
 51
29.4352385939
  0
ARC
  5
22D
330
17C
100
AcDbEntity
  8
DV2_Standard
  6
Continuous
 62
     7
100
AcDbCircle
 10
205.7068039478
 20
339.2423873367
 30
0.0
 40
0.2999999999999994
100
AcDbArc
 50
309.9962991004
 51
24.9692005927
  0
LINE
  5
22E
330
17C
100
AcDbEntity
  8
DV2_Standard
  6
Continuous
 62
     7
100
AcDbLine
 10
205.8282696649
 20
338.9526869883
 30
0.0
 11
205.8995337879
 21
339.0124846877
 31
0.0
  0
ARC
  5
22F
330
17C
100
AcDbEntity
  8
DV2_Standard
  6
Continuous
 62
     7
100
AcDbCircle
 10
151.5773876805
 20
314.0611186127
 30
0.0
 40
59.99999999999999
100
AcDbArc
 50
42.1788929937
 51
55.4196227967
  0
ARC
  5
230
330
17C
100
AcDbEntity
  8
DV2_Standard
  6
Continuous
 62
     7
100
AcDbCircle
 10
151.5773876805
 20
314.0611186127
 30
0.0
 40
60.0
100
AcDbArc
 50
39.635515655
 51
40.0150203206
  0
ARC
  5
231
330
17C
100
AcDbEntity
  8
DV2_Standard
  6
Continuous
 62
     7
100
AcDbCircle
 10
151.5773876805
 20
314.0611186127
 30
0.0
 40
60.0
100
AcDbArc
 50
29.4352385939
 51
37.3126249468
  0
ARC
  5
232
330
17C
100
AcDbEntity
  8
DV2_Standard
  6
Continuous
 62
     7
100
AcDbCircle
 10
151.5773876805
 20
314.0611186127
 30
0.0
 40
60.0
100
AcDbArc
 50
24.9482402831
 51
27.4983693721
  0
ARC
  5
233
330
17C
100
AcDbEntity
  8
DV2_Standard
  6
Continuous
 62
     7
100
AcDbCircle
 10
185.5175834417
 20
363.2963002585
 30
0.0
 40
0.2000000000000444
100
AcDbArc
 50
55.4196227967
 51
130.0
  0
LINE
  5
234
330
17C
100
AcDbEntity
  8
DV2_Standard
  6
Continuous
 62
     7
100
AcDbLine
 10
185.3890259198
 20
363.4495091471
 30
0.0
 11
185.2971005866
 21
363.3723746339
 31
0.0
  0
ARC
  5
235
330
17C
100
AcDbEntity
  8
DV2_Standard
  6
Continuous
 62
     7
100
AcDbCircle
 10
151.5773876805
 20
314.0611186127
 30
0.0
 40
60.1
100
AcDbArc
 50
37.3168561418
 51
37.5527456803
  0
LINE
  5
236
330
17C
100
AcDbEntity
  8
DV2_Standard
  6
Continuous
 62
     7
100
AcDbLine
 10
198.82680947
 20
351.1104552065
 30
0.0
 11
198.7501400002
 21
351.0461218827
 31
0.0
  0
LINE
  5
237
330
17C
100
AcDbEntity
  8
DV2_Standard
  6
Continuous
 62
     7
100
AcDbLine
 10
199.232377648
 20
350.6809483665
 30
0.0
 11
199.2324588699
 21
350.6810165198
 31
0.0
  0
ARC
  5
238
330
17C
100
AcDbEntity
  8
DV2_Standard
  6
Continuous
 62
     7
100
AcDbCircle
 10
151.5773876805
 20
314.0611186127
 30
0.0
 40
60.1
100
AcDbArc
 50
38.1028691623
 51
38.3396372677
  0
LINE
  5
239
330
17C
100
AcDbEntity
  8
DV2_Standard
  6
Continuous
 62
     7
100
AcDbLine
 10
198.3142276081
 20
351.7552279379
 30
0.0
 11
198.2377823214
 21
351.691082726
 31
0.0
  0
LINE
  5
23A
330
17C
100
AcDbEntity
  8
DV2_Standard
  6
Continuous
 62
     7
100
AcDbLine
 10
197.9604778624
 20
351.7634485911
 30
0.0
 11
197.9609095145
 21
351.7638107902
 31
0.0
  0
LINE
  5
23B
330
17C
100
AcDbEntity
  8
DV2_Standard
  6
Continuous
 62
     7
100
AcDbLine
 10
197.7931881868
 20
352.392901068
 30
0.0
 11
197.716324779
 21
352.3284050108
 31
0.0
  0
LINE
  5
23C
330
17C
100
AcDbEntity
  8
DV2_Standard
  6
Continuous
 62
     7
100
AcDbLine
 10
197.9609095145
 20
351.7638107902
 30
0.0
 11
198.0127488132
 21
351.8073091266
 31
0.0
  0
LINE
  5
23D
330
17C
100
AcDbEntity
  8
DV2_Standard
  6
Continuous
 62
     7
100
AcDbLine
 10
198.1091897309
 20
351.5827248559
 30
0.0
 11
198.1863058692
 21
351.6474329791
 31
0.0
  0
ARC
  5
23E
330
17C
100
AcDbEntity
  8
DV2_Standard
  6
Continuous
 62
     7
100
AcDbCircle
 10
151.5773876805
 20
314.0611186127
 30
0.0
 40
60.10000000000001
100
AcDbArc
 50
38.8880647118
 51
39.1211592336
  0
LINE
  5
23F
330
17C
100
AcDbEntity
  8
DV2_Standard
  6
Continuous
 62
     7
100
AcDbLine
 10
197.3617689718
 20
352.5271499844
 30
0.0
 11
197.4386314842
 21
352.5916452902
 31
0.0
  0
LINE
  5
240
330
17C
100
AcDbEntity
  8
DV2_Standard
  6
Continuous
 62
     7
100
AcDbLine
 10
195.9738590629
 20
354.2710005343
 30
0.0
 11
195.8968998797
 21
354.2064241121
 31
0.0
  0
LINE
  5
241
330
17C
100
AcDbEntity
  8
DV2_Standard
  6
Continuous
 62
     7
100
AcDbLine
 10
196.1335969874
 20
354.3241419957
 30
0.0
 11
196.0568926414
 21
354.2597794073
 31
0.0
  0
ARC
  5
242
330
17C
100
AcDbEntity
  8
DV2_Standard
  6
Continuous
 62
     7
100
AcDbCircle
 10
151.5773876805
 20
314.0611186127
 30
0.0
 40
60.1
100
AcDbArc
 50
41.7942527696
 51
42.1924789991
  0
LINE
  5
243
330
17C
100
AcDbEntity
  8
DV2_Standard
  6
Continuous
 62
     7
100
AcDbLine
 10
196.1045315347
 20
354.4262653637
 30
0.0
 11
196.0280664322
 21
354.3621035243
 31
0.0
  0
LINE
  5
244
330
17C
100
AcDbEntity
  8
DV2_Standard
  6
Continuous
 62
     7
100
AcDbLine
 10
197.538695334
 20
352.62999465
 30
0.0
 11
197.6152013513
 21
352.6941908209
 31
0.0
  0
LINE
  5
245
330
17C
100
AcDbEntity
  8
DV2_Standard
  6
Continuous
 62
     7
100
AcDbLine
 10
196.3844284098
 20
354.1154056862
 30
0.0
 11
196.3843849758
 21
354.1153692407
 31
0.0
  0
ENDBLK
  5
247
330
17C
100
AcDbEntity
  8
0
100
AcDbBlockEnd
  0
BLOCK
  5
310
330
248
100
AcDbEntity
  8
0
100
AcDbBlockBegin
  2
SE2
 70
     0
 10
0.0
 20
0.0
 30
0.0
  3
SE2
  1

  0
SPLINE
  5
24B
330
248
100
AcDbEntity
  8
DV3_Standard
  6
Continuous
 62
     7
100
AcDbSpline
210
0.0
220
0.0
230
1.0
 70
     8
 71
     3
 72
     8
 73
     4
 74
     0
 42
0.0000000105783879
 43
0.0000000001
 40
0.0
 40
0.0
 40
0.0
 40
0.0
 40
1.0
 40
1.0
 40
1.0
 40
1.0
 10
41.895602912569
 20
150.310311996865
 30
0.0
 10
41.86559701613531
 20
150.6219270419494
 30
0.0
 10
41.81177526992241
 20
150.9322995790464
 30
0.0
 10
41.73483867337356
 20
151.2400922965495
 30
0.0
  0
ARC
  5
24C
330
248
100
AcDbEntity
  8
DV3_Standard
  6
Continuous
 62
     7
100
AcDbCircle
 10
464.0414944678
 20
190.6569537122
 30
0.0
 40
431.8140618421423
100
AcDbArc
 50
184.2818067321
 51
188.0822912489
  0
SPLINE
  5
24D
330
248
100
AcDbEntity
  8
DV3_Standard
  6
Continuous
 62
     7
100
AcDbSpline
210
0.0
220
0.0
230
1.0
 70
     8
 71
     3
 72
    18
 73
    14
 74
     0
 42
0.0000000007752632
 43
0.0000000001
 40
0.0
 40
0.0
 40
0.0
 40
0.0
 40
0.0907625821653557
 40
0.0907625821653557
 40
0.1815251643307114
 40
0.1815251643307114
 40
0.2722877464960671
 40
0.2722877464960671
 40
0.3630503286614229
 40
0.3630503286614229
 40
0.7261006573228462
 40
0.7261006573228462
 40
1.0
 40
1.0
 40
1.0
 40
1.0
 10
36.51657277604961
 20
129.9459552268961
 30
0.0
 10
36.97734364106954
 20
130.034869429138
 30
0.0
 10
37.43721635076155
 20
130.124709415478
 30
0.0
 10
38.35520307012833
 20
130.3060554013603
 30
0.0
 10
38.82238031246055
 20
130.3918917219363
 30
0.0
 10
39.72364543366736
 20
130.3809628304081
 30
0.0
 10
40.16493091678971
 20
130.3105888702898
 30
0.0
 10
40.97044580118052
 20
130.0595967724022
 30
0.0
 10
41.32684373226818
 20
129.8626027965024
 30
0.0
 10
43.0232871037597
 20
128.818666956967
 30
0.0
 10
44.17931410174194
 20
127.871363573046
 30
0.0
 10
45.83828185771025
 20
126.0269376602302
 30
0.0
 10
46.41374012034171
 20
125.1958171305917
 30
0.0
 10
46.85043631223737
 20
124.3262947281329
 30
0.0
  0
SPLINE
  5
24E
330
248
100
AcDbEntity
  8
DV3_Standard
  6
Continuous
 62
     7
100
AcDbSpline
210
0.0
220
0.0
230
1.0
 70
     8
 71
     3
 72
    10
 73
     6
 74
     0
 42
0.0000000052611789
 43
0.0000000001
 40
0.0
 40
0.0
 40
0.0
 40
0.0
 40
0.496044374423138
 40
0.496044374423138
 40
1.0
 40
1.0
 40
1.0
 40
1.0
 10
46.85043631223737
 20
124.3262947281329
 30
0.0
 10
46.99257574091414
 20
124.0432755037824
 30
0.0
 10
47.12001436538022
 20
123.7561878880432
 30
0.0
 10
47.34722993799982
 20
123.1692033818954
 30
0.0
 10
47.44195609059938
 20
122.8701705264739
 30
0.0
 10
47.44723152363562
 20
122.5434116474613
 30
0.0
  0
SPLINE
  5
24F
330
248
100
AcDbEntity
  8
DV3_Standard
  6
Continuous
 62
     7
100
AcDbSpline
210
0.0
220
0.0
230
1.0
 70
     8
 71
     3
 72
    10
 73
     6
 74
     0
 42
0.0000000003509684
 43
0.0000000001
 40
0.0
 40
0.0
 40
0.0
 40
0.0
 40
0.5
 40
0.5
 40
1.0
 40
1.0
 40
1.0
 40
1.0
 10
35.45343129029204
 20
129.9999302224982
 30
0.0
 10
35.10370281030014
 20
134.6308176396374
 30
0.0
 10
34.78319351758496
 20
139.3076762428451
 30
0.0
 10
34.12174339241163
 20
148.7774083606517
 30
0.0
 10
33.78241429145864
 20
153.5698419436173
 30
0.0
 10
33.42261200443667
 20
158.4199722972415
 30
0.0
  0
SPLINE
  5
250
330
248
100
AcDbEntity
  8
DV3_Standard
  6
Continuous
 62
     7
100
AcDbSpline
210
0.0
220
0.0
230
1.0
 70
     8
 71
     3
 72
    10
 73
     6
 74
     0
 42
0.0000000003509684
 43
0.0000000001
 40
0.0
 40
0.0
 40
0.0
 40
0.0
 40
0.5
 40
0.5
 40
1.0
 40
1.0
 40
1.0
 40
1.0
 10
20.38246762666896
 20
158.4199722972406
 30
0.0
 10
20.02266543864438
 20
153.5698432780453
 30
0.0
 10
19.6833360127557
 20
148.7774051487579
 30
0.0
 10
19.02188589219704
 20
139.3076730513697
 30
0.0
 10
18.70137673906303
 20
134.6308165572142
 30
0.0
 10
18.35164834081674
 20
129.9999302224984
 30
0.0
  0
ARC
  5
251
330
248
100
AcDbEntity
  8
DV3_Standard
  6
Continuous
 62
     7
100
AcDbCircle
 10
26.9025398156
 20
103.3298233538
 30
0.0
 40
28.00736234275339
100
AcDbArc
 50
72.2232628159
 51
107.7767371841
  0
ARC
  5
252
330
248
100
AcDbEntity
  8
DV3_Standard
  6
Continuous
 62
     7
100
AcDbCircle
 10
-408.1678142703
 20
190.4328875046
 30
0.0
 40
429.7345112530407
100
AcDbArc
 50
351.9085097925
 51
355.7273922265
  0
SPLINE
  5
253
330
248
100
AcDbEntity
  8
DV3_Standard
  6
Continuous
 62
     7
100
AcDbSpline
210
0.0
220
0.0
230
1.0
 70
     8
 71
     3
 72
     8
 73
     4
 74
     0
 42
0.0000000105366916
 43
0.0000000001
 40
0.0
 40
0.0
 40
0.0
 40
0.0
 40
1.0
 40
1.0
 40
1.0
 40
1.0
 10
12.0724784561393
 20
151.2434278630469
 30
0.0
 10
11.99557524356434
 20
150.9336289986397
 30
0.0
 10
11.94114653998865
 20
150.622509357473
 30
0.0
 10
11.91059485797764
 20
150.3099806277538
 30
0.0
  0
SPLINE
  5
254
330
248
100
AcDbEntity
  8
DV3_Standard
  6
Continuous
 62
     7
100
AcDbSpline
210
0.0
220
0.0
230
1.0
 70
     8
 71
     3
 72
    10
 73
     6
 74
     0
 42
0.0000000057375452
 43
0.0000000001
 40
0.0
 40
0.0
 40
0.0
 40
0.0
 40
0.4030137484477171
 40
0.4030137484477171
 40
1.0
 40
1.0
 40
1.0
 40
1.0
 10
6.377368886929219
 20
122.7802631505817
 30
0.0
 10
6.410727657306808
 20
123.0114247331217
 30
0.0
 10
6.482765723339976
 20
123.2324068499311
 30
0.0
 10
6.69039422451561
 20
123.7715807210769
 30
0.0
 10
6.832622473757204
 20
124.088930905833
 30
0.0
 10
6.993012380696377
 20
124.401578306284
 30
0.0
  0
SPLINE
  5
255
330
248
100
AcDbEntity
  8
DV3_Standard
  6
Continuous
 62
     7
100
AcDbSpline
210
0.0
220
0.0
230
1.0
 70
     8
 71
     3
 72
    18
 73
    14
 74
     0
 42
0.0000000007804155
 43
0.0000000001
 40
0.0
 40
0.0
 40
0.0
 40
0.0
 40
0.266840245679443
 40
0.266840245679443
 40
0.6334201228397228
 40
0.6334201228397228
 40
0.7250650921297921
 40
0.7250650921297921
 40
0.8167100614198614
 40
0.8167100614198614
 40
0.9083550307099306
 40
0.9083550307099306
 40
1.0
 40
1.0
 40
1.0
 40
1.0
 10
6.993012380696377
 20
124.401578306284
 30
0.0
 10
7.422114449119145
 20
125.2380252422587
 30
0.0
 10
7.981210315118497
 20
126.0408115509281
 30
0.0
 10
9.61171985817303
 20
127.8586566653547
 30
0.0
 10
10.76226786468106
 20
128.8045665043516
 30
0.0
 10
12.46115864598335
 20
129.8525986859577
 30
0.0
 10
12.81342775269461
 20
130.050762174631
 30
0.0
 10
13.62233189753499
 20
130.3071594859996
 30
0.0
 10
14.06552683337573
 20
130.3796810180001
 30
0.0
 10
14.97638672570757
 20
130.3928778480091
 30
0.0
 10
15.4449701362425
 20
130.3070302058616
 30
0.0
 10
16.36535352705246
 20
130.1251997030039
 30
0.0
 10
16.82646229539466
 20
130.0351152119163
 30
0.0
 10
17.28850685505942
 20
129.9459552268982
 30
0.0
  0
LINE
  5
256
330
248
100
AcDbEntity
  8
DV3_Standard
  6
Continuous
 62
     7
100
AcDbLine
 10
20.3824676267
 20
158.4199722972
 30
0.0
 11
20.3724070769
 21
158.4168157661
 31
0.0
  0
ARC
  5
257
330
248
100
AcDbEntity
  8
DV3_Standard
  6
Continuous
 62
     7
100
AcDbCircle
 10
17.7185856246
 20
131.9720225976
 30
0.0
 40
2.071211418137988
100
AcDbArc
 50
258.0155625075
 51
287.7971850077
  0
LINE
  5
258
330
248
100
AcDbEntity
  8
DV3_Standard
  6
Continuous
 62
     7
100
AcDbLine
 10
33.4326725542
 20
158.4168157661
 30
0.0
 11
33.4226120044
 21
158.4199722972
 31
0.0
  0
ARC
  5
259
330
248
100
AcDbEntity
  8
DV3_Standard
  6
Continuous
 62
     7
100
AcDbCircle
 10
36.0864941417
 20
131.9720252596
 30
0.0
 40
2.071213994099217
100
AcDbArc
 50
252.2028339404
 51
281.9844185442
  0
ELLIPSE
  5
25A
330
248
100
AcDbEntity
  8
DV3_Standard
  6
Continuous
 62
     7
100
AcDbEllipse
 10
36.8185931363
 20
109.3965134246
 30
0.0
 11
-0.1143440885903717
 21
0.2773543390762467
 31
0.0
210
0.0
220
0.0
230
0.9999999999999999
 40
0.4130776528
 41
3.126754570784336
 42
3.151107904347481
  0
ELLIPSE
  5
25B
330
248
100
AcDbEntity
  8
DV3_Standard
  6
Continuous
 62
     7
100
AcDbEllipse
 10
16.9864868834
 20
109.3965132644
 30
0.0
 11
0.1143440830948389
 21
0.2773543413419066
 31
0.0
210
0.0
220
0.0
230
1.0
 40
0.413077636
 41
3.131361139959105
 42
3.157588066160945
  0
ELLIPSE
  5
25C
330
248
100
AcDbEntity
  8
DV3_Standard
  6
Continuous
 62
     7
100
AcDbEllipse
 10
8.1871711893
 20
119.6257728771
 30
0.0
 11
0.2341384586074663
 21
0.1875611425666834
 31
0.0
210
0.0
220
0.0
230
1.0
 40
0.5039010172
 41
3.037693174330315
 42
3.139400967007266
  0
ELLIPSE
  5
25D
330
248
100
AcDbEntity
  8
DV3_Standard
  6
Continuous
 62
     7
100
AcDbEllipse
 10
20.5017253632
 20
158.2272572424
 30
0.0
 11
0.08830699439930315
 21
-0.2867086931716209
 31
0.0
210
0.0
220
0.0
230
1.0
 40
0.331023354
 41
3.087003676297309
 42
3.892964355490612
  0
ELLIPSE
  5
25E
330
248
100
AcDbEntity
  8
DV3_Standard
  6
Continuous
 62
     7
100
AcDbEllipse
 10
20.5132917095
 20
158.2308453034
 30
0.0
 11
0.08946546268042907
 21
-0.2863493163731551
 31
0.0
210
0.0
220
0.0
230
1.0
 40
0.3348817342
 41
3.127520264018375
 42
3.891452061844739
  0
ELLIPSE
  5
25F
330
248
100
AcDbEntity
  8
DV3_Standard
  6
Continuous
 62
     7
100
AcDbEllipse
 10
33.2917879216
 20
158.2308453034
 30
0.0
 11
-0.08946546268046897
 21
-0.2863493163731828
 31
0.0
210
0.0
220
0.0
230
1.0
 40
0.3348817342
 41
2.391733245334667
 42
3.158981867492107
  0
ELLIPSE
  5
260
330
248
100
AcDbEntity
  8
DV3_Standard
  6
Continuous
 62
     7
100
AcDbEllipse
 10
33.3033542679
 20
158.2272572424
 30
0.0
 11
-0.08830699439924415
 21
-0.2867086931716417
 31
0.0
210
0.0
220
0.0
230
1.0
 40
0.331023354
 41
2.390220951688789
 42
3.196181072309582
  0
ARC
  5
261
330
248
100
AcDbEntity
  8
DV3_Standard
  6
Continuous
 62
     7
100
AcDbCircle
 10
163.5463273268
 20
160.6060512538
 30
0.0
 40
122.0855471440818
100
AcDbArc
 50
184.83736323
 51
197.8614072405
  0
ARC
  5
262
330
248
100
AcDbEntity
  8
DV3_Standard
  6
Continuous
 62
     7
100
AcDbCircle
 10
-109.4880614608
 20
160.5563102049
 30
0.0
 40
121.8291757119836
100
AcDbArc
 50
342.123918452
 51
355.1757858054
  0
SPLINE
  5
263
330
248
100
AcDbEntity
  8
DV3_Standard
  6
Continuous
 62
     7
100
AcDbSpline
210
0.0
220
0.0
230
1.0
 70
     8
 71
     3
 72
    32
 73
    28
 74
     0
 42
0.0000000007363674
 43
0.0000000001
 40
0.0
 40
0.0
 40
0.0
 40
0.0
 40
0.0105054114374557
 40
0.050415325692085
 40
0.088580652492912
 40
0.1287140329616053
 40
0.171432419877791
 40
0.2143331789489275
 40
0.2573755721546092
 40
0.3005075595601543
 40
0.3436741436079824
 40
0.3868010122216869
 40
0.4298288489159973
 40
0.4727012064293036
 40
0.515373029187549
 40
0.5578850356936125
 40
0.6004857269404346
 40
0.6432654896465411
 40
0.6861679675401158
 40
0.7291343518779351
 40
0.7720958097482495
 40
0.814981941431973
 40
0.8577365236857039
 40
0.9003080184498486
 40
0.9382713276516341
 40
0.9786262731199318
 40
1.0
 40
1.0
 40
1.0
 40
1.0
 10
36.93002410171625
 20
109.1215992064952
 30
0.0
 10
36.98798066532535
 20
109.1448586762309
 30
0.0
 10
37.22569330948718
 20
109.2404556158083
 30
0.0
 10
37.67208749202175
 20
109.4378491194613
 30
0.0
 10
38.23171210221245
 20
109.7031875440683
 30
0.0
 10
38.79288497492847
 20
109.992342292732
 30
0.0
 10
39.3560234108824
 20
110.3066125398933
 30
0.0
 10
39.91200654973601
 20
110.643466707501
 30
0.0
 10
40.44818062059807
 20
110.9958583414806
 30
0.0
 10
40.96307112574961
 20
111.3630109135568
 30
0.0
 10
41.45499212343211
 20
111.7438747408167
 30
0.0
 10
41.92237741686537
 20
112.1373470753376
 30
0.0
 10
42.36375420156112
 20
112.5422532780491
 30
0.0
 10
42.77787154157753
 20
112.9574409305201
 30
0.0
 10
43.16384168624487
 20
113.3820981283805
 30
0.0
 10
43.52177423347821
 20
113.8161676150201
 30
0.0
 10
43.85251768895327
 20
114.2600875885268
 30
0.0
 10
44.15623520013909
 20
114.7141433442687
 30
0.0
 10
44.43222686196062
 20
115.1775643904479
 30
0.0
 10
44.67950099792024
 20
115.6489916948387
 30
0.0
 10
44.89717178284275
 20
116.1269409380905
 30
0.0
 10
45.08451697755791
 20
116.6099889738338
 30
0.0
 10
45.24094455005943
 20
117.09636825742
 30
0.0
 10
45.3618860175056
 20
117.5689385254125
 30
0.0
 10
45.45228435037853
 20
118.0325151966312
 30
0.0
 10
45.50429693751424
 20
118.4282183813075
 30
0.0
 10
45.5197935806118
 20
118.6506941097541
 30
0.0
 10
45.52582182362944
 20
118.7413894923226
 30
0.0
  0
ARC
  5
264
330
248
100
AcDbEntity
  8
DV3_Standard
  6
Continuous
 62
     7
100
AcDbCircle
 10
37.7786280967
 20
106.8369612744
 30
0.0
 40
2.432834039989953
100
AcDbArc
 50
110.3079532026
 51
130.7850609309
  0
ARC
  5
265
330
248
100
AcDbEntity
  8
DV3_Standard
  6
Continuous
 62
     7
100
AcDbCircle
 10
46.827694901
 20
118.5707487909
 30
0.0
 40
1.305403702543043
100
AcDbArc
 50
138.3568904614
 51
172.3923963514
  0
SPLINE
  5
266
330
248
100
AcDbEntity
  8
DV3_Standard
  6
Continuous
 62
     7
100
AcDbSpline
210
0.0
220
0.0
230
1.0
 70
     8
 71
     3
 72
    48
 73
    44
 74
     0
 42
0.0000000005087086
 43
0.0000000001
 40
0.0
 40
0.0
 40
0.0
 40
0.0
 40
0.0330919891744181
 40
0.0615273187647183
 40
0.0791903510311024
 40
0.0975430894399068
 40
0.1138618618239005
 40
0.1292917950660371
 40
0.1440143315315841
 40
0.1596748226791056
 40
0.1747928194416718
 40
0.1903897078437478
 40
0.2067786746691614
 40
0.2242300586936917
 40
0.2430690128631811
 40
0.2636117001677376
 40
0.2977824568403152
 40
0.3331781735982598
 40
0.3687060273104116
 40
0.4042620340495059
 40
0.4398768048192482
 40
0.4755050180387366
 40
0.5110775975755111
 40
0.5464871314678625
 40
0.5819266267654493
 40
0.6173440496666606
 40
0.6528100040350674
 40
0.6883932109812423
 40
0.7240573477709843
 40
0.7522537062851375
 40
0.7716383691727001
 40
0.789797391965851
 40
0.8063849851298385
 40
0.8218612977361974
 40
0.8365193984091446
 40
0.8521766699759503
 40
0.8674177017695136
 40
0.8831810069291013
 40
0.8995562781265908
 40
0.916659910225966
 40
0.9343033126702648
 40
0.950931119986326
 40
1.0
 40
1.0
 40
1.0
 40
1.0
 10
17.6202569400107
 20
108.6818880793368
 30
0.0
 10
17.73965374832965
 20
108.567507943002
 30
0.0
 10
17.92662506481472
 20
108.3885613677085
 30
0.0
 10
18.19881449040679
 20
108.1495710714349
 30
0.0
 10
18.4195979887351
 20
107.957614569312
 30
0.0
 10
18.62873319652831
 20
107.8010107572671
 30
0.0
 10
18.8495679769563
 20
107.6584011045653
 30
0.0
 10
19.07555567805359
 20
107.5318961260531
 30
0.0
 10
19.31823546401827
 20
107.4141705521874
 30
0.0
 10
19.57987178668532
 20
107.3053821432255
 30
0.0
 10
19.86498908779477
 20
107.2041562627946
 30
0.0
 10
20.16947125421185
 20
107.1106389748843
 30
0.0
 10
20.50177103273602
 20
107.0223308159532
 30
0.0
 10
20.86632157961139
 20
106.9383310252498
 30
0.0
 10
21.26870880280459
 20
106.8587773942979
 30
0.0
 10
21.7951147588076
 20
106.766456586162
 30
0.0
 10
22.44445657432961
 20
106.664656356598
 30
0.0
 10
23.20871499791196
 20
106.5649582076085
 30
0.0
 10
23.98861620189099
 20
106.4830578227718
 30
0.0
 10
24.7746088025241
 20
106.4204225044459
 30
0.0
 10
25.56459459811742
 20
106.3772484808431
 30
0.0
 10
26.3567611085321
 20
106.353716537501
 30
0.0
 10
27.14824381761652
 20
106.35
 30
0.0
 10
27.93795257794798
 20
106.3658334973175
 30
0.0
 10
28.72493898197192
 20
106.4012060281221
 30
0.0
 10
29.50955975060969
 20
106.4561238770875
 30
0.0
 10
30.29123194647323
 20
106.5305578697199
 30
0.0
 10
31.06959745995691
 20
106.6242645683328
 30
0.0
 10
31.78879333589142
 20
106.729899393217
 30
0.0
 10
32.38596643915082
 20
106.8310225934087
 30
0.0
 10
32.85284221567171
 20
106.9206465901398
 30
0.0
 10
33.22959805895432
 20
107.0045763999983
 30
0.0
 10
33.56978119238916
 20
107.0920589899623
 30
0.0
 10
33.87479226250858
 20
107.1827397335952
 30
0.0
 10
34.15987498675139
 20
107.2807458969016
 30
0.0
 10
34.42587416664256
 20
107.3875198264941
 30
0.0
 10
34.67829554004635
 20
107.5053246488079
 30
0.0
 10
34.91391013544156
 20
107.6326389059966
 30
0.0
 10
35.13591619138246
 20
107.7717364740597
 30
0.0
 10
35.34508043304077
 20
107.9239116261956
 30
0.0
 10
35.52401161225126
 20
108.0780792789617
 30
0.0
 10
35.80820913621725
 20
108.325724820593
 30
0.0
 10
36.00761566442812
 20
108.5125374601212
 30
0.0
 10
36.18605439635613
 20
108.6799622310018
 30
0.0
  0
SPLINE
  5
267
330
248
100
AcDbEntity
  8
DV3_Standard
  6
Continuous
 62
     7
100
AcDbSpline
210
0.0
220
0.0
230
1.0
 70
     8
 71
     3
 72
    19
 73
    15
 74
     0
 42
0.0000000025692247
 43
0.0000000001
 40
0.0
 40
0.0
 40
0.0
 40
0.0
 40
0.1522840470216431
 40
0.2864559883602406
 40
0.3836837622744067
 40
0.466250355514928
 40
0.5443230467609953
 40
0.617697827513518
 40
0.6872506960969866
 40
0.7533974249665125
 40
0.8229031990966049
 40
0.8934631987841554
 40
0.9666742015178006
 40
1.0
 40
1.0
 40
1.0
 40
1.0
 10
45.84954840265455
 20
119.4411605394714
 30
0.0
 10
45.99303535558577
 20
119.618844813738
 30
0.0
 10
46.22015358009732
 20
119.9002421740357
 30
0.0
 10
46.54392027281853
 20
120.3260164496941
 30
0.0
 10
46.80432303265662
 20
120.6706517069693
 30
0.0
 10
46.99639982044589
 20
120.964931853951
 30
0.0
 10
47.14806379894043
 20
121.2368437461677
 30
0.0
 10
47.26754305751858
 20
121.4984542655584
 30
0.0
 10
47.35588326233599
 20
121.7490211078321
 30
0.0
 10
47.41622697193834
 20
121.9970691903899
 30
0.0
 10
47.44838150075307
 20
122.2447781390807
 30
0.0
 10
47.45291836295866
 20
122.4943256017259
 30
0.0
 10
47.43749199538805
 20
122.7042482070984
 30
0.0
 10
47.41560100057006
 20
122.8148606430202
 30
0.0
 10
47.40738725461241
 20
122.8554579587194
 30
0.0
  0
ARC
  5
268
330
248
100
AcDbEntity
  8
DV3_Standard
  6
Continuous
 62
     7
100
AcDbCircle
 10
16.0107132416
 20
106.8082183382
 30
0.0
 40
2.465188711093257
100
AcDbArc
 50
49.3675434495
 51
69.5848382054
  0
SPLINE
  5
269
330
248
100
AcDbEntity
  8
DV3_Standard
  6
Continuous
 62
     7
100
AcDbSpline
210
0.0
220
0.0
230
1.0
 70
     8
 71
     3
 72
    32
 73
    28
 74
     0
 42
0.0000000007363489
 43
0.0000000001
 40
0.0
 40
0.0
 40
0.0
 40
0.0
 40
0.0041646796649437
 40
0.043627669758303
 40
0.0813591936181006
 40
0.1209546695962266
 40
0.1631902958107634
 40
0.2056459955706576
 40
0.248288192013701
 40
0.2910681254201799
 40
0.3339325003908311
 40
0.3768246071743079
 40
0.4196679032563922
 40
0.4624056581032178
 40
0.5049845372316838
 40
0.547441365623089
 40
0.590057581974836
 40
0.6329047516372347
 40
0.6759262007636275
 40
0.7190634436628065
 40
0.7622570001925252
 40
0.8054366869892324
 40
0.8485369317151267
 40
0.8915040819390019
 40
0.9343023583551027
 40
0.9752348572241549
 40
1.0
 40
1.0
 40
1.0
 40
1.0
 10
8.277646691789341
 20
118.7414726144536
 30
0.0
 10
8.278596575576953
 20
118.7237960031085
 30
0.0
 10
8.287252586254533
 20
118.5645646974966
 30
0.0
 10
8.323583454314845
 20
118.2399034605417
 30
0.0
 10
8.396098033217246
 20
117.7911083771579
 30
0.0
 10
8.500555960043434
 20
117.331264207987
 30
0.0
 10
8.636969757262406
 20
116.8576232338029
 30
0.0
 10
8.80706547249345
 20
116.376671647536
 30
0.0
 10
9.007619806023444
 20
115.8990743014335
 30
0.0
 10
9.238365624416698
 20
115.4260726157585
 30
0.0
 10
9.498760379075932
 20
114.9590705933761
 30
0.0
 10
9.788113461269822
 20
114.4995161624891
 30
0.0
 10
10.10557702627665
 20
114.0488384613787
 30
0.0
 10
10.45015923900627
 20
113.6084190804919
 30
0.0
 10
10.82110166616151
 20
113.1791929227004
 30
0.0
 10
11.21850441025022
 20
112.7610752410003
 30
0.0
 10
11.64256258823067
 20
112.3533627458086
 30
0.0
 10
12.09362454531701
 20
111.9557420596571
 30
0.0
 10
12.57095061742779
 20
111.5690354840252
 30
0.0
 10
13.07327405904581
 20
111.1944281061628
 30
0.0
 10
13.59911711779702
 20
110.8331171369994
 30
0.0
 10
14.14702602295516
 20
110.4861834517415
 30
0.0
 10
14.71482190546154
 20
110.1549202266455
 30
0.0
 10
15.30272264302078
 20
109.8393840470574
 30
0.0
 10
15.89451444840054
 20
109.5473692247215
 30
0.0
 10
16.43381332315883
 20
109.3033157449531
 30
0.0
 10
16.73929517138783
 20
109.1775242498363
 30
0.0
 10
16.87526914693262
 20
109.1217983987278
 30
0.0
  0
ARC
  5
26A
330
248
100
AcDbEntity
  8
DV3_Standard
  6
Continuous
 62
     7
100
AcDbCircle
 10
6.9792894641
 20
118.5657290395
 30
0.0
 40
1.305667001453931
100
AcDbArc
 50
7.7939162898
 51
41.9241172898
  0
SPLINE
  5
26B
330
248
100
AcDbEntity
  8
DV3_Standard
  6
Continuous
 62
     7
100
AcDbSpline
210
0.0
220
0.0
230
1.0
 70
     8
 71
     3
 72
    18
 73
    14
 74
     0
 42
0.000000002611659
 43
0.0000000001
 40
0.0
 40
0.0
 40
0.0
 40
0.0
 40
0.0681933848018038
 40
0.1388576824833371
 40
0.2067651212433298
 40
0.2786575953658898
 40
0.3507108994011439
 40
0.4255337559273504
 40
0.5035958353582212
 40
0.5854068022197004
 40
0.6704956524664238
 40
0.7672317841128664
 40
1.0
 40
1.0
 40
1.0
 40
1.0
 10
6.385485679367045
 20
122.7928724243045
 30
0.0
 10
6.373652745945889
 20
122.7097064984551
 30
0.0
 10
6.354495101247845
 20
122.566488739156
 30
0.0
 10
6.351923559947688
 20
122.3236094498425
 30
0.0
 10
6.375101851693008
 20
122.0777322096932
 30
0.0
 10
6.427520752018009
 20
121.8267030023869
 30
0.0
 10
6.509723461321524
 20
121.5692048662128
 30
0.0
 10
6.6211013275893
 20
121.3068872350055
 30
0.0
 10
6.763412559037597
 20
121.0376535087233
 30
0.0
 10
6.936314429692433
 20
120.7615607643726
 30
0.0
 10
7.148690782362466
 20
120.4743095016498
 30
0.0
 10
7.488812071905119
 20
120.0251726368028
 30
0.0
 10
7.740602632437088
 20
119.7079549049244
 30
0.0
 10
7.954220243330236
 20
119.4396229246286
 30
0.0
  0
SPLINE
  5
26C
330
248
100
AcDbEntity
  8
DV3_Standard
  6
Continuous
 62
     7
100
AcDbSpline
210
0.0
220
0.0
230
1.0
 70
     8
 71
     3
 72
    29
 73
    25
 74
     0
 42
0.0000000008675666
 43
0.0000000001
 40
0.0
 40
0.0
 40
0.0
 40
0.0
 40
0.0265666939884768
 40
0.0714986105855143
 40
0.118827884797116
 40
0.1661104848550451
 40
0.213461014172604
 40
0.2608736379703383
 40
0.3083398532912369
 40
0.3558488226977612
 40
0.4033879275448628
 40
0.4509387152600706
 40
0.4984863776100083
 40
0.546016575358587
 40
0.5935158369000936
 40
0.6409508247918092
 40
0.6881201960719764
 40
0.7352383617950238
 40
0.7823969834752559
 40
0.8295742745331915
 40
0.876745166344072
 40
0.9238883510637287
 40
0.9709842154298992
 40
1.0
 40
1.0
 40
1.0
 40
1.0
 10
20.41183126048653
 20
158.5152155556763
 30
0.0
 10
20.28615930901082
 20
158.4749588408878
 30
0.0
 10
19.99960114014744
 20
158.3826064157364
 30
0.0
 10
19.48423256961541
 20
158.2031942571414
 30
0.0
 10
18.91263516830143
 20
157.9814232339848
 30
0.0
 10
18.34225656846939
 20
157.7371096343147
 30
0.0
 10
17.79055115858318
 20
157.4764844939006
 30
0.0
 10
17.25648658631621
 20
157.1992915420746
 30
0.0
 10
16.74178228954248
 20
156.9062195230279
 30
0.0
 10
16.24752629824017
 20
156.5978198799656
 30
0.0
 10
15.77495880497669
 20
156.2747516887842
 30
0.0
 10
15.32523446678753
 20
155.9377077133982
 30
0.0
 10
14.89946649998735
 20
155.5874269804061
 30
0.0
 10
14.49868752928259
 20
155.2246711469277
 30
0.0
 10
14.1239227471865
 20
154.850291791119
 30
0.0
 10
13.77655020707843
 20
154.4656731226122
 30
0.0
 10
13.45727658959729
 20
154.0716848421896
 30
0.0
 10
13.16628618728689
 20
153.6689607329999
 30
0.0
 10
12.90347632617901
 20
153.257429725341
 30
0.0
 10
12.66954133500007
 20
152.8380984826165
 30
0.0
 10
12.46440365180141
 20
152.4108527140213
 30
0.0
 10
12.29131289422401
 20
151.9811347069208
 30
0.0
 10
12.15988025057346
 20
151.5908591830928
 30
0.0
 10
12.10491329464203
 20
151.3687808048832
 30
0.0
 10
12.08053455486628
 20
151.2689054226078
 30
0.0
  0
ARC
  5
26D
330
248
100
AcDbEntity
  8
DV3_Standard
  6
Continuous
 62
     7
100
AcDbCircle
 10
26.9013069986
 20
137.0024179788
 30
0.0
 40
22.46594157379286
100
AcDbArc
 50
73.2426710884
 51
106.7520847311
  0
SPLINE
  5
26E
330
248
100
AcDbEntity
  8
DV3_Standard
  6
Continuous
 62
     7
100
AcDbSpline
210
0.0
220
0.0
230
1.0
 70
     8
 71
     3
 72
    30
 73
    26
 74
     0
 42
0.0000000008672625
 43
0.0000000001
 40
0.0
 40
0.0
 40
0.0
 40
0.0
 40
0.0070963390006603
 40
0.0538803316442624
 40
0.1007594728723729
 40
0.1477325196290599
 40
0.1947936669037465
 40
0.2419335038891786
 40
0.289140284388776
 40
0.3364013674742938
 40
0.3837044890209217
 40
0.4308796771582855
 40
0.47798120054112
 40
0.5252062473978366
 40
0.5725361637277323
 40
0.6199507551638366
 40
0.6674285260788929
 40
0.714947464493583
 40
0.7624819698826057
 40
0.8100084015465943
 40
0.8575084479310215
 40
0.9049665444234645
 40
0.952370539552389
 40
0.9994730072309993
 40
1.0
 40
1.0
 40
1.0
 40
1.0
 10
41.72750879717374
 20
151.2654540434195
 30
0.0
 10
41.72214029542702
 20
151.2899567217522
 30
0.0
 10
41.6870214823188
 20
151.4496432743154
 30
0.0
 10
41.58609799345982
 20
151.7727228356889
 30
0.0
 10
41.42979501429267
 20
152.2020254062356
 30
0.0
 10
41.23937711964301
 20
152.6310323453121
 30
0.0
 10
41.02018366581113
 20
153.0530153651992
 30
0.0
 10
40.77127586335998
 20
153.4685400668156
 30
0.0
 10
40.49350687155756
 20
153.8762185588445
 30
0.0
 10
40.18734274388567
 20
154.2752078739072
 30
0.0
 10
39.85384524630467
 20
154.6641239427275
 30
0.0
 10
39.4939840423479
 20
155.0418643438713
 30
0.0
 10
39.10852225620483
 20
155.4079344715354
 30
0.0
 10
38.69768599212548
 20
155.7622911113393
 30
0.0
 10
38.26179150136372
 20
156.1046198553365
 30
0.0
 10
37.80182278349591
 20
156.4340796609801
 30
0.0
 10
37.31885066148282
 20
156.7498509455609
 30
0.0
 10
36.81401985004848
 20
157.0511441786269
 30
0.0
 10
36.28861339674273
 20
157.3371806434013
 30
0.0
 10
35.7437514764317
 20
157.6073194298136
 30
0.0
 10
35.18139886018755
 20
157.8606526167302
 30
0.0
 10
34.60048109345944
 20
158.0975594889176
 30
0.0
 10
34.01229701464067
 20
158.3135472879909
 30
0.0
 10
33.59114305351842
 20
158.453235094089
 30
0.0
 10
33.39622377262857
 20
158.5151306048394
 30
0.0
 10
33.3937252410318
 20
158.5159238785552
 30
0.0
  0
SPLINE
  5
26F
330
248
100
AcDbEntity
  8
DV3_Standard
  6
Continuous
 62
     7
100
AcDbSpline
210
0.0
220
0.0
230
1.0
 70
     8
 71
     3
 72
    25
 73
    21
 74
     0
 42
0.0000000003463214
 43
0.0000000001
 40
0.0
 40
0.0
 40
0.0
 40
0.0
 40
0.0272262737494669
 40
0.0520716961775285
 40
0.0745362561127701
 40
0.0946200498454762
 40
0.1123233264228912
 40
0.1276465681061088
 40
0.1943456301798323
 40
0.2537260840960772
 40
0.3178851225821661
 40
0.3780372356887626
 40
0.5004299249134301
 40
0.6226976798565038
 40
0.6827611686094517
 40
0.7468416810233057
 40
0.8061670241927359
 40
0.8728237432200595
 40
0.9257569802130465
 40
1.0
 40
1.0
 40
1.0
 40
1.0
 10
40.15253981555434
 20
172.0444314815149
 30
0.0
 10
40.14418038314061
 20
172.1450728907404
 30
0.0
 10
40.12819252417503
 20
172.3375549370273
 30
0.0
 10
40.00753492831443
 20
172.6126114239206
 30
0.0
 10
39.84090105879701
 20
172.8580380013645
 30
0.0
 10
39.64088104152178
 20
173.0737692202771
 30
0.0
 10
39.42595691055602
 20
173.2604846868255
 30
0.0
 10
38.95880781606263
 20
173.607126874152
 30
0.0
 10
38.06978229731521
 20
174.0843957624533
 30
0.0
 10
36.43394371929993
 20
174.6523495225404
 30
0.0
 10
34.46125591077455
 20
175.1197797072998
 30
0.0
 10
31.37364239176293
 20
175.5941977457865
 30
0.0
 10
26.88819010998727
 20
175.8582821491349
 30
0.0
 10
22.40709844727484
 20
175.5916254293824
 30
0.0
 10
19.32644245351809
 20
175.1163528345864
 30
0.0
 10
17.35944083169861
 20
174.6488089129576
 30
0.0
 10
15.72563414653849
 20
174.0808070181523
 30
0.0
 10
14.61119960158353
 20
173.4770269040214
 30
0.0
 10
13.81988033263845
 20
172.7928811853721
 30
0.0
 10
13.7142214258391
 20
172.3203095758072
 30
0.0
 10
13.65253981555434
 20
172.0444314815149
 30
0.0
  0
LINE
  5
270
330
248
100
AcDbEntity
  8
DV3_Standard
  6
Continuous
 62
     7
100
AcDbLine
 10
40.1525389878
 20
191.5444314815
 30
0.0
 11
13.6525398156
 21
191.5444314815
 31
0.0
  0
ARC
  5
271
330
248
100
AcDbEntity
  8
DV3_Standard
  6
Continuous
 62
     7
100
AcDbCircle
 10
26.9025398156
 20
156.5444314815
 30
0.0
 40
16.50000000000001
100
AcDbArc
 50
152.032689605
 51
204.2222231788
  0
ARC
  5
272
330
248
100
AcDbEntity
  8
DV3_Standard
  6
Continuous
 62
     7
100
AcDbCircle
 10
26.9025398156
 20
156.5444314815
 30
0.0
 40
16.50000000000001
100
AcDbArc
 50
335.8273423755
 51
26.8627142582
  0
ARC
  5
273
330
248
100
AcDbEntity
  8
DV3_Standard
  6
Continuous
 62
     7
100
AcDbCircle
 10
26.902539815
 20
156.5444314811
 30
0.0
 40
16.50000000067165
100
AcDbArc
 50
35.598756911
 51
36.5761678271
  0
ARC
  5
274
330
248
100
AcDbEntity
  8
DV3_Standard
  6
Continuous
 62
     7
100
AcDbCircle
 10
26.9025398155
 20
156.5444314815
 30
0.0
 40
16.50000000004298
100
AcDbArc
 50
26.8627142582
 51
35.598756911
  0
LINE
  5
275
330
248
100
AcDbEntity
  8
DV3_Standard
  6
Continuous
 62
     7
100
AcDbLine
 10
12.3294873322
 20
164.282399
 30
0.0
 11
13.4385880345
 21
166.0823559117
 31
0.0
  0
ARC
  5
276
330
248
100
AcDbEntity
  8
DV3_Standard
  6
Continuous
 62
     7
100
AcDbCircle
 10
42.4788246087
 20
167.6660099196
 30
0.0
 40
2.639324338581814
100
AcDbArc
 50
208.0424807379
 51
215.0791778056
  0
LINE
  5
277
330
248
100
AcDbEntity
  8
DV3_Standard
  6
Continuous
 62
     7
100
AcDbLine
 10
37.4325398156
 20
203.5444314797
 30
0.0
 11
16.3725398156
 21
203.5444314797
 31
0.0
  0
LINE
  5
278
330
248
100
AcDbEntity
  8
DV3_Standard
  6
Continuous
 62
     7
100
AcDbLine
 10
17.3725398156
 20
204.5444314815
 30
0.0
 11
36.4325398156
 21
204.5444314815
 31
0.0
  0
LINE
  5
279
330
248
100
AcDbEntity
  8
DV3_Standard
  6
Continuous
 62
     7
100
AcDbLine
 10
13.6525398156
 20
172.0444314815
 30
0.0
 11
13.6525398156
 21
154.3053568375
 31
0.0
  0
LINE
  5
27A
330
248
100
AcDbEntity
  8
DV3_Standard
  6
Continuous
 62
     7
100
AcDbLine
 10
40.1525398156
 20
154.3087917463
 30
0.0
 11
40.1525398156
 21
172.0444314815
 31
0.0
  0
LINE
  5
27B
330
248
100
AcDbEntity
  8
DV3_Standard
  6
Continuous
 62
     7
100
AcDbLine
 10
13.6525398156
 20
191.5444314815
 30
0.0
 11
13.6525398156
 21
172.0444314815
 31
0.0
  0
LINE
  5
27C
330
248
100
AcDbEntity
  8
DV3_Standard
  6
Continuous
 62
     7
100
AcDbLine
 10
40.1525398156
 20
172.0444314815
 30
0.0
 11
40.1525398156
 21
191.5444314815
 31
0.0
  0
ARC
  5
27D
330
248
100
AcDbEntity
  8
DV3_Standard
  6
Continuous
 62
     7
100
AcDbCircle
 10
11.0391850512
 20
167.668516227
 30
0.0
 40
2.876287137239103
100
AcDbArc
 50
326.5316435959
 51
335.0638159681
  0
ARC
  5
27E
330
248
100
AcDbEntity
  8
DV3_Standard
  6
Continuous
 62
     7
100
AcDbCircle
 10
42.2624967395
 20
167.5164319172
 30
0.0
 40
2.375382152971194
100
AcDbArc
 50
207.4643282501
 51
215.0505250378
  0
LINE
  5
27F
330
248
100
AcDbEntity
  8
DV3_Standard
  6
Continuous
 62
     7
100
AcDbLine
 10
16.3725398156
 20
203.5444314797
 30
0.0
 11
16.3725398156
 21
191.5444314815
 31
0.0
  0
LINE
  5
280
330
248
100
AcDbEntity
  8
DV3_Standard
  6
Continuous
 62
     7
100
AcDbLine
 10
37.4325398156
 20
191.5444314815
 30
0.0
 11
37.4325398156
 21
203.5444314797
 31
0.0
  0
LINE
  5
281
330
248
100
AcDbEntity
  8
DV3_Standard
  6
Continuous
 62
     7
100
AcDbLine
 10
37.4325398156
 20
203.5444314797
 30
0.0
 11
36.4325398156
 21
204.5444314815
 31
0.0
  0
LINE
  5
282
330
248
100
AcDbEntity
  8
DV3_Standard
  6
Continuous
 62
     7
100
AcDbLine
 10
17.3725398156
 20
204.5444314815
 30
0.0
 11
16.3725398156
 21
203.5444314797
 31
0.0
  0
SPLINE
  5
283
330
248
100
AcDbEntity
  8
DV3_Standard
  6
Continuous
 62
     7
100
AcDbSpline
210
0.0
220
0.0
230
1.0
 70
    11
 71
     3
 72
    62
 73
    58
 74
     0
 42
0.0000000020696865
 43
0.0000000001
 40
0.0
 40
0.0
 40
0.0
 40
0.0
 40
0.0546729114623041
 40
0.0546729114623041
 40
0.0546729114623041
 40
0.1093932353809173
 40
0.1093932353809173
 40
0.1093932353809173
 40
0.1633824926231177
 40
0.1633824926231177
 40
0.1633824926231177
 40
0.2162927319252566
 40
0.2162927319252566
 40
0.2162927319252566
 40
0.2684968717132492
 40
0.2684968717132492
 40
0.2684968717132492
 40
0.3206536084561599
 40
0.3206536084561599
 40
0.3206536084561599
 40
0.3734191198488563
 40
0.3734191198488563
 40
0.3734191198488563
 40
0.4271970342010216
 40
0.4271970342010216
 40
0.4271970342010216
 40
0.4819783774851374
 40
0.4819783774851374
 40
0.4819783774851374
 40
0.5373171739363258
 40
0.5373171739363258
 40
0.5373171739363258
 40
0.5924923568322308
 40
0.5924923568322308
 40
0.5924923568322308
 40
0.6468356499108121
 40
0.6468356499108121
 40
0.6468356499108121
 40
0.7000653415663312
 40
0.7000653415663312
 40
0.7000653415663312
 40
0.752415148137217
 40
0.752415148137217
 40
0.752415148137217
 40
0.8044945985897646
 40
0.8044945985897646
 40
0.8044945985897646
 40
0.8570035818679276
 40
0.8570035818679276
 40
0.8570035818679276
 40
0.9104519545869363
 40
0.9104519545869363
 40
0.9104519545869363
 40
0.964962679422488
 40
0.964962679422488
 40
0.964962679422488
 40
1.0
 40
1.0
 40
1.0
 40
1.0
 10
27.88166648424789
 20
109.9340263655023
 30
0.0
 10
27.85872439969529
 20
109.987794907459
 30
0.0
 10
27.8162055549143
 20
110.0404539484369
 30
0.0
 10
27.75736084618317
 20
110.0876299796949
 30
0.0
 10
27.69848672640961
 20
110.1348295898997
 30
0.0
 10
27.6215872963573
 20
110.1778498145244
 30
0.0
 10
27.53291465112753
 20
110.2129031684274
 30
0.0
 10
27.4454264920337
 20
110.2474882808383
 30
0.0
 10
27.34398031915978
 20
110.2752841411561
 30
0.0
 10
27.23715279857174
 20
110.2937536945322
 30
0.0
 10
27.13242495402651
 20
110.3118602321
 30
0.0
 10
27.01958351916147
 20
110.321507516437
 30
0.0
 10
26.90819395031099
 20
110.3218142000355
 30
0.0
 10
26.79824918885091
 20
110.3221169057146
 30
0.0
 10
26.68668719705725
 20
110.3133346964799
 30
0.0
 10
26.58273451821661
 20
110.2962503829198
 30
0.0
 10
26.47885020925978
 20
110.2791773057468
 30
0.0
 10
26.37973906914238
 20
110.2533628678845
 30
0.0
 10
26.2932750573651
 20
110.2210213830074
 30
0.0
 10
26.20579900739831
 20
110.1883013496784
 30
0.0
 10
26.12889956831801
 20
110.1480331517892
 30
0.0
 10
26.06844762450974
 20
110.1035456784976
 30
0.0
 10
26.00684720055196
 20
110.0582130217966
 30
0.0
 10
25.96065070744296
 20
110.0072851823758
 30
0.0
 10
25.9333012057767
 20
109.9548843851146
 30
0.0
 10
25.90545061097168
 20
109.9015235089353
 30
0.0
 10
25.89638307739837
 20
109.8451822711543
 30
0.0
 10
25.90677454229403
 20
109.7904413077016
 30
0.0
 10
25.91726807551768
 20
109.7351626608069
 30
0.0
 10
25.94791441863823
 20
109.6799830164379
 30
0.0
 10
25.99634525763665
 20
109.6295249101251
 30
0.0
 10
26.04462256224322
 20
109.5792267650029
 30
0.0
 10
26.11196402997868
 20
109.5322080490369
 30
0.0
 10
26.19292559278319
 20
109.4925791445778
 30
0.0
 10
26.27266967098893
 20
109.4535461720544
 30
0.0
 10
26.36791482342804
 20
109.4205851936189
 30
0.0
 10
26.47066343265257
 20
109.3966789014596
 30
0.0
 10
26.57133561044573
 20
109.3732557280192
 30
0.0
 10
26.68205643484382
 20
109.3578713727114
 30
0.0
 10
26.79341341296135
 20
109.3519318089185
 30
0.0
 10
26.90297277029294
 20
109.3460881267085
 30
0.0
 10
27.01618580357717
 20
109.3492211259403
 30
0.0
 10
27.12359358282846
 20
109.3610495686476
 30
0.0
 10
27.23047984551876
 20
109.3728205785618
 30
0.0
 10
27.33453423651699
 20
109.3935117508249
 30
0.0
 10
27.42738440440674
 20
109.4213318480326
 30
0.0
 10
27.52101014314028
 20
109.4493843245322
 30
0.0
 10
27.60577924208445
 20
109.4854276653279
 30
0.0
 10
27.67515198960799
 20
109.5264614571315
 30
0.0
 10
27.74575685731696
 20
109.5682240446795
 30
0.0
 10
27.80232877162257
 20
109.6162702935464
 30
0.0
 10
27.84063118542764
 20
109.6667051690132
 30
0.0
 10
27.8796830874497
 20
109.7181269364571
 30
0.0
 10
27.90080993045524
 20
109.7734246589117
 30
0.0
 10
27.90243538354794
 20
109.8281252885805
 30
0.0
 10
27.90348867221275
 20
109.8635711303868
 30
0.0
 10
27.89649267752462
 20
109.89927874728
 30
0.0
 10
27.88166648424789
 20
109.9340263655023
 30
0.0
  0
SPLINE
  5
284
330
248
100
AcDbEntity
  8
DV3_Standard
  6
Continuous
 62
     7
100
AcDbSpline
210
0.0
220
0.0
230
1.0
 70
     8
 71
     3
 72
    10
 73
     6
 74
     0
 42
0.0000000441566035
 43
0.0000000001
 40
0.0
 40
0.0
 40
0.0
 40
0.0
 40
0.9536532534420097
 40
0.9536532534420097
 40
1.0
 40
1.0
 40
1.0
 40
1.0
 10
30.62657370880104
 20
108.2967125678951
 30
0.0
 10
30.55452037067626
 20
108.2726965518403
 30
0.0
 10
30.48376477913971
 20
108.257507120424
 30
0.0
 10
30.41226046777201
 20
108.25541743587
 30
0.0
 10
30.40895048019371
 20
108.2553532003579
 30
0.0
 10
30.40564731700015
 20
108.2553239547498
 30
0.0
  0
SPLINE
  5
285
330
248
100
AcDbEntity
  8
DV3_Standard
  6
Continuous
 62
     7
100
AcDbSpline
210
0.0
220
0.0
230
1.0
 70
    12
 71
     2
 72
     6
 73
     3
 74
     0
 42
0.0000000311474023
 43
0.0000000001
 40
0.0
 40
0.0
 40
0.0
 40
1.0
 40
1.0
 40
1.0
 10
24.10702838698283
 20
117.3991096324141
 30
0.0
 41
1.0
 10
24.26744521747899
 20
117.3933768788471
 30
0.0
 41
1.0
 10
24.42789981555423
 20
117.3883021361215
 30
0.0
 41
1.0
  0
LINE
  5
286
330
248
100
AcDbEntity
  8
DV3_Standard
  6
Continuous
 62
     7
100
AcDbLine
 10
29.131968387
 20
118.0921130276
 30
0.0
 11
29.131968387
 21
118.0154040366
 31
0.0
  0
ELLIPSE
  5
287
330
248
100
AcDbEntity
  8
DV3_Standard
  6
Continuous
 62
     7
100
AcDbEllipse
 10
26.9025400271
 20
163.9920277023
 30
0.0
 11
59.95954831031044
 21
3.923898844737650E-7
 31
0.0
210
0.0
220
0.0
230
1.0
 40
0.7660444017
 41
4.740506487950594
 42
4.749579755591572
  0
ARC
  5
288
330
248
100
AcDbEntity
  8
DV3_Standard
  6
Continuous
 62
     7
100
AcDbCircle
 10
22.0933393329
 20
118.5300087491
 30
0.0
 40
1.491549254424973
100
AcDbArc
 50
266.0702999328
 51
284.239554399
  0
LINE
  5
289
330
248
100
AcDbEntity
  8
DV3_Standard
  6
Continuous
 62
     7
100
AcDbLine
 10
23.0219198156
 20
117.4580535214
 30
0.0
 11
23.0219198156
 21
117.3812744526
 31
0.0
  0
ELLIPSE
  5
28A
330
248
100
AcDbEntity
  8
DV3_Standard
  6
Continuous
 62
     7
100
AcDbEllipse
 10
26.9025359337
 20
163.3159665861
 30
0.0
 11
-59.98892976248942
 21
7.169484443625419E-6
 31
0.0
210
0.0
220
0.0
230
1.0
 40
0.7660440899
 41
1.49667640086241
 42
1.506062345806736
  0
ELLIPSE
  5
28B
330
248
100
AcDbEntity
  8
DV3_Standard
  6
Continuous
 62
     7
100
AcDbEllipse
 10
30.6141602625
 20
108.4776439332
 30
0.0
 11
-0.03050149592199363
 21
0.1976604632863838
 31
0.0
210
0.0
220
0.0
230
1.0
 40
0.1788217747
 41
2.698756868894371
 42
3.141192391448159
  0
ELLIPSE
  5
28C
330
248
100
AcDbEntity
  8
DV3_Standard
  6
Continuous
 62
     7
100
AcDbEllipse
 10
26.9025398156
 20
118.4156034093
 30
0.0
 11
16.09999999999994
 21
8.482443860096973E-31
 31
0.0
210
0.0
220
0.0
230
1.0
 40
0.6427876097
 41
2.994716856774311
 42
3.288315900285718
  0
ELLIPSE
  5
28D
330
248
100
AcDbEntity
  8
DV3_Standard
  6
Continuous
 62
     7
100
AcDbEllipse
 10
26.9025398156
 20
118.4156034093
 30
0.0
 11
16.09999999999994
 21
8.482443860096973E-31
 31
0.0
210
0.0
220
0.0
230
1.0
 40
0.6427876097
 41
-0.1455107286544124
 42
0.1466922896944507
  0
ELLIPSE
  5
28E
330
248
100
AcDbEntity
  8
DV3_Standard
  6
Continuous
 62
     7
100
AcDbEllipse
 10
26.9025398156
 20
118.5075287425
 30
0.0
 11
16.09999999999993
 21
-1.387778780781446E-14
 31
0.0
210
0.0
220
0.0
230
1.0
 40
0.6427876097
 41
0.0000000000000013
 42
3.141592653589794
  0
ARC
  5
28F
330
248
100
AcDbEntity
  8
DV3_Standard
  6
Continuous
 62
     7
100
AcDbCircle
 10
47.7781229519
 20
185.1470431149
 30
0.0
 40
74.15514081190594
100
AcDbArc
 50
250.5689985756
 51
250.8075952983
  0
ARC
  5
290
330
248
100
AcDbEntity
  8
DV3_Standard
  6
Continuous
 62
     7
100
AcDbCircle
 10
5.7421480796
 20
185.9619355697
 30
0.0
 40
75.02033441997857
100
AcDbArc
 50
289.1982602693
 51
289.43411177
  0
SPLINE
  5
291
330
248
100
AcDbEntity
  8
DV3_Standard
  6
Continuous
 62
     7
100
AcDbSpline
210
0.0
220
0.0
230
1.0
 70
     8
 71
     3
 72
    12
 73
     8
 74
     0
 42
0.0000000028106688
 43
0.0000000001
 40
0.0
 40
0.0
 40
0.0
 40
0.0
 40
0.2500000000000003
 40
0.2500000000000003
 40
0.5000000000000007
 40
0.5000000000000007
 40
1.0
 40
1.0
 40
1.0
 40
1.0
 10
23.40025410126854
 20
115.1134481826112
 30
0.0
 10
23.6861304820243
 20
115.1550322109688
 30
0.0
 10
23.97875923947933
 20
115.1883499858051
 30
0.0
 10
24.57355495191741
 20
115.1768398586583
 30
0.0
 10
24.87288505776068
 20
115.1283507631605
 30
0.0
 10
25.73624768825264
 20
114.9519587297668
 30
0.0
 10
26.29155160214875
 20
114.7820874368139
 30
0.0
 10
26.90596838698281
 20
114.7787970495093
 30
0.0
  0
LINE
  5
292
330
248
100
AcDbEntity
  8
DV3_Standard
  6
Continuous
 62
     7
100
AcDbLine
 10
30.7031112441
 20
115.2159046253
 30
0.0
 11
30.7031112441
 21
115.2927170461
 31
0.0
  0
SPLINE
  5
293
330
248
100
AcDbEntity
  8
DV3_Standard
  6
Continuous
 62
     7
100
AcDbSpline
210
0.0
220
0.0
230
1.0
 70
     8
 71
     3
 72
    20
 73
    16
 74
     0
 42
0.0000000012985193
 43
0.0000000001
 40
0.0
 40
0.0
 40
0.0
 40
0.0
 40
0.1250000000000001
 40
0.1250000000000001
 40
0.2500000000000002
 40
0.2500000000000002
 40
0.3750000000000004
 40
0.3750000000000004
 40
0.5000000000000006
 40
0.5000000000000006
 40
0.7500000000000008
 40
0.7500000000000008
 40
0.8750000000000004
 40
0.8750000000000004
 40
1.0
 40
1.0
 40
1.0
 40
1.0
 10
30.70311124412565
 20
115.2159046253018
 30
0.0
 10
30.39096345125465
 20
115.2654275502136
 30
0.0
 10
30.07676263776047
 20
115.3145421375134
 30
0.0
 10
29.42584603402446
 20
115.3371339319791
 30
0.0
 10
29.08936934036205
 20
115.2959960109242
 30
0.0
 10
28.45311349327508
 20
115.1726546156529
 30
0.0
 10
28.14218875291232
 20
115.0937187465927
 30
0.0
 10
27.50993391475013
 20
114.9659991550491
 30
0.0
 10
27.17764008443304
 20
114.9156267096479
 30
0.0
 10
26.19249692947348
 20
114.9337123541909
 30
0.0
 10
25.6040417573855
 20
115.1296881703059
 30
0.0
 10
24.67016579488766
 20
115.3032715978948
 30
0.0
 10
24.35450656687025
 20
115.3378070205706
 30
0.0
 10
23.71392835128868
 20
115.3113604552382
 30
0.0
 10
23.41039728679272
 20
115.2634434186184
 30
0.0
 10
23.10882552983998
 20
115.2155718480918
 30
0.0
  0
LINE
  5
294
330
248
100
AcDbEntity
  8
DV3_Standard
  6
Continuous
 62
     7
100
AcDbLine
 10
23.1088255298
 20
115.2155718481
 30
0.0
 11
23.1088255298
 21
115.2923837113
 31
0.0
  0
SPLINE
  5
295
330
248
100
AcDbEntity
  8
DV3_Standard
  6
Continuous
 62
     7
100
AcDbSpline
210
0.0
220
0.0
230
1.0
 70
     8
 71
     3
 72
    18
 73
    14
 74
     0
 42
0.000000001296742
 43
0.0000000001
 40
0.0
 40
0.0
 40
0.0
 40
0.0
 40
0.1250000000000005
 40
0.1250000000000005
 40
0.2500000000000009
 40
0.2500000000000009
 40
0.5000000000000008
 40
0.5000000000000008
 40
0.7500000000000007
 40
0.7500000000000007
 40
0.8750000000000004
 40
0.8750000000000004
 40
1.0
 40
1.0
 40
1.0
 40
1.0
 10
23.10882552983998
 20
115.2923837112614
 30
0.0
 10
23.42128754720643
 20
115.3419535389536
 30
0.0
 10
23.7347997853967
 20
115.3912230398426
 30
0.0
 10
24.39178552026802
 20
115.4136043490293
 30
0.0
 10
24.72110996891636
 20
115.3725508693352
 30
0.0
 10
25.66238793599786
 20
115.1908291354273
 30
0.0
 10
26.27784077129105
 20
114.9927795919312
 30
0.0
 10
27.58165136216234
 20
115.0030238492776
 30
0.0
 10
28.17675364955505
 20
115.198261566196
 30
0.0
 10
29.11597177283624
 20
115.3765005272538
 30
0.0
 10
29.44585918288523
 20
115.4141686417824
 30
0.0
 10
30.08307702225392
 20
115.3900197333469
 30
0.0
 10
30.39557529949963
 20
115.3414782604752
 30
0.0
 10
30.70311124412565
 20
115.2927170461142
 30
0.0
  0
SPLINE
  5
296
330
248
100
AcDbEntity
  8
DV3_Standard
  6
Continuous
 62
     7
100
AcDbSpline
210
0.0
220
0.0
230
1.0
 70
     8
 71
     3
 72
    16
 73
    12
 74
     0
 42
0.0000000028178059
 43
0.0000000001
 40
0.0
 40
0.0
 40
0.0
 40
0.0
 40
0.2500000000000002
 40
0.2500000000000002
 40
0.5000000000000004
 40
0.5000000000000004
 40
0.6250000000000003
 40
0.6250000000000003
 40
0.7500000000000002
 40
0.7500000000000002
 40
1.0
 40
1.0
 40
1.0
 40
1.0
 10
26.90596838698281
 20
114.7787970495093
 30
0.0
 10
27.21490190807102
 20
114.7804785128735
 30
0.0
 10
27.50640303334925
 20
114.8264933798271
 30
0.0
 10
28.08153784480197
 20
114.941090262889
 30
0.0
 10
28.3647552267178
 20
115.0111901286982
 30
0.0
 10
28.79688140284735
 20
115.0994469043131
 30
0.0
 10
28.94206117023386
 20
115.1260522524255
 30
0.0
 10
29.23724970788086
 20
115.1664354797642
 30
0.0
 10
29.389500212328
 20
115.1801224912326
 30
0.0
 10
29.83797839373865
 20
115.1884132690177
 30
0.0
 10
30.12621561542567
 20
115.1552547279492
 30
0.0
 10
30.41168267269708
 20
115.1137553570328
 30
0.0
  0
ARC
  5
297
330
248
100
AcDbEntity
  8
DV3_Standard
  6
Continuous
 62
     7
100
AcDbCircle
 10
23.1277182888
 20
116.9498553662
 30
0.0
 40
1.645034924355081
100
AcDbArc
 50
234.5897139096
 51
242.9752157122
  0
ARC
  5
298
330
248
100
AcDbEntity
  8
DV3_Standard
  6
Continuous
 62
     7
100
AcDbCircle
 10
30.6835261509
 20
116.9511997114
 30
0.0
 40
1.646193527911959
100
AcDbArc
 50
297.0312661012
 51
305.4111832049
  0
SPLINE
  5
299
330
248
100
AcDbEntity
  8
DV3_Standard
  6
Continuous
 62
     7
100
AcDbSpline
210
0.0
220
0.0
230
1.0
 70
     8
 71
     3
 72
    16
 73
    12
 74
     0
 42
0.0000000028696433
 43
0.0000000001
 40
0.0
 40
0.0
 40
0.0
 40
0.0
 40
0.2499999999999998
 40
0.2499999999999998
 40
0.3749999999999999
 40
0.3749999999999999
 40
0.5
 40
0.5
 40
0.75
 40
0.75
 40
1.0
 40
1.0
 40
1.0
 40
1.0
 10
23.46489981555424
 20
115.6313170745842
 30
0.0
 10
23.74709170439431
 20
115.671668003594
 30
0.0
 10
24.03760360330404
 20
115.701711240555
 30
0.0
 10
24.47493391338779
 20
115.6862075130504
 30
0.0
 10
24.6225739698053
 20
115.670853823098
 30
0.0
 10
24.91278708176528
 20
115.6279134294052
 30
0.0
 10
25.05513982263921
 20
115.6005864773947
 30
0.0
 10
25.47847171719686
 20
115.5113144905336
 30
0.0
 10
25.75558505707806
 20
115.4419688694203
 30
0.0
 10
26.32021977688139
 20
115.328978871933
 30
0.0
 10
26.6117400675876
 20
115.2844462133834
 30
0.0
 10
26.90596838698281
 20
115.2828429864135
 30
0.0
  0
ELLIPSE
  5
29A
330
248
100
AcDbEntity
  8
DV3_Standard
  6
Continuous
 62
     7
100
AcDbEllipse
 10
27.045265058
 20
162.2703252039
 30
0.0
 11
-54.45833363626759
 21
-25.41757445482609
 31
0.0
210
0.0
220
0.0
230
0.9999999999999999
 40
0.7337352621
 41
1.159724383859298
 42
1.17861586946502
  0
LINE
  5
29B
330
248
100
AcDbEntity
  8
DV3_Standard
  6
Continuous
 62
     7
100
AcDbLine
 10
31.6373969584
 20
115.6095277642
 30
0.0
 11
31.6373969584
 21
115.6864022327
 31
0.0
  0
SPLINE
  5
29C
330
248
100
AcDbEntity
  8
DV3_Standard
  6
Continuous
 62
     7
100
AcDbSpline
210
0.0
220
0.0
230
1.0
 70
     8
 71
     3
 72
    18
 73
    14
 74
     0
 42
0.0000000010381297
 43
0.0000000001
 40
0.0
 40
0.0
 40
0.0
 40
0.0
 40
0.1249999999999997
 40
0.1249999999999997
 40
0.2499999999999994
 40
0.2499999999999994
 40
0.4999999999999996
 40
0.4999999999999996
 40
0.7499999999999997
 40
0.7499999999999997
 40
0.8749999999999998
 40
0.8749999999999998
 40
1.0
 40
1.0
 40
1.0
 40
1.0
 10
31.63739695841136
 20
115.6095277641679
 30
0.0
 10
31.25009117395203
 20
115.6574814669444
 30
0.0
 10
30.86249524434889
 20
115.7086244827767
 30
0.0
 10
30.08672308358349
 20
115.8172892644493
 30
0.0
 10
29.6841020814722
 20
115.8631804129905
 30
0.0
 10
28.48284151227879
 20
115.7459111809346
 30
0.0
 10
27.73352630786927
 20
115.4336816788736
 30
0.0
 10
26.12241975263515
 20
115.4217606685468
 30
0.0
 10
25.38919363471845
 20
115.7280301562197
 30
0.0
 10
24.18288095430524
 20
115.8628954529816
 30
0.0
 10
23.76006869979053
 20
115.8220474290474
 30
0.0
 10
22.96689907804066
 20
115.710586096371
 30
0.0
 10
22.57057247285229
 20
115.6581819567147
 30
0.0
 10
22.17453981555424
 20
115.6091127732196
 30
0.0
  0
LINE
  5
29D
330
248
100
AcDbEntity
  8
DV3_Standard
  6
Continuous
 62
     7
100
AcDbLine
 10
22.1745398156
 20
115.6091127732
 30
0.0
 11
22.1745398156
 21
115.6859865452
 31
0.0
  0
SPLINE
  5
29E
330
248
100
AcDbEntity
  8
DV3_Standard
  6
Continuous
 62
     7
100
AcDbSpline
210
0.0
220
0.0
230
1.0
 70
     8
 71
     3
 72
    20
 73
    16
 74
     0
 42
0.0000000010407643
 43
0.0000000001
 40
0.0
 40
0.0
 40
0.0
 40
0.0
 40
0.1250000000000001
 40
0.1250000000000001
 40
0.2500000000000002
 40
0.2500000000000002
 40
0.3750000000000002
 40
0.3750000000000002
 40
0.5000000000000002
 40
0.5000000000000002
 40
0.7500000000000002
 40
0.7500000000000002
 40
0.8750000000000002
 40
0.8750000000000002
 40
1.0
 40
1.0
 40
1.0
 40
1.0
 10
22.17453981555424
 20
115.6859865452184
 30
0.0
 10
22.56946125090807
 20
115.7348736976331
 30
0.0
 10
22.96466249404602
 20
115.7870809161271
 30
0.0
 10
23.75562648820965
 20
115.8981288474476
 30
0.0
 10
24.16690487525892
 20
115.9400629353078
 30
0.0
 10
24.97708244103002
 20
115.8520355224244
 30
0.0
 10
25.37184931798915
 20
115.7500172850342
 30
0.0
 10
26.15788794555214
 20
115.5745203306161
 30
0.0
 10
26.57048430750976
 20
115.4952618848892
 30
0.0
 10
27.79833418398718
 20
115.5250177402246
 30
0.0
 10
28.52372321500759
 20
115.8334810345553
 30
0.0
 10
29.71458853037117
 20
115.9391628082263
 30
0.0
 10
30.11329803107411
 20
115.8901926393354
 30
0.0
 10
30.87572552001915
 20
115.7836739163818
 30
0.0
 10
31.25668728555361
 20
115.7334964376273
 30
0.0
 10
31.63739695841136
 20
115.6864022327007
 30
0.0
  0
ELLIPSE
  5
29F
330
248
100
AcDbEntity
  8
DV3_Standard
  6
Continuous
 62
     7
100
AcDbEllipse
 10
26.7603788625
 20
162.2715307227
 30
0.0
 11
54.45842493499071
 21
-25.41741546078958
 31
0.0
210
0.0
220
0.0
230
0.9999999999999999
 40
0.7337357359
 41
-1.178508775628767
 42
-1.159617009333772
  0
SPLINE
  5
2A0
330
248
100
AcDbEntity
  8
DV3_Standard
  6
Continuous
 62
     7
100
AcDbSpline
210
0.0
220
0.0
230
1.0
 70
     8
 71
     3
 72
    16
 73
    12
 74
     0
 42
0.0000000028695167
 43
0.0000000001
 40
0.0
 40
0.0
 40
0.0
 40
0.0
 40
0.2499999999999994
 40
0.2499999999999994
 40
0.4999999999999989
 40
0.4999999999999989
 40
0.6249999999999992
 40
0.6249999999999992
 40
0.7499999999999997
 40
0.7499999999999997
 40
1.0
 40
1.0
 40
1.0
 40
1.0
 10
26.90596838698281
 20
115.2828429864135
 30
0.0
 10
27.20823485661891
 20
115.2845164459031
 30
0.0
 10
27.49401275013608
 20
115.3294305322846
 30
0.0
 10
28.05765611388886
 20
115.4423907600012
 30
0.0
 10
28.33513305890508
 20
115.5118228942375
 30
0.0
 10
28.75774151998284
 20
115.6009327876734
 30
0.0
 10
28.89962219395847
 20
115.628142271287
 30
0.0
 10
29.18778087302492
 20
115.6708357874262
 30
0.0
 10
29.33557141979383
 20
115.6864068829713
 30
0.0
 10
29.77963019892352
 20
115.7020751846668
 30
0.0
 10
30.06488248640499
 20
115.6719392142429
 30
0.0
 10
30.3470283869828
 20
115.6316180494504
 30
0.0
  0
LINE
  5
2A1
330
248
100
AcDbEntity
  8
DV3_Standard
  6
Continuous
 62
     7
100
AcDbLine
 10
21.313968387
 20
116.1642993285
 30
0.0
 11
21.313968387
 21
116.2412463634
 31
0.0
  0
SPLINE
  5
2A2
330
248
100
AcDbEntity
  8
DV3_Standard
  6
Continuous
 62
     7
100
AcDbSpline
210
0.0
220
0.0
230
1.0
 70
     8
 71
     3
 72
    18
 73
    14
 74
     0
 42
0.0000000008730711
 43
0.0000000001
 40
0.0
 40
0.0
 40
0.0
 40
0.0
 40
0.1250000000000001
 40
0.1250000000000001
 40
0.2500000000000001
 40
0.2500000000000001
 40
0.5000000000000001
 40
0.5000000000000001
 40
0.7500000000000001
 40
0.7500000000000001
 40
0.875
 40
0.875
 40
1.0
 40
1.0
 40
1.0
 40
1.0
 10
32.49796838698278
 20
116.2417381272734
 30
0.0
 10
32.01961687778248
 20
116.1558718827579
 30
0.0
 10
31.54171265280636
 20
116.1897570628429
 30
0.0
 10
30.61884993770695
 20
116.3304344997537
 30
0.0
 10
30.16701820728783
 20
116.4299659649686
 30
0.0
 10
28.69429887465238
 20
116.4549543030837
 30
0.0
 10
27.82576185106659
 20
116.0109093680076
 30
0.0
 10
25.93216020603308
 20
116.0281620278281
 30
0.0
 10
25.0612957528054
 20
116.4618873281372
 30
0.0
 10
23.62611963684879
 20
116.4251328238346
 30
0.0
 10
23.18027492864046
 20
116.327947929439
 30
0.0
 10
22.2720433952797
 20
116.1898381813173
 30
0.0
 10
21.79171873826528
 20
116.1555270062596
 30
0.0
 10
21.31396838698285
 20
116.2412463634493
 30
0.0
  0
LINE
  5
2A3
330
248
100
AcDbEntity
  8
DV3_Standard
  6
Continuous
 62
     7
100
AcDbLine
 10
32.497968387
 20
116.1647902668
 30
0.0
 11
32.497968387
 21
116.2417381273
 31
0.0
  0
SPLINE
  5
2A4
330
248
100
AcDbEntity
  8
DV3_Standard
  6
Continuous
 62
     7
100
AcDbSpline
210
0.0
220
0.0
230
1.0
 70
     8
 71
     3
 72
    12
 73
     8
 74
     0
 42
0.0000000018067501
 43
0.0000000001
 40
0.0
 40
0.0
 40
0.0
 40
0.0
 40
0.2499999999999998
 40
0.2499999999999998
 40
0.4999999999999997
 40
0.4999999999999997
 40
1.0
 40
1.0
 40
1.0
 40
1.0
 10
26.90596838698281
 20
115.7955400445379
 30
0.0
 10
26.44497717123438
 20
115.7980979246813
 30
0.0
 10
26.00371210867304
 20
115.9033135905005
 30
0.0
 10
25.12227327107751
 20
116.1073588409749
 30
0.0
 10
24.66151291969219
 20
116.2135645853595
 30
0.0
 10
23.2874053638523
 20
116.2096803712155
 30
0.0
 10
22.43718681869452
 20
115.8624508656862
 30
0.0
 10
21.49568267269713
 20
115.9897626287279
 30
0.0
  0
ARC
  5
2A5
330
248
100
AcDbEntity
  8
DV3_Standard
  6
Continuous
 62
     7
100
AcDbCircle
 10
22.2617233349
 20
116.9691675479
 30
0.0
 40
1.243403511279199
100
AcDbArc
 50
220.3391349603
 51
231.9692923289
  0
SPLINE
  5
2A6
330
248
100
AcDbEntity
  8
DV3_Standard
  6
Continuous
 62
     7
100
AcDbSpline
210
0.0
220
0.0
230
1.0
 70
     8
 71
     3
 72
    18
 73
    14
 74
     0
 42
0.0000000008730238
 43
0.0000000001
 40
0.0
 40
0.0
 40
0.0
 40
0.0
 40
0.1249999999999999
 40
0.1249999999999999
 40
0.2499999999999998
 40
0.2499999999999998
 40
0.4999999999999998
 40
0.4999999999999998
 40
0.7499999999999998
 40
0.7499999999999998
 40
0.8749999999999999
 40
0.8749999999999999
 40
1.0
 40
1.0
 40
1.0
 40
1.0
 10
21.31396838698285
 20
116.1642993285344
 30
0.0
 10
21.78471371198894
 20
116.0798919208434
 30
0.0
 10
22.25986170148968
 20
116.1115504435307
 30
0.0
 10
23.17195753381623
 20
116.2495333118019
 30
0.0
 10
23.61943978591111
 20
116.3473439555183
 30
0.0
 10
25.05377520528729
 20
116.3868423505235
 30
0.0
 10
25.926890459469
 20
115.9464481689603
 30
0.0
 10
27.86279815847757
 20
115.9391914288897
 30
0.0
 10
28.74532347695139
 20
116.3837305330108
 30
0.0
 10
30.17791085436025
 20
116.3498050061378
 30
0.0
 10
30.62739434020872
 20
116.2522458451238
 30
0.0
 10
31.5401718144999
 20
116.1132861062572
 30
0.0
 10
32.02882045566083
 20
116.0806310773512
 30
0.0
 10
32.49796838698278
 20
116.1647902667781
 30
0.0
  0
ARC
  5
2A7
330
248
100
AcDbEntity
  8
DV3_Standard
  6
Continuous
 62
     7
100
AcDbCircle
 10
31.5614732617
 20
116.9578466354
 30
0.0
 40
1.22717623980502
100
AcDbArc
 50
307.9559142743
 51
319.7409229989
  0
SPLINE
  5
2A8
330
248
100
AcDbEntity
  8
DV3_Standard
  6
Continuous
 62
     7
100
AcDbSpline
210
0.0
220
0.0
230
1.0
 70
     8
 71
     3
 72
    12
 73
     8
 74
     0
 42
0.0000000018073657
 43
0.0000000001
 40
0.0
 40
0.0
 40
0.0
 40
0.0
 40
0.2499999999999998
 40
0.2499999999999998
 40
0.4999999999999997
 40
0.4999999999999997
 40
1.0
 40
1.0
 40
1.0
 40
1.0
 10
32.31625410126851
 20
115.9902375161178
 30
0.0
 10
31.84938121380657
 20
115.9270648773972
 30
0.0
 10
31.38549835773046
 20
115.9824792649797
 30
0.0
 10
30.49917504585125
 20
116.1242425560906
 30
0.0
 10
30.05979966210449
 20
116.2136080190943
 30
0.0
 10
28.65340769225973
 20
116.2103133465409
 30
0.0
 10
27.81569662402559
 20
115.8006673378536
 30
0.0
 10
26.90596838698281
 20
115.7955400445379
 30
0.0
  0
ARC
  5
2A9
330
248
100
AcDbEntity
  8
DV3_Standard
  6
Continuous
 62
     7
100
AcDbCircle
 10
22.0925608288
 20
118.4601978568
 30
0.0
 40
1.498532850216709
100
AcDbArc
 50
266.118476781
 51
284.202505412
  0
ELLIPSE
  5
2AA
330
248
100
AcDbEntity
  8
DV3_Standard
  6
Continuous
 62
     7
100
AcDbEllipse
 10
26.9025411096
 20
163.3160236144
 30
0.0
 11
-60.08898562967705
 21
-2.388411204923280E-6
 31
0.0
210
0.0
220
0.0
230
1.0
 40
0.7660445616
 41
1.496799837766586
 42
1.506170078462474
  0
LINE
  5
2AB
330
248
100
AcDbEntity
  8
DV3_Standard
  6
Continuous
 62
     7
100
AcDbLine
 10
23.0219198156
 20
116.8194548719
 30
0.0
 11
23.0219198156
 21
117.3812744526
 31
0.0
  0
ARC
  5
2AC
330
248
100
AcDbEntity
  8
DV3_Standard
  6
Continuous
 62
     7
100
AcDbCircle
 10
22.2260509017
 20
119.5500517592
 30
0.0
 40
2.844216357557245
100
AcDbArc
 50
266.0992321851
 51
286.2494681837
  0
SPLINE
  5
2AD
330
248
100
AcDbEntity
  8
DV3_Standard
  6
Continuous
 62
     7
100
AcDbSpline
210
0.0
220
0.0
230
1.0
 70
     8
 71
     3
 72
    14
 73
    10
 74
     0
 42
0.0000000030769005
 43
0.0000000001
 40
0.0
 40
0.0
 40
0.0
 40
0.0
 40
0.25
 40
0.25
 40
0.5
 40
0.5
 40
0.75
 40
0.75
 40
1.0
 40
1.0
 40
1.0
 40
1.0
 10
22.03256267269713
 20
118.17665098627
 30
0.0
 10
21.72200552652966
 20
118.2011580685772
 30
0.0
 10
21.3929332420956
 20
118.177148421978
 30
0.0
 10
20.93627701210581
 20
117.9319539417575
 30
0.0
 10
20.82087701886249
 20
117.7295756008977
 30
0.0
 10
20.81872135811601
 20
117.3180859533058
 30
0.0
 10
20.93208426135402
 20
117.1010598503784
 30
0.0
 10
21.39329032060288
 20
116.7927294656458
 30
0.0
 10
21.72230138044051
 20
116.7268179745458
 30
0.0
 10
22.03256267269713
 20
116.712424406298
 30
0.0
  0
SPLINE
  5
2AE
330
248
100
AcDbEntity
  8
DV3_Standard
  6
Continuous
 62
     7
100
AcDbSpline
210
0.0
220
0.0
230
1.0
 70
     8
 71
     3
 72
    23
 73
    19
 74
     0
 42
0.0000000064082978
 43
0.0000000001
 40
0.0
 40
0.0
 40
0.0
 40
0.0
 40
0.0437247166869536
 40
0.0437247166869536
 40
0.0437247166869536
 40
0.2440238063760489
 40
0.2440238063760489
 40
0.2440238063760489
 40
0.4438538099009413
 40
0.4438538099009413
 40
0.4438538099009413
 40
0.6031979444673792
 40
0.6031979444673792
 40
0.6031979444673792
 40
0.8222712776000045
 40
0.8222712776000045
 40
0.8222712776000045
 40
1.0
 40
1.0
 40
1.0
 40
1.0
 10
20.81969373540468
 20
117.599200186521
 30
0.0
 10
20.81976436326187
 20
117.6171588197924
 30
0.0
 10
20.82057657602318
 20
117.63505030483
 30
0.0
 10
20.82206830170407
 20
117.6528255109939
 30
0.0
 10
20.82888214000733
 20
117.7340183081411
 30
0.0
 10
20.85277701518653
 20
117.8150918969846
 30
0.0
 10
20.89938313745445
 20
117.8879162569008
 30
0.0
 10
20.94601883421228
 20
117.9607868284131
 30
0.0
 10
21.01251260077645
 20
118.0279721089368
 30
0.0
 10
21.09193366336568
 20
118.0858445056528
 30
0.0
 10
21.15481621663082
 20
118.1316656512083
 30
0.0
 10
21.2344406673249
 20
118.1681160340088
 30
0.0
 10
21.32023075430842
 20
118.1940627877323
 30
0.0
 10
21.43831560400291
 20
118.2297769199966
 30
0.0
 10
21.56979798692708
 20
118.2504100727069
 30
0.0
 10
21.70264411269987
 20
118.2581084664444
 30
0.0
 10
21.81109990979425
 20
118.2643934478414
 30
0.0
 10
21.92232044086982
 20
118.2622749156073
 30
0.0
 10
22.03256267269713
 20
118.2535636637588
 30
0.0
  0
ARC
  5
2AF
330
248
100
AcDbEntity
  8
DV3_Standard
  6
Continuous
 62
     7
100
AcDbCircle
 10
21.8383638483
 20
114.9645217116
 30
0.0
 40
3.217994353671589
100
AcDbArc
 50
69.767587028
 51
86.5402245704
  0
LINE
  5
2B0
330
248
100
AcDbEntity
  8
DV3_Standard
  6
Continuous
 62
     7
100
AcDbLine
 10
22.0325626727
 20
118.1766509863
 30
0.0
 11
22.0325626727
 21
118.2535636638
 31
0.0
  0
ARC
  5
2B1
330
248
100
AcDbEntity
  8
DV3_Standard
  6
Continuous
 62
     7
100
AcDbCircle
 10
21.8383974576
 20
115.0431089379
 30
0.0
 40
3.216320829350686
100
AcDbArc
 50
69.757236835
 51
86.5390219905
  0
LINE
  5
2B2
330
248
100
AcDbEntity
  8
DV3_Standard
  6
Continuous
 62
     7
100
AcDbLine
 10
22.9512398156
 20
117.708274293
 30
0.0
 11
22.9512398156
 21
117.9839578745
 31
0.0
  0
LINE
  5
2B3
330
248
100
AcDbEntity
  8
DV3_Standard
  6
Continuous
 62
     7
100
AcDbLine
 10
22.9512398156
 20
117.9839578745
 30
0.0
 11
22.9512398156
 21
118.060773857
 31
0.0
  0
ARC
  5
2B4
330
248
100
AcDbEntity
  8
DV3_Standard
  6
Continuous
 62
     7
100
AcDbCircle
 10
22.0410974364
 20
115.7869599742
 30
0.0
 40
2.125983974942062
100
AcDbArc
 50
64.652700692
 51
86.7861671935
  0
SPLINE
  5
2B5
330
248
100
AcDbEntity
  8
DV3_Standard
  6
Continuous
 62
     7
100
AcDbSpline
210
0.0
220
0.0
230
1.0
 70
     8
 71
     3
 72
    16
 73
    12
 74
     0
 42
0.0000000100709188
 43
0.0000000001
 40
0.0
 40
0.0
 40
0.0
 40
0.0
 40
0.2500000000000048
 40
0.2500000000000048
 40
0.3750000000000068
 40
0.3750000000000068
 40
0.5000000000000088
 40
0.5000000000000088
 40
0.7500000000000044
 40
0.7500000000000044
 40
1.0
 40
1.0
 40
1.0
 40
1.0
 10
21.4006512441257
 20
117.4785426162939
 30
0.0
 10
21.40078906005698
 20
117.5441957712025
 30
0.0
 10
21.41468612687048
 20
117.609095629649
 30
0.0
 10
21.46871487611259
 20
117.6970537399217
 30
0.0
 10
21.49267854684089
 20
117.724912676015
 30
0.0
 10
21.54569153914719
 20
117.777517904008
 30
0.0
 10
21.57520786662515
 20
117.8028590566177
 30
0.0
 10
21.68073994883772
 20
117.8649761878058
 30
0.0
 10
21.77262458790661
 20
117.8894517227539
 30
0.0
 10
21.96244923790807
 20
117.916114488432
 30
0.0
 10
22.06183568262369
 20
117.9172599290061
 30
0.0
 10
22.16028552983998
 20
117.9096003252935
 30
0.0
  0
LINE
  5
2B6
330
248
100
AcDbEntity
  8
DV3_Standard
  6
Continuous
 62
     7
100
AcDbLine
 10
21.9911198156
 20
116.9651024003
 30
0.0
 11
21.9911198156
 21
117.0419662939
 31
0.0
  0
SPLINE
  5
2B7
330
248
100
AcDbEntity
  8
DV3_Standard
  6
Continuous
 62
     7
100
AcDbSpline
210
0.0
220
0.0
230
1.0
 70
     8
 71
     3
 72
    14
 73
    10
 74
     0
 42
0.0000000113744929
 43
0.0000000001
 40
0.0
 40
0.0
 40
0.0
 40
0.0
 40
0.25
 40
0.25
 40
0.5
 40
0.5
 40
0.75
 40
0.75
 40
1.0
 40
1.0
 40
1.0
 40
1.0
 10
21.99111981555424
 20
116.9651024002872
 30
0.0
 10
21.90253283371324
 20
116.9687681997075
 30
0.0
 10
21.81309392907421
 20
116.9848776926459
 30
0.0
 10
21.65174057034434
 20
117.0451170870339
 30
0.0
 10
21.58168002578867
 20
117.0885684677308
 30
0.0
 10
21.48844863819681
 20
117.191439883621
 30
0.0
 10
21.45305709633667
 20
117.2476776049713
 30
0.0
 10
21.40892912438282
 20
117.3617811863348
 30
0.0
 10
21.40074768551659
 20
117.4206730821761
 30
0.0
 10
21.4006512441257
 20
117.4785426162939
 30
0.0
  0
SPLINE
  5
2B8
330
248
100
AcDbEntity
  8
DV3_Standard
  6
Continuous
 62
     7
100
AcDbSpline
210
0.0
220
0.0
230
1.0
 70
     8
 71
     3
 72
    14
 73
    10
 74
     0
 42
0.0000000113736024
 43
0.0000000001
 40
0.0
 40
0.0
 40
0.0
 40
0.0
 40
0.25
 40
0.25
 40
0.5
 40
0.5
 40
0.75
 40
0.75
 40
1.0
 40
1.0
 40
1.0
 40
1.0
 10
21.4006512441257
 20
117.555484885736
 30
0.0
 10
21.40074829933257
 20
117.4972448262948
 30
0.0
 10
21.40877302570281
 20
117.4395185352623
 30
0.0
 10
21.45251047945219
 20
117.3256296111809
 30
0.0
 10
21.48793922340094
 20
117.2688364244974
 30
0.0
 10
21.58266838482434
 20
117.1644774767239
 30
0.0
 10
21.65346723545564
 20
117.1212549305434
 30
0.0
 10
21.81311842499213
 20
117.0618719642239
 30
0.0
 10
21.90211806857481
 20
117.0456586105442
 30
0.0
 10
21.99111981555424
 20
117.0419662938629
 30
0.0
  0
LINE
  5
2B9
330
248
100
AcDbEntity
  8
DV3_Standard
  6
Continuous
 62
     7
100
AcDbLine
 10
22.4602255298
 20
117.4111457736
 30
0.0
 11
22.4602255298
 21
117.487974888
 31
0.0
  0
LINE
  5
2BA
330
248
100
AcDbEntity
  8
DV3_Standard
  6
Continuous
 62
     7
100
AcDbLine
 10
22.4602255298
 20
117.4111457736
 30
0.0
 11
22.4602255298
 21
117.0074682292
 31
0.0
  0
LINE
  5
2BB
330
248
100
AcDbEntity
  8
DV3_Standard
  6
Continuous
 62
     7
100
AcDbLine
 10
24.8674941013
 20
117.1752551775
 30
0.0
 11
24.8843112441
 21
117.1791425426
 31
0.0
  0
SPLINE
  5
2BC
330
248
100
AcDbEntity
  8
DV3_Standard
  6
Continuous
 62
     7
100
AcDbSpline
210
0.0
220
0.0
230
1.0
 70
    12
 71
     2
 72
     6
 73
     3
 74
     0
 42
0.0000000311474614
 43
0.0000000001
 40
0.0
 40
0.0
 40
0.0
 40
1.0
 40
1.0
 40
1.0
 10
24.42789981555423
 20
117.3116189163345
 30
0.0
 41
1.0
 10
24.26744528041059
 20
117.316685195881
 30
0.0
 41
1.0
 10
24.10702838698282
 20
117.3224083888999
 30
0.0
 41
1.0
  0
SPLINE
  5
2BD
330
248
100
AcDbEntity
  8
DV3_Standard
  6
Continuous
 62
     7
100
AcDbSpline
210
0.0
220
0.0
230
1.0
 70
     8
 71
     3
 72
    12
 73
     8
 74
     0
 42
0.0000000222297175
 43
0.0000000001
 40
0.0
 40
0.0
 40
0.0
 40
0.0
 40
0.2500000000000103
 40
0.2500000000000103
 40
0.5000000000000207
 40
0.5000000000000207
 40
1.0
 40
1.0
 40
1.0
 40
1.0
 10
24.39862838698282
 20
117.7549667773278
 30
0.0
 10
24.44270122247411
 20
117.754380065576
 30
0.0
 10
24.48639854234181
 20
117.7492135909376
 30
0.0
 10
24.56952704263597
 20
117.7270227449942
 30
0.0
 10
24.60839971846045
 20
117.7105837411846
 30
0.0
 10
24.69396416738488
 20
117.6416830131526
 30
0.0
 10
24.71983742745013
 20
117.5817595265032
 30
0.0
 10
24.71995410126854
 20
117.5233626694956
 30
0.0
  0
SPLINE
  5
2BE
330
248
100
AcDbEntity
  8
DV3_Standard
  6
Continuous
 62
     7
100
AcDbSpline
210
0.0
220
0.0
230
1.0
 70
     8
 71
     3
 72
    14
 73
    10
 74
     0
 42
0.000000017027356
 43
0.0000000001
 40
0.0
 40
0.0
 40
0.0
 40
0.0
 40
0.25
 40
0.25
 40
0.5
 40
0.5
 40
0.75
 40
0.75
 40
1.0
 40
1.0
 40
1.0
 40
1.0
 10
24.88431124412568
 20
117.1791425425543
 30
0.0
 10
24.94270869186826
 20
117.1931572369989
 30
0.0
 10
24.99836079318598
 20
117.2112944963392
 30
0.0
 10
25.09459703502213
 20
117.2626772877235
 30
0.0
 10
25.13239315370015
 20
117.2950024565049
 30
0.0
 10
25.20038015758965
 20
117.3632604264997
 30
0.0
 10
25.22640200894267
 20
117.3997858174933
 30
0.0
 10
25.25876394738398
 20
117.4785686348514
 30
0.0
 10
25.26539928085625
 20
117.5202103349097
 30
0.0
 10
25.26549981555424
 20
117.5615590137661
 30
0.0
  0
ELLIPSE
  5
2BF
330
248
100
AcDbEntity
  8
DV3_Standard
  6
Continuous
 62
     7
100
AcDbEllipse
 10
26.1672149841
 20
162.1815869548
 30
0.0
 11
28.41122256747636
 21
-52.95182010854196
 31
0.0
210
0.0
220
0.0
230
1.0
 40
0.4908912963
 41
-0.8635652406322736
 42
-0.8452660171777522
  0
LINE
  5
2C0
330
248
100
AcDbEntity
  8
DV3_Standard
  6
Continuous
 62
     7
100
AcDbLine
 10
24.8674941013
 20
117.1752551775
 30
0.0
 11
24.8674941013
 21
117.1923490619
 31
0.0
  0
ELLIPSE
  5
2C1
330
248
100
AcDbEntity
  8
DV3_Standard
  6
Continuous
 62
     7
100
AcDbEllipse
 10
26.1672149319
 20
162.181584361
 30
0.0
 11
28.36393710521731
 21
-52.86368882843472
 31
0.0
210
0.0
220
0.0
230
0.9999999999999999
 40
0.4908912944
 41
-0.8617890900135992
 42
-0.8452918140457673
  0
ELLIPSE
  5
2C2
330
248
100
AcDbEntity
  8
DV3_Standard
  6
Continuous
 62
     7
100
AcDbEllipse
 10
26.9025405872
 20
162.6400070299
 30
0.0
 11
-60.09993170422884
 21
-1.432272564438897E-6
 31
0.0
210
0.0
220
0.0
230
1.0
 40
0.766044619
 41
1.537126573151064
 42
1.548654646820068
  0
LINE
  5
2C3
330
248
100
AcDbEntity
  8
DV3_Standard
  6
Continuous
 62
     7
100
AcDbLine
 10
25.5719369584
 20
116.6120627126
 30
0.0
 11
25.5719369584
 21
116.6886860748
 31
0.0
  0
LINE
  5
2C4
330
248
100
AcDbEntity
  8
DV3_Standard
  6
Continuous
 62
     7
100
AcDbLine
 10
24.107028387
 20
117.3224083889
 30
0.0
 11
24.107028387
 21
117.3991096324
 31
0.0
  0
ARC
  5
2C5
330
248
100
AcDbEntity
  8
DV3_Standard
  6
Continuous
 62
     7
100
AcDbCircle
 10
70.3110025695
 20
167.8521443433
 30
0.0
 40
68.46941978635851
100
AcDbArc
 50
227.5604608919
 51
228.4302224983
  0
LINE
  5
2C6
330
248
100
AcDbEntity
  8
DV3_Standard
  6
Continuous
 62
     7
100
AcDbLine
 10
24.1954969863
 20
117.3194335852
 30
0.0
 11
24.107028848
 21
117.3991098428
 31
0.0
  0
SPLINE
  5
2C7
330
248
100
AcDbEntity
  8
DV3_Standard
  6
Continuous
 62
     7
100
AcDbSpline
210
0.0
220
0.0
230
1.0
 70
     8
 71
     3
 72
    12
 73
     8
 74
     0
 42
0.0000000242957432
 43
0.0000000001
 40
0.0
 40
0.0
 40
0.0
 40
0.0
 40
0.2500000000000046
 40
0.2500000000000046
 40
0.5000000000000091
 40
0.5000000000000091
 40
1.0
 40
1.0
 40
1.0
 40
1.0
 10
24.71995410126854
 20
117.5233626694956
 30
0.0
 10
24.71989924375403
 20
117.4959087812304
 30
0.0
 10
24.71515070177488
 20
117.4684119182714
 30
0.0
 10
24.69050309742318
 20
117.4173186400454
 30
0.0
 10
24.67109681292936
 20
117.3930327118889
 30
0.0
 10
24.59571007405764
 20
117.3291901992687
 30
0.0
 10
24.51033615962689
 20
117.3114489036424
 30
0.0
 10
24.42789981555423
 20
117.3116189163345
 30
0.0
  0
LINE
  5
2C8
330
248
100
AcDbEntity
  8
DV3_Standard
  6
Continuous
 62
     7
100
AcDbLine
 10
24.4278998156
 20
117.3116189163
 30
0.0
 11
24.4278998156
 21
117.3883021361
 31
0.0
  0
SPLINE
  5
2C9
330
248
100
AcDbEntity
  8
DV3_Standard
  6
Continuous
 62
     7
100
AcDbSpline
210
0.0
220
0.0
230
1.0
 70
     8
 71
     3
 72
    14
 73
    10
 74
     0
 42
0.0000000303103921
 43
0.0000000001
 40
0.0
 40
0.0
 40
0.0
 40
0.0
 40
0.3253311724757778
 40
0.3253311724757778
 40
0.6506623449515555
 40
0.6506623449515555
 40
0.9759935174273333
 40
0.9759935174273333
 40
0.9999999999999999
 40
0.9999999999999999
 40
0.9999999999999999
 40
0.9999999999999999
 10
24.42789981555423
 20
117.3883021361215
 30
0.0
 10
24.46956918045927
 20
117.3882140470523
 30
0.0
 10
24.51048837214588
 20
117.3926224031351
 30
0.0
 10
24.58653978606409
 20
117.4122837088666
 30
0.0
 10
24.6214454755196
 20
117.427604696352
 30
0.0
 10
24.67085469946918
 20
117.469557600161
 30
0.0
 10
24.69026894570908
 20
117.4936593724695
 30
0.0
 10
24.70357833765314
 20
117.5210880032569
 30
0.0
 10
24.70445182484046
 20
117.5229844734456
 30
0.0
 10
24.70528529047418
 20
117.5248916461639
 30
0.0
  0
SPLINE
  5
2CA
330
248
100
AcDbEntity
  8
DV3_Standard
  6
Continuous
 62
     7
100
AcDbSpline
210
0.0
220
0.0
230
1.0
 70
    12
 71
     2
 72
     6
 73
     3
 74
     0
 42
0.0000000276226347
 43
0.0000000001
 40
0.0
 40
0.0
 40
0.0
 40
1.0
 40
1.0
 40
1.0
 10
24.03681981555424
 20
117.7673662721092
 30
0.0
 41
1.0
 10
24.21769970487803
 20
117.7607487824998
 30
0.0
 41
1.0
 10
24.39862838698282
 20
117.7549667773278
 30
0.0
 41
1.0
  0
LINE
  5
2CB
330
248
100
AcDbEntity
  8
DV3_Standard
  6
Continuous
 62
     7
100
AcDbLine
 10
24.0368198156
 20
116.6531455883
 30
0.0
 11
24.0368198156
 21
117.7673662721
 31
0.0
  0
ELLIPSE
  5
2CC
330
248
100
AcDbEntity
  8
DV3_Standard
  6
Continuous
 62
     7
100
AcDbEllipse
 10
26.9025394197
 20
162.6399801674
 30
0.0
 11
-60.09991413942142
 21
7.495003437330006E-7
 31
0.0
210
0.0
220
0.0
230
1.0
 40
0.7660443959
 41
1.513789778325058
 42
1.52309565842757
  0
LINE
  5
2CD
330
248
100
AcDbEntity
  8
DV3_Standard
  6
Continuous
 62
     7
100
AcDbLine
 10
23.4783055298
 20
118.0585332721
 30
0.0
 11
23.4783055298
 21
116.6755654031
 31
0.0
  0
ELLIPSE
  5
2CE
330
248
100
AcDbEntity
  8
DV3_Standard
  6
Continuous
 62
     7
100
AcDbEllipse
 10
26.9025403171
 20
163.9920406182
 30
0.0
 11
-60.05962411058881
 21
-9.290318514487694E-7
 31
0.0
210
0.0
220
0.0
230
1.0
 40
0.766044509
 41
1.513751458504886
 42
1.530755815937253
  0
LINE
  5
2CF
330
248
100
AcDbEntity
  8
DV3_Standard
  6
Continuous
 62
     7
100
AcDbLine
 10
23.4783055298
 20
118.0585332721
 30
0.0
 11
23.4783055298
 21
118.1353144094
 31
0.0
  0
ELLIPSE
  5
2D0
330
248
100
AcDbEntity
  8
DV3_Standard
  6
Continuous
 62
     7
100
AcDbEllipse
 10
26.9025399358
 20
163.9920346046
 30
0.0
 11
-59.95955282453394
 21
-2.199839199690246E-7
 31
0.0
210
0.0
220
0.0
230
1.0
 40
0.7660444592
 41
1.513656163532833
 42
1.53068896872966
  0
LINE
  5
2D1
330
248
100
AcDbEntity
  8
DV3_Standard
  6
Continuous
 62
     7
100
AcDbLine
 10
25.2654998156
 20
117.5615590138
 30
0.0
 11
25.2654998156
 21
117.6382172999
 31
0.0
  0
SPLINE
  5
2D2
330
248
100
AcDbEntity
  8
DV3_Standard
  6
Continuous
 62
     7
100
AcDbSpline
210
0.0
220
0.0
230
1.0
 70
     8
 71
     3
 72
    18
 73
    14
 74
     0
 42
0.0000000100771464
 43
0.0000000001
 40
0.0
 40
0.0
 40
0.0
 40
0.0
 40
0.2499999999999822
 40
0.2499999999999822
 40
0.3749999999999843
 40
0.3749999999999843
 40
0.4999999999999866
 40
0.4999999999999866
 40
0.6249999999999888
 40
0.6249999999999888
 40
0.7499999999999915
 40
0.7499999999999915
 40
1.0
 40
1.0
 40
1.0
 40
1.0
 10
25.26549981555424
 20
117.5615590137661
 30
0.0
 10
25.26534464211753
 20
117.6253892663913
 30
0.0
 10
25.24895398952481
 20
117.6896700035819
 30
0.0
 10
25.1885131263807
 20
117.777415709717
 30
0.0
 10
25.16298350080947
 20
117.8047709804463
 30
0.0
 10
25.10695618212172
 20
117.8577796325808
 30
0.0
 10
25.07537059829583
 20
117.8828175207726
 30
0.0
 10
25.00177614630807
 20
117.924498664691
 30
0.0
 10
24.95954199577194
 20
117.9417491460525
 30
0.0
 10
24.87318422973851
 20
117.9705562083206
 30
0.0
 10
24.82837479049339
 20
117.9822293711642
 30
0.0
 10
24.68976264332625
 20
118.0102614134553
 30
0.0
 10
24.59419291855756
 20
118.0191172598222
 30
0.0
 10
24.49836552983997
 20
118.0205716565618
 30
0.0
  0
LINE
  5
2D3
330
248
100
AcDbEntity
  8
DV3_Standard
  6
Continuous
 62
     7
100
AcDbLine
 10
24.4983655298
 20
118.0205716566
 30
0.0
 11
24.4983655298
 21
118.0972892847
 31
0.0
  0
SPLINE
  5
2D4
330
248
100
AcDbEntity
  8
DV3_Standard
  6
Continuous
 62
     7
100
AcDbSpline
210
0.0
220
0.0
230
1.0
 70
     8
 71
     3
 72
    16
 73
    12
 74
     0
 42
0.0000000100669595
 43
0.0000000001
 40
0.0
 40
0.0
 40
0.0
 40
0.0
 40
0.2500000000000002
 40
0.2500000000000002
 40
0.5000000000000004
 40
0.5000000000000004
 40
0.6250000000000003
 40
0.6250000000000003
 40
0.7500000000000002
 40
0.7500000000000002
 40
1.0
 40
1.0
 40
1.0
 40
1.0
 10
24.49836552983997
 20
118.0972892846885
 30
0.0
 10
24.59434038282296
 20
118.0958278306308
 30
0.0
 10
24.68865028318824
 20
118.0870844352058
 30
0.0
 10
24.87282190505213
 20
118.0500460400208
 30
0.0
 10
24.96410423836979
 20
118.0225831233579
 30
0.0
 10
25.07616975411423
 20
117.9590196834202
 30
0.0
 10
25.10719984915855
 20
117.9342493680376
 30
0.0
 10
25.16313616837501
 20
117.8812819426834
 30
0.0
 10
25.18890371389043
 20
117.8535934268727
 30
0.0
 10
25.24888262904916
 20
117.7662936387251
 30
0.0
 10
25.2653450894477
 20
117.7018667071855
 30
0.0
 10
25.26549981555424
 20
117.6382172998902
 30
0.0
  0
SPLINE
  5
2D5
330
248
100
AcDbEntity
  8
DV3_Standard
  6
Continuous
 62
     7
100
AcDbSpline
210
0.0
220
0.0
230
1.0
 70
     8
 71
     3
 72
    16
 73
    12
 74
     0
 42
0.0000000107418753
 43
0.0000000001
 40
0.0
 40
0.0
 40
0.0
 40
0.0
 40
0.2064284197643589
 40
0.2064284197643589
 40
0.3386903498036324
 40
0.3386903498036324
 40
0.4709522798429059
 40
0.4709522798429059
 40
0.7354761399214529
 40
0.7354761399214529
 40
1.0
 40
1.0
 40
1.0
 40
1.0
 10
26.18629592263229
 20
117.3232002483946
 30
0.0
 10
26.1906770261843
 20
117.2738301130425
 30
0.0
 10
26.20326097360318
 20
117.2253870024346
 30
0.0
 10
26.24434579113086
 20
117.1481237003666
 30
0.0
 10
26.26550927148103
 20
117.1193135576847
 30
0.0
 10
26.31331482496977
 20
117.0644826320445
 30
0.0
 10
26.33903894238868
 20
117.037812565085
 30
0.0
 10
26.43620617531701
 20
116.9656470155907
 30
0.0
 10
26.52396924966195
 20
116.9330067150754
 30
0.0
 10
26.70680248747264
 20
116.8914933911185
 30
0.0
 10
26.80479212534535
 20
116.8831314301758
 30
0.0
 10
26.90253981555424
 20
116.8848654379911
 30
0.0
  0
SPLINE
  5
2D6
330
248
100
AcDbEntity
  8
DV3_Standard
  6
Continuous
 62
     7
100
AcDbSpline
210
0.0
220
0.0
230
1.0
 70
     8
 71
     3
 72
    16
 73
    12
 74
     0
 42
0.0000000102691889
 43
0.0000000001
 40
0.0
 40
0.0
 40
0.0
 40
0.0
 40
0.2500000000000087
 40
0.2500000000000087
 40
0.5000000000000174
 40
0.5000000000000174
 40
0.6250000000000218
 40
0.6250000000000218
 40
0.7500000000000262
 40
0.7500000000000262
 40
1.0
 40
1.0
 40
1.0
 40
1.0
 10
26.90253981555424
 20
116.8082591156133
 30
0.0
 10
26.8055421753955
 20
116.8065384371237
 30
0.0
 10
26.7079259063021
 20
116.8147131543053
 30
0.0
 10
26.52446636756533
 20
116.856204559474
 30
0.0
 10
26.43703276584572
 20
116.8887914434456
 30
0.0
 10
26.34039807639054
 20
116.9600118366848
 30
0.0
 10
26.31379688500908
 20
116.9873513146098
 30
0.0
 10
26.2656756126379
 20
117.0424733176221
 30
0.0
 10
26.24465738434586
 20
117.0710332215896
 30
0.0
 10
26.19638090625069
 20
117.1614855366328
 30
0.0
 10
26.18457875254982
 20
117.2255032977898
 30
0.0
 10
26.18445124412567
 20
117.2884699666935
 30
0.0
  0
SPLINE
  5
2D7
330
248
100
AcDbEntity
  8
DV3_Standard
  6
Continuous
 62
     7
100
AcDbSpline
210
0.0
220
0.0
230
1.0
 70
     8
 71
     3
 72
    16
 73
    12
 74
     0
 42
0.0000000102692729
 43
0.0000000001
 40
0.0
 40
0.0
 40
0.0
 40
0.0
 40
0.2499999999999687
 40
0.2499999999999687
 40
0.3749999999999706
 40
0.3749999999999706
 40
0.4999999999999725
 40
0.4999999999999725
 40
0.7499999999999862
 40
0.7499999999999862
 40
1.0
 40
1.0
 40
1.0
 40
1.0
 10
27.62061981555424
 20
117.2884698882208
 30
0.0
 10
27.62049094039439
 20
117.2248282929942
 30
0.0
 10
27.60820193716892
 20
117.1603124830298
 30
0.0
 10
27.56019516563213
 20
117.0707470029553
 30
0.0
 10
27.539095036102
 20
117.0420686775445
 30
0.0
 10
27.49053027640717
 20
116.9865494424703
 30
0.0
 10
27.46437223186924
 20
116.9596790126715
 30
0.0
 10
27.36655286929666
 20
116.8879128462594
 30
0.0
 10
27.2792066849184
 20
116.8558095394807
 30
0.0
 10
27.09697882120867
 20
116.8147524995454
 30
0.0
 10
26.99907850090414
 20
116.8065465786998
 30
0.0
 10
26.90253981555424
 20
116.8082591156133
 30
0.0
  0
LINE
  5
2D8
330
248
100
AcDbEntity
  8
DV3_Standard
  6
Continuous
 62
     7
100
AcDbLine
 10
26.9025398156
 20
116.8082591156
 30
0.0
 11
26.9025398156
 21
116.884865438
 31
0.0
  0
SPLINE
  5
2D9
330
248
100
AcDbEntity
  8
DV3_Standard
  6
Continuous
 62
     7
100
AcDbSpline
210
0.0
220
0.0
230
1.0
 70
     8
 71
     3
 72
    16
 73
    12
 74
     0
 42
0.0000000106707482
 43
0.0000000001
 40
0.0
 40
0.0
 40
0.0
 40
0.0
 40
0.2621864329853363
 40
0.2621864329853363
 40
0.5243728659706726
 40
0.5243728659706726
 40
0.6554660824633407
 40
0.6554660824633407
 40
0.786559298956009
 40
0.786559298956009
 40
1.0
 40
1.0
 40
1.0
 40
1.0
 10
26.90253981555424
 20
116.8848654379911
 30
0.0
 10
26.99992723963463
 20
116.8831378211635
 30
0.0
 10
27.09726612775943
 20
116.8913558961944
 30
0.0
 10
27.28028861638384
 20
116.932730307118
 30
0.0
 10
27.36741553804972
 20
116.9651119622979
 30
0.0
 10
27.46415427988471
 20
117.0361532207313
 30
0.0
 10
27.49067033678657
 20
117.0633361133968
 30
0.0
 10
27.53869730466914
 20
117.1182157913503
 30
0.0
 10
27.5597594727349
 20
117.1466588614904
 30
0.0
 10
27.60227708641288
 20
117.2257029972766
 30
0.0
 10
27.61525762955731
 20
117.2772370032851
 30
0.0
 10
27.61924396509978
 20
117.3293349771728
 30
0.0
  0
ARC
  5
2DA
330
248
100
AcDbEntity
  8
DV3_Standard
  6
Continuous
 62
     7
100
AcDbCircle
 10
26.8973292805
 20
116.1053168108
 30
0.0
 40
1.947902572654028
100
AcDbArc
 50
59.0152439473
 51
102.7953549896
  0
ARC
  5
2DB
330
248
100
AcDbEntity
  8
DV3_Standard
  6
Continuous
 62
     7
100
AcDbCircle
 10
26.9039478177
 20
116.2233699019
 30
0.0
 40
1.909066582718767
100
AcDbArc
 50
58.5458663226
 51
103.264202944
  0
SPLINE
  5
2DC
330
248
100
AcDbEntity
  8
DV3_Standard
  6
Continuous
 62
     7
100
AcDbSpline
210
0.0
220
0.0
230
1.0
 70
     8
 71
     3
 72
    12
 73
     8
 74
     0
 42
0.0000000029145488
 43
0.0000000001
 40
0.0
 40
0.0
 40
0.0
 40
0.0
 40
0.5
 40
0.5
 40
0.75
 40
0.75
 40
1.0
 40
1.0
 40
1.0
 40
1.0
 10
27.33915124412567
 20
116.582864362643
 30
0.0
 10
26.72586265840807
 20
116.4535213697947
 30
0.0
 10
25.97532065756468
 20
116.6232643695649
 30
0.0
 10
25.57104252081707
 20
117.2035125626774
 30
0.0
 10
25.58428057032504
 20
117.4348906606477
 30
0.0
 10
25.88650951264327
 20
117.8051232444281
 30
0.0
 10
26.16028153106074
 20
117.9410987837966
 30
0.0
 10
26.46592838698281
 20
118.0048477270257
 30
0.0
  0
SPLINE
  5
2DD
330
248
100
AcDbEntity
  8
DV3_Standard
  6
Continuous
 62
     7
100
AcDbSpline
210
0.0
220
0.0
230
1.0
 70
     8
 71
     3
 72
    20
 73
    16
 74
     0
 42
0.0000000080004141
 43
0.0000000001
 40
0.0
 40
0.0
 40
0.0
 40
0.0
 40
0.286223529362908
 40
0.286223529362908
 40
0.286223529362908
 40
0.5742159799821166
 40
0.5742159799821166
 40
0.5742159799821166
 40
0.8352996369059053
 40
0.8352996369059053
 40
0.8352996369059053
 40
0.9490987649090717
 40
0.9490987649090717
 40
0.9490987649090717
 40
0.9999999999999999
 40
0.9999999999999999
 40
0.9999999999999999
 40
0.9999999999999999
 10
26.46592838698281
 20
118.0815071938365
 30
0.0
 10
26.3259367268663
 20
118.0523082302424
 30
0.0
 10
26.19108572464578
 20
118.0079492130046
 30
0.0
 10
26.07317577645091
 20
117.9505618333714
 30
0.0
 10
25.95484764497703
 20
117.8929709217805
 30
0.0
 10
25.85015131942056
 20
117.820271943177
 30
0.0
 10
25.77211518920102
 20
117.7382512073834
 30
0.0
 10
25.70131080411408
 20
117.6638314771135
 30
0.0
 10
25.65041748626697
 20
117.5792787371956
 30
0.0
 10
25.62650999713053
 20
117.4928192101039
 30
0.0
 10
25.61593494707288
 20
117.4545753852615
 30
0.0
 10
25.61037504726195
 20
117.4155674216329
 30
0.0
 10
25.61000545175828
 20
117.3766639598288
 30
0.0
 10
25.60983966562177
 20
117.3592133832794
 30
0.0
 10
25.61071078269214
 20
117.3417403507898
 30
0.0
 10
25.6126124230531
 20
117.3243242801435
 30
0.0
  0
SPLINE
  5
2DE
330
248
100
AcDbEntity
  8
DV3_Standard
  6
Continuous
 62
     7
100
AcDbSpline
210
0.0
220
0.0
230
1.0
 70
     8
 71
     3
 72
    26
 73
    22
 74
     0
 42
0.0000000055772298
 43
0.0000000001
 40
0.0
 40
0.0
 40
0.0
 40
0.0
 40
0.0230312739780804
 40
0.0230312739780804
 40
0.0230312739780804
 40
0.1761371135181744
 40
0.1761371135181744
 40
0.1761371135181744
 40
0.3280542903031421
 40
0.3280542903031421
 40
0.3280542903031421
 40
0.4800030890796434
 40
0.4800030890796434
 40
0.4800030890796434
 40
0.6466504027493917
 40
0.6466504027493917
 40
0.6466504027493917
 40
0.822120618685006
 40
0.822120618685006
 40
0.822120618685006
 40
1.0
 40
1.0
 40
1.0
 40
1.0
 10
27.90012900642025
 20
117.7752620621185
 30
0.0
 10
27.91214725334702
 20
117.7667689681031
 30
0.0
 10
27.92387945696588
 20
117.7580973827487
 30
0.0
 10
27.93530328852071
 20
117.7492576544223
 30
0.0
 10
28.01039708667946
 20
117.6911502872456
 30
0.0
 10
28.072917485811
 20
117.6247250320489
 30
0.0
 10
28.11699190875017
 20
117.5541727684459
 30
0.0
 10
28.16067795503883
 20
117.4842421999213
 30
0.0
 10
28.18718033365083
 20
117.4084772753102
 30
0.0
 10
28.1935348392906
 20
117.3328877854888
 30
0.0
 10
28.19988927669074
 20
117.2572991074063
 30
0.0
 10
28.1862327841817
 20
117.1798936156719
 30
0.0
 10
28.15414067875412
 20
117.1070603141519
 30
0.0
 10
28.11899907974334
 20
117.0273061614547
 30
0.0
 10
28.06079069875705
 20
116.9507268471014
 30
0.0
 10
27.98635590560204
 20
116.8835685132746
 30
0.0
 10
27.90793455688462
 20
116.812813334237
 30
0.0
 10
27.8094616352453
 20
116.7503975513989
 30
0.0
 10
27.70046709892514
 20
116.7001806866398
 30
0.0
 10
27.59040882921497
 20
116.6494737298303
 30
0.0
 10
27.46699851528471
 20
116.6098284473779
 30
0.0
 10
27.33915124412567
 20
116.582864362643
 30
0.0
  0
SPLINE
  5
2DF
330
248
100
AcDbEntity
  8
DV3_Standard
  6
Continuous
 62
     7
100
AcDbSpline
210
0.0
220
0.0
230
1.0
 70
     8
 71
     3
 72
    14
 73
    10
 74
     0
 42
0.0000000170053152
 43
0.0000000001
 40
0.0
 40
0.0
 40
0.0
 40
0.0
 40
0.2274254051664807
 40
0.2274254051664807
 40
0.2274254051664807
 40
0.6559691023214703
 40
0.6559691023214703
 40
0.6559691023214703
 40
1.0
 40
1.0
 40
1.0
 40
1.0
 10
28.19494316960138
 20
117.3724435471235
 30
0.0
 10
28.19494270153297
 20
117.4126656381059
 30
0.0
 10
28.18954695355728
 20
117.4528745032076
 30
0.0
 10
28.17876101971252
 20
117.4921173657368
 30
0.0
 10
28.15839677254387
 20
117.5662093603338
 30
0.0
 10
28.11843118356719
 20
117.6388285786879
 30
0.0
 10
28.06306219190376
 20
117.7046453805947
 30
0.0
 10
28.01837196741149
 20
117.7577683933896
 30
0.0
 10
27.96302276262412
 20
117.8074673824644
 30
0.0
 10
27.90012900642025
 20
117.8519147298211
 30
0.0
  0
SPLINE
  5
2E0
330
248
100
AcDbEntity
  8
DV3_Standard
  6
Continuous
 62
     7
100
AcDbSpline
210
0.0
220
0.0
230
1.0
 70
     8
 71
     3
 72
    16
 73
    12
 74
     0
 42
0.0000000102638628
 43
0.0000000001
 40
0.0
 40
0.0
 40
0.0
 40
0.0
 40
0.250000000000008
 40
0.250000000000008
 40
0.3750000000000008
 40
0.3750000000000008
 40
0.4999999999999937
 40
0.4999999999999937
 40
0.7499999999999968
 40
0.7499999999999968
 40
1.0
 40
1.0
 40
1.0
 40
1.0
 10
26.18445124412567
 20
117.2884699666935
 30
0.0
 10
26.18458009288095
 20
117.3520961634662
 30
0.0
 10
26.19686043999923
 20
117.4167448949929
 30
0.0
 10
26.24487571566923
 20
117.5064969575495
 30
0.0
 10
26.26596183533556
 20
117.5352001985017
 30
0.0
 10
26.31452573056363
 20
117.5908629389712
 30
0.0
 10
26.34067947974592
 20
117.6178463048825
 30
0.0
 10
26.43840032236074
 20
117.6897465390499
 30
0.0
 10
26.5258186806518
 20
117.7217639343218
 30
0.0
 10
26.70809075570087
 20
117.7626051347706
 30
0.0
 10
26.80595205539668
 20
117.7706766468015
 30
0.0
 10
26.90253981555424
 20
117.7689139748759
 30
0.0
  0
SPLINE
  5
2E1
330
248
100
AcDbEntity
  8
DV3_Standard
  6
Continuous
 62
     7
100
AcDbSpline
210
0.0
220
0.0
230
1.0
 70
     8
 71
     3
 72
    16
 73
    12
 74
     0
 42
0.0000000103519955
 43
0.0000000001
 40
0.0
 40
0.0
 40
0.0
 40
0.0
 40
0.2500000000000204
 40
0.2500000000000204
 40
0.3750000000000259
 40
0.3750000000000259
 40
0.5000000000000313
 40
0.5000000000000313
 40
0.7500000000000157
 40
0.7500000000000157
 40
1.0
 40
1.0
 40
1.0
 40
1.0
 10
26.90253981555424
 20
117.7689139748759
 30
0.0
 10
26.99909243394821
 20
117.7706760054842
 30
0.0
 10
27.09577530304194
 20
117.7609092859058
 30
0.0
 10
27.22764871402171
 20
117.7236294845646
 30
0.0
 10
27.26895392669626
 20
117.7077501257707
 30
0.0
 10
27.34897048935141
 20
117.6726603313318
 30
0.0
 10
27.38700463630549
 20
117.6534399853125
 30
0.0
 10
27.48855019563592
 20
117.5877988104273
 30
0.0
 10
27.54272255136189
 20
117.5336179717047
 30
0.0
 10
27.60867788594523
 20
117.4158490212191
 30
0.0
 10
27.62049141111309
 20
117.3518766803371
 30
0.0
 10
27.62061981555424
 20
117.2884698882208
 30
0.0
  0
LINE
  5
2E2
330
248
100
AcDbEntity
  8
DV3_Standard
  6
Continuous
 62
     7
100
AcDbLine
 10
30.1017055298
 20
117.2466847579
 30
0.0
 11
30.1017055298
 21
116.6660504415
 31
0.0
  0
LINE
  5
2E3
330
248
100
AcDbEntity
  8
DV3_Standard
  6
Continuous
 62
     7
100
AcDbLine
 10
29.131968387
 20
116.6324651542
 30
0.0
 11
29.131968387
 21
117.213094922
 31
0.0
  0
ELLIPSE
  5
2E4
330
248
100
AcDbEntity
  8
DV3_Standard
  6
Continuous
 62
     7
100
AcDbEllipse
 10
26.9025390367
 20
162.6400041184
 30
0.0
 11
60.09992980656564
 21
-1.394799817311387E-6
 31
0.0
210
0.0
220
0.0
230
1.0
 40
0.7660445947
 41
4.740440833052824
 42
4.749492884667164
  0
ELLIPSE
  5
2E5
330
248
100
AcDbEntity
  8
DV3_Standard
  6
Continuous
 62
     7
100
AcDbEllipse
 10
26.902536929
 20
163.9921003563
 30
0.0
 11
60.05966315420853
 21
-5.341282388604540E-6
 31
0.0
210
0.0
220
0.0
230
0.9999999999999999
 40
0.7660450057
 41
4.740459730637799
 42
4.749517857651834
  0
LINE
  5
2E6
330
248
100
AcDbEntity
  8
DV3_Standard
  6
Continuous
 62
     7
100
AcDbLine
 10
29.131968387
 20
117.4987905444
 30
0.0
 11
29.131968387
 21
118.0154040366
 31
0.0
  0
LINE
  5
2E7
330
248
100
AcDbEntity
  8
DV3_Standard
  6
Continuous
 62
     7
100
AcDbLine
 10
30.1017055298
 20
118.0490119067
 30
0.0
 11
30.1017055298
 21
117.532385277
 31
0.0
  0
LINE
  5
2E8
330
248
100
AcDbEntity
  8
DV3_Standard
  6
Continuous
 62
     7
100
AcDbLine
 10
30.6488712441
 20
116.6903111274
 30
0.0
 11
30.6488712441
 21
118.073288926
 31
0.0
  0
ELLIPSE
  5
2E9
330
248
100
AcDbEntity
  8
DV3_Standard
  6
Continuous
 62
     7
100
AcDbEllipse
 10
26.9025400179
 20
162.6399832849
 30
0.0
 11
60.09991618055945
 21
3.870916365222854E-7
 31
0.0
210
0.0
220
0.0
230
1.0
 40
0.7660444217
 41
-1.517540379649796
 42
-1.508420843091921
  0
ELLIPSE
  5
2EA
330
248
100
AcDbEntity
  8
DV3_Standard
  6
Continuous
 62
     7
100
AcDbEllipse
 10
26.9025396631
 20
163.2143926741
 30
0.0
 11
60.09179826862336
 21
-2.824991490735229E-7
 31
0.0
210
0.0
220
0.0
230
1.0
 40
0.7660444648
 41
4.749497883210147
 42
4.765652143233978
  0
LINE
  5
2EB
330
248
100
AcDbEntity
  8
DV3_Standard
  6
Continuous
 62
     7
100
AcDbLine
 10
28.5882312441
 20
118.0018205661
 30
0.0
 11
28.5882312441
 21
118.0785068628
 31
0.0
  0
LINE
  5
2EC
330
248
100
AcDbEntity
  8
DV3_Standard
  6
Continuous
 62
     7
100
AcDbLine
 10
28.5882312441
 20
118.0018205661
 30
0.0
 11
28.5882312441
 21
116.6188908017
 31
0.0
  0
ELLIPSE
  5
2ED
330
248
100
AcDbEntity
  8
DV3_Standard
  6
Continuous
 62
     7
100
AcDbEllipse
 10
26.9025394577
 20
163.4933916086
 30
0.0
 11
60.08306017336134
 21
-6.652547124286201E-7
 31
0.0
210
0.0
220
0.0
230
1.0
 40
0.766044493
 41
4.749503290872099
 42
4.76565990512653
  0
ELLIPSE
  5
2EE
330
248
100
AcDbEntity
  8
DV3_Standard
  6
Continuous
 62
     7
100
AcDbEllipse
 10
26.9025398431
 20
163.4933851081
 30
0.0
 11
59.98302767004267
 21
4.613835702382829E-8
 31
0.0
210
0.0
220
0.0
230
1.0
 40
0.7660444391
 41
4.749565198660296
 42
4.76574881281002
  0
LINE
  5
2EF
330
248
100
AcDbEntity
  8
DV3_Standard
  6
Continuous
 62
     7
100
AcDbLine
 10
30.6488712441
 20
118.073288926
 30
0.0
 11
30.6488712441
 21
118.1500947777
 31
0.0
  0
ELLIPSE
  5
2F0
330
248
100
AcDbEntity
  8
DV3_Standard
  6
Continuous
 62
     7
100
AcDbEllipse
 10
26.9025418725
 20
163.9920057646
 30
0.0
 11
60.05960125379239
 21
3.815178305222044E-6
 31
0.0
210
0.0
220
0.0
230
1.0
 40
0.7660442203
 41
-1.517504672445589
 42
-1.508378993855905
  0
LINE
  5
2F1
330
248
100
AcDbEntity
  8
DV3_Standard
  6
Continuous
 62
     7
100
AcDbLine
 10
30.1017055298
 20
118.0490119067
 30
0.0
 11
30.1017055298
 21
118.125777105
 31
0.0
  0
ELLIPSE
  5
2F2
330
248
100
AcDbEntity
  8
DV3_Standard
  6
Continuous
 62
     7
100
AcDbEllipse
 10
26.9025454776
 20
163.9919576381
 30
0.0
 11
59.95950233892552
 21
1.051345467628639E-5
 31
0.0
210
0.0
220
0.0
230
1.0
 40
0.7660438205
 41
-1.517415766374858
 42
-1.508274801682617
  0
ELLIPSE
  5
2F3
330
248
100
AcDbEntity
  8
DV3_Standard
  6
Continuous
 62
     7
100
AcDbEllipse
 10
26.9025397552
 20
162.8984641237
 30
0.0
 11
59.99790465795517
 21
-1.124481341374661E-7
 31
0.0
210
0.0
220
0.0
230
1.0
 40
0.7660444472
 41
-1.489296573941509
 42
-1.472011293191934
  0
LINE
  5
2F4
330
248
100
AcDbEntity
  8
DV3_Standard
  6
Continuous
 62
     7
100
AcDbLine
 10
32.8197998156
 20
117.0844934161
 30
0.0
 11
32.8197998156
 21
117.1614752131
 31
0.0
  0
ELLIPSE
  5
2F5
330
248
100
AcDbEntity
  8
DV3_Standard
  6
Continuous
 62
     7
100
AcDbEllipse
 10
26.9025398639
 20
163.4810767245
 30
0.0
 11
59.9834802103608
 21
9.697093128480105E-8
 31
0.0
210
0.0
220
0.0
230
1.0
 40
0.7660444398
 41
-1.489276936366304
 42
-1.476745018562449
  0
LINE
  5
2F6
330
248
100
AcDbEntity
  8
DV3_Standard
  6
Continuous
 62
     7
100
AcDbLine
 10
32.5357512441
 20
117.6571792114
 30
0.0
 11
32.5357512441
 21
117.7341443022
 31
0.0
  0
ELLIPSE
  5
2F7
330
248
100
AcDbEntity
  8
DV3_Standard
  6
Continuous
 62
     7
100
AcDbEllipse
 10
26.9025398534
 20
163.9920323337
 30
0.0
 11
59.95955133567544
 21
7.140252972215322E-8
 31
0.0
210
0.0
220
0.0
230
1.0
 40
0.7660444403
 41
4.784845450000303
 42
4.808884181041513
  0
LINE
  5
2F8
330
248
100
AcDbEntity
  8
DV3_Standard
  6
Continuous
 62
     7
100
AcDbLine
 10
32.6793741013
 20
118.1970141847
 30
0.0
 11
32.6793741013
 21
118.2740278932
 31
0.0
  0
LINE
  5
2F9
330
248
100
AcDbEntity
  8
DV3_Standard
  6
Continuous
 62
     7
100
AcDbLine
 10
31.2431969584
 20
118.1040105801
 30
0.0
 11
31.2431969584
 21
118.1808679389
 31
0.0
  0
LINE
  5
2FA
330
248
100
AcDbEntity
  8
DV3_Standard
  6
Continuous
 62
     7
100
AcDbLine
 10
31.2431969584
 20
116.7210120874
 30
0.0
 11
31.2431969584
 21
118.1040105801
 31
0.0
  0
ELLIPSE
  5
2FB
330
248
100
AcDbEntity
  8
DV3_Standard
  6
Continuous
 62
     7
100
AcDbEllipse
 10
26.9025398412
 20
163.9920324536
 30
0.0
 11
60.05961876191756
 21
4.527802438536455E-8
 31
0.0
210
0.0
220
0.0
230
1.0
 40
0.7660444413
 41
4.784724517108875
 42
4.808722907943949
  0
LINE
  5
2FC
330
248
100
AcDbEntity
  8
DV3_Standard
  6
Continuous
 62
     7
100
AcDbLine
 10
32.6793741013
 20
118.1970141847
 30
0.0
 11
32.6793741013
 21
117.9282174464
 31
0.0
  0
ELLIPSE
  5
2FD
330
248
100
AcDbEntity
  8
DV3_Standard
  6
Continuous
 62
     7
100
AcDbEllipse
 10
26.9025401213
 20
163.7335467775
 30
0.0
 11
60.07301804474935
 21
5.670477767893978E-7
 31
0.0
210
0.0
220
0.0
230
1.0
 40
0.7660444215
 41
-1.489398719214066
 42
-1.474483964543818
  0
LINE
  5
2FE
330
248
100
AcDbEntity
  8
DV3_Standard
  6
Continuous
 62
     7
100
AcDbLine
 10
31.7869426727
 20
117.8673120566
 30
0.0
 11
31.7869426727
 21
117.6067786718
 31
0.0
  0
ELLIPSE
  5
2FF
330
248
100
AcDbEntity
  8
DV3_Standard
  6
Continuous
 62
     7
100
AcDbEllipse
 10
26.902539542
 20
163.4810795163
 30
0.0
 11
60.08350954824726
 21
-5.009572826009112E-7
 31
0.0
210
0.0
220
0.0
230
1.0
 40
0.7660444628
 41
-1.489412940661142
 42
-1.476902047954766
  0
LINE
  5
300
330
248
100
AcDbEntity
  8
DV3_Standard
  6
Continuous
 62
     7
100
AcDbLine
 10
32.5357512441
 20
117.6571792114
 30
0.0
 11
32.5357512441
 21
117.4008565768
 31
0.0
  0
ELLIPSE
  5
301
330
248
100
AcDbEntity
  8
DV3_Standard
  6
Continuous
 62
     7
100
AcDbEllipse
 10
26.9025384418
 20
163.2308152067
 30
0.0
 11
60.09137713530922
 21
-2.539191690242859E-6
 31
0.0
210
0.0
220
0.0
230
0.9999999999999999
 40
0.766044542
 41
-1.489423575178316
 42
-1.476914333131115
  0
LINE
  5
302
330
248
100
AcDbEntity
  8
DV3_Standard
  6
Continuous
 62
     7
100
AcDbLine
 10
31.7869426727
 20
117.3504626818
 30
0.0
 11
31.7869426727
 21
117.013097624
 31
0.0
  0
ELLIPSE
  5
303
330
248
100
AcDbEntity
  8
DV3_Standard
  6
Continuous
 62
     7
100
AcDbEllipse
 10
26.9025393132
 20
162.8984678869
 30
0.0
 11
60.09791063092623
 21
-9.332220413105219E-7
 31
0.0
210
0.0
220
0.0
230
1.0
 40
0.7660444782
 41
-1.489432476142191
 42
-1.4721761941069
  0
LINE
  5
304
330
248
100
AcDbEntity
  8
DV3_Standard
  6
Continuous
 62
     7
100
AcDbLine
 10
32.8197998156
 20
117.0844934161
 30
0.0
 11
32.8197998156
 21
116.8244683469
 31
0.0
  0
ELLIPSE
  5
305
330
248
100
AcDbEntity
  8
DV3_Standard
  6
Continuous
 62
     7
100
AcDbEllipse
 10
26.9025397693
 20
162.6399862786
 30
0.0
 11
60.09991814686972
 21
-8.482111540919490E-8
 31
0.0
210
0.0
220
0.0
230
1.0
 40
0.7660444465
 41
4.784675931423977
 42
4.811005789705499
  0
ARC
  5
306
330
248
100
AcDbEntity
  8
DV3_Standard
  6
Continuous
 62
     7
100
AcDbCircle
 10
26.909181611
 20
164.2080372197
 30
0.0
 40
56.06139408941333
100
AcDbArc
 50
266.3789543939
 51
273.6073176805
  0
ARC
  5
307
330
248
100
AcDbEntity
  8
DV3_Standard
  6
Continuous
 62
     7
100
AcDbCircle
 10
23.4579809009
 20
110.026151939
 30
0.0
 40
1.770714244101655
100
AcDbArc
 50
260.327104378
 51
267.1042292643
  0
SPLINE
  5
308
330
248
100
AcDbEntity
  8
DV3_Standard
  6
Continuous
 62
     7
100
AcDbSpline
210
0.0
220
0.0
230
1.0
 70
     8
 71
     3
 72
    35
 73
    31
 74
     0
 42
0.0000000006342414
 43
0.0000000001
 40
0.0
 40
0.0
 40
0.0
 40
0.0
 40
0.0097764744036882
 40
0.0465116319073439
 40
0.0832729083507912
 40
0.1200648459745447
 40
0.1568900391260962
 40
0.1937492177805621
 40
0.2306414890389473
 40
0.2675646778189875
 40
0.3045157065733059
 40
0.3414909632831402
 40
0.3784866223084995
 40
0.4154988991168357
 40
0.4525242339828844
 40
0.4895594097276194
 40
0.5266016142384463
 40
0.563648460620135
 40
0.6006979774787974
 40
0.637748521505576
 40
0.6747985697298152
 40
0.7118472806522583
 40
0.7488940578794816
 40
0.7859385098773629
 40
0.8229804139940015
 40
0.8600196851482356
 40
0.8970563491489055
 40
0.9340905203368461
 40
0.971122383098192
 40
1.0
 40
1.0
 40
1.0
 40
1.0
 10
10.98143853810444
 20
116.8769839555357
 30
0.0
 10
10.99059039710087
 20
116.832666174011
 30
0.0
 10
11.02808151611302
 20
116.6523765387663
 30
0.0
 10
11.13186475963686
 20
116.3022555220868
 30
0.0
 10
11.28727676844092
 20
115.8591566917378
 30
0.0
 10
11.4761250229218
 20
115.4165911739107
 30
0.0
 10
11.69387847425096
 20
114.9809279609946
 30
0.0
 10
11.94127174003604
 20
114.5515296372876
 30
0.0
 10
12.2175471133751
 20
114.1296354192097
 30
0.0
 10
12.52226595080671
 20
113.7159722922855
 30
0.0
 10
12.85482281211572
 20
113.3113898938176
 30
0.0
 10
13.21457767545156
 20
112.9166842715093
 30
0.0
 10
13.60082360504115
 20
112.532639939947
 30
0.0
 10
14.01279936614787
 20
112.1600143080511
 30
0.0
 10
14.44969034269937
 20
111.7995385634021
 30
0.0
 10
14.91063260707198
 20
111.4519150552662
 30
0.0
 10
15.39471594433146
 20
111.1178163587235
 30
0.0
 10
15.90098681572018
 20
110.7978844398671
 30
0.0
 10
16.42845080099396
 20
110.492730296943
 30
0.0
 10
16.97607357549565
 20
110.2029341802645
 30
0.0
 10
17.5427858128958
 20
109.929043885887
 30
0.0
 10
18.12748189761674
 20
109.6715752240261
 30
0.0
 10
18.72903734072204
 20
109.4310082739658
 30
0.0
 10
19.34625637238506
 20
109.2077995316731
 30
0.0
 10
19.97806955799034
 20
109.0023383986727
 30
0.0
 10
20.62280573687847
 20
108.8151073755235
 30
0.0
 10
21.2809184821776
 20
108.6460819806495
 30
0.0
 10
21.94482170903505
 20
108.496967709666
 30
0.0
 10
22.5860507683304
 20
108.3726915917925
 30
0.0
 10
22.96427619321657
 20
108.3113990318995
 30
0.0
 10
23.16041787269607
 20
108.2799834699312
 30
0.0
  0
SPLINE
  5
309
330
248
100
AcDbEntity
  8
DV3_Standard
  6
Continuous
 62
     7
100
AcDbSpline
210
0.0
220
0.0
230
1.0
 70
     8
 71
     3
 72
    35
 73
    31
 74
     0
 42
0.0000000006337241
 43
0.0000000001
 40
0.0
 40
0.0
 40
0.0
 40
0.0
 40
0.0194960888973974
 40
0.0564873594011216
 40
0.0934830205393866
 40
0.1304814031177434
 40
0.1674827684871709
 40
0.2044873272659084
 40
0.2414952242151634
 40
0.2785065200431839
 40
0.3155211692972205
 40
0.3525389938330803
 40
0.389559651462859
 40
0.4265825996117931
 40
0.4636070542192551
 40
0.5006316762924394
 40
0.5376547879466336
 40
0.5746744733111157
 40
0.6116883878781683
 40
0.6486937390332141
 40
0.6856872935659908
 40
0.7226654247448184
 40
0.7596242125752383
 40
0.7965596096639462
 40
0.8334676804840687
 40
0.8703449127882857
 40
0.9071885862587871
 40
0.9439971665268885
 40
0.9807706756860324
 40
1.0
 40
1.0
 40
1.0
 40
1.0
 10
30.64466175841219
 20
108.2799834699312
 30
0.0
 10
30.77730944385513
 20
108.3009771995649
 30
0.0
 10
31.10360586671292
 20
108.3530940460924
 30
0.0
 10
31.69034115180509
 20
108.4620913496872
 30
0.0
 10
32.35612952306996
 20
108.6063615321524
 30
0.0
 10
33.01726490036578
 20
108.7706709095501
 30
0.0
 10
33.66513388993179
 20
108.95325770132
 30
0.0
 10
34.30045792358175
 20
109.1541736560202
 30
0.0
 10
34.921489475961
 20
109.3729423077274
 30
0.0
 10
35.52717472515368
 20
109.6091866044071
 30
0.0
 10
36.11630855157072
 20
109.8624614965413
 30
0.0
 10
36.68776341957413
 20
110.1322995700126
 30
0.0
 10
37.24043037647778
 20
110.4181995472886
 30
0.0
 10
37.77323711576753
 20
110.7196300321522
 30
0.0
 10
38.28514409276219
 20
111.036028310904
 30
0.0
 10
38.77514767250703
 20
111.3668007103406
 30
0.0
 10
39.2422825030973
 20
111.7113230386607
 30
0.0
 10
39.68562458859972
 20
112.0689415432871
 30
0.0
 10
40.10429320813678
 20
112.4389731307784
 30
0.0
 10
40.49745249139529
 20
112.8207048118357
 30
0.0
 10
40.86431459748692
 20
113.2133947027667
 30
0.0
 10
41.20414100011615
 20
113.6162697121616
 30
0.0
 10
41.51625252595176
 20
114.0285371416318
 30
0.0
 10
41.80000826814153
 20
114.4493468895095
 30
0.0
 10
42.05490149767031
 20
114.8779413283082
 30
0.0
 10
42.28021929198371
 20
115.3131099324857
 30
0.0
 10
42.47632666466776
 20
115.7552402831183
 30
0.0
 10
42.63989242858862
 20
116.1986969679761
 30
0.0
 10
42.75918107686497
 20
116.5869902258313
 30
0.0
 10
42.80673493240232
 20
116.8026158903453
 30
0.0
 10
42.82571070711376
 20
116.8897822311936
 30
0.0
  0
LINE
  5
30A
330
248
100
AcDbEntity
  8
DV3_Standard
  6
Continuous
 62
     7
100
AcDbLine
 10
10.8025398156
 20
118.5075287425
 30
0.0
 11
10.8025398156
 21
118.4156034093
 31
0.0
  0
LINE
  5
30B
330
248
100
AcDbEntity
  8
DV3_Standard
  6
Continuous
 62
     7
100
AcDbLine
 10
43.0025398156
 20
118.4156034093
 30
0.0
 11
43.0025398156
 21
118.5075287425
 31
0.0
  0
LINE
  5
30C
330
248
100
AcDbEntity
  8
DV3_Standard
  6
Continuous
 62
     7
100
AcDbLine
 10
20.8197912441
 20
117.5210829379
 30
0.0
 11
20.8197912441
 21
117.5212116438
 31
0.0
  0
LINE
  5
30D
330
248
100
AcDbEntity
  8
DV3_Standard
  6
Continuous
 62
     7
100
AcDbLine
 10
20.8197912441
 20
117.5982072543
 30
0.0
 11
20.8197912441
 21
117.5212116438
 31
0.0
  0
LINE
  5
30E
330
248
100
AcDbEntity
  8
DV3_Standard
  6
Continuous
 62
     7
100
AcDbLine
 10
25.6099855298
 20
117.3724692128
 30
0.0
 11
25.6099855298
 21
117.2958135242
 31
0.0
  0
LINE
  5
30F
330
248
100
AcDbEntity
  8
DV3_Standard
  6
Continuous
 62
     7
100
AcDbLine
 10
28.1950910635
 20
117.295822574
 30
0.0
 11
28.1950910635
 21
117.3724173841
 31
0.0
  0
ENDBLK
  5
311
330
248
100
AcDbEntity
  8
0
100
AcDbBlockEnd
  0
ENDSEC
  0
SECTION
  2
ENTITIES
  0
LINE
  5
5E
330
1F
100
AcDbEntity
  8
Default
  6
Continuous
 62
     7
100
AcDbLine
 10
172.435874299
 20
313.9974712899
 30
0.0
 11
172.9133005308
 21
314.3034109653
 31
0.0
  0
INSERT
  5
60
330
1F
100
AcDbEntity
  8
Default
100
AcDbBlockReference
  2
SEANNOT_GROUP
 10
0.0
 20
0.0
 30
0.0
  0
INSERT
  5
67
330
1F
100
AcDbEntity
  8
Default
100
AcDbBlockReference
  2
SEANNOT_GROUP1
 10
0.0
 20
0.0
 30
0.0
  0
INSERT
  5
6D
330
1F
100
AcDbEntity
  8
Default
100
AcDbBlockReference
  2
SEANNOT_GROUP2
 10
0.0
 20
0.0
 30
0.0
  0
INSERT
  5
73
330
1F
100
AcDbEntity
  8
Default
100
AcDbBlockReference
  2
SEANNOT_GROUP3
 10
0.0
 20
0.0
 30
0.0
  0
INSERT
  5
79
330
1F
100
AcDbEntity
  8
Default
100
AcDbBlockReference
  2
SEANNOT_GROUP4
 10
0.0
 20
0.0
 30
0.0
  0
INSERT
  5
7F
330
1F
100
AcDbEntity
  8
Default
100
AcDbBlockReference
  2
SE
 10
0.0
 20
0.0
 30
0.0
  0
INSERT
  5
17D
330
1F
100
AcDbEntity
  8
Default
100
AcDbBlockReference
  2
SE1
 10
0.0
 20
0.0
 30
0.0
  0
INSERT
  5
249
330
1F
100
AcDbEntity
  8
Default
100
AcDbBlockReference
  2
SE2
 10
0.0
 20
0.0
 30
0.0
  0
TEXT
  5
313
330
1F
100
AcDbEntity
  8
Default
  6
Continuous
 62
     7
100
AcDbText
 10
5.9362635081
 20
53.4225120485
 30
0.0
 40
10.0
  1
Grohe AG^J
  7
SEACAD_seiso_ttf
 11
5.9362635081
 21
63.4225120485
 31
0.0
100
AcDbText
 73
     3
  0
TEXT
  5
314
330
1F
100
AcDbEntity
  8
Default
  6
Continuous
 62
     7
100
AcDbText
 10
5.9362635081
 20
37.0588756849
 30
0.0
 40
10.0
  1
 
  7
SEACAD_seiso_ttf
 11
5.9362635081
 21
47.0588756849
 31
0.0
100
AcDbText
 73
     3
  0
TEXT
  5
315
330
1F
100
AcDbEntity
  8
Default
  6
Continuous
 62
     7
100
AcDbText
 10
5.9362635081
 20
20.6952393213
 30
0.0
 40
10.0
  1
ecn: 
  7
SEACAD_seiso_ttf
 11
5.9362635081
 21
30.6952393213
 31
0.0
100
AcDbText
 73
     3
  0
TEXT
  5
316
330
1F
100
AcDbEntity
  8
Default
  6
Continuous
 62
     7
100
AcDbText
 10
5.9362635081
 20
4.3316029576
 30
0.0
 40
10.0
  1
unit: mm
  7
SEACAD_seiso_ttf
 11
5.9362635081
 21
14.3316029576
 31
0.0
100
AcDbText
 73
     3
  0
LINE
  5
317
330
1F
100
AcDbEntity
  8
Default
  6
Continuous
 62
     7
100
AcDbLine
 10
0.0
 20
0.0
 30
0.0
 11
100.0
 21
0.0
 31
0.0
  0
LINE
  5
318
330
1F
100
AcDbEntity
  8
Default
  6
Continuous
 62
     7
100
AcDbLine
 10
0.0
 20
0.0
 30
0.0
 11
0.0
 21
100.0
 31
0.0
  0
TEXT
  5
319
330
1F
100
AcDbEntity
  8
Default
  6
Continuous
 62
     7
100
AcDbText
 10
24.3923665681
 20
-18.2375342018
 30
0.0
 40
10.0
  1
100 mm
  7
SEACAD_seiso_ttf
 11
24.3923665681
 21
-8.2375342018
 31
0.0
100
AcDbText
 73
     3
  0
TEXT
  5
31A
330
1F
100
AcDbEntity
  8
Default
  6
Continuous
 62
     7
100
AcDbText
 10
-7.6150308803
 20
24.6231930421
 30
0.0
 40
10.0
  1
100 mm
 50
90.0
  7
SEACAD_seiso_ttf
 11
-17.6150308803
 21
24.6231930421
 31
0.0
100
AcDbText
 73
     3
  0
TEXT
  5
31B
330
1F
100
AcDbEntity
  8
Default
  6
Continuous
 62
     7
100
AcDbText
 10
28.4878128572
 20
20.0907663715
 30
0.0
 40
10.0
  1
213249
  7
SEACAD_seiso_ttf
 11
28.4878128572
 21
30.0907663715
 31
0.0
100
AcDbText
 73
     3
  0
TEXT
  5
31C
330
1F
100
AcDbEntity
  8
Default
  6
Continuous
 62
     7
100
AcDbText
 10
5.9012241913
 20
36.7242780188
 30
0.0
 40
10.0
  1
30008001
  7
SEACAD_seiso_ttf
 11
5.9012241913
 21
46.7242780188
 31
0.0
100
AcDbText
 73
     3
  0
ENDSEC
  0
SECTION
  2
OBJECTS
  0
DICTIONARY
  5
C
330
0
100
AcDbDictionary
281
     1
  3
ACAD_GROUP
350
D
  3
ACAD_LAYOUT
350
1A
  3
ACAD_MLEADERSTYLE
350
320
  3
ACAD_MLINESTYLE
350
17
  3
ACAD_PLOTSETTINGS
350
19
  3
ACAD_PLOTSTYLENAME
350
E
  3
ACAD_SCALELIST
350
3B
  3
ACAD_TABLESTYLE
350
31F
  3
ACAD_VISUALSTYLE
350
2A
  3
AcDbVariableDictionary
350
31D
  0
DICTIONARY
  5
D
102
{ACAD_REACTORS
330
C
102
}
330
C
100
AcDbDictionary
281
     1
  0
DICTIONARY
  5
1A
102
{ACAD_REACTORS
330
C
102
}
330
C
100
AcDbDictionary
281
     1
  3
Layout1
350
1E
  3
Model
350
22
  0
DICTIONARY
  5
320
102
{ACAD_REACTORS
330
C
102
}
330
C
100
AcDbDictionary
281
     1
  0
DICTIONARY
  5
17
102
{ACAD_REACTORS
330
C
102
}
330
C
100
AcDbDictionary
281
     1
  3
Standard
350
18
  0
DICTIONARY
  5
19
102
{ACAD_REACTORS
330
C
102
}
330
C
100
AcDbDictionary
281
     1
  0
ACDBDICTIONARYWDFLT
  5
E
102
{ACAD_REACTORS
330
C
102
}
330
C
100
AcDbDictionary
281
     1
  3
Normal
350
F
100
AcDbDictionaryWithDefault
340
F
  0
DICTIONARY
  5
3B
102
{ACAD_REACTORS
330
C
102
}
330
C
100
AcDbDictionary
281
     1
  3
A0
350
3C
  3
A1
350
3D
  3
A2
350
3E
  3
A3
350
3F
  3
A4
350
40
  3
A5
350
41
  3
A6
350
42
  3
A7
350
43
  3
A8
350
44
  3
A9
350
45
  3
B0
350
46
  3
B1
350
47
  3
B2
350
48
  3
B3
350
49
  3
B4
350
4A
  3
B5
350
4B
  3
B6
350
4C
  3
B7
350
4D
  3
B8
350
4E
  3
B9
350
4F
  3
C0
350
50
  3
C1
350
51
  3
C2
350
52
  3
C3
350
53
  3
C4
350
54
  3
C5
350
55
  3
C6
350
56
  3
C7
350
57
  3
C8
350
58
  3
C9
350
59
  3
D0
350
5A
  3
D1
350
5B
  3
D2
350
5C
  0
DICTIONARY
  5
31F
102
{ACAD_REACTORS
330
C
102
}
330
C
100
AcDbDictionary
281
     1
  0
DICTIONARY
  5
2A
102
{ACAD_REACTORS
330
C
102
}
330
C
100
AcDbDictionary
281
     1
  3
2dWireframe
350
2F
  3
3D Hidden
350
31
  3
3dWireframe
350
30
  3
Basic
350
32
  3
Brighten
350
36
  3
ColorChange
350
3A
  3
Conceptual
350
34
  3
Dim
350
35
  3
Facepattern
350
39
  3
Flat
350
2B
  3
FlatWithEdges
350
2C
  3
Gouraud
350
2D
  3
GouraudWithEdges
350
2E
  3
Linepattern
350
38
  3
Realistic
350
33
  3
Thicken
350
37
  0
DICTIONARY
  5
31D
102
{ACAD_REACTORS
330
C
102
}
330
C
100
AcDbDictionary
281
     1
  3
CANNOSCALE
350
31E
  3
PSOLHEIGHT
350
322
  3
PSOLWIDTH
350
321
  0
LAYOUT
  5
1E
102
{ACAD_REACTORS
330
1A
102
}
330
1A
100
AcDbPlotSettings
  1

  2
none_device
  4

  6

 40
0.0
 41
0.0
 42
0.0
 43
0.0
 44
0.0
 45
0.0
 46
0.0
 47
0.0
 48
0.0
 49
0.0
140
0.0
141
0.0
142
1.0
143
1.0
 70
   688
 72
     0
 73
     0
 74
     5
  7

 75
    16
147
1.0
148
0.0
149
0.0
100
AcDbLayout
  1
Layout1
 70
     1
 71
     1
 10
0.0
 20
0.0
 11
1682.0
 21
2378.0
 12
0.0
 22
0.0
 32
0.0
 14
0.0
 24
0.0
 34
0.0
 15
1682.0
 25
2378.0
 35
0.0
146
0.0
 13
0.0
 23
0.0
 33
0.0
 16
1.0
 26
0.0
 36
0.0
 17
0.0
 27
1.0
 37
0.0
 76
     0
330
1B
  0
LAYOUT
  5
22
102
{ACAD_REACTORS
330
1A
102
}
330
1A
100
AcDbPlotSettings
  1

  2
none_device
  4

  6

 40
0.0
 41
0.0
 42
0.0
 43
0.0
 44
0.0
 45
0.0
 46
0.0
 47
0.0
 48
0.0
 49
0.0
140
0.0
141
0.0
142
1.0
143
1.0
 70
  1712
 72
     0
 73
     0
 74
     0
  7

 75
     0
147
1.0
148
0.0
149
0.0
100
AcDbLayout
  1
Model
 70
     1
 71
     0
 10
0.0
 20
0.0
 11
1682.0
 21
2378.0
 12
0.0
 22
0.0
 32
0.0
 14
0.0
 24
0.0
 34
0.0
 15
1682.0
 25
2378.0
 35
0.0
146
0.0
 13
0.0
 23
0.0
 33
0.0
 16
1.0
 26
0.0
 36
0.0
 17
0.0
 27
1.0
 37
0.0
 76
     0
330
1F
331
29
  0
MLINESTYLE
  5
18
102
{ACAD_REACTORS
330
17
102
}
330
17
100
AcDbMlineStyle
  2
Standard
 70
     0
  3

 62
   256
 51
90.0
 52
90.0
 71
     2
 49
0.5
 62
   256
  6
BYLAYER
 49
-0.5
 62
   256
  6
BYLAYER
  0
ACDBPLACEHOLDER
  5
F
102
{ACAD_REACTORS
330
E
102
}
330
E
  0
SCALE
  5
3C
102
{ACAD_REACTORS
330
3B
102
}
330
3B
100
AcDbScale
 70
     0
300
1:1
140
1.0
141
1.0
290
     1
  0
SCALE
  5
3D
102
{ACAD_REACTORS
330
3B
102
}
330
3B
100
AcDbScale
 70
     0
300
1:2
140
1.0
141
2.0
290
     0
  0
SCALE
  5
3E
102
{ACAD_REACTORS
330
3B
102
}
330
3B
100
AcDbScale
 70
     0
300
1:4
140
1.0
141
4.0
290
     0
  0
SCALE
  5
3F
102
{ACAD_REACTORS
330
3B
102
}
330
3B
100
AcDbScale
 70
     0
300
1:5
140
1.0
141
5.0
290
     0
  0
SCALE
  5
40
102
{ACAD_REACTORS
330
3B
102
}
330
3B
100
AcDbScale
 70
     0
300
1:8
140
1.0
141
8.0
290
     0
  0
SCALE
  5
41
102
{ACAD_REACTORS
330
3B
102
}
330
3B
100
AcDbScale
 70
     0
300
1:10
140
1.0
141
10.0
290
     0
  0
SCALE
  5
42
102
{ACAD_REACTORS
330
3B
102
}
330
3B
100
AcDbScale
 70
     0
300
1:16
140
1.0
141
16.0
290
     0
  0
SCALE
  5
43
102
{ACAD_REACTORS
330
3B
102
}
330
3B
100
AcDbScale
 70
     0
300
1:20
140
1.0
141
20.0
290
     0
  0
SCALE
  5
44
102
{ACAD_REACTORS
330
3B
102
}
330
3B
100
AcDbScale
 70
     0
300
1:30
140
1.0
141
30.0
290
     0
  0
SCALE
  5
45
102
{ACAD_REACTORS
330
3B
102
}
330
3B
100
AcDbScale
 70
     0
300
1:40
140
1.0
141
40.0
290
     0
  0
SCALE
  5
46
102
{ACAD_REACTORS
330
3B
102
}
330
3B
100
AcDbScale
 70
     0
300
1:50
140
1.0
141
50.0
290
     0
  0
SCALE
  5
47
102
{ACAD_REACTORS
330
3B
102
}
330
3B
100
AcDbScale
 70
     0
300
1:100
140
1.0
141
100.0
290
     0
  0
SCALE
  5
48
102
{ACAD_REACTORS
330
3B
102
}
330
3B
100
AcDbScale
 70
     0
300
2:1
140
2.0
141
1.0
290
     0
  0
SCALE
  5
49
102
{ACAD_REACTORS
330
3B
102
}
330
3B
100
AcDbScale
 70
     0
300
4:1
140
4.0
141
1.0
290
     0
  0
SCALE
  5
4A
102
{ACAD_REACTORS
330
3B
102
}
330
3B
100
AcDbScale
 70
     0
300
8:1
140
8.0
141
1.0
290
     0
  0
SCALE
  5
4B
102
{ACAD_REACTORS
330
3B
102
}
330
3B
100
AcDbScale
 70
     0
300
10:1
140
10.0
141
1.0
290
     0
  0
SCALE
  5
4C
102
{ACAD_REACTORS
330
3B
102
}
330
3B
100
AcDbScale
 70
     0
300
100:1
140
100.0
141
1.0
290
     0
  0
SCALE
  5
4D
102
{ACAD_REACTORS
330
3B
102
}
330
3B
100
AcDbScale
 70
     0
300
1/128" = 1'-0"
140
0.0078125
141
12.0
290
     0
  0
SCALE
  5
4E
102
{ACAD_REACTORS
330
3B
102
}
330
3B
100
AcDbScale
 70
     0
300
1/64" = 1'-0"
140
0.015625
141
12.0
290
     0
  0
SCALE
  5
4F
102
{ACAD_REACTORS
330
3B
102
}
330
3B
100
AcDbScale
 70
     0
300
1/32" = 1'-0"
140
0.03125
141
12.0
290
     0
  0
SCALE
  5
50
102
{ACAD_REACTORS
330
3B
102
}
330
3B
100
AcDbScale
 70
     0
300
1/16" = 1'-0"
140
0.0625
141
12.0
290
     0
  0
SCALE
  5
51
102
{ACAD_REACTORS
330
3B
102
}
330
3B
100
AcDbScale
 70
     0
300
3/32" = 1'-0"
140
0.09375
141
12.0
290
     0
  0
SCALE
  5
52
102
{ACAD_REACTORS
330
3B
102
}
330
3B
100
AcDbScale
 70
     0
300
1/8" = 1'-0"
140
0.125
141
12.0
290
     0
  0
SCALE
  5
53
102
{ACAD_REACTORS
330
3B
102
}
330
3B
100
AcDbScale
 70
     0
300
3/16" = 1'-0"
140
0.1875
141
12.0
290
     0
  0
SCALE
  5
54
102
{ACAD_REACTORS
330
3B
102
}
330
3B
100
AcDbScale
 70
     0
300
1/4" = 1'-0"
140
0.25
141
12.0
290
     0
  0
SCALE
  5
55
102
{ACAD_REACTORS
330
3B
102
}
330
3B
100
AcDbScale
 70
     0
300
3/8" = 1'-0"
140
0.375
141
12.0
290
     0
  0
SCALE
  5
56
102
{ACAD_REACTORS
330
3B
102
}
330
3B
100
AcDbScale
 70
     0
300
1/2" = 1'-0"
140
0.5
141
12.0
290
     0
  0
SCALE
  5
57
102
{ACAD_REACTORS
330
3B
102
}
330
3B
100
AcDbScale
 70
     0
300
3/4" = 1'-0"
140
0.75
141
12.0
290
     0
  0
SCALE
  5
58
102
{ACAD_REACTORS
330
3B
102
}
330
3B
100
AcDbScale
 70
     0
300
1" = 1'-0"
140
1.0
141
12.0
290
     0
  0
SCALE
  5
59
102
{ACAD_REACTORS
330
3B
102
}
330
3B
100
AcDbScale
 70
     0
300
1-1/2" = 1'-0"
140
1.5
141
12.0
290
     0
  0
SCALE
  5
5A
102
{ACAD_REACTORS
330
3B
102
}
330
3B
100
AcDbScale
 70
     0
300
3" = 1'-0"
140
3.0
141
12.0
290
     0
  0
SCALE
  5
5B
102
{ACAD_REACTORS
330
3B
102
}
330
3B
100
AcDbScale
 70
     0
300
6" = 1'-0"
140
6.0
141
12.0
290
     0
  0
SCALE
  5
5C
102
{ACAD_REACTORS
330
3B
102
}
330
3B
100
AcDbScale
 70
     0
300
1'-0" = 1'-0"
140
12.0
141
12.0
290
     0
  0
VISUALSTYLE
  5
2F
102
{ACAD_REACTORS
330
2A
102
}
330
2A
100
AcDbVisualStyle
  2
2dWireframe
 70
     4
 71
     0
 72
     2
 73
     0
 90
        0
 40
-0.6
 41
-30.0
 62
     5
 63
     7
 74
     1
 91
        4
 64
     7
 65
   257
 75
     1
175
     1
 42
1.0
 92
        0
 66
   257
 43
1.0
 76
     1
 77
     6
 78
     2
 67
     7
 79
     5
170
     0
171
     0
290
     0
174
     0
 93
        1
 44
0.0
173
     0
291
     0
 45
0.0
1001
ACAD
1000
AcDbSavedByObjectVersion
1070
     0
  0
VISUALSTYLE
  5
31
102
{ACAD_REACTORS
330
2A
102
}
330
2A
100
AcDbVisualStyle
  2
3D Hidden
 70
     6
 71
     1
 72
     2
 73
     2
 90
        0
 40
-0.6
 41
-30.0
 62
     5
 63
     7
 74
     2
 91
        2
 64
     7
 65
   257
 75
     2
175
     1
 42
40.0
 92
        0
 66
   257
 43
1.0
 76
     1
 77
     6
 78
     2
 67
     7
 79
     3
170
     0
171
     0
290
     0
174
     0
 93
        1
 44
0.0
173
     0
291
     0
 45
0.0
1001
ACAD
1000
AcDbSavedByObjectVersion
1070
     0
  0
VISUALSTYLE
  5
30
102
{ACAD_REACTORS
330
2A
102
}
330
2A
100
AcDbVisualStyle
  2
3dWireframe
 70
     5
 71
     0
 72
     2
 73
     0
 90
        0
 40
-0.6
 41
-30.0
 62
     5
 63
     7
 74
     1
 91
        4
 64
     7
 65
   257
 75
     1
175
     1
 42
1.0
 92
        0
 66
   257
 43
1.0
 76
     1
 77
     6
 78
     2
 67
     7
 79
     5
170
     0
171
     0
290
     0
174
     0
 93
        1
 44
0.0
173
     0
291
     0
 45
0.0
1001
ACAD
1000
AcDbSavedByObjectVersion
1070
     0
  0
VISUALSTYLE
  5
32
102
{ACAD_REACTORS
330
2A
102
}
330
2A
100
AcDbVisualStyle
  2
Basic
 70
     7
 71
     1
 72
     0
 73
     1
 90
        0
 40
-0.6
 41
-30.0
 62
     5
 63
     7
 74
     0
 91
        4
 64
     7
 65
   257
 75
     1
175
     1
 42
1.0
 92
        8
 66
     7
 43
1.0
 76
     1
 77
     6
 78
     2
 67
     7
 79
     5
170
     0
171
     0
290
     0
174
     0
 93
        1
 44
0.0
173
     0
291
     1
 45
0.0
1001
ACAD
1000
AcDbSavedByObjectVersion
1070
     0
  0
VISUALSTYLE
  5
36
102
{ACAD_REACTORS
330
2A
102
}
330
2A
100
AcDbVisualStyle
  2
Brighten
 70
    12
 71
     2
 72
     2
 73
     0
 90
        0
 40
-0.6
 41
-30.0
 62
     5
 63
     7
 74
     1
 91
        4
 64
     7
 65
   257
 75
     1
175
     1
 42
1.0
 92
        8
 66
     7
 43
1.0
 76
     1
 77
     6
 78
     2
 67
     7
 79
     5
170
     0
171
     0
290
     0
174
     0
 93
        1
 44
50.0
173
     0
291
     1
 45
0.0
1001
ACAD
1000
AcDbSavedByObjectVersion
1070
     0
  0
VISUALSTYLE
  5
3A
102
{ACAD_REACTORS
330
2A
102
}
330
2A
100
AcDbVisualStyle
  2
ColorChange
 70
    16
 71
     2
 72
     2
 73
     3
 90
        0
 40
-0.6
 41
-30.0
 62
     5
 63
     8
 74
     1
 91
        4
 64
     7
 65
   257
 75
     1
175
     1
 42
1.0
 92
        8
 66
     8
 43
1.0
 76
     1
 77
     6
 78
     2
 67
     7
 79
     5
170
     0
171
     0
290
     0
174
     0
 93
        1
 44
0.0
173
     0
291
     1
 45
0.0
1001
ACAD
1000
AcDbSavedByObjectVersion
1070
     0
  0
VISUALSTYLE
  5
34
102
{ACAD_REACTORS
330
2A
102
}
330
2A
100
AcDbVisualStyle
  2
Conceptual
 70
     9
 71
     3
 72
     2
 73
     0
 90
        0
 40
-0.6
 41
-30.0
 62
     5
 63
     7
 74
     2
 91
        2
 64
     7
 65
   257
 75
     1
175
     1
 42
40.0
 92
        8
 66
     7
 43
1.0
 76
     1
 77
     6
 78
     2
 67
     7
 79
     3
170
     0
171
     0
290
     0
174
     0
 93
        1
 44
0.0
173
     0
291
     0
 45
0.0
1001
ACAD
1000
AcDbSavedByObjectVersion
1070
     0
  0
VISUALSTYLE
  5
35
102
{ACAD_REACTORS
330
2A
102
}
330
2A
100
AcDbVisualStyle
  2
Dim
 70
    11
 71
     2
 72
     2
 73
     0
 90
        0
 40
-0.6
 41
-30.0
 62
     5
 63
     7
 74
     1
 91
        4
 64
     7
 65
   257
 75
     1
175
     1
 42
1.0
 92
        8
 66
     7
 43
1.0
 76
     1
 77
     6
 78
     2
 67
     7
 79
     5
170
     0
171
     0
290
     0
174
     0
 93
        1
 44
-50.0
173
     0
291
     1
 45
0.0
1001
ACAD
1000
AcDbSavedByObjectVersion
1070
     0
  0
VISUALSTYLE
  5
39
102
{ACAD_REACTORS
330
2A
102
}
330
2A
100
AcDbVisualStyle
  2
Facepattern
 70
    15
 71
     2
 72
     2
 73
     0
 90
        0
 40
-0.6
 41
-30.0
 62
     5
 63
     7
 74
     1
 91
        4
 64
     7
 65
   257
 75
     1
175
     1
 42
1.0
 92
        8
 66
     7
 43
1.0
 76
     1
 77
     6
 78
     2
 67
     7
 79
     5
170
     0
171
     0
290
     0
174
     0
 93
        1
 44
0.0
173
     0
291
     1
 45
0.0
1001
ACAD
1000
AcDbSavedByObjectVersion
1070
     0
  0
VISUALSTYLE
  5
2B
102
{ACAD_REACTORS
330
2A
102
}
330
2A
100
AcDbVisualStyle
  2
Flat
 70
     0
 71
     2
 72
     1
 73
     1
 90
        2
 40
-0.6
 41
30.0
 62
     5
 63
     7
 74
     0
 91
        4
 64
     7
 65
   257
 75
     1
175
     1
 42
1.0
 92
        8
 66
     7
 43
1.0
 76
     1
 77
     6
 78
     2
 67
     7
 79
     5
170
     0
171
     0
290
     0
174
     0
 93
       13
 44
0.0
173
     0
291
     1
 45
0.0
1001
ACAD
1000
AcDbSavedByObjectVersion
1070
     0
  0
VISUALSTYLE
  5
2C
102
{ACAD_REACTORS
330
2A
102
}
330
2A
100
AcDbVisualStyle
  2
FlatWithEdges
 70
     1
 71
     2
 72
     1
 73
     1
 90
        2
 40
-0.6
 41
30.0
 62
     5
 63
     7
 74
     1
 91
        4
 64
     7
 65
   257
 75
     1
175
     1
 42
1.0
 92
        0
 66
   257
 43
1.0
 76
     1
 77
     6
 78
     2
 67
     7
 79
     5
170
     0
171
     0
290
     0
174
     0
 93
       13
 44
0.0
173
     0
291
     1
 45
0.0
1001
ACAD
1000
AcDbSavedByObjectVersion
1070
     0
  0
VISUALSTYLE
  5
2D
102
{ACAD_REACTORS
330
2A
102
}
330
2A
100
AcDbVisualStyle
  2
Gouraud
 70
     2
 71
     2
 72
     2
 73
     1
 90
        2
 40
-0.6
 41
30.0
 62
     5
 63
     7
 74
     0
 91
        4
 64
     7
 65
   257
 75
     1
175
     1
 42
1.0
 92
        0
 66
     7
 43
1.0
 76
     1
 77
     6
 78
     2
 67
     7
 79
     5
170
     0
171
     0
290
     0
174
     0
 93
       13
 44
0.0
173
     0
291
     1
 45
0.0
1001
ACAD
1000
AcDbSavedByObjectVersion
1070
     0
  0
VISUALSTYLE
  5
2E
102
{ACAD_REACTORS
330
2A
102
}
330
2A
100
AcDbVisualStyle
  2
GouraudWithEdges
 70
     3
 71
     2
 72
     2
 73
     1
 90
        2
 40
-0.6
 41
30.0
 62
     5
 63
     7
 74
     1
 91
        4
 64
     7
 65
   257
 75
     1
175
     1
 42
1.0
 92
        0
 66
   257
 43
1.0
 76
     1
 77
     6
 78
     2
 67
     7
 79
     5
170
     0
171
     0
290
     0
174
     0
 93
       13
 44
0.0
173
     0
291
     1
 45
0.0
1001
ACAD
1000
AcDbSavedByObjectVersion
1070
     0
  0
VISUALSTYLE
  5
38
102
{ACAD_REACTORS
330
2A
102
}
330
2A
100
AcDbVisualStyle
  2
Linepattern
 70
    14
 71
     2
 72
     2
 73
     0
 90
        0
 40
-0.6
 41
-30.0
 62
     5
 63
     7
 74
     1
 91
        4
 64
     7
 65
   257
 75
     7
175
     7
 42
1.0
 92
        8
 66
     7
 43
1.0
 76
     1
 77
     6
 78
     2
 67
     7
 79
     5
170
     0
171
     0
290
     0
174
     0
 93
        1
 44
0.0
173
     0
291
     1
 45
0.0
1001
ACAD
1000
AcDbSavedByObjectVersion
1070
     0
  0
VISUALSTYLE
  5
33
102
{ACAD_REACTORS
330
2A
102
}
330
2A
100
AcDbVisualStyle
  2
Realistic
 70
     8
 71
     2
 72
     2
 73
     0
 90
        0
 40
-0.6
 41
-30.0
 62
     5
 63
     7
 74
     1
 91
        0
 64
     7
 65
   257
 75
     1
175
     1
 42
1.0
 92
        8
 66
     8
 43
1.0
 76
     1
 77
     6
 78
     2
 67
     7
 79
     5
170
     0
171
     0
290
     0
174
     0
 93
       13
 44
0.0
173
     0
291
     0
 45
0.0
1001
ACAD
1000
AcDbSavedByObjectVersion
1070
     0
  0
VISUALSTYLE
  5
37
102
{ACAD_REACTORS
330
2A
102
}
330
2A
100
AcDbVisualStyle
  2
Thicken
 70
    13
 71
     2
 72
     2
 73
     0
 90
        0
 40
-0.6
 41
-30.0
 62
     5
 63
     7
 74
     1
 91
        4
 64
     7
 65
   257
 75
     1
175
     1
 42
1.0
 92
       12
 66
     7
 43
1.0
 76
     1
 77
     6
 78
     2
 67
     7
 79
     5
170
     0
171
     0
290
     0
174
     0
 93
        1
 44
0.0
173
     0
291
     1
 45
0.0
1001
ACAD
1000
AcDbSavedByObjectVersion
1070
     0
  0
DICTIONARYVAR
  5
31E
102
{ACAD_REACTORS
330
31D
102
}
330
31D
100
DictionaryVariables
280
     0
  1
1:1
  0
DICTIONARYVAR
  5
322
102
{ACAD_REACTORS
330
31D
102
}
330
31D
100
DictionaryVariables
280
     0
  1
80.000000
  0
DICTIONARYVAR
  5
321
102
{ACAD_REACTORS
330
31D
102
}
330
31D
100
DictionaryVariables
280
     0
  1
5.000000
  0
ENDSEC
  0
EOF
