  0
SECTION
  2
HEADER
  9
$ACADVER
  1
AC1021
  9
$ACADMAINTVER
 70
    25
  9
$DWGCODEPAGE
  3
ANSI_1252
  9
$INSBASE
 10
0.0
 20
0.0
 30
0.0
  9
$EXTMIN
 10
0.0
 20
0.0
 30
0.0
  9
$EXTMAX
 10
3000.0
 20
4500.0
 30
0.0
  9
$LIMMIN
 10
0.0
 20
0.0
  9
$LIMMAX
 10
3000.0
 20
4500.0
  9
$ORTHOMODE
 70
     0
  9
$REGENMODE
 70
     1
  9
$FILLMODE
 70
     1
  9
$QTEXTMODE
 70
     0
  9
$MIRRTEXT
 70
     1
  9
$LTSCALE
 40
1.0
  9
$ATTMODE
 70
     1
  9
$TEXTSIZE
 40
10.0
  9
$TRACEWID
 40
1.0
  9
$TEXTSTYLE
  7
Standard
  9
$CLAYER
  8
0
  9
$CELTYPE
  6
ByLayer
  9
$CECOLOR
 62
   256
  9
$CELTSCALE
 40
1.0
  9
$DISPSILH
 70
     0
  9
$DIMSCALE
 40
1.0
  9
$DIMASZ
 40
2.5
  9
$DIMEXO
 40
0.625
  9
$DIMDLI
 40
3.75
  9
$DIMRND
 40
0.0
  9
$DIMDLE
 40
0.0
  9
$DIMEXE
 40
1.25
  9
$DIMTP
 40
0.0
  9
$DIMTM
 40
0.0
  9
$DIMTXT
 40
2.5
  9
$DIMCEN
 40
2.5
  9
$DIMTSZ
 40
0.0
  9
$DIMTOL
 70
     0
  9
$DIMLIM
 70
     0
  9
$DIMTIH
 70
     0
  9
$DIMTOH
 70
     0
  9
$DIMSE1
 70
     0
  9
$DIMSE2
 70
     0
  9
$DIMTAD
 70
     1
  9
$DIMZIN
 70
     8
  9
$DIMBLK
  1

  9
$DIMASO
 70
     1
  9
$DIMSHO
 70
     1
  9
$DIMPOST
  1

  9
$DIMAPOST
  1

  9
$DIMALT
 70
     0
  9
$DIMALTD
 70
     3
  9
$DIMALTF
 40
0.0393700787
  9
$DIMLFAC
 40
1.0
  9
$DIMTOFL
 70
     1
  9
$DIMTVP
 40
0.0
  9
$DIMTIX
 70
     0
  9
$DIMSOXD
 70
     0
  9
$DIMSAH
 70
     0
  9
$DIMBLK1
  1

  9
$DIMBLK2
  1

  9
$DIMSTYLE
  2
ISO-25
  9
$DIMCLRD
 70
     0
  9
$DIMCLRE
 70
     0
  9
$DIMCLRT
 70
     0
  9
$DIMTFAC
 40
1.0
  9
$DIMGAP
 40
0.625
  9
$DIMJUST
 70
     0
  9
$DIMSD1
 70
     0
  9
$DIMSD2
 70
     0
  9
$DIMTOLJ
 70
     0
  9
$DIMTZIN
 70
     8
  9
$DIMALTZ
 70
     0
  9
$DIMALTTZ
 70
     0
  9
$DIMUPT
 70
     0
  9
$DIMDEC
 70
     2
  9
$DIMTDEC
 70
     2
  9
$DIMALTU
 70
     2
  9
$DIMALTTD
 70
     3
  9
$DIMTXSTY
  7
Standard
  9
$DIMAUNIT
 70
     0
  9
$DIMADEC
 70
     0
  9
$DIMALTRND
 40
0.0
  9
$DIMAZIN
 70
     0
  9
$DIMDSEP
 70
    44
  9
$DIMATFIT
 70
     3
  9
$DIMFRAC
 70
     0
  9
$DIMLDRBLK
  1

  9
$DIMLUNIT
 70
     2
  9
$DIMLWD
 70
    -2
  9
$DIMLWE
 70
    -2
  9
$DIMTMOVE
 70
     0
  9
$DIMFXL
 40
1.0
  9
$DIMFXLON
 70
     0
  9
$DIMJOGANG
 40
0.7853981634
  9
$DIMTFILL
 70
     0
  9
$DIMTFILLCLR
 70
     0
  9
$DIMARCSYM
 70
     0
  9
$DIMLTYPE
  6

  9
$DIMLTEX1
  6

  9
$DIMLTEX2
  6

  9
$LUNITS
 70
     2
  9
$LUPREC
 70
     4
  9
$SKETCHINC
 40
1.0
  9
$FILLETRAD
 40
10.0
  9
$AUNITS
 70
     0
  9
$AUPREC
 70
     0
  9
$MENU
  1
.
  9
$ELEVATION
 40
0.0
  9
$PELEVATION
 40
0.0
  9
$THICKNESS
 40
0.0
  9
$LIMCHECK
 70
     0
  9
$CHAMFERA
 40
0.0
  9
$CHAMFERB
 40
0.0
  9
$CHAMFERC
 40
0.0
  9
$CHAMFERD
 40
0.0
  9
$SKPOLY
 70
     0
  9
$TDCREATE
 40
2459556.49626235
  9
$TDUCREATE
 40
2459556.454595683
  9
$TDUPDATE
 40
2459556.496267373
  9
$TDUUPDATE
 40
2459556.454600706
  9
$TDINDWG
 40
0.0000000116
  9
$TDUSRTIMER
 40
0.0000000116
  9
$USRTIMER
 70
     1
  9
$ANGBASE
 50
0.0
  9
$ANGDIR
 70
     0
  9
$PDMODE
 70
     0
  9
$PDSIZE
 40
0.0
  9
$PLINEWID
 40
0.0
  9
$SPLFRAME
 70
     0
  9
$SPLINETYPE
 70
     6
  9
$SPLINESEGS
 70
     8
  9
$HANDSEED
  5
343
  9
$SURFTAB1
 70
     6
  9
$SURFTAB2
 70
     6
  9
$SURFTYPE
 70
     6
  9
$SURFU
 70
     6
  9
$SURFV
 70
     6
  9
$UCSBASE
  2

  9
$UCSNAME
  2

  9
$UCSORG
 10
0.0
 20
0.0
 30
0.0
  9
$UCSXDIR
 10
1.0
 20
0.0
 30
0.0
  9
$UCSYDIR
 10
0.0
 20
1.0
 30
0.0
  9
$UCSORTHOREF
  2

  9
$UCSORTHOVIEW
 70
     0
  9
$UCSORGTOP
 10
0.0
 20
0.0
 30
0.0
  9
$UCSORGBOTTOM
 10
0.0
 20
0.0
 30
0.0
  9
$UCSORGLEFT
 10
0.0
 20
0.0
 30
0.0
  9
$UCSORGRIGHT
 10
0.0
 20
0.0
 30
0.0
  9
$UCSORGFRONT
 10
0.0
 20
0.0
 30
0.0
  9
$UCSORGBACK
 10
0.0
 20
0.0
 30
0.0
  9
$PUCSBASE
  2

  9
$PUCSNAME
  2

  9
$PUCSORG
 10
0.0
 20
0.0
 30
0.0
  9
$PUCSXDIR
 10
1.0
 20
0.0
 30
0.0
  9
$PUCSYDIR
 10
0.0
 20
1.0
 30
0.0
  9
$PUCSORTHOREF
  2

  9
$PUCSORTHOVIEW
 70
     0
  9
$PUCSORGTOP
 10
0.0
 20
0.0
 30
0.0
  9
$PUCSORGBOTTOM
 10
0.0
 20
0.0
 30
0.0
  9
$PUCSORGLEFT
 10
0.0
 20
0.0
 30
0.0
  9
$PUCSORGRIGHT
 10
0.0
 20
0.0
 30
0.0
  9
$PUCSORGFRONT
 10
0.0
 20
0.0
 30
0.0
  9
$PUCSORGBACK
 10
0.0
 20
0.0
 30
0.0
  9
$USERI1
 70
     0
  9
$USERI2
 70
     0
  9
$USERI3
 70
     0
  9
$USERI4
 70
     0
  9
$USERI5
 70
     0
  9
$USERR1
 40
0.0
  9
$USERR2
 40
0.0
  9
$USERR3
 40
0.0
  9
$USERR4
 40
0.0
  9
$USERR5
 40
0.0
  9
$WORLDVIEW
 70
     1
  9
$SHADEDGE
 70
     3
  9
$SHADEDIF
 70
    70
  9
$TILEMODE
 70
     1
  9
$MAXACTVP
 70
    64
  9
$PINSBASE
 10
0.0
 20
0.0
 30
0.0
  9
$PLIMCHECK
 70
     0
  9
$PEXTMIN
 10
0.0
 20
0.0
 30
0.0
  9
$PEXTMAX
 10
3000.0
 20
4500.0
 30
0.0
  9
$PLIMMIN
 10
0.0
 20
0.0
  9
$PLIMMAX
 10
3000.0
 20
4500.0
  9
$UNITMODE
 70
     0
  9
$VISRETAIN
 70
     1
  9
$PLINEGEN
 70
     0
  9
$PSLTSCALE
 70
     1
  9
$TREEDEPTH
 70
  3020
  9
$CMLSTYLE
  2
Standard
  9
$CMLJUST
 70
     0
  9
$CMLSCALE
 40
20.0
  9
$PROXYGRAPHICS
 70
     1
  9
$MEASUREMENT
 70
     1
  9
$CELWEIGHT
370
    -1
  9
$ENDCAPS
280
     0
  9
$JOINSTYLE
280
     0
  9
$LWDISPLAY
290
     0
  9
$INSUNITS
 70
     4
  9
$HYPERLINKBASE
  1

  9
$STYLESHEET
  1

  9
$XEDIT
290
     1
  9
$CEPSNTYPE
380
     0
  9
$PSTYLEMODE
290
     1
  9
$FINGERPRINTGUID
  2
{46EE6429-5883-4E57-B179-045D0999378F}
  9
$VERSIONGUID
  2
{FAEB1C32-E019-11D5-929B-00C0DF256EC4}
  9
$EXTNAMES
290
     1
  9
$PSVPSCALE
 40
0.0
  9
$OLESTARTUP
290
     0
  9
$SORTENTS
280
   127
  9
$INDEXCTL
280
     0
  9
$HIDETEXT
280
     1
  9
$XCLIPFRAME
290
     0
  9
$HALOGAP
280
     0
  9
$OBSCOLOR
 70
   257
  9
$OBSLTYPE
280
     0
  9
$INTERSECTIONDISPLAY
280
     0
  9
$INTERSECTIONCOLOR
 70
   257
  9
$DIMASSOC
280
     2
  9
$PROJECTNAME
  1

  9
$CAMERADISPLAY
290
     0
  9
$LENSLENGTH
 40
50.0
  9
$CAMERAHEIGHT
 40
0.0
  9
$STEPSPERSEC
 40
2.0
  9
$STEPSIZE
 40
6.0
  9
$3DDWFPREC
 40
2.0
  9
$PSOLWIDTH
 40
5.0
  9
$PSOLHEIGHT
 40
80.0
  9
$LOFTANG1
 40
1.5707963268
  9
$LOFTANG2
 40
1.5707963268
  9
$LOFTMAG1
 40
0.0
  9
$LOFTMAG2
 40
0.0
  9
$LOFTPARAM
 70
     7
  9
$LOFTNORMALS
280
     1
  9
$LATITUDE
 40
37.795
  9
$LONGITUDE
 40
-122.394
  9
$NORTHDIRECTION
 40
0.0
  9
$TIMEZONE
 70
 -8000
  9
$LIGHTGLYPHDISPLAY
280
     1
  9
$TILEMODELIGHTSYNCH
280
     1
  9
$CMATERIAL
347
44
  9
$SOLIDHIST
280
     0
  9
$SHOWHIST
280
     1
  9
$DWFFRAME
280
     2
  9
$DGNFRAME
280
     2
  9
$REALWORLDSCALE
290
     1
  9
$INTERFERECOLOR
 62
   256
  9
$CSHADOW
280
     0
  9
$SHADOWPLANELOCATION
 40
0.0
  0
ENDSEC
  0
SECTION
  2
CLASSES
  0
CLASS
  1
ACDBDICTIONARYWDFLT
  2
AcDbDictionaryWithDefault
  3
ObjectDBX Classes
 90
        0
 91
        4
280
     0
281
     0
  0
CLASS
  1
VISUALSTYLE
  2
AcDbVisualStyle
  3
ObjectDBX Classes
 90
     4095
 91
        4
280
     0
281
     0
  0
CLASS
  1
MATERIAL
  2
AcDbMaterial
  3
ObjectDBX Classes
 90
     1153
 91
        4
280
     0
281
     0
  0
CLASS
  1
SCALE
  2
AcDbScale
  3
ObjectDBX Classes
 90
     1153
 91
        4
280
     0
281
     0
  0
CLASS
  1
TABLESTYLE
  2
AcDbTableStyle
  3
ObjectDBX Classes
 90
     4095
 91
        4
280
     0
281
     0
  0
CLASS
  1
MLEADERSTYLE
  2
AcDbMLeaderStyle
  3
ACDB_MLEADERSTYLE_CLASS
 90
     4095
 91
        4
280
     0
281
     0
  0
CLASS
  1
SUN
  2
AcDbSun
  3
SCENEOE
 90
     1153
 91
        4
280
     0
281
     0
  0
CLASS
  1
DICTIONARYVAR
  2
AcDbDictionaryVar
  3
ObjectDBX Classes
 90
        0
 91
        4
280
     0
281
     0
  0
CLASS
  1
CELLSTYLEMAP
  2
AcDbCellStyleMap
  3
ObjectDBX Classes
 90
     1152
 91
        4
280
     0
281
     0
  0
ENDSEC
  0
SECTION
  2
TABLES
  0
TABLE
  2
VPORT
  5
8
330
0
100
AcDbSymbolTable
 70
     1
  0
VPORT
  5
29
330
8
100
AcDbSymbolTableRecord
100
AcDbViewportTableRecord
  2
*Active
 70
     0
 10
0.0
 20
0.0
 11
1.0
 21
1.0
 12
344.1869158879
 22
148.5
 13
0.0
 23
0.0
 14
10.0
 24
10.0
 15
10.0
 25
10.0
 16
0.0
 26
0.0
 36
1.0
 17
0.0
 27
0.0
 37
0.0
 40
297.0
 41
1.9729729729
 42
50.0
 43
0.0
 44
0.0
 50
0.0
 51
0.0
 71
     0
 72
   100
 73
     1
 74
     3
 75
     0
 76
     0
 77
     0
 78
     0
281
     0
 65
     1
110
0.0
120
0.0
130
0.0
111
1.0
121
0.0
131
0.0
112
0.0
122
1.0
132
0.0
 79
     0
146
0.0
348
2F
 60
     3
 61
     5
292
     1
282
     1
141
0.0
142
0.0
 63
   250
361
6D
  0
ENDTAB
  0
TABLE
  2
LTYPE
  5
5
330
0
100
AcDbSymbolTable
 70
     1
  0
LTYPE
  5
14
330
5
100
AcDbSymbolTableRecord
100
AcDbLinetypeTableRecord
  2
ByBlock
 70
     0
  3

 72
    65
 73
     0
 40
0.0
  0
LTYPE
  5
15
330
5
100
AcDbSymbolTableRecord
100
AcDbLinetypeTableRecord
  2
ByLayer
 70
     0
  3

 72
    65
 73
     0
 40
0.0
  0
LTYPE
  5
16
330
5
100
AcDbSymbolTableRecord
100
AcDbLinetypeTableRecord
  2
Continuous
 70
     0
  3
Solid line
 72
    65
 73
     0
 40
0.0
  0
ENDTAB
  0
TABLE
  2
LAYER
  5
2
330
0
100
AcDbSymbolTable
 70
     5
  0
LAYER
  5
10
330
2
100
AcDbSymbolTableRecord
100
AcDbLayerTableRecord
  2
0
 70
     0
 62
     7
  6
Continuous
370
    -3
390
F
347
46
  0
LAYER
  5
6E
330
2
100
AcDbSymbolTableRecord
100
AcDbLayerTableRecord
  2
Default
 70
     0
 62
     7
  6
Continuous
370
    -3
390
F
347
46
  0
LAYER
  5
7D
330
2
100
AcDbSymbolTableRecord
100
AcDbLayerTableRecord
  2
DV1_Default
 70
     0
 62
     7
  6
Continuous
370
    -3
390
F
347
46
  0
LAYER
  5
152
330
2
100
AcDbSymbolTableRecord
100
AcDbLayerTableRecord
  2
DV2_Default
 70
     0
 62
     7
  6
Continuous
370
    -3
390
F
347
46
  0
LAYER
  5
233
330
2
100
AcDbSymbolTableRecord
100
AcDbLayerTableRecord
  2
DV3_Default
 70
     0
 62
     7
  6
Continuous
370
    -3
390
F
347
46
  0
ENDTAB
  0
TABLE
  2
STYLE
  5
3
330
0
100
AcDbSymbolTable
 70
     1
  0
STYLE
  5
11
330
3
100
AcDbSymbolTableRecord
100
AcDbTextStyleTableRecord
  2
Standard
 70
     0
 40
0.0
 41
1.0
 50
0.0
 71
     0
 42
10.0
  3
txt
  4

  0
ENDTAB
  0
TABLE
  2
VIEW
  5
6
330
0
100
AcDbSymbolTable
 70
     0
  0
ENDTAB
  0
TABLE
  2
UCS
  5
7
330
0
100
AcDbSymbolTable
 70
     0
  0
ENDTAB
  0
TABLE
  2
APPID
  5
9
330
0
100
AcDbSymbolTable
 70
     2
  0
APPID
  5
12
330
9
100
AcDbSymbolTableRecord
100
AcDbRegAppTableRecord
  2
ACAD
 70
     0
  0
APPID
  5
339
330
9
100
AcDbSymbolTableRecord
100
AcDbRegAppTableRecord
  2
ACAD_MLEADERVER
 70
     0
  0
ENDTAB
  0
TABLE
  2
DIMSTYLE
  5
A
330
0
100
AcDbSymbolTable
 70
     1
100
AcDbDimStyleTable
  0
DIMSTYLE
105
27
330
A
100
AcDbSymbolTableRecord
100
AcDbDimStyleTableRecord
  2
ISO-25
 70
     0
 41
2.5
 42
0.625
 43
3.75
 44
1.25
 73
     0
 74
     0
 77
     1
 78
     8
140
2.5
141
2.5
143
0.0393700787
147
0.625
171
     3
172
     1
178
     0
271
     2
272
     2
274
     3
278
    44
283
     0
284
     8
340
11
  0
ENDTAB
  0
TABLE
  2
BLOCK_RECORD
  5
1
330
0
100
AcDbSymbolTable
 70
     6
  0
BLOCK_RECORD
  5
1F
330
1
100
AcDbSymbolTableRecord
100
AcDbBlockTableRecord
  2
*Model_Space
340
22
 70
     0
280
     1
281
     0
  0
BLOCK_RECORD
  5
1B
330
1
100
AcDbSymbolTableRecord
100
AcDbBlockTableRecord
  2
*Paper_Space
340
1E
 70
     0
280
     1
281
     0
  0
BLOCK_RECORD
  5
6F
330
1
100
AcDbSymbolTableRecord
100
AcDbBlockTableRecord
  2
SEANNOT_GROUP
340
0
102
{BLKREFS
331
70
102
}
 70
     0
280
     1
281
     0
  0
BLOCK_RECORD
  5
75
330
1
100
AcDbSymbolTableRecord
100
AcDbBlockTableRecord
  2
SEANNOT_GROUP1
340
0
102
{BLKREFS
331
76
102
}
 70
     0
280
     1
281
     0
  0
BLOCK_RECORD
  5
7B
330
1
100
AcDbSymbolTableRecord
100
AcDbBlockTableRecord
  2
SE
340
0
102
{BLKREFS
331
7C
102
}
 70
     0
280
     1
281
     0
  0
BLOCK_RECORD
  5
150
330
1
100
AcDbSymbolTableRecord
100
AcDbBlockTableRecord
  2
SE1
340
0
102
{BLKREFS
331
151
102
}
 70
     0
280
     1
281
     0
  0
BLOCK_RECORD
  5
231
330
1
100
AcDbSymbolTableRecord
100
AcDbBlockTableRecord
  2
SE2
340
0
102
{BLKREFS
331
232
102
}
 70
     0
280
     1
281
     0
  0
ENDTAB
  0
ENDSEC
  0
SECTION
  2
BLOCKS
  0
BLOCK
  5
20
330
1F
100
AcDbEntity
  8
0
100
AcDbBlockBegin
  2
*Model_Space
 70
     0
 10
0.0
 20
0.0
 30
0.0
  3
*Model_Space
  1

  0
ENDBLK
  5
21
330
1F
100
AcDbEntity
  8
0
100
AcDbBlockEnd
  0
BLOCK
  5
1C
330
1B
100
AcDbEntity
 67
     1
  8
0
100
AcDbBlockBegin
  2
*Paper_Space
 70
     0
 10
0.0
 20
0.0
 30
0.0
  3
*Paper_Space
  1

  0
ENDBLK
  5
1D
330
1B
100
AcDbEntity
 67
     1
  8
0
100
AcDbBlockEnd
  0
BLOCK
  5
73
330
6F
100
AcDbEntity
  8
0
100
AcDbBlockBegin
  2
SEANNOT_GROUP
 70
     0
 10
0.0
 20
0.0
 30
0.0
  3
SEANNOT_GROUP
  1

  0
LINE
  5
71
330
6F
100
AcDbEntity
  8
Default
 62
   136
100
AcDbLine
 10
235.766693426
 20
1030.027731568
 30
0.0
 11
195.7666943201
 21
1030.027731568
 31
0.0
  0
LINE
  5
72
330
6F
100
AcDbEntity
  8
Default
 62
   136
100
AcDbLine
 10
215.7666938731
 20
1050.027731121
 30
0.0
 11
215.7666938731
 21
1010.0277320151
 31
0.0
  0
ENDBLK
  5
74
330
6F
100
AcDbEntity
  8
0
100
AcDbBlockEnd
  0
BLOCK
  5
79
330
75
100
AcDbEntity
  8
0
100
AcDbBlockBegin
  2
SEANNOT_GROUP1
 70
     0
 10
0.0
 20
0.0
 30
0.0
  3
SEANNOT_GROUP1
  1

  0
LINE
  5
77
330
75
100
AcDbEntity
  8
Default
 62
   136
100
AcDbLine
 10
796.6626317822
 20
885.0277314226
 30
0.0
 11
756.6626326762
 21
885.0277314226
 31
0.0
  0
LINE
  5
78
330
75
100
AcDbEntity
  8
Default
 62
   136
100
AcDbLine
 10
776.6626322292
 20
905.0277309755
 30
0.0
 11
776.6626322292
 21
865.0277318696
 31
0.0
  0
ENDBLK
  5
7A
330
75
100
AcDbEntity
  8
0
100
AcDbBlockEnd
  0
BLOCK
  5
14E
330
7B
100
AcDbEntity
  8
0
100
AcDbBlockBegin
  2
SE
 70
     0
 10
0.0
 20
0.0
 30
0.0
  3
SE
  1

  0
LINE
  5
7E
330
7B
100
AcDbEntity
  8
DV1_Default
 62
     7
100
AcDbLine
 10
29.6094813537
 20
1612.0277684944
 30
0.0
 11
30.0989073995
 21
1612.0277684976
 31
0.0
  0
LINE
  5
7F
330
7B
100
AcDbEntity
  8
DV1_Default
 62
     7
100
AcDbLine
 10
44.135724531
 20
1612.0277685873
 30
0.0
 11
49.286441584
 21
1612.0277686202
 31
0.0
  0
LINE
  5
80
330
7B
100
AcDbEntity
  8
DV1_Default
 62
     7
100
AcDbLine
 10
381.9271665624
 20
1612.0277686222
 30
0.0
 11
49.6067905431
 21
1612.0277686222
 31
0.0
  0
LINE
  5
81
330
7B
100
AcDbEntity
  8
DV1_Default
 62
     7
100
AcDbLine
 10
382.1727557642
 20
1612.0277686222
 30
0.0
 11
401.9238898412
 21
1612.0277686222
 31
0.0
  0
ARC
  5
82
330
7B
100
AcDbEntity
  8
DV1_Default
 62
     7
100
AcDbCircle
 10
29.6094813532
 20
1607.0277686222
 30
0.0
 40
4.999999872266001
100
AcDbArc
 50
89.9999999944
 51
181.3062337506
  0
ARC
  5
83
330
7B
100
AcDbEntity
  8
DV1_Default
 62
     7
100
AcDbCircle
 10
401.9238898412
 20
1607.0277686222
 30
0.0
 40
4.999999067476003
100
AcDbArc
 50
358.6911359047
 51
90.0
  0
LINE
  5
84
330
7B
100
AcDbEntity
  8
DV1_Default
 62
     7
100
AcDbLine
 10
382.1701909399
 20
1612.0277722934
 30
0.0
 11
402.1676729894
 21
1612.0277745023
 31
0.0
  0
LINE
  5
85
330
7B
100
AcDbEntity
  8
DV1_Default
 62
     7
100
AcDbLine
 10
29.365713811
 20
1612.0277759687
 30
0.0
 11
49.3624019035
 21
1612.0277779467
 31
0.0
  0
LINE
  5
86
330
7B
100
AcDbEntity
  8
DV1_Default
 62
     7
100
AcDbLine
 10
47.6371382348
 20
1612.0277686223
 30
0.0
 11
47.6371443089
 21
1612.0277772969
 31
0.0
  0
LINE
  5
87
330
7B
100
AcDbEntity
  8
DV1_Default
 62
     7
100
AcDbLine
 10
383.8962495096
 20
1612.0277686222
 30
0.0
 11
383.8962424409
 21
1612.0277787175
 31
0.0
  0
LINE
  5
88
330
7B
100
AcDbEntity
  8
DV1_Default
 62
     7
100
AcDbLine
 10
382.8984068913
 20
1662.027719081
 30
0.0
 11
392.8963935258
 21
1662.0277266766
 31
0.0
  0
LINE
  5
89
330
7B
100
AcDbEntity
  8
DV1_Default
 62
     7
100
AcDbLine
 10
382.8955029853
 20
1662.0277265421
 30
0.0
 11
245.7330266492
 21
1662.0277278111
 31
0.0
  0
LINE
  5
8A
330
7B
100
AcDbEntity
  8
DV1_Default
 62
     7
100
AcDbLine
 10
186.4949538076
 20
1662.0277283592
 30
0.0
 11
48.6381325473
 21
1662.0277296346
 31
0.0
  0
ELLIPSE
  5
8B
330
7B
100
AcDbEntity
  8
DV1_Default
 62
     7
100
AcDbEllipse
 10
48.6339759519
 20
1662.027687846
 30
0.0
 11
9.996985062090625
 21
-3.855037394862038E-5
 31
0.0
210
0.0
220
0.0
230
1.0
 40
0.0000036784
 41
1.57071232022723
 42
3.141592653589793
  0
ARC
  5
8C
330
7B
100
AcDbEntity
  8
DV1_Default
 62
     7
100
AcDbCircle
 10
38.6369896182
 20
1647.0277609853
 30
0.0
 40
14.99996807232878
100
AcDbArc
 50
89.9999906653
 51
181.397290281
  0
ARC
  5
8D
330
7B
100
AcDbEntity
  8
DV1_Default
 62
     7
100
AcDbCircle
 10
392.8964023138
 20
1647.0277625044
 30
0.0
 40
14.99996417223965
100
AcDbArc
 50
358.6027054181
 51
90.0000335679
  0
LINE
  5
8E
330
7B
100
AcDbEntity
  8
DV1_Default
 62
     7
100
AcDbLine
 10
24.367221003
 20
1616.9058549297
 30
0.0
 11
23.6414750172
 21
1646.6619880431
 31
0.0
  0
ARC
  5
8F
330
7B
100
AcDbEntity
  8
DV1_Default
 62
     7
100
AcDbCircle
 10
29.3657145237
 20
1617.0277623322
 30
0.0
 40
4.999986363505204
100
AcDbArc
 50
181.3970999395
 51
269.9999918336
  0
ARC
  5
90
330
7B
100
AcDbEntity
  8
DV1_Default
 62
     7
100
AcDbCircle
 10
402.1676470528
 20
1617.0277843475
 30
0.0
 40
5.00000984526349
100
AcDbArc
 50
270.0002972105
 51
358.6026597344
  0
LINE
  5
91
330
7B
100
AcDbEntity
  8
DV1_Default
 62
     7
100
AcDbLine
 10
407.1661651418
 20
1616.9058552449
 30
0.0
 11
407.8919115367
 21
1646.6619890253
 31
0.0
  0
LINE
  5
92
330
7B
100
AcDbEntity
  8
DV1_Default
 62
     7
100
AcDbLine
 10
382.9022712428
 20
1662.0277327834
 30
0.0
 11
48.6311510738
 21
1662.0277327834
 31
0.0
  0
ARC
  5
93
330
7B
100
AcDbEntity
  8
DV1_Default
 62
     7
100
AcDbCircle
 10
389.6183732651
 20
1475.5381487999
 30
0.0
 40
186.3575729481415
100
AcDbArc
 50
88.1974805511
 51
88.4534413929
  0
LINE
  5
94
330
7B
100
AcDbEntity
  8
DV1_Default
 62
     7
100
AcDbLine
 10
48.6311510738
 20
1662.0277327834
 30
0.0
 11
48.6310740945
 21
1662.0277327834
 31
0.0
  0
LINE
  5
95
330
7B
100
AcDbEntity
  8
DV1_Default
 62
     7
100
AcDbLine
 10
49.3566399822
 20
1612.0277698376
 30
0.0
 11
382.2523310283
 21
1612.0277698376
 31
0.0
  0
LINE
  5
96
330
7B
100
AcDbEntity
  8
DV1_Default
 62
     7
100
AcDbLine
 10
187.0553241806
 20
1667.0586692391
 30
0.0
 11
187.4967906124
 21
1667.0586692391
 31
0.0
  0
LINE
  5
97
330
7B
100
AcDbEntity
  8
DV1_Default
 62
     7
100
AcDbLine
 10
193.9596932397
 20
1667.2551183226
 30
0.0
 11
194.2962667914
 21
1667.2551183226
 31
0.0
  0
ELLIPSE
  5
98
330
7B
100
AcDbEntity
  8
DV1_Default
 62
     7
100
AcDbEllipse
 10
216.1140118342
 20
767.1946982931
 30
0.0
 11
-0.0007162488600602696
 21
900.333034514136
 31
0.0
210
0.0
220
0.0
230
1.0
 40
0.9848073365
 41
0.0246084909511888
 42
0.032280300005535
  0
LINE
  5
99
330
7B
100
AcDbEntity
  8
DV1_Default
 62
     7
100
AcDbLine
 10
194.3161776582
 20
1667.2551183226
 30
0.0
 11
194.2962667914
 21
1667.2551183226
 31
0.0
  0
LINE
  5
9A
330
7B
100
AcDbEntity
  8
DV1_Default
 62
     7
100
AcDbLine
 10
238.2682872171
 20
1667.2551183226
 30
0.0
 11
194.3161776582
 21
1667.2551183225
 31
0.0
  0
LINE
  5
9B
330
7B
100
AcDbEntity
  8
DV1_Default
 62
     7
100
AcDbLine
 10
186.0879423466
 20
1666.0853671768
 30
0.0
 11
185.9951251451
 21
1662.5408212575
 31
0.0
  0
ARC
  5
9C
330
7B
100
AcDbEntity
  8
DV1_Default
 62
     7
100
AcDbCircle
 10
186.4949538076
 20
1662.5277327833
 30
0.0
 40
0.5000000000000028
100
AcDbArc
 50
178.5000000001
 51
270.0000000003
  0
ARC
  5
9D
330
7B
100
AcDbEntity
  8
DV1_Default
 62
     7
100
AcDbCircle
 10
245.7330266492
 20
1662.5277327833
 30
0.0
 40
0.5000000000000004
100
AcDbArc
 50
269.9999999997
 51
1.4999999999
  0
LINE
  5
9E
330
7B
100
AcDbEntity
  8
DV1_Default
 62
     7
100
AcDbLine
 10
246.2328553117
 20
1662.5408212575
 30
0.0
 11
246.1400381102
 21
1666.0853671768
 31
0.0
  0
ARC
  5
9F
330
7B
100
AcDbEntity
  8
DV1_Default
 62
     7
100
AcDbCircle
 10
245.1403807852
 20
1666.0591902285
 30
0.0
 40
0.9999999999998498
100
AcDbArc
 50
1.5
 51
88.1504293762
  0
ARC
  5
A0
330
7B
100
AcDbEntity
  8
DV1_Default
 62
     7
100
AcDbCircle
 10
187.0875996715
 20
1666.0591902285
 30
0.0
 40
0.9999999999998762
100
AcDbArc
 50
91.8495706236
 51
178.5
  0
ARC
  5
A1
330
7B
100
AcDbEntity
  8
DV1_Default
 62
     7
100
AcDbCircle
 10
216.1139902284
 20
767.1954607054
 30
0.0
 40
900.332272077944
100
AcDbArc
 50
91.4100081571
 51
91.8495706232
  0
ARC
  5
A2
330
7B
100
AcDbEntity
  8
DV1_Default
 62
     7
100
AcDbCircle
 10
216.1139902284
 20
767.1954607054
 30
0.0
 40
900.3322720779878
100
AcDbArc
 50
88.1504293768
 51
88.5899918429
  0
ARC
  5
A3
330
7B
100
AcDbEntity
  8
DV1_Default
 62
     7
100
AcDbCircle
 10
238.2559838166
 20
1666.7552697192
 30
0.0
 40
0.4999999999999355
100
AcDbArc
 50
88.5899918427
 51
90.0
  0
ARC
  5
A4
330
7B
100
AcDbEntity
  8
DV1_Default
 62
     7
100
AcDbCircle
 10
193.9719966402
 20
1666.7552697192
 30
0.0
 40
0.4999999999999449
100
AcDbArc
 50
90.0
 51
91.4100081573
  0
LINE
  5
A5
330
7B
100
AcDbEntity
  8
DV1_Default
 62
     7
100
AcDbLine
 10
238.2559838166
 20
1667.2552697192
 30
0.0
 11
193.9719966402
 21
1667.2552697192
 31
0.0
  0
SPLINE
  5
A6
330
7B
100
AcDbEntity
  8
DV1_Default
 62
     7
100
AcDbSpline
210
0.0
220
0.0
230
1.0
 70
     8
 71
     3
 72
    15
 73
    11
 74
     0
 42
0.000000001
 43
0.0000000001
 40
0.0
 40
0.0
 40
0.0
 40
0.0
 40
0.0874488222603446
 40
0.1748899084956946
 40
0.302707928600316
 40
0.4305296940749173
 40
0.5785580986521367
 40
0.7265660813787445
 40
0.8706133771600607
 40
1.0
 40
1.0
 40
1.0
 40
1.0
 10
214.8343361820389
 20
1671.800280974291
 30
0.0
 10
215.4270724284863
 20
1671.800438767466
 30
0.0
 10
216.6124924859334
 20
1671.800754339858
 30
0.0
 10
218.6324932864958
 20
1671.803567150833
 30
0.0
 10
220.7951385487229
 20
1671.809131231876
 30
0.0
 10
223.0034938545857
 20
1671.819125810496
 30
0.0
 10
224.796014876736
 20
1671.833308305806
 30
0.0
 10
225.9161980529926
 20
1671.851823289081
 30
0.0
 10
226.2036458242837
 20
1671.872770554622
 30
0.0
 10
225.9043627722706
 20
1671.887981745909
 30
0.0
 10
225.6552691362656
 20
1671.895518450754
 30
0.0
  0
SPLINE
  5
A7
330
7B
100
AcDbEntity
  8
DV1_Default
 62
     7
100
AcDbSpline
210
0.0
220
0.0
230
1.0
 70
     8
 71
     3
 72
    13
 73
     9
 74
     0
 42
0.000000001
 43
0.0000000001
 40
0.0
 40
0.0
 40
0.0
 40
0.0
 40
0.330770675819013
 40
0.5942151417053266
 40
0.7078312809654573
 40
0.8214427374398832
 40
0.9107219454921976
 40
1.0
 40
1.0
 40
1.0
 40
1.0
 10
225.2053337435433
 20
1671.906994580112
 30
0.0
 10
224.688150165683
 20
1671.918482243464
 30
0.0
 10
223.3695888378902
 20
1671.940206130325
 30
0.0
 10
221.1563726826637
 20
1671.966725192317
 30
0.0
 10
219.4371483811961
 20
1671.984080169916
 30
0.0
 10
218.2704863598418
 20
1671.994005783557
 30
0.0
 10
217.1625418869877
 20
1672.00120646909
 30
0.0
 10
216.4737071065849
 20
1672.002176776235
 30
0.0
 10
216.1292919392405
 20
1672.002661926672
 30
0.0
  0
SPLINE
  5
A8
330
7B
100
AcDbEntity
  8
DV1_Default
 62
     7
100
AcDbSpline
210
0.0
220
0.0
230
1.0
 70
     8
 71
     3
 72
    29
 73
    25
 74
     0
 42
0.000000001
 43
0.0000000001
 40
0.0
 40
0.0
 40
0.0
 40
0.0
 40
0.0122300685133118
 40
0.0371807077072531
 40
0.0600060838033322
 40
0.0837957965544061
 40
0.1140320967726627
 40
0.1479827580450268
 40
0.1829095988251268
 40
0.2211004481268983
 40
0.2711977723028097
 40
0.3357849070004145
 40
0.3931528530797485
 40
0.4619892982611616
 40
0.526961588482346
 40
0.5965245212296959
 40
0.6706732665183665
 40
0.757291615197406
 40
0.8458432556224464
 40
0.884314810243727
 40
0.9227914612904445
 40
0.9485302299033195
 40
0.9742653755407101
 40
1.0
 40
1.0
 40
1.0
 40
1.0
 10
216.1292919392405
 20
1672.002661926672
 30
0.0
 10
215.9938087704173
 20
1672.002590487025
 30
0.0
 10
215.5819255356035
 20
1672.002373302909
 30
0.0
 10
214.9157697659926
 20
1671.999841183194
 30
0.0
 10
214.1248802964108
 20
1671.995004793119
 30
0.0
 10
213.2834326768317
 20
1671.988495933693
 30
0.0
 10
212.3366070864155
 20
1671.980077873808
 30
0.0
 10
211.302229946994
 20
1671.969946848105
 30
0.0
 10
210.2352660653449
 20
1671.958684754481
 30
0.0
 10
209.0843649719563
 20
1671.945616924046
 30
0.0
 10
207.7950412787677
 20
1671.929514678383
 30
0.0
 10
206.5877582601451
 20
1671.911873595063
 30
0.0
 10
205.5913550882717
 20
1671.893257648882
 30
0.0
 10
204.981236334899
 20
1671.875767354296
 30
0.0
 10
204.8017543878213
 20
1671.858779105761
 30
0.0
 10
205.1091856767811
 20
1671.843204753352
 30
0.0
 10
206.0122782410574
 20
1671.82845136313
 30
0.0
 10
207.6171376484481
 20
1671.815673796473
 30
0.0
 10
209.4798408697789
 20
1671.807933927499
 30
0.0
 10
211.1070307865677
 20
1671.803850701167
 30
0.0
 10
212.1740550906576
 20
1671.80202628139
 30
0.0
 10
213.1382967926613
 20
1671.800970198757
 30
0.0
 10
213.9808501236825
 20
1671.800393514119
 30
0.0
 10
214.5498427497593
 20
1671.800318487314
 30
0.0
 10
214.8343361820389
 20
1671.800280974291
 30
0.0
  0
LINE
  5
A9
330
7B
100
AcDbEntity
  8
DV1_Default
 62
     7
100
AcDbLine
 10
237.0257154321
 20
1667.2552697192
 30
0.0
 11
237.0046092255
 21
1671.2862214138
 31
0.0
  0
LINE
  5
AA
330
7B
100
AcDbEntity
  8
DV1_Default
 62
     7
100
AcDbLine
 10
194.9968440657
 20
1671.2862214138
 30
0.0
 11
194.9757378591
 21
1667.2552697192
 31
0.0
  0
ARC
  5
AB
330
7B
100
AcDbEntity
  8
DV1_Default
 62
     7
100
AcDbCircle
 10
195.4968372118
 20
1671.2836034319
 30
0.0
 40
0.5000000000000626
100
AcDbArc
 50
90.6820603919
 51
179.6999999998
  0
ARC
  5
AC
330
7B
100
AcDbEntity
  8
DV1_Default
 62
     7
100
AcDbCircle
 10
236.5046160794
 20
1671.2836034319
 30
0.0
 40
0.5000000000000895
100
AcDbArc
 50
0.3
 51
89.3179396079
  0
LINE
  5
AD
330
7B
100
AcDbEntity
  8
DV1_Default
 62
     7
100
AcDbLine
 10
236.5105680386
 20
1671.7835680048
 30
0.0
 11
221.8299197975
 21
1671.9583376268
 31
0.0
  0
LINE
  5
AE
330
7B
100
AcDbEntity
  8
DV1_Default
 62
     7
100
AcDbLine
 10
209.2044350033
 20
1671.9468245495
 30
0.0
 11
195.4908852526
 21
1671.7835680048
 31
0.0
  0
LINE
  5
AF
330
7B
100
AcDbEntity
  8
DV1_Default
 62
     7
100
AcDbLine
 10
206.3942156402
 20
1671.8345639182
 30
0.0
 11
206.2809375828
 21
1671.8345639182
 31
0.0
  0
LINE
  5
B0
330
7B
100
AcDbEntity
  8
DV1_Default
 62
     7
100
AcDbLine
 10
224.6826905363
 20
1671.8345639182
 30
0.0
 11
206.3942156402
 21
1671.8345639182
 31
0.0
  0
ARC
  5
B1
330
7B
100
AcDbEntity
  8
DV1_Default
 62
     7
100
AcDbCircle
 10
1675.8522738185
 20
687.9757589402
 30
0.0
 40
1582.335191438795
100
AcDbArc
 50
174.1946484122
 51
174.3038268079
  0
LINE
  5
B2
330
7B
100
AcDbEntity
  8
DV1_Default
 62
     7
100
AcDbLine
 10
36.8078406432
 20
1246.5678679563
 30
0.0
 11
37.133937827
 21
1251.2312770497
 31
0.0
  0
ARC
  5
B3
330
7B
100
AcDbEntity
  8
DV1_Default
 62
     7
100
AcDbCircle
 10
28.9604780608
 20
1247.0727540433
 30
0.0
 40
7.856635647614953
100
AcDbArc
 50
320.5601139657
 51
356.319041892
  0
ARC
  5
B4
330
7B
100
AcDbEntity
  8
DV1_Default
 62
     7
100
AcDbCircle
 10
41.2907104004
 20
1237.0211122041
 30
0.0
 40
8.05169371259996
100
AcDbArc
 50
141.0597187357
 51
184.0887505426
  0
ARC
  5
B5
330
7B
100
AcDbEntity
  8
DV1_Default
 62
     7
100
AcDbCircle
 10
199.1943812422
 20
1209.5393697484
 30
0.0
 40
157.6775838461797
100
AcDbArc
 50
234.5886792031
 51
235.871568999
  0
LINE
  5
B6
330
7B
100
AcDbEntity
  8
DV1_Default
 62
     7
100
AcDbLine
 10
101.632459395
 20
848.027731568
 30
0.0
 11
122.1337596676
 21
1050.5459568334
 31
0.0
  0
LINE
  5
B7
330
7B
100
AcDbEntity
  8
DV1_Default
 62
     7
100
AcDbLine
 10
123.2403817822
 20
1061.3370360988
 30
0.0
 11
123.2201393124
 21
1061.2827600028
 31
0.0
  0
SPLINE
  5
B8
330
7B
100
AcDbEntity
  8
DV1_Default
 62
     7
100
AcDbSpline
210
0.0
220
0.0
230
1.0
 70
     8
 71
     3
 72
    17
 73
    13
 74
     0
 42
0.000000001
 43
0.0000000001
 40
0.0
 40
0.0
 40
0.0
 40
0.0
 40
0.1000786056082102
 40
0.2001144122547667
 40
0.3001169363404702
 40
0.4000956846985809
 40
0.5000601543461966
 40
0.6000198322393548
 40
0.699984195033315
 40
0.7999627088486592
 40
0.8999648290445725
 40
1.0
 40
1.0
 40
1.0
 40
1.0
 10
123.2203061989574
 20
1061.282743244348
 30
0.0
 10
123.1842925238096
 20
1060.925588646506
 30
0.0
 10
123.1120294964974
 20
1060.211457606396
 30
0.0
 10
123.003528846114
 20
1059.139269290343
 30
0.0
 10
122.894985144288
 20
1058.066697429937
 30
0.0
 10
122.7863886092076
 20
1056.99364962623
 30
0.0
 10
122.6777418399723
 20
1055.920150646198
 30
0.0
 10
122.5690441115648
 20
1054.846193876578
 30
0.0
 10
122.4602956263992
 20
1053.771781106087
 30
0.0
 10
122.3514962072761
 20
1052.696911886957
 30
0.0
 10
122.2426462752109
 20
1051.621586316062
 30
0.0
 10
122.170059196205
 20
1050.904539485693
 30
0.0
 10
122.1337596675776
 20
1050.545956833448
 30
0.0
  0
SPLINE
  5
B9
330
7B
100
AcDbEntity
  8
DV1_Default
 62
     7
100
AcDbSpline
210
0.0
220
0.0
230
1.0
 70
     8
 71
     3
 72
    25
 73
    21
 74
     0
 42
0.000000001
 43
0.0000000001
 40
0.0
 40
0.0
 40
0.0
 40
0.0
 40
0.2953187594918301
 40
0.4928893187224803
 40
0.6215118663796303
 40
0.7028679886704918
 40
0.7562406476575052
 40
0.7801375990892211
 40
0.7964310827859531
 40
0.8084095393193922
 40
0.8225223980155943
 40
0.833533454754743
 40
0.844746382096062
 40
0.8581480748862237
 40
0.8726901180160657
 40
0.8904634045090809
 40
0.910550345530069
 40
0.9369165835034331
 40
0.9598082694855506
 40
1.0
 40
1.0
 40
1.0
 40
1.0
 10
101.3303349559576
 20
845.0277315680477
 30
0.0
 10
101.364979462367
 20
845.0277278772724
 30
0.0
 10
101.422801414389
 20
845.027721717346
 30
0.0
 10
101.6769859063919
 20
845.0277514972682
 30
0.0
 10
102.0386729528616
 20
845.0277360633469
 30
0.0
 10
102.5388330650532
 20
845.0277742147747
 30
0.0
 10
103.1497778957609
 20
845.0276464033157
 30
0.0
 10
103.9081117567453
 20
845.0276572031423
 30
0.0
 10
104.6466703793351
 20
845.0279124478865
 30
0.0
 10
105.6591487142343
 20
845.0274912942815
 30
0.0
 10
107.2066426527767
 20
845.0286118322236
 30
0.0
 10
109.8677270451838
 20
845.0274018509324
 30
0.0
 10
113.4322364343035
 20
845.0284091433838
 30
0.0
 10
118.30618448749
 20
845.0274772380541
 30
0.0
 10
124.8427319516719
 20
845.0278069632693
 30
0.0
 10
132.9133478393801
 20
845.0277671038536
 30
0.0
 10
143.1316682232464
 20
845.0274748200278
 30
0.0
 10
154.3408678968184
 20
845.0279349562957
 30
0.0
 10
168.8904256513875
 20
845.0270725653397
 30
0.0
 10
179.2118854310068
 20
845.0274750518902
 30
0.0
 10
185.7878978288976
 20
845.0277314963477
 30
0.0
  0
ARC
  5
BA
330
7B
100
AcDbEntity
  8
DV1_Default
 62
     7
100
AcDbCircle
 10
108.3040430591
 20
1062.7792529662
 30
0.0
 40
14.99114563350877
100
AcDbArc
 50
354.270835228
 51
58.677272341
  0
ARC
  5
BB
330
7B
100
AcDbEntity
  8
DV1_Default
 62
     7
100
AcDbCircle
 10
370.3164382861
 20
1260.011450535
 30
0.0
 40
337.8796467697302
100
AcDbArc
 50
183.9991745884
 51
188.2226664038
  0
LINE
  5
BC
330
7B
100
AcDbEntity
  8
DV1_Default
 62
     7
100
AcDbLine
 10
35.9107094131
 20
1211.6868822314
 30
0.0
 11
38.9076315615
 21
1195.1216586604
 31
0.0
  0
ARC
  5
BD
330
7B
100
AcDbEntity
  8
DV1_Default
 62
     7
100
AcDbCircle
 10
262.6317537099
 20
1240.6024145858
 30
0.0
 40
228.3001915708838
100
AcDbArc
 50
191.491028316
 51
207.0273903506
  0
LINE
  5
BE
330
7B
100
AcDbEntity
  8
DV1_Default
 62
     7
100
AcDbLine
 10
110.7294010288
 20
1079.0166919123
 30
0.0
 11
116.0973102153
 21
1075.5854648096
 31
0.0
  0
ARC
  5
BF
330
7B
100
AcDbEntity
  8
DV1_Default
 62
     7
100
AcDbCircle
 10
41.5617484654
 20
1237.0278102071
 30
0.0
 40
7.999921360930625
100
AcDbArc
 50
90.0000815525
 51
126.9820223013
  0
ARC
  5
C0
330
7B
100
AcDbEntity
  8
DV1_Default
 62
     7
100
AcDbCircle
 10
33.397614143
 20
1234.8300733884
 30
0.0
 40
1.620845369323461
100
AcDbArc
 50
83.4169019168
 51
94.8810326626
  0
LINE
  5
C1
330
7B
100
AcDbEntity
  8
DV1_Default
 62
     7
100
AcDbLine
 10
215.7666938731
 20
845.027731568
 30
0.0
 11
185.7878978289
 21
845.0277314963
 31
0.0
  0
LINE
  5
C2
330
7B
100
AcDbEntity
  8
DV1_Default
 62
     7
100
AcDbLine
 10
41.5617370786
 20
1245.027731568
 30
0.0
 11
43.5913165455
 21
1245.027731568
 31
0.0
  0
LINE
  5
C3
330
7B
100
AcDbEntity
  8
DV1_Default
 62
     7
100
AcDbLine
 10
43.5913165455
 20
1245.027731568
 30
0.0
 11
215.7666938731
 21
1245.027731568
 31
0.0
  0
LINE
  5
C4
330
7B
100
AcDbEntity
  8
DV1_Default
 62
     7
100
AcDbLine
 10
40.0866685312
 20
1244.890371861
 30
0.0
 11
40.0620868519
 21
1244.890371861
 31
0.0
  0
SPLINE
  5
C5
330
7B
100
AcDbEntity
  8
DV1_Default
 62
     7
100
AcDbSpline
210
0.0
220
0.0
230
1.0
 70
     8
 71
     3
 72
    31
 73
    27
 74
     0
 42
0.000000001
 43
0.0000000001
 40
0.0
 40
0.0
 40
0.0
 40
0.0
 40
0.047575580070615
 40
0.1168631056090383
 40
0.1858547899443911
 40
0.2323259260287009
 40
0.2796320162575986
 40
0.3280115217118876
 40
0.3759623186680213
 40
0.4231505971619201
 40
0.4696737390178487
 40
0.5156257829075899
 40
0.5610953640940438
 40
0.6040040890516264
 40
0.6285521356266146
 40
0.6458641087777791
 40
0.6564395370145087
 40
0.6667947070115641
 40
0.6851919648430891
 40
0.7093338715469972
 40
0.7395283018929416
 40
0.7808056674821152
 40
0.8302219822673994
 40
0.8880161106714051
 40
0.9543990320150922
 40
1.0
 40
1.0
 40
1.0
 40
1.0
 10
59.26436500210367
 20
1136.859064526739
 30
0.0
 10
59.84298208689112
 20
1135.666911072116
 30
0.0
 10
61.3539128243055
 20
1132.638915346965
 30
0.0
 10
64.12253252986869
 20
1127.493228054532
 30
0.0
 10
67.34085323505992
 20
1122.092302924924
 30
0.0
 10
70.52134652810652
 20
1117.234393043914
 30
0.0
 10
73.53748572032151
 20
1112.973944600304
 30
0.0
 10
76.82656069012941
 20
1108.695759447483
 30
0.0
 10
80.27897552898791
 20
1104.569300615282
 30
0.0
 10
83.84889308215051
 20
1100.646233365156
 30
0.0
 10
87.51932206357752
 20
1096.936068877216
 30
0.0
 10
91.28546773045335
 20
1093.431919774625
 30
0.0
 10
95.07518917944004
 20
1090.182907481922
 30
0.0
 10
98.36424664885449
 20
1087.578137540954
 30
0.0
 10
100.8390888728488
 20
1085.732237228916
 30
0.0
 10
102.3584861107441
 20
1084.640010364993
 30
0.0
 10
103.346134398727
 20
1083.947443821672
 30
0.0
 10
103.9714203856296
 20
1083.516427418369
 30
0.0
 10
104.5834724220528
 20
1083.10011436491
 30
0.0
 10
105.1736882609087
 20
1082.704965536489
 30
0.0
 10
105.7544870043257
 20
1082.321583854494
 30
0.0
 10
106.2998249185768
 20
1081.967834457674
 30
0.0
 10
106.8045789001076
 20
1081.646944329004
 30
0.0
 10
107.2524308974219
 20
1081.369385041476
 30
0.0
 10
107.5857582349698
 20
1081.169808938579
 30
0.0
 10
107.7629946222421
 20
1081.067605528599
 30
0.0
 10
107.8293322969364
 20
1081.030038262843
 30
0.0
  0
ARC
  5
C6
330
7B
100
AcDbEntity
  8
DV1_Default
 62
     7
100
AcDbCircle
 10
41.0523790624
 20
1237.2594802465
 30
0.0
 40
7.515637779558139
100
AcDbArc
 50
124.9413872035
 51
186.2594402012
  0
LINE
  5
C7
330
7B
100
AcDbEntity
  8
DV1_Default
 62
     7
100
AcDbLine
 10
71.3329371433
 20
1245.0277315723
 30
0.0
 11
71.3329371433
 21
1244.9926768167
 31
0.0
  0
LINE
  5
C8
330
7B
100
AcDbEntity
  8
DV1_Default
 62
     7
100
AcDbLine
 10
33.3180375393
 20
1251.2312770497
 30
0.0
 11
179.0071323745
 21
1251.2312770497
 31
0.0
  0
LINE
  5
C9
330
7B
100
AcDbEntity
  8
DV1_Default
 62
     7
100
AcDbLine
 10
179.0071323745
 20
1251.2312770497
 30
0.0
 11
215.7666938731
 21
1251.2312770497
 31
0.0
  0
LINE
  5
CA
330
7B
100
AcDbEntity
  8
DV1_Default
 62
     7
100
AcDbLine
 10
52.5291758928
 20
1250.318800741
 30
0.0
 11
51.094375027
 21
1250.318800741
 31
0.0
  0
SPLINE
  5
CB
330
7B
100
AcDbEntity
  8
DV1_Default
 62
     7
100
AcDbSpline
210
0.0
220
0.0
230
1.0
 70
     8
 71
     5
 72
    12
 73
     6
 74
     0
 42
0.000000001
 43
0.0000000001
 40
0.0
 40
0.0
 40
0.0
 40
0.0
 40
0.0
 40
0.0
 40
1.0
 40
1.0
 40
1.0
 40
1.0
 40
1.0
 40
1.0
 10
43.23446000873002
 20
1250.699990775351
 30
0.0
 10
43.4454733451776
 20
1250.585782363226
 30
0.0
 10
43.65495217536888
 20
1250.458298106594
 30
0.0
 10
43.88833591686883
 20
1250.318800594993
 30
0.0
 10
44.12445573037174
 20
1250.318800594993
 30
0.0
 10
44.36524065225048
 20
1250.318800594993
 30
0.0
  0
LINE
  5
CC
330
7B
100
AcDbEntity
  8
DV1_Default
 62
     7
100
AcDbLine
 10
46.851406258
 20
1250.318800595
 30
0.0
 11
44.3652406523
 21
1250.318800595
 31
0.0
  0
LINE
  5
CD
330
7B
100
AcDbEntity
  8
DV1_Default
 62
     7
100
AcDbLine
 10
48.6425684046
 20
1250.318800595
 30
0.0
 11
46.851406258
 21
1250.318800595
 31
0.0
  0
LINE
  5
CE
330
7B
100
AcDbEntity
  8
DV1_Default
 62
     7
100
AcDbLine
 10
51.094375027
 20
1250.318800741
 30
0.0
 11
48.6425684046
 21
1250.318800595
 31
0.0
  0
LINE
  5
CF
330
7B
100
AcDbEntity
  8
DV1_Default
 62
     7
100
AcDbLine
 10
75.3067785098
 20
1250.318800741
 30
0.0
 11
52.5291758928
 21
1250.318800741
 31
0.0
  0
SPLINE
  5
D0
330
7B
100
AcDbEntity
  8
DV1_Default
 62
     7
100
AcDbSpline
210
0.0
220
0.0
230
1.0
 70
     8
 71
     3
 72
    14
 73
    10
 74
     0
 42
0.000000001
 43
0.0000000001
 40
0.0
 40
0.0
 40
0.0
 40
0.0
 40
0.2101846493234983
 40
0.2101846493234983
 40
0.4734564328823322
 40
0.4734564328823322
 40
0.7367282164411662
 40
0.7367282164411662
 40
1.0
 40
1.0
 40
1.0
 40
1.0
 10
84.6659808894217
 20
1251.231277049326
 30
0.0
 10
84.64480546345612
 20
1251.124802892711
 30
0.0
 10
84.61660053273648
 20
1251.01141914266
 30
0.0
 10
84.50865979090707
 20
1250.769741820669
 30
0.0
 10
84.41862200454456
 20
1250.645665040141
 30
0.0
 10
84.1869848443956
 20
1250.45574155292
 30
0.0
 10
84.04629955345969
 20
1250.390644319251
 30
0.0
 10
83.75456930425642
 20
1250.321799176792
 30
0.0
 10
83.60443842882118
 20
1250.318800741026
 30
0.0
 10
83.47146921521644
 20
1250.318800741026
 30
0.0
  0
LINE
  5
D1
330
7B
100
AcDbEntity
  8
DV1_Default
 62
     7
100
AcDbLine
 10
75.3067785098
 20
1250.318800741
 30
0.0
 11
83.4714692152
 21
1250.318800741
 31
0.0
  0
ARC
  5
D2
330
7B
100
AcDbEntity
  8
DV1_Default
 62
     7
100
AcDbCircle
 10
-1763.6193786604
 20
1082.6156391666
 30
0.0
 40
1869.412702515972
100
AcDbArc
 50
4.9839519573
 51
5.1217856301
  0
ARC
  5
D3
330
7B
100
AcDbEntity
  8
DV1_Default
 62
     7
100
AcDbCircle
 10
45.3392864206
 20
1253.5083190368
 30
0.0
 40
12.02251171089631
100
AcDbArc
 50
87.6575322722
 51
184.5742531777
  0
SPLINE
  5
D4
330
7B
100
AcDbEntity
  8
DV1_Default
 62
     7
100
AcDbSpline
210
0.0
220
0.0
230
1.0
 70
     8
 71
     3
 72
     8
 73
     4
 74
     0
 42
0.000000001
 43
0.0000000001
 40
0.0
 40
0.0
 40
0.0
 40
0.0
 40
1.0
 40
1.0
 40
1.0
 40
1.0
 10
98.15421740253996
 20
1251.232596948523
 30
0.0
 10
98.23247436618435
 20
1250.629995044698
 30
0.0
 10
98.28672617353688
 20
1250.034004408876
 30
0.0
 10
98.34308529808747
 20
1249.344209086191
 30
0.0
  0
LINE
  5
D5
330
7B
100
AcDbEntity
  8
DV1_Default
 62
     7
100
AcDbLine
 10
215.7666938748
 20
1265.8607869569
 30
0.0
 11
179.0814687819
 21
1265.8607869569
 31
0.0
  0
SPLINE
  5
D6
330
7B
100
AcDbEntity
  8
DV1_Default
 62
     7
100
AcDbSpline
210
0.0
220
0.0
230
1.0
 70
     8
 71
     3
 72
    36
 73
    32
 74
     0
 42
0.000000001
 43
0.0000000001
 40
0.0
 40
0.0
 40
0.0
 40
0.0
 40
0.0822806697368537
 40
0.1560806141709467
 40
0.2223199391003285
 40
0.2817660582401577
 40
0.3350746534993068
 40
0.3820062286665412
 40
0.4240306547134327
 40
0.4615512116653539
 40
0.4949139147395197
 40
0.5325091814326752
 40
0.5641075766522557
 40
0.5901170430876428
 40
0.6131056438736265
 40
0.635811519591548
 40
0.6582703859809357
 40
0.6805274851950506
 40
0.7019702732730164
 40
0.7269175147311098
 40
0.7553307801048781
 40
0.7861658080824698
 40
0.8253363530303858
 40
0.8620344035429531
 40
0.8965444577718172
 40
0.9166620217179018
 40
0.9364456868519955
 40
0.9559082265531111
 40
0.9750577145300742
 40
0.9950020319788729
 40
0.9999999999999999
 40
0.9999999999999999
 40
0.9999999999999999
 40
0.9999999999999999
 10
179.0843517628447
 20
1265.860777921567
 30
0.0
 10
174.9216544183123
 20
1265.854309188597
 30
0.0
 10
168.2793911952345
 20
1265.844115924788
 30
0.0
 10
157.8654078934376
 20
1265.829222822787
 30
0.0
 10
148.7493901873927
 20
1265.818269320929
 30
0.0
 10
140.5411029392803
 20
1265.810798019802
 30
0.0
 10
133.2619044528103
 20
1265.806688511123
 30
0.0
 10
126.8182928927433
 20
1265.805443189063
 30
0.0
 10
121.1436368429384
 20
1265.80651828912
 30
0.0
 10
116.1386557308624
 20
1265.809395796539
 30
0.0
 10
111.4012801022166
 20
1265.813916570248
 30
0.0
 10
107.010236910728
 20
1265.819925825385
 30
0.0
 10
103.0415011934373
 20
1265.827113611732
 30
0.0
 10
99.7866855282076
 20
1265.834303751849
 30
0.0
 10
96.98781755717425
 20
1265.841497493751
 30
0.0
 10
94.40603949410357
 20
1265.849054303719
 30
0.0
 10
91.94243576357833
 20
1265.857176892329
 30
0.0
 10
89.62174124368563
 20
1265.865715501689
 30
0.0
 10
87.31892252725973
 20
1265.875081282589
 30
0.0
 10
84.9348376601419
 20
1265.885796552216
 30
0.0
 10
82.42484576266976
 20
1265.898356914949
 30
0.0
 10
79.73006438181876
 20
1265.913409159036
 30
0.0
 10
77.10449433123581
 20
1265.929944078486
 30
0.0
 10
74.73354413478387
 20
1265.946714375409
 30
0.0
 10
73.03015897521651
 20
1265.960007140908
 30
0.0
 10
71.80947516290007
 20
1265.970196791704
 30
0.0
 10
70.92990566184935
 20
1265.977890663208
 30
0.0
 10
70.1517652183842
 20
1265.985013549832
 30
0.0
 10
69.45665475722
 20
1265.991598364245
 30
0.0
 10
68.98596159599738
 20
1265.996351137571
 30
0.0
 10
68.90929547908034
 20
1265.997073817588
 30
0.0
 10
70.30337708540883
 20
1266.022914921657
 30
0.0
  0
ARC
  5
D7
330
7B
100
AcDbEntity
  8
DV1_Default
 62
     7
100
AcDbCircle
 10
67.361829558
 20
810.1134688543
 30
0.0
 40
455.9108050279225
100
AcDbArc
 50
89.8622918654
 51
92.6935472293
  0
LINE
  5
D8
330
7B
100
AcDbEntity
  8
DV1_Default
 62
     7
100
AcDbLine
 10
33.3411872091
 20
1252.5574735274
 30
0.0
 11
33.3180395655
 21
1251.2312770497
 31
0.0
  0
SPLINE
  5
D9
330
7B
100
AcDbEntity
  8
DV1_Default
 62
     7
100
AcDbSpline
210
0.0
220
0.0
230
1.0
 70
     8
 71
     3
 72
     8
 73
     4
 74
     0
 42
0.000000001
 43
0.0000000001
 40
0.0
 40
0.0
 40
0.0
 40
0.0
 40
1.0
 40
1.0
 40
1.0
 40
1.0
 10
41.80194112742044
 20
1251.231277029889
 30
0.0
 10
42.46661205190208
 20
1251.082224864246
 30
0.0
 10
42.77566023946191
 20
1250.934916316453
 30
0.0
 10
43.23446118347721
 20
1250.699990139582
 30
0.0
  0
ARC
  5
DA
330
7B
100
AcDbEntity
  8
DV1_Default
 62
     7
100
AcDbCircle
 10
93.3072403815
 20
1225.0683302748
 30
0.0
 40
26.17400377469513
100
AcDbArc
 50
91.6654687582
 51
98.9990497267
  0
ARC
  5
DB
330
7B
100
AcDbEntity
  8
DV1_Default
 62
     7
100
AcDbCircle
 10
84.1603167249
 20
1279.4938682056
 30
0.0
 40
29.01702911039446
100
AcDbArc
 50
273.6518792004
 51
280.0281520644
  0
LINE
  5
DC
330
7B
100
AcDbEntity
  8
DV1_Default
 62
     7
100
AcDbLine
 10
84.2802732653
 20
1250.5328433944
 30
0.0
 11
86.0085323042
 21
1250.5357591933
 31
0.0
  0
LINE
  5
DD
330
7B
100
AcDbEntity
  8
DV1_Default
 62
     7
100
AcDbLine
 10
53.7051119926
 20
1245.0065293573
 30
0.0
 11
53.6821766864
 21
1245.0216938513
 31
0.0
  0
LINE
  5
DE
330
7B
100
AcDbEntity
  8
DV1_Default
 62
     7
100
AcDbLine
 10
63.949751244
 20
1244.9765284729
 30
0.0
 11
57.1222100725
 21
1244.9965225663
 31
0.0
  0
LINE
  5
DF
330
7B
100
AcDbEntity
  8
DV1_Default
 62
     7
100
AcDbLine
 10
57.1222100725
 20
1244.9965225662
 30
0.0
 11
53.7051119926
 21
1245.0065293573
 31
0.0
  0
ARC
  5
E0
330
7B
100
AcDbEntity
  8
DV1_Default
 62
     7
100
AcDbCircle
 10
58.4087020678
 20
5028.3649495417
 30
0.0
 40
3778.050236267653
100
AcDbArc
 50
269.9134576339
 51
270.0842797373
  0
SPLINE
  5
E1
330
7B
100
AcDbEntity
  8
DV1_Default
 62
     7
100
AcDbSpline
210
0.0
220
0.0
230
1.0
 70
     8
 71
     3
 72
    20
 73
    16
 74
     0
 42
0.000000001
 43
0.0000000001
 40
0.0
 40
0.0
 40
0.0
 40
0.0
 40
0.1250000000000001
 40
0.1250000000000001
 40
0.2500000000000002
 40
0.2500000000000002
 40
0.5000000000000004
 40
0.5000000000000004
 40
0.7500000000000007
 40
0.7500000000000007
 40
0.8750000000000008
 40
0.8750000000000008
 40
0.9375000000000003
 40
0.9375000000000003
 40
1.0
 40
1.0
 40
1.0
 40
1.0
 10
52.53208350151142
 20
1245.027918438604
 30
0.0
 10
52.09406567199429
 20
1245.046647576233
 30
0.0
 10
51.67637715931475
 20
1245.08605163837
 30
0.0
 10
50.87525557021391
 20
1245.222803569329
 30
0.0
 10
50.49185345327415
 20
1245.319900327031
 30
0.0
 10
49.38536147270248
 20
1245.704431276651
 30
0.0
 10
48.7057410812112
 20
1246.086213189053
 30
0.0
 10
47.4400149477954
 20
1247.044020675157
 30
0.0
 10
46.8550391676599
 20
1247.617152588698
 30
0.0
 10
46.05524975764477
 20
1248.563609297681
 30
0.0
 10
45.8018560939836
 20
1248.893976668254
 30
0.0
 10
45.44507842212334
 20
1249.411377530315
 30
0.0
 10
45.33006571484513
 20
1249.587636597528
 30
0.0
 10
45.10862513212746
 20
1249.948603300673
 30
0.0
 10
45.0031889760292
 20
1250.134300535172
 30
0.0
 10
44.89653707876487
 20
1250.318800594993
 30
0.0
  0
LINE
  5
E2
330
7B
100
AcDbEntity
  8
DV1_Default
 62
     7
100
AcDbLine
 10
53.682176362
 20
1245.0216451031
 30
0.0
 11
53.4644390001
 21
1245.0229204707
 31
0.0
  0
ARC
  5
E3
330
7B
100
AcDbEntity
  8
DV1_Default
 62
     7
100
AcDbCircle
 10
48.8442140898
 20
-324.4366681479
 30
0.0
 40
1574.760416853741
100
AcDbArc
 50
90.0877564914
 51
90.14363167
  0
ARC
  5
E4
330
7B
100
AcDbEntity
  8
DV1_Default
 62
     7
100
AcDbCircle
 10
48.8442140898
 20
-324.4366681479
 30
0.0
 40
1574.760416853741
100
AcDbArc
 50
89.8812309392
 51
89.9371557236
  0
ARC
  5
E5
330
7B
100
AcDbEntity
  8
DV1_Default
 62
     7
100
AcDbCircle
 10
63.8124689881
 20
3005.1347674284
 30
0.0
 40
1760.158216905051
100
AcDbArc
 50
270.0044687425
 51
270.1708226119
  0
ARC
  5
E6
330
7B
100
AcDbEntity
  8
DV1_Default
 62
     7
100
AcDbCircle
 10
63.8683071912
 20
3040.8403316977
 30
0.0
 40
1795.863463340158
100
AcDbArc
 50
270.1656448308
 51
270.3294486374
  0
SPLINE
  5
E7
330
7B
100
AcDbEntity
  8
DV1_Default
 62
     7
100
AcDbSpline
210
0.0
220
0.0
230
1.0
 70
     8
 71
     3
 72
    12
 73
     8
 74
     0
 42
0.000000001
 43
0.0000000001
 40
0.0
 40
0.0
 40
0.0
 40
0.0
 40
0.1143698621831545
 40
0.2810945348816883
 40
0.5002357440483625
 40
0.7545207483714721
 40
1.0
 40
1.0
 40
1.0
 40
1.0
 10
74.22033976087563
 20
1245.021640484765
 30
0.0
 10
74.21760546786763
 20
1245.020339608615
 30
0.0
 10
74.21088446365611
 20
1245.017263070885
 30
0.0
 10
74.20529620670082
 20
1245.013029312458
 30
0.0
 10
74.1996983134279
 20
1245.009224774088
 30
0.0
 10
74.19554579820355
 20
1245.006943260785
 30
0.0
 10
74.19477722307813
 20
1245.006664793091
 30
0.0
 10
74.19439954614207
 20
1245.006555766088
 30
0.0
  0
ARC
  5
E8
330
7B
100
AcDbEntity
  8
DV1_Default
 62
     7
100
AcDbCircle
 10
69.5373925833
 20
3255.4286109909
 30
0.0
 40
2005.117550551365
100
AcDbArc
 50
269.8408001356
 51
270.1625425007
  0
ARC
  5
E9
330
7B
100
AcDbEntity
  8
DV1_Default
 62
     7
100
AcDbCircle
 10
75.4000078467
 20
1082.107846563
 30
0.0
 40
162.9180648877721
100
AcDbArc
 50
90.3308995781
 51
90.4148747607
  0
ARC
  5
EA
330
7B
100
AcDbEntity
  8
DV1_Default
 62
     7
100
AcDbCircle
 10
74.6840610178
 20
1260.08300388
 30
0.0
 40
15.07055554578405
100
AcDbArc
 50
272.5988611581
 51
273.8616035398
  0
SPLINE
  5
EB
330
7B
100
AcDbEntity
  8
DV1_Default
 62
     7
100
AcDbSpline
210
0.0
220
0.0
230
1.0
 70
     8
 71
     3
 72
    20
 73
    16
 74
     0
 42
0.000000001
 43
0.0000000001
 40
0.0
 40
0.0
 40
0.0
 40
0.0
 40
0.0625
 40
0.0625
 40
0.125
 40
0.125
 40
0.2500000000000001
 40
0.2500000000000001
 40
0.5
 40
0.5
 40
0.7499999999999999
 40
0.7499999999999999
 40
0.875
 40
0.875
 40
1.0
 40
1.0
 40
1.0
 40
1.0
 10
83.00344775304427
 20
1250.319629981531
 30
0.0
 10
82.90019239405402
 20
1250.141004459924
 30
0.0
 10
82.79813770480773
 20
1249.961195533256
 30
0.0
 10
82.58430315246449
 20
1249.611176366852
 30
0.0
 10
82.47335062287212
 20
1249.440139826629
 30
0.0
 10
82.12941968552647
 20
1248.937772938836
 30
0.0
 10
81.88547400025573
 20
1248.616609809368
 30
0.0
 10
81.11613248265661
 20
1247.694662553639
 30
0.0
 10
80.55439931635725
 20
1247.133532068795
 30
0.0
 10
79.34091466164998
 20
1246.18307608508
 30
0.0
 10
78.6906030118292
 20
1245.796493901154
 30
0.0
 10
77.6353799249301
 20
1245.389681822403
 30
0.0
 10
77.27039848729869
 20
1245.283416853192
 30
0.0
 10
76.50939089483602
 20
1245.125881166444
 30
0.0
 10
76.11371206993437
 20
1245.075061661976
 30
0.0
 10
75.69901293963325
 20
1245.04666399778
 30
0.0
  0
ARC
  5
EC
330
7B
100
AcDbEntity
  8
DV1_Default
 62
     7
100
AcDbCircle
 10
79.1581179232
 20
574.2961016541
 30
0.0
 40
676.0344646641757
100
AcDbArc
 50
89.6740959675
 51
90.3332845536
  0
ARC
  5
ED
330
7B
100
AcDbEntity
  8
DV1_Default
 62
     7
100
AcDbCircle
 10
55.0764947876
 20
1180.27242728
 30
0.0
 40
64.75003041998568
100
AcDbArc
 50
88.18948908
 51
88.2700627853
  0
LINE
  5
EE
330
7B
100
AcDbEntity
  8
DV1_Default
 62
     7
100
AcDbLine
 10
68.1402498869
 20
1250.318800741
 30
0.0
 11
68.1401267057
 21
1250.315273298
 31
0.0
  0
LINE
  5
EF
330
7B
100
AcDbEntity
  8
DV1_Default
 62
     7
100
AcDbLine
 10
59.759344045
 20
1250.316214074
 30
0.0
 11
59.7592537168
 21
1250.318800741
 31
0.0
  0
LINE
  5
F0
330
7B
100
AcDbEntity
  8
DV1_Default
 62
     7
100
AcDbLine
 10
48.6403162758
 20
1250.3199936387
 30
0.0
 11
48.6403019412
 21
1250.3195831511
 31
0.0
  0
LINE
  5
F1
330
7B
100
AcDbEntity
  8
DV1_Default
 62
     7
100
AcDbLine
 10
179.0097503474
 20
1270.2312672286
 30
0.0
 11
215.7666938731
 21
1270.2312672286
 31
0.0
  0
LINE
  5
F2
330
7B
100
AcDbEntity
  8
DV1_Default
 62
     7
100
AcDbLine
 10
34.3180362801
 20
1270.2312672286
 30
0.0
 11
179.0097503474
 21
1270.2312672286
 31
0.0
  0
ARC
  5
F3
330
7B
100
AcDbEntity
  8
DV1_Default
 62
     7
100
AcDbCircle
 10
36.8628206718
 20
1151.1570566828
 30
0.0
 40
119.0893915284404
100
AcDbArc
 50
85.4348689212
 51
90.9148621224
  0
ARC
  5
F4
330
7B
100
AcDbEntity
  8
DV1_Default
 62
     7
100
AcDbCircle
 10
29.136242059
 20
1104.6120034444
 30
0.0
 40
166.1498513623317
100
AcDbArc
 50
82.1676478401
 51
84.056243188
  0
ARC
  5
F5
330
7B
100
AcDbEntity
  8
DV1_Default
 62
     7
100
AcDbCircle
 10
45.6129995712
 20
1271.4041716
 30
0.0
 40
13.23781203308193
100
AcDbArc
 50
90.0996120962
 51
122.9368649017
  0
SPLINE
  5
F6
330
7B
100
AcDbEntity
  8
DV1_Default
 62
     7
100
AcDbSpline
210
0.0
220
0.0
230
1.0
 70
     8
 71
     3
 72
    17
 73
    13
 74
     0
 42
0.000000001
 43
0.0000000001
 40
0.0
 40
0.0
 40
0.0
 40
0.0
 40
0.2158253753230562
 40
0.3950593306503448
 40
0.5386102497728213
 40
0.6249249037861564
 40
0.6953751040405416
 40
0.7537667874149068
 40
0.8069035096250137
 40
0.8069035096250137
 40
0.8069035096250137
 40
1.0
 40
1.0
 40
1.0
 40
1.0
 10
51.78527128817603
 20
1269.231978783533
 30
0.0
 10
51.92709735614456
 20
1269.205473533149
 30
0.0
 10
52.15917068171863
 20
1269.154366256347
 30
0.0
 10
52.66809044341472
 20
1268.934066038037
 30
0.0
 10
53.20759659812038
 20
1268.647722086167
 30
0.0
 10
53.76694047049904
 20
1268.314553451225
 30
0.0
 10
54.30098302782429
 20
1267.971141210232
 30
0.0
 10
54.90038557790214
 20
1267.555453372855
 30
0.0
 10
55.35167672772359
 20
1267.216663664802
 30
0.0
 10
55.56424733962886
 20
1267.050892332983
 30
0.0
 10
56.03163523444812
 20
1266.686403972594
 30
0.0
 10
56.48721221989342
 20
1266.300847144023
 30
0.0
 10
56.93219892735482
 20
1265.904961691851
 30
0.0
  0
ARC
  5
F7
330
7B
100
AcDbEntity
  8
DV1_Default
 62
     7
100
AcDbCircle
 10
-622.7585075211
 20
1283.0571493463
 30
0.0
 40
657.2017118921829
100
AcDbArc
 50
358.8817503715
 51
359.1174399154
  0
ARC
  5
F8
330
7B
100
AcDbEntity
  8
DV1_Default
 62
     7
100
AcDbCircle
 10
44.8647561171
 20
1274.2047792714
 30
0.0
 40
10.52035691989533
100
AcDbArc
 50
128.0096203186
 51
187.1289760121
  0
ARC
  5
F9
330
7B
100
AcDbEntity
  8
DV1_Default
 62
     7
100
AcDbCircle
 10
202.2542830101
 20
-984.723239032
 30
0.0
 40
2274.759476387972
100
AcDbArc
 50
89.6596525151
 51
93.9488347777
  0
SPLINE
  5
FA
330
7B
100
AcDbEntity
  8
DV1_Default
 62
     7
100
AcDbSpline
210
0.0
220
0.0
230
1.0
 70
     8
 71
     3
 72
    17
 73
    13
 74
     0
 42
0.000000001
 43
0.0000000001
 40
0.0
 40
0.0
 40
0.0
 40
0.0
 40
0.7056202864276397
 40
0.7056202864276397
 40
0.7056202864276397
 40
0.754702945104513
 40
0.754702945104513
 40
0.8528682624582592
 40
0.8528682624582592
 40
0.9510335798120055
 40
0.9510335798120055
 40
1.0
 40
1.0
 40
1.0
 40
1.0
 10
79.64478417955004
 20
1265.914242829826
 30
0.0
 10
86.15730691479065
 20
1266.765208323692
 30
0.0
 10
90.22848588612767
 20
1265.590210880396
 30
0.0
 10
93.29551523846294
 20
1266.11375438222
 30
0.0
 10
93.69607603799282
 20
1266.182130318538
 30
0.0
 10
94.07947816200304
 20
1266.279227048326
 30
0.0
 10
95.18597017057421
 20
1266.663757917389
 30
0.0
 10
95.86559058986336
 20
1267.045539780312
 30
0.0
 10
97.13131679301637
 20
1268.003347174265
 30
0.0
 10
97.7162926148806
 20
1268.576479045218
 30
0.0
 10
98.5154507349029
 20
1269.522188557072
 30
0.0
 10
98.76827552393866
 20
1269.851738367027
 30
0.0
 10
99.00563747084637
 20
1270.195786546847
 30
0.0
  0
ARC
  5
FB
330
7B
100
AcDbEntity
  8
DV1_Default
 62
     7
100
AcDbCircle
 10
90.9135427845
 20
1295.5469598634
 30
0.0
 40
29.58114157717597
100
AcDbArc
 50
269.9083395803
 51
272.1809077412
  0
SPLINE
  5
FC
330
7B
100
AcDbEntity
  8
DV1_Default
 62
     7
100
AcDbSpline
210
0.0
220
0.0
230
1.0
 70
     8
 71
     3
 72
    16
 73
    12
 74
     0
 42
0.000000001
 43
0.0000000001
 40
0.0
 40
0.0
 40
0.0
 40
0.0
 40
0.1386902570814095
 40
0.1386902570814095
 40
0.4257935047209396
 40
0.4257935047209396
 40
0.7128967523604697
 40
0.7128967523604697
 40
0.8564483761802348
 40
0.8564483761802348
 40
1.0
 40
1.0
 40
1.0
 40
1.0
 10
62.23596967107927
 20
1270.198035295017
 30
0.0
 10
62.45844893923682
 20
1269.875365504439
 30
0.0
 10
62.69454242156961
 20
1269.565531586951
 30
0.0
 10
63.45519930539192
 20
1268.653991504509
 30
0.0
 10
64.01693243084108
 20
1268.092860978769
 30
0.0
 10
65.23041701635604
 20
1267.142404906707
 30
0.0
 10
65.88072863803477
 20
1266.755822675436
 30
0.0
 10
66.93595169532054
 20
1266.349010519859
 30
0.0
 10
67.30093312521704
 20
1266.242745524076
 30
0.0
 10
68.06194070621366
 20
1266.085209781924
 30
0.0
 10
68.45761952741705
 20
1266.034390248649
 30
0.0
 10
68.87231865565238
 20
1266.005992554261
 30
0.0
  0
ARC
  5
FD
330
7B
100
AcDbEntity
  8
DV1_Default
 62
     7
100
AcDbCircle
 10
-1244.3188860723
 20
687.9757589402
 30
0.0
 40
1582.335191438795
100
AcDbArc
 50
5.6961731921
 51
5.8053515878
  0
LINE
  5
FE
330
7B
100
AcDbEntity
  8
DV1_Default
 62
     7
100
AcDbLine
 10
394.7255471029
 20
1246.5678679563
 30
0.0
 11
394.3994499191
 21
1251.2312770497
 31
0.0
  0
ARC
  5
FF
330
7B
100
AcDbEntity
  8
DV1_Default
 62
     7
100
AcDbCircle
 10
402.5729096853
 20
1247.0727540433
 30
0.0
 40
7.856635647614953
100
AcDbArc
 50
183.680958108
 51
219.4398860343
  0
ARC
  5
100
330
7B
100
AcDbEntity
  8
DV1_Default
 62
     7
100
AcDbCircle
 10
390.2426773457
 20
1237.0211122041
 30
0.0
 40
8.05169371259996
100
AcDbArc
 50
355.9112494574
 51
38.9402812643
  0
ARC
  5
101
330
7B
100
AcDbEntity
  8
DV1_Default
 62
     7
100
AcDbCircle
 10
232.3390065039
 20
1209.5393697484
 30
0.0
 40
157.6775838461797
100
AcDbArc
 50
304.128431001
 51
305.4113207969
  0
LINE
  5
102
330
7B
100
AcDbEntity
  8
DV1_Default
 62
     7
100
AcDbLine
 10
329.9009283512
 20
848.027731568
 30
0.0
 11
309.3996280785
 21
1050.5459568334
 31
0.0
  0
LINE
  5
103
330
7B
100
AcDbEntity
  8
DV1_Default
 62
     7
100
AcDbLine
 10
308.2930059639
 20
1061.3370360988
 30
0.0
 11
308.3132484338
 21
1061.2827600028
 31
0.0
  0
SPLINE
  5
104
330
7B
100
AcDbEntity
  8
DV1_Default
 62
     7
100
AcDbSpline
210
0.0
220
0.0
230
1.0
 70
     8
 71
     3
 72
    17
 73
    13
 74
     0
 42
0.000000001
 43
0.0000000001
 40
0.0
 40
0.0
 40
0.0
 40
0.0
 40
0.1000786056082102
 40
0.2001144122547667
 40
0.3001169363404702
 40
0.4000956846985809
 40
0.5000601543461966
 40
0.6000198322393548
 40
0.699984195033315
 40
0.7999627088486592
 40
0.8999648290445725
 40
1.0
 40
1.0
 40
1.0
 40
1.0
 10
308.3130815471573
 20
1061.282743244348
 30
0.0
 10
308.3490952223052
 20
1060.925588646506
 30
0.0
 10
308.4213582496174
 20
1060.211457606396
 30
0.0
 10
308.5298589000007
 20
1059.139269290343
 30
0.0
 10
308.6384026018267
 20
1058.066697429937
 30
0.0
 10
308.7469991369072
 20
1056.99364962623
 30
0.0
 10
308.8556459061425
 20
1055.920150646198
 30
0.0
 10
308.9643436345499
 20
1054.846193876578
 30
0.0
 10
309.0730921197156
 20
1053.771781106087
 30
0.0
 10
309.1818915388387
 20
1052.696911886957
 30
0.0
 10
309.2907414709039
 20
1051.621586316062
 30
0.0
 10
309.3633285499098
 20
1050.904539485693
 30
0.0
 10
309.3996280785371
 20
1050.545956833448
 30
0.0
  0
SPLINE
  5
105
330
7B
100
AcDbEntity
  8
DV1_Default
 62
     7
100
AcDbSpline
210
0.0
220
0.0
230
1.0
 70
     8
 71
     3
 72
    25
 73
    21
 74
     0
 42
0.000000001
 43
0.0000000001
 40
0.0
 40
0.0
 40
0.0
 40
0.0
 40
0.2953187594918301
 40
0.4928893187224803
 40
0.6215118663796303
 40
0.7028679886704918
 40
0.7562406476575052
 40
0.7801375990892211
 40
0.7964310827859531
 40
0.8084095393193922
 40
0.8225223980155943
 40
0.833533454754743
 40
0.844746382096062
 40
0.8581480748862237
 40
0.8726901180160657
 40
0.8904634045090809
 40
0.910550345530069
 40
0.9369165835034331
 40
0.9598082694855506
 40
1.0
 40
1.0
 40
1.0
 40
1.0
 10
330.2030527901571
 20
845.0277315680477
 30
0.0
 10
330.1684082837477
 20
845.0277278772724
 30
0.0
 10
330.1105863317258
 20
845.027721717346
 30
0.0
 10
329.8564018397228
 20
845.0277514972682
 30
0.0
 10
329.494714793253
 20
845.0277360633469
 30
0.0
 10
328.9945546810615
 20
845.0277742147747
 30
0.0
 10
328.3836098503539
 20
845.0276464033157
 30
0.0
 10
327.6252759893694
 20
845.0276572031423
 30
0.0
 10
326.8867173667797
 20
845.0279124478865
 30
0.0
 10
325.8742390318803
 20
845.0274912942815
 30
0.0
 10
324.326745093338
 20
845.0286118322236
 30
0.0
 10
321.665660700931
 20
845.0274018509324
 30
0.0
 10
318.1011513118113
 20
845.0284091433838
 30
0.0
 10
313.2272032586247
 20
845.0274772380541
 30
0.0
 10
306.6906557944429
 20
845.0278069632693
 30
0.0
 10
298.6200399067347
 20
845.0277671038536
 30
0.0
 10
288.4017195228683
 20
845.0274748200278
 30
0.0
 10
277.1925198492964
 20
845.0279349562957
 30
0.0
 10
262.6429620947272
 20
845.0270725653397
 30
0.0
 10
252.321502315108
 20
845.0274750518902
 30
0.0
 10
245.7454899172172
 20
845.0277314963477
 30
0.0
  0
ARC
  5
106
330
7B
100
AcDbEntity
  8
DV1_Default
 62
     7
100
AcDbCircle
 10
323.229344687
 20
1062.7792529662
 30
0.0
 40
14.99114563350877
100
AcDbArc
 50
121.322727659
 51
185.729164772
  0
ARC
  5
107
330
7B
100
AcDbEntity
  8
DV1_Default
 62
     7
100
AcDbCircle
 10
61.21694946
 20
1260.011450535
 30
0.0
 40
337.8796467697302
100
AcDbArc
 50
351.7773335962
 51
356.0008254116
  0
LINE
  5
108
330
7B
100
AcDbEntity
  8
DV1_Default
 62
     7
100
AcDbLine
 10
395.622678333
 20
1211.6868822314
 30
0.0
 11
392.6257561847
 21
1195.1216586604
 31
0.0
  0
ARC
  5
109
330
7B
100
AcDbEntity
  8
DV1_Default
 62
     7
100
AcDbCircle
 10
168.9016340362
 20
1240.6024145858
 30
0.0
 40
228.3001915708838
100
AcDbArc
 50
332.9726096494
 51
348.508971684
  0
LINE
  5
10A
330
7B
100
AcDbEntity
  8
DV1_Default
 62
     7
100
AcDbLine
 10
320.8039867174
 20
1079.0166919123
 30
0.0
 11
315.4360775308
 21
1075.5854648096
 31
0.0
  0
ARC
  5
10B
330
7B
100
AcDbEntity
  8
DV1_Default
 62
     7
100
AcDbCircle
 10
389.9716392807
 20
1237.0278102071
 30
0.0
 40
7.999921360930625
100
AcDbArc
 50
53.0179776987
 51
89.9999184475
  0
ARC
  5
10C
330
7B
100
AcDbEntity
  8
DV1_Default
 62
     7
100
AcDbCircle
 10
398.1357736031
 20
1234.8300733884
 30
0.0
 40
1.620845369323461
100
AcDbArc
 50
85.1189673374
 51
96.5830980832
  0
LINE
  5
10D
330
7B
100
AcDbEntity
  8
DV1_Default
 62
     7
100
AcDbLine
 10
215.7666938731
 20
845.027731568
 30
0.0
 11
245.7454899172
 21
845.0277314963
 31
0.0
  0
LINE
  5
10E
330
7B
100
AcDbEntity
  8
DV1_Default
 62
     7
100
AcDbLine
 10
389.9716506675
 20
1245.027731568
 30
0.0
 11
387.9420712007
 21
1245.027731568
 31
0.0
  0
LINE
  5
10F
330
7B
100
AcDbEntity
  8
DV1_Default
 62
     7
100
AcDbLine
 10
387.9420712007
 20
1245.027731568
 30
0.0
 11
215.7666938731
 21
1245.027731568
 31
0.0
  0
LINE
  5
110
330
7B
100
AcDbEntity
  8
DV1_Default
 62
     7
100
AcDbLine
 10
391.4467192149
 20
1244.890371861
 30
0.0
 11
391.4713008942
 21
1244.890371861
 31
0.0
  0
SPLINE
  5
111
330
7B
100
AcDbEntity
  8
DV1_Default
 62
     7
100
AcDbSpline
210
0.0
220
0.0
230
1.0
 70
     8
 71
     3
 72
    31
 73
    27
 74
     0
 42
0.000000001
 43
0.0000000001
 40
0.0
 40
0.0
 40
0.0
 40
0.0
 40
0.047575580070615
 40
0.1168631056090383
 40
0.1858547899443911
 40
0.2323259260287009
 40
0.2796320162575986
 40
0.3280115217118876
 40
0.3759623186680213
 40
0.4231505971619201
 40
0.4696737390178487
 40
0.5156257829075899
 40
0.5610953640940438
 40
0.6040040890516264
 40
0.6285521356266146
 40
0.6458641087777791
 40
0.6564395370145087
 40
0.6667947070115641
 40
0.6851919648430891
 40
0.7093338715469972
 40
0.7395283018929416
 40
0.7808056674821152
 40
0.8302219822673994
 40
0.8880161106714051
 40
0.9543990320150922
 40
1.0
 40
1.0
 40
1.0
 40
1.0
 10
372.2690227440111
 20
1136.859064526739
 30
0.0
 10
371.6904056592236
 20
1135.666911072116
 30
0.0
 10
370.1794749218092
 20
1132.638915346965
 30
0.0
 10
367.410855216246
 20
1127.493228054532
 30
0.0
 10
364.1925345110548
 20
1122.092302924924
 30
0.0
 10
361.0120412180082
 20
1117.234393043914
 30
0.0
 10
357.9959020257932
 20
1112.973944600304
 30
0.0
 10
354.7068270559852
 20
1108.695759447483
 30
0.0
 10
351.2544122171269
 20
1104.569300615282
 30
0.0
 10
347.6844946639641
 20
1100.646233365156
 30
0.0
 10
344.0140656825373
 20
1096.936068877216
 30
0.0
 10
340.2479200156614
 20
1093.431919774625
 30
0.0
 10
336.4581985666746
 20
1090.182907481922
 30
0.0
 10
333.1691410972604
 20
1087.578137540954
 30
0.0
 10
330.694298873266
 20
1085.732237228916
 30
0.0
 10
329.1749016353706
 20
1084.640010364993
 30
0.0
 10
328.1872533473878
 20
1083.947443821672
 30
0.0
 10
327.5619673604853
 20
1083.516427418369
 30
0.0
 10
326.9499153240618
 20
1083.10011436491
 30
0.0
 10
326.359699485206
 20
1082.704965536489
 30
0.0
 10
325.7789007417891
 20
1082.321583854494
 30
0.0
 10
325.2335628275378
 20
1081.967834457674
 30
0.0
 10
324.7288088460072
 20
1081.646944329004
 30
0.0
 10
324.2809568486928
 20
1081.369385041476
 30
0.0
 10
323.947629511145
 20
1081.169808938579
 30
0.0
 10
323.7703931238727
 20
1081.067605528599
 30
0.0
 10
323.7040554491783
 20
1081.030038262843
 30
0.0
  0
ARC
  5
112
330
7B
100
AcDbEntity
  8
DV1_Default
 62
     7
100
AcDbCircle
 10
390.4810086837
 20
1237.2594802465
 30
0.0
 40
7.515637779558139
100
AcDbArc
 50
353.7405597988
 51
55.0586127965
  0
LINE
  5
113
330
7B
100
AcDbEntity
  8
DV1_Default
 62
     7
100
AcDbLine
 10
360.2004506028
 20
1245.0277315723
 30
0.0
 11
360.2004506028
 21
1244.9926768167
 31
0.0
  0
LINE
  5
114
330
7B
100
AcDbEntity
  8
DV1_Default
 62
     7
100
AcDbLine
 10
398.2153502068
 20
1251.2312770497
 30
0.0
 11
252.5262553716
 21
1251.2312770497
 31
0.0
  0
LINE
  5
115
330
7B
100
AcDbEntity
  8
DV1_Default
 62
     7
100
AcDbLine
 10
252.5262553716
 20
1251.2312770497
 30
0.0
 11
215.7666938731
 21
1251.2312770497
 31
0.0
  0
LINE
  5
116
330
7B
100
AcDbEntity
  8
DV1_Default
 62
     7
100
AcDbLine
 10
379.0042118533
 20
1250.318800741
 30
0.0
 11
380.4390127191
 21
1250.318800741
 31
0.0
  0
SPLINE
  5
117
330
7B
100
AcDbEntity
  8
DV1_Default
 62
     7
100
AcDbSpline
210
0.0
220
0.0
230
1.0
 70
     8
 71
     5
 72
    12
 73
     6
 74
     0
 42
0.000000001
 43
0.0000000001
 40
0.0
 40
0.0
 40
0.0
 40
0.0
 40
0.0
 40
0.0
 40
1.0
 40
1.0
 40
1.0
 40
1.0
 40
1.0
 40
1.0
 10
388.2989277373847
 20
1250.699990775351
 30
0.0
 10
388.0879144009373
 20
1250.585782363226
 30
0.0
 10
387.8784355707459
 20
1250.458298106594
 30
0.0
 10
387.6450518292458
 20
1250.318800594993
 30
0.0
 10
387.408932015743
 20
1250.318800594993
 30
0.0
 10
387.1681470938641
 20
1250.318800594993
 30
0.0
  0
LINE
  5
118
330
7B
100
AcDbEntity
  8
DV1_Default
 62
     7
100
AcDbLine
 10
384.6819814881
 20
1250.318800595
 30
0.0
 11
387.1681470939
 21
1250.318800595
 31
0.0
  0
LINE
  5
119
330
7B
100
AcDbEntity
  8
DV1_Default
 62
     7
100
AcDbLine
 10
382.8908193415
 20
1250.318800595
 30
0.0
 11
384.6819814881
 21
1250.318800595
 31
0.0
  0
LINE
  5
11A
330
7B
100
AcDbEntity
  8
DV1_Default
 62
     7
100
AcDbLine
 10
380.4390127191
 20
1250.318800741
 30
0.0
 11
382.8908193415
 21
1250.318800595
 31
0.0
  0
LINE
  5
11B
330
7B
100
AcDbEntity
  8
DV1_Default
 62
     7
100
AcDbLine
 10
356.2266092363
 20
1250.318800741
 30
0.0
 11
379.0042118533
 21
1250.318800741
 31
0.0
  0
SPLINE
  5
11C
330
7B
100
AcDbEntity
  8
DV1_Default
 62
     7
100
AcDbSpline
210
0.0
220
0.0
230
1.0
 70
     8
 71
     3
 72
    14
 73
    10
 74
     0
 42
0.000000001
 43
0.0000000001
 40
0.0
 40
0.0
 40
0.0
 40
0.0
 40
0.2101846493234983
 40
0.2101846493234983
 40
0.4734564328823322
 40
0.4734564328823322
 40
0.7367282164411662
 40
0.7367282164411662
 40
1.0
 40
1.0
 40
1.0
 40
1.0
 10
346.867406856693
 20
1251.231277049326
 30
0.0
 10
346.8885822826586
 20
1251.124802892711
 30
0.0
 10
346.9167872133783
 20
1251.01141914266
 30
0.0
 10
347.0247279552077
 20
1250.769741820669
 30
0.0
 10
347.1147657415701
 20
1250.645665040141
 30
0.0
 10
347.346402901719
 20
1250.45574155292
 30
0.0
 10
347.4870881926551
 20
1250.390644319251
 30
0.0
 10
347.7788184418582
 20
1250.321799176792
 30
0.0
 10
347.9289493172937
 20
1250.318800741026
 30
0.0
 10
348.0619185308984
 20
1250.318800741026
 30
0.0
  0
LINE
  5
11D
330
7B
100
AcDbEntity
  8
DV1_Default
 62
     7
100
AcDbLine
 10
356.2266092363
 20
1250.318800741
 30
0.0
 11
348.0619185309
 21
1250.318800741
 31
0.0
  0
ARC
  5
11E
330
7B
100
AcDbEntity
  8
DV1_Default
 62
     7
100
AcDbCircle
 10
2195.1527664065
 20
1082.6156391666
 30
0.0
 40
1869.412702515972
100
AcDbArc
 50
174.8782143699
 51
175.0160480427
  0
ARC
  5
11F
330
7B
100
AcDbEntity
  8
DV1_Default
 62
     7
100
AcDbCircle
 10
386.1941013255
 20
1253.5083190368
 30
0.0
 40
12.02251171089631
100
AcDbArc
 50
355.4257468223
 51
92.3424677278
  0
SPLINE
  5
120
330
7B
100
AcDbEntity
  8
DV1_Default
 62
     7
100
AcDbSpline
210
0.0
220
0.0
230
1.0
 70
     8
 71
     3
 72
     8
 73
     4
 74
     0
 42
0.000000001
 43
0.0000000001
 40
0.0
 40
0.0
 40
0.0
 40
0.0
 40
1.0
 40
1.0
 40
1.0
 40
1.0
 10
333.3791703435747
 20
1251.232596948523
 30
0.0
 10
333.3009133799303
 20
1250.629995044698
 30
0.0
 10
333.246661572578
 20
1250.034004408876
 30
0.0
 10
333.1903024480272
 20
1249.344209086191
 30
0.0
  0
LINE
  5
121
330
7B
100
AcDbEntity
  8
DV1_Default
 62
     7
100
AcDbLine
 10
215.7666938713
 20
1265.8607869569
 30
0.0
 11
252.4519189642
 21
1265.8607869569
 31
0.0
  0
SPLINE
  5
122
330
7B
100
AcDbEntity
  8
DV1_Default
 62
     7
100
AcDbSpline
210
0.0
220
0.0
230
1.0
 70
     8
 71
     3
 72
    36
 73
    32
 74
     0
 42
0.000000001
 43
0.0000000001
 40
0.0
 40
0.0
 40
0.0
 40
0.0
 40
0.0822806697368537
 40
0.1560806141709467
 40
0.2223199391003285
 40
0.2817660582401577
 40
0.3350746534993068
 40
0.3820062286665412
 40
0.4240306547134327
 40
0.4615512116653539
 40
0.4949139147395197
 40
0.5325091814326752
 40
0.5641075766522557
 40
0.5901170430876428
 40
0.6131056438736265
 40
0.635811519591548
 40
0.6582703859809357
 40
0.6805274851950506
 40
0.7019702732730164
 40
0.7269175147311098
 40
0.7553307801048781
 40
0.7861658080824698
 40
0.8253363530303858
 40
0.8620344035429531
 40
0.8965444577718172
 40
0.9166620217179018
 40
0.9364456868519955
 40
0.9559082265531111
 40
0.9750577145300742
 40
0.9950020319788729
 40
0.9999999999999999
 40
0.9999999999999999
 40
0.9999999999999999
 40
0.9999999999999999
 10
252.4490359832701
 20
1265.860777921567
 30
0.0
 10
256.6117333278024
 20
1265.854309188597
 30
0.0
 10
263.2539965508802
 20
1265.844115924788
 30
0.0
 10
273.6679798526771
 20
1265.829222822787
 30
0.0
 10
282.7839975587221
 20
1265.818269320929
 30
0.0
 10
290.9922848068345
 20
1265.810798019802
 30
0.0
 10
298.2714832933044
 20
1265.806688511123
 30
0.0
 10
304.7150948533715
 20
1265.805443189063
 30
0.0
 10
310.3897509031763
 20
1265.80651828912
 30
0.0
 10
315.3947320152524
 20
1265.809395796539
 30
0.0
 10
320.1321076438981
 20
1265.813916570248
 30
0.0
 10
324.5231508353867
 20
1265.819925825385
 30
0.0
 10
328.4918865526776
 20
1265.827113611732
 30
0.0
 10
331.7467022179072
 20
1265.834303751849
 30
0.0
 10
334.5455701889404
 20
1265.841497493751
 30
0.0
 10
337.1273482520112
 20
1265.849054303719
 30
0.0
 10
339.5909519825364
 20
1265.857176892329
 30
0.0
 10
341.911646502429
 20
1265.865715501689
 30
0.0
 10
344.214465218855
 20
1265.875081282589
 30
0.0
 10
346.5985500859729
 20
1265.885796552216
 30
0.0
 10
349.108541983445
 20
1265.898356914949
 30
0.0
 10
351.8033233642961
 20
1265.913409159036
 30
0.0
 10
354.4288934148789
 20
1265.929944078486
 30
0.0
 10
356.7998436113309
 20
1265.946714375409
 30
0.0
 10
358.5032287708983
 20
1265.960007140908
 30
0.0
 10
359.7239125832145
 20
1265.970196791704
 30
0.0
 10
360.6034820842654
 20
1265.977890663208
 30
0.0
 10
361.3816225277304
 20
1265.985013549832
 30
0.0
 10
362.0767329888948
 20
1265.991598364245
 30
0.0
 10
362.5474261501174
 20
1265.996351137571
 30
0.0
 10
362.6240922670343
 20
1265.997073817588
 30
0.0
 10
361.2300106607061
 20
1266.022914921657
 30
0.0
  0
ARC
  5
123
330
7B
100
AcDbEntity
  8
DV1_Default
 62
     7
100
AcDbCircle
 10
364.1715581881
 20
810.1134688543
 30
0.0
 40
455.9108050279225
100
AcDbArc
 50
87.3064527707
 51
90.1377081346
  0
LINE
  5
124
330
7B
100
AcDbEntity
  8
DV1_Default
 62
     7
100
AcDbLine
 10
398.192200537
 20
1252.5574735274
 30
0.0
 11
398.2153481806
 21
1251.2312770497
 31
0.0
  0
SPLINE
  5
125
330
7B
100
AcDbEntity
  8
DV1_Default
 62
     7
100
AcDbSpline
210
0.0
220
0.0
230
1.0
 70
     8
 71
     3
 72
     8
 73
     4
 74
     0
 42
0.000000001
 43
0.0000000001
 40
0.0
 40
0.0
 40
0.0
 40
0.0
 40
1.0
 40
1.0
 40
1.0
 40
1.0
 10
389.7314466186943
 20
1251.231277029889
 30
0.0
 10
389.0667756942125
 20
1251.082224864246
 30
0.0
 10
388.7577275066527
 20
1250.934916316453
 30
0.0
 10
388.2989265626375
 20
1250.699990139582
 30
0.0
  0
ARC
  5
126
330
7B
100
AcDbEntity
  8
DV1_Default
 62
     7
100
AcDbCircle
 10
338.2261473646
 20
1225.0683302748
 30
0.0
 40
26.17400377469513
100
AcDbArc
 50
81.0009502733
 51
88.3345312418
  0
ARC
  5
127
330
7B
100
AcDbEntity
  8
DV1_Default
 62
     7
100
AcDbCircle
 10
347.3730710212
 20
1279.4938682056
 30
0.0
 40
29.01702911039446
100
AcDbArc
 50
259.9718479356
 51
266.3481207996
  0
LINE
  5
128
330
7B
100
AcDbEntity
  8
DV1_Default
 62
     7
100
AcDbLine
 10
347.2531144808
 20
1250.5328433944
 30
0.0
 11
345.5248554419
 21
1250.5357591933
 31
0.0
  0
LINE
  5
129
330
7B
100
AcDbEntity
  8
DV1_Default
 62
     7
100
AcDbLine
 10
377.8282757535
 20
1245.0065293573
 30
0.0
 11
377.8512110597
 21
1245.0216938513
 31
0.0
  0
LINE
  5
12A
330
7B
100
AcDbEntity
  8
DV1_Default
 62
     7
100
AcDbLine
 10
367.5836365021
 20
1244.9765284729
 30
0.0
 11
374.4111776736
 21
1244.9965225663
 31
0.0
  0
LINE
  5
12B
330
7B
100
AcDbEntity
  8
DV1_Default
 62
     7
100
AcDbLine
 10
374.4111776736
 20
1244.9965225662
 30
0.0
 11
377.8282757535
 21
1245.0065293573
 31
0.0
  0
ARC
  5
12C
330
7B
100
AcDbEntity
  8
DV1_Default
 62
     7
100
AcDbCircle
 10
373.1246856783
 20
5028.3649495417
 30
0.0
 40
3778.050236267653
100
AcDbArc
 50
269.9157202627
 51
270.0865423661
  0
SPLINE
  5
12D
330
7B
100
AcDbEntity
  8
DV1_Default
 62
     7
100
AcDbSpline
210
0.0
220
0.0
230
1.0
 70
     8
 71
     3
 72
    20
 73
    16
 74
     0
 42
0.000000001
 43
0.0000000001
 40
0.0
 40
0.0
 40
0.0
 40
0.0
 40
0.1250000000000001
 40
0.1250000000000001
 40
0.2500000000000002
 40
0.2500000000000002
 40
0.5000000000000004
 40
0.5000000000000004
 40
0.7500000000000007
 40
0.7500000000000007
 40
0.8750000000000008
 40
0.8750000000000008
 40
0.9375000000000003
 40
0.9375000000000003
 40
1.0
 40
1.0
 40
1.0
 40
1.0
 10
379.0013042446034
 20
1245.027918438604
 30
0.0
 10
379.4393220741204
 20
1245.046647576233
 30
0.0
 10
379.8570105868
 20
1245.08605163837
 30
0.0
 10
380.6581321759008
 20
1245.222803569329
 30
0.0
 10
381.0415342928406
 20
1245.319900327031
 30
0.0
 10
382.1480262734123
 20
1245.704431276651
 30
0.0
 10
382.8276466649037
 20
1246.086213189053
 30
0.0
 10
384.0933727983194
 20
1247.044020675157
 30
0.0
 10
384.6783485784549
 20
1247.617152588698
 30
0.0
 10
385.47813798847
 20
1248.563609297681
 30
0.0
 10
385.731531652131
 20
1248.893976668254
 30
0.0
 10
386.0883093239913
 20
1249.411377530315
 30
0.0
 10
386.2033220312697
 20
1249.587636597528
 30
0.0
 10
386.4247626139874
 20
1249.948603300673
 30
0.0
 10
386.5301987700855
 20
1250.134300535172
 30
0.0
 10
386.6368506673498
 20
1250.318800594993
 30
0.0
  0
LINE
  5
12E
330
7B
100
AcDbEntity
  8
DV1_Default
 62
     7
100
AcDbLine
 10
377.8512113841
 20
1245.0216451031
 30
0.0
 11
378.068948746
 21
1245.0229204707
 31
0.0
  0
ARC
  5
12F
330
7B
100
AcDbEntity
  8
DV1_Default
 62
     7
100
AcDbCircle
 10
382.6891736563
 20
-324.4366681479
 30
0.0
 40
1574.760416853741
100
AcDbArc
 50
89.85636833
 51
89.9122435086
  0
ARC
  5
130
330
7B
100
AcDbEntity
  8
DV1_Default
 62
     7
100
AcDbCircle
 10
382.6891736563
 20
-324.4366681479
 30
0.0
 40
1574.760416853741
100
AcDbArc
 50
90.0628442764
 51
90.1187690608
  0
ARC
  5
131
330
7B
100
AcDbEntity
  8
DV1_Default
 62
     7
100
AcDbCircle
 10
367.720918758
 20
3005.1347674284
 30
0.0
 40
1760.158216905051
100
AcDbArc
 50
269.8291773881
 51
269.9955312575
  0
ARC
  5
132
330
7B
100
AcDbEntity
  8
DV1_Default
 62
     7
100
AcDbCircle
 10
367.6650805549
 20
3040.8403316977
 30
0.0
 40
1795.863463340158
100
AcDbArc
 50
269.6705513626
 51
269.8343551692
  0
SPLINE
  5
133
330
7B
100
AcDbEntity
  8
DV1_Default
 62
     7
100
AcDbSpline
210
0.0
220
0.0
230
1.0
 70
     8
 71
     3
 72
    12
 73
     8
 74
     0
 42
0.000000001
 43
0.0000000001
 40
0.0
 40
0.0
 40
0.0
 40
0.0
 40
0.1143698621831545
 40
0.2810945348816883
 40
0.5002357440483625
 40
0.7545207483714721
 40
1.0
 40
1.0
 40
1.0
 40
1.0
 10
357.3130479852391
 20
1245.021640484765
 30
0.0
 10
357.3157822782471
 20
1245.020339608615
 30
0.0
 10
357.3225032824587
 20
1245.017263070885
 30
0.0
 10
357.3280915394139
 20
1245.013029312458
 30
0.0
 10
357.3336894326869
 20
1245.009224774088
 30
0.0
 10
357.3378419479112
 20
1245.006943260785
 30
0.0
 10
357.3386105230365
 20
1245.006664793091
 30
0.0
 10
357.3389881999727
 20
1245.006555766088
 30
0.0
  0
ARC
  5
134
330
7B
100
AcDbEntity
  8
DV1_Default
 62
     7
100
AcDbCircle
 10
361.9959951628
 20
3255.4286109909
 30
0.0
 40
2005.117550551365
100
AcDbArc
 50
269.8374574993
 51
270.1591998644
  0
ARC
  5
135
330
7B
100
AcDbEntity
  8
DV1_Default
 62
     7
100
AcDbCircle
 10
356.1333798994
 20
1082.107846563
 30
0.0
 40
162.9180648877721
100
AcDbArc
 50
89.5851252393
 51
89.6691004219
  0
ARC
  5
136
330
7B
100
AcDbEntity
  8
DV1_Default
 62
     7
100
AcDbCircle
 10
356.8493267283
 20
1260.08300388
 30
0.0
 40
15.07055554578405
100
AcDbArc
 50
266.1383964602
 51
267.4011388419
  0
SPLINE
  5
137
330
7B
100
AcDbEntity
  8
DV1_Default
 62
     7
100
AcDbSpline
210
0.0
220
0.0
230
1.0
 70
     8
 71
     3
 72
    20
 73
    16
 74
     0
 42
0.000000001
 43
0.0000000001
 40
0.0
 40
0.0
 40
0.0
 40
0.0
 40
0.0625
 40
0.0625
 40
0.125
 40
0.125
 40
0.2500000000000001
 40
0.2500000000000001
 40
0.5
 40
0.5
 40
0.7499999999999999
 40
0.7499999999999999
 40
0.875
 40
0.875
 40
1.0
 40
1.0
 40
1.0
 40
1.0
 10
348.5299399930706
 20
1250.319629981531
 30
0.0
 10
348.6331953520607
 20
1250.141004459924
 30
0.0
 10
348.735250041307
 20
1249.961195533256
 30
0.0
 10
348.9490845936502
 20
1249.611176366852
 30
0.0
 10
349.0600371232426
 20
1249.440139826629
 30
0.0
 10
349.4039680605883
 20
1248.937772938836
 30
0.0
 10
349.647913745859
 20
1248.616609809368
 30
0.0
 10
350.4172552634581
 20
1247.694662553639
 30
0.0
 10
350.9789884297576
 20
1247.133532068795
 30
0.0
 10
352.1924730844648
 20
1246.18307608508
 30
0.0
 10
352.8427847342854
 20
1245.796493901154
 30
0.0
 10
353.8980078211846
 20
1245.389681822403
 30
0.0
 10
354.262989258816
 20
1245.283416853192
 30
0.0
 10
355.0239968512787
 20
1245.125881166444
 30
0.0
 10
355.4196756761802
 20
1245.075061661976
 30
0.0
 10
355.8343748064816
 20
1245.04666399778
 30
0.0
  0
ARC
  5
138
330
7B
100
AcDbEntity
  8
DV1_Default
 62
     7
100
AcDbCircle
 10
352.3752698229
 20
574.2961016541
 30
0.0
 40
676.0344646641757
100
AcDbArc
 50
89.6667154464
 51
90.3259040325
  0
ARC
  5
139
330
7B
100
AcDbEntity
  8
DV1_Default
 62
     7
100
AcDbCircle
 10
376.4568929585
 20
1180.27242728
 30
0.0
 40
64.75003041998568
100
AcDbArc
 50
91.7299372147
 51
91.81051092
  0
LINE
  5
13A
330
7B
100
AcDbEntity
  8
DV1_Default
 62
     7
100
AcDbLine
 10
363.3931378592
 20
1250.318800741
 30
0.0
 11
363.3932610405
 21
1250.315273298
 31
0.0
  0
LINE
  5
13B
330
7B
100
AcDbEntity
  8
DV1_Default
 62
     7
100
AcDbLine
 10
371.7740437011
 20
1250.316214074
 30
0.0
 11
371.7741340293
 21
1250.318800741
 31
0.0
  0
LINE
  5
13C
330
7B
100
AcDbEntity
  8
DV1_Default
 62
     7
100
AcDbLine
 10
382.8930714703
 20
1250.3199936387
 30
0.0
 11
382.8930858049
 21
1250.3195831511
 31
0.0
  0
LINE
  5
13D
330
7B
100
AcDbEntity
  8
DV1_Default
 62
     7
100
AcDbLine
 10
252.5236373987
 20
1270.2312672286
 30
0.0
 11
215.7666938731
 21
1270.2312672286
 31
0.0
  0
LINE
  5
13E
330
7B
100
AcDbEntity
  8
DV1_Default
 62
     7
100
AcDbLine
 10
397.215351466
 20
1270.2312672286
 30
0.0
 11
252.5236373987
 21
1270.2312672286
 31
0.0
  0
ARC
  5
13F
330
7B
100
AcDbEntity
  8
DV1_Default
 62
     7
100
AcDbCircle
 10
394.6705670744
 20
1151.1570566828
 30
0.0
 40
119.0893915284404
100
AcDbArc
 50
89.0851378776
 51
94.5651310788
  0
ARC
  5
140
330
7B
100
AcDbEntity
  8
DV1_Default
 62
     7
100
AcDbCircle
 10
402.3971456872
 20
1104.6120034444
 30
0.0
 40
166.1498513623317
100
AcDbArc
 50
95.943756812
 51
97.8323521599
  0
ARC
  5
141
330
7B
100
AcDbEntity
  8
DV1_Default
 62
     7
100
AcDbCircle
 10
385.9203881749
 20
1271.4041716
 30
0.0
 40
13.23781203308193
100
AcDbArc
 50
57.0631350983
 51
89.9003879039
  0
SPLINE
  5
142
330
7B
100
AcDbEntity
  8
DV1_Default
 62
     7
100
AcDbSpline
210
0.0
220
0.0
230
1.0
 70
     8
 71
     3
 72
    17
 73
    13
 74
     0
 42
0.000000001
 43
0.0000000001
 40
0.0
 40
0.0
 40
0.0
 40
0.0
 40
0.2158253753230562
 40
0.3950593306503448
 40
0.5386102497728213
 40
0.6249249037861564
 40
0.6953751040405416
 40
0.7537667874149068
 40
0.8069035096250137
 40
0.8069035096250137
 40
0.8069035096250137
 40
1.0
 40
1.0
 40
1.0
 40
1.0
 10
379.7481164579386
 20
1269.231978783533
 30
0.0
 10
379.6062903899702
 20
1269.205473533149
 30
0.0
 10
379.3742170643961
 20
1269.154366256347
 30
0.0
 10
378.8652973027
 20
1268.934066038037
 30
0.0
 10
378.3257911479945
 20
1268.647722086167
 30
0.0
 10
377.7664472756157
 20
1268.314553451225
 30
0.0
 10
377.2324047182905
 20
1267.971141210232
 30
0.0
 10
376.6330021682127
 20
1267.555453372855
 30
0.0
 10
376.1817110183911
 20
1267.216663664802
 30
0.0
 10
375.969140406486
 20
1267.050892332983
 30
0.0
 10
375.5017525116666
 20
1266.686403972594
 30
0.0
 10
375.0461755262213
 20
1266.300847144023
 30
0.0
 10
374.6011888187599
 20
1265.904961691851
 30
0.0
  0
ARC
  5
143
330
7B
100
AcDbEntity
  8
DV1_Default
 62
     7
100
AcDbCircle
 10
1054.2918952672
 20
1283.0571493463
 30
0.0
 40
657.2017118921829
100
AcDbArc
 50
180.8825600846
 51
181.1182496285
  0
ARC
  5
144
330
7B
100
AcDbEntity
  8
DV1_Default
 62
     7
100
AcDbCircle
 10
386.668631629
 20
1274.2047792714
 30
0.0
 40
10.52035691989533
100
AcDbArc
 50
352.8710239879
 51
51.9903796814
  0
ARC
  5
145
330
7B
100
AcDbEntity
  8
DV1_Default
 62
     7
100
AcDbCircle
 10
229.279104736
 20
-984.723239032
 30
0.0
 40
2274.759476387972
100
AcDbArc
 50
86.0511652223
 51
90.3403474849
  0
SPLINE
  5
146
330
7B
100
AcDbEntity
  8
DV1_Default
 62
     7
100
AcDbSpline
210
0.0
220
0.0
230
1.0
 70
     8
 71
     3
 72
    17
 73
    13
 74
     0
 42
0.000000001
 43
0.0000000001
 40
0.0
 40
0.0
 40
0.0
 40
0.0
 40
0.7056202864276397
 40
0.7056202864276397
 40
0.7056202864276397
 40
0.754702945104513
 40
0.754702945104513
 40
0.8528682624582592
 40
0.8528682624582592
 40
0.9510335798120055
 40
0.9510335798120055
 40
1.0
 40
1.0
 40
1.0
 40
1.0
 10
351.8886035665647
 20
1265.914242829826
 30
0.0
 10
345.3760808313242
 20
1266.765208323692
 30
0.0
 10
341.3049018599872
 20
1265.590210880396
 30
0.0
 10
338.2378725076518
 20
1266.11375438222
 30
0.0
 10
337.8373117081219
 20
1266.182130318538
 30
0.0
 10
337.4539095841116
 20
1266.279227048326
 30
0.0
 10
336.3474175755405
 20
1266.663757917389
 30
0.0
 10
335.6677971562514
 20
1267.045539780312
 30
0.0
 10
334.4020709530984
 20
1268.003347174265
 30
0.0
 10
333.8170951312343
 20
1268.576479045218
 30
0.0
 10
333.0179370112119
 20
1269.522188557072
 30
0.0
 10
332.7651122221762
 20
1269.851738367027
 30
0.0
 10
332.5277502752684
 20
1270.195786546847
 30
0.0
  0
ARC
  5
147
330
7B
100
AcDbEntity
  8
DV1_Default
 62
     7
100
AcDbCircle
 10
340.6198449616
 20
1295.5469598634
 30
0.0
 40
29.58114157717597
100
AcDbArc
 50
267.8190922588
 51
270.0916604197
  0
SPLINE
  5
148
330
7B
100
AcDbEntity
  8
DV1_Default
 62
     7
100
AcDbSpline
210
0.0
220
0.0
230
1.0
 70
     8
 71
     3
 72
    16
 73
    12
 74
     0
 42
0.000000001
 43
0.0000000001
 40
0.0
 40
0.0
 40
0.0
 40
0.0
 40
0.1386902570814095
 40
0.1386902570814095
 40
0.4257935047209396
 40
0.4257935047209396
 40
0.7128967523604697
 40
0.7128967523604697
 40
0.8564483761802348
 40
0.8564483761802348
 40
1.0
 40
1.0
 40
1.0
 40
1.0
 10
369.2974180750355
 20
1270.198035295017
 30
0.0
 10
369.0749388068779
 20
1269.875365504439
 30
0.0
 10
368.8388453245453
 20
1269.565531586951
 30
0.0
 10
368.0781884407227
 20
1268.653991504509
 30
0.0
 10
367.5164553152737
 20
1268.092860978769
 30
0.0
 10
366.3029707297587
 20
1267.142404906707
 30
0.0
 10
365.65265910808
 20
1266.755822675436
 30
0.0
 10
364.5974360507942
 20
1266.349010519859
 30
0.0
 10
364.2324546208977
 20
1266.242745524076
 30
0.0
 10
363.4714470399012
 20
1266.085209781924
 30
0.0
 10
363.0757682186978
 20
1266.034390248649
 30
0.0
 10
362.6610690904624
 20
1266.005992554261
 30
0.0
  0
ARC
  5
149
330
7B
100
AcDbEntity
  8
DV1_Default
 62
     7
100
AcDbCircle
 10
393.3873188232
 20
1257.0277315681
 30
0.0
 40
5.000000444116993
100
AcDbArc
 50
339.8562253324
 51
358.6027835601
  0
ARC
  5
14A
330
7B
100
AcDbEntity
  8
DV1_Default
 62
     7
100
AcDbCircle
 10
38.1460958005
 20
1257.0277315681
 30
0.0
 40
4.999998578591999
100
AcDbArc
 50
181.3972098904
 51
200.1431023968
  0
LINE
  5
14B
330
7B
100
AcDbEntity
  8
DV1_Default
 62
     7
100
AcDbLine
 10
398.3858321943
 20
1256.905813245
 30
0.0
 11
406.9225911487
 21
1606.9135557028
 31
0.0
  0
LINE
  5
14C
330
7B
100
AcDbEntity
  8
DV1_Default
 62
     7
100
AcDbLine
 10
33.1475824141
 20
1256.9058138728
 30
0.0
 11
24.6107744509
 21
1606.9137850488
 31
0.0
  0
CIRCLE
  5
14D
330
7B
100
AcDbEntity
  8
DV1_Default
 62
     7
100
AcDbCircle
 10
215.7666938731
 20
1030.027731568
 30
0.0
 40
39.0
  0
ENDBLK
  5
14F
330
7B
100
AcDbEntity
  8
0
100
AcDbBlockEnd
  0
BLOCK
  5
22F
330
150
100
AcDbEntity
  8
0
100
AcDbBlockBegin
  2
SE1
 70
     0
 10
0.0
 20
0.0
 30
0.0
  3
SE1
  1

  0
ARC
  5
153
330
150
100
AcDbEntity
  8
DV2_Default
 62
     7
100
AcDbCircle
 10
486.6627567229
 20
1050.5459752493
 30
0.0
 40
109.9998755158376
100
AcDbArc
 50
12.8250298217
 51
13.3631914157
  0
ARC
  5
154
330
150
100
AcDbEntity
  8
DV2_Default
 62
     7
100
AcDbCircle
 10
486.6627567229
 20
1050.5459752493
 30
0.0
 40
109.9998755158376
100
AcDbArc
 50
5.3795670903
 51
6.5194283713
  0
LINE
  5
155
330
150
100
AcDbEntity
  8
DV2_Default
 62
     7
100
AcDbLine
 10
596.6626322387
 20
1009.6462753063
 30
0.0
 11
596.6626322387
 21
1007.7052311952
 31
0.0
  0
LINE
  5
156
330
150
100
AcDbEntity
  8
DV2_Default
 62
     7
100
AcDbLine
 10
596.6626322387
 20
1007.7052311952
 30
0.0
 11
596.6626322387
 21
1002.879571978
 31
0.0
  0
LINE
  5
157
330
150
100
AcDbEntity
  8
DV2_Default
 62
     7
100
AcDbLine
 10
596.6626322407
 20
1002.8795366052
 30
0.0
 11
596.6626322407
 21
866.3253888974
 31
0.0
  0
SPLINE
  5
158
330
150
100
AcDbEntity
  8
DV2_Default
 62
     7
100
AcDbSpline
210
0.0
220
0.0
230
1.0
 70
     8
 71
     3
 72
    19
 73
    15
 74
     0
 42
0.000000001
 43
0.0000000001
 40
0.0
 40
0.0
 40
0.0
 40
0.0
 40
0.1288749775801213
 40
0.2554409995636205
 40
0.3160756875899277
 40
0.3816130488170779
 40
0.4616672786158665
 40
0.5067668339794803
 40
0.57046475192652
 40
0.6310682350953837
 40
0.7546925418098235
 40
0.8776877963686026
 40
0.9421275984758022
 40
1.0
 40
1.0
 40
1.0
 40
1.0
 10
596.6626322386896
 20
1050.545956833348
 30
0.0
 10
596.6626722410748
 20
1048.788852156915
 30
0.0
 10
596.6627515291417
 20
1045.306123520885
 30
0.0
 10
596.6627509073909
 20
1040.996857167165
 30
0.0
 10
596.662641978799
 20
1037.551389239297
 30
0.0
 10
596.662613657571
 20
1034.740218655367
 30
0.0
 10
596.6627581505992
 20
1032.140973581212
 30
0.0
 10
596.662983151951
 20
1029.566885642116
 30
0.0
 10
596.6630780836043
 20
1027.257747974534
 30
0.0
 10
596.6629486805218
 20
1023.877973102886
 30
0.0
 10
596.662410117594
 20
1019.689005475767
 30
0.0
 10
596.6629801101035
 20
1015.447535309056
 30
0.0
 10
596.6631873034155
 20
1012.102847889578
 30
0.0
 10
596.6629770490111
 20
1010.435286949744
 30
0.0
 10
596.6627987350296
 20
1009.646275306348
 30
0.0
  0
LINE
  5
159
330
150
100
AcDbEntity
  8
DV2_Default
 62
     7
100
AcDbLine
 10
596.6626365345
 20
859.8205132173
 30
0.0
 11
596.6626322387
 21
848.0277315704
 31
0.0
  0
SPLINE
  5
15A
330
150
100
AcDbEntity
  8
DV2_Default
 62
     7
100
AcDbSpline
210
0.0
220
0.0
230
1.0
 70
    12
 71
     3
 72
     8
 73
     4
 74
     0
 42
0.000000001
 43
0.0000000001
 40
0.0
 40
0.0
 40
0.0
 40
0.0
 40
1.0
 40
1.0
 40
1.0
 40
1.0
 10
532.2357046026265
 20
1186.384847256264
 30
0.0
 41
1.146962659284279
 10
520.0057804187786
 20
1187.454826988678
 30
0.0
 41
0.9914292133739154
 10
510.1154726004917
 20
1195.077570017481
 30
0.0
 41
0.9593488247634165
 10
506.2652104745149
 20
1207.166406757208
 30
0.0
 41
1.050721493452557
  0
SPLINE
  5
15B
330
150
100
AcDbEntity
  8
DV2_Default
 62
     7
100
AcDbSpline
210
0.0
220
0.0
230
1.0
 70
    12
 71
     3
 72
     8
 73
     4
 74
     0
 42
0.000000001
 43
0.0000000001
 40
0.0
 40
0.0
 40
0.0
 40
0.0
 40
1.0
 40
1.0
 40
1.0
 40
1.0
 10
1133.70455207289
 20
1245.027731568048
 30
0.0
 41
1.194121949813587
 10
1134.736528287457
 20
1245.027731331914
 30
0.0
 41
1.129903700882163
 10
1135.773678598869
 20
1244.830352224918
 30
0.0
 41
1.081618671377149
 10
1136.769469623672
 20
1244.417337042289
 30
0.0
 41
1.049266861298546
  0
SPLINE
  5
15C
330
150
100
AcDbEntity
  8
DV2_Default
 62
     7
100
AcDbSpline
210
0.0
220
0.0
230
1.0
 70
    12
 71
     3
 72
     8
 73
     4
 74
     0
 42
0.000000001
 43
0.0000000001
 40
0.0
 40
0.0
 40
0.0
 40
0.0
 40
1.0
 40
1.0
 40
1.0
 40
1.0
 10
1141.631530458732
 20
1238.106148351816
 30
0.0
 41
1.097589694559071
 10
1141.679857353698
 20
1237.750917975366
 30
0.0
 41
1.113173268567968
 10
1141.703862265685
 20
1237.395960426849
 30
0.0
 41
1.130623185483162
 10
1141.70453554729
 20
1237.04299156621
 30
0.0
 41
1.149939445304651
  0
SPLINE
  5
15D
330
150
100
AcDbEntity
  8
DV2_Default
 62
     7
100
AcDbSpline
210
0.0
220
0.0
230
1.0
 70
     8
 71
     3
 72
     8
 73
     4
 74
     0
 42
0.000000001
 43
0.0000000001
 40
0.0
 40
0.0
 40
0.0
 40
0.0
 40
1.0
 40
1.0
 40
1.0
 40
1.0
 10
1141.70453554729
 20
1237.04299156621
 30
0.0
 10
1141.711445752291
 20
1233.641990384139
 30
0.0
 10
1141.626377178778
 20
1230.257238027988
 30
0.0
 10
1141.456034040227
 20
1226.885224135521
 30
0.0
  0
SPLINE
  5
15E
330
150
100
AcDbEntity
  8
DV2_Default
 62
     7
100
AcDbSpline
210
0.0
220
0.0
230
1.0
 70
     8
 71
     3
 72
    11
 73
     7
 74
     0
 42
0.000000001
 43
0.0000000001
 40
0.0
 40
0.0
 40
0.0
 40
0.0
 40
0.2180888728037092
 40
0.4822862249574417
 40
0.7542833326436302
 40
1.0
 40
1.0
 40
1.0
 40
1.0
 10
1123.194700425073
 20
1153.587945252359
 30
0.0
 10
1119.441045108251
 20
1145.810775293921
 30
0.0
 10
1109.651947074024
 20
1128.813275695652
 30
0.0
 10
1088.839661075226
 20
1104.713978237334
 30
0.0
 10
1061.895990934606
 20
1084.811903780626
 30
0.0
 10
1041.993905935894
 20
1075.465511850002
 30
0.0
 10
1032.41776517949
 20
1071.849857784548
 30
0.0
  0
ARC
  5
15F
330
150
100
AcDbEntity
  8
DV2_Default
 62
     7
100
AcDbCircle
 10
1037.8228597815
 20
1057.8591212324
 30
0.0
 40
15.00190230987639
100
AcDbArc
 50
111.1010703566
 51
182.8319051122
  0
LINE
  5
160
330
150
100
AcDbEntity
  8
DV2_Default
 62
     7
100
AcDbLine
 10
1022.8391650573
 20
1057.1179323774
 30
0.0
 11
1033.936713433
 21
845.027731568
 31
0.0
  0
ARC
  5
161
330
150
100
AcDbEntity
  8
DV2_Default
 62
     7
100
AcDbCircle
 10
599.6626322387
 20
848.027731568
 30
0.0
 40
2.999999999999956
100
AcDbArc
 50
180.0
 51
270.0000000029
  0
LINE
  5
162
330
150
100
AcDbEntity
  8
DV2_Default
 62
     7
100
AcDbLine
 10
592.9143260001
 20
1079.0166984479
 30
0.0
 11
575.6836873918
 21
1143.3222198033
 31
0.0
  0
LINE
  5
163
330
150
100
AcDbEntity
  8
DV2_Default
 62
     7
100
AcDbLine
 10
596.6626322387
 20
848.027731568
 30
0.0
 11
596.6626409943
 21
1050.5459568334
 31
0.0
  0
ARC
  5
164
330
150
100
AcDbEntity
  8
DV2_Default
 62
     7
100
AcDbCircle
 10
776.662632229
 20
885.0277317641
 30
0.0
 40
4.999999717340969
100
AcDbArc
 50
2.8778479765
 51
177.177573293
  0
ARC
  5
165
330
150
100
AcDbEntity
  8
DV2_Default
 62
     7
100
AcDbCircle
 10
776.6626322292
 20
885.0277314226
 30
0.0
 40
4.999999734323542
100
AcDbArc
 50
177.1775693841
 51
2.8778518854
  0
LINE
  5
166
330
150
100
AcDbEntity
  8
DV2_Default
 62
     7
100
AcDbLine
 10
596.1373859606
 20
1061.2827299761
 30
0.0
 11
596.6626322387
 21
1050.5459568334
 31
0.0
  0
SPLINE
  5
167
330
150
100
AcDbEntity
  8
DV2_Default
 62
     7
100
AcDbSpline
210
0.0
220
0.0
230
1.0
 70
     8
 71
     3
 72
    25
 73
    21
 74
     0
 42
0.000000001
 43
0.0000000001
 40
0.0
 40
0.0
 40
0.0
 40
0.0
 40
0.2953187594918301
 40
0.4928893187224803
 40
0.6215118663796303
 40
0.7028679886704918
 40
0.7562406476575052
 40
0.7801375990892211
 40
0.7964310827859531
 40
0.8084095393193922
 40
0.8225223980155943
 40
0.833533454754743
 40
0.844746382096062
 40
0.8581480748862237
 40
0.8726901180160657
 40
0.8904634045090809
 40
0.910550345530069
 40
0.9369165835034331
 40
0.9598082694855506
 40
1.0
 40
1.0
 40
1.0
 40
1.0
 10
599.6626322388396
 20
845.0277315680477
 30
0.0
 10
648.1282105074688
 20
845.0277278772724
 30
0.0
 10
729.017639595622
 20
845.027721717346
 30
0.0
 10
831.0151748143704
 20
845.0277514972682
 30
0.0
 10
897.8988048329413
 20
845.0277360633469
 30
0.0
 10
941.1148353462635
 20
845.0277742147747
 30
0.0
 10
967.142753983815
 20
845.0276464033157
 30
0.0
 10
982.4798951998389
 20
845.0276572031423
 30
0.0
 10
991.014064061576
 20
845.0279124478865
 30
0.0
 10
997.8977738857676
 20
845.0274912942815
 30
0.0
 10
1003.822682498648
 20
845.0286118322236
 30
0.0
 10
1009.200699335992
 20
845.0274018509324
 30
0.0
 10
1013.878613894334
 20
845.0284091433838
 30
0.0
 10
1018.139017274714
 20
845.0274772380541
 30
0.0
 10
1021.900203681375
 20
845.0278069632693
 30
0.0
 10
1024.949292422389
 20
845.0277671038536
 30
0.0
 10
1027.582757405835
 20
845.0274748200278
 30
0.0
 10
1029.591307421766
 20
845.0279349562957
 30
0.0
 10
1031.570797337576
 20
845.0270725653397
 30
0.0
 10
1032.407506908101
 20
845.0274750518902
 30
0.0
 10
1032.94059186019
 20
845.0277314963477
 30
0.0
  0
LINE
  5
168
330
150
100
AcDbEntity
  8
DV2_Default
 62
     7
100
AcDbLine
 10
625.1837677197
 20
1075.635565779
 30
0.0
 11
593.774892164
 21
1075.5857186872
 31
0.0
  0
ARC
  5
169
330
150
100
AcDbEntity
  8
DV2_Default
 62
     7
100
AcDbCircle
 10
486.6279302455
 20
1050.5396706418
 30
0.0
 40
110.0352858415581
100
AcDbArc
 50
5.602883018
 51
13.1567653602
  0
LINE
  5
16A
330
150
100
AcDbEntity
  8
DV2_Default
 62
     7
100
AcDbLine
 10
496.6941482845
 20
1211.6868822314
 30
0.0
 11
532.2183848723
 21
1195.1216586604
 31
0.0
  0
ARC
  5
16B
330
150
100
AcDbEntity
  8
DV2_Default
 62
     7
100
AcDbCircle
 10
498.4107297968
 20
1122.6177310666
 30
0.0
 40
79.998661422115
100
AcDbArc
 50
14.9994895534
 51
65.0009617206
  0
LINE
  5
16C
330
150
100
AcDbEntity
  8
DV2_Default
 62
     7
100
AcDbLine
 10
592.9143016094
 20
1079.0166919123
 30
0.0
 11
593.7748306118
 21
1075.5854648096
 31
0.0
  0
LINE
  5
16D
330
150
100
AcDbEntity
  8
DV2_Default
 62
     7
100
AcDbLine
 10
1033.9216685899
 20
845.027731567
 30
0.0
 11
1032.9405918602
 21
845.0277314963
 31
0.0
  0
SPLINE
  5
16E
330
150
100
AcDbEntity
  8
DV2_Default
 62
     7
100
AcDbSpline
210
0.0
220
0.0
230
1.0
 70
     8
 71
     3
 72
    41
 73
    37
 74
     0
 42
0.000000001
 43
0.0000000001
 40
0.0
 40
0.0
 40
0.0
 40
0.0
 40
0.0081211617845873
 40
0.0171940974053047
 40
0.0262209836253304
 40
0.0352097432423845
 40
0.0441625649933761
 40
0.0530886483513624
 40
0.0620301351330962
 40
0.0774195113813917
 40
0.0926075334688145
 40
0.1075922855128573
 40
0.117563474636875
 40
0.1285580515006075
 40
0.1406038378450533
 40
0.1480326781106185
 40
0.1670204509244055
 40
0.1752418941855644
 40
0.1826479774351705
 40
0.1973449831185062
 40
0.2107387509398949
 40
0.2245037247387773
 40
0.2377704983313593
 40
0.2434753220087855
 40
0.2537983994784808
 40
0.2702753871555622
 40
0.2892309713587599
 40
0.3082868848435516
 40
0.3594392867092393
 40
0.409870821754791
 40
0.463714410729855
 40
0.5574987909646527
 40
0.66185752531845
 40
0.758679274456331
 40
0.8256125766941873
 40
1.0
 40
1.0
 40
1.0
 40
1.0
 10
1032.423140968304
 20
1071.852041300382
 30
0.0
 10
1032.437443869352
 20
1071.857872556256
 30
0.0
 10
1032.465134838074
 20
1071.869721494076
 30
0.0
 10
1032.431750153469
 20
1071.873283407118
 30
0.0
 10
1032.351614139987
 20
1071.879135198518
 30
0.0
 10
1032.22314985668
 20
1071.893341717111
 30
0.0
 10
1032.050536074993
 20
1071.924166657216
 30
0.0
 10
1031.831323364182
 20
1071.978430403691
 30
0.0
 10
1031.508995695458
 20
1072.081585790167
 30
0.0
 10
1030.982382409534
 20
1072.225929628879
 30
0.0
 10
1030.09276224598
 20
1072.395678799194
 30
0.0
 10
1029.026805716009
 20
1072.533382813573
 30
0.0
 10
1027.831904559437
 20
1072.638906354952
 30
0.0
 10
1026.530203806293
 20
1072.729333396682
 30
0.0
 10
1025.083686118732
 20
1072.814144598007
 30
0.0
 10
1022.944001776474
 20
1072.918749508595
 30
0.0
 10
1020.713385098147
 20
1073.132617871882
 30
0.0
 10
1017.965076585083
 20
1073.56255942782
 30
0.0
 10
1015.154957627976
 20
1073.990053112527
 30
0.0
 10
1011.098357866984
 20
1074.550309003546
 30
0.0
 10
1005.356617285256
 20
1075.169296399051
 30
0.0
 10
999.2063165263017
 20
1075.586067303459
 30
0.0
 10
994.0122376210037
 20
1075.720396873447
 30
0.0
 10
989.3368645132905
 20
1075.794375173513
 30
0.0
 10
984.1294986134425
 20
1075.855703559575
 30
0.0
 10
976.7804666340365
 20
1075.900124649266
 30
0.0
 10
968.0227925248647
 20
1075.932520405324
 30
0.0
 10
953.6889341102348
 20
1075.997737784322
 30
0.0
 10
934.2910171949626
 20
1075.99824303162
 30
0.0
 10
909.2996935297823
 20
1075.876517104125
 30
0.0
 10
877.4532996369189
 20
1075.790943228568
 30
0.0
 10
836.9357408235694
 20
1075.763266767289
 30
0.0
 10
789.5076907653929
 20
1075.738216249002
 30
0.0
 10
746.3969234626795
 20
1075.706567737782
 30
0.0
 10
692.0263467781313
 20
1075.724401268102
 30
0.0
 10
653.2238849117549
 20
1075.672761407625
 30
0.0
 10
625.1837678467007
 20
1075.635523784827
 30
0.0
  0
LINE
  5
16F
330
150
100
AcDbEntity
  8
DV2_Default
 62
     7
100
AcDbLine
 10
625.1236958423
 20
1245.027731568
 30
0.0
 11
1133.704570885
 21
1245.027731568
 31
0.0
  0
LINE
  5
170
330
150
100
AcDbEntity
  8
DV2_Default
 62
     7
100
AcDbLine
 10
548.5453977284
 20
1184.9579339915
 30
0.0
 11
546.6828980401
 21
1185.1208816
 31
0.0
  0
LINE
  5
171
330
150
100
AcDbEntity
  8
DV2_Default
 62
     7
100
AcDbLine
 10
546.6828980406
 20
1185.1208816054
 30
0.0
 11
532.235704603
 21
1186.3848472603
 31
0.0
  0
ARC
  5
172
330
150
100
AcDbEntity
  8
DV2_Default
 62
     7
100
AcDbCircle
 10
944.6655360092
 20
1236.9904322184
 30
0.0
 40
197.0497771914976
100
AcDbArc
 50
334.9583639507
 51
357.0610203367
  0
ARC
  5
173
330
150
100
AcDbEntity
  8
DV2_Default
 62
     7
100
AcDbCircle
 10
979.4050624652
 20
1213.6256185558
 30
0.0
 40
151.3597839296233
100
AcDbArc
 50
290.5020401937
 51
291.6922089007
  0
ARC
  5
174
330
150
100
AcDbEntity
  8
DV2_Default
 62
     7
100
AcDbCircle
 10
1133.9897704819
 20
1237.4044959811
 30
0.0
 40
7.543637003095689
100
AcDbArc
 50
357.2536667855
 51
68.3713474759
  0
SPLINE
  5
175
330
150
100
AcDbEntity
  8
DV2_Default
 62
     7
100
AcDbSpline
210
0.0
220
0.0
230
1.0
 70
     8
 71
     5
 72
    12
 73
     6
 74
     0
 42
0.000000001
 43
0.0000000001
 40
0.0
 40
0.0
 40
0.0
 40
0.0
 40
0.0
 40
0.0
 40
1.0
 40
1.0
 40
1.0
 40
1.0
 40
1.0
 40
1.0
 10
789.9504258758171
 20
1250.505540626012
 30
0.0
 10
789.937767959172
 20
1250.650221612512
 30
0.0
 10
789.9250331958036
 20
1250.795766951934
 30
0.0
 10
789.9120363354516
 20
1250.942090553512
 30
0.0
 10
789.8986049925649
 20
1251.089104934709
 30
0.0
 10
789.8845790488923
 20
1251.236721726075
 30
0.0
  0
LINE
  5
176
330
150
100
AcDbEntity
  8
DV2_Default
 62
     7
100
AcDbLine
 10
789.9504296858
 20
1250.5055409593
 30
0.0
 11
789.9079961358
 21
1250.5192038405
 31
0.0
  0
LINE
  5
177
330
150
100
AcDbEntity
  8
DV2_Default
 62
     7
100
AcDbLine
 10
789.9079961358
 20
1250.5192038405
 30
0.0
 11
789.9051667852
 21
1250.5201148433
 31
0.0
  0
LINE
  5
178
330
150
100
AcDbEntity
  8
DV2_Default
 62
     7
100
AcDbLine
 10
790.4296707566
 20
1245.027731568
 30
0.0
 11
789.9504258758
 21
1250.505540626
 31
0.0
  0
LINE
  5
179
330
150
100
AcDbEntity
  8
DV2_Default
 62
     7
100
AcDbLine
 10
790.3856880575
 20
1245.027731568
 30
0.0
 11
789.9051667852
 21
1250.5201148433
 31
0.0
  0
LINE
  5
17A
330
150
100
AcDbEntity
  8
DV2_Default
 62
     7
100
AcDbLine
 10
1079.4454119298
 20
1245.027731568
 30
0.0
 11
1079.7980566775
 21
1249.0584794787
 31
0.0
  0
ARC
  5
17B
330
150
100
AcDbEntity
  8
DV2_Default
 62
     7
100
AcDbCircle
 10
1132.8170675454
 20
1253.3931075699
 30
0.0
 40
12.06090911913506
100
AcDbArc
 50
355.9859228889
 51
92.5124255544
  0
LINE
  5
17C
330
150
100
AcDbEntity
  8
DV2_Default
 62
     7
100
AcDbLine
 10
1144.8483898009
 20
1252.5488264806
 30
0.0
 11
1144.8925520828
 21
1252.5488264805
 31
0.0
  0
ARC
  5
17D
330
150
100
AcDbEntity
  8
DV2_Default
 62
     7
100
AcDbCircle
 10
1132.8612095442
 20
1253.3930916143
 30
0.0
 40
12.06092812147505
100
AcDbArc
 50
355.9860114184
 51
92.5124882154
  0
LINE
  5
17E
330
150
100
AcDbEntity
  8
DV2_Default
 62
     7
100
AcDbLine
 10
1132.3324929574
 20
1265.4424254515
 30
0.0
 11
1132.2883649692
 21
1265.4424230013
 31
0.0
  0
ARC
  5
17F
330
150
100
AcDbEntity
  8
DV2_Default
 62
     7
100
AcDbCircle
 10
798.0674097727
 20
1419.3705805323
 30
0.0
 40
153.4793201532477
100
AcDbArc
 50
263.9003207948
 51
264.1336537175
  0
LINE
  5
180
330
150
100
AcDbEntity
  8
DV2_Default
 62
     7
100
AcDbLine
 10
737.3824520143
 20
1268.9910127949
 30
0.0
 11
737.3383236625
 21
1269.0264657394
 31
0.0
  0
ARC
  5
181
330
150
100
AcDbEntity
  8
DV2_Default
 62
     7
100
AcDbCircle
 10
745.1044501222
 20
968.0306970049
 30
0.0
 40
301.0593644693226
100
AcDbArc
 50
83.3490798232
 51
91.4697647053
  0
SPLINE
  5
182
330
150
100
AcDbEntity
  8
DV2_Default
 62
     7
100
AcDbSpline
210
0.0
220
0.0
230
1.0
 70
     8
 71
     5
 72
    12
 73
     6
 74
     0
 42
0.000000001
 43
0.0000000001
 40
0.0
 40
0.0
 40
0.0
 40
0.0
 40
0.0
 40
0.0
 40
1.0
 40
1.0
 40
1.0
 40
1.0
 40
1.0
 40
1.0
 10
1079.798056677511
 20
1249.058479478673
 30
0.0
 10
1079.835540677526
 20
1249.486923559352
 30
0.0
 10
1079.873671486611
 20
1249.922760701536
 30
0.0
 10
1079.917167923593
 20
1250.363716724154
 30
0.0
 10
1079.96978922046
 20
1250.807400247081
 30
0.0
 10
1080.03446662065
 20
1251.251420810786
 30
0.0
  0
SPLINE
  5
183
330
150
100
AcDbEntity
  8
DV2_Default
 62
     7
100
AcDbSpline
210
0.0
220
0.0
230
1.0
 70
     8
 71
     2
 72
     6
 73
     3
 74
     0
 42
0.000000001
 43
0.0000000001
 40
0.0
 40
0.0
 40
0.0
 40
1.0
 40
1.0
 40
1.0
 10
1132.332492957434
 20
1265.442425451531
 30
0.0
 10
1121.710325344558
 20
1265.906477991397
 30
0.0
 10
1111.092337987249
 20
1265.855796845164
 30
0.0
  0
ARC
  5
184
330
150
100
AcDbEntity
  8
DV2_Default
 62
     7
100
AcDbCircle
 10
1113.1422448929
 20
827.5095210123
 30
0.0
 40
438.3512272206438
100
AcDbArc
 50
90.0149098162
 51
90.2735910877
  0
SPLINE
  5
185
330
150
100
AcDbEntity
  8
DV2_Default
 62
     7
100
AcDbSpline
210
0.0
220
0.0
230
1.0
 70
     8
 71
     3
 72
     8
 73
     4
 74
     0
 42
0.000000001
 43
0.0000000001
 40
0.0
 40
0.0
 40
0.0
 40
0.0
 40
0.9999999999999999
 40
0.9999999999999999
 40
0.9999999999999999
 40
0.9999999999999999
 10
1003.063201654506
 20
1266.256557294615
 30
0.0
 10
1003.0570546734
 20
1266.254554069954
 30
0.0
 10
1003.050323070209
 20
1266.240741737745
 30
0.0
 10
1003.043194724739
 20
1266.216427411654
 30
0.0
  0
LINE
  5
186
330
150
100
AcDbEntity
  8
DV2_Default
 62
     7
100
AcDbLine
 10
1144.8925520849
 20
1252.5488263594
 30
0.0
 11
1144.9155499937
 21
1251.2312770497
 31
0.0
  0
ARC
  5
187
330
150
100
AcDbEntity
  8
DV2_Default
 62
     7
100
AcDbCircle
 10
718.3131478419
 20
1306.1779754896
 30
0.0
 40
55.63325562475863
100
AcDbArc
 50
269.7880733281
 51
275.9836879979
  0
SPLINE
  5
188
330
150
100
AcDbEntity
  8
DV2_Default
 62
     7
100
AcDbSpline
210
0.0
220
0.0
230
1.0
 70
     8
 71
     3
 72
    17
 73
    13
 74
     0
 42
0.000000001
 43
0.0000000001
 40
0.0
 40
0.0
 40
0.0
 40
0.0
 40
0.0616878757694402
 40
0.1115759239386688
 40
0.2360632007026619
 40
0.3667999955708328
 40
0.4999875002326953
 40
0.6331748176102254
 40
0.7639134793190069
 40
0.8884091688648736
 40
0.9376488216332973
 40
1.0
 40
1.0
 40
1.0
 40
1.0
 10
724.1167910877048
 20
1251.084821713936
 30
0.0
 10
724.1187385635387
 20
1251.102043431893
 30
0.0
 10
724.1222609965262
 20
1251.133192649934
 30
0.0
 10
724.3370286648552
 20
1251.192470176819
 30
0.0
 10
725.1711743005234
 20
1251.250459001567
 30
0.0
 10
727.5540142273024
 20
1251.285974610523
 30
0.0
 10
731.363072685294
 20
1251.288405044108
 30
0.0
 10
736.3336493918902
 20
1251.269877753113
 30
0.0
 10
741.9689485360097
 20
1251.246847719584
 30
0.0
 10
746.678956573199
 20
1251.23462467383
 30
0.0
 10
750.3585033281037
 20
1251.231790138738
 30
0.0
 10
752.1008812493841
 20
1251.231460972784
 30
0.0
 10
753.0744318133076
 20
1251.231277050123
 30
0.0
  0
LINE
  5
189
330
150
100
AcDbEntity
  8
DV2_Default
 62
     7
100
AcDbLine
 10
724.1167910877
 20
1251.0848217139
 30
0.0
 11
724.1126544048
 21
1250.8478313091
 31
0.0
  0
ARC
  5
18A
330
150
100
AcDbEntity
  8
DV2_Default
 62
     7
100
AcDbCircle
 10
1113.14228646
 20
827.5092912325
 30
0.0
 40
438.351457421037
100
AcDbArc
 50
87.4966694748
 51
90.0094029922
  0
LINE
  5
18B
330
150
100
AcDbEntity
  8
DV2_Default
 62
     7
100
AcDbLine
 10
753.0744318133
 20
1251.2312770501
 30
0.0
 11
1002.9033733169
 21
1251.2312770497
 31
0.0
  0
LINE
  5
18C
330
150
100
AcDbEntity
  8
DV2_Default
 62
     7
100
AcDbLine
 10
1002.9033733169
 20
1251.2312770497
 30
0.0
 11
1144.8713876493
 21
1251.2312770497
 31
0.0
  0
LINE
  5
18D
330
150
100
AcDbEntity
  8
DV2_Default
 62
     7
100
AcDbLine
 10
1144.8713876493
 20
1251.2312770497
 30
0.0
 11
1144.8483898258
 21
1252.5488250553
 31
0.0
  0
ARC
  5
18E
330
150
100
AcDbEntity
  8
DV2_Default
 62
     7
100
AcDbCircle
 10
719.1342381008
 20
1260.6976003408
 30
0.0
 40
26.02856359898961
100
AcDbArc
 50
160.486090953
 51
172.1974504697
  0
ARC
  5
18F
330
150
100
AcDbEntity
  8
DV2_Default
 62
     7
100
AcDbCircle
 10
707.4502020793
 20
1264.751442605
 30
0.0
 40
13.90895324986148
100
AcDbArc
 50
206.2547998716
 51
216.6646757683
  0
ARC
  5
190
330
150
100
AcDbEntity
  8
DV2_Default
 62
     7
100
AcDbCircle
 10
715.1233536924
 20
1307.1217751317
 30
0.0
 40
56.65531289810591
100
AcDbArc
 50
259.6344864095
 51
273.0191474928
  0
LINE
  5
191
330
150
100
AcDbEntity
  8
DV2_Default
 62
     7
100
AcDbLine
 10
1049.0982039499
 20
1250.3188006437
 30
0.0
 11
1045.4577869907
 21
1250.318800741
 31
0.0
  0
LINE
  5
192
330
150
100
AcDbEntity
  8
DV2_Default
 62
     7
100
AcDbLine
 10
1064.5246476173
 20
1250.3240581362
 30
0.0
 11
1063.9099656122
 21
1250.318800741
 31
0.0
  0
LINE
  5
193
330
150
100
AcDbEntity
  8
DV2_Default
 62
     7
100
AcDbLine
 10
1051.6289311908
 20
1250.318800595
 30
0.0
 11
1049.0982039499
 21
1250.3188006437
 31
0.0
  0
LINE
  5
194
330
150
100
AcDbEntity
  8
DV2_Default
 62
     7
100
AcDbLine
 10
1054.9657883008
 20
1250.318800595
 30
0.0
 11
1051.6289311908
 21
1250.318800595
 31
0.0
  0
LINE
  5
195
330
150
100
AcDbEntity
  8
DV2_Default
 62
     7
100
AcDbLine
 10
1061.4021444484
 20
1250.318800595
 30
0.0
 11
1054.9657883008
 21
1250.318800595
 31
0.0
  0
LINE
  5
196
330
150
100
AcDbEntity
  8
DV2_Default
 62
     7
100
AcDbLine
 10
1062.8124627821
 20
1250.318800595
 30
0.0
 11
1061.4021444484
 21
1250.318800595
 31
0.0
  0
LINE
  5
197
330
150
100
AcDbEntity
  8
DV2_Default
 62
     7
100
AcDbLine
 10
1063.9099656122
 20
1250.318800741
 30
0.0
 11
1062.8124627821
 21
1250.318800595
 31
0.0
  0
LINE
  5
198
330
150
100
AcDbEntity
  8
DV2_Default
 62
     7
100
AcDbLine
 10
1044.2553047171
 20
1250.318800741
 30
0.0
 11
1045.4577869907
 21
1250.318800741
 31
0.0
  0
ARC
  5
199
330
150
100
AcDbEntity
  8
DV2_Default
 62
     7
100
AcDbCircle
 10
713.9248002266
 20
1539.0957044835
 30
0.0
 40
288.5809164707771
100
AcDbArc
 50
270.8305595191
 51
271.22078128
  0
ARC
  5
19A
330
150
100
AcDbEntity
  8
DV2_Default
 62
     7
100
AcDbCircle
 10
706.2404648106
 20
1919.5403900391
 30
0.0
 40
669.1030980590339
100
AcDbArc
 50
271.1845767573
 51
271.2341186223
  0
ARC
  5
19B
330
150
100
AcDbEntity
  8
DV2_Default
 62
     7
100
AcDbCircle
 10
753.5212297143
 20
5769.1215503335
 30
0.0
 40
4517.890294412286
100
AcDbArc
 50
269.7622415047
 51
269.8485362799
  0
SPLINE
  5
19C
330
150
100
AcDbEntity
  8
DV2_Default
 62
     7
100
AcDbSpline
210
0.0
220
0.0
230
1.0
 70
     8
 71
     3
 72
     8
 73
     4
 74
     0
 42
0.000000001
 43
0.0000000001
 40
0.0
 40
0.0
 40
0.0
 40
0.0
 40
1.0
 40
1.0
 40
1.0
 40
1.0
 10
789.8425122620054
 20
1251.233115269159
 30
0.0
 10
789.8640652310158
 20
1251.003468142143
 30
0.0
 10
789.8846244601978
 20
1250.766892818941
 30
0.0
 10
789.9053485479116
 20
1250.520094099269
 30
0.0
  0
SPLINE
  5
19D
330
150
100
AcDbEntity
  8
DV2_Default
 62
     7
100
AcDbSpline
210
0.0
220
0.0
230
1.0
 70
     8
 71
     3
 72
    13
 73
     9
 74
     0
 42
0.000000001
 43
0.0000000001
 40
0.0
 40
0.0
 40
0.0
 40
0.0
 40
0.2243057411784798
 40
0.4621470850880511
 40
0.7016366792133207
 40
0.7016366792133207
 40
0.7016366792133207
 40
1.0
 40
1.0
 40
1.0
 40
1.0
 10
737.3402665411762
 20
1269.027987899876
 30
0.0
 10
736.0639058279927
 20
1269.023031051085
 30
0.0
 10
733.8430026875858
 20
1269.028597084602
 30
0.0
 10
730.175549265168
 20
1269.166263125861
 30
0.0
 10
727.8085310563849
 20
1269.471108134446
 30
0.0
 10
726.6536404001379
 20
1269.696097283949
 30
0.0
 10
725.7864767496595
 20
1269.865033114494
 30
0.0
 10
724.9377520758794
 20
1270.074584841094
 30
0.0
 10
724.1217589580674
 20
1270.326026476915
 30
0.0
  0
SPLINE
  5
19E
330
150
100
AcDbEntity
  8
DV2_Default
 62
     7
100
AcDbSpline
210
0.0
220
0.0
230
1.0
 70
     8
 71
     3
 72
    25
 73
    21
 74
     0
 42
0.000000001
 43
0.0000000001
 40
0.0
 40
0.0
 40
0.0
 40
0.0
 40
0.1124775644878863
 40
0.2120155216827842
 40
0.2998218987189436
 40
0.3770679461295282
 40
0.4448972192503128
 40
0.5044239803696918
 40
0.5804617162963058
 40
0.6435921049346882
 40
0.6967386257372046
 40
0.7422088378133064
 40
0.781637465568043
 40
0.8160686196245794
 40
0.8459308754722353
 40
0.8715615680369312
 40
0.890507633392916
 40
0.9198348787521026
 40
0.9602099995261285
 40
0.9999999999999999
 40
0.9999999999999999
 40
0.9999999999999999
 40
0.9999999999999999
 10
866.8956338231943
 20
1266.258642704009
 30
0.0
 10
862.4121594448899
 20
1266.258740700322
 30
0.0
 10
855.3042668067379
 20
1266.259409378091
 30
0.0
 10
844.2347083210817
 20
1266.265279328509
 30
0.0
 10
834.6950314899436
 20
1266.278338598589
 30
0.0
 10
826.2605149910888
 20
1266.300146534049
 30
0.0
 10
818.8870423942278
 20
1266.331333432234
 30
0.0
 10
811.6089725469302
 20
1266.37699374508
 30
0.0
 10
804.6047678380775
 20
1266.441584301765
 30
0.0
 10
798.0789149099435
 20
1266.530559068734
 30
0.0
 10
792.9408385542552
 20
1266.626438223275
 30
0.0
 10
788.9698803960031
 20
1266.72208343055
 30
0.0
 10
785.9669446950537
 20
1266.811170638802
 30
0.0
 10
783.7691501665433
 20
1266.888495647377
 30
0.0
 10
782.2401833276894
 20
1266.949949588617
 30
0.0
 10
781.2489177515922
 20
1266.994373871739
 30
0.0
 10
780.7071224022982
 20
1267.019560228494
 30
0.0
 10
780.2616935572237
 20
1267.039558834432
 30
0.0
 10
779.9667080363938
 20
1267.049350279035
 30
0.0
 10
779.9064384927498
 20
1267.045248453196
 30
0.0
 10
779.9078794580208
 20
1267.040548784521
 30
0.0
  0
ARC
  5
19F
330
150
100
AcDbEntity
  8
DV2_Default
 62
     7
100
AcDbCircle
 10
745.11619767
 20
972.1157776304
 30
0.0
 40
297.0125183023918
100
AcDbArc
 50
83.2603028441
 51
91.4995947656
  0
ARC
  5
1A0
330
150
100
AcDbEntity
  8
DV2_Default
 62
     7
100
AcDbCircle
 10
1020.4034285135
 20
-9196.4164504002
 30
0.0
 40
10462.6876172043
100
AcDbArc
 50
89.4925211608
 51
90.0949615338
  0
LINE
  5
1A1
330
150
100
AcDbEntity
  8
DV2_Default
 62
     7
100
AcDbLine
 10
1003.0632679905
 20
1266.2565777392
 30
0.0
 11
866.8798848919
 21
1266.2593109649
 31
0.0
  0
SPLINE
  5
1A2
330
150
100
AcDbEntity
  8
DV2_Default
 62
     7
100
AcDbSpline
210
0.0
220
0.0
230
1.0
 70
     8
 71
     3
 72
    14
 73
    10
 74
     0
 42
0.000000001
 43
0.0000000001
 40
0.0
 40
0.0
 40
0.0
 40
0.0
 40
0.6691587472721245
 40
0.8748523591983305
 40
0.9095432839235614
 40
0.9398510557080336
 40
0.9545029291362429
 40
0.9693557567204543
 40
1.0
 40
1.0
 40
1.0
 40
1.0
 10
1064.524647617321
 20
1250.324058136198
 30
0.0
 10
1065.056904504158
 20
1250.300312098479
 30
0.0
 10
1065.87947069794
 20
1250.417994429841
 30
0.0
 10
1065.948933852234
 20
1250.298431406453
 30
0.0
 10
1066.342038955452
 20
1250.482263245217
 30
0.0
 10
1066.512597639063
 20
1250.626267289946
 30
0.0
 10
1066.630486777597
 20
1250.795797545812
 30
0.0
 10
1066.730000203287
 20
1251.005119252791
 30
0.0
 10
1066.76444530142
 20
1251.175766680717
 30
0.0
 10
1066.789437975143
 20
1251.310422905659
 30
0.0
  0
SPLINE
  5
1A3
330
150
100
AcDbEntity
  8
DV2_Default
 62
     7
100
AcDbSpline
210
0.0
220
0.0
230
1.0
 70
     8
 71
     3
 72
    13
 73
     9
 74
     0
 42
0.000000001
 43
0.0000000001
 40
0.0
 40
0.0
 40
0.0
 40
0.0
 40
0.209815631258218
 40
0.3436002391924164
 40
0.4775981498084373
 40
0.6115253649448316
 40
0.7451202556560698
 40
1.0
 40
1.0
 40
1.0
 40
1.0
 10
1043.015175735002
 20
1251.231277054993
 30
0.0
 10
1043.043719450242
 20
1251.112927635996
 30
0.0
 10
1043.094462072041
 20
1250.940880798467
 30
0.0
 10
1043.236969008724
 20
1250.706657598419
 30
0.0
 10
1043.39822635954
 20
1250.543771064652
 30
0.0
 10
1043.594533330814
 20
1250.422673145826
 30
0.0
 10
1043.884713029461
 20
1250.326043821514
 30
0.0
 10
1044.092944689334
 20
1250.319671445252
 30
0.0
 10
1044.253887876674
 20
1250.318800741026
 30
0.0
  0
LINE
  5
1A4
330
150
100
AcDbEntity
  8
DV2_Default
 62
     7
100
AcDbLine
 10
718.1078610897
 20
1250.5451069905
 30
0.0
 11
720.0787521486
 21
1250.5803866715
 31
0.0
  0
LINE
  5
1A5
330
150
100
AcDbEntity
  8
DV2_Default
 62
     7
100
AcDbLine
 10
718.1077409994
 20
1250.5451053831
 30
0.0
 11
720.0789594096
 21
1250.5803909507
 31
0.0
  0
LINE
  5
1A6
330
150
100
AcDbEntity
  8
DV2_Default
 62
     7
100
AcDbLine
 10
1054.9090069783
 20
1245.0065293573
 30
0.0
 11
1055.8702628023
 21
1245.0216938513
 31
0.0
  0
LINE
  5
1A7
330
150
100
AcDbEntity
  8
DV2_Default
 62
     7
100
AcDbLine
 10
1054.8926770794
 20
1244.9765284729
 30
0.0
 11
1054.9090069783
 21
1245.0065293573
 31
0.0
  0
ARC
  5
1A8
330
150
100
AcDbEntity
  8
DV2_Default
 62
     7
100
AcDbCircle
 10
304.0148671453
 20
1249.4006655099
 30
0.0
 40
750.9087415378689
100
AcDbArc
 50
359.6663491125
 51
0.0700554882
  0
LINE
  5
1A9
330
150
100
AcDbEntity
  8
DV2_Default
 62
     7
100
AcDbLine
 10
1054.9090069783
 20
1245.0065293573
 30
0.0
 11
1053.9478291542
 21
1245.0216938513
 31
0.0
  0
ARC
  5
1AA
330
150
100
AcDbEntity
  8
DV2_Default
 62
     7
100
AcDbCircle
 10
1053.7192776491
 20
1255.1944874011
 30
0.0
 40
10.2850858457969
100
AcDbArc
 50
208.2977784784
 51
276.5509945679
  0
ARC
  5
1AB
330
150
100
AcDbEntity
  8
DV2_Default
 62
     7
100
AcDbCircle
 10
1053.9567733181
 20
1244.9937177664
 30
0.0
 40
0.029325152833314
100
AcDbArc
 50
95.2377590119
 51
107.7616326346
  0
ARC
  5
1AC
330
150
100
AcDbEntity
  8
DV2_Default
 62
     7
100
AcDbCircle
 10
1050.4629255765
 20
2115.0752121452
 30
0.0
 40
864.7679133754127
100
AcDbArc
 50
269.7016468996
 51
270.295509679
  0
ARC
  5
1AD
330
150
100
AcDbEntity
  8
DV2_Default
 62
     7
100
AcDbCircle
 10
1045.2862072656
 20
1278.7473520429
 30
0.0
 40
28.43537491600592
100
AcDbArc
 50
268.7447812503
 51
268.7882542189
  0
ARC
  5
1AE
330
150
100
AcDbEntity
  8
DV2_Default
 62
     7
100
AcDbCircle
 10
1056.4448669101
 20
1254.7519052592
 30
0.0
 40
9.727864884873895
100
AcDbArc
 50
271.8000513875
 51
332.9692096364
  0
ARC
  5
1AF
330
150
100
AcDbEntity
  8
DV2_Default
 62
     7
100
AcDbCircle
 10
134.8270074032
 20
1251.4006656559
 30
0.0
 40
750.9087415265938
100
AcDbArc
 50
359.6663491125
 51
359.9843590734
  0
ARC
  5
1B0
330
150
100
AcDbEntity
  8
DV2_Default
 62
     7
100
AcDbCircle
 10
887.1467910536
 20
1256.5905288639
 30
0.0
 40
9.727864884873826
100
AcDbArc
 50
261.9196822041
 51
326.2434260318
  0
ARC
  5
1B1
330
150
100
AcDbEntity
  8
DV2_Default
 62
     7
100
AcDbCircle
 10
884.5821135543
 20
1257.1716867244
 30
0.0
 40
10.29700702921063
100
AcDbArc
 50
215.5752690985
 51
276.6654562213
  0
ARC
  5
1B2
330
150
100
AcDbEntity
  8
DV2_Default
 62
     7
100
AcDbCircle
 10
859.051902447
 20
1228.2343126744
 30
0.0
 40
169.57001668245
100
AcDbArc
 50
165.2938096469
 51
166.1642118377
  0
ARC
  5
1B3
330
150
100
AcDbEntity
  8
DV2_Default
 62
     7
100
AcDbCircle
 10
845.9298319693
 20
1231.6364770754
 30
0.0
 40
156.0141443639062
100
AcDbArc
 50
164.1203866251
 51
165.2789396832
  0
LINE
  5
1B4
330
150
100
AcDbEntity
  8
DV2_Default
 62
     7
100
AcDbLine
 10
696.5789013783
 20
1276.7405071607
 30
0.0
 11
695.8693860802
 21
1274.3245992795
 31
0.0
  0
ELLIPSE
  5
1B5
330
150
100
AcDbEntity
  8
DV2_Default
 62
     7
100
AcDbEllipse
 10
118.7491307327
 20
1225.3601347598
 30
0.0
 11
1090.123898654257
 21
45.53380463198927
 31
0.0
210
0.0
220
0.0
230
1.0
 40
0.0420452487
 41
0.4826364485508421
 42
0.6123464582041779
  0
ARC
  5
1B6
330
150
100
AcDbEntity
  8
DV2_Default
 62
     7
100
AcDbCircle
 10
718.6082284765
 20
1270.5112796312
 30
0.0
 40
22.89310592221198
100
AcDbArc
 50
154.7160212883
 51
164.2106937398
  0
ARC
  5
1B7
330
150
100
AcDbEntity
  8
DV2_Default
 62
     7
100
AcDbCircle
 10
563.8254356385
 20
1283.3956993613
 30
0.0
 40
157.2357041639794
100
AcDbArc
 50
353.7222208869
 51
355.2505953042
  0
ARC
  5
1B8
330
150
100
AcDbEntity
  8
DV2_Default
 62
     7
100
AcDbCircle
 10
641.2565484087
 20
1274.9244675375
 30
0.0
 40
79.34260629208296
100
AcDbArc
 50
353.2923298554
 51
353.6885933663
  0
ARC
  5
1B9
330
150
100
AcDbEntity
  8
DV2_Default
 62
     7
100
AcDbCircle
 10
641.2271595552
 20
1274.7132300185
 30
0.0
 40
79.34260629208296
100
AcDbArc
 50
352.156455422
 51
353.446296687
  0
LINE
  5
1BA
330
150
100
AcDbEntity
  8
DV2_Default
 62
     7
100
AcDbLine
 10
724.437575984
 20
1270.2312672286
 30
0.0
 11
1143.8713910234
 21
1270.2312672286
 31
0.0
  0
ARC
  5
1BB
330
150
100
AcDbEntity
  8
DV2_Default
 62
     7
100
AcDbCircle
 10
718.019454865
 20
966.0042803992
 30
0.0
 40
304.3829218067054
100
AcDbArc
 50
88.851250612
 51
93.3449586088
  0
LINE
  5
1BC
330
150
100
AcDbEntity
  8
DV2_Default
 62
     7
100
AcDbLine
 10
1132.8271628699
 20
1284.4776824398
 30
0.0
 11
1132.7678178767
 21
1284.444799862
 31
0.0
  0
SPLINE
  5
1BD
330
150
100
AcDbEntity
  8
DV2_Default
 62
     7
100
AcDbSpline
210
0.0
220
0.0
230
1.0
 70
     8
 71
     5
 72
    12
 73
     6
 74
     0
 42
0.000000001
 43
0.0000000001
 40
0.0
 40
0.0
 40
0.0
 40
0.0
 40
0.0
 40
0.0
 40
1.0
 40
1.0
 40
1.0
 40
1.0
 40
1.0
 40
1.0
 10
1132.767817727296
 20
1284.44479986807
 30
0.0
 10
1136.089139282144
 20
1284.237709846668
 30
0.0
 10
1140.240246923403
 20
1283.970263383505
 30
0.0
 10
1143.694475525541
 20
1280.36679181138
 30
0.0
 10
1143.767072547816
 20
1276.207699789284
 30
0.0
 10
1143.825149970255
 20
1272.880422649966
 30
0.0
  0
ARC
  5
1BE
330
150
100
AcDbEntity
  8
DV2_Default
 62
     7
100
AcDbCircle
 10
835.3370360108
 20
1234.6941006637
 30
0.0
 40
144.9886850435759
100
AcDbArc
 50
163.1421722401
 51
163.4373815965
  0
LINE
  5
1BF
330
150
100
AcDbEntity
  8
DV2_Default
 62
     7
100
AcDbLine
 10
693.3691483075
 20
1264.334380952
 30
0.0
 11
693.3683588228
 21
1264.3307658216
 31
0.0
  0
ARC
  5
1C0
330
150
100
AcDbEntity
  8
DV2_Default
 62
     7
100
AcDbCircle
 10
868.1701577016
 20
1226.1245283974
 30
0.0
 40
178.9285164535721
100
AcDbArc
 50
166.9724225704
 51
167.6696304498
  0
LINE
  5
1C1
330
150
100
AcDbEntity
  8
DV2_Default
 62
     7
100
AcDbLine
 10
696.3641199388
 20
1276.0250171268
 30
0.0
 11
693.8466741193
 21
1266.4586636573
 31
0.0
  0
LINE
  5
1C2
330
150
100
AcDbEntity
  8
DV2_Default
 62
     7
100
AcDbLine
 10
1083.4204100996
 20
1286.8583831833
 30
0.0
 11
1083.4644030532
 21
1286.9653557709
 31
0.0
  0
SPLINE
  5
1C3
330
150
100
AcDbEntity
  8
DV2_Default
 62
     7
100
AcDbSpline
210
0.0
220
0.0
230
1.0
 70
     8
 71
     3
 72
    20
 73
    16
 74
     0
 42
0.000000001
 43
0.0000000001
 40
0.0
 40
0.0
 40
0.0
 40
0.0
 40
0.0607065076977662
 40
0.1342549964302744
 40
0.221557001855615
 40
0.3660460706316548
 40
0.4634503242561156
 40
0.5995262865477878
 40
0.7247294216130774
 40
0.7701255626246825
 40
0.8157403179076288
 40
0.8615534141491993
 40
0.9075459875611691
 40
0.9537003912141669
 40
1.0
 40
1.0
 40
1.0
 40
1.0
 10
693.8469608100136
 20
1266.458596203366
 30
0.0
 10
693.8686528287691
 20
1266.54729786744
 30
0.0
 10
693.9141741036391
 20
1266.744029809325
 30
0.0
 10
694.0125122397923
 20
1267.062323129986
 30
0.0
 10
694.2164833802909
 20
1267.497298644396
 30
0.0
 10
694.5774413445895
 20
1267.954387060056
 30
0.0
 10
695.1979220253367
 20
1268.457492533581
 30
0.0
 10
695.9834280181368
 20
1268.888427247507
 30
0.0
 10
696.8525041844724
 20
1269.206961689487
 30
0.0
 10
697.5552768854725
 20
1269.401132641636
 30
0.0
 10
698.0304967180474
 20
1269.513982396662
 30
0.0
 10
698.5381565047279
 20
1269.617367596536
 30
0.0
 10
699.0788472451867
 20
1269.71104486668
 30
0.0
 10
699.649634059024
 20
1269.795887988563
 30
0.0
 10
700.0560037513536
 20
1269.844362119357
 30
0.0
 10
700.2595077127704
 20
1269.868637250657
 30
0.0
  0
ARC
  5
1C4
330
150
100
AcDbEntity
  8
DV2_Default
 62
     7
100
AcDbCircle
 10
709.0953905735
 20
1276.9727825105
 30
0.0
 40
11.81167133092149
100
AcDbArc
 50
84.5063078333
 51
157.1705829789
  0
SPLINE
  5
1C5
330
150
100
AcDbEntity
  8
DV2_Default
 62
     7
100
AcDbSpline
210
0.0
220
0.0
230
1.0
 70
     8
 71
     3
 72
     8
 73
     4
 74
     0
 42
0.000000001
 43
0.0000000001
 40
0.0
 40
0.0
 40
0.0
 40
0.0
 40
1.0
 40
1.0
 40
1.0
 40
1.0
 10
1083.464415027135
 20
1286.965355311764
 30
0.0
 10
1099.9186643014
 20
1286.334390536685
 30
0.0
 10
1116.372913575665
 20
1285.547979564712
 30
0.0
 10
1132.82716284993
 20
1284.477682441097
 30
0.0
  0
SPLINE
  5
1C6
330
150
100
AcDbEntity
  8
DV2_Default
 62
     7
100
AcDbSpline
210
0.0
220
0.0
230
1.0
 70
     8
 71
     3
 72
     8
 73
     4
 74
     0
 42
0.000000001
 43
0.0000000001
 40
0.0
 40
0.0
 40
0.0
 40
0.0
 40
1.0
 40
1.0
 40
1.0
 40
1.0
 10
710.2261947045885
 20
1288.730199813901
 30
0.0
 10
820.2132372394062
 20
1290.274467655337
 30
0.0
 10
922.7120001010162
 20
1290.422801107527
 30
0.0
 10
1002.88384483
 20
1289.08405494068
 30
0.0
  0
ARC
  5
1C7
330
150
100
AcDbEntity
  8
DV2_Default
 62
     7
100
AcDbCircle
 10
707.2889489645
 20
1265.1964910937
 30
0.0
 40
13.94654813078514
100
AcDbArc
 50
183.5439462121
 51
254.8171115824
  0
ARC
  5
1C8
330
150
100
AcDbEntity
  8
DV2_Default
 62
     7
100
AcDbCircle
 10
703.8921235295
 20
1265.3555959179
 30
0.0
 40
16.00301612325939
100
AcDbArc
 50
334.8360698084
 51
354.7290373687
  0
ARC
  5
1C9
330
150
100
AcDbEntity
  8
DV2_Default
 62
     7
100
AcDbCircle
 10
740.9531418736
 20
1307.7397669954
 30
0.0
 40
54.12465295240867
100
AcDbArc
 50
245.3403390134
 51
245.3457358478
  0
ARC
  5
1CA
330
150
100
AcDbEntity
  8
DV2_Default
 62
     7
100
AcDbCircle
 10
706.5859506951
 20
1264.7057717175
 30
0.0
 40
13.30021589318863
100
AcDbArc
 50
257.1868648535
 51
332.4346326618
  0
LINE
  5
1CB
330
150
100
AcDbEntity
  8
DV2_Default
 62
     7
100
AcDbLine
 10
698.2089974972
 20
1281.5555791911
 30
0.0
 11
698.0093389889
 21
1280.8607588665
 31
0.0
  0
LINE
  5
1CC
330
150
100
AcDbEntity
  8
DV2_Default
 62
     7
100
AcDbLine
 10
698.0093389889
 20
1280.8607588665
 30
0.0
 11
697.9082359624
 21
1280.2890406445
 31
0.0
  0
LINE
  5
1CD
330
150
100
AcDbEntity
  8
DV2_Default
 62
     7
100
AcDbLine
 10
1143.8251499703
 20
1272.88042265
 30
0.0
 11
1143.8713910234
 21
1270.2312672286
 31
0.0
  0
LINE
  5
1CE
330
150
100
AcDbEntity
  8
DV2_Default
 62
     7
100
AcDbLine
 10
1009.5366051938
 20
1288.9686316925
 30
0.0
 11
1002.8851812004
 21
1289.0560262222
 31
0.0
  0
ARC
  5
1CF
330
150
100
AcDbEntity
  8
DV2_Default
 62
     7
100
AcDbCircle
 10
707.2824835926
 20
1265.1449298099
 30
0.0
 40
13.93104619199209
100
AcDbArc
 50
194.1729605984
 51
254.798247136
  0
ARC
  5
1D0
330
150
100
AcDbEntity
  8
DV2_Default
 62
     7
100
AcDbCircle
 10
706.5794484269
 20
1264.6401728365
 30
0.0
 40
13.27084243286273
100
AcDbArc
 50
257.1565609409
 51
332.6799409779
  0
ARC
  5
1D1
330
150
100
AcDbEntity
  8
DV2_Default
 62
     7
100
AcDbCircle
 10
1053.6905584207
 20
1276.099214513
 30
0.0
 40
10.23415340143794
100
AcDbArc
 50
214.9854988178
 51
276.7444720907
  0
ARC
  5
1D2
330
150
100
AcDbEntity
  8
DV2_Default
 62
     7
100
AcDbCircle
 10
306.9975622647
 20
1270.2926021643
 30
0.0
 40
747.9259226303338
100
AcDbArc
 50
359.6875717952
 51
359.9927555739
  0
ARC
  5
1D3
330
150
100
AcDbEntity
  8
DV2_Default
 62
     7
100
AcDbCircle
 10
1056.0353140161
 20
1276.1590657727
 30
0.0
 40
10.29700635583006
100
AcDbArc
 50
263.1092284163
 51
324.5118381989
  0
LINE
  5
1D4
330
150
100
AcDbEntity
  8
DV2_Default
 62
     7
100
AcDbLine
 10
710.2047988033
 20
1250.5312905447
 30
0.0
 11
703.2047988033
 21
1250.5312905447
 31
0.0
  0
LINE
  5
1D5
330
150
100
AcDbEntity
  8
DV2_Default
 62
     7
100
AcDbLine
 10
705.2619993675
 20
1251.3312905447
 30
0.0
 11
703.2047988033
 21
1251.3312905447
 31
0.0
  0
LINE
  5
1D6
330
150
100
AcDbEntity
  8
DV2_Default
 62
     7
100
AcDbLine
 10
703.2047988033
 20
1251.3312905447
 30
0.0
 11
703.2047988033
 21
1250.5312905447
 31
0.0
  0
LINE
  5
1D7
330
150
100
AcDbEntity
  8
DV2_Default
 62
     7
100
AcDbLine
 10
722.7047988033
 20
1247.8808255148
 30
0.0
 11
690.7047988033
 21
1247.8808255148
 31
0.0
  0
LINE
  5
1D8
330
150
100
AcDbEntity
  8
DV2_Default
 62
     7
100
AcDbLine
 10
722.7047988033
 20
1246.2991039652
 30
0.0
 11
690.7047988033
 21
1246.2991039652
 31
0.0
  0
ARC
  5
1D9
330
150
100
AcDbEntity
  8
DV2_Default
 62
     7
100
AcDbCircle
 10
704.8598806592
 20
1193.7461887613
 30
0.0
 40
57.00000000000002
100
AcDbArc
 50
71.7557353475
 51
85.0231660768
  0
ARC
  5
1DA
330
150
100
AcDbEntity
  8
DV2_Default
 62
     7
100
AcDbCircle
 10
708.5497169474
 20
1193.7461887613
 30
0.0
 40
57.00000000000003
100
AcDbArc
 50
94.9768339232
 51
108.2442646525
  0
LINE
  5
1DB
330
150
100
AcDbEntity
  8
DV2_Default
 62
     7
100
AcDbLine
 10
690.7047988033
 20
1247.8808255148
 30
0.0
 11
690.7047988033
 21
1246.2991039652
 31
0.0
  0
LINE
  5
1DC
330
150
100
AcDbEntity
  8
DV2_Default
 62
     7
100
AcDbLine
 10
722.7047988033
 20
1246.2991039652
 30
0.0
 11
722.7047988033
 21
1247.8808255148
 31
0.0
  0
LINE
  5
1DD
330
150
100
AcDbEntity
  8
DV2_Default
 62
     7
100
AcDbLine
 10
690.2047988033
 20
1246.2277265629
 30
0.0
 11
723.2047988033
 21
1246.2277265629
 31
0.0
  0
LINE
  5
1DE
330
150
100
AcDbEntity
  8
DV2_Default
 62
     7
100
AcDbLine
 10
723.2047988033
 20
1246.2277265629
 30
0.0
 11
722.7047988033
 21
1246.2991039652
 31
0.0
  0
LINE
  5
1DF
330
150
100
AcDbEntity
  8
DV2_Default
 62
     7
100
AcDbLine
 10
690.7047988033
 20
1246.2991039652
 30
0.0
 11
690.2047988033
 21
1246.2277265629
 31
0.0
  0
LINE
  5
1E0
330
150
100
AcDbEntity
  8
DV2_Default
 62
     7
100
AcDbLine
 10
723.2047988033
 20
1245.0277265629
 30
0.0
 11
723.2047988033
 21
1246.2277265629
 31
0.0
  0
LINE
  5
1E1
330
150
100
AcDbEntity
  8
DV2_Default
 62
     7
100
AcDbLine
 10
690.2047988033
 20
1246.2277265629
 30
0.0
 11
690.2047988033
 21
1245.0277265629
 31
0.0
  0
LINE
  5
1E2
330
150
100
AcDbEntity
  8
DV2_Default
 62
     7
100
AcDbLine
 10
608.3927715184
 20
1260.027731568
 30
0.0
 11
610.6614655361
 21
1260.027731568
 31
0.0
  0
ARC
  5
1E3
330
150
100
AcDbEntity
  8
DV2_Default
 62
     7
100
AcDbCircle
 10
480.6626320725
 20
1256.0288847226
 30
0.0
 40
4.000000000000004
100
AcDbArc
 50
88.6241508418
 51
180.0165182073
  0
SPLINE
  5
1E4
330
150
100
AcDbEntity
  8
DV2_Default
 62
     7
100
AcDbSpline
210
0.0
220
0.0
230
1.0
 70
     8
 71
     3
 72
    28
 73
    24
 74
     0
 42
0.000000001
 43
0.0000000001
 40
0.0
 40
0.0
 40
0.0
 40
0.0
 40
0.1249999999999999
 40
0.1249999999999999
 40
0.1874999999999998
 40
0.1874999999999998
 40
0.2499999999999996
 40
0.2499999999999996
 40
0.3749999999999997
 40
0.3749999999999997
 40
0.4999999999999999
 40
0.4999999999999999
 40
0.5624999999999997
 40
0.5624999999999997
 40
0.6249999999999993
 40
0.6249999999999993
 40
0.7499999999999989
 40
0.7499999999999989
 40
0.8124999999999991
 40
0.8124999999999991
 40
0.8749999999999994
 40
0.8749999999999994
 40
1.0
 40
1.0
 40
1.0
 40
1.0
 10
476.6626005838895
 20
1221.027766155248
 30
0.0
 10
476.662603529431
 20
1221.027744955395
 30
0.0
 10
476.8007448577968
 20
1220.963328596071
 30
0.0
 10
477.2117692518252
 20
1220.771664773447
 30
0.0
 10
477.3830378737746
 20
1220.69180090343
 30
0.0
 10
477.7965915234609
 20
1220.498957669523
 30
0.0
 10
478.034906793789
 20
1220.387829433914
 30
0.0
 10
478.8402997365177
 20
1220.012268536896
 30
0.0
 10
479.4971888994537
 20
1219.70595608966
 30
0.0
 10
481.050561017986
 20
1218.981606774824
 30
0.0
 10
481.9195616070559
 20
1218.5763851452
 30
0.0
 10
483.3504497242059
 20
1217.90915105821
 30
0.0
 10
483.8488291259163
 20
1217.676752926526
 30
0.0
 10
484.8886058774116
 20
1217.191897064532
 30
0.0
 10
485.4217519766019
 20
1216.943286955564
 30
0.0
 10
487.0582743393034
 20
1216.180164045095
 30
0.0
 10
488.1985683141224
 20
1215.648436232089
 30
0.0
 10
489.9804996050178
 20
1214.817508024838
 30
0.0
 10
490.5836826953814
 20
1214.536239130533
 30
0.0
 10
491.7907235693132
 20
1213.973386727312
 30
0.0
 10
492.3971101875721
 20
1213.690624003415
 30
0.0
 10
494.2245613087317
 20
1212.838469550715
 30
0.0
 10
495.4538488306387
 20
1212.265243365176
 30
0.0
 10
496.6945783176181
 20
1211.687740814883
 30
0.0
  0
ARC
  5
1E5
330
150
100
AcDbEntity
  8
DV2_Default
 62
     7
100
AcDbCircle
 10
625.1716551069
 20
1253.027731568
 30
0.0
 40
8.0
100
AcDbArc
 50
251.2084829698
 51
270.0
  0
ARC
  5
1E6
330
150
100
AcDbEntity
  8
DV2_Default
 62
     7
100
AcDbCircle
 10
612.9322027318
 20
1256.0275359273
 30
0.0
 40
4.000188739423174
100
AcDbArc
 50
4.0031769018
 51
90.0033008138
  0
LINE
  5
1E7
330
150
100
AcDbEntity
  8
DV2_Default
 62
     7
100
AcDbLine
 10
594.4672553725
 20
1260.0277224169
 30
0.0
 11
598.1757778621
 21
1260.027724853
 31
0.0
  0
LINE
  5
1E8
330
150
100
AcDbEntity
  8
DV2_Default
 62
     7
100
AcDbLine
 10
603.4870980133
 20
1260.0277283419
 30
0.0
 11
608.392530352
 21
1260.0277315642
 31
0.0
  0
LINE
  5
1E9
330
150
100
AcDbEntity
  8
DV2_Default
 62
     7
100
AcDbLine
 10
476.6625702151
 20
1221.0277661549
 30
0.0
 11
476.6626291147
 21
1233.9105447993
 31
0.0
  0
LINE
  5
1EA
330
150
100
AcDbEntity
  8
DV2_Default
 62
     7
100
AcDbLine
 10
476.6626331247
 20
1233.9105447992
 30
0.0
 11
476.6626329023
 21
1245.1731150211
 31
0.0
  0
LINE
  5
1EB
330
150
100
AcDbEntity
  8
DV2_Default
 62
     7
100
AcDbLine
 10
476.6626328047
 20
1245.1731150211
 30
0.0
 11
476.6626322388
 21
1256.0277313363
 31
0.0
  0
LINE
  5
1EC
330
150
100
AcDbEntity
  8
DV2_Default
 62
     7
100
AcDbLine
 10
616.9228243445
 20
1256.3068093848
 30
0.0
 11
617.1248031783
 21
1253.4183774928
 31
0.0
  0
LINE
  5
1ED
330
150
100
AcDbEntity
  8
DV2_Default
 62
     7
100
AcDbLine
 10
480.7586752329
 20
1260.0277315203
 30
0.0
 11
496.6766823093
 21
1260.0277236047
 31
0.0
  0
LINE
  5
1EE
330
150
100
AcDbEntity
  8
DV2_Default
 62
     7
100
AcDbLine
 10
496.6766823093
 20
1260.027731568
 30
0.0
 11
503.5697612968
 21
1260.027731568
 31
0.0
  0
ARC
  5
1EF
330
150
100
AcDbEntity
  8
DV2_Default
 62
     7
100
AcDbCircle
 10
625.1110598757
 20
1253.0452974861
 30
0.0
 40
7.994966211844941
100
AcDbArc
 50
177.3253576379
 51
251.6600110973
  0
LINE
  5
1F0
330
150
100
AcDbEntity
  8
DV2_Default
 62
     7
100
AcDbLine
 10
476.6991684729
 20
1336.0929647265
 30
0.0
 11
477.1326789063
 21
1264.997238421
 31
0.0
  0
SPLINE
  5
1F1
330
150
100
AcDbEntity
  8
DV2_Default
 62
     7
100
AcDbSpline
210
0.0
220
0.0
230
1.0
 70
     8
 71
     3
 72
    16
 73
    12
 74
     0
 42
0.000000001
 43
0.0000000001
 40
0.0
 40
0.0
 40
0.0
 40
0.0
 40
0.0165663634708812
 40
0.0333843387817307
 40
0.0677754596194593
 40
0.1395842498272751
 40
0.2154645443976149
 40
0.295470819993618
 40
0.4683088603305179
 40
0.6593512107300742
 40
1.0
 40
1.0
 40
1.0
 40
1.0
 10
475.0297849916927
 20
1609.814668216224
 30
0.0
 10
475.0353619987559
 20
1608.902492552392
 30
0.0
 10
475.0466008842308
 20
1607.064286938168
 30
0.0
 10
475.0694416073915
 20
1603.32831832056
 30
0.0
 10
475.110743016711
 20
1596.539013072083
 30
0.0
 10
475.1721675983741
 20
1586.464055647677
 30
0.0
 10
475.2491834144809
 20
1573.833903635227
 30
0.0
 10
475.3604344165073
 20
1555.587917636243
 30
0.0
 10
475.5107320486801
 20
1530.939468547819
 30
0.0
 10
475.7494565582064
 20
1491.78848737869
 30
0.0
 10
475.9297272299505
 20
1462.22409063783
 30
0.0
 10
476.0452571939176
 20
1443.277186318464
 30
0.0
  0
LINE
  5
1F2
330
150
100
AcDbEntity
  8
DV2_Default
 62
     7
100
AcDbLine
 10
474.9981840396
 20
1614.9972445853
 30
0.0
 11
475.0297850121
 21
1609.8146682682
 31
0.0
  0
LINE
  5
1F3
330
150
100
AcDbEntity
  8
DV2_Default
 62
     7
100
AcDbLine
 10
479.9984394816
 20
1620.0277686222
 30
0.0
 11
499.9954952565
 21
1620.0277686222
 31
0.0
  0
LINE
  5
1F4
330
150
100
AcDbEntity
  8
DV2_Default
 62
     7
100
AcDbLine
 10
603.6617450976
 20
1620.0277684944
 30
0.0
 11
623.6556979098
 21
1620.0277686223
 31
0.0
  0
LINE
  5
1F5
330
150
100
AcDbEntity
  8
DV2_Default
 62
     7
100
AcDbLine
 10
597.2588768748
 20
1260.0277317346
 30
0.0
 11
617.2530045325
 21
1260.0277318719
 31
0.0
  0
LINE
  5
1F6
330
150
100
AcDbEntity
  8
DV2_Default
 62
     7
100
AcDbLine
 10
503.8393929625
 20
1260.0277315513
 30
0.0
 11
502.130008396
 21
1260.02773155
 31
0.0
  0
LINE
  5
1F7
330
150
100
AcDbEntity
  8
DV2_Default
 62
     7
100
AcDbLine
 10
487.998918401
 20
1260.0277316923
 30
0.0
 11
502.1300083869
 21
1260.0277315138
 31
0.0
  0
LINE
  5
1F8
330
150
100
AcDbEntity
  8
DV2_Default
 62
     7
100
AcDbLine
 10
502.1299834339
 20
1260.0277315118
 30
0.0
 11
511.1626322387
 21
1260.0277313025
 31
0.0
  0
LINE
  5
1F9
330
150
100
AcDbEntity
  8
DV2_Default
 62
     7
100
AcDbLine
 10
587.2626322387
 20
1260.0277295396
 30
0.0
 11
594.4006062454
 21
1260.0277293742
 31
0.0
  0
ARC
  5
1FA
330
150
100
AcDbEntity
  8
DV2_Default
 62
     7
100
AcDbCircle
 10
617.2532604331
 20
1265.0277304611
 30
0.0
 40
4.999998384949352
100
AcDbArc
 50
269.9978781413
 51
358.9520209619
  0
ARC
  5
1FB
330
150
100
AcDbEntity
  8
DV2_Default
 62
     7
100
AcDbCircle
 10
482.1327399377
 20
1265.0280621381
 30
0.0
 40
5.000330442696558
100
AcDbArc
 50
180.3531160988
 51
269.9974795905
  0
ARC
  5
1FC
330
150
100
AcDbEntity
  8
DV2_Default
 62
     7
100
AcDbCircle
 10
479.9985579082
 20
1615.027459255
 30
0.0
 40
5.000290846668453
100
AcDbArc
 50
90.0026882459
 51
180.3462348992
  0
ARC
  5
1FD
330
150
100
AcDbEntity
  8
DV2_Default
 62
     7
100
AcDbCircle
 10
623.6557308371
 20
1615.0277824847
 30
0.0
 40
4.999967952777769
100
AcDbArc
 50
358.9514162766
 51
90.0017333171
  0
LINE
  5
1FE
330
150
100
AcDbEntity
  8
DV2_Default
 62
     7
100
AcDbLine
 10
628.6548613413
 20
1614.9362743723
 30
0.0
 11
622.2524229953
 21
1264.9362743984
 31
0.0
  0
LINE
  5
1FF
330
150
100
AcDbEntity
  8
DV2_Default
 62
     7
100
AcDbLine
 10
474.9985324748
 20
1614.9972356309
 30
0.0
 11
477.1326783525
 21
1264.9972429027
 31
0.0
  0
LINE
  5
200
330
150
100
AcDbEntity
  8
DV2_Default
 62
     7
100
AcDbLine
 10
503.8393929625
 20
1260.0277315597
 30
0.0
 11
597.2593313469
 21
1260.0277315682
 31
0.0
  0
LINE
  5
201
330
150
100
AcDbEntity
  8
DV2_Default
 62
     7
100
AcDbLine
 10
603.8442979866
 20
1620.0277759687
 30
0.0
 11
623.8385679134
 21
1620.0277779467
 31
0.0
  0
LINE
  5
202
330
150
100
AcDbEntity
  8
DV2_Default
 62
     7
100
AcDbLine
 10
603.8442979866
 20
1620.0277739251
 30
0.0
 11
499.9339955322
 21
1620.0277738968
 31
0.0
  0
LINE
  5
203
330
150
100
AcDbEntity
  8
DV2_Default
 62
     7
100
AcDbLine
 10
479.9373200718
 20
1620.0277712514
 30
0.0
 11
499.9339955322
 21
1620.0277718798
 31
0.0
  0
LINE
  5
204
330
150
100
AcDbEntity
  8
DV2_Default
 62
     7
100
AcDbLine
 10
489.7544999791
 20
1670.0277264826
 30
0.0
 11
499.7536694259
 21
1670.027726155
 31
0.0
  0
LINE
  5
205
330
150
100
AcDbEntity
  8
DV2_Default
 62
     7
100
AcDbLine
 10
499.7536694259
 20
1670.027729469
 30
0.0
 11
604.3887309392
 21
1670.0277306543
 31
0.0
  0
ELLIPSE
  5
206
330
150
100
AcDbEntity
  8
DV2_Default
 62
     7
100
AcDbEllipse
 10
604.3887422703
 20
1670.027687846
 30
0.0
 11
-9.996985062097362
 21
-3.677280985270315E-5
 31
0.0
210
0.0
220
0.0
230
1.0
 40
0.0000038562
 41
3.141508647944964
 42
4.712390113824535
  0
ARC
  5
207
330
150
100
AcDbEntity
  8
DV2_Default
 62
     7
100
AcDbCircle
 10
614.3858463638
 20
1655.0278379418
 30
0.0
 40
14.99989007740951
100
AcDbArc
 50
358.9516328512
 51
90.000405706
  0
ARC
  5
208
330
150
100
AcDbEntity
  8
DV2_Default
 62
     7
100
AcDbCircle
 10
489.7543632449
 20
1655.0278577953
 30
0.0
 40
14.99986868789549
100
AcDbArc
 50
89.9994777093
 51
180.3498224585
  0
ARC
  5
209
330
150
100
AcDbEntity
  8
DV2_Default
 62
     7
100
AcDbCircle
 10
479.9375235739
 20
1625.0280064514
 30
0.0
 40
5.000235204138962
100
AcDbArc
 50
180.3520452528
 51
269.9976681475
  0
ARC
  5
20A
330
150
100
AcDbEntity
  8
DV2_Default
 62
     7
100
AcDbCircle
 10
623.8387687272
 20
1625.0276097706
 30
0.0
 40
4.999831827963062
100
AcDbArc
 50
269.9976987656
 51
358.9538247391
  0
LINE
  5
20B
330
150
100
AcDbEntity
  8
DV2_Default
 62
     7
100
AcDbLine
 10
629.3832803407
 20
1654.7533856659
 30
0.0
 11
628.8378461707
 21
1624.936317708
 31
0.0
  0
LINE
  5
20C
330
150
100
AcDbEntity
  8
DV2_Default
 62
     7
100
AcDbLine
 10
474.754710257
 20
1654.9362678754
 30
0.0
 11
474.9372650444
 21
1624.9972827384
 31
0.0
  0
SPLINE
  5
20D
330
150
100
AcDbEntity
  8
DV2_Default
 62
     7
100
AcDbSpline
210
0.0
220
0.0
230
1.0
 70
     8
 71
     3
 72
     8
 73
     4
 74
     0
 42
0.000000001
 43
0.0000000001
 40
0.0
 40
0.0
 40
0.0
 40
0.0
 40
1.0
 40
1.0
 40
1.0
 40
1.0
 10
519.8777800572733
 20
1259.802474458787
 30
0.0
 10
519.8676990100864
 20
1259.807669970574
 30
0.0
 10
519.8626322386896
 20
1259.812865482362
 30
0.0
 10
519.8626322386896
 20
1259.818060994149
 30
0.0
  0
SPLINE
  5
20E
330
150
100
AcDbEntity
  8
DV2_Default
 62
     7
100
AcDbSpline
210
0.0
220
0.0
230
1.0
 70
     8
 71
     3
 72
     8
 73
     4
 74
     0
 42
0.000000001
 43
0.0000000001
 40
0.0
 40
0.0
 40
0.0
 40
0.0
 40
1.0
 40
1.0
 40
1.0
 40
1.0
 10
539.2426281989241
 20
1259.875501218692
 30
0.0
 10
539.2425231130259
 20
1259.880655611489
 30
0.0
 10
539.2380697231763
 20
1259.885810004286
 30
0.0
 10
539.229286315838
 20
1259.890964397082
 30
0.0
  0
LINE
  5
20F
330
150
100
AcDbEntity
  8
DV2_Default
 62
     7
100
AcDbLine
 10
522.573581697
 20
1675.0586692391
 30
0.0
 11
523.0150481287
 21
1675.0586692391
 31
0.0
  0
LINE
  5
210
330
150
100
AcDbEntity
  8
DV2_Default
 62
     7
100
AcDbLine
 10
529.4779507561
 20
1675.2551183226
 30
0.0
 11
529.8145243077
 21
1675.2551183226
 31
0.0
  0
LINE
  5
211
330
150
100
AcDbEntity
  8
DV2_Default
 62
     7
100
AcDbLine
 10
555.4793010443
 20
1675.2551183226
 30
0.0
 11
529.8145243077
 21
1675.2551183226
 31
0.0
  0
LINE
  5
212
330
150
100
AcDbEntity
  8
DV2_Default
 62
     7
100
AcDbLine
 10
555.5905607967
 20
1675.2551183226
 30
0.0
 11
555.4793010443
 21
1675.2551183226
 31
0.0
  0
LINE
  5
213
330
150
100
AcDbEntity
  8
DV2_Default
 62
     7
100
AcDbLine
 10
555.5905607967
 20
1675.2551183226
 30
0.0
 11
573.7865447334
 21
1675.2551183226
 31
0.0
  0
LINE
  5
214
330
150
100
AcDbEntity
  8
DV2_Default
 62
     7
100
AcDbLine
 10
581.751112828
 20
1670.5408212575
 30
0.0
 11
581.6582956265
 21
1674.0853671768
 31
0.0
  0
ARC
  5
215
330
150
100
AcDbEntity
  8
DV2_Default
 62
     7
100
AcDbCircle
 10
581.2512841655
 20
1670.5277327833
 30
0.0
 40
0.500000000000056
100
AcDbArc
 50
269.9999999997
 51
1.4999999999
  0
ARC
  5
216
330
150
100
AcDbEntity
  8
DV2_Default
 62
     7
100
AcDbCircle
 10
522.0132113239
 20
1670.5277327833
 30
0.0
 40
0.5000000000000082
100
AcDbArc
 50
178.5000000001
 51
270.0000000003
  0
LINE
  5
217
330
150
100
AcDbEntity
  8
DV2_Default
 62
     7
100
AcDbLine
 10
521.6061998629
 20
1674.0853671768
 30
0.0
 11
521.5133826614
 21
1670.5408212575
 31
0.0
  0
ARC
  5
218
330
150
100
AcDbEntity
  8
DV2_Default
 62
     7
100
AcDbCircle
 10
580.6586383016
 20
1674.0591902285
 30
0.0
 40
0.9999999999998498
100
AcDbArc
 50
1.5
 51
88.1504293762
  0
ARC
  5
219
330
150
100
AcDbEntity
  8
DV2_Default
 62
     7
100
AcDbCircle
 10
522.6058571879
 20
1674.0591902285
 30
0.0
 40
0.999999999999843
100
AcDbArc
 50
91.8495706237
 51
178.5
  0
ARC
  5
21A
330
150
100
AcDbEntity
  8
DV2_Default
 62
     7
100
AcDbCircle
 10
551.6322477447
 20
775.1954607054
 30
0.0
 40
900.332272077944
100
AcDbArc
 50
91.4100081571
 51
91.8495706232
  0
ARC
  5
21B
330
150
100
AcDbEntity
  8
DV2_Default
 62
     7
100
AcDbCircle
 10
551.6322477447
 20
775.1954607054
 30
0.0
 40
900.3322720779878
100
AcDbArc
 50
88.1504293768
 51
88.5899918429
  0
ARC
  5
21C
330
150
100
AcDbEntity
  8
DV2_Default
 62
     7
100
AcDbCircle
 10
573.7742413329
 20
1674.7552697192
 30
0.0
 40
0.4999999999999356
100
AcDbArc
 50
88.5899918427
 51
90.0
  0
LINE
  5
21D
330
150
100
AcDbEntity
  8
DV2_Default
 62
     7
100
AcDbLine
 10
573.7742413329
 20
1675.2552697192
 30
0.0
 11
529.8266407919
 21
1675.2552697192
 31
0.0
  0
ARC
  5
21E
330
150
100
AcDbEntity
  8
DV2_Default
 62
     7
100
AcDbCircle
 10
529.4902541565
 20
1674.7552697192
 30
0.0
 40
0.5000000000000004
100
AcDbArc
 50
90.0
 51
91.4100081574
  0
LINE
  5
21F
330
150
100
AcDbEntity
  8
DV2_Default
 62
     7
100
AcDbLine
 10
529.8266407919
 20
1675.2552697192
 30
0.0
 11
529.4902541565
 21
1675.2552697192
 31
0.0
  0
LINE
  5
220
330
150
100
AcDbEntity
  8
DV2_Default
 62
     7
100
AcDbLine
 10
572.6115891167
 20
1675.2552697192
 30
0.0
 11
572.5905222774
 21
1679.2862214138
 31
0.0
  0
LINE
  5
221
330
150
100
AcDbEntity
  8
DV2_Default
 62
     7
100
AcDbLine
 10
572.5905222774
 20
1679.2862214138
 30
0.0
 11
572.6296987523
 21
1679.2862214138
 31
0.0
  0
ELLIPSE
  5
222
330
150
100
AcDbEntity
  8
DV2_Default
 62
     7
100
AcDbEllipse
 10
572.0914617193
 20
1679.2836034319
 30
0.0
 11
1.228184220991579E-12
 21
0.49999999999506
 31
0.0
210
0.0
220
0.0
230
1.0
 40
0.9981347984
 41
4.717624968143394
 42
6.271281107598961
  0
LINE
  5
223
330
150
100
AcDbEntity
  8
DV2_Default
 62
     7
100
AcDbLine
 10
572.1356575654
 20
1679.7835680048
 30
0.0
 11
572.0974025769
 21
1679.7835680048
 31
0.0
  0
SPLINE
  5
224
330
150
100
AcDbEntity
  8
DV2_Default
 62
     7
100
AcDbSpline
210
0.0
220
0.0
230
1.0
 70
     8
 71
     3
 72
     9
 73
     5
 74
     0
 42
0.000000001
 43
0.0000000001
 40
0.0
 40
0.0
 40
0.0
 40
0.0
 40
0.50347869889113
 40
0.9999999999999999
 40
0.9999999999999999
 40
0.9999999999999999
 40
0.9999999999999999
 10
570.6961316798439
 20
1679.800280974291
 30
0.0
 10
570.704747567964
 20
1679.80030081155
 30
0.0
 10
570.7218602842327
 20
1679.800340211942
 30
0.0
 10
570.7116955901249
 20
1679.800521676353
 30
0.0
 10
570.7017002284259
 20
1679.800637847368
 30
0.0
  0
SPLINE
  5
225
330
150
100
AcDbEntity
  8
DV2_Default
 62
     7
100
AcDbSpline
210
0.0
220
0.0
230
1.0
 70
     8
 71
     3
 72
     8
 73
     4
 74
     0
 42
0.000000001
 43
0.0000000001
 40
0.0
 40
0.0
 40
0.0
 40
0.0
 40
1.0
 40
1.0
 40
1.0
 40
1.0
 10
570.1288104315184
 20
1679.804662083952
 30
0.0
 10
569.9475817887482
 20
1679.80581082432
 30
0.0
 10
569.7253364908604
 20
1679.80718529113
 30
0.0
 10
569.4649760671255
 20
1679.808779317034
 30
0.0
  0
LINE
  5
226
330
150
100
AcDbEntity
  8
DV2_Default
 62
     7
100
AcDbLine
 10
570.6961316798
 20
1679.8002809743
 30
0.0
 11
572.0974025769
 21
1679.7835680048
 31
0.0
  0
ARC
  5
227
330
150
100
AcDbEntity
  8
DV2_Default
 62
     7
100
AcDbCircle
 10
569.4266429713
 20
2660.7715459183
 30
0.0
 40
980.9720863752877
100
AcDbArc
 50
268.8420366128
 51
270.0741472326
  0
LINE
  5
228
330
150
100
AcDbEntity
  8
DV2_Default
 62
     7
100
AcDbLine
 10
572.6508049589
 20
1675.2552697192
 30
0.0
 11
572.6296987523
 21
1679.2862214138
 31
0.0
  0
LINE
  5
229
330
150
100
AcDbEntity
  8
DV2_Default
 62
     7
100
AcDbLine
 10
530.6219335925
 20
1679.2862214138
 30
0.0
 11
530.6008273859
 21
1675.2552697192
 31
0.0
  0
ARC
  5
22A
330
150
100
AcDbEntity
  8
DV2_Default
 62
     7
100
AcDbCircle
 10
531.1219267386
 20
1679.2836034319
 30
0.0
 40
0.5000000000000625
100
AcDbArc
 50
90.6820603919
 51
179.6999999998
  0
ARC
  5
22B
330
150
100
AcDbEntity
  8
DV2_Default
 62
     7
100
AcDbCircle
 10
572.1297056062
 20
1679.2836034319
 30
0.0
 40
0.500000000000093
100
AcDbArc
 50
0.3
 51
89.3179396079
  0
LINE
  5
22C
330
150
100
AcDbEntity
  8
DV2_Default
 62
     7
100
AcDbLine
 10
572.1356575654
 20
1679.7835680048
 30
0.0
 11
570.5373719998
 21
1679.802595214
 31
0.0
  0
LINE
  5
22D
330
150
100
AcDbEntity
  8
DV2_Default
 62
     7
100
AcDbLine
 10
549.6022782157
 20
1679.9997942811
 30
0.0
 11
531.1159747794
 21
1679.7835680048
 31
0.0
  0
LINE
  5
22E
330
150
100
AcDbEntity
  8
DV2_Default
 62
     7
100
AcDbLine
 10
569.3108384358
 20
1679.8345639182
 30
0.0
 11
564.2433207815
 21
1679.8345639182
 31
0.0
  0
ENDBLK
  5
230
330
150
100
AcDbEntity
  8
0
100
AcDbBlockEnd
  0
BLOCK
  5
2FB
330
231
100
AcDbEntity
  8
0
100
AcDbBlockBegin
  2
SE2
 70
     0
 10
0.0
 20
0.0
 30
0.0
  3
SE2
  1

  0
ARC
  5
234
330
231
100
AcDbEntity
  8
DV3_Default
 62
     7
100
AcDbCircle
 10
391.3638849212
 20
28.5639185877
 30
0.0
 40
598.6295545272483
100
AcDbArc
 50
89.3756379127
 51
89.4792356078
  0
ARC
  5
235
330
231
100
AcDbEntity
  8
DV3_Default
 62
     7
100
AcDbCircle
 10
38.0605140875
 20
507.8969133222
 30
0.0
 40
119.3463089914246
100
AcDbArc
 50
91.5869505033
 51
92.1196762793
  0
SPLINE
  5
236
330
231
100
AcDbEntity
  8
DV3_Default
 62
     7
100
AcDbSpline
210
0.0
220
0.0
230
1.0
 70
     8
 71
     3
 72
    13
 73
     9
 74
     0
 42
0.000000001
 43
0.0000000001
 40
0.0
 40
0.0
 40
0.0
 40
0.0
 40
0.1169098603448863
 40
0.279387248169949
 40
0.4527231377408268
 40
0.636928230135051
 40
0.8320111881905634
 40
0.9999999999999999
 40
0.9999999999999999
 40
0.9999999999999999
 40
0.9999999999999999
 10
396.6476592889129
 20
525.4502147099033
 30
0.0
 10
396.7161897617539
 20
529.4137788495982
 30
0.0
 10
396.8820406136236
 20
538.8857365781348
 30
0.0
 10
397.148814268678
 20
554.2278474830512
 30
0.0
 10
397.4331515094433
 20
571.882682323404
 30
0.0
 10
397.680654022701
 20
590.5152752004126
 30
0.0
 10
397.8602486940982
 20
609.463090710624
 30
0.0
 10
397.8787906538484
 20
620.8944186223022
 30
0.0
 10
397.8873340716762
 20
627.1598688333704
 30
0.0
  0
ARC
  5
237
330
231
100
AcDbEntity
  8
DV3_Default
 62
     7
100
AcDbCircle
 10
-38653.3620952306
 20
790.01123164
 30
0.0
 40
39051.58755362603
100
AcDbArc
 50
359.7610669767
 51
359.7622449726
  0
ARC
  5
238
330
231
100
AcDbEntity
  8
DV3_Default
 62
     7
100
AcDbCircle
 10
40931.5144153136
 20
794.7228440368
 30
0.0
 40
40898.21009221072
100
AcDbArc
 50
180.2336706092
 51
180.2347454578
  0
SPLINE
  5
239
330
231
100
AcDbEntity
  8
DV3_Default
 62
     7
100
AcDbSpline
210
0.0
220
0.0
230
1.0
 70
     8
 71
     3
 72
    16
 73
    12
 74
     0
 42
0.000000001
 43
0.0000000001
 40
0.0
 40
0.0
 40
0.0
 40
0.0
 40
0.1298143075507621
 40
0.281318558272844
 40
0.4230544036467673
 40
0.5550295526762773
 40
0.6772526034085815
 40
0.7878103009098718
 40
0.7878103009098718
 40
0.7878103009098718
 40
1.0
 40
1.0
 40
1.0
 40
1.0
 10
33.64656053852411
 20
627.1598887897877
 30
0.0
 10
33.6538404400881
 20
621.3159226415304
 30
0.0
 10
33.66985116434035
 20
610.6243917633511
 30
0.0
 10
33.82853039052011
 20
592.9438766869221
 30
0.0
 10
34.04783030463599
 20
575.6388738500561
 30
0.0
 10
34.29988791891456
 20
559.4140119656355
 30
0.0
 10
34.55417090308335
 20
544.4938893519795
 30
0.0
 10
34.72139416683145
 20
534.9678251189058
 30
0.0
 10
34.80024055523903
 20
530.4437502811303
 30
0.0
 10
34.91830858973882
 20
523.6692025204287
 30
0.0
 10
35.03508680996778
 20
516.8952539416962
 30
0.0
 10
35.14533124684407
 20
510.1205123088268
 30
0.0
  0
ARC
  5
23A
330
231
100
AcDbEntity
  8
DV3_Default
 62
     7
100
AcDbCircle
 10
382.8920782425
 20
752.560913016
 30
0.0
 40
24.99984823627196
100
AcDbArc
 50
40.3522752207
 51
89.9942247767
  0
LINE
  5
23B
330
231
100
AcDbEntity
  8
DV3_Default
 62
     7
100
AcDbLine
 10
48.6388067936
 20
777.5608397562
 30
0.0
 11
382.8945981437
 21
777.5608397562
 31
0.0
  0
ARC
  5
23C
330
231
100
AcDbEntity
  8
DV3_Default
 62
     7
100
AcDbCircle
 10
48.6414084193
 20
752.5608104435
 30
0.0
 40
24.99996554846845
100
AcDbArc
 50
90.0063934655
 51
129.0602488168
  0
ARC
  5
23D
330
231
100
AcDbEntity
  8
DV3_Default
 62
     7
100
AcDbCircle
 10
48.633918109
 20
647.9267525476
 30
0.0
 40
24.99688226072175
100
AcDbArc
 50
179.9994347695
 51
270.5448590465
  0
LINE
  5
23E
330
231
100
AcDbEntity
  8
DV3_Default
 62
     7
100
AcDbLine
 10
48.6311510738
 20
622.9297605651
 30
0.0
 11
382.9022712428
 21
622.9297605651
 31
0.0
  0
ARC
  5
23F
330
231
100
AcDbEntity
  8
DV3_Default
 62
     7
100
AcDbCircle
 10
382.8995545088
 20
647.9266730226
 30
0.0
 40
24.99679196770276
100
AcDbArc
 50
269.4542602315
 51
0.54065853
  0
LINE
  5
240
330
231
100
AcDbEntity
  8
DV3_Default
 62
     7
100
AcDbLine
 10
407.8963792479
 20
647.9223025722
 30
0.0
 11
407.8963792479
 21
752.5681322869
 31
0.0
  0
ARC
  5
241
330
231
100
AcDbEntity
  8
DV3_Default
 62
     7
100
AcDbCircle
 10
384.0567521669
 20
752.7945834965
 30
0.0
 40
23.84077437932501
100
AcDbArc
 50
359.4431044954
 51
41.7323490413
  0
ARC
  5
242
330
231
100
AcDbEntity
  8
DV3_Default
 62
     7
100
AcDbCircle
 10
48.5394468624
 20
752.5722281669
 30
0.0
 40
24.90259827688189
100
AcDbArc
 50
128.9032359216
 51
180.5641104329
  0
LINE
  5
243
330
231
100
AcDbEntity
  8
DV3_Default
 62
     7
100
AcDbLine
 10
23.6370084984
 20
752.5689390206
 30
0.0
 11
23.6370084984
 21
647.9223348552
 31
0.0
  0
SPLINE
  5
244
330
231
100
AcDbEntity
  8
DV3_Default
 62
     7
100
AcDbSpline
210
0.0
220
0.0
230
1.0
 70
     8
 71
     6
 72
    14
 73
     7
 74
     0
 42
0.000000001
 43
0.0000000001
 40
0.0
 40
0.0
 40
0.0
 40
0.0
 40
0.0
 40
0.0
 40
0.0
 40
1.0
 40
1.0
 40
1.0
 40
1.0
 40
1.0
 40
1.0
 40
1.0
 10
33.34881619163099
 20
249.4121289470411
 30
0.0
 10
33.321166327377
 20
236.0823494605492
 30
0.0
 10
33.292868999143
 20
222.7505621318271
 30
0.0
 10
33.828218688986
 20
209.4282594405641
 30
0.0
 10
35.45201515563596
 20
196.0765972749252
 30
0.0
 10
38.75599992505702
 20
183.0052842736152
 30
0.0
 10
43.91257161149201
 20
170.7132708230912
 30
0.0
  0
SPLINE
  5
245
330
231
100
AcDbEntity
  8
DV3_Default
 62
     7
100
AcDbSpline
210
0.0
220
0.0
230
1.0
 70
     8
 71
     5
 72
    12
 73
     6
 74
     0
 42
0.000000001
 43
0.0000000001
 40
0.0
 40
0.0
 40
0.0
 40
0.0
 40
0.0
 40
0.0
 40
1.0
 40
1.0
 40
1.0
 40
1.0
 40
1.0
 40
1.0
 10
43.91257161149201
 20
170.7132708230912
 30
0.0
 10
43.90349315432457
 20
170.7768524660651
 30
0.0
 10
43.89307424989116
 20
170.8501454008017
 30
0.0
 10
43.99261658557349
 20
170.9844150844845
 30
0.0
 10
44.24923325981925
 20
171.1978290266135
 30
0.0
 10
44.66980213555588
 20
171.4892979353322
 30
0.0
  0
ARC
  5
246
330
231
100
AcDbEntity
  8
DV3_Default
 62
     7
100
AcDbCircle
 10
132.2705291967
 20
207.4182107909
 30
0.0
 40
95.67853096003634
100
AcDbArc
 50
202.5585759592
 51
250.4587125534
  0
SPLINE
  5
247
330
231
100
AcDbEntity
  8
DV3_Default
 62
     7
100
AcDbSpline
210
0.0
220
0.0
230
1.0
 70
     8
 71
     5
 72
    12
 73
     6
 74
     0
 42
0.000000001
 43
0.0000000001
 40
0.0
 40
0.0
 40
0.0
 40
0.0
 40
0.0
 40
0.0
 40
1.0
 40
1.0
 40
1.0
 40
1.0
 40
1.0
 40
1.0
 10
100.267396096348
 20
117.2506958066731
 30
0.0
 10
100.3484586254585
 20
117.2374876773822
 30
0.0
 10
100.4416978712995
 20
117.2223665724934
 30
0.0
 10
100.5932556140585
 20
117.3132175369983
 30
0.0
 10
100.8189041830971
 20
117.5567948823046
 30
0.0
 10
101.116933275643
 20
117.9611652147109
 30
0.0
  0
SPLINE
  5
248
330
231
100
AcDbEntity
  8
DV3_Default
 62
     7
100
AcDbSpline
210
0.0
220
0.0
230
1.0
 70
     8
 71
     6
 72
    14
 73
     7
 74
     0
 42
0.000000001
 43
0.0000000001
 40
0.0
 40
0.0
 40
0.0
 40
0.0
 40
0.0
 40
0.0
 40
0.0
 40
1.0
 40
1.0
 40
1.0
 40
1.0
 40
1.0
 40
1.0
 40
1.0
 10
100.267396096348
 20
117.2506958066731
 30
0.0
 10
112.720845943348
 20
112.5822221519732
 30
0.0
 10
125.8110408431176
 20
109.6101780320202
 30
0.0
 10
139.1119767125363
 20
108.0936002182782
 30
0.0
 10
152.4069819983606
 20
107.5409657270041
 30
0.0
 10
165.7074824117474
 20
107.4983162585321
 30
0.0
 10
179.0071859820809
 20
107.4671601678702
 30
0.0
  0
LINE
  5
249
330
231
100
AcDbEntity
  8
DV3_Default
 62
     7
100
AcDbLine
 10
179.0071859821
 20
107.4671601928
 30
0.0
 11
215.7666936384
 21
107.4229979109
 31
0.0
  0
SPLINE
  5
24A
330
231
100
AcDbEntity
  8
DV3_Default
 62
     7
100
AcDbSpline
210
0.0
220
0.0
230
1.0
 70
     8
 71
     5
 72
    12
 73
     6
 74
     0
 42
0.000000001
 43
0.0000000001
 40
0.0
 40
0.0
 40
0.0
 40
0.0
 40
0.0
 40
0.0
 40
1.0
 40
1.0
 40
1.0
 40
1.0
 40
1.0
 40
1.0
 10
397.886245325799
 20
385.5792760058632
 30
0.0
 10
397.841688449519
 20
404.8891390212372
 30
0.0
 10
397.796333458342
 20
424.1990001949771
 30
0.0
 10
397.750425177303
 20
443.5088591398252
 30
0.0
 10
397.703473481514
 20
462.8187164972472
 30
0.0
 10
397.655723366226
 20
482.128571880314
 30
0.0
  0
LINE
  5
24B
330
231
100
AcDbEntity
  8
DV3_Default
 62
     7
100
AcDbLine
 10
396.9251171238
 20
385.5770582565
 30
0.0
 11
397.8862453258
 21
385.5792760059
 31
0.0
  0
SPLINE
  5
24C
330
231
100
AcDbEntity
  8
DV3_Default
 62
     7
100
AcDbSpline
210
0.0
220
0.0
230
1.0
 70
     8
 71
     2
 72
     6
 73
     3
 74
     0
 42
0.000000001
 43
0.0000000001
 40
0.0
 40
0.0
 40
0.0
 40
1.0
 40
1.0
 40
1.0
 10
33.64714242031599
 20
385.5792760058632
 30
0.0
 10
33.49004184507398
 20
317.4957198665222
 30
0.0
 10
33.34881619163099
 20
249.4121289470411
 30
0.0
  0
LINE
  5
24D
330
231
100
AcDbEntity
  8
DV3_Default
 62
     7
100
AcDbLine
 10
34.6080479335
 20
385.5770587704
 30
0.0
 11
33.6471424203
 21
385.5792760059
 31
0.0
  0
SPLINE
  5
24E
330
231
100
AcDbEntity
  8
DV3_Default
 62
     7
100
AcDbSpline
210
0.0
220
0.0
230
1.0
 70
     8
 71
     5
 72
    12
 73
     6
 74
     0
 42
0.000000001
 43
0.0000000001
 40
0.0
 40
0.0
 40
0.0
 40
0.0
 40
0.0
 40
0.0
 40
1.0
 40
1.0
 40
1.0
 40
1.0
 40
1.0
 40
1.0
 10
33.87766437988798
 20
482.128571880314
 30
0.0
 10
33.8299142646
 20
462.8187164972474
 30
0.0
 10
33.782962568811
 20
443.5088591398252
 30
0.0
 10
33.73705428777199
 20
424.1990001949771
 30
0.0
 10
33.69169929659499
 20
404.8891390212372
 30
0.0
 10
33.64714242031599
 20
385.5792760058632
 30
0.0
  0
SPLINE
  5
24F
330
231
100
AcDbEntity
  8
DV3_Default
 62
     7
100
AcDbSpline
210
0.0
220
0.0
230
1.0
 70
     8
 71
     2
 72
     6
 73
     3
 74
     0
 42
0.000000001
 43
0.0000000001
 40
0.0
 40
0.0
 40
0.0
 40
1.0
 40
1.0
 40
1.0
 10
398.184571554487
 20
249.4121289470411
 30
0.0
 10
398.043345901041
 20
317.4957198665211
 30
0.0
 10
397.886245325799
 20
385.5792760058632
 30
0.0
  0
SPLINE
  5
250
330
231
100
AcDbEntity
  8
DV3_Default
 62
     7
100
AcDbSpline
210
0.0
220
0.0
230
1.0
 70
     8
 71
     6
 72
    14
 73
     7
 74
     0
 42
0.000000001
 43
0.0000000001
 40
0.0
 40
0.0
 40
0.0
 40
0.0
 40
0.0
 40
0.0
 40
0.0
 40
1.0
 40
1.0
 40
1.0
 40
1.0
 40
1.0
 40
1.0
 40
1.0
 10
387.620816134622
 20
170.7132708230912
 30
0.0
 10
392.7773878210567
 20
183.0052842736212
 30
0.0
 10
396.0813725904768
 20
196.0765972749301
 30
0.0
 10
397.7051690571263
 20
209.428259440568
 30
0.0
 10
398.2405187469691
 20
222.7505621318299
 30
0.0
 10
398.212221418735
 20
236.0823494605506
 30
0.0
 10
398.184571554487
 20
249.4121289470411
 30
0.0
  0
ARC
  5
251
330
231
100
AcDbEntity
  8
DV3_Default
 62
     7
100
AcDbCircle
 10
299.2628585494
 20
207.4182107909
 30
0.0
 40
95.67853096003059
100
AcDbArc
 50
289.5412874466
 51
337.4414240408
  0
SPLINE
  5
252
330
231
100
AcDbEntity
  8
DV3_Default
 62
     7
100
AcDbSpline
210
0.0
220
0.0
230
1.0
 70
     8
 71
     6
 72
    14
 73
     7
 74
     0
 42
0.000000001
 43
0.0000000001
 40
0.0
 40
0.0
 40
0.0
 40
0.0
 40
0.0
 40
0.0
 40
0.0
 40
1.0
 40
1.0
 40
1.0
 40
1.0
 40
1.0
 40
1.0
 40
1.0
 10
252.526201764033
 20
107.4671601678702
 30
0.0
 10
265.8259053343666
 20
107.4983162585321
 30
0.0
 10
279.1264057477533
 20
107.5409657270041
 30
0.0
 10
292.4214110335777
 20
108.0936002182782
 30
0.0
 10
305.7223469029964
 20
109.6101780320202
 30
0.0
 10
318.812541802766
 20
112.5822221519732
 30
0.0
 10
331.265991649766
 20
117.2506958066731
 30
0.0
  0
LINE
  5
253
330
231
100
AcDbEntity
  8
DV3_Default
 62
     7
100
AcDbLine
 10
215.7666936384
 20
107.4229979145
 30
0.0
 11
252.526201764
 21
107.4671601964
 31
0.0
  0
SPLINE
  5
254
330
231
100
AcDbEntity
  8
DV3_Default
 62
     7
100
AcDbSpline
210
0.0
220
0.0
230
1.0
 70
     8
 71
     3
 72
    15
 73
    11
 74
     0
 42
0.000000001
 43
0.0000000001
 40
0.0
 40
0.0
 40
0.0
 40
0.0
 40
0.1175826355429246
 40
0.2204300047167547
 40
0.3086068788310241
 40
0.3821502777216493
 40
0.5547776526430832
 40
0.7141236030854851
 40
0.972629104341485
 40
1.0
 40
1.0
 40
1.0
 40
1.0
 10
299.8393957409151
 20
556.1233155640988
 30
0.0
 10
299.8374619514714
 20
556.06032110778
 30
0.0
 10
299.8338367119602
 20
555.9422196845892
 30
0.0
 10
299.8255145906807
 20
555.7692666616562
 30
0.0
 10
299.8155444937721
 20
555.6169247365659
 30
0.0
 10
299.7972121655336
 20
555.4196326272092
 30
0.0
 10
299.7605663539024
 20
555.1719110034269
 30
0.0
 10
299.6756467916533
 20
554.796209308375
 30
0.0
 10
299.5731173534047
 20
554.5006361423102
 30
0.0
 10
299.4870174972218
 20
554.3086921247293
 30
0.0
 10
299.4785856952375
 20
554.2902985845988
 30
0.0
  0
ARC
  5
255
330
231
100
AcDbEntity
  8
DV3_Default
 62
     7
100
AcDbCircle
 10
302.7792025307
 20
557.1953511814
 30
0.0
 40
2.903311050177749
100
AcDbArc
 50
169.6932538331
 51
179.1365104273
  0
SPLINE
  5
256
330
231
100
AcDbEntity
  8
DV3_Default
 62
     7
100
AcDbSpline
210
0.0
220
0.0
230
1.0
 70
     8
 71
     3
 72
    19
 73
    15
 74
     0
 42
0.000000001
 43
0.0000000001
 40
0.0
 40
0.0
 40
0.0
 40
0.0
 40
0.0560916091289644
 40
0.1136106685948512
 40
0.1725730388134052
 40
0.2329866280654186
 40
0.3296087152365855
 40
0.4256829754891879
 40
0.587229752612565
 40
0.7139395644885727
 40
0.8170913516949687
 40
0.8975471807575799
 40
0.9433715757331013
 40
1.0
 40
1.0
 40
1.0
 40
1.0
 10
299.9227393702392
 20
557.7148059599841
 30
0.0
 10
299.9316771609895
 20
557.7548962084857
 30
0.0
 10
299.9497801963394
 20
557.8360969443372
 30
0.0
 10
299.9882751804255
 20
557.9525632900925
 30
0.0
 10
300.0365875644582
 20
558.0656041169652
 30
0.0
 10
300.1068942623271
 20
558.192970679653
 30
0.0
 10
300.2082696938149
 20
558.3320683632795
 30
0.0
 10
300.3861046005196
 20
558.5095613305144
 30
0.0
 10
300.6354518895379
 20
558.6755962557112
 30
0.0
 10
300.9798325743714
 20
558.8140488909637
 30
0.0
 10
301.3557399306715
 20
558.9056564741239
 30
0.0
 10
301.7423493501952
 20
558.951004967351
 30
0.0
 10
302.1218431314405
 20
558.9695447711648
 30
0.0
 10
302.3394621986185
 20
558.9691281397309
 30
0.0
 10
302.4597461013271
 20
558.9688978563366
 30
0.0
  0
LINE
  5
257
330
231
100
AcDbEntity
  8
DV3_Default
 62
     7
100
AcDbLine
 10
349.3484097904
 20
556.5001210721
 30
0.0
 11
349.3943763789
 21
557.3394109886
 31
0.0
  0
SPLINE
  5
258
330
231
100
AcDbEntity
  8
DV3_Default
 62
     7
100
AcDbSpline
210
0.0
220
0.0
230
1.0
 70
     8
 71
     3
 72
    14
 73
    10
 74
     0
 42
0.000000001
 43
0.0000000001
 40
0.0
 40
0.0
 40
0.0
 40
0.0
 40
0.1116252756579856
 40
0.2670101097318684
 40
0.5506534325760127
 40
0.6915244104253333
 40
0.797751764005773
 40
0.9123340448599839
 40
1.0
 40
1.0
 40
1.0
 40
1.0
 10
349.394376378949
 20
557.3394109886284
 30
0.0
 10
349.3917834082923
 20
557.450383130072
 30
0.0
 10
349.3855809655532
 20
557.7158309275245
 30
0.0
 10
349.2792301377038
 20
558.1830102293046
 30
0.0
 10
348.9910926585503
 20
558.5489598806175
 30
0.0
 10
348.5229846377576
 20
558.7840697629092
 30
0.0
 10
348.0985566687152
 20
558.8988890342351
 30
0.0
 10
347.5369897187449
 20
558.9659789166772
 30
0.0
 10
347.0566932088364
 20
558.9680152102352
 30
0.0
 10
346.848505225962
 20
558.9688978563498
 30
0.0
  0
LINE
  5
259
330
231
100
AcDbEntity
  8
DV3_Default
 62
     7
100
AcDbLine
 10
397.6132129291
 20
499.2183721047
 30
0.0
 11
397.6359182296
 21
499.2411181803
 31
0.0
  0
SPLINE
  5
25A
330
231
100
AcDbEntity
  8
DV3_Default
 62
     7
100
AcDbSpline
210
0.0
220
0.0
230
1.0
 70
     8
 71
     3
 72
    12
 73
     8
 74
     0
 42
0.000000001
 43
0.0000000001
 40
0.0
 40
0.0
 40
0.0
 40
0.0
 40
0.081382926790169
 40
0.1456531221456172
 40
0.1456531221456172
 40
0.1456531221456172
 40
1.0
 40
1.0
 40
1.0
 40
1.0
 10
397.635918229642
 20
499.2411181802794
 30
0.0
 10
397.631771250906
 20
500.2146628047457
 30
0.0
 10
397.6243490692316
 20
501.9570407167739
 30
0.0
 10
397.5181567944097
 20
503.6962492402845
 30
0.0
 10
397.4459265324333
 20
504.4620615593896
 30
0.0
 10
396.7343107255327
 20
512.0068791536088
 30
0.0
 10
393.5599817622905
 20
519.3942162788255
 30
0.0
 10
385.3006235017992
 20
523.7845173242599
 30
0.0
  0
LINE
  5
25B
330
231
100
AcDbEntity
  8
DV3_Default
 62
     7
100
AcDbLine
 10
397.6132128994
 20
499.2183721046
 30
0.0
 11
397.6557233287
 21
482.1285718857
 31
0.0
  0
LINE
  5
25C
330
231
100
AcDbEntity
  8
DV3_Default
 62
     7
100
AcDbLine
 10
398.1845715545
 20
249.412128947
 30
0.0
 11
398.2075822859
 21
249.4121766768
 31
0.0
  0
SPLINE
  5
25D
330
231
100
AcDbEntity
  8
DV3_Default
 62
     7
100
AcDbSpline
210
0.0
220
0.0
230
1.0
 70
     8
 71
     3
 72
     8
 73
     4
 74
     0
 42
0.000000001
 43
0.0000000001
 40
0.0
 40
0.0
 40
0.0
 40
0.0
 40
1.0
 40
1.0
 40
1.0
 40
1.0
 10
398.207582285932
 20
249.4121766767702
 30
0.0
 10
398.034842480639
 20
332.6886694950112
 30
0.0
 10
397.844287718648
 20
415.9649833281391
 30
0.0
 10
397.635918229642
 20
499.2411181802794
 30
0.0
  0
LINE
  5
25E
330
231
100
AcDbEntity
  8
DV3_Default
 62
     7
100
AcDbLine
 10
215.7666936384
 20
107.4229979087
 30
0.0
 11
215.7666938731
 21
107.4
 31
0.0
  0
ARC
  5
25F
330
231
100
AcDbEntity
  8
DV3_Default
 62
     7
100
AcDbCircle
 10
393.3708635416
 20
553.5949099149
 30
0.0
 40
93.56563634201413
100
AcDbArc
 50
177.7678792547
 51
178.451519007
  0
LINE
  5
260
330
231
100
AcDbEntity
  8
DV3_Default
 62
     7
100
AcDbLine
 10
346.848505226
 20
558.9688978563
 30
0.0
 11
302.4597461013
 21
558.9688978563
 31
0.0
  0
ARC
  5
261
330
231
100
AcDbEntity
  8
DV3_Default
 62
     7
100
AcDbCircle
 10
124.3259493559
 20
553.4664071757
 30
0.0
 40
225.1017481077565
100
AcDbArc
 50
0.6505803162
 51
0.9858551718
  0
SPLINE
  5
262
330
231
100
AcDbEntity
  8
DV3_Default
 62
     7
100
AcDbSpline
210
0.0
220
0.0
230
1.0
 70
     8
 71
     3
 72
    23
 73
    19
 74
     0
 42
0.000000001
 43
0.0000000001
 40
0.0
 40
0.0
 40
0.0
 40
0.0
 40
0.0255358760453429
 40
0.0488566541337764
 40
0.0696720635671838
 40
0.0879258685877307
 40
0.1225101135376384
 40
0.1607414238566698
 40
0.2033768156236378
 40
0.27009439427797
 40
0.3525134282525318
 40
0.4500930691267975
 40
0.5517745278064353
 40
0.7335128679111252
 40
0.8168209304487317
 40
0.8885976396689025
 40
0.9456686854435881
 40
1.0
 40
1.0
 40
1.0
 40
1.0
 10
84.68488252015199
 20
558.9688978563498
 30
0.0
 10
84.62552293676309
 20
558.9690261419682
 30
0.0
 10
84.51195289005678
 20
558.9692715851273
 30
0.0
 10
84.35063256865874
 20
558.968050490843
 30
0.0
 10
84.20780588803554
 20
558.9641350859074
 30
0.0
 10
84.04403951488054
 20
558.9570063758006
 30
0.0
 10
83.85646705654281
 20
558.9450309961371
 30
0.0
 10
83.64664110024272
 20
558.9225333309186
 30
0.0
 10
83.41577183346726
 20
558.8860308150598
 30
0.0
 10
83.16936931742059
 20
558.8286843477
 30
0.0
 10
82.9106217502496
 20
558.736061061585
 30
0.0
 10
82.67337733370509
 20
558.6045972107752
 30
0.0
 10
82.427343802149
 20
558.4020813079271
 30
0.0
 10
82.26468644280921
 20
558.1455293195673
 30
0.0
 10
82.18303193876666
 20
557.8708972879901
 30
0.0
 10
82.15376699189103
 20
557.6810872886803
 30
0.0
 10
82.14217190526854
 20
557.5063714761164
 30
0.0
 10
82.1400472382037
 20
557.3941486094935
 30
0.0
 10
82.13901105982099
 20
557.3393935476721
 30
0.0
  0
SPLINE
  5
263
330
231
100
AcDbEntity
  8
DV3_Default
 62
     7
100
AcDbSpline
210
0.0
220
0.0
230
1.0
 70
     8
 71
     3
 72
    12
 73
     8
 74
     0
 42
0.000000001
 43
0.0000000001
 40
0.0
 40
0.0
 40
0.0
 40
0.0
 40
0.854286692649168
 40
0.854286692649168
 40
0.854286692649168
 40
0.9185829487547027
 40
0.9999999999999999
 40
0.9999999999999999
 40
0.9999999999999999
 40
0.9999999999999999
 10
46.23276485251465
 20
523.7845169761582
 30
0.0
 10
37.97340579010283
 20
519.3942163653571
 30
0.0
 10
34.79907705970064
 20
512.0068791253816
 30
0.0
 10
34.08746121368089
 20
504.4620615593896
 30
0.0
 10
34.01523150515751
 20
503.6962551531637
 30
0.0
 10
33.90903877109697
 20
501.9570466655466
 30
0.0
 10
33.90161654519794
 20
500.2146687442661
 30
0.0
 10
33.89746949111397
 20
499.2411181803428
 30
0.0
  0
SPLINE
  5
264
330
231
100
AcDbEntity
  8
DV3_Default
 62
     7
100
AcDbSpline
210
0.0
220
0.0
230
1.0
 70
     8
 71
     3
 72
     8
 73
     4
 74
     0
 42
0.000000001
 43
0.0000000001
 40
0.0
 40
0.0
 40
0.0
 40
0.0
 40
1.0
 40
1.0
 40
1.0
 40
1.0
 10
33.89746949111397
 20
499.2411181803428
 30
0.0
 10
33.689100027466
 20
415.9649833281391
 30
0.0
 10
33.49854526547499
 20
332.6886694950112
 30
0.0
 10
33.32580546018199
 20
249.4121766767702
 30
0.0
  0
LINE
  5
265
330
231
100
AcDbEntity
  8
DV3_Default
 62
     7
100
AcDbLine
 10
33.3258054602
 20
249.4121766768
 30
0.0
 11
33.3488161916
 21
249.412128947
 31
0.0
  0
SPLINE
  5
266
330
231
100
AcDbEntity
  8
DV3_Default
 62
     7
100
AcDbSpline
210
0.0
220
0.0
230
1.0
 70
     8
 71
     3
 72
    24
 73
    20
 74
     0
 42
0.000000001
 43
0.0000000001
 40
0.0
 40
0.0
 40
0.0
 40
0.0
 40
0.0550171064265633
 40
0.1095565327012156
 40
0.1635929515296797
 40
0.2171009178289432
 40
0.2700553159582559
 40
0.322431821313869
 40
0.3742073763643738
 40
0.4253606813462371
 40
0.5802322265289971
 40
0.7134141000717934
 40
0.7838193996054932
 40
0.8444331806333987
 40
0.8973200315982292
 40
0.9243759807070874
 40
0.9523549911586221
 40
0.9726703944043056
 40
1.0
 40
1.0
 40
1.0
 40
1.0
 10
131.6106483758748
 20
557.7148059599841
 30
0.0
 10
131.601892948709
 20
557.7540102653786
 30
0.0
 10
131.5844581124389
 20
557.8320784889721
 30
0.0
 10
131.5485694190678
 20
557.9415300096776
 30
0.0
 10
131.5056558450836
 20
558.0450147949423
 30
0.0
 10
131.4550262644631
 20
558.142239175481
 30
0.0
 10
131.3968614262541
 20
558.23356543156
 30
0.0
 10
131.3311064198637
 20
558.3191832509356
 30
0.0
 10
131.2577882524403
 20
558.3993322008043
 30
0.0
 10
131.121784659093
 20
558.5251624227212
 30
0.0
 10
130.9046322326998
 20
558.6723493034281
 30
0.0
 10
130.5894859263184
 20
558.8010667667477
 30
0.0
 10
130.2824578563785
 20
558.8799331813552
 30
0.0
 10
130.016851267644
 20
558.9253655213256
 30
0.0
 10
129.7663491590409
 20
558.950774759275
 30
0.0
 10
129.5505471566661
 20
558.9624788603337
 30
0.0
 10
129.3930960840741
 20
558.9671017235054
 30
0.0
 10
129.2327905296912
 20
558.9687196455119
 30
0.0
 10
129.1316542968296
 20
558.9688328953256
 30
0.0
 10
129.0736416440302
 20
558.9688978562763
 30
0.0
  0
LINE
  5
267
330
231
100
AcDbEntity
  8
DV3_Default
 62
     7
100
AcDbLine
 10
129.073641644
 20
558.9688978563
 30
0.0
 11
84.6848825202
 21
558.9688978563
 31
0.0
  0
LINE
  5
268
330
231
100
AcDbEntity
  8
DV3_Default
 62
     7
100
AcDbLine
 10
131.6107301418
 20
554.3356432816
 30
0.0
 11
131.6106483759
 21
557.71480596
 31
0.0
  0
ARC
  5
269
330
231
100
AcDbEntity
  8
DV3_Default
 62
     7
100
AcDbCircle
 10
128.8189281714
 20
557.2016812355
 30
0.0
 40
2.838485279671814
100
AcDbArc
 50
0.7552873066
 51
10.4148542854
  0
SPLINE
  5
26A
330
231
100
AcDbEntity
  8
DV3_Default
 62
     7
100
AcDbSpline
210
0.0
220
0.0
230
1.0
 70
     8
 71
     3
 72
    10
 73
     6
 74
     0
 42
0.000000001
 43
0.0000000001
 40
0.0
 40
0.0
 40
0.0
 40
0.0
 40
0.4201442140491969
 40
0.8234449960096193
 40
0.9999999999999999
 40
0.9999999999999999
 40
0.9999999999999999
 40
0.9999999999999999
 10
131.6939920267869
 20
556.1233151886261
 30
0.0
 10
131.7008735105229
 20
555.8922072476672
 30
0.0
 10
131.7143606080352
 20
555.4392569698233
 30
0.0
 10
131.8469861675714
 20
554.7990844716516
 30
0.0
 10
131.9997696584844
 20
554.4110371561549
 30
0.0
 10
132.0540684424895
 20
554.2922848705418
 30
0.0
  0
ARC
  5
26B
330
231
100
AcDbEntity
  8
DV3_Default
 62
     7
100
AcDbCircle
 10
38.16209109
 20
553.5948950326
 30
0.0
 40
93.56606971192603
100
AcDbArc
 50
1.5484827057
 51
2.2321153641
  0
ARC
  5
26C
330
231
100
AcDbEntity
  8
DV3_Default
 62
     7
100
AcDbCircle
 10
307.2108836384
 20
553.4663592059
 30
0.0
 40
225.1051936785477
100
AcDbArc
 50
179.0141521481
 51
179.3408243713
  0
SPLINE
  5
26D
330
231
100
AcDbEntity
  8
DV3_Default
 62
     7
100
AcDbSpline
210
0.0
220
0.0
230
1.0
 70
     8
 71
     5
 72
    12
 73
     6
 74
     0
 42
0.000000001
 43
0.0000000001
 40
0.0
 40
0.0
 40
0.0
 40
0.0
 40
0.0
 40
0.0
 40
1.0
 40
1.0
 40
1.0
 40
1.0
 40
1.0
 40
1.0
 10
360.168648767737
 20
543.0736236616428
 30
0.0
 10
367.7886328403704
 20
543.190134656414
 30
0.0
 10
377.3124169727938
 20
543.3474439542621
 30
0.0
 10
385.4572979808101
 20
535.3247193019487
 30
0.0
 10
385.4901081758492
 20
525.788742140849
 30
0.0
 10
385.515966730503
 20
518.1595497170067
 30
0.0
  0
ELLIPSE
  5
26E
330
231
100
AcDbEntity
  8
DV3_Default
 62
     7
100
AcDbEllipse
 10
397.3219304712
 20
433.6073820534
 30
0.0
 11
-0.2419649702779525
 21
95.70684091781962
 31
0.0
210
0.0
220
0.0
230
1.0
 40
0.0174467224
 41
0.3166662168459977
 42
0.346401580086202
  0
ARC
  5
26F
330
231
100
AcDbEntity
  8
DV3_Default
 62
     7
100
AcDbCircle
 10
365.6446393872
 20
525.5213299442
 30
0.0
 40
32.95738262984595
100
AcDbArc
 50
53.6220348416
 51
91.4201538101
  0
ARC
  5
270
330
231
100
AcDbEntity
  8
DV3_Default
 62
     7
100
AcDbCircle
 10
344.3509395138
 20
183.6005999753
 30
0.0
 40
375.4268402178279
100
AcDbArc
 50
86.8733672036
 51
88.8100473756
  0
LINE
  5
271
330
231
100
AcDbEntity
  8
DV3_Default
 62
     7
100
AcDbLine
 10
351.7416683438
 20
558.9471911709
 30
0.0
 11
352.1474655854
 21
558.9464083571
 31
0.0
  0
SPLINE
  5
272
330
231
100
AcDbEntity
  8
DV3_Default
 62
     7
100
AcDbSpline
210
0.0
220
0.0
230
1.0
 70
     8
 71
     3
 72
    22
 73
    18
 74
     0
 42
0.000000001
 43
0.0000000001
 40
0.0
 40
0.0
 40
0.0
 40
0.0
 40
0.0497196197674497
 40
0.1653754672138565
 40
0.2540695161268989
 40
0.3277179277434307
 40
0.4963725972560265
 40
0.6363618215474242
 40
0.7026451677160449
 40
0.7623348500871991
 40
0.8152102437951598
 40
0.8612639196140082
 40
0.8920757392543102
 40
0.9208993356208469
 40
0.9481626987705803
 40
0.9743600443370356
 40
1.0
 40
1.0
 40
1.0
 40
1.0
 10
349.583562700204
 20
557.278606543043
 30
0.0
 10
349.5846704790775
 20
557.3114771346351
 30
0.0
 10
349.5883551301183
 20
557.4208100190696
 30
0.0
 10
349.6006083062427
 20
557.5891762657191
 30
0.0
 10
349.6344089127667
 20
557.7681225894603
 30
0.0
 10
349.6988065549892
 20
557.9766764407029
 30
0.0
 10
349.8232169147426
 20
558.2134284945437
 30
0.0
 10
350.0305411449369
 20
558.4323822744292
 30
0.0
 10
350.2409108524712
 20
558.5825903909729
 30
0.0
 10
350.416307280309
 20
558.6796845499526
 30
0.0
 10
350.6072212686583
 20
558.7610788710404
 30
0.0
 10
350.7974741983422
 20
558.8224264760462
 30
0.0
 10
350.9830680819915
 20
558.8679388403989
 30
0.0
 10
351.1584116032673
 20
558.9006652515264
 30
0.0
 10
351.3446789903057
 20
558.924890980245
 30
0.0
 10
351.5395257923166
 20
558.9408837615628
 30
0.0
 10
351.6747722472383
 20
558.9451038267769
 30
0.0
 10
351.741668343785
 20
558.9471911708788
 30
0.0
  0
ARC
  5
273
330
231
100
AcDbEntity
  8
DV3_Default
 62
     7
100
AcDbCircle
 10
676.6329262116
 20
546.4171093677
 30
0.0
 40
327.2296720868496
100
AcDbArc
 50
178.0978733658
 51
178.2437029638
  0
LINE
  5
274
330
231
100
AcDbEntity
  8
DV3_Default
 62
     7
100
AcDbLine
 10
349.2947299801
 20
555.7366486153
 30
0.0
 11
349.5569787242
 21
556.4461639135
 31
0.0
  0
ARC
  5
275
330
231
100
AcDbEntity
  8
DV3_Default
 62
     7
100
AcDbCircle
 10
-109603.076807923
 20
131.8568243132
 30
0.0
 40
109989.2711601646
100
AcDbArc
 50
0.0612312192
 51
0.2012338208
  0
LINE
  5
276
330
231
100
AcDbEntity
  8
DV3_Default
 62
     7
100
AcDbLine
 10
252.4975182559
 20
119.5477314435
 30
0.0
 11
215.7666938186
 21
119.4883864456
 31
0.0
  0
SPLINE
  5
277
330
231
100
AcDbEntity
  8
DV3_Default
 62
     7
100
AcDbSpline
210
0.0
220
0.0
230
1.0
 70
     8
 71
     3
 72
    22
 73
    18
 74
     0
 42
0.000000001
 43
0.0000000001
 40
0.0
 40
0.0
 40
0.0
 40
0.0
 40
0.0320100625074324
 40
0.063858391510623
 40
0.0955455009268279
 40
0.1270798134474559
 40
0.1584775524942649
 40
0.1897624561738089
 40
0.2209653485400742
 40
0.2521235944470644
 40
0.2832804593141681
 40
0.4231280610310408
 40
0.5645385133393419
 40
0.6801964177204317
 40
0.8028046211938263
 40
0.9037793885127124
 40
1.0
 40
1.0
 40
1.0
 40
1.0
 10
349.294741496595
 20
555.7366429763159
 30
0.0
 10
349.2733055481715
 20
555.7145888487428
 30
0.0
 10
349.2305419582376
 20
555.670592023911
 30
0.0
 10
349.1550927767222
 20
555.6049601793824
 30
0.0
 10
349.0715052339281
 20
555.5395853799854
 30
0.0
 10
348.9789438826424
 20
555.474420725101
 30
0.0
 10
348.8775987066588
 20
555.409440744178
 30
0.0
 10
348.7673889356885
 20
555.3446806391009
 30
0.0
 10
348.6483131764442
 20
555.280220201146
 30
0.0
 10
348.520336783665
 20
555.2161576014072
 30
0.0
 10
348.2245209219149
 20
555.0789450291303
 30
0.0
 10
347.6864569871065
 20
554.8729245668949
 30
0.0
 10
346.8598261565661
 20
554.6563326722913
 30
0.0
 10
345.9863570847241
 20
554.5102630172393
 30
0.0
 10
345.1655294836037
 20
554.4355808520198
 30
0.0
 10
344.3792286153503
 20
554.4088298346769
 30
0.0
 10
343.8931809497837
 20
554.4078111123354
 30
0.0
 10
343.656016144394
 20
554.4073139971248
 30
0.0
  0
SPLINE
  5
278
330
231
100
AcDbEntity
  8
DV3_Default
 62
     7
100
AcDbSpline
210
0.0
220
0.0
230
1.0
 70
     8
 71
     3
 72
    27
 73
    23
 74
     0
 42
0.000000001
 43
0.0000000001
 40
0.0
 40
0.0
 40
0.0
 40
0.0
 40
0.0127883649197756
 40
0.0256560379744181
 40
0.0386629391442664
 40
0.0518724070134828
 40
0.0653489209473779
 40
0.0791559204331654
 40
0.0933539364407346
 40
0.1079991629579388
 40
0.1231425103337022
 40
0.1388291127485951
 40
0.1848511076649141
 40
0.2377123694819462
 40
0.2974049941861196
 40
0.3637070379340341
 40
0.5036336139837082
 40
0.6723175444095353
 40
0.7459117510877047
 40
0.8346424339553691
 40
0.9503322057332259
 40
1.0
 40
1.0
 40
1.0
 40
1.0
 10
79.791719402329
 20
558.9471911708789
 30
0.0
 10
79.82514723140258
 20
558.9462998667201
 30
0.0
 10
79.89221019508037
 20
558.9445117309041
 30
0.0
 10
79.99127197299998
 20
558.9396794972058
 30
0.0
 10
80.08892177712713
 20
558.9329907758012
 30
0.0
 10
80.18474015572328
 20
558.9241894977068
 30
0.0
 10
80.27845342352875
 20
558.9132609070995
 30
0.0
 10
80.36979447561588
 20
558.9002016355928
 30
0.0
 10
80.45854371926636
 20
558.8850689253261
 30
0.0
 10
80.5445070087271
 20
558.8679594816452
 30
0.0
 10
80.62755708313321
 20
558.8489901566833
 30
0.0
 10
80.75795422248844
 20
558.815317674257
 30
0.0
 10
80.92614182391807
 20
558.7610813977635
 30
0.0
 10
81.11696900727608
 20
558.6797368167212
 30
0.0
 10
81.29241727912814
 20
558.5826380803272
 30
0.0
 10
81.50280066887716
 20
558.4324161691356
 30
0.0
 10
81.71015188970645
 20
558.2134563998685
 30
0.0
 10
81.83455677728819
 20
557.9767361780531
 30
0.0
 10
81.89897223027693
 20
557.7681501910192
 30
0.0
 10
81.93278282410569
 20
557.5891787898865
 30
0.0
 10
81.94503378896373
 20
557.4207746938349
 30
0.0
 10
81.94871833382797
 20
557.3114453600765
 30
0.0
 10
81.94982504591
 20
557.278606543043
 30
0.0
  0
LINE
  5
279
330
231
100
AcDbEntity
  8
DV3_Default
 62
     7
100
AcDbLine
 10
82.238657766
 20
555.7366486153
 30
0.0
 11
81.9764090219
 21
556.4461639135
 31
0.0
  0
SPLINE
  5
27A
330
231
100
AcDbEntity
  8
DV3_Default
 62
     7
100
AcDbSpline
210
0.0
220
0.0
230
1.0
 70
     8
 71
     3
 72
    18
 73
    14
 74
     0
 42
0.000000001
 43
0.0000000001
 40
0.0
 40
0.0
 40
0.0
 40
0.0
 40
0.0962255745133965
 40
0.1972055480923529
 40
0.3197983297982863
 40
0.4354838423573488
 40
0.5768768706930117
 40
0.7167563574199061
 40
0.7728202224041882
 40
0.8290034733439346
 40
0.8855159752208408
 40
0.9424955324588511
 40
1.0
 40
1.0
 40
1.0
 40
1.0
 10
87.877371616147
 20
554.407313997088
 30
0.0
 10
87.64020682276823
 20
554.4078111755637
 30
0.0
 10
87.15415918670669
 20
554.4088300275279
 30
0.0
 10
86.36791148486917
 20
554.4355781434589
 30
0.0
 10
85.54708413567319
 20
554.5102607099781
 30
0.0
 10
84.67366781237202
 20
554.6563055266823
 30
0.0
 10
83.84695506732373
 20
554.8729316534053
 30
0.0
 10
83.26608350477619
 20
555.0952905468585
 30
0.0
 10
82.90651364720635
 20
555.2672566704065
 30
0.0
 10
82.69502872130369
 20
555.3836260792935
 30
0.0
 10
82.51295587129393
 20
555.5007171636911
 30
0.0
 10
82.35751782861392
 20
555.618262640267
 30
0.0
 10
82.27839104156526
 20
555.697062431711
 30
0.0
 10
82.238646249519
 20
555.7366429763159
 30
0.0
  0
ARC
  5
27B
330
231
100
AcDbEntity
  8
DV3_Default
 62
     7
100
AcDbCircle
 10
66.382579509
 20
527.6577494892
 30
0.0
 40
31.57411649273141
100
AcDbArc
 50
129.400248942
 51
203.0386847437
  0
LINE
  5
27C
330
231
100
AcDbEntity
  8
DV3_Default
 62
     7
100
AcDbLine
 10
215.7666939276
 20
119.4883871238
 30
0.0
 11
179.035871209
 21
119.5477321169
 31
0.0
  0
ARC
  5
27D
330
231
100
AcDbEntity
  8
DV3_Default
 62
     7
100
AcDbCircle
 10
-245.0995384638
 20
546.4171093678
 30
0.0
 40
327.2296720852224
100
AcDbArc
 50
1.7562970362
 51
1.9021266342
  0
LINE
  5
27E
330
231
100
AcDbEntity
  8
DV3_Default
 62
     7
100
AcDbLine
 10
79.3858866863
 20
558.9464016861
 30
0.0
 11
79.7917194023
 21
558.9471911709
 31
0.0
  0
ARC
  5
27F
330
231
100
AcDbEntity
  8
DV3_Default
 62
     7
100
AcDbCircle
 10
87.1824681424
 20
183.603045033
 30
0.0
 40
375.4243998857426
100
AcDbArc
 50
91.1899688149
 51
93.1266561834
  0
ELLIPSE
  5
280
330
231
100
AcDbEntity
  8
DV3_Default
 62
     7
100
AcDbEllipse
 10
34.2114553062
 20
433.6071491495
 30
0.0
 11
0.2419655849791313
 21
95.70708694871729
 31
0.0
210
0.0
220
0.0
230
1.0
 40
0.0174467225
 41
-0.3464015297284755
 42
-0.3166663932714977
  0
ARC
  5
281
330
231
100
AcDbEntity
  8
DV3_Default
 62
     7
100
AcDbCircle
 10
65.9090417504
 20
525.4568848079
 30
0.0
 40
33.02131227477826
100
AcDbArc
 50
88.6178180685
 51
126.3399932916
  0
LINE
  5
282
330
231
100
AcDbEntity
  8
DV3_Default
 62
     7
100
AcDbLine
 10
343.6560161446
 20
554.4073140313
 30
0.0
 11
305.6253032432
 21
554.3062110047
 31
0.0
  0
ARC
  5
283
330
231
100
AcDbEntity
  8
DV3_Default
 62
     7
100
AcDbCircle
 10
243.6954202692
 20
8299.4973682818
 30
0.0
 40
7757.298197121493
100
AcDbArc
 50
270.4605226672
 51
270.8603092234
  0
ARC
  5
284
330
231
100
AcDbEntity
  8
DV3_Default
 62
     7
100
AcDbCircle
 10
202.3758274063
 20
26801.8705825342
 30
0.0
 40
26247.76744585805
100
AcDbArc
 50
270.0292306829
 51
270.2253820052
  0
SPLINE
  5
285
330
231
100
AcDbEntity
  8
DV3_Default
 62
     7
100
AcDbSpline
210
0.0
220
0.0
230
1.0
 70
     8
 71
     6
 72
    14
 73
     7
 74
     0
 42
0.000000001
 43
0.0000000001
 40
0.0
 40
0.0
 40
0.0
 40
0.0
 40
0.0
 40
0.0
 40
0.0
 40
1.0
 40
1.0
 40
1.0
 40
1.0
 40
1.0
 40
1.0
 40
1.0
 10
386.131543392301
 20
249.4008380597222
 30
0.0
 10
386.1479107328742
 20
230.9779501339682
 30
0.0
 10
386.1373690119744
 20
212.5052611330473
 30
0.0
 10
384.7640352536081
 20
194.3136453227859
 30
0.0
 10
380.1044377102501
 20
175.3362453814401
 30
0.0
 10
369.9815511016241
 20
159.0563268524093
 30
0.0
 10
356.4924317150439
 20
146.5084797240381
 30
0.0
  0
SPLINE
  5
286
330
231
100
AcDbEntity
  8
DV3_Default
 62
     7
100
AcDbSpline
210
0.0
220
0.0
230
1.0
 70
     8
 71
     6
 72
    14
 73
     7
 74
     0
 42
0.000000001
 43
0.0000000001
 40
0.0
 40
0.0
 40
0.0
 40
0.0
 40
0.0
 40
0.0
 40
0.0
 40
1.0
 40
1.0
 40
1.0
 40
1.0
 40
1.0
 40
1.0
 40
1.0
 10
356.4924317150439
 20
146.5084797240381
 30
0.0
 10
343.045606562306
 20
133.9999740652984
 30
0.0
 10
326.1328613934808
 20
125.1535894483182
 30
0.0
 10
307.4665867915199
 20
121.1371767129583
 30
0.0
 10
289.265275590528
 20
119.6927804267074
 30
0.0
 10
270.8625894959806
 20
119.6046370410009
 30
0.0
 10
252.4975182539435
 20
119.5477322663542
 30
0.0
  0
ARC
  5
287
330
231
100
AcDbEntity
  8
DV3_Default
 62
     7
100
AcDbCircle
 10
229.4262125771
 20
26922.7806138591
 30
0.0
 40
26368.67759931897
100
AcDbArc
 50
269.7750677085
 51
269.9703196035
  0
LINE
  5
288
330
231
100
AcDbEntity
  8
DV3_Default
 62
     7
100
AcDbLine
 10
125.9080845029
 20
554.3062110047
 30
0.0
 11
87.8773716159
 21
554.4073140313
 31
0.0
  0
SPLINE
  5
289
330
231
100
AcDbEntity
  8
DV3_Default
 62
     7
100
AcDbSpline
210
0.0
220
0.0
230
1.0
 70
     8
 71
     3
 72
    25
 73
    21
 74
     0
 42
0.000000001
 43
0.0000000001
 40
0.0
 40
0.0
 40
0.0
 40
0.0
 40
0.0244332241841291
 40
0.04894584502978
 40
0.0735556533721925
 40
0.0982803657692667
 40
0.1231375914642752
 40
0.148144799879196
 40
0.1733192886615562
 40
0.1986781523403024
 40
0.2242382516877935
 40
0.2500161839348262
 40
0.306989420133773
 40
0.374992913381638
 40
0.4367017648145453
 40
0.500012800764193
 40
0.6291476074558132
 40
0.7499715745879373
 40
0.8749643862398014
 40
1.0
 40
1.0
 40
1.0
 40
1.0
 10
75.04095603107
 20
146.5084797240381
 30
0.0
 10
75.70391932875722
 20
145.903622165306
 30
0.0
 10
77.03200024777534
 20
144.6919415409366
 30
0.0
 10
79.10337620125202
 20
142.9566561411282
 30
0.0
 10
81.23517314390774
 20
141.2794067689284
 30
0.0
 10
83.43228668350866
 20
139.6669363280728
 30
0.0
 10
85.6924367677238
 20
138.1182279855952
 30
0.0
 10
88.01524363219515
 20
136.6342494633892
 30
0.0
 10
90.39979091923
 20
135.2153144378183
 30
0.0
 10
92.84528083724008
 20
133.8617871326493
 30
0.0
 10
95.35090828027516
 20
132.5738753834683
 30
0.0
 10
98.94237594971963
 20
130.862498622196
 30
0.0
 10
104.0508311383267
 20
128.7173368989116
 30
0.0
 10
110.5394215264887
 20
126.4852263930503
 30
0.0
 10
117.3767275013216
 20
124.5991558851406
 30
0.0
 10
126.498526488087
 20
122.6013761813183
 30
0.0
 10
137.9031616155496
 20
120.9663684188191
 30
0.0
 10
151.6433061484994
 20
119.9649560925169
 30
0.0
 10
165.2611787110205
 20
119.5946395782925
 30
0.0
 10
174.4437807669197
 20
119.5633698240375
 30
0.0
 10
179.0358694921705
 20
119.5477322663542
 30
0.0
  0
SPLINE
  5
28A
330
231
100
AcDbEntity
  8
DV3_Default
 62
     7
100
AcDbSpline
210
0.0
220
0.0
230
1.0
 70
     8
 71
     3
 72
    18
 73
    14
 74
     0
 42
0.000000001
 43
0.0000000001
 40
0.0
 40
0.0
 40
0.0
 40
0.0
 40
0.1250818271096555
 40
0.25010611386485
 40
0.4999387354731231
 40
0.6249391741285286
 40
0.6862312379897921
 40
0.7499324645772926
 40
0.8109113925614237
 40
0.8749210318893861
 40
0.9236314972983227
 40
0.9652960329592731
 40
1.0
 40
1.0
 40
1.0
 40
1.0
 10
45.40184317231483
 20
249.4008381875448
 30
0.0
 10
45.39862047083276
 20
244.7936225538159
 30
0.0
 10
45.39217779975752
 20
235.581311042761
 30
0.0
 10
45.84217846580682
 20
217.1799273872622
 30
0.0
 10
47.74953013462305
 20
198.7714765108288
 30
0.0
 10
52.00715867802322
 20
183.2363444062772
 30
0.0
 10
55.32918203017259
 20
174.6422795871998
 30
0.0
 10
58.26651807250285
 20
168.4467331653092
 30
0.0
 10
61.73392313788658
 20
162.4162497320476
 30
0.0
 10
65.3758410373956
 20
157.1461005301428
 30
0.0
 10
68.96772631164849
 20
152.7338623219837
 30
0.0
 10
72.08404173513236
 20
149.3363802973544
 30
0.0
 10
74.1170848278235
 20
147.3920413169191
 30
0.0
 10
75.04095603107
 20
146.5084797240381
 30
0.0
  0
ARC
  5
28B
330
231
100
AcDbEntity
  8
DV3_Default
 62
     7
100
AcDbCircle
 10
138.2666938731
 20
545.6107511904
 30
0.0
 40
16.0
100
AcDbArc
 50
32.7151817222
 51
123.1856946134
  0
ARC
  5
28C
330
231
100
AcDbEntity
  8
DV3_Default
 62
     7
100
AcDbCircle
 10
138.2666938731
 20
545.6107511904
 30
0.0
 40
16.5
100
AcDbArc
 50
31.5829787939
 51
125.9446299202
  0
ARC
  5
28D
330
231
100
AcDbEntity
  8
DV3_Default
 62
     7
100
AcDbCircle
 10
293.2666938731
 20
545.6107511904
 30
0.0
 40
16.0
100
AcDbArc
 50
56.8748090774
 51
147.0904183079
  0
ARC
  5
28E
330
231
100
AcDbEntity
  8
DV3_Default
 62
     7
100
AcDbCircle
 10
293.2666938731
 20
545.6107511904
 30
0.0
 40
16.5
100
AcDbArc
 50
54.0553700801
 51
148.2610420614
  0
LINE
  5
28F
330
231
100
AcDbEntity
  8
DV3_Default
 62
     7
100
AcDbLine
 10
48.6359738896
 20
637.9295181587
 30
0.0
 11
382.8995650154
 21
637.9295175928
 31
0.0
  0
ARC
  5
290
330
231
100
AcDbEntity
  8
DV3_Default
 62
     7
100
AcDbCircle
 10
382.9005441704
 20
647.9265378718
 30
0.0
 40
9.997007479505712
100
AcDbArc
 50
269.9943881758
 51
0.0001845002
  0
LINE
  5
291
330
231
100
AcDbEntity
  8
DV3_Default
 62
     7
100
AcDbLine
 10
392.8975516498
 20
647.9265700635
 30
0.0
 11
392.8975856525
 21
752.5619332141
 31
0.0
  0
ARC
  5
292
330
231
100
AcDbEntity
  8
DV3_Default
 62
     7
100
AcDbCircle
 10
382.8978405244
 20
752.5609951287
 30
0.0
 40
9.99975155237684
100
AcDbArc
 50
0.005374967
 51
90.0067577182
  0
LINE
  5
293
330
231
100
AcDbEntity
  8
DV3_Default
 62
     7
100
AcDbLine
 10
382.8966611094
 20
762.5607816311
 30
0.0
 11
48.6392906714
 21
762.5607834476
 31
0.0
  0
ARC
  5
294
330
231
100
AcDbEntity
  8
DV3_Default
 62
     7
100
AcDbCircle
 10
48.6379239873
 20
752.5609493171
 30
0.0
 40
9.999821946745799
100
AcDbArc
 50
89.9921693375
 51
179.9962619193
  0
LINE
  5
295
330
231
100
AcDbEntity
  8
DV3_Default
 62
     7
100
AcDbLine
 10
38.6381161384
 20
752.5616017236
 30
0.0
 11
38.638153696
 21
647.9265402103
 31
0.0
  0
ARC
  5
296
330
231
100
AcDbEntity
  8
DV3_Default
 62
     7
100
AcDbCircle
 10
48.6351340761
 20
647.9265288793
 30
0.0
 40
9.996985062232465
100
AcDbArc
 50
179.9999350587
 51
270.0048132218
  0
ARC
  5
297
330
231
100
AcDbEntity
  8
DV3_Default
 62
     7
100
AcDbCircle
 10
215.5802314839
 20
691.7452361607
 30
0.0
 40
9.69886190195493
100
AcDbArc
 50
226.5564640908
 51
311.4435359092
  0
ARC
  5
298
330
231
100
AcDbEntity
  8
DV3_Default
 62
     7
100
AcDbCircle
 10
215.5802314839
 20
691.7452361607
 30
0.0
 40
9.698861901954999
100
AcDbArc
 50
311.4435359092
 51
316.5564640908
  0
ARC
  5
299
330
231
100
AcDbEntity
  8
DV3_Default
 62
     7
100
AcDbCircle
 10
215.5802314839
 20
691.7452361607
 30
0.0
 40
9.698861901954997
100
AcDbArc
 50
316.5564640908
 51
355.4081234099
  0
ARC
  5
29A
330
231
100
AcDbEntity
  8
DV3_Default
 62
     7
100
AcDbCircle
 10
215.5802314839
 20
691.7452361607
 30
0.0
 40
9.698861901955
100
AcDbArc
 50
355.4081234099
 51
2.5918765901
  0
ARC
  5
29B
330
231
100
AcDbEntity
  8
DV3_Default
 62
     7
100
AcDbCircle
 10
215.5802314839
 20
691.7452361607
 30
0.0
 40
9.698861901955
100
AcDbArc
 50
2.5918765901
 51
40.4081234099
  0
ARC
  5
29C
330
231
100
AcDbEntity
  8
DV3_Default
 62
     7
100
AcDbCircle
 10
215.5802314839
 20
691.7452361607
 30
0.0
 40
9.698861901954997
100
AcDbArc
 50
40.4081234099
 51
47.5918765901
  0
ARC
  5
29D
330
231
100
AcDbEntity
  8
DV3_Default
 62
     7
100
AcDbCircle
 10
215.5802314839
 20
691.7452361607
 30
0.0
 40
9.698861901955004
100
AcDbArc
 50
47.5918765901
 51
55.1675366131
  0
LINE
  5
29E
330
231
100
AcDbEntity
  8
DV3_Default
 62
     7
100
AcDbLine
 10
221.1191891341
 20
699.6589895219
 30
0.0
 11
221.1200151408
 21
699.7063114164
 31
0.0
  0
ARC
  5
29F
330
231
100
AcDbEntity
  8
DV3_Default
 62
     7
100
AcDbCircle
 10
224.5775932056
 20
705.7464662644
 30
0.0
 40
7.001444847955659
100
AcDbArc
 50
235.6247405997
 51
240.3987019781
  0
ARC
  5
2A0
330
231
100
AcDbEntity
  8
DV3_Default
 62
     7
100
AcDbCircle
 10
215.5802314839
 20
691.7452361607
 30
0.0
 40
9.646490058816033
100
AcDbArc
 50
58.4721727253
 51
119.5278272747
  0
ARC
  5
2A1
330
231
100
AcDbEntity
  8
DV3_Default
 62
     7
100
AcDbCircle
 10
207.0769836897
 20
706.051938649
 30
0.0
 40
7.001444849897025
100
AcDbArc
 50
297.6013260548
 51
302.3752875476
  0
LINE
  5
2A2
330
231
100
AcDbEntity
  8
DV3_Default
 62
     7
100
AcDbLine
 10
210.3216600331
 20
699.8947974059
 30
0.0
 11
210.3208340264
 21
699.8474755114
 31
0.0
  0
ARC
  5
2A3
330
231
100
AcDbEntity
  8
DV3_Default
 62
     7
100
AcDbCircle
 10
215.5802314839
 20
691.7452361607
 30
0.0
 40
9.698861901955004
100
AcDbArc
 50
122.8324633869
 51
130.4081234099
  0
ARC
  5
2A4
330
231
100
AcDbEntity
  8
DV3_Default
 62
     7
100
AcDbCircle
 10
215.5802314839
 20
691.7452361607
 30
0.0
 40
9.698861901955004
100
AcDbArc
 50
130.4081234099
 51
137.5918765901
  0
ARC
  5
2A5
330
231
100
AcDbEntity
  8
DV3_Default
 62
     7
100
AcDbCircle
 10
215.5802314839
 20
691.7452361607
 30
0.0
 40
9.698861901955002
100
AcDbArc
 50
137.5918765901
 51
175.4081234099
  0
ARC
  5
2A6
330
231
100
AcDbEntity
  8
DV3_Default
 62
     7
100
AcDbCircle
 10
215.5802314839
 20
691.7452361607
 30
0.0
 40
9.698861901955002
100
AcDbArc
 50
175.4081234099
 51
182.5918765901
  0
ARC
  5
2A7
330
231
100
AcDbEntity
  8
DV3_Default
 62
     7
100
AcDbCircle
 10
215.5802314839
 20
691.7452361607
 30
0.0
 40
9.698861901954997
100
AcDbArc
 50
182.5918765901
 51
221.4435359092
  0
ARC
  5
2A8
330
231
100
AcDbEntity
  8
DV3_Default
 62
     7
100
AcDbCircle
 10
215.5802314839
 20
691.7452361607
 30
0.0
 40
9.698861901955004
100
AcDbArc
 50
221.4435359092
 51
226.5564640908
  0
ARC
  5
2A9
330
231
100
AcDbEntity
  8
DV3_Default
 62
     7
100
AcDbCircle
 10
221.762690981
 20
685.3431119377
 30
0.0
 40
0.8999999999993039
100
AcDbArc
 50
285.2705261698
 51
342.7294738297
  0
ARC
  5
2AA
330
231
100
AcDbEntity
  8
DV3_Default
 62
     7
100
AcDbCircle
 10
226.2447525968
 20
690.8887109544
 30
0.0
 40
1.000000000001995
100
AcDbArc
 50
158.3428368108
 51
175.40812341
  0
ARC
  5
2AB
330
231
100
AcDbEntity
  8
DV3_Default
 62
     7
100
AcDbCircle
 10
224.4788759708
 20
691.5899097434
 30
0.0
 40
0.9000000000002029
100
AcDbArc
 50
338.3428368107
 51
19.6571631893
  0
ARC
  5
2AC
330
231
100
AcDbEntity
  8
DV3_Default
 62
     7
100
AcDbCircle
 10
226.2681483573
 20
692.2290531755
 30
0.0
 40
0.9999999999979999
100
AcDbArc
 50
182.5918765901
 51
199.6571631893
  0
ARC
  5
2AD
330
231
100
AcDbEntity
  8
DV3_Default
 62
     7
100
AcDbCircle
 10
223.7268414625
 20
698.6805365762
 30
0.0
 40
0.9999999999996023
100
AcDbArc
 50
203.3428368108
 51
220.4081234099
  0
ARC
  5
2AE
330
231
100
AcDbEntity
  8
DV3_Default
 62
     7
100
AcDbCircle
 10
221.9823557069
 20
697.9276956578
 30
0.0
 40
0.9000000000003002
100
AcDbArc
 50
23.3428368107
 51
64.6571631893
  0
ARC
  5
2AF
330
231
100
AcDbEntity
  8
DV3_Default
 62
     7
100
AcDbCircle
 10
222.7956196898
 20
699.6448449506
 30
0.0
 40
1.000000000000002
100
AcDbArc
 50
227.5918765901
 51
244.6571631893
  0
ARC
  5
2B0
330
231
100
AcDbEntity
  8
DV3_Default
 62
     7
100
AcDbCircle
 10
208.6449310684
 20
699.8918461393
 30
0.0
 40
1.000000000000995
100
AcDbArc
 50
293.3428368108
 51
310.4081234099
  0
ARC
  5
2B1
330
231
100
AcDbEntity
  8
DV3_Default
 62
     7
100
AcDbCircle
 10
209.3977719868
 20
698.1473603837
 30
0.0
 40
0.9000000000001993
100
AcDbArc
 50
113.3428368107
 51
154.6571631892
  0
ARC
  5
2B2
330
231
100
AcDbEntity
  8
DV3_Default
 62
     7
100
AcDbCircle
 10
207.6806226939
 20
698.9606243666
 30
0.0
 40
0.9999999999994018
100
AcDbArc
 50
317.5918765901
 51
334.6571631893
  0
ARC
  5
2B3
330
231
100
AcDbEntity
  8
DV3_Default
 62
     7
100
AcDbCircle
 10
204.915710371
 20
692.6017613669
 30
0.0
 40
1.000000000002004
100
AcDbArc
 50
338.3428368108
 51
355.4081234099
  0
ARC
  5
2B4
330
231
100
AcDbEntity
  8
DV3_Default
 62
     7
100
AcDbCircle
 10
204.8923146105
 20
691.2614191459
 30
0.0
 40
0.9999999999980003
100
AcDbArc
 50
2.5918765901
 51
19.6571631893
  0
ARC
  5
2B5
330
231
100
AcDbEntity
  8
DV3_Default
 62
     7
100
AcDbCircle
 10
206.681586997
 20
691.900562578
 30
0.0
 40
0.9000000000002992
100
AcDbArc
 50
158.3428368107
 51
199.6571631893
  0
ARC
  5
2B6
330
231
100
AcDbEntity
  8
DV3_Default
 62
     7
100
AcDbCircle
 10
209.1781072609
 20
685.5627766636
 30
0.0
 40
0.8999999999992981
100
AcDbArc
 50
195.2705261703
 51
252.7294738301
  0
LINE
  5
2B7
330
231
100
AcDbEntity
  8
DV3_Default
 62
     7
100
AcDbLine
 10
218.1845651604
 20
701.0335199933
 30
0.0
 11
218.1845651604
 21
701.4947145434
 31
0.0
  0
LINE
  5
2B8
330
231
100
AcDbEntity
  8
DV3_Default
 62
     7
100
AcDbLine
 10
217.8846566862
 20
701.5707283794
 30
0.0
 11
217.8846566547
 21
701.1124339854
 31
0.0
  0
LINE
  5
2B9
330
231
100
AcDbEntity
  8
DV3_Default
 62
     7
100
AcDbLine
 10
213.6041205955
 20
701.18715102
 30
0.0
 11
213.6203510262
 21
701.6519306669
 31
0.0
  0
LINE
  5
2BA
330
231
100
AcDbEntity
  8
DV3_Default
 62
     7
100
AcDbLine
 10
213.3180348965
 20
701.5882193149
 30
0.0
 11
213.3016407281
 21
701.1187517563
 31
0.0
  0
ARC
  5
2BB
330
231
100
AcDbEntity
  8
DV3_Default
 62
     7
100
AcDbCircle
 10
230.0230469538
 20
685.6232782991
 30
0.0
 40
0.7499999999925505
100
AcDbArc
 50
270.1895983826
 51
358.8104016173
  0
ARC
  5
2BC
330
231
100
AcDbEntity
  8
DV3_Default
 62
     7
100
AcDbCircle
 10
215.6544070356
 20
700.2449125067
 30
0.0
 40
21.04319729374224
100
AcDbArc
 50
313.0733693188
 51
315.9266306812
  0
ARC
  5
2BD
330
231
100
AcDbEntity
  8
DV3_Default
 62
     7
100
AcDbCircle
 10
215.6544070356
 20
700.2449125067
 30
0.0
 40
21.04319729374
100
AcDbArc
 50
270.9266306812
 51
313.0733693188
  0
ARC
  5
2BE
330
231
100
AcDbEntity
  8
DV3_Default
 62
     7
100
AcDbCircle
 10
215.6544070356
 20
700.2449125067
 30
0.0
 40
21.04319729374224
100
AcDbArc
 50
315.9266306812
 51
358.0733693187
  0
ARC
  5
2BF
330
231
100
AcDbEntity
  8
DV3_Default
 62
     7
100
AcDbCircle
 10
215.6544070356
 20
700.2449125067
 30
0.0
 40
21.04319729374344
100
AcDbArc
 50
358.0733693187
 51
0.9266306813
  0
ARC
  5
2C0
330
231
100
AcDbEntity
  8
DV3_Default
 62
     7
100
AcDbCircle
 10
215.6544070356
 20
700.2449125067
 30
0.0
 40
21.04319729374344
100
AcDbArc
 50
0.9266306813
 51
43.0733693188
  0
ARC
  5
2C1
330
231
100
AcDbEntity
  8
DV3_Default
 62
     7
100
AcDbCircle
 10
215.6544070356
 20
700.2449125067
 30
0.0
 40
21.04319729374372
100
AcDbArc
 50
43.0733693188
 51
45.9266306812
  0
ARC
  5
2C2
330
231
100
AcDbEntity
  8
DV3_Default
 62
     7
100
AcDbCircle
 10
215.6544070356
 20
700.2449125067
 30
0.0
 40
21.04319729374372
100
AcDbArc
 50
45.9266306812
 51
88.0733693188
  0
ARC
  5
2C3
330
231
100
AcDbEntity
  8
DV3_Default
 62
     7
100
AcDbCircle
 10
215.6544070356
 20
700.2449125067
 30
0.0
 40
21.043197293745
100
AcDbArc
 50
88.0733693188
 51
90.9266306812
  0
CIRCLE
  5
2C4
330
231
100
AcDbEntity
  8
DV3_Default
 62
     7
100
AcDbCircle
 10
215.6544070356
 20
700.2449125067
 30
0.0
 40
21.00388257994
  0
ARC
  5
2C5
330
231
100
AcDbEntity
  8
DV3_Default
 62
     7
100
AcDbCircle
 10
215.6544070356
 20
700.2449125067
 30
0.0
 40
21.04319729374
100
AcDbArc
 50
268.0733693188
 51
270.9266306812
  0
ARC
  5
2C6
330
231
100
AcDbEntity
  8
DV3_Default
 62
     7
100
AcDbCircle
 10
215.4755130568
 20
679.7456930822
 30
0.0
 40
0.7499999979474431
100
AcDbArc
 50
225.1895983507
 51
269.5000000868
  0
ARC
  5
2C7
330
231
100
AcDbEntity
  8
DV3_Default
 62
     7
100
AcDbCircle
 10
215.475513059
 20
679.7456930823
 30
0.0
 40
0.7499999980669113
100
AcDbArc
 50
269.4999999162
 51
313.8104016446
  0
ARC
  5
2C8
330
231
100
AcDbEntity
  8
DV3_Default
 62
     7
100
AcDbCircle
 10
201.032772828
 20
685.8762725886
 30
0.0
 40
0.7500000000066284
100
AcDbArc
 50
180.1895983817
 51
268.8104016183
  0
ARC
  5
2C9
330
231
100
AcDbEntity
  8
DV3_Default
 62
     7
100
AcDbCircle
 10
215.6544070356
 20
700.2449125067
 30
0.0
 40
21.043197293745
100
AcDbArc
 50
223.0733693187
 51
225.9266306813
  0
ARC
  5
2CA
330
231
100
AcDbEntity
  8
DV3_Default
 62
     7
100
AcDbCircle
 10
215.6544070356
 20
700.2449125067
 30
0.0
 40
21.043197293745
100
AcDbArc
 50
90.9266306812
 51
133.0733693187
  0
ARC
  5
2CB
330
231
100
AcDbEntity
  8
DV3_Default
 62
     7
100
AcDbCircle
 10
215.6544070356
 20
700.2449125067
 30
0.0
 40
21.04319729374501
100
AcDbArc
 50
133.0733693187
 51
135.9266306813
  0
ARC
  5
2CC
330
231
100
AcDbEntity
  8
DV3_Default
 62
     7
100
AcDbCircle
 10
215.6544070356
 20
700.2449125067
 30
0.0
 40
21.04319729374499
100
AcDbArc
 50
135.9266306813
 51
178.0733693188
  0
ARC
  5
2CD
330
231
100
AcDbEntity
  8
DV3_Default
 62
     7
100
AcDbCircle
 10
215.6544070356
 20
700.2449125067
 30
0.0
 40
21.043197293745
100
AcDbArc
 50
178.0733693188
 51
180.9266306812
  0
ARC
  5
2CE
330
231
100
AcDbEntity
  8
DV3_Default
 62
     7
100
AcDbCircle
 10
215.6544070356
 20
700.2449125067
 30
0.0
 40
21.043197293745
100
AcDbArc
 50
180.9266306812
 51
223.0733693187
  0
ARC
  5
2CF
330
231
100
AcDbEntity
  8
DV3_Default
 62
     7
100
AcDbCircle
 10
215.6544070356
 20
700.2449125067
 30
0.0
 40
21.04319729374501
100
AcDbArc
 50
225.9266306813
 51
268.0733693188
  0
ARC
  5
2D0
330
231
100
AcDbEntity
  8
DV3_Default
 62
     7
100
AcDbCircle
 10
195.1551876128
 20
700.4238064844
 30
0.0
 40
0.7499999999999217
100
AcDbArc
 50
135.1895983827
 51
223.8104016173
  0
ARC
  5
2D1
330
231
100
AcDbEntity
  8
DV3_Default
 62
     7
100
AcDbCircle
 10
201.2857671175
 20
714.8665467144
 30
0.0
 40
0.7499999999995209
100
AcDbArc
 50
90.1895983816
 51
178.8104016184
  0
ARC
  5
2D2
330
231
100
AcDbEntity
  8
DV3_Default
 62
     7
100
AcDbCircle
 10
215.8333010134
 20
720.7441319295
 30
0.0
 40
0.7499999999999462
100
AcDbArc
 50
45.1895983821
 51
133.8104016176
  0
ARC
  5
2D3
330
231
100
AcDbEntity
  8
DV3_Default
 62
     7
100
AcDbCircle
 10
230.2760412433
 20
714.6135524249
 30
0.0
 40
0.7499999999996361
100
AcDbArc
 50
0.1895983826
 51
88.8104016175
  0
ARC
  5
2D4
330
231
100
AcDbEntity
  8
DV3_Default
 62
     7
100
AcDbCircle
 10
236.1536264585
 20
700.066018529
 30
0.0
 40
0.7499999999998186
100
AcDbArc
 50
315.1895983818
 51
43.8104016183
  0
ARC
  5
2D5
330
231
100
AcDbEntity
  8
DV3_Default
 62
     7
100
AcDbCircle
 10
215.5796974487
 20
691.7452408211
 30
0.0
 40
10.60595197264846
100
AcDbArc
 50
269.5028850903
 51
89.4971148976
  0
LINE
  5
2D6
330
231
100
AcDbEntity
  8
DV3_Default
 62
     7
100
AcDbLine
 10
215.4876782676
 20
681.1396880436
 30
0.0
 11
215.4920934753
 21
681.6456207377
 31
0.0
  0
LINE
  5
2D7
330
231
100
AcDbEntity
  8
DV3_Default
 62
     7
100
AcDbLine
 10
215.6683694945
 20
701.8448515836
 30
0.0
 11
215.6727847024
 21
702.3507842777
 31
0.0
  0
SPLINE
  5
2D8
330
231
100
AcDbEntity
  8
DV3_Default
 62
     7
100
AcDbSpline
210
0.0
220
0.0
230
1.0
 70
    12
 71
     3
 72
    46
 73
    42
 74
     0
 42
0.000000001
 43
0.0000000001
 40
0.0
 40
0.0
 40
0.0
 40
0.0
 40
0.0106677361948839
 40
0.0226291361302798
 40
0.034582981094375
 40
0.0463241704243561
 40
0.0589524002622962
 40
0.0734544367776609
 40
0.0892501118175117
 40
0.1043707794469176
 40
0.1185171422026587
 40
0.1328638379325131
 40
0.1475187391995881
 40
0.1620479044015547
 40
0.17655820944392
 40
0.1912625596776982
 40
0.2062168629497931
 40
0.2212377846318924
 40
0.2361919423384871
 40
0.2517662914324232
 40
0.2691731978612813
 40
0.2887849620324859
 40
0.3094792448546626
 40
0.329973389447426
 40
0.3500856506480641
 40
0.3705028726039222
 40
0.392340387246975
 40
0.4165301119987843
 40
0.443418004573073
 40
0.4730956896039473
 40
0.505950114580233
 40
0.5426618849520752
 40
0.5837007282141055
 40
0.6290713055710238
 40
0.6786790487743238
 40
0.731412256216432
 40
0.7851318433845057
 40
0.8388471860091793
 40
0.8926046379784555
 40
0.9461491019459776
 40
1.0
 40
1.0
 40
1.0
 40
1.0
 10
215.6683694945344
 20
701.8448515836011
 30
0.0
 41
1.174477069811713
 10
215.7810389836704
 20
701.843868295039
 30
0.0
 41
1.174477069811713
 10
216.0200181739974
 20
701.8377826448694
 30
0.0
 41
1.174477069811713
 10
216.3847092933141
 20
701.8155238501848
 30
0.0
 41
1.174477069811713
 10
216.7596358591316
 20
701.7784818221251
 30
0.0
 41
1.174477069811713
 10
217.1399481687989
 20
701.7265709158238
 30
0.0
 41
1.174477069811713
 10
217.544580133099
 20
701.6554883033021
 30
0.0
 41
1.174477069811713
 10
217.9877563853848
 20
701.5580238126149
 30
0.0
 41
1.174477069811713
 10
218.4513063898009
 20
701.4327054416749
 30
0.0
 41
1.174477069811713
 10
218.9046640641451
 20
701.2861991308195
 30
0.0
 41
1.174477069811713
 10
219.3364660509739
 20
701.1244023677494
 30
0.0
 41
1.174477069811713
 10
219.7560907573263
 20
700.9453837185412
 30
0.0
 41
1.174477069811713
 10
220.1707959256704
 20
700.7456875352162
 30
0.0
 41
1.174477069811713
 10
220.577446316359
 20
700.5263833484485
 30
0.0
 41
1.174477069811713
 10
220.9741329424712
 20
700.2885018154792
 30
0.0
 41
1.174477069811713
 10
221.3632486009868
 20
700.0301905447736
 30
0.0
 41
1.174477069811713
 10
221.7442814018148
 20
699.7508484613162
 30
0.0
 41
1.174477069811713
 10
222.1138091944032
 20
699.4522266092946
 30
0.0
 41
1.174477069811713
 10
222.4737795029618
 20
699.1321945889537
 30
0.0
 41
1.174477069811713
 10
222.8360465248075
 20
698.777622753927
 30
0.0
 41
1.174477069811713
 10
223.2128842436895
 20
698.3685050313982
 30
0.0
 41
1.174477069811713
 10
223.5996842275866
 20
697.8962279506596
 30
0.0
 41
1.174477069811713
 10
223.9749199606681
 20
697.3738713694217
 30
0.0
 41
1.174477069811713
 10
224.3184107986137
 20
696.8238731801964
 30
0.0
 41
1.174477069811713
 10
224.6247610507039
 20
696.2557006818746
 30
0.0
 41
1.174477069811713
 10
224.9002986508068
 20
695.6562720211048
 30
0.0
 41
1.174477069811713
 10
225.1508898515741
 20
694.9995301976061
 30
0.0
 41
1.174477069811713
 10
225.3731645438652
 20
694.260721157754
 30
0.0
 41
1.174477069811713
 10
225.5530279530022
 20
693.4251866697798
 30
0.0
 41
1.174477069811713
 10
225.6693561186082
 20
692.4857382313832
 30
0.0
 41
1.174477069811713
 10
225.6956167961023
 20
691.4351018579691
 30
0.0
 41
1.174477069811713
 10
225.5969791995437
 20
690.2674644726438
 30
0.0
 41
1.174477069811713
 10
225.3294917724697
 20
688.9900416703374
 30
0.0
 41
1.174477069811713
 10
224.8454079975548
 20
687.630960590313
 30
0.0
 41
1.174477069811713
 10
224.105585691225
 20
686.2486766341673
 30
0.0
 41
1.174477069811713
 10
223.0995913664548
 20
684.9315891249696
 30
0.0
 41
1.174477069811713
 10
221.8561913947021
 20
683.7704909067959
 30
0.0
 41
1.174477069811713
 10
220.4262893148232
 20
682.8289089025382
 30
0.0
 41
1.174477069811713
 10
218.8600116704748
 20
682.1418802385914
 30
0.0
 41
1.174477069811713
 10
217.1996899522698
 20
681.7271593663072
 30
0.0
 41
1.174477069811713
 10
216.0615157612623
 20
681.6406688905183
 30
0.0
 41
1.174477069811713
 10
215.4920934753454
 20
681.64562073772
 30
0.0
 41
1.174477069811713
  0
LINE
  5
2D9
330
231
100
AcDbEntity
  8
DV3_Default
 62
     7
100
AcDbLine
 10
208.994262061
 20
684.6253394652
 30
0.0
 11
208.7232542196
 21
684.329586304
 31
0.0
  0
SPLINE
  5
2DA
330
231
100
AcDbEntity
  8
DV3_Default
 62
     7
100
AcDbSpline
210
0.0
220
0.0
230
1.0
 70
    12
 71
     3
 72
    57
 73
    53
 74
     0
 42
0.000000001
 43
0.0000000001
 40
0.0
 40
0.0
 40
0.0
 40
0.0
 40
0.0169091533807803
 40
0.0351973024546694
 40
0.0552453853930418
 40
0.0774338926838726
 40
0.1021438754898363
 40
0.1297585535092077
 40
0.1606664703731611
 40
0.1953024244846677
 40
0.234243907883889
 40
0.2787215766655439
 40
0.3289632140352171
 40
0.381139327157562
 40
0.4298243464144383
 40
0.4740549207315095
 40
0.5134979137948976
 40
0.5482538512273963
 40
0.5791201979902524
 40
0.6067737753941213
 40
0.6314189173048893
 40
0.6534603255717298
 40
0.6740312644960678
 40
0.6943011437543254
 40
0.7148307772332659
 40
0.7352676515546127
 40
0.7542976709671526
 40
0.77110220400014
 40
0.7864111343203263
 40
0.8012548489619433
 40
0.8158635830803759
 40
0.8300875106276341
 40
0.8440460887859098
 40
0.8579819651146869
 40
0.8720798831992534
 40
0.8861963548297187
 40
0.8998493827890147
 40
0.9125728403434721
 40
0.9239787707593068
 40
0.9340605732587393
 40
0.9430101385024466
 40
0.9510520625487342
 40
0.9583150733573632
 40
0.9649079013395366
 40
0.9709086514003893
 40
0.9763579586848385
 40
0.9812992858648213
 40
0.9857786019871146
 40
0.9898424649626255
 40
0.9935370795170619
 40
0.9969079700665386
 40
1.0
 40
1.0
 40
1.0
 40
1.0
 10
215.4920934753454
 20
681.64562073772
 30
0.0
 41
1.174477069789948
 10
215.3133126687387
 20
681.6471811175675
 30
0.0
 41
1.174477069789948
 10
214.9412066093909
 20
681.6603139612885
 30
0.0
 41
1.174477069789948
 10
214.3591768656616
 20
681.7131657129034
 30
0.0
 41
1.174477069789948
 10
213.726084139437
 20
681.8093416749202
 30
0.0
 41
1.174477069789948
 10
213.0343112424233
 20
681.9619278145263
 30
0.0
 41
1.174477069789948
 10
212.2787892813941
 20
682.1880060237571
 30
0.0
 41
1.174477069789948
 10
211.4582324765909
 20
682.509047697295
 30
0.0
 41
1.174477069789948
 10
210.5764033032435
 20
682.9513051445255
 30
0.0
 41
1.174477069789948
 10
209.6432016932474
 20
683.5466032991782
 30
0.0
 41
1.174477069789948
 10
208.6729173901928
 20
684.3367437189695
 30
0.0
 41
1.174477069789948
 10
207.6999744606868
 20
685.3680210852007
 30
0.0
 41
1.174477069789948
 10
206.8097969778474
 20
686.6486714394904
 30
0.0
 41
1.174477069789948
 10
206.1169420899519
 20
688.096278386949
 30
0.0
 41
1.174477069789948
 10
205.679754326653
 20
689.5729636418031
 30
0.0
 41
1.174477069789948
 10
205.4813220447286
 20
690.9628088668874
 30
0.0
 41
1.174477069789948
 10
205.4683501258602
 20
692.2180969035808
 30
0.0
 41
1.174477069789948
 10
205.5863754465203
 20
693.32487087807
 30
0.0
 41
1.174477069789948
 10
205.7916237530554
 20
694.2910488333425
 30
0.0
 41
1.174477069789948
 10
206.0528437089634
 20
695.1318025143405
 30
0.0
 41
1.174477069789948
 10
206.3471445541697
 20
695.8614570015503
 30
0.0
 41
1.174477069789948
 10
206.6609866634414
 20
696.5001844476919
 30
0.0
 41
1.174477069789948
 10
206.9936551768433
 20
697.0763421216176
 30
0.0
 41
1.174477069789948
 10
207.3536918953275
 20
697.6166709856188
 30
0.0
 41
1.174477069789948
 10
207.7467336685802
 20
698.1317187523367
 30
0.0
 41
1.174477069789948
 10
208.1634620697074
 20
698.6105330470617
 30
0.0
 41
1.174477069789948
 10
208.581342479392
 20
699.034504302613
 30
0.0
 41
1.174477069789948
 10
208.9821571648035
 20
699.3978166077027
 30
0.0
 41
1.174477069789948
 10
209.3664777146506
 20
699.7123894931825
 30
0.0
 41
1.174477069789948
 10
209.7465988167663
 20
699.9945689009573
 30
0.0
 41
1.174477069789948
 10
210.1298320226858
 20
700.2524611019496
 30
0.0
 41
1.174477069789948
 10
210.5163385125387
 20
700.4878675739748
 30
0.0
 41
1.174477069789948
 10
210.9066360884514
 20
700.7025104704235
 30
0.0
 41
1.174477069789948
 10
211.3047568292205
 20
700.8992640161955
 30
0.0
 41
1.174477069789948
 10
211.7126734748524
 20
701.0789788997997
 30
0.0
 41
1.174477069789948
 10
212.1253509709048
 20
701.2393644288867
 30
0.0
 41
1.174477069789948
 10
212.530840199762
 20
701.3769322498409
 30
0.0
 41
1.174477069789948
 10
212.9141441661761
 20
701.4895080882873
 30
0.0
 41
1.174477069789948
 10
213.2647923051921
 20
701.5782158427565
 30
0.0
 41
1.174477069789948
 10
213.5792104056244
 20
701.6465644431285
 30
0.0
 41
1.174477069789948
 10
213.8605409218549
 20
701.698972978291
 30
0.0
 41
1.174477069789948
 10
214.1137187689656
 20
701.7391833092992
 30
0.0
 41
1.174477069789948
 10
214.3430816267945
 20
701.7699831664429
 30
0.0
 41
1.174477069789948
 10
214.5516055330893
 20
701.7933812593164
 30
0.0
 41
1.174477069789948
 10
214.7414517619958
 20
701.8108923540162
 30
0.0
 41
1.174477069789948
 10
214.9141676140042
 20
701.823698602235
 30
0.0
 41
1.174477069789948
 10
215.0710121007073
 20
701.8327596960617
 30
0.0
 41
1.174477069789948
 10
215.2133429816125
 20
701.8388731240228
 30
0.0
 41
1.174477069789948
 10
215.3425731566042
 20
701.8426893436151
 30
0.0
 41
1.174477069789948
 10
215.4601292956023
 20
701.844729060695
 30
0.0
 41
1.174477069789948
 10
215.567432654198
 20
701.8454012298494
 30
0.0
 41
1.174477069789948
 10
215.6357068636635
 20
701.8451366258691
 30
0.0
 41
1.174477069789948
 10
215.6683694945344
 20
701.8448515836011
 30
0.0
 41
1.174477069789948
  0
LINE
  5
2DB
330
231
100
AcDbEntity
  8
DV3_Default
 62
     7
100
AcDbLine
 10
215.3930505083
 20
681.7557221871
 30
0.0
 11
215.5930428929
 21
681.75397688
 31
0.0
  0
ARC
  5
2DC
330
231
100
AcDbEntity
  8
DV3_Default
 62
     7
100
AcDbCircle
 10
215.3886872406
 20
681.2557412255
 30
0.0
 40
0.4999999999970028
100
AcDbArc
 50
89.5
 51
126.6067342547
  0
ARC
  5
2DD
330
231
100
AcDbEntity
  8
DV3_Default
 62
     7
100
AcDbCircle
 10
215.5886796252
 20
681.2539959185
 30
0.0
 40
0.500000000000085
100
AcDbArc
 50
52.393265745
 51
89.5
  0
ARC
  5
2DE
330
231
100
AcDbEntity
  8
DV3_Default
 62
     7
100
AcDbCircle
 10
215.5808762263
 20
691.7452305341
 30
0.0
 40
10.60595197880097
100
AcDbArc
 50
89.5034831665
 51
269.4965168214
  0
ARC
  5
2DF
330
231
100
AcDbEntity
  8
DV3_Default
 62
     7
100
AcDbCircle
 10
206.9899454752
 20
687.4595639509
 30
0.0
 40
0.5000000000012044
100
AcDbArc
 50
206.5144939944
 51
286.5696406853
  0
ARC
  5
2E0
330
231
100
AcDbEntity
  8
DV3_Default
 62
     7
100
AcDbCircle
 10
224.8537476596
 20
694.227553171
 30
0.0
 40
0.5000000000000075
100
AcDbArc
 50
294.9303593155
 51
14.9855060058
  0
LINE
  5
2E1
330
231
100
AcDbEntity
  8
DV3_Default
 62
     7
100
AcDbLine
 10
225.6295620989
 20
690.7348133827
 30
0.0
 11
225.2306172518
 21
690.7767441758
 31
0.0
  0
ARC
  5
2E2
330
231
100
AcDbEntity
  8
DV3_Default
 62
     7
100
AcDbCircle
 10
211.6613150575
 20
701.0539468148
 30
0.0
 40
0.3000000000007026
100
AcDbArc
 50
203.6817859855
 51
21.9798685801
  0
ARC
  5
2E3
330
231
100
AcDbEntity
  8
DV3_Default
 62
     7
100
AcDbCircle
 10
219.6610101827
 20
700.984134365
 30
0.0
 40
0.2999998145122021
100
AcDbArc
 50
157.0200829446
 51
335.3182635546
  0
LINE
  5
2E4
330
231
100
AcDbEntity
  8
DV3_Default
 62
     7
100
AcDbLine
 10
225.2678519971
 20
689.04270234
 30
0.0
 11
225.2678519971
 21
690.0373107254
 31
0.0
  0
ARC
  5
2E5
330
231
100
AcDbEntity
  8
DV3_Default
 62
     7
100
AcDbCircle
 10
215.7678519971
 20
700.2444175066
 30
0.0
 40
8.000000000000218
100
AcDbArc
 50
340.6597015622
 51
344.1661063956
  0
ARC
  5
2E6
330
231
100
AcDbEntity
  8
DV3_Default
 62
     7
100
AcDbCircle
 10
215.7678519971
 20
700.2444175066
 30
0.0
 40
7.563025210094239
100
AcDbArc
 50
342.7546732477
 51
346.7135565574
  0
LINE
  5
2E7
330
231
100
AcDbEntity
  8
DV3_Default
 62
     7
100
AcDbLine
 10
219.266476269
 20
700.8444175066
 30
0.0
 11
218.783303336
 21
700.8444175066
 31
0.0
  0
ARC
  5
2E8
330
231
100
AcDbEntity
  8
DV3_Default
 62
     7
100
AcDbCircle
 10
112.0268336651
 20
700.2444175065
 30
0.0
 40
107.2413210744998
100
AcDbArc
 50
0.2216409677
 51
0.3205634425
  0
ARC
  5
2E9
330
231
100
AcDbEntity
  8
DV3_Default
 62
     7
100
AcDbCircle
 10
215.7678519971
 20
700.2444175066
 30
0.0
 40
7.999999999998026
100
AcDbArc
 50
193.2786804075
 51
196.8110859281
  0
ARC
  5
2EA
330
231
100
AcDbEntity
  8
DV3_Default
 62
     7
100
AcDbCircle
 10
215.7678519971
 20
700.2444175066
 30
0.0
 40
7.563025210093505
100
AcDbArc
 50
190.8033396438
 51
194.7031522341
  0
LINE
  5
2EB
330
231
100
AcDbEntity
  8
DV3_Default
 62
     7
100
AcDbLine
 10
212.3771596318
 20
700.8444175066
 30
0.0
 11
212.2692277253
 21
700.8444175066
 31
0.0
  0
CIRCLE
  5
2EC
330
231
100
AcDbEntity
  8
DV3_Default
 62
     7
100
AcDbCircle
 10
215.7678519971
 20
700.2444175066
 30
0.0
 40
30.02604788182
  0
CIRCLE
  5
2ED
330
231
100
AcDbEntity
  8
DV3_Default
 62
     7
100
AcDbCircle
 10
215.7678519971
 20
700.2444175066
 30
0.0
 40
30.11886508327
  0
CIRCLE
  5
2EE
330
231
100
AcDbEntity
  8
DV3_Default
 62
     7
100
AcDbCircle
 10
215.7678519971
 20
700.2444175066
 30
0.0
 40
21.3956365661
  0
LINE
  5
2EF
330
231
100
AcDbEntity
  8
DV3_Default
 62
     7
100
AcDbLine
 10
225.4890089081
 20
689.8161538144
 30
0.0
 11
225.1481680964
 21
690.1569946261
 31
0.0
  0
LINE
  5
2F0
330
231
100
AcDbEntity
  8
DV3_Default
 62
     7
100
AcDbLine
 10
205.5818246885
 20
690.7654969791
 30
0.0
 11
205.9037060109
 21
691.0873783015
 31
0.0
  0
LINE
  5
2F1
330
231
100
AcDbEntity
  8
DV3_Default
 62
     7
100
AcDbLine
 10
206.0703752882
 20
689.8398340165
 30
0.0
 11
205.7515646905
 21
689.5210234187
 31
0.0
  0
LINE
  5
2F2
330
231
100
AcDbEntity
  8
DV3_Default
 62
     7
100
AcDbLine
 10
216.2678519971
 20
681.7113023392
 30
0.0
 11
216.2678519971
 21
682.0707800921
 31
0.0
  0
LINE
  5
2F3
330
231
100
AcDbEntity
  8
DV3_Default
 62
     7
100
AcDbLine
 10
215.2678519971
 20
682.0514060998
 30
0.0
 11
215.2678519971
 21
681.740920413
 31
0.0
  0
LINE
  5
2F4
330
231
100
AcDbEntity
  8
DV3_Default
 62
     7
100
AcDbLine
 10
223.5454390805
 20
686.2113957098
 30
0.0
 11
224.0521711657
 21
686.2264163234
 31
0.0
  0
SPLINE
  5
2F5
330
231
100
AcDbEntity
  8
DV3_Default
 62
     7
100
AcDbSpline
210
0.0
220
0.0
230
1.0
 70
     8
 71
     5
 72
    12
 73
     6
 74
     0
 42
0.000000001
 43
0.0000000001
 40
0.0
 40
0.0
 40
0.0
 40
0.0
 40
0.0
 40
0.0
 40
1.0
 40
1.0
 40
1.0
 40
1.0
 40
1.0
 40
1.0
 10
71.36473971220659
 20
543.0736240225124
 30
0.0
 10
63.74475563986434
 20
543.1901350363264
 30
0.0
 10
54.22097150783403
 20
543.3474443579748
 30
0.0
 10
46.07609047976852
 20
535.3247197260163
 30
0.0
 10
46.04328026089843
 20
525.7887425649984
 30
0.0
 10
46.01742168717879
 20
518.1595501412208
 30
0.0
  0
ARC
  5
2F6
330
231
100
AcDbEntity
  8
DV3_Default
 62
     7
100
AcDbCircle
 10
110034.6101953753
 20
131.8565498689
 30
0.0
 40
109989.2711601646
100
AcDbArc
 50
179.798766036
 51
179.9387686376
  0
ARC
  5
2F7
330
231
100
AcDbEntity
  8
DV3_Default
 62
     7
100
AcDbCircle
 10
187.8379875946
 20
8299.4973683516
 30
0.0
 40
7757.298197121493
100
AcDbArc
 50
269.1396906334
 51
269.5394771896
  0
LINE
  5
2F8
330
231
100
AcDbEntity
  8
DV3_Default
 62
     7
100
AcDbLine
 10
125.4882939162
 20
542.4497447539
 30
0.0
 11
306.0450945621
 21
542.4497445283
 31
0.0
  0
SPLINE
  5
2F9
330
231
100
AcDbEntity
  8
DV3_Default
 62
     7
100
AcDbSpline
210
0.0
220
0.0
230
1.0
 70
     8
 71
     3
 72
    12
 73
     8
 74
     0
 42
0.000000001
 43
0.0000000001
 40
0.0
 40
0.0
 40
0.0
 40
0.0
 40
0.854286692649168
 40
0.854286692649168
 40
0.854286692649168
 40
0.9185829487547027
 40
0.9999999999999999
 40
0.9999999999999999
 40
0.9999999999999999
 40
0.9999999999999999
 10
385.3006228960664
 20
523.7845169761582
 30
0.0
 10
393.5599819584782
 20
519.3942163653571
 30
0.0
 10
396.7343106888804
 20
512.0068791253816
 30
0.0
 10
397.4459265349002
 20
504.4620615593896
 30
0.0
 10
397.5181562434236
 20
503.6962551531637
 30
0.0
 10
397.6243489774841
 20
501.9570466655466
 30
0.0
 10
397.6317712033831
 20
500.2146687442661
 30
0.0
 10
397.6359182574671
 20
499.2411181803428
 30
0.0
  0
ARC
  5
2FA
330
231
100
AcDbEntity
  8
DV3_Default
 62
     7
100
AcDbCircle
 10
365.1508082396
 20
527.6577494892
 30
0.0
 40
31.57411649273141
100
AcDbArc
 50
336.9613152563
 51
50.599751058
  0
ENDBLK
  5
2FC
330
231
100
AcDbEntity
  8
0
100
AcDbBlockEnd
  0
ENDSEC
  0
SECTION
  2
ENTITIES
  0
INSERT
  5
70
330
1F
100
AcDbEntity
  8
Default
100
AcDbBlockReference
  2
SEANNOT_GROUP
 10
0.0
 20
0.0
 30
0.0
  0
INSERT
  5
76
330
1F
100
AcDbEntity
  8
Default
100
AcDbBlockReference
  2
SEANNOT_GROUP1
 10
0.0
 20
0.0
 30
0.0
  0
INSERT
  5
7C
330
1F
100
AcDbEntity
  8
Default
100
AcDbBlockReference
  2
SE
 10
0.0
 20
0.0
 30
0.0
  0
INSERT
  5
151
330
1F
100
AcDbEntity
  8
Default
100
AcDbBlockReference
  2
SE1
 10
0.0
 20
0.0
 30
0.0
  0
INSERT
  5
232
330
1F
100
AcDbEntity
  8
Default
100
AcDbBlockReference
  2
SE2
 10
0.0
 20
0.0
 30
0.0
  0
MTEXT
  5
2FD
330
1F
100
AcDbEntity
  8
Default
100
AcDbMText
 10
5.9362635081
 20
63.4225120485
 30
0.0
 40
10.0
 41
113.8626497168
 46
65.4545454545
 71
     1
 72
     1
  1
{\fArial Narrow|b0||i0||c0|p34;\C7;\H10.;\W1.;Grohe AG\P}{\fArial Narrow|b0||i0||c0|p34;\C7;\H10.;\W1.;\P}{\fArial Narrow|b0||i0||c0|p34;\C7;\H10.;\W1.;ecn:\P}{\fArial Narrow|b0||i0||c0|p34;\C7;\H10.;\W1.;unit: mm}
 73
     1
 44
1.0
1001
ACAD
1000
ACAD_MTEXT_DEFINED_HEIGHT_BEGIN
1070
    46
1040
65.4545454545
1000
ACAD_MTEXT_DEFINED_HEIGHT_END
  0
LINE
  5
2FE
330
1F
100
AcDbEntity
  8
Default
 62
     7
100
AcDbLine
 10
0.0
 20
0.0
 30
0.0
 11
100.0
 21
0.0
 31
0.0
  0
LINE
  5
2FF
330
1F
100
AcDbEntity
  8
Default
 62
     7
100
AcDbLine
 10
0.0
 20
0.0
 30
0.0
 11
0.0
 21
100.0
 31
0.0
  0
MTEXT
  5
300
330
1F
100
AcDbEntity
  8
Default
100
AcDbMText
 10
24.3923665681
 20
-8.2375342018
 30
0.0
 40
10.0
 41
35.00001
 46
16.3636363636
 71
     1
 72
     1
  1
{\fArial Narrow|b0||i0||c0|p34;\C7;\H10.;\W0.82;100 mm}
 73
     1
 44
1.0
1001
ACAD
1000
ACAD_MTEXT_DEFINED_HEIGHT_BEGIN
1070
    46
1040
16.3636363636
1000
ACAD_MTEXT_DEFINED_HEIGHT_END
  0
MTEXT
  5
301
330
1F
100
AcDbEntity
  8
Default
100
AcDbMText
 10
-17.6150308803
 20
24.6231930421
 30
0.0
 40
10.0
 41
35.00001
 46
16.3636363636
 71
     1
 72
     1
  1
{\fArial Narrow|b0||i0||c0|p34;\C7;\H10.;\W0.82;100 mm}
 11
6.123233995736766E-17
 21
1.0
 31
0.0
 73
     1
 44
1.0
1001
ACAD
1000
ACAD_MTEXT_DEFINED_HEIGHT_BEGIN
1070
    46
1040
16.3636363636
1000
ACAD_MTEXT_DEFINED_HEIGHT_END
  0
MTEXT
  5
302
330
1F
100
AcDbEntity
  8
Default
100
AcDbMText
 10
28.4878128572
 20
24.8634936442
 30
0.0
 40
10.0
 41
86.691737001
 46
16.3636363636
 71
     4
 72
     1
  1
{\fArial Narrow|b0||i0||c0|p34;\C7;\H10.;\W1.;251688}
 73
     1
 44
1.0
1001
ACAD
1000
ACAD_MTEXT_DEFINED_HEIGHT_BEGIN
1070
    46
1040
16.3636363636
1000
ACAD_MTEXT_DEFINED_HEIGHT_END
  0
MTEXT
  5
303
330
1F
100
AcDbEntity
  8
Default
100
AcDbMText
 10
5.9012241913
 20
41.4970052916
 30
0.0
 40
10.0
 41
109.9146987306
 46
16.3636363636
 71
     4
 72
     1
  1
{\fArial Narrow|b0||i0||c0|p34;\C7;\H10.;\W1.;39951000}
 73
     1
 44
1.0
1001
ACAD
1000
ACAD_MTEXT_DEFINED_HEIGHT_BEGIN
1070
    46
1040
16.3636363636
1000
ACAD_MTEXT_DEFINED_HEIGHT_END
  0
ENDSEC
  0
SECTION
  2
OBJECTS
  0
DICTIONARY
  5
C
330
0
100
AcDbDictionary
281
     1
  3
ACAD_DETAILVIEWSTYLE
350
33F
  3
ACAD_GROUP
350
D
  3
ACAD_LAYOUT
350
1A
  3
ACAD_MATERIAL
350
43
  3
ACAD_MLEADERSTYLE
350
6B
  3
ACAD_MLINESTYLE
350
17
  3
ACAD_PLOTSETTINGS
350
19
  3
ACAD_PLOTSTYLENAME
350
E
  3
ACAD_SCALELIST
350
47
  3
ACAD_SECTIONVIEWSTYLE
350
340
  3
ACAD_TABLESTYLE
350
69
  3
ACAD_VISUALSTYLE
350
2A
  3
ACDB_RECOMPOSE_DATA
350
33C
  3
AcDbVariableDictionary
350
304
  0
SUN
  5
6D
330
29
100
AcDbSun
 90
        1
290
     0
 63
     7
421
 16777215
 40
1.0
291
     1
 91
  2455826
 92
 54000000
292
     0
 70
     2
 71
   256
280
     1
  0
DICTIONARY
  5
33F
102
{ACAD_REACTORS
330
C
102
}
330
C
100
AcDbDictionary
281
     1
  0
DICTIONARY
  5
D
102
{ACAD_REACTORS
330
C
102
}
330
C
100
AcDbDictionary
281
     1
  0
DICTIONARY
  5
1A
102
{ACAD_REACTORS
330
C
102
}
330
C
100
AcDbDictionary
281
     1
  3
Layout1
350
1E
  3
Model
350
22
  0
DICTIONARY
  5
43
102
{ACAD_REACTORS
330
C
102
}
330
C
100
AcDbDictionary
281
     1
  3
ByBlock
350
45
  3
ByLayer
350
44
  3
Global
350
46
  0
DICTIONARY
  5
6B
102
{ACAD_REACTORS
330
C
102
}
330
C
100
AcDbDictionary
281
     1
  3
Standard
350
6C
  0
DICTIONARY
  5
17
102
{ACAD_REACTORS
330
C
102
}
330
C
100
AcDbDictionary
281
     1
  3
Standard
350
18
  0
DICTIONARY
  5
19
102
{ACAD_REACTORS
330
C
102
}
330
C
100
AcDbDictionary
281
     1
  0
ACDBDICTIONARYWDFLT
  5
E
102
{ACAD_REACTORS
330
C
102
}
330
C
100
AcDbDictionary
281
     1
  3
Normal
350
F
100
AcDbDictionaryWithDefault
340
F
  0
DICTIONARY
  5
47
102
{ACAD_REACTORS
330
C
102
}
330
C
100
AcDbDictionary
281
     1
  3
A0
350
48
  3
A1
350
49
  3
A2
350
4A
  3
A3
350
4B
  3
A4
350
4C
  3
A5
350
4D
  3
A6
350
4E
  3
A7
350
4F
  3
A8
350
50
  3
A9
350
51
  3
B0
350
52
  3
B1
350
53
  3
B2
350
54
  3
B3
350
55
  3
B4
350
56
  3
B5
350
57
  3
B6
350
58
  3
B7
350
59
  3
B8
350
5A
  3
B9
350
5B
  3
C0
350
5C
  3
C1
350
5D
  3
C2
350
5E
  3
C3
350
5F
  3
C4
350
60
  3
C5
350
61
  3
C6
350
62
  3
C7
350
63
  3
C8
350
64
  3
C9
350
65
  3
D0
350
66
  3
D1
350
67
  3
D2
350
68
  0
DICTIONARY
  5
340
102
{ACAD_REACTORS
330
C
102
}
330
C
100
AcDbDictionary
281
     1
  0
DICTIONARY
  5
69
102
{ACAD_REACTORS
330
C
102
}
330
C
100
AcDbDictionary
281
     1
  3
Standard
350
6A
  0
DICTIONARY
  5
2A
102
{ACAD_REACTORS
330
C
102
}
330
C
100
AcDbDictionary
281
     1
  3
2dWireframe
350
2F
  3
Basic
350
32
  3
Brighten
350
36
  3
ColorChange
350
3A
  3
Conceptual
350
34
  3
Dim
350
35
  3
EdgeColorOff
350
3D
  3
Facepattern
350
39
  3
Flat
350
2B
  3
FlatWithEdges
350
2C
  3
Gouraud
350
2D
  3
GouraudWithEdges
350
2E
  3
Hidden
350
31
  3
JitterOff
350
3B
  3
Linepattern
350
38
  3
OverhangOff
350
3C
  3
Realistic
350
33
  3
Shaded
350
42
  3
Shaded with edges
350
41
  3
Shades of Gray
350
3E
  3
Sketchy
350
3F
  3
Thicken
350
37
  3
Wireframe
350
30
  3
X-Ray
350
40
  0
XRECORD
  5
33C
102
{ACAD_REACTORS
330
C
102
}
330
C
100
AcDbXrecord
280
     1
 90
        1
330
6A
  0
DICTIONARY
  5
304
102
{ACAD_REACTORS
330
C
102
}
330
C
100
AcDbDictionary
281
     1
  3
CANNOSCALE
350
305
  3
CENTEREXE
350
341
  3
CENTERLTYPEFILE
350
342
  3
CMLEADERSTYLE
350
33E
  3
CTABLESTYLE
350
33D
  3
XCLIPFRAME
350
306
  0
LAYOUT
  5
1E
102
{ACAD_REACTORS
330
1A
102
}
330
1A
100
AcDbPlotSettings
  1

  2
none_device
  4

  6

 40
0.0
 41
0.0
 42
0.0
 43
0.0
 44
0.0
 45
0.0
 46
0.0
 47
0.0
 48
0.0
 49
0.0
140
0.0
141
0.0
142
1.0
143
1.0
 70
   688
 72
     1
 73
     0
 74
     5
  7

 75
    16
 76
     0
 77
     2
 78
   300
147
1.0
148
0.0
149
0.0
100
AcDbLayout
  1
Layout1
 70
     1
 71
     1
 10
0.0
 20
0.0
 11
3000.0
 21
4500.0
 12
0.0
 22
0.0
 32
0.0
 14
0.0
 24
0.0
 34
0.0
 15
3000.0
 25
4500.0
 35
0.0
146
0.0
 13
0.0
 23
0.0
 33
0.0
 16
1.0
 26
0.0
 36
0.0
 17
0.0
 27
1.0
 37
0.0
 76
     0
330
1B
  0
LAYOUT
  5
22
102
{ACAD_REACTORS
330
1A
102
}
330
1A
100
AcDbPlotSettings
  1

  2
none_device
  4
Letter_(8.50_x_11.00_Inches)
  6

 40
6.35
 41
6.35
 42
6.35000508
 43
6.35000508
 44
215.9
 45
279.4
 46
0.0
 47
0.0
 48
0.0
 49
0.0
140
0.0
141
0.0
142
1.0
143
1.0
 70
  1712
 72
     1
 73
     0
 74
     0
  7

 75
     0
 76
     0
 77
     2
 78
   300
147
1.0
148
0.0
149
0.0
100
AcDbLayout
  1
Model
 70
     1
 71
     0
 10
0.0
 20
0.0
 11
3000.0
 21
4500.0
 12
0.0
 22
0.0
 32
0.0
 14
0.0
 24
0.0
 34
0.0
 15
3000.0
 25
4500.0
 35
0.0
146
0.0
 13
0.0
 23
0.0
 33
0.0
 16
1.0
 26
0.0
 36
0.0
 17
0.0
 27
1.0
 37
0.0
 76
     0
330
1F
331
29
  0
MATERIAL
  5
45
102
{ACAD_REACTORS
330
43
102
}
330
43
100
AcDbMaterial
  1
ByBlock
 72
     1
 94
      127
  0
MATERIAL
  5
44
102
{ACAD_REACTORS
330
43
102
}
330
43
100
AcDbMaterial
  1
ByLayer
 72
     1
 94
      127
  0
MATERIAL
  5
46
102
{ACAD_REACTORS
330
43
102
}
330
43
100
AcDbMaterial
  1
Global
 72
     1
 94
      127
  0
MLEADERSTYLE
  5
6C
102
{ACAD_REACTORS
330
6B
102
}
102
{ACAD_XDICTIONARY
360
33A
102
}
330
6B
100
AcDbMLeaderStyle
170
     2
171
     1
172
     0
 90
        2
 40
0.0
 41
0.0
173
     1
 91
-1056964608
340
14
 92
       -2
290
     1
 42
2.0
291
     1
 43
8.0
  3
Standard
341
0
 44
4.0
300

342
11
174
     1
178
     6
175
     1
176
     0
 93
-1056964608
 45
4.0
292
     0
297
     0
 46
4.0
343
0
 94
-1056964608
 47
1.0
 49
1.0
140
1.0
293
     1
141
0.0
294
     1
177
     0
142
1.0
295
     0
296
     0
143
3.75
1001
ACAD_MLEADERVER
1070
     2
  0
MLINESTYLE
  5
18
102
{ACAD_REACTORS
330
17
102
}
330
17
100
AcDbMlineStyle
  2
Standard
 70
     0
  3

 62
   256
 51
90.0
 52
90.0
 71
     2
 49
0.5
 62
   256
  6
BYLAYER
 49
-0.5
 62
   256
  6
BYLAYER
  0
ACDBPLACEHOLDER
  5
F
102
{ACAD_REACTORS
330
E
102
}
330
E
  0
SCALE
  5
48
102
{ACAD_REACTORS
330
47
102
}
330
47
100
AcDbScale
 70
     0
300
1:1
140
1.0
141
1.0
290
     1
  0
SCALE
  5
49
102
{ACAD_REACTORS
330
47
102
}
330
47
100
AcDbScale
 70
     0
300
1:2
140
1.0
141
2.0
290
     0
  0
SCALE
  5
4A
102
{ACAD_REACTORS
330
47
102
}
330
47
100
AcDbScale
 70
     0
300
1:4
140
1.0
141
4.0
290
     0
  0
SCALE
  5
4B
102
{ACAD_REACTORS
330
47
102
}
330
47
100
AcDbScale
 70
     0
300
1:5
140
1.0
141
5.0
290
     0
  0
SCALE
  5
4C
102
{ACAD_REACTORS
330
47
102
}
330
47
100
AcDbScale
 70
     0
300
1:8
140
1.0
141
8.0
290
     0
  0
SCALE
  5
4D
102
{ACAD_REACTORS
330
47
102
}
330
47
100
AcDbScale
 70
     0
300
1:10
140
1.0
141
10.0
290
     0
  0
SCALE
  5
4E
102
{ACAD_REACTORS
330
47
102
}
330
47
100
AcDbScale
 70
     0
300
1:16
140
1.0
141
16.0
290
     0
  0
SCALE
  5
4F
102
{ACAD_REACTORS
330
47
102
}
330
47
100
AcDbScale
 70
     0
300
1:20
140
1.0
141
20.0
290
     0
  0
SCALE
  5
50
102
{ACAD_REACTORS
330
47
102
}
330
47
100
AcDbScale
 70
     0
300
1:30
140
1.0
141
30.0
290
     0
  0
SCALE
  5
51
102
{ACAD_REACTORS
330
47
102
}
330
47
100
AcDbScale
 70
     0
300
1:40
140
1.0
141
40.0
290
     0
  0
SCALE
  5
52
102
{ACAD_REACTORS
330
47
102
}
330
47
100
AcDbScale
 70
     0
300
1:50
140
1.0
141
50.0
290
     0
  0
SCALE
  5
53
102
{ACAD_REACTORS
330
47
102
}
330
47
100
AcDbScale
 70
     0
300
1:100
140
1.0
141
100.0
290
     0
  0
SCALE
  5
54
102
{ACAD_REACTORS
330
47
102
}
330
47
100
AcDbScale
 70
     0
300
2:1
140
2.0
141
1.0
290
     0
  0
SCALE
  5
55
102
{ACAD_REACTORS
330
47
102
}
330
47
100
AcDbScale
 70
     0
300
4:1
140
4.0
141
1.0
290
     0
  0
SCALE
  5
56
102
{ACAD_REACTORS
330
47
102
}
330
47
100
AcDbScale
 70
     0
300
8:1
140
8.0
141
1.0
290
     0
  0
SCALE
  5
57
102
{ACAD_REACTORS
330
47
102
}
330
47
100
AcDbScale
 70
     0
300
10:1
140
10.0
141
1.0
290
     0
  0
SCALE
  5
58
102
{ACAD_REACTORS
330
47
102
}
330
47
100
AcDbScale
 70
     0
300
100:1
140
100.0
141
1.0
290
     0
  0
SCALE
  5
59
102
{ACAD_REACTORS
330
47
102
}
330
47
100
AcDbScale
 70
     0
300
1/128" = 1'-0"
140
0.0078125
141
12.0
290
     0
  0
SCALE
  5
5A
102
{ACAD_REACTORS
330
47
102
}
330
47
100
AcDbScale
 70
     0
300
1/64" = 1'-0"
140
0.015625
141
12.0
290
     0
  0
SCALE
  5
5B
102
{ACAD_REACTORS
330
47
102
}
330
47
100
AcDbScale
 70
     0
300
1/32" = 1'-0"
140
0.03125
141
12.0
290
     0
  0
SCALE
  5
5C
102
{ACAD_REACTORS
330
47
102
}
330
47
100
AcDbScale
 70
     0
300
1/16" = 1'-0"
140
0.0625
141
12.0
290
     0
  0
SCALE
  5
5D
102
{ACAD_REACTORS
330
47
102
}
330
47
100
AcDbScale
 70
     0
300
3/32" = 1'-0"
140
0.09375
141
12.0
290
     0
  0
SCALE
  5
5E
102
{ACAD_REACTORS
330
47
102
}
330
47
100
AcDbScale
 70
     0
300
1/8" = 1'-0"
140
0.125
141
12.0
290
     0
  0
SCALE
  5
5F
102
{ACAD_REACTORS
330
47
102
}
330
47
100
AcDbScale
 70
     0
300
3/16" = 1'-0"
140
0.1875
141
12.0
290
     0
  0
SCALE
  5
60
102
{ACAD_REACTORS
330
47
102
}
330
47
100
AcDbScale
 70
     0
300
1/4" = 1'-0"
140
0.25
141
12.0
290
     0
  0
SCALE
  5
61
102
{ACAD_REACTORS
330
47
102
}
330
47
100
AcDbScale
 70
     0
300
3/8" = 1'-0"
140
0.375
141
12.0
290
     0
  0
SCALE
  5
62
102
{ACAD_REACTORS
330
47
102
}
330
47
100
AcDbScale
 70
     0
300
1/2" = 1'-0"
140
0.5
141
12.0
290
     0
  0
SCALE
  5
63
102
{ACAD_REACTORS
330
47
102
}
330
47
100
AcDbScale
 70
     0
300
3/4" = 1'-0"
140
0.75
141
12.0
290
     0
  0
SCALE
  5
64
102
{ACAD_REACTORS
330
47
102
}
330
47
100
AcDbScale
 70
     0
300
1" = 1'-0"
140
1.0
141
12.0
290
     0
  0
SCALE
  5
65
102
{ACAD_REACTORS
330
47
102
}
330
47
100
AcDbScale
 70
     0
300
1-1/2" = 1'-0"
140
1.5
141
12.0
290
     0
  0
SCALE
  5
66
102
{ACAD_REACTORS
330
47
102
}
330
47
100
AcDbScale
 70
     0
300
3" = 1'-0"
140
3.0
141
12.0
290
     0
  0
SCALE
  5
67
102
{ACAD_REACTORS
330
47
102
}
330
47
100
AcDbScale
 70
     0
300
6" = 1'-0"
140
6.0
141
12.0
290
     0
  0
SCALE
  5
68
102
{ACAD_REACTORS
330
47
102
}
330
47
100
AcDbScale
 70
     0
300
1'-0" = 1'-0"
140
12.0
141
12.0
290
     0
  0
TABLESTYLE
  5
6A
102
{ACAD_REACTORS
330
69
102
}
102
{ACAD_XDICTIONARY
360
337
102
}
330
69
100
AcDbTableStyle
  3
Standard
 70
     0
 71
     0
 40
0.06
 41
0.06
280
     0
281
     0
  7
Standard
140
4.5
170
     2
 62
     0
 63
   257
283
     0
 90
        4
 91
        0
  1

274
    -2
284
     1
 64
     0
275
    -2
285
     1
 65
     0
276
    -2
286
     1
 66
     0
277
    -2
287
     1
 67
     0
278
    -2
288
     1
 68
     0
279
    -2
289
     1
 69
     0
  7
Standard
140
6.0
170
     5
 62
     0
 63
   257
283
     0
 90
        4
 91
        0
  1

274
    -2
284
     1
 64
     0
275
    -2
285
     1
 65
     0
276
    -2
286
     1
 66
     0
277
    -2
287
     1
 67
     0
278
    -2
288
     1
 68
     0
279
    -2
289
     1
 69
     0
  7
Standard
140
4.5
170
     5
 62
     0
 63
   257
283
     0
 90
        4
 91
        0
  1

274
    -2
284
     1
 64
     0
275
    -2
285
     1
 65
     0
276
    -2
286
     1
 66
     0
277
    -2
287
     1
 67
     0
278
    -2
288
     1
 68
     0
279
    -2
289
     1
 69
     0
  0
VISUALSTYLE
  5
2F
102
{ACAD_REACTORS
330
2A
102
}
102
{ACAD_XDICTIONARY
360
30F
102
}
330
2A
100
AcDbVisualStyle
  2
2dWireframe
 70
     4
 71
     0
 72
     2
 73
     0
 90
        0
 40
0.6
 41
30.0
 62
     5
 63
     7
421
 16777215
 74
     1
 91
        4
 64
     7
 65
   257
 75
     1
175
     1
 42
1.0
 92
        0
 66
   257
 43
1.0
 76
     1
 77
     6
 78
     2
 67
     7
 79
     5
170
     0
171
     0
290
     0
174
     0
 93
        1
 44
0.0
173
     0
291
     0
 45
0.0
  0
VISUALSTYLE
  5
32
102
{ACAD_REACTORS
330
2A
102
}
102
{ACAD_XDICTIONARY
360
315
102
}
330
2A
100
AcDbVisualStyle
  2
Basic
 70
     7
 71
     1
 72
     0
 73
     1
 90
        0
 40
0.6
 41
30.0
 62
     5
 63
     7
421
 16777215
 74
     0
 91
        4
 64
     7
 65
   257
 75
     1
175
     1
 42
1.0
 92
        8
 66
     7
 43
1.0
 76
     1
 77
     6
 78
     2
 67
     7
 79
     5
170
     0
171
     0
290
     0
174
     0
 93
        1
 44
0.0
173
     0
291
     1
 45
0.0
  0
VISUALSTYLE
  5
36
102
{ACAD_REACTORS
330
2A
102
}
102
{ACAD_XDICTIONARY
360
31D
102
}
330
2A
100
AcDbVisualStyle
  2
Brighten
 70
    12
 71
     2
 72
     2
 73
     0
 90
        0
 40
0.6
 41
30.0
 62
     5
 63
     7
421
 16777215
 74
     1
 91
        4
 64
     7
 65
   257
 75
     1
175
     1
 42
1.0
 92
        8
 66
     7
 43
1.0
 76
     1
 77
     6
 78
     2
 67
     7
 79
     5
170
     0
171
     0
290
     0
174
     0
 93
        1
 44
50.0
173
     0
291
     1
 45
0.0
  0
VISUALSTYLE
  5
3A
102
{ACAD_REACTORS
330
2A
102
}
102
{ACAD_XDICTIONARY
360
325
102
}
330
2A
100
AcDbVisualStyle
  2
ColorChange
 70
    16
 71
     2
 72
     2
 73
     3
 90
        0
 40
0.6
 41
30.0
 62
     5
 63
     8
421
  8421504
 74
     1
 91
        4
 64
     7
 65
   257
 75
     1
175
     1
 42
1.0
 92
        8
 66
     8
424
  8421504
 43
1.0
 76
     1
 77
     6
 78
     2
 67
     7
 79
     5
170
     0
171
     0
290
     0
174
     0
 93
        1
 44
0.0
173
     0
291
     1
 45
0.0
  0
VISUALSTYLE
  5
34
102
{ACAD_REACTORS
330
2A
102
}
102
{ACAD_XDICTIONARY
360
319
102
}
330
2A
100
AcDbVisualStyle
  2
Conceptual
 70
     9
 71
     3
 72
     2
 73
     0
 90
        0
 40
0.6
 41
30.0
 62
     5
 63
     7
421
 16777215
 74
     2
 91
        2
 64
     7
 65
   257
 75
     1
175
     1
 42
179.0
 92
        8
 66
     7
 43
1.0
 76
     1
 77
     6
 78
     2
 67
     7
 79
     3
170
     0
171
     0
290
     0
174
     0
 93
        1
 44
0.0
173
     0
291
     0
 45
0.0
  0
VISUALSTYLE
  5
35
102
{ACAD_REACTORS
330
2A
102
}
102
{ACAD_XDICTIONARY
360
31B
102
}
330
2A
100
AcDbVisualStyle
  2
Dim
 70
    11
 71
     2
 72
     2
 73
     0
 90
        0
 40
0.6
 41
30.0
 62
     5
 63
     7
421
 16777215
 74
     1
 91
        4
 64
     7
 65
   257
 75
     1
175
     1
 42
1.0
 92
        8
 66
     7
 43
1.0
 76
     1
 77
     6
 78
     2
 67
     7
 79
     5
170
     0
171
     0
290
     0
174
     0
 93
        1
 44
-50.0
173
     0
291
     1
 45
0.0
  0
VISUALSTYLE
  5
3D
102
{ACAD_REACTORS
330
2A
102
}
102
{ACAD_XDICTIONARY
360
32B
102
}
330
2A
100
AcDbVisualStyle
  2
EdgeColorOff
 70
    22
 71
     2
 72
     2
 73
     0
 90
        0
 40
0.6
 41
30.0
 62
     5
 63
     7
421
 16777215
 74
     1
 91
        4
 64
     7
 65
   257
 75
     1
175
     1
 42
1.0
 92
        8
 66
     7
 43
1.0
 76
     1
 77
     6
 78
     2
 67
     7
 79
     5
170
     0
171
     0
290
     0
174
     0
 93
        1
 44
0.0
173
     0
291
     1
 45
0.0
  0
VISUALSTYLE
  5
39
102
{ACAD_REACTORS
330
2A
102
}
102
{ACAD_XDICTIONARY
360
323
102
}
330
2A
100
AcDbVisualStyle
  2
Facepattern
 70
    15
 71
     2
 72
     2
 73
     0
 90
        0
 40
0.6
 41
30.0
 62
     5
 63
     7
421
 16777215
 74
     1
 91
        4
 64
     7
 65
   257
 75
     1
175
     1
 42
1.0
 92
        8
 66
     7
 43
1.0
 76
     1
 77
     6
 78
     2
 67
     7
 79
     5
170
     0
171
     0
290
     0
174
     0
 93
        1
 44
0.0
173
     0
291
     1
 45
0.0
  0
VISUALSTYLE
  5
2B
102
{ACAD_REACTORS
330
2A
102
}
102
{ACAD_XDICTIONARY
360
307
102
}
330
2A
100
AcDbVisualStyle
  2
Flat
 70
     0
 71
     2
 72
     1
 73
     1
 90
        2
 40
0.6
 41
30.0
 62
     5
 63
     7
421
 16777215
 74
     0
 91
        0
 64
     7
 65
   257
 75
     1
175
     1
 42
1.0
 92
        8
 66
     7
 43
1.0
 76
     1
 77
     6
 78
     2
 67
     7
 79
     5
170
     0
171
     0
290
     0
174
     0
 93
       13
 44
0.0
173
     0
291
     1
 45
0.0
  0
VISUALSTYLE
  5
2C
102
{ACAD_REACTORS
330
2A
102
}
102
{ACAD_XDICTIONARY
360
309
102
}
330
2A
100
AcDbVisualStyle
  2
FlatWithEdges
 70
     1
 71
     2
 72
     1
 73
     1
 90
        2
 40
0.6
 41
30.0
 62
     5
 63
     7
421
 16777215
 74
     1
 91
        0
 64
     7
 65
   257
 75
     1
175
     1
 42
1.0
 92
        0
 66
   257
 43
1.0
 76
     1
 77
     6
 78
     2
 67
     7
 79
     5
170
     0
171
     0
290
     0
174
     0
 93
       13
 44
0.0
173
     0
291
     1
 45
0.0
  0
VISUALSTYLE
  5
2D
102
{ACAD_REACTORS
330
2A
102
}
102
{ACAD_XDICTIONARY
360
30B
102
}
330
2A
100
AcDbVisualStyle
  2
Gouraud
 70
     2
 71
     2
 72
     2
 73
     1
 90
        2
 40
0.6
 41
30.0
 62
     5
 63
     7
421
 16777215
 74
     0
 91
        0
 64
     7
 65
   257
 75
     1
175
     1
 42
1.0
 92
        0
 66
     7
 43
1.0
 76
     1
 77
     6
 78
     2
 67
     7
 79
     5
170
     0
171
     0
290
     0
174
     0
 93
       13
 44
0.0
173
     0
291
     1
 45
0.0
  0
VISUALSTYLE
  5
2E
102
{ACAD_REACTORS
330
2A
102
}
102
{ACAD_XDICTIONARY
360
30D
102
}
330
2A
100
AcDbVisualStyle
  2
GouraudWithEdges
 70
     3
 71
     2
 72
     2
 73
     1
 90
        2
 40
0.6
 41
30.0
 62
     5
 63
     7
421
 16777215
 74
     1
 91
        0
 64
     7
 65
   257
 75
     1
175
     1
 42
1.0
 92
        0
 66
   257
 43
1.0
 76
     1
 77
     6
 78
     2
 67
     7
 79
     5
170
     0
171
     0
290
     0
174
     0
 93
       13
 44
0.0
173
     0
291
     1
 45
0.0
  0
VISUALSTYLE
  5
31
102
{ACAD_REACTORS
330
2A
102
}
102
{ACAD_XDICTIONARY
360
313
102
}
330
2A
100
AcDbVisualStyle
  2
Hidden
 70
     6
 71
     1
 72
     2
 73
     2
 90
        0
 40
0.6
 41
30.0
 62
     5
 63
     7
421
 16777215
 74
     2
 91
        2
 64
     7
 65
   257
 75
     2
175
     1
 42
40.0
 92
        0
 66
   257
 43
1.0
 76
     1
 77
     6
 78
     2
 67
     7
 79
     3
170
     0
171
     0
290
     0
174
     0
 93
        1
 44
0.0
173
     0
291
     0
 45
0.0
  0
VISUALSTYLE
  5
3B
102
{ACAD_REACTORS
330
2A
102
}
102
{ACAD_XDICTIONARY
360
327
102
}
330
2A
100
AcDbVisualStyle
  2
JitterOff
 70
    20
 71
     2
 72
     2
 73
     0
 90
        0
 40
0.6
 41
30.0
 62
     5
 63
     7
421
 16777215
 74
     1
 91
        4
 64
     7
 65
   257
 75
     1
175
     1
 42
1.0
 92
       10
 66
     7
 43
1.0
 76
     1
 77
     6
 78
     2
 67
     7
 79
     5
170
     0
171
     0
290
     0
174
     0
 93
        1
 44
0.0
173
     0
291
     1
 45
0.0
  0
VISUALSTYLE
  5
38
102
{ACAD_REACTORS
330
2A
102
}
102
{ACAD_XDICTIONARY
360
321
102
}
330
2A
100
AcDbVisualStyle
  2
Linepattern
 70
    14
 71
     2
 72
     2
 73
     0
 90
        0
 40
0.6
 41
30.0
 62
     5
 63
     7
421
 16777215
 74
     1
 91
        4
 64
     7
 65
   257
 75
     7
175
     7
 42
1.0
 92
        8
 66
     7
 43
1.0
 76
     1
 77
     6
 78
     2
 67
     7
 79
     5
170
     0
171
     0
290
     0
174
     0
 93
        1
 44
0.0
173
     0
291
     1
 45
0.0
  0
VISUALSTYLE
  5
3C
102
{ACAD_REACTORS
330
2A
102
}
102
{ACAD_XDICTIONARY
360
329
102
}
330
2A
100
AcDbVisualStyle
  2
OverhangOff
 70
    21
 71
     2
 72
     2
 73
     0
 90
        0
 40
0.6
 41
30.0
 62
     5
 63
     7
421
 16777215
 74
     1
 91
        4
 64
     7
 65
   257
 75
     1
175
     1
 42
1.0
 92
        9
 66
     7
 43
1.0
 76
     1
 77
     6
 78
     2
 67
     7
 79
     5
170
     0
171
     0
290
     0
174
     0
 93
        1
 44
0.0
173
     0
291
     1
 45
0.0
  0
VISUALSTYLE
  5
33
102
{ACAD_REACTORS
330
2A
102
}
102
{ACAD_XDICTIONARY
360
317
102
}
330
2A
100
AcDbVisualStyle
  2
Realistic
 70
     8
 71
     2
 72
     3
 73
     0
 90
        2
 40
0.6
 41
30.0
 62
     5
 63
     7
421
 16777215
 74
     0
 91
        0
 64
     7
 65
   257
 75
     1
175
     1
 42
1.0
 92
        8
 66
   257
 43
1.0
 76
     1
 77
     6
 78
     2
 67
     7
 79
     3
170
     0
171
     0
290
     0
174
     0
 93
       13
 44
0.0
173
     0
291
     0
 45
0.0
  0
VISUALSTYLE
  5
42
102
{ACAD_REACTORS
330
2A
102
}
102
{ACAD_XDICTIONARY
360
335
102
}
330
2A
100
AcDbVisualStyle
  2
Shaded
 70
    27
 71
     2
 72
     2
 73
     1
 90
        2
 40
0.6
 41
30.0
 62
     5
 63
     7
421
 16777215
 74
     0
 91
        4
 64
     7
 65
   257
 75
     1
175
     1
 42
1.0
 92
        8
 66
   257
 43
1.0
 76
     1
 77
     6
 78
     2
 67
     8
425
  7895160
 79
     3
170
     0
171
     0
290
     0
174
     0
 93
        5
 44
0.0
173
     0
291
     0
 45
0.0
  0
VISUALSTYLE
  5
41
102
{ACAD_REACTORS
330
2A
102
}
102
{ACAD_XDICTIONARY
360
333
102
}
330
2A
100
AcDbVisualStyle
  2
Shaded with edges
 70
    26
 71
     2
 72
     2
 73
     1
 90
        2
 40
0.6
 41
30.0
 62
     5
 63
     7
421
 16777215
 74
     1
 91
       10
 64
     7
 65
   257
 75
     2
175
     1
 42
1.0
 92
        8
 66
   257
 43
1.0
 76
     1
 77
     6
 78
     2
 67
     7
 79
     3
170
     0
171
     0
290
     0
174
     0
 93
        5
 44
0.0
173
     0
291
     0
 45
0.0
  0
VISUALSTYLE
  5
3E
102
{ACAD_REACTORS
330
2A
102
}
102
{ACAD_XDICTIONARY
360
32D
102
}
330
2A
100
AcDbVisualStyle
  2
Shades of Gray
 70
    23
 71
     2
 72
     2
 73
     3
 90
        0
 40
0.6
 41
30.0
 62
     5
 63
     7
421
 16777215
 74
     2
 91
        2
 64
     7
 65
     7
 75
     1
175
     1
 42
40.0
 92
        8
 66
     7
 43
1.0
 76
     1
 77
     6
 78
     2
 67
     7
 79
     3
170
     0
171
     0
290
     0
174
     0
 93
        1
 44
0.0
173
     0
291
     0
 45
0.0
  0
VISUALSTYLE
  5
3F
102
{ACAD_REACTORS
330
2A
102
}
102
{ACAD_XDICTIONARY
360
32F
102
}
330
2A
100
AcDbVisualStyle
  2
Sketchy
 70
    24
 71
     1
 72
     2
 73
     2
 90
        0
 40
0.6
 41
30.0
 62
     5
 63
     7
421
 16777215
 74
     2
 91
        2
 64
     7
 65
     7
 75
     1
175
     1
 42
40.0
 92
       11
 66
     7
 43
1.0
 76
     1
 77
     6
 78
     2
 67
     7
 79
     6
170
     0
171
     0
290
     0
174
     0
 93
        1
 44
0.0
173
     0
291
     0
 45
0.0
  0
VISUALSTYLE
  5
37
102
{ACAD_REACTORS
330
2A
102
}
102
{ACAD_XDICTIONARY
360
31F
102
}
330
2A
100
AcDbVisualStyle
  2
Thicken
 70
    13
 71
     2
 72
     2
 73
     0
 90
        0
 40
0.6
 41
30.0
 62
     5
 63
     7
421
 16777215
 74
     1
 91
        4
 64
     7
 65
   257
 75
     1
175
     1
 42
1.0
 92
       12
 66
     7
 43
1.0
 76
     1
 77
     6
 78
     2
 67
     7
 79
     5
170
     0
171
     0
290
     0
174
     0
 93
        1
 44
0.0
173
     0
291
     1
 45
0.0
  0
VISUALSTYLE
  5
30
102
{ACAD_REACTORS
330
2A
102
}
102
{ACAD_XDICTIONARY
360
311
102
}
330
2A
100
AcDbVisualStyle
  2
Wireframe
 70
     5
 71
     0
 72
     2
 73
     0
 90
        0
 40
0.6
 41
30.0
 62
     5
 63
     7
421
 16777215
 74
     1
 91
        4
 64
     7
 65
   257
 75
     1
175
     1
 42
1.0
 92
        0
 66
   257
 43
1.0
 76
     1
 77
     6
 78
     2
 67
     7
 79
     3
170
     0
171
     0
290
     0
174
     0
 93
        1
 44
0.0
173
     0
291
     0
 45
0.0
  0
VISUALSTYLE
  5
40
102
{ACAD_REACTORS
330
2A
102
}
102
{ACAD_XDICTIONARY
360
331
102
}
330
2A
100
AcDbVisualStyle
  2
X-Ray
 70
    25
 71
     2
 72
     2
 73
     1
 90
        1
 40
0.5
 41
30.0
 62
     5
 63
     7
421
 16777215
 74
     1
 91
        0
 64
     7
 65
   257
 75
     1
175
     1
 42
1.0
 92
        8
 66
     7
 43
1.0
 76
     1
 77
     6
 78
     2
 67
     7
 79
     3
170
     0
171
     0
290
     0
174
     0
 93
       13
 44
0.0
173
     0
291
     0
 45
0.0
  0
DICTIONARYVAR
  5
305
102
{ACAD_REACTORS
330
304
102
}
330
304
100
DictionaryVariables
280
     0
  1
1:1
  0
DICTIONARYVAR
  5
341
102
{ACAD_REACTORS
330
304
102
}
330
304
100
DictionaryVariables
280
     0
  1
3.500000
  0
DICTIONARYVAR
  5
342
102
{ACAD_REACTORS
330
304
102
}
330
304
100
DictionaryVariables
280
     0
  1
acadiso.lin
  0
DICTIONARYVAR
  5
33E
102
{ACAD_REACTORS
330
304
102
}
330
304
100
DictionaryVariables
280
     0
  1
Standard
  0
DICTIONARYVAR
  5
33D
102
{ACAD_REACTORS
330
304
102
}
330
304
100
DictionaryVariables
280
     0
  1
Standard
  0
DICTIONARYVAR
  5
306
102
{ACAD_REACTORS
330
304
102
}
330
304
100
DictionaryVariables
280
     0
  1
2
  0
DICTIONARY
  5
33A
330
6C
100
AcDbDictionary
280
     1
281
     1
  3
ACAD_XREC_ROUNDTRIP
360
33B
  0
DICTIONARY
  5
337
330
6A
100
AcDbDictionary
280
     1
281
     1
  3
ACAD_ROUNDTRIP_2008_TABLESTYLE_CELLSTYLEMAP
360
338
  0
DICTIONARY
  5
30F
330
2F
100
AcDbDictionary
280
     1
281
     1
  3
ACAD_XREC_ROUNDTRIP
360
310
  0
DICTIONARY
  5
315
330
32
100
AcDbDictionary
280
     1
281
     1
  3
ACAD_XREC_ROUNDTRIP
360
316
  0
DICTIONARY
  5
31D
330
36
100
AcDbDictionary
280
     1
281
     1
  3
ACAD_XREC_ROUNDTRIP
360
31E
  0
DICTIONARY
  5
325
330
3A
100
AcDbDictionary
280
     1
281
     1
  3
ACAD_XREC_ROUNDTRIP
360
326
  0
DICTIONARY
  5
319
330
34
100
AcDbDictionary
280
     1
281
     1
  3
ACAD_XREC_ROUNDTRIP
360
31A
  0
DICTIONARY
  5
31B
330
35
100
AcDbDictionary
280
     1
281
     1
  3
ACAD_XREC_ROUNDTRIP
360
31C
  0
DICTIONARY
  5
32B
330
3D
100
AcDbDictionary
280
     1
281
     1
  3
ACAD_XREC_ROUNDTRIP
360
32C
  0
DICTIONARY
  5
323
330
39
100
AcDbDictionary
280
     1
281
     1
  3
ACAD_XREC_ROUNDTRIP
360
324
  0
DICTIONARY
  5
307
330
2B
100
AcDbDictionary
280
     1
281
     1
  3
ACAD_XREC_ROUNDTRIP
360
308
  0
DICTIONARY
  5
309
330
2C
100
AcDbDictionary
280
     1
281
     1
  3
ACAD_XREC_ROUNDTRIP
360
30A
  0
DICTIONARY
  5
30B
330
2D
100
AcDbDictionary
280
     1
281
     1
  3
ACAD_XREC_ROUNDTRIP
360
30C
  0
DICTIONARY
  5
30D
330
2E
100
AcDbDictionary
280
     1
281
     1
  3
ACAD_XREC_ROUNDTRIP
360
30E
  0
DICTIONARY
  5
313
330
31
100
AcDbDictionary
280
     1
281
     1
  3
ACAD_XREC_ROUNDTRIP
360
314
  0
DICTIONARY
  5
327
330
3B
100
AcDbDictionary
280
     1
281
     1
  3
ACAD_XREC_ROUNDTRIP
360
328
  0
DICTIONARY
  5
321
330
38
100
AcDbDictionary
280
     1
281
     1
  3
ACAD_XREC_ROUNDTRIP
360
322
  0
DICTIONARY
  5
329
330
3C
100
AcDbDictionary
280
     1
281
     1
  3
ACAD_XREC_ROUNDTRIP
360
32A
  0
DICTIONARY
  5
317
330
33
100
AcDbDictionary
280
     1
281
     1
  3
ACAD_XREC_ROUNDTRIP
360
318
  0
DICTIONARY
  5
335
330
42
100
AcDbDictionary
280
     1
281
     1
  3
ACAD_XREC_ROUNDTRIP
360
336
  0
DICTIONARY
  5
333
330
41
100
AcDbDictionary
280
     1
281
     1
  3
ACAD_XREC_ROUNDTRIP
360
334
  0
DICTIONARY
  5
32D
330
3E
100
AcDbDictionary
280
     1
281
     1
  3
ACAD_XREC_ROUNDTRIP
360
32E
  0
DICTIONARY
  5
32F
330
3F
100
AcDbDictionary
280
     1
281
     1
  3
ACAD_XREC_ROUNDTRIP
360
330
  0
DICTIONARY
  5
31F
330
37
100
AcDbDictionary
280
     1
281
     1
  3
ACAD_XREC_ROUNDTRIP
360
320
  0
DICTIONARY
  5
311
330
30
100
AcDbDictionary
280
     1
281
     1
  3
ACAD_XREC_ROUNDTRIP
360
312
  0
DICTIONARY
  5
331
330
40
100
AcDbDictionary
280
     1
281
     1
  3
ACAD_XREC_ROUNDTRIP
360
332
  0
XRECORD
  5
33B
102
{ACAD_REACTORS
330
33A
102
}
330
33A
100
AcDbXrecord
280
     1
102
ACAD_ROUNDTRIP_2010_MLEADER_STYLE
  0
CELLSTYLEMAP
  5
338
102
{ACAD_REACTORS
330
337
102
}
330
337
100
AcDbCellStyleMap
 90
        3
300
CELLSTYLE
  1
TABLEFORMAT_BEGIN
 90
        5
170
     1
 91
        0
 92
    32768
 62
   257
 93
        1
300
CONTENTFORMAT
  1
CONTENTFORMAT_BEGIN
 90
        0
 91
        0
 92
        4
 93
        0
300

 40
0.0
140
1.0
 94
        5
 62
     0
340
11
144
6.0
309
CONTENTFORMAT_END
171
     1
301
MARGIN
  1
CELLMARGIN_BEGIN
 40
1.5
 40
1.5
 40
1.5
 40
1.5
 40
1.5
 40
1.5
309
CELLMARGIN_END
 94
        6
 95
        1
302
GRIDFORMAT
  1
GRIDFORMAT_BEGIN
 90
        0
 91
        1
 62
     0
 92
       -2
340
14
 93
        0
 40
0.045
309
GRIDFORMAT_END
 95
        2
302
GRIDFORMAT
  1
GRIDFORMAT_BEGIN
 90
        0
 91
        1
 62
     0
 92
       -2
340
14
 93
        0
 40
0.045
309
GRIDFORMAT_END
 95
        4
302
GRIDFORMAT
  1
GRIDFORMAT_BEGIN
 90
        0
 91
        1
 62
     0
 92
       -2
340
14
 93
        0
 40
0.045
309
GRIDFORMAT_END
 95
        8
302
GRIDFORMAT
  1
GRIDFORMAT_BEGIN
 90
        0
 91
        1
 62
     0
 92
       -2
340
14
 93
        0
 40
0.045
309
GRIDFORMAT_END
 95
       16
302
GRIDFORMAT
  1
GRIDFORMAT_BEGIN
 90
        0
 91
        1
 62
     0
 92
       -2
340
14
 93
        0
 40
0.045
309
GRIDFORMAT_END
 95
       32
302
GRIDFORMAT
  1
GRIDFORMAT_BEGIN
 90
        0
 91
        1
 62
     0
 92
       -2
340
14
 93
        0
 40
0.045
309
GRIDFORMAT_END
309
TABLEFORMAT_END
  1
CELLSTYLE_BEGIN
 90
        1
 91
        1
300
_TITLE
309
CELLSTYLE_END
300
CELLSTYLE
  1
TABLEFORMAT_BEGIN
 90
        5
170
     1
 91
        0
 92
        0
 62
   257
 93
        1
300
CONTENTFORMAT
  1
CONTENTFORMAT_BEGIN
 90
        0
 91
        0
 92
        4
 93
        0
300

 40
0.0
140
1.0
 94
        5
 62
     0
340
11
144
4.5
309
CONTENTFORMAT_END
171
     1
301
MARGIN
  1
CELLMARGIN_BEGIN
 40
1.5
 40
1.5
 40
1.5
 40
1.5
 40
1.5
 40
1.5
309
CELLMARGIN_END
 94
        6
 95
        1
302
GRIDFORMAT
  1
GRIDFORMAT_BEGIN
 90
        0
 91
        1
 62
     0
 92
       -2
340
14
 93
        0
 40
0.045
309
GRIDFORMAT_END
 95
        2
302
GRIDFORMAT
  1
GRIDFORMAT_BEGIN
 90
        0
 91
        1
 62
     0
 92
       -2
340
14
 93
        0
 40
0.045
309
GRIDFORMAT_END
 95
        4
302
GRIDFORMAT
  1
GRIDFORMAT_BEGIN
 90
        0
 91
        1
 62
     0
 92
       -2
340
14
 93
        0
 40
0.045
309
GRIDFORMAT_END
 95
        8
302
GRIDFORMAT
  1
GRIDFORMAT_BEGIN
 90
        0
 91
        1
 62
     0
 92
       -2
340
14
 93
        0
 40
0.045
309
GRIDFORMAT_END
 95
       16
302
GRIDFORMAT
  1
GRIDFORMAT_BEGIN
 90
        0
 91
        1
 62
     0
 92
       -2
340
14
 93
        0
 40
0.045
309
GRIDFORMAT_END
 95
       32
302
GRIDFORMAT
  1
GRIDFORMAT_BEGIN
 90
        0
 91
        1
 62
     0
 92
       -2
340
14
 93
        0
 40
0.045
309
GRIDFORMAT_END
309
TABLEFORMAT_END
  1
CELLSTYLE_BEGIN
 90
        2
 91
        1
300
_HEADER
309
CELLSTYLE_END
300
CELLSTYLE
  1
TABLEFORMAT_BEGIN
 90
        5
170
     1
 91
        0
 92
        0
 62
   257
 93
        1
300
CONTENTFORMAT
  1
CONTENTFORMAT_BEGIN
 90
        0
 91
        0
 92
        4
 93
        0
300

 40
0.0
140
1.0
 94
        2
 62
     0
340
11
144
4.5
309
CONTENTFORMAT_END
171
     1
301
MARGIN
  1
CELLMARGIN_BEGIN
 40
1.5
 40
1.5
 40
1.5
 40
1.5
 40
1.5
 40
1.5
309
CELLMARGIN_END
 94
        6
 95
        1
302
GRIDFORMAT
  1
GRIDFORMAT_BEGIN
 90
        0
 91
        1
 62
     0
 92
       -2
340
14
 93
        0
 40
0.045
309
GRIDFORMAT_END
 95
        2
302
GRIDFORMAT
  1
GRIDFORMAT_BEGIN
 90
        0
 91
        1
 62
     0
 92
       -2
340
14
 93
        0
 40
0.045
309
GRIDFORMAT_END
 95
        4
302
GRIDFORMAT
  1
GRIDFORMAT_BEGIN
 90
        0
 91
        1
 62
     0
 92
       -2
340
14
 93
        0
 40
0.045
309
GRIDFORMAT_END
 95
        8
302
GRIDFORMAT
  1
GRIDFORMAT_BEGIN
 90
        0
 91
        1
 62
     0
 92
       -2
340
14
 93
        0
 40
0.045
309
GRIDFORMAT_END
 95
       16
302
GRIDFORMAT
  1
GRIDFORMAT_BEGIN
 90
        0
 91
        1
 62
     0
 92
       -2
340
14
 93
        0
 40
0.045
309
GRIDFORMAT_END
 95
       32
302
GRIDFORMAT
  1
GRIDFORMAT_BEGIN
 90
        0
 91
        1
 62
     0
 92
       -2
340
14
 93
        0
 40
0.045
309
GRIDFORMAT_END
309
TABLEFORMAT_END
  1
CELLSTYLE_BEGIN
 90
        3
 91
        2
300
_DATA
309
CELLSTYLE_END
  0
XRECORD
  5
310
102
{ACAD_REACTORS
330
30F
102
}
330
30F
100
AcDbXrecord
280
     1
102
RTVSPropertyOp0
 70
     1
102
RTVSPropertyOp1
 70
     1
102
RTVSPropertyOp2
 70
     1
102
RTVSPropertyOp3
 70
     1
102
RTVSPropertyOp4
 70
     1
102
RTVSPropertyOp5
 70
     1
102
RTVSPropertyOp6
 70
     1
102
RTVSPropertyOp7
 70
     1
102
RTVSPropertyOp8
 70
     1
102
RTVSPropertyOp9
 70
     1
102
RTVSPropertyOp10
 70
     1
102
RTVSPropertyOp11
 70
     1
102
RTVSPropertyOp12
 70
     1
102
RTVSPropertyOp13
 70
     1
102
RTVSPropertyOp14
 70
     1
102
RTVSPropertyOp15
 70
     1
102
RTVSPropertyOp16
 70
     1
102
RTVSPropertyOp17
 70
     1
102
RTVSPropertyOp18
 70
     1
102
RTVSPropertyOp19
 70
     1
102
RTVSPropertyOp20
 70
     1
102
RTVSPropertyOp21
 70
     1
102
RTVSPropertyOp22
 70
     1
102
RTVSPropertyOp23
 70
     1
102
RTVSPropertyOp24
 70
     1
102
RTVSPropertyOp25
 70
     1
102
RTVSPropertyOp26
 70
     1
102
RTVSPropertyOp27
 70
     1
102
RTVSPropertyOp28
 70
     1
102
RTVSPropertyOp29
 70
     1
102
RTVSPropertyOp30
 70
     1
102
RTVSPropertyOp31
 70
     1
102
RTVSPropertyOp32
 70
     1
102
RTVSPropertyOp33
 70
     1
102
RTVSPropertyOp34
 70
     1
102
RTVSPropertyOp35
 70
     1
102
RTVSPropertyOp36
 70
     1
102
RTVSPropertyOp37
 70
     1
102
RTVSPropertyOp38
 70
     1
102
RTVSPropertyOp39
 70
     1
102
RTVSPropertyOp40
 70
     1
102
RTVSPropertyOp41
 70
     1
102
RTVSPropertyOp42
 70
     1
102
RTVSPropertyOp43
 70
     1
102
RTVSPropertyOp44
 70
     1
102
RTVSPropertyOp45
 70
     1
102
RTVSPropertyOp46
 70
     1
102
RTVSPropertyOp47
 70
     1
102
RTVSPropertyOp48
 70
     1
102
RTVSPropertyOp49
 70
     1
102
RTVSPropertyOp50
 70
     1
102
RTVSPropertyOp51
 70
     0
102
RTVSPropertyOp52
 70
     0
102
RTVSPropertyOp53
 70
     1
102
RTVSPropertyOp54
 70
     1
102
RTVSPropertyOp55
 70
     1
102
RTVSPropertyOp56
 70
     1
102
RTVSPropertyOp57
 70
     1
102
RTVSPost2010Prop28
280
     1
102
RTVSPost2010PropOp28
 70
     1
102
RTVSPost2010Prop29
280
     1
102
RTVSPost2010PropOp29
 70
     1
102
RTVSPost2010Prop30
280
     0
102
RTVSPost2010PropOp30
 70
     1
102
RTVSPost2010Prop31
280
     0
102
RTVSPost2010PropOp31
 70
     1
102
RTVSPost2010Prop32
280
     0
102
RTVSPost2010PropOp32
 70
     1
102
RTVSPost2010Prop33
280
     0
102
RTVSPost2010PropOp33
 70
     1
102
RTVSPost2010Prop34
280
     0
102
RTVSPost2010PropOp34
 70
     1
102
RTVSPost2010Prop35
280
     0
102
RTVSPost2010PropOp35
 70
     1
102
RTVSPost2010Prop36
280
     0
102
RTVSPost2010PropOp36
 70
     1
102
RTVSPost2010Prop37
 90
       50
102
RTVSPost2010PropOp37
 70
     1
102
RTVSPost2010Prop38
140
0.0
102
RTVSPost2010PropOp38
 70
     1
102
RTVSPost2010Prop39
140
1.0
102
RTVSPost2010PropOp39
 70
     1
102
RTVSPost2010Prop40
 90
        0
102
RTVSPost2010PropOp40
 70
     1
102
RTVSPost2010Prop41ColorIndex
 90
       18
102
RTVSPost2010Prop41ColorRGB
 90
        0
102
RTVSPost2010PropOp41
 70
     1
102
RTVSPost2010Prop42
 90
       50
102
RTVSPost2010PropOp42
 70
     1
102
RTVSPost2010Prop43
 90
        3
102
RTVSPost2010PropOp43
 70
     1
102
RTVSPost2010Prop44ColorIndex
 90
        5
102
RTVSPost2010Prop44ColorRGB
 90
      255
102
RTVSPost2010PropOp44
 70
     1
102
RTVSPost2010Prop45
280
     0
102
RTVSPost2010PropOp45
 70
     1
102
RTVSPost2010Prop46
 90
       50
102
RTVSPost2010PropOp46
 70
     1
102
RTVSPost2010Prop47
 90
       50
102
RTVSPost2010PropOp47
 70
     1
102
RTVSPost2010Prop48
 90
       50
102
RTVSPost2010PropOp48
 70
     1
102
RTVSPost2010Prop49
280
     0
102
RTVSPost2010PropOp49
 70
     1
102
RTVSPost2010Prop50
 90
       50
102
RTVSPost2010PropOp50
 70
     1
102
RTVSPost2010Prop51ColorIndex
 90
      256
102
RTVSPost2010Prop51ColorRGB
 90
-16777216
102
RTVSPost2010PropOp51
 70
     0
102
RTVSPost2010Prop52
140
1.0
102
RTVSPost2010PropOp52
 70
     0
102
RTVSPost2010Prop53
 90
        2
102
RTVSPost2010PropOp53
 70
     1
102
RTVSPost2010Prop54
  1
strokes_ogs.tif
102
RTVSPost2010PropOp54
 70
     1
102
RTVSPost2010Prop55
280
     0
102
RTVSPost2010PropOp55
 70
     1
102
RTVSPost2010Prop56
140
1.0
102
RTVSPost2010PropOp56
 70
     1
102
RTVSPost2010Prop57
140
1.0
102
RTVSPost2010PropOp57
 70
     1
  0
XRECORD
  5
316
102
{ACAD_REACTORS
330
315
102
}
330
315
100
AcDbXrecord
280
     1
102
RTVSPropertyOp0
 70
     1
102
RTVSPropertyOp1
 70
     1
102
RTVSPropertyOp2
 70
     1
102
RTVSPropertyOp3
 70
     1
102
RTVSPropertyOp4
 70
     1
102
RTVSPropertyOp5
 70
     1
102
RTVSPropertyOp6
 70
     1
102
RTVSPropertyOp7
 70
     1
102
RTVSPropertyOp8
 70
     1
102
RTVSPropertyOp9
 70
     1
102
RTVSPropertyOp10
 70
     1
102
RTVSPropertyOp11
 70
     1
102
RTVSPropertyOp12
 70
     1
102
RTVSPropertyOp13
 70
     1
102
RTVSPropertyOp14
 70
     1
102
RTVSPropertyOp15
 70
     1
102
RTVSPropertyOp16
 70
     1
102
RTVSPropertyOp17
 70
     1
102
RTVSPropertyOp18
 70
     1
102
RTVSPropertyOp19
 70
     1
102
RTVSPropertyOp20
 70
     1
102
RTVSPropertyOp21
 70
     1
102
RTVSPropertyOp22
 70
     1
102
RTVSPropertyOp23
 70
     1
102
RTVSPropertyOp24
 70
     1
102
RTVSPropertyOp25
 70
     1
102
RTVSPropertyOp26
 70
     1
102
RTVSPropertyOp27
 70
     1
102
RTVSPropertyOp28
 70
     1
102
RTVSPropertyOp29
 70
     1
102
RTVSPropertyOp30
 70
     1
102
RTVSPropertyOp31
 70
     1
102
RTVSPropertyOp32
 70
     1
102
RTVSPropertyOp33
 70
     1
102
RTVSPropertyOp34
 70
     1
102
RTVSPropertyOp35
 70
     1
102
RTVSPropertyOp36
 70
     1
102
RTVSPropertyOp37
 70
     1
102
RTVSPropertyOp38
 70
     1
102
RTVSPropertyOp39
 70
     1
102
RTVSPropertyOp40
 70
     1
102
RTVSPropertyOp41
 70
     1
102
RTVSPropertyOp42
 70
     1
102
RTVSPropertyOp43
 70
     1
102
RTVSPropertyOp44
 70
     1
102
RTVSPropertyOp45
 70
     1
102
RTVSPropertyOp46
 70
     1
102
RTVSPropertyOp47
 70
     1
102
RTVSPropertyOp48
 70
     1
102
RTVSPropertyOp49
 70
     1
102
RTVSPropertyOp50
 70
     1
102
RTVSPropertyOp51
 70
     0
102
RTVSPropertyOp52
 70
     0
102
RTVSPropertyOp53
 70
     1
102
RTVSPropertyOp54
 70
     1
102
RTVSPropertyOp55
 70
     1
102
RTVSPropertyOp56
 70
     1
102
RTVSPropertyOp57
 70
     1
102
RTVSPost2010Prop28
280
     0
102
RTVSPost2010PropOp28
 70
     1
102
RTVSPost2010Prop29
280
     1
102
RTVSPost2010PropOp29
 70
     1
102
RTVSPost2010Prop30
280
     1
102
RTVSPost2010PropOp30
 70
     1
102
RTVSPost2010Prop31
280
     0
102
RTVSPost2010PropOp31
 70
     1
102
RTVSPost2010Prop32
280
     0
102
RTVSPost2010PropOp32
 70
     1
102
RTVSPost2010Prop33
280
     0
102
RTVSPost2010PropOp33
 70
     1
102
RTVSPost2010Prop34
280
     0
102
RTVSPost2010PropOp34
 70
     1
102
RTVSPost2010Prop35
280
     0
102
RTVSPost2010PropOp35
 70
     1
102
RTVSPost2010Prop36
280
     0
102
RTVSPost2010PropOp36
 70
     1
102
RTVSPost2010Prop37
 90
       50
102
RTVSPost2010PropOp37
 70
     1
102
RTVSPost2010Prop38
140
0.0
102
RTVSPost2010PropOp38
 70
     1
102
RTVSPost2010Prop39
140
1.0
102
RTVSPost2010PropOp39
 70
     1
102
RTVSPost2010Prop40
 90
        0
102
RTVSPost2010PropOp40
 70
     1
102
RTVSPost2010Prop41ColorIndex
 90
       18
102
RTVSPost2010Prop41ColorRGB
 90
        0
102
RTVSPost2010PropOp41
 70
     1
102
RTVSPost2010Prop42
 90
       50
102
RTVSPost2010PropOp42
 70
     1
102
RTVSPost2010Prop43
 90
        3
102
RTVSPost2010PropOp43
 70
     1
102
RTVSPost2010Prop44ColorIndex
 90
        5
102
RTVSPost2010Prop44ColorRGB
 90
      255
102
RTVSPost2010PropOp44
 70
     1
102
RTVSPost2010Prop45
280
     0
102
RTVSPost2010PropOp45
 70
     1
102
RTVSPost2010Prop46
 90
       50
102
RTVSPost2010PropOp46
 70
     1
102
RTVSPost2010Prop47
 90
       50
102
RTVSPost2010PropOp47
 70
     1
102
RTVSPost2010Prop48
 90
       50
102
RTVSPost2010PropOp48
 70
     1
102
RTVSPost2010Prop49
280
     0
102
RTVSPost2010PropOp49
 70
     1
102
RTVSPost2010Prop50
 90
       50
102
RTVSPost2010PropOp50
 70
     1
102
RTVSPost2010Prop51ColorIndex
 90
      256
102
RTVSPost2010Prop51ColorRGB
 90
-16777216
102
RTVSPost2010PropOp51
 70
     0
102
RTVSPost2010Prop52
140
1.0
102
RTVSPost2010PropOp52
 70
     0
102
RTVSPost2010Prop53
 90
        2
102
RTVSPost2010PropOp53
 70
     1
102
RTVSPost2010Prop54
  1
strokes_ogs.tif
102
RTVSPost2010PropOp54
 70
     1
102
RTVSPost2010Prop55
280
     0
102
RTVSPost2010PropOp55
 70
     1
102
RTVSPost2010Prop56
140
1.0
102
RTVSPost2010PropOp56
 70
     1
102
RTVSPost2010Prop57
140
1.0
102
RTVSPost2010PropOp57
 70
     1
  0
XRECORD
  5
31E
102
{ACAD_REACTORS
330
31D
102
}
330
31D
100
AcDbXrecord
280
     1
102
RTVSPropertyOp0
 70
     1
102
RTVSPropertyOp1
 70
     1
102
RTVSPropertyOp2
 70
     1
102
RTVSPropertyOp3
 70
     1
102
RTVSPropertyOp4
 70
     1
102
RTVSPropertyOp5
 70
     1
102
RTVSPropertyOp6
 70
     1
102
RTVSPropertyOp7
 70
     1
102
RTVSPropertyOp8
 70
     1
102
RTVSPropertyOp9
 70
     1
102
RTVSPropertyOp10
 70
     1
102
RTVSPropertyOp11
 70
     1
102
RTVSPropertyOp12
 70
     1
102
RTVSPropertyOp13
 70
     1
102
RTVSPropertyOp14
 70
     1
102
RTVSPropertyOp15
 70
     1
102
RTVSPropertyOp16
 70
     1
102
RTVSPropertyOp17
 70
     1
102
RTVSPropertyOp18
 70
     1
102
RTVSPropertyOp19
 70
     1
102
RTVSPropertyOp20
 70
     1
102
RTVSPropertyOp21
 70
     1
102
RTVSPropertyOp22
 70
     1
102
RTVSPropertyOp23
 70
     1
102
RTVSPropertyOp24
 70
     1
102
RTVSPropertyOp25
 70
     1
102
RTVSPropertyOp26
 70
     1
102
RTVSPropertyOp27
 70
     1
102
RTVSPropertyOp28
 70
     1
102
RTVSPropertyOp29
 70
     1
102
RTVSPropertyOp30
 70
     1
102
RTVSPropertyOp31
 70
     1
102
RTVSPropertyOp32
 70
     1
102
RTVSPropertyOp33
 70
     1
102
RTVSPropertyOp34
 70
     1
102
RTVSPropertyOp35
 70
     1
102
RTVSPropertyOp36
 70
     1
102
RTVSPropertyOp37
 70
     1
102
RTVSPropertyOp38
 70
     1
102
RTVSPropertyOp39
 70
     1
102
RTVSPropertyOp40
 70
     1
102
RTVSPropertyOp41
 70
     1
102
RTVSPropertyOp42
 70
     1
102
RTVSPropertyOp43
 70
     1
102
RTVSPropertyOp44
 70
     1
102
RTVSPropertyOp45
 70
     1
102
RTVSPropertyOp46
 70
     1
102
RTVSPropertyOp47
 70
     1
102
RTVSPropertyOp48
 70
     1
102
RTVSPropertyOp49
 70
     1
102
RTVSPropertyOp50
 70
     1
102
RTVSPropertyOp51
 70
     0
102
RTVSPropertyOp52
 70
     0
102
RTVSPropertyOp53
 70
     1
102
RTVSPropertyOp54
 70
     1
102
RTVSPropertyOp55
 70
     1
102
RTVSPropertyOp56
 70
     1
102
RTVSPropertyOp57
 70
     1
102
RTVSPost2010Prop28
280
     0
102
RTVSPost2010PropOp28
 70
     1
102
RTVSPost2010Prop29
280
     1
102
RTVSPost2010PropOp29
 70
     1
102
RTVSPost2010Prop30
280
     1
102
RTVSPost2010PropOp30
 70
     1
102
RTVSPost2010Prop31
280
     0
102
RTVSPost2010PropOp31
 70
     1
102
RTVSPost2010Prop32
280
     0
102
RTVSPost2010PropOp32
 70
     1
102
RTVSPost2010Prop33
280
     0
102
RTVSPost2010PropOp33
 70
     1
102
RTVSPost2010Prop34
280
     0
102
RTVSPost2010PropOp34
 70
     1
102
RTVSPost2010Prop35
280
     0
102
RTVSPost2010PropOp35
 70
     1
102
RTVSPost2010Prop36
280
     0
102
RTVSPost2010PropOp36
 70
     1
102
RTVSPost2010Prop37
 90
       50
102
RTVSPost2010PropOp37
 70
     1
102
RTVSPost2010Prop38
140
0.0
102
RTVSPost2010PropOp38
 70
     1
102
RTVSPost2010Prop39
140
1.0
102
RTVSPost2010PropOp39
 70
     1
102
RTVSPost2010Prop40
 90
        0
102
RTVSPost2010PropOp40
 70
     1
102
RTVSPost2010Prop41ColorIndex
 90
       18
102
RTVSPost2010Prop41ColorRGB
 90
        0
102
RTVSPost2010PropOp41
 70
     1
102
RTVSPost2010Prop42
 90
       50
102
RTVSPost2010PropOp42
 70
     1
102
RTVSPost2010Prop43
 90
        3
102
RTVSPost2010PropOp43
 70
     1
102
RTVSPost2010Prop44ColorIndex
 90
        5
102
RTVSPost2010Prop44ColorRGB
 90
      255
102
RTVSPost2010PropOp44
 70
     1
102
RTVSPost2010Prop45
280
     0
102
RTVSPost2010PropOp45
 70
     1
102
RTVSPost2010Prop46
 90
       50
102
RTVSPost2010PropOp46
 70
     1
102
RTVSPost2010Prop47
 90
       50
102
RTVSPost2010PropOp47
 70
     1
102
RTVSPost2010Prop48
 90
       50
102
RTVSPost2010PropOp48
 70
     1
102
RTVSPost2010Prop49
280
     0
102
RTVSPost2010PropOp49
 70
     1
102
RTVSPost2010Prop50
 90
       50
102
RTVSPost2010PropOp50
 70
     1
102
RTVSPost2010Prop51ColorIndex
 90
      256
102
RTVSPost2010Prop51ColorRGB
 90
-16777216
102
RTVSPost2010PropOp51
 70
     0
102
RTVSPost2010Prop52
140
1.0
102
RTVSPost2010PropOp52
 70
     0
102
RTVSPost2010Prop53
 90
        2
102
RTVSPost2010PropOp53
 70
     1
102
RTVSPost2010Prop54
  1
strokes_ogs.tif
102
RTVSPost2010PropOp54
 70
     1
102
RTVSPost2010Prop55
280
     0
102
RTVSPost2010PropOp55
 70
     1
102
RTVSPost2010Prop56
140
1.0
102
RTVSPost2010PropOp56
 70
     1
102
RTVSPost2010Prop57
140
1.0
102
RTVSPost2010PropOp57
 70
     1
  0
XRECORD
  5
326
102
{ACAD_REACTORS
330
325
102
}
330
325
100
AcDbXrecord
280
     1
102
RTVSPropertyOp0
 70
     1
102
RTVSPropertyOp1
 70
     1
102
RTVSPropertyOp2
 70
     1
102
RTVSPropertyOp3
 70
     1
102
RTVSPropertyOp4
 70
     1
102
RTVSPropertyOp5
 70
     1
102
RTVSPropertyOp6
 70
     1
102
RTVSPropertyOp7
 70
     1
102
RTVSPropertyOp8
 70
     1
102
RTVSPropertyOp9
 70
     1
102
RTVSPropertyOp10
 70
     1
102
RTVSPropertyOp11
 70
     1
102
RTVSPropertyOp12
 70
     1
102
RTVSPropertyOp13
 70
     1
102
RTVSPropertyOp14
 70
     1
102
RTVSPropertyOp15
 70
     1
102
RTVSPropertyOp16
 70
     1
102
RTVSPropertyOp17
 70
     1
102
RTVSPropertyOp18
 70
     1
102
RTVSPropertyOp19
 70
     1
102
RTVSPropertyOp20
 70
     1
102
RTVSPropertyOp21
 70
     1
102
RTVSPropertyOp22
 70
     1
102
RTVSPropertyOp23
 70
     1
102
RTVSPropertyOp24
 70
     1
102
RTVSPropertyOp25
 70
     1
102
RTVSPropertyOp26
 70
     1
102
RTVSPropertyOp27
 70
     1
102
RTVSPropertyOp28
 70
     1
102
RTVSPropertyOp29
 70
     1
102
RTVSPropertyOp30
 70
     1
102
RTVSPropertyOp31
 70
     1
102
RTVSPropertyOp32
 70
     1
102
RTVSPropertyOp33
 70
     1
102
RTVSPropertyOp34
 70
     1
102
RTVSPropertyOp35
 70
     1
102
RTVSPropertyOp36
 70
     1
102
RTVSPropertyOp37
 70
     1
102
RTVSPropertyOp38
 70
     1
102
RTVSPropertyOp39
 70
     1
102
RTVSPropertyOp40
 70
     1
102
RTVSPropertyOp41
 70
     1
102
RTVSPropertyOp42
 70
     1
102
RTVSPropertyOp43
 70
     1
102
RTVSPropertyOp44
 70
     1
102
RTVSPropertyOp45
 70
     1
102
RTVSPropertyOp46
 70
     1
102
RTVSPropertyOp47
 70
     1
102
RTVSPropertyOp48
 70
     1
102
RTVSPropertyOp49
 70
     1
102
RTVSPropertyOp50
 70
     1
102
RTVSPropertyOp51
 70
     0
102
RTVSPropertyOp52
 70
     0
102
RTVSPropertyOp53
 70
     1
102
RTVSPropertyOp54
 70
     1
102
RTVSPropertyOp55
 70
     1
102
RTVSPropertyOp56
 70
     1
102
RTVSPropertyOp57
 70
     1
102
RTVSPost2010Prop28
280
     0
102
RTVSPost2010PropOp28
 70
     1
102
RTVSPost2010Prop29
280
     1
102
RTVSPost2010PropOp29
 70
     1
102
RTVSPost2010Prop30
280
     1
102
RTVSPost2010PropOp30
 70
     1
102
RTVSPost2010Prop31
280
     0
102
RTVSPost2010PropOp31
 70
     1
102
RTVSPost2010Prop32
280
     0
102
RTVSPost2010PropOp32
 70
     1
102
RTVSPost2010Prop33
280
     0
102
RTVSPost2010PropOp33
 70
     1
102
RTVSPost2010Prop34
280
     0
102
RTVSPost2010PropOp34
 70
     1
102
RTVSPost2010Prop35
280
     0
102
RTVSPost2010PropOp35
 70
     1
102
RTVSPost2010Prop36
280
     0
102
RTVSPost2010PropOp36
 70
     1
102
RTVSPost2010Prop37
 90
       50
102
RTVSPost2010PropOp37
 70
     1
102
RTVSPost2010Prop38
140
0.0
102
RTVSPost2010PropOp38
 70
     1
102
RTVSPost2010Prop39
140
1.0
102
RTVSPost2010PropOp39
 70
     1
102
RTVSPost2010Prop40
 90
        0
102
RTVSPost2010PropOp40
 70
     1
102
RTVSPost2010Prop41ColorIndex
 90
       18
102
RTVSPost2010Prop41ColorRGB
 90
        0
102
RTVSPost2010PropOp41
 70
     1
102
RTVSPost2010Prop42
 90
       50
102
RTVSPost2010PropOp42
 70
     1
102
RTVSPost2010Prop43
 90
        3
102
RTVSPost2010PropOp43
 70
     1
102
RTVSPost2010Prop44ColorIndex
 90
        5
102
RTVSPost2010Prop44ColorRGB
 90
      255
102
RTVSPost2010PropOp44
 70
     1
102
RTVSPost2010Prop45
280
     0
102
RTVSPost2010PropOp45
 70
     1
102
RTVSPost2010Prop46
 90
       50
102
RTVSPost2010PropOp46
 70
     1
102
RTVSPost2010Prop47
 90
       50
102
RTVSPost2010PropOp47
 70
     1
102
RTVSPost2010Prop48
 90
       50
102
RTVSPost2010PropOp48
 70
     1
102
RTVSPost2010Prop49
280
     0
102
RTVSPost2010PropOp49
 70
     1
102
RTVSPost2010Prop50
 90
       50
102
RTVSPost2010PropOp50
 70
     1
102
RTVSPost2010Prop51ColorIndex
 90
      256
102
RTVSPost2010Prop51ColorRGB
 90
-16777216
102
RTVSPost2010PropOp51
 70
     0
102
RTVSPost2010Prop52
140
1.0
102
RTVSPost2010PropOp52
 70
     0
102
RTVSPost2010Prop53
 90
        2
102
RTVSPost2010PropOp53
 70
     1
102
RTVSPost2010Prop54
  1
strokes_ogs.tif
102
RTVSPost2010PropOp54
 70
     1
102
RTVSPost2010Prop55
280
     0
102
RTVSPost2010PropOp55
 70
     1
102
RTVSPost2010Prop56
140
1.0
102
RTVSPost2010PropOp56
 70
     1
102
RTVSPost2010Prop57
140
1.0
102
RTVSPost2010PropOp57
 70
     1
  0
XRECORD
  5
31A
102
{ACAD_REACTORS
330
319
102
}
330
319
100
AcDbXrecord
280
     1
102
RTVSPropertyOp0
 70
     1
102
RTVSPropertyOp1
 70
     1
102
RTVSPropertyOp2
 70
     1
102
RTVSPropertyOp3
 70
     1
102
RTVSPropertyOp4
 70
     1
102
RTVSPropertyOp5
 70
     1
102
RTVSPropertyOp6
 70
     1
102
RTVSPropertyOp7
 70
     1
102
RTVSPropertyOp8
 70
     1
102
RTVSPropertyOp9
 70
     1
102
RTVSPropertyOp10
 70
     1
102
RTVSPropertyOp11
 70
     1
102
RTVSPropertyOp12
 70
     1
102
RTVSPropertyOp13
 70
     1
102
RTVSPropertyOp14
 70
     1
102
RTVSPropertyOp15
 70
     1
102
RTVSPropertyOp16
 70
     1
102
RTVSPropertyOp17
 70
     1
102
RTVSPropertyOp18
 70
     1
102
RTVSPropertyOp19
 70
     1
102
RTVSPropertyOp20
 70
     1
102
RTVSPropertyOp21
 70
     1
102
RTVSPropertyOp22
 70
     1
102
RTVSPropertyOp23
 70
     1
102
RTVSPropertyOp24
 70
     1
102
RTVSPropertyOp25
 70
     1
102
RTVSPropertyOp26
 70
     1
102
RTVSPropertyOp27
 70
     1
102
RTVSPropertyOp28
 70
     1
102
RTVSPropertyOp29
 70
     1
102
RTVSPropertyOp30
 70
     1
102
RTVSPropertyOp31
 70
     1
102
RTVSPropertyOp32
 70
     1
102
RTVSPropertyOp33
 70
     1
102
RTVSPropertyOp34
 70
     1
102
RTVSPropertyOp35
 70
     1
102
RTVSPropertyOp36
 70
     1
102
RTVSPropertyOp37
 70
     1
102
RTVSPropertyOp38
 70
     1
102
RTVSPropertyOp39
 70
     1
102
RTVSPropertyOp40
 70
     1
102
RTVSPropertyOp41
 70
     1
102
RTVSPropertyOp42
 70
     1
102
RTVSPropertyOp43
 70
     1
102
RTVSPropertyOp44
 70
     1
102
RTVSPropertyOp45
 70
     1
102
RTVSPropertyOp46
 70
     1
102
RTVSPropertyOp47
 70
     1
102
RTVSPropertyOp48
 70
     1
102
RTVSPropertyOp49
 70
     1
102
RTVSPropertyOp50
 70
     1
102
RTVSPropertyOp51
 70
     0
102
RTVSPropertyOp52
 70
     0
102
RTVSPropertyOp53
 70
     1
102
RTVSPropertyOp54
 70
     1
102
RTVSPropertyOp55
 70
     1
102
RTVSPropertyOp56
 70
     1
102
RTVSPropertyOp57
 70
     1
102
RTVSPost2010Prop28
280
     0
102
RTVSPost2010PropOp28
 70
     1
102
RTVSPost2010Prop29
280
     1
102
RTVSPost2010PropOp29
 70
     1
102
RTVSPost2010Prop30
280
     1
102
RTVSPost2010PropOp30
 70
     1
102
RTVSPost2010Prop31
280
     0
102
RTVSPost2010PropOp31
 70
     1
102
RTVSPost2010Prop32
280
     0
102
RTVSPost2010PropOp32
 70
     1
102
RTVSPost2010Prop33
280
     0
102
RTVSPost2010PropOp33
 70
     1
102
RTVSPost2010Prop34
280
     0
102
RTVSPost2010PropOp34
 70
     1
102
RTVSPost2010Prop35
280
     0
102
RTVSPost2010PropOp35
 70
     1
102
RTVSPost2010Prop36
280
     0
102
RTVSPost2010PropOp36
 70
     1
102
RTVSPost2010Prop37
 90
       50
102
RTVSPost2010PropOp37
 70
     1
102
RTVSPost2010Prop38
140
0.0
102
RTVSPost2010PropOp38
 70
     1
102
RTVSPost2010Prop39
140
1.0
102
RTVSPost2010PropOp39
 70
     1
102
RTVSPost2010Prop40
 90
        0
102
RTVSPost2010PropOp40
 70
     1
102
RTVSPost2010Prop41ColorIndex
 90
       18
102
RTVSPost2010Prop41ColorRGB
 90
        0
102
RTVSPost2010PropOp41
 70
     1
102
RTVSPost2010Prop42
 90
       50
102
RTVSPost2010PropOp42
 70
     1
102
RTVSPost2010Prop43
 90
        3
102
RTVSPost2010PropOp43
 70
     1
102
RTVSPost2010Prop44ColorIndex
 90
        5
102
RTVSPost2010Prop44ColorRGB
 90
      255
102
RTVSPost2010PropOp44
 70
     1
102
RTVSPost2010Prop45
280
     0
102
RTVSPost2010PropOp45
 70
     1
102
RTVSPost2010Prop46
 90
       50
102
RTVSPost2010PropOp46
 70
     1
102
RTVSPost2010Prop47
 90
       50
102
RTVSPost2010PropOp47
 70
     1
102
RTVSPost2010Prop48
 90
       50
102
RTVSPost2010PropOp48
 70
     1
102
RTVSPost2010Prop49
280
     0
102
RTVSPost2010PropOp49
 70
     1
102
RTVSPost2010Prop50
 90
       50
102
RTVSPost2010PropOp50
 70
     1
102
RTVSPost2010Prop51ColorIndex
 90
      256
102
RTVSPost2010Prop51ColorRGB
 90
-16777216
102
RTVSPost2010PropOp51
 70
     0
102
RTVSPost2010Prop52
140
1.0
102
RTVSPost2010PropOp52
 70
     0
102
RTVSPost2010Prop53
 90
        2
102
RTVSPost2010PropOp53
 70
     1
102
RTVSPost2010Prop54
  1
strokes_ogs.tif
102
RTVSPost2010PropOp54
 70
     1
102
RTVSPost2010Prop55
280
     0
102
RTVSPost2010PropOp55
 70
     1
102
RTVSPost2010Prop56
140
1.0
102
RTVSPost2010PropOp56
 70
     1
102
RTVSPost2010Prop57
140
1.0
102
RTVSPost2010PropOp57
 70
     1
  0
XRECORD
  5
31C
102
{ACAD_REACTORS
330
31B
102
}
330
31B
100
AcDbXrecord
280
     1
102
RTVSPropertyOp0
 70
     1
102
RTVSPropertyOp1
 70
     1
102
RTVSPropertyOp2
 70
     1
102
RTVSPropertyOp3
 70
     1
102
RTVSPropertyOp4
 70
     1
102
RTVSPropertyOp5
 70
     1
102
RTVSPropertyOp6
 70
     1
102
RTVSPropertyOp7
 70
     1
102
RTVSPropertyOp8
 70
     1
102
RTVSPropertyOp9
 70
     1
102
RTVSPropertyOp10
 70
     1
102
RTVSPropertyOp11
 70
     1
102
RTVSPropertyOp12
 70
     1
102
RTVSPropertyOp13
 70
     1
102
RTVSPropertyOp14
 70
     1
102
RTVSPropertyOp15
 70
     1
102
RTVSPropertyOp16
 70
     1
102
RTVSPropertyOp17
 70
     1
102
RTVSPropertyOp18
 70
     1
102
RTVSPropertyOp19
 70
     1
102
RTVSPropertyOp20
 70
     1
102
RTVSPropertyOp21
 70
     1
102
RTVSPropertyOp22
 70
     1
102
RTVSPropertyOp23
 70
     1
102
RTVSPropertyOp24
 70
     1
102
RTVSPropertyOp25
 70
     1
102
RTVSPropertyOp26
 70
     1
102
RTVSPropertyOp27
 70
     1
102
RTVSPropertyOp28
 70
     1
102
RTVSPropertyOp29
 70
     1
102
RTVSPropertyOp30
 70
     1
102
RTVSPropertyOp31
 70
     1
102
RTVSPropertyOp32
 70
     1
102
RTVSPropertyOp33
 70
     1
102
RTVSPropertyOp34
 70
     1
102
RTVSPropertyOp35
 70
     1
102
RTVSPropertyOp36
 70
     1
102
RTVSPropertyOp37
 70
     1
102
RTVSPropertyOp38
 70
     1
102
RTVSPropertyOp39
 70
     1
102
RTVSPropertyOp40
 70
     1
102
RTVSPropertyOp41
 70
     1
102
RTVSPropertyOp42
 70
     1
102
RTVSPropertyOp43
 70
     1
102
RTVSPropertyOp44
 70
     1
102
RTVSPropertyOp45
 70
     1
102
RTVSPropertyOp46
 70
     1
102
RTVSPropertyOp47
 70
     1
102
RTVSPropertyOp48
 70
     1
102
RTVSPropertyOp49
 70
     1
102
RTVSPropertyOp50
 70
     1
102
RTVSPropertyOp51
 70
     0
102
RTVSPropertyOp52
 70
     0
102
RTVSPropertyOp53
 70
     1
102
RTVSPropertyOp54
 70
     1
102
RTVSPropertyOp55
 70
     1
102
RTVSPropertyOp56
 70
     1
102
RTVSPropertyOp57
 70
     1
102
RTVSPost2010Prop28
280
     0
102
RTVSPost2010PropOp28
 70
     1
102
RTVSPost2010Prop29
280
     1
102
RTVSPost2010PropOp29
 70
     1
102
RTVSPost2010Prop30
280
     1
102
RTVSPost2010PropOp30
 70
     1
102
RTVSPost2010Prop31
280
     0
102
RTVSPost2010PropOp31
 70
     1
102
RTVSPost2010Prop32
280
     0
102
RTVSPost2010PropOp32
 70
     1
102
RTVSPost2010Prop33
280
     0
102
RTVSPost2010PropOp33
 70
     1
102
RTVSPost2010Prop34
280
     0
102
RTVSPost2010PropOp34
 70
     1
102
RTVSPost2010Prop35
280
     0
102
RTVSPost2010PropOp35
 70
     1
102
RTVSPost2010Prop36
280
     0
102
RTVSPost2010PropOp36
 70
     1
102
RTVSPost2010Prop37
 90
       50
102
RTVSPost2010PropOp37
 70
     1
102
RTVSPost2010Prop38
140
0.0
102
RTVSPost2010PropOp38
 70
     1
102
RTVSPost2010Prop39
140
1.0
102
RTVSPost2010PropOp39
 70
     1
102
RTVSPost2010Prop40
 90
        0
102
RTVSPost2010PropOp40
 70
     1
102
RTVSPost2010Prop41ColorIndex
 90
       18
102
RTVSPost2010Prop41ColorRGB
 90
        0
102
RTVSPost2010PropOp41
 70
     1
102
RTVSPost2010Prop42
 90
       50
102
RTVSPost2010PropOp42
 70
     1
102
RTVSPost2010Prop43
 90
        3
102
RTVSPost2010PropOp43
 70
     1
102
RTVSPost2010Prop44ColorIndex
 90
        5
102
RTVSPost2010Prop44ColorRGB
 90
      255
102
RTVSPost2010PropOp44
 70
     1
102
RTVSPost2010Prop45
280
     0
102
RTVSPost2010PropOp45
 70
     1
102
RTVSPost2010Prop46
 90
       50
102
RTVSPost2010PropOp46
 70
     1
102
RTVSPost2010Prop47
 90
       50
102
RTVSPost2010PropOp47
 70
     1
102
RTVSPost2010Prop48
 90
       50
102
RTVSPost2010PropOp48
 70
     1
102
RTVSPost2010Prop49
280
     0
102
RTVSPost2010PropOp49
 70
     1
102
RTVSPost2010Prop50
 90
       50
102
RTVSPost2010PropOp50
 70
     1
102
RTVSPost2010Prop51ColorIndex
 90
      256
102
RTVSPost2010Prop51ColorRGB
 90
-16777216
102
RTVSPost2010PropOp51
 70
     0
102
RTVSPost2010Prop52
140
1.0
102
RTVSPost2010PropOp52
 70
     0
102
RTVSPost2010Prop53
 90
        2
102
RTVSPost2010PropOp53
 70
     1
102
RTVSPost2010Prop54
  1
strokes_ogs.tif
102
RTVSPost2010PropOp54
 70
     1
102
RTVSPost2010Prop55
280
     0
102
RTVSPost2010PropOp55
 70
     1
102
RTVSPost2010Prop56
140
1.0
102
RTVSPost2010PropOp56
 70
     1
102
RTVSPost2010Prop57
140
1.0
102
RTVSPost2010PropOp57
 70
     1
  0
XRECORD
  5
32C
102
{ACAD_REACTORS
330
32B
102
}
330
32B
100
AcDbXrecord
280
     1
102
RTVSPropertyOp0
 70
     0
102
RTVSPropertyOp1
 70
     0
102
RTVSPropertyOp2
 70
     0
102
RTVSPropertyOp3
 70
     0
102
RTVSPropertyOp4
 70
     0
102
RTVSPropertyOp5
 70
     0
102
RTVSPropertyOp6
 70
     0
102
RTVSPropertyOp7
 70
     0
102
RTVSPropertyOp8
 70
     0
102
RTVSPropertyOp9
 70
     0
102
RTVSPropertyOp10
 70
     0
102
RTVSPropertyOp11
 70
     0
102
RTVSPropertyOp12
 70
     0
102
RTVSPropertyOp13
 70
     0
102
RTVSPropertyOp14
 70
     2
102
RTVSPropertyOp15
 70
     0
102
RTVSPropertyOp16
 70
     0
102
RTVSPropertyOp17
 70
     0
102
RTVSPropertyOp18
 70
     0
102
RTVSPropertyOp19
 70
     0
102
RTVSPropertyOp20
 70
     0
102
RTVSPropertyOp21
 70
     0
102
RTVSPropertyOp22
 70
     0
102
RTVSPropertyOp23
 70
     0
102
RTVSPropertyOp24
 70
     0
102
RTVSPropertyOp25
 70
     0
102
RTVSPropertyOp26
 70
     0
102
RTVSPropertyOp27
 70
     0
102
RTVSPropertyOp28
 70
     0
102
RTVSPropertyOp29
 70
     0
102
RTVSPropertyOp30
 70
     0
102
RTVSPropertyOp31
 70
     0
102
RTVSPropertyOp32
 70
     0
102
RTVSPropertyOp33
 70
     0
102
RTVSPropertyOp34
 70
     0
102
RTVSPropertyOp35
 70
     0
102
RTVSPropertyOp36
 70
     0
102
RTVSPropertyOp37
 70
     0
102
RTVSPropertyOp38
 70
     0
102
RTVSPropertyOp39
 70
     0
102
RTVSPropertyOp40
 70
     0
102
RTVSPropertyOp41
 70
     0
102
RTVSPropertyOp42
 70
     0
102
RTVSPropertyOp43
 70
     0
102
RTVSPropertyOp44
 70
     0
102
RTVSPropertyOp45
 70
     0
102
RTVSPropertyOp46
 70
     0
102
RTVSPropertyOp47
 70
     0
102
RTVSPropertyOp48
 70
     0
102
RTVSPropertyOp49
 70
     0
102
RTVSPropertyOp50
 70
     0
102
RTVSPropertyOp51
 70
     0
102
RTVSPropertyOp52
 70
     0
102
RTVSPropertyOp53
 70
     0
102
RTVSPropertyOp54
 70
     0
102
RTVSPropertyOp55
 70
     0
102
RTVSPropertyOp56
 70
     0
102
RTVSPropertyOp57
 70
     0
102
RTVSPost2010Prop28
280
     0
102
RTVSPost2010PropOp28
 70
     0
102
RTVSPost2010Prop29
280
     1
102
RTVSPost2010PropOp29
 70
     0
102
RTVSPost2010Prop30
280
     1
102
RTVSPost2010PropOp30
 70
     0
102
RTVSPost2010Prop31
280
     0
102
RTVSPost2010PropOp31
 70
     0
102
RTVSPost2010Prop32
280
     0
102
RTVSPost2010PropOp32
 70
     0
102
RTVSPost2010Prop33
280
     0
102
RTVSPost2010PropOp33
 70
     0
102
RTVSPost2010Prop34
280
     0
102
RTVSPost2010PropOp34
 70
     0
102
RTVSPost2010Prop35
280
     0
102
RTVSPost2010PropOp35
 70
     0
102
RTVSPost2010Prop36
280
     0
102
RTVSPost2010PropOp36
 70
     0
102
RTVSPost2010Prop37
 90
       50
102
RTVSPost2010PropOp37
 70
     0
102
RTVSPost2010Prop38
140
0.0
102
RTVSPost2010PropOp38
 70
     0
102
RTVSPost2010Prop39
140
1.0
102
RTVSPost2010PropOp39
 70
     0
102
RTVSPost2010Prop40
 90
        0
102
RTVSPost2010PropOp40
 70
     0
102
RTVSPost2010Prop41ColorIndex
 90
       18
102
RTVSPost2010Prop41ColorRGB
 90
        0
102
RTVSPost2010PropOp41
 70
     0
102
RTVSPost2010Prop42
 90
       50
102
RTVSPost2010PropOp42
 70
     0
102
RTVSPost2010Prop43
 90
        3
102
RTVSPost2010PropOp43
 70
     0
102
RTVSPost2010Prop44ColorIndex
 90
        5
102
RTVSPost2010Prop44ColorRGB
 90
      255
102
RTVSPost2010PropOp44
 70
     0
102
RTVSPost2010Prop45
280
     0
102
RTVSPost2010PropOp45
 70
     0
102
RTVSPost2010Prop46
 90
       50
102
RTVSPost2010PropOp46
 70
     0
102
RTVSPost2010Prop47
 90
       50
102
RTVSPost2010PropOp47
 70
     0
102
RTVSPost2010Prop48
 90
       50
102
RTVSPost2010PropOp48
 70
     0
102
RTVSPost2010Prop49
280
     0
102
RTVSPost2010PropOp49
 70
     0
102
RTVSPost2010Prop50
 90
       50
102
RTVSPost2010PropOp50
 70
     0
102
RTVSPost2010Prop51ColorIndex
 90
      256
102
RTVSPost2010Prop51ColorRGB
 90
-16777216
102
RTVSPost2010PropOp51
 70
     0
102
RTVSPost2010Prop52
140
1.0
102
RTVSPost2010PropOp52
 70
     0
102
RTVSPost2010Prop53
 90
        2
102
RTVSPost2010PropOp53
 70
     0
102
RTVSPost2010Prop54
  1
strokes_ogs.tif
102
RTVSPost2010PropOp54
 70
     0
102
RTVSPost2010Prop55
280
     0
102
RTVSPost2010PropOp55
 70
     0
102
RTVSPost2010Prop56
140
1.0
102
RTVSPost2010PropOp56
 70
     0
102
RTVSPost2010Prop57
140
1.0
102
RTVSPost2010PropOp57
 70
     0
  0
XRECORD
  5
324
102
{ACAD_REACTORS
330
323
102
}
330
323
100
AcDbXrecord
280
     1
102
RTVSPropertyOp0
 70
     1
102
RTVSPropertyOp1
 70
     1
102
RTVSPropertyOp2
 70
     1
102
RTVSPropertyOp3
 70
     1
102
RTVSPropertyOp4
 70
     1
102
RTVSPropertyOp5
 70
     1
102
RTVSPropertyOp6
 70
     1
102
RTVSPropertyOp7
 70
     1
102
RTVSPropertyOp8
 70
     1
102
RTVSPropertyOp9
 70
     1
102
RTVSPropertyOp10
 70
     1
102
RTVSPropertyOp11
 70
     1
102
RTVSPropertyOp12
 70
     1
102
RTVSPropertyOp13
 70
     1
102
RTVSPropertyOp14
 70
     1
102
RTVSPropertyOp15
 70
     1
102
RTVSPropertyOp16
 70
     1
102
RTVSPropertyOp17
 70
     1
102
RTVSPropertyOp18
 70
     1
102
RTVSPropertyOp19
 70
     1
102
RTVSPropertyOp20
 70
     1
102
RTVSPropertyOp21
 70
     1
102
RTVSPropertyOp22
 70
     1
102
RTVSPropertyOp23
 70
     1
102
RTVSPropertyOp24
 70
     1
102
RTVSPropertyOp25
 70
     1
102
RTVSPropertyOp26
 70
     1
102
RTVSPropertyOp27
 70
     1
102
RTVSPropertyOp28
 70
     1
102
RTVSPropertyOp29
 70
     1
102
RTVSPropertyOp30
 70
     1
102
RTVSPropertyOp31
 70
     1
102
RTVSPropertyOp32
 70
     1
102
RTVSPropertyOp33
 70
     1
102
RTVSPropertyOp34
 70
     1
102
RTVSPropertyOp35
 70
     1
102
RTVSPropertyOp36
 70
     1
102
RTVSPropertyOp37
 70
     1
102
RTVSPropertyOp38
 70
     1
102
RTVSPropertyOp39
 70
     1
102
RTVSPropertyOp40
 70
     1
102
RTVSPropertyOp41
 70
     1
102
RTVSPropertyOp42
 70
     1
102
RTVSPropertyOp43
 70
     1
102
RTVSPropertyOp44
 70
     1
102
RTVSPropertyOp45
 70
     1
102
RTVSPropertyOp46
 70
     1
102
RTVSPropertyOp47
 70
     1
102
RTVSPropertyOp48
 70
     1
102
RTVSPropertyOp49
 70
     1
102
RTVSPropertyOp50
 70
     1
102
RTVSPropertyOp51
 70
     0
102
RTVSPropertyOp52
 70
     0
102
RTVSPropertyOp53
 70
     1
102
RTVSPropertyOp54
 70
     1
102
RTVSPropertyOp55
 70
     1
102
RTVSPropertyOp56
 70
     1
102
RTVSPropertyOp57
 70
     1
102
RTVSPost2010Prop28
280
     0
102
RTVSPost2010PropOp28
 70
     1
102
RTVSPost2010Prop29
280
     1
102
RTVSPost2010PropOp29
 70
     1
102
RTVSPost2010Prop30
280
     1
102
RTVSPost2010PropOp30
 70
     1
102
RTVSPost2010Prop31
280
     0
102
RTVSPost2010PropOp31
 70
     1
102
RTVSPost2010Prop32
280
     0
102
RTVSPost2010PropOp32
 70
     1
102
RTVSPost2010Prop33
280
     0
102
RTVSPost2010PropOp33
 70
     1
102
RTVSPost2010Prop34
280
     0
102
RTVSPost2010PropOp34
 70
     1
102
RTVSPost2010Prop35
280
     0
102
RTVSPost2010PropOp35
 70
     1
102
RTVSPost2010Prop36
280
     0
102
RTVSPost2010PropOp36
 70
     1
102
RTVSPost2010Prop37
 90
       50
102
RTVSPost2010PropOp37
 70
     1
102
RTVSPost2010Prop38
140
0.0
102
RTVSPost2010PropOp38
 70
     1
102
RTVSPost2010Prop39
140
1.0
102
RTVSPost2010PropOp39
 70
     1
102
RTVSPost2010Prop40
 90
        0
102
RTVSPost2010PropOp40
 70
     1
102
RTVSPost2010Prop41ColorIndex
 90
       18
102
RTVSPost2010Prop41ColorRGB
 90
        0
102
RTVSPost2010PropOp41
 70
     1
102
RTVSPost2010Prop42
 90
       50
102
RTVSPost2010PropOp42
 70
     1
102
RTVSPost2010Prop43
 90
        3
102
RTVSPost2010PropOp43
 70
     1
102
RTVSPost2010Prop44ColorIndex
 90
        5
102
RTVSPost2010Prop44ColorRGB
 90
      255
102
RTVSPost2010PropOp44
 70
     1
102
RTVSPost2010Prop45
280
     0
102
RTVSPost2010PropOp45
 70
     1
102
RTVSPost2010Prop46
 90
       50
102
RTVSPost2010PropOp46
 70
     1
102
RTVSPost2010Prop47
 90
       50
102
RTVSPost2010PropOp47
 70
     1
102
RTVSPost2010Prop48
 90
       50
102
RTVSPost2010PropOp48
 70
     1
102
RTVSPost2010Prop49
280
     0
102
RTVSPost2010PropOp49
 70
     1
102
RTVSPost2010Prop50
 90
       50
102
RTVSPost2010PropOp50
 70
     1
102
RTVSPost2010Prop51ColorIndex
 90
      256
102
RTVSPost2010Prop51ColorRGB
 90
-16777216
102
RTVSPost2010PropOp51
 70
     0
102
RTVSPost2010Prop52
140
1.0
102
RTVSPost2010PropOp52
 70
     0
102
RTVSPost2010Prop53
 90
        2
102
RTVSPost2010PropOp53
 70
     1
102
RTVSPost2010Prop54
  1
strokes_ogs.tif
102
RTVSPost2010PropOp54
 70
     1
102
RTVSPost2010Prop55
280
     0
102
RTVSPost2010PropOp55
 70
     1
102
RTVSPost2010Prop56
140
1.0
102
RTVSPost2010PropOp56
 70
     1
102
RTVSPost2010Prop57
140
1.0
102
RTVSPost2010PropOp57
 70
     1
  0
XRECORD
  5
308
102
{ACAD_REACTORS
330
307
102
}
330
307
100
AcDbXrecord
280
     1
102
RTVSPropertyOp0
 70
     1
102
RTVSPropertyOp1
 70
     1
102
RTVSPropertyOp2
 70
     1
102
RTVSPropertyOp3
 70
     1
102
RTVSPropertyOp4
 70
     1
102
RTVSPropertyOp5
 70
     1
102
RTVSPropertyOp6
 70
     1
102
RTVSPropertyOp7
 70
     1
102
RTVSPropertyOp8
 70
     1
102
RTVSPropertyOp9
 70
     1
102
RTVSPropertyOp10
 70
     1
102
RTVSPropertyOp11
 70
     1
102
RTVSPropertyOp12
 70
     1
102
RTVSPropertyOp13
 70
     1
102
RTVSPropertyOp14
 70
     1
102
RTVSPropertyOp15
 70
     1
102
RTVSPropertyOp16
 70
     1
102
RTVSPropertyOp17
 70
     1
102
RTVSPropertyOp18
 70
     1
102
RTVSPropertyOp19
 70
     1
102
RTVSPropertyOp20
 70
     1
102
RTVSPropertyOp21
 70
     1
102
RTVSPropertyOp22
 70
     1
102
RTVSPropertyOp23
 70
     1
102
RTVSPropertyOp24
 70
     1
102
RTVSPropertyOp25
 70
     1
102
RTVSPropertyOp26
 70
     1
102
RTVSPropertyOp27
 70
     1
102
RTVSPropertyOp28
 70
     1
102
RTVSPropertyOp29
 70
     1
102
RTVSPropertyOp30
 70
     1
102
RTVSPropertyOp31
 70
     1
102
RTVSPropertyOp32
 70
     1
102
RTVSPropertyOp33
 70
     1
102
RTVSPropertyOp34
 70
     1
102
RTVSPropertyOp35
 70
     1
102
RTVSPropertyOp36
 70
     1
102
RTVSPropertyOp37
 70
     1
102
RTVSPropertyOp38
 70
     1
102
RTVSPropertyOp39
 70
     1
102
RTVSPropertyOp40
 70
     1
102
RTVSPropertyOp41
 70
     1
102
RTVSPropertyOp42
 70
     1
102
RTVSPropertyOp43
 70
     1
102
RTVSPropertyOp44
 70
     1
102
RTVSPropertyOp45
 70
     1
102
RTVSPropertyOp46
 70
     1
102
RTVSPropertyOp47
 70
     1
102
RTVSPropertyOp48
 70
     1
102
RTVSPropertyOp49
 70
     1
102
RTVSPropertyOp50
 70
     1
102
RTVSPropertyOp51
 70
     0
102
RTVSPropertyOp52
 70
     0
102
RTVSPropertyOp53
 70
     1
102
RTVSPropertyOp54
 70
     1
102
RTVSPropertyOp55
 70
     1
102
RTVSPropertyOp56
 70
     1
102
RTVSPropertyOp57
 70
     1
102
RTVSPost2010Prop28
280
     0
102
RTVSPost2010PropOp28
 70
     1
102
RTVSPost2010Prop29
280
     1
102
RTVSPost2010PropOp29
 70
     1
102
RTVSPost2010Prop30
280
     1
102
RTVSPost2010PropOp30
 70
     1
102
RTVSPost2010Prop31
280
     0
102
RTVSPost2010PropOp31
 70
     1
102
RTVSPost2010Prop32
280
     0
102
RTVSPost2010PropOp32
 70
     1
102
RTVSPost2010Prop33
280
     0
102
RTVSPost2010PropOp33
 70
     1
102
RTVSPost2010Prop34
280
     0
102
RTVSPost2010PropOp34
 70
     1
102
RTVSPost2010Prop35
280
     0
102
RTVSPost2010PropOp35
 70
     1
102
RTVSPost2010Prop36
280
     0
102
RTVSPost2010PropOp36
 70
     1
102
RTVSPost2010Prop37
 90
       50
102
RTVSPost2010PropOp37
 70
     1
102
RTVSPost2010Prop38
140
0.0
102
RTVSPost2010PropOp38
 70
     1
102
RTVSPost2010Prop39
140
1.0
102
RTVSPost2010PropOp39
 70
     1
102
RTVSPost2010Prop40
 90
        0
102
RTVSPost2010PropOp40
 70
     1
102
RTVSPost2010Prop41ColorIndex
 90
       18
102
RTVSPost2010Prop41ColorRGB
 90
        0
102
RTVSPost2010PropOp41
 70
     1
102
RTVSPost2010Prop42
 90
       50
102
RTVSPost2010PropOp42
 70
     1
102
RTVSPost2010Prop43
 90
        3
102
RTVSPost2010PropOp43
 70
     1
102
RTVSPost2010Prop44ColorIndex
 90
        5
102
RTVSPost2010Prop44ColorRGB
 90
      255
102
RTVSPost2010PropOp44
 70
     1
102
RTVSPost2010Prop45
280
     0
102
RTVSPost2010PropOp45
 70
     1
102
RTVSPost2010Prop46
 90
       50
102
RTVSPost2010PropOp46
 70
     1
102
RTVSPost2010Prop47
 90
       50
102
RTVSPost2010PropOp47
 70
     1
102
RTVSPost2010Prop48
 90
       50
102
RTVSPost2010PropOp48
 70
     1
102
RTVSPost2010Prop49
280
     0
102
RTVSPost2010PropOp49
 70
     1
102
RTVSPost2010Prop50
 90
       50
102
RTVSPost2010PropOp50
 70
     1
102
RTVSPost2010Prop51ColorIndex
 90
      256
102
RTVSPost2010Prop51ColorRGB
 90
-16777216
102
RTVSPost2010PropOp51
 70
     0
102
RTVSPost2010Prop52
140
1.0
102
RTVSPost2010PropOp52
 70
     0
102
RTVSPost2010Prop53
 90
        2
102
RTVSPost2010PropOp53
 70
     1
102
RTVSPost2010Prop54
  1
strokes_ogs.tif
102
RTVSPost2010PropOp54
 70
     1
102
RTVSPost2010Prop55
280
     0
102
RTVSPost2010PropOp55
 70
     1
102
RTVSPost2010Prop56
140
1.0
102
RTVSPost2010PropOp56
 70
     1
102
RTVSPost2010Prop57
140
1.0
102
RTVSPost2010PropOp57
 70
     1
  0
XRECORD
  5
30A
102
{ACAD_REACTORS
330
309
102
}
330
309
100
AcDbXrecord
280
     1
102
RTVSPropertyOp0
 70
     1
102
RTVSPropertyOp1
 70
     1
102
RTVSPropertyOp2
 70
     1
102
RTVSPropertyOp3
 70
     1
102
RTVSPropertyOp4
 70
     1
102
RTVSPropertyOp5
 70
     1
102
RTVSPropertyOp6
 70
     1
102
RTVSPropertyOp7
 70
     1
102
RTVSPropertyOp8
 70
     1
102
RTVSPropertyOp9
 70
     1
102
RTVSPropertyOp10
 70
     1
102
RTVSPropertyOp11
 70
     1
102
RTVSPropertyOp12
 70
     1
102
RTVSPropertyOp13
 70
     1
102
RTVSPropertyOp14
 70
     1
102
RTVSPropertyOp15
 70
     1
102
RTVSPropertyOp16
 70
     1
102
RTVSPropertyOp17
 70
     1
102
RTVSPropertyOp18
 70
     1
102
RTVSPropertyOp19
 70
     1
102
RTVSPropertyOp20
 70
     1
102
RTVSPropertyOp21
 70
     1
102
RTVSPropertyOp22
 70
     1
102
RTVSPropertyOp23
 70
     1
102
RTVSPropertyOp24
 70
     1
102
RTVSPropertyOp25
 70
     1
102
RTVSPropertyOp26
 70
     1
102
RTVSPropertyOp27
 70
     1
102
RTVSPropertyOp28
 70
     1
102
RTVSPropertyOp29
 70
     1
102
RTVSPropertyOp30
 70
     1
102
RTVSPropertyOp31
 70
     1
102
RTVSPropertyOp32
 70
     1
102
RTVSPropertyOp33
 70
     1
102
RTVSPropertyOp34
 70
     1
102
RTVSPropertyOp35
 70
     1
102
RTVSPropertyOp36
 70
     1
102
RTVSPropertyOp37
 70
     1
102
RTVSPropertyOp38
 70
     1
102
RTVSPropertyOp39
 70
     1
102
RTVSPropertyOp40
 70
     1
102
RTVSPropertyOp41
 70
     1
102
RTVSPropertyOp42
 70
     1
102
RTVSPropertyOp43
 70
     1
102
RTVSPropertyOp44
 70
     1
102
RTVSPropertyOp45
 70
     1
102
RTVSPropertyOp46
 70
     1
102
RTVSPropertyOp47
 70
     1
102
RTVSPropertyOp48
 70
     1
102
RTVSPropertyOp49
 70
     1
102
RTVSPropertyOp50
 70
     1
102
RTVSPropertyOp51
 70
     0
102
RTVSPropertyOp52
 70
     0
102
RTVSPropertyOp53
 70
     1
102
RTVSPropertyOp54
 70
     1
102
RTVSPropertyOp55
 70
     1
102
RTVSPropertyOp56
 70
     1
102
RTVSPropertyOp57
 70
     1
102
RTVSPost2010Prop28
280
     0
102
RTVSPost2010PropOp28
 70
     1
102
RTVSPost2010Prop29
280
     1
102
RTVSPost2010PropOp29
 70
     1
102
RTVSPost2010Prop30
280
     1
102
RTVSPost2010PropOp30
 70
     1
102
RTVSPost2010Prop31
280
     0
102
RTVSPost2010PropOp31
 70
     1
102
RTVSPost2010Prop32
280
     0
102
RTVSPost2010PropOp32
 70
     1
102
RTVSPost2010Prop33
280
     0
102
RTVSPost2010PropOp33
 70
     1
102
RTVSPost2010Prop34
280
     0
102
RTVSPost2010PropOp34
 70
     1
102
RTVSPost2010Prop35
280
     0
102
RTVSPost2010PropOp35
 70
     1
102
RTVSPost2010Prop36
280
     0
102
RTVSPost2010PropOp36
 70
     1
102
RTVSPost2010Prop37
 90
       50
102
RTVSPost2010PropOp37
 70
     1
102
RTVSPost2010Prop38
140
0.0
102
RTVSPost2010PropOp38
 70
     1
102
RTVSPost2010Prop39
140
1.0
102
RTVSPost2010PropOp39
 70
     1
102
RTVSPost2010Prop40
 90
        0
102
RTVSPost2010PropOp40
 70
     1
102
RTVSPost2010Prop41ColorIndex
 90
       18
102
RTVSPost2010Prop41ColorRGB
 90
        0
102
RTVSPost2010PropOp41
 70
     1
102
RTVSPost2010Prop42
 90
       50
102
RTVSPost2010PropOp42
 70
     1
102
RTVSPost2010Prop43
 90
        3
102
RTVSPost2010PropOp43
 70
     1
102
RTVSPost2010Prop44ColorIndex
 90
        5
102
RTVSPost2010Prop44ColorRGB
 90
      255
102
RTVSPost2010PropOp44
 70
     1
102
RTVSPost2010Prop45
280
     0
102
RTVSPost2010PropOp45
 70
     1
102
RTVSPost2010Prop46
 90
       50
102
RTVSPost2010PropOp46
 70
     1
102
RTVSPost2010Prop47
 90
       50
102
RTVSPost2010PropOp47
 70
     1
102
RTVSPost2010Prop48
 90
       50
102
RTVSPost2010PropOp48
 70
     1
102
RTVSPost2010Prop49
280
     0
102
RTVSPost2010PropOp49
 70
     1
102
RTVSPost2010Prop50
 90
       50
102
RTVSPost2010PropOp50
 70
     1
102
RTVSPost2010Prop51ColorIndex
 90
      256
102
RTVSPost2010Prop51ColorRGB
 90
-16777216
102
RTVSPost2010PropOp51
 70
     0
102
RTVSPost2010Prop52
140
1.0
102
RTVSPost2010PropOp52
 70
     0
102
RTVSPost2010Prop53
 90
        2
102
RTVSPost2010PropOp53
 70
     1
102
RTVSPost2010Prop54
  1
strokes_ogs.tif
102
RTVSPost2010PropOp54
 70
     1
102
RTVSPost2010Prop55
280
     0
102
RTVSPost2010PropOp55
 70
     1
102
RTVSPost2010Prop56
140
1.0
102
RTVSPost2010PropOp56
 70
     1
102
RTVSPost2010Prop57
140
1.0
102
RTVSPost2010PropOp57
 70
     1
  0
XRECORD
  5
30C
102
{ACAD_REACTORS
330
30B
102
}
330
30B
100
AcDbXrecord
280
     1
102
RTVSPropertyOp0
 70
     1
102
RTVSPropertyOp1
 70
     1
102
RTVSPropertyOp2
 70
     1
102
RTVSPropertyOp3
 70
     1
102
RTVSPropertyOp4
 70
     1
102
RTVSPropertyOp5
 70
     1
102
RTVSPropertyOp6
 70
     1
102
RTVSPropertyOp7
 70
     1
102
RTVSPropertyOp8
 70
     1
102
RTVSPropertyOp9
 70
     1
102
RTVSPropertyOp10
 70
     1
102
RTVSPropertyOp11
 70
     1
102
RTVSPropertyOp12
 70
     1
102
RTVSPropertyOp13
 70
     1
102
RTVSPropertyOp14
 70
     1
102
RTVSPropertyOp15
 70
     1
102
RTVSPropertyOp16
 70
     1
102
RTVSPropertyOp17
 70
     1
102
RTVSPropertyOp18
 70
     1
102
RTVSPropertyOp19
 70
     1
102
RTVSPropertyOp20
 70
     1
102
RTVSPropertyOp21
 70
     1
102
RTVSPropertyOp22
 70
     1
102
RTVSPropertyOp23
 70
     1
102
RTVSPropertyOp24
 70
     1
102
RTVSPropertyOp25
 70
     1
102
RTVSPropertyOp26
 70
     1
102
RTVSPropertyOp27
 70
     1
102
RTVSPropertyOp28
 70
     1
102
RTVSPropertyOp29
 70
     1
102
RTVSPropertyOp30
 70
     1
102
RTVSPropertyOp31
 70
     1
102
RTVSPropertyOp32
 70
     1
102
RTVSPropertyOp33
 70
     1
102
RTVSPropertyOp34
 70
     1
102
RTVSPropertyOp35
 70
     1
102
RTVSPropertyOp36
 70
     1
102
RTVSPropertyOp37
 70
     1
102
RTVSPropertyOp38
 70
     1
102
RTVSPropertyOp39
 70
     1
102
RTVSPropertyOp40
 70
     1
102
RTVSPropertyOp41
 70
     1
102
RTVSPropertyOp42
 70
     1
102
RTVSPropertyOp43
 70
     1
102
RTVSPropertyOp44
 70
     1
102
RTVSPropertyOp45
 70
     1
102
RTVSPropertyOp46
 70
     1
102
RTVSPropertyOp47
 70
     1
102
RTVSPropertyOp48
 70
     1
102
RTVSPropertyOp49
 70
     1
102
RTVSPropertyOp50
 70
     1
102
RTVSPropertyOp51
 70
     0
102
RTVSPropertyOp52
 70
     0
102
RTVSPropertyOp53
 70
     1
102
RTVSPropertyOp54
 70
     1
102
RTVSPropertyOp55
 70
     1
102
RTVSPropertyOp56
 70
     1
102
RTVSPropertyOp57
 70
     1
102
RTVSPost2010Prop28
280
     0
102
RTVSPost2010PropOp28
 70
     1
102
RTVSPost2010Prop29
280
     1
102
RTVSPost2010PropOp29
 70
     1
102
RTVSPost2010Prop30
280
     1
102
RTVSPost2010PropOp30
 70
     1
102
RTVSPost2010Prop31
280
     0
102
RTVSPost2010PropOp31
 70
     1
102
RTVSPost2010Prop32
280
     0
102
RTVSPost2010PropOp32
 70
     1
102
RTVSPost2010Prop33
280
     0
102
RTVSPost2010PropOp33
 70
     1
102
RTVSPost2010Prop34
280
     0
102
RTVSPost2010PropOp34
 70
     1
102
RTVSPost2010Prop35
280
     0
102
RTVSPost2010PropOp35
 70
     1
102
RTVSPost2010Prop36
280
     0
102
RTVSPost2010PropOp36
 70
     1
102
RTVSPost2010Prop37
 90
       50
102
RTVSPost2010PropOp37
 70
     1
102
RTVSPost2010Prop38
140
0.0
102
RTVSPost2010PropOp38
 70
     1
102
RTVSPost2010Prop39
140
1.0
102
RTVSPost2010PropOp39
 70
     1
102
RTVSPost2010Prop40
 90
        0
102
RTVSPost2010PropOp40
 70
     1
102
RTVSPost2010Prop41ColorIndex
 90
       18
102
RTVSPost2010Prop41ColorRGB
 90
        0
102
RTVSPost2010PropOp41
 70
     1
102
RTVSPost2010Prop42
 90
       50
102
RTVSPost2010PropOp42
 70
     1
102
RTVSPost2010Prop43
 90
        3
102
RTVSPost2010PropOp43
 70
     1
102
RTVSPost2010Prop44ColorIndex
 90
        5
102
RTVSPost2010Prop44ColorRGB
 90
      255
102
RTVSPost2010PropOp44
 70
     1
102
RTVSPost2010Prop45
280
     0
102
RTVSPost2010PropOp45
 70
     1
102
RTVSPost2010Prop46
 90
       50
102
RTVSPost2010PropOp46
 70
     1
102
RTVSPost2010Prop47
 90
       50
102
RTVSPost2010PropOp47
 70
     1
102
RTVSPost2010Prop48
 90
       50
102
RTVSPost2010PropOp48
 70
     1
102
RTVSPost2010Prop49
280
     0
102
RTVSPost2010PropOp49
 70
     1
102
RTVSPost2010Prop50
 90
       50
102
RTVSPost2010PropOp50
 70
     1
102
RTVSPost2010Prop51ColorIndex
 90
      256
102
RTVSPost2010Prop51ColorRGB
 90
-16777216
102
RTVSPost2010PropOp51
 70
     0
102
RTVSPost2010Prop52
140
1.0
102
RTVSPost2010PropOp52
 70
     0
102
RTVSPost2010Prop53
 90
        2
102
RTVSPost2010PropOp53
 70
     1
102
RTVSPost2010Prop54
  1
strokes_ogs.tif
102
RTVSPost2010PropOp54
 70
     1
102
RTVSPost2010Prop55
280
     0
102
RTVSPost2010PropOp55
 70
     1
102
RTVSPost2010Prop56
140
1.0
102
RTVSPost2010PropOp56
 70
     1
102
RTVSPost2010Prop57
140
1.0
102
RTVSPost2010PropOp57
 70
     1
  0
XRECORD
  5
30E
102
{ACAD_REACTORS
330
30D
102
}
330
30D
100
AcDbXrecord
280
     1
102
RTVSPropertyOp0
 70
     1
102
RTVSPropertyOp1
 70
     1
102
RTVSPropertyOp2
 70
     1
102
RTVSPropertyOp3
 70
     1
102
RTVSPropertyOp4
 70
     1
102
RTVSPropertyOp5
 70
     1
102
RTVSPropertyOp6
 70
     1
102
RTVSPropertyOp7
 70
     1
102
RTVSPropertyOp8
 70
     1
102
RTVSPropertyOp9
 70
     1
102
RTVSPropertyOp10
 70
     1
102
RTVSPropertyOp11
 70
     1
102
RTVSPropertyOp12
 70
     1
102
RTVSPropertyOp13
 70
     1
102
RTVSPropertyOp14
 70
     1
102
RTVSPropertyOp15
 70
     1
102
RTVSPropertyOp16
 70
     1
102
RTVSPropertyOp17
 70
     1
102
RTVSPropertyOp18
 70
     1
102
RTVSPropertyOp19
 70
     1
102
RTVSPropertyOp20
 70
     1
102
RTVSPropertyOp21
 70
     1
102
RTVSPropertyOp22
 70
     1
102
RTVSPropertyOp23
 70
     1
102
RTVSPropertyOp24
 70
     1
102
RTVSPropertyOp25
 70
     1
102
RTVSPropertyOp26
 70
     1
102
RTVSPropertyOp27
 70
     1
102
RTVSPropertyOp28
 70
     1
102
RTVSPropertyOp29
 70
     1
102
RTVSPropertyOp30
 70
     1
102
RTVSPropertyOp31
 70
     1
102
RTVSPropertyOp32
 70
     1
102
RTVSPropertyOp33
 70
     1
102
RTVSPropertyOp34
 70
     1
102
RTVSPropertyOp35
 70
     1
102
RTVSPropertyOp36
 70
     1
102
RTVSPropertyOp37
 70
     1
102
RTVSPropertyOp38
 70
     1
102
RTVSPropertyOp39
 70
     1
102
RTVSPropertyOp40
 70
     1
102
RTVSPropertyOp41
 70
     1
102
RTVSPropertyOp42
 70
     1
102
RTVSPropertyOp43
 70
     1
102
RTVSPropertyOp44
 70
     1
102
RTVSPropertyOp45
 70
     1
102
RTVSPropertyOp46
 70
     1
102
RTVSPropertyOp47
 70
     1
102
RTVSPropertyOp48
 70
     1
102
RTVSPropertyOp49
 70
     1
102
RTVSPropertyOp50
 70
     1
102
RTVSPropertyOp51
 70
     0
102
RTVSPropertyOp52
 70
     0
102
RTVSPropertyOp53
 70
     1
102
RTVSPropertyOp54
 70
     1
102
RTVSPropertyOp55
 70
     1
102
RTVSPropertyOp56
 70
     1
102
RTVSPropertyOp57
 70
     1
102
RTVSPost2010Prop28
280
     0
102
RTVSPost2010PropOp28
 70
     1
102
RTVSPost2010Prop29
280
     1
102
RTVSPost2010PropOp29
 70
     1
102
RTVSPost2010Prop30
280
     1
102
RTVSPost2010PropOp30
 70
     1
102
RTVSPost2010Prop31
280
     0
102
RTVSPost2010PropOp31
 70
     1
102
RTVSPost2010Prop32
280
     0
102
RTVSPost2010PropOp32
 70
     1
102
RTVSPost2010Prop33
280
     0
102
RTVSPost2010PropOp33
 70
     1
102
RTVSPost2010Prop34
280
     0
102
RTVSPost2010PropOp34
 70
     1
102
RTVSPost2010Prop35
280
     0
102
RTVSPost2010PropOp35
 70
     1
102
RTVSPost2010Prop36
280
     0
102
RTVSPost2010PropOp36
 70
     1
102
RTVSPost2010Prop37
 90
       50
102
RTVSPost2010PropOp37
 70
     1
102
RTVSPost2010Prop38
140
0.0
102
RTVSPost2010PropOp38
 70
     1
102
RTVSPost2010Prop39
140
1.0
102
RTVSPost2010PropOp39
 70
     1
102
RTVSPost2010Prop40
 90
        0
102
RTVSPost2010PropOp40
 70
     1
102
RTVSPost2010Prop41ColorIndex
 90
       18
102
RTVSPost2010Prop41ColorRGB
 90
        0
102
RTVSPost2010PropOp41
 70
     1
102
RTVSPost2010Prop42
 90
       50
102
RTVSPost2010PropOp42
 70
     1
102
RTVSPost2010Prop43
 90
        3
102
RTVSPost2010PropOp43
 70
     1
102
RTVSPost2010Prop44ColorIndex
 90
        5
102
RTVSPost2010Prop44ColorRGB
 90
      255
102
RTVSPost2010PropOp44
 70
     1
102
RTVSPost2010Prop45
280
     0
102
RTVSPost2010PropOp45
 70
     1
102
RTVSPost2010Prop46
 90
       50
102
RTVSPost2010PropOp46
 70
     1
102
RTVSPost2010Prop47
 90
       50
102
RTVSPost2010PropOp47
 70
     1
102
RTVSPost2010Prop48
 90
       50
102
RTVSPost2010PropOp48
 70
     1
102
RTVSPost2010Prop49
280
     0
102
RTVSPost2010PropOp49
 70
     1
102
RTVSPost2010Prop50
 90
       50
102
RTVSPost2010PropOp50
 70
     1
102
RTVSPost2010Prop51ColorIndex
 90
      256
102
RTVSPost2010Prop51ColorRGB
 90
-16777216
102
RTVSPost2010PropOp51
 70
     0
102
RTVSPost2010Prop52
140
1.0
102
RTVSPost2010PropOp52
 70
     0
102
RTVSPost2010Prop53
 90
        2
102
RTVSPost2010PropOp53
 70
     1
102
RTVSPost2010Prop54
  1
strokes_ogs.tif
102
RTVSPost2010PropOp54
 70
     1
102
RTVSPost2010Prop55
280
     0
102
RTVSPost2010PropOp55
 70
     1
102
RTVSPost2010Prop56
140
1.0
102
RTVSPost2010PropOp56
 70
     1
102
RTVSPost2010Prop57
140
1.0
102
RTVSPost2010PropOp57
 70
     1
  0
XRECORD
  5
314
102
{ACAD_REACTORS
330
313
102
}
330
313
100
AcDbXrecord
280
     1
102
RTVSPropertyOp0
 70
     1
102
RTVSPropertyOp1
 70
     1
102
RTVSPropertyOp2
 70
     1
102
RTVSPropertyOp3
 70
     1
102
RTVSPropertyOp4
 70
     1
102
RTVSPropertyOp5
 70
     1
102
RTVSPropertyOp6
 70
     1
102
RTVSPropertyOp7
 70
     1
102
RTVSPropertyOp8
 70
     1
102
RTVSPropertyOp9
 70
     1
102
RTVSPropertyOp10
 70
     1
102
RTVSPropertyOp11
 70
     1
102
RTVSPropertyOp12
 70
     1
102
RTVSPropertyOp13
 70
     1
102
RTVSPropertyOp14
 70
     1
102
RTVSPropertyOp15
 70
     1
102
RTVSPropertyOp16
 70
     1
102
RTVSPropertyOp17
 70
     1
102
RTVSPropertyOp18
 70
     1
102
RTVSPropertyOp19
 70
     1
102
RTVSPropertyOp20
 70
     1
102
RTVSPropertyOp21
 70
     1
102
RTVSPropertyOp22
 70
     1
102
RTVSPropertyOp23
 70
     1
102
RTVSPropertyOp24
 70
     1
102
RTVSPropertyOp25
 70
     1
102
RTVSPropertyOp26
 70
     1
102
RTVSPropertyOp27
 70
     1
102
RTVSPropertyOp28
 70
     1
102
RTVSPropertyOp29
 70
     1
102
RTVSPropertyOp30
 70
     1
102
RTVSPropertyOp31
 70
     1
102
RTVSPropertyOp32
 70
     1
102
RTVSPropertyOp33
 70
     1
102
RTVSPropertyOp34
 70
     1
102
RTVSPropertyOp35
 70
     1
102
RTVSPropertyOp36
 70
     1
102
RTVSPropertyOp37
 70
     1
102
RTVSPropertyOp38
 70
     1
102
RTVSPropertyOp39
 70
     1
102
RTVSPropertyOp40
 70
     1
102
RTVSPropertyOp41
 70
     1
102
RTVSPropertyOp42
 70
     1
102
RTVSPropertyOp43
 70
     1
102
RTVSPropertyOp44
 70
     1
102
RTVSPropertyOp45
 70
     1
102
RTVSPropertyOp46
 70
     1
102
RTVSPropertyOp47
 70
     1
102
RTVSPropertyOp48
 70
     1
102
RTVSPropertyOp49
 70
     1
102
RTVSPropertyOp50
 70
     1
102
RTVSPropertyOp51
 70
     0
102
RTVSPropertyOp52
 70
     0
102
RTVSPropertyOp53
 70
     1
102
RTVSPropertyOp54
 70
     1
102
RTVSPropertyOp55
 70
     1
102
RTVSPropertyOp56
 70
     1
102
RTVSPropertyOp57
 70
     1
102
RTVSPost2010Prop28
280
     0
102
RTVSPost2010PropOp28
 70
     1
102
RTVSPost2010Prop29
280
     1
102
RTVSPost2010PropOp29
 70
     1
102
RTVSPost2010Prop30
280
     1
102
RTVSPost2010PropOp30
 70
     1
102
RTVSPost2010Prop31
280
     0
102
RTVSPost2010PropOp31
 70
     1
102
RTVSPost2010Prop32
280
     0
102
RTVSPost2010PropOp32
 70
     1
102
RTVSPost2010Prop33
280
     0
102
RTVSPost2010PropOp33
 70
     1
102
RTVSPost2010Prop34
280
     0
102
RTVSPost2010PropOp34
 70
     1
102
RTVSPost2010Prop35
280
     0
102
RTVSPost2010PropOp35
 70
     1
102
RTVSPost2010Prop36
280
     0
102
RTVSPost2010PropOp36
 70
     1
102
RTVSPost2010Prop37
 90
       50
102
RTVSPost2010PropOp37
 70
     1
102
RTVSPost2010Prop38
140
0.0
102
RTVSPost2010PropOp38
 70
     1
102
RTVSPost2010Prop39
140
1.0
102
RTVSPost2010PropOp39
 70
     1
102
RTVSPost2010Prop40
 90
        0
102
RTVSPost2010PropOp40
 70
     1
102
RTVSPost2010Prop41ColorIndex
 90
       18
102
RTVSPost2010Prop41ColorRGB
 90
        0
102
RTVSPost2010PropOp41
 70
     1
102
RTVSPost2010Prop42
 90
       50
102
RTVSPost2010PropOp42
 70
     1
102
RTVSPost2010Prop43
 90
        3
102
RTVSPost2010PropOp43
 70
     1
102
RTVSPost2010Prop44ColorIndex
 90
        5
102
RTVSPost2010Prop44ColorRGB
 90
      255
102
RTVSPost2010PropOp44
 70
     1
102
RTVSPost2010Prop45
280
     0
102
RTVSPost2010PropOp45
 70
     1
102
RTVSPost2010Prop46
 90
       50
102
RTVSPost2010PropOp46
 70
     1
102
RTVSPost2010Prop47
 90
       50
102
RTVSPost2010PropOp47
 70
     1
102
RTVSPost2010Prop48
 90
       50
102
RTVSPost2010PropOp48
 70
     1
102
RTVSPost2010Prop49
280
     0
102
RTVSPost2010PropOp49
 70
     1
102
RTVSPost2010Prop50
 90
       50
102
RTVSPost2010PropOp50
 70
     1
102
RTVSPost2010Prop51ColorIndex
 90
      256
102
RTVSPost2010Prop51ColorRGB
 90
-16777216
102
RTVSPost2010PropOp51
 70
     0
102
RTVSPost2010Prop52
140
1.0
102
RTVSPost2010PropOp52
 70
     0
102
RTVSPost2010Prop53
 90
        2
102
RTVSPost2010PropOp53
 70
     1
102
RTVSPost2010Prop54
  1
strokes_ogs.tif
102
RTVSPost2010PropOp54
 70
     1
102
RTVSPost2010Prop55
280
     0
102
RTVSPost2010PropOp55
 70
     1
102
RTVSPost2010Prop56
140
1.0
102
RTVSPost2010PropOp56
 70
     1
102
RTVSPost2010Prop57
140
1.0
102
RTVSPost2010PropOp57
 70
     1
  0
XRECORD
  5
328
102
{ACAD_REACTORS
330
327
102
}
330
327
100
AcDbXrecord
280
     1
102
RTVSPropertyOp0
 70
     0
102
RTVSPropertyOp1
 70
     0
102
RTVSPropertyOp2
 70
     0
102
RTVSPropertyOp3
 70
     0
102
RTVSPropertyOp4
 70
     0
102
RTVSPropertyOp5
 70
     0
102
RTVSPropertyOp6
 70
     0
102
RTVSPropertyOp7
 70
     0
102
RTVSPropertyOp8
 70
     0
102
RTVSPropertyOp9
 70
     0
102
RTVSPropertyOp10
 70
     0
102
RTVSPropertyOp11
 70
     0
102
RTVSPropertyOp12
 70
     0
102
RTVSPropertyOp13
 70
     0
102
RTVSPropertyOp14
 70
     2
102
RTVSPropertyOp15
 70
     0
102
RTVSPropertyOp16
 70
     0
102
RTVSPropertyOp17
 70
     0
102
RTVSPropertyOp18
 70
     0
102
RTVSPropertyOp19
 70
     0
102
RTVSPropertyOp20
 70
     0
102
RTVSPropertyOp21
 70
     0
102
RTVSPropertyOp22
 70
     0
102
RTVSPropertyOp23
 70
     0
102
RTVSPropertyOp24
 70
     0
102
RTVSPropertyOp25
 70
     0
102
RTVSPropertyOp26
 70
     0
102
RTVSPropertyOp27
 70
     0
102
RTVSPropertyOp28
 70
     0
102
RTVSPropertyOp29
 70
     0
102
RTVSPropertyOp30
 70
     0
102
RTVSPropertyOp31
 70
     0
102
RTVSPropertyOp32
 70
     0
102
RTVSPropertyOp33
 70
     0
102
RTVSPropertyOp34
 70
     0
102
RTVSPropertyOp35
 70
     0
102
RTVSPropertyOp36
 70
     0
102
RTVSPropertyOp37
 70
     0
102
RTVSPropertyOp38
 70
     0
102
RTVSPropertyOp39
 70
     0
102
RTVSPropertyOp40
 70
     0
102
RTVSPropertyOp41
 70
     0
102
RTVSPropertyOp42
 70
     0
102
RTVSPropertyOp43
 70
     0
102
RTVSPropertyOp44
 70
     0
102
RTVSPropertyOp45
 70
     0
102
RTVSPropertyOp46
 70
     0
102
RTVSPropertyOp47
 70
     0
102
RTVSPropertyOp48
 70
     0
102
RTVSPropertyOp49
 70
     0
102
RTVSPropertyOp50
 70
     0
102
RTVSPropertyOp51
 70
     0
102
RTVSPropertyOp52
 70
     0
102
RTVSPropertyOp53
 70
     0
102
RTVSPropertyOp54
 70
     0
102
RTVSPropertyOp55
 70
     0
102
RTVSPropertyOp56
 70
     0
102
RTVSPropertyOp57
 70
     0
102
RTVSPost2010Prop28
280
     0
102
RTVSPost2010PropOp28
 70
     0
102
RTVSPost2010Prop29
280
     1
102
RTVSPost2010PropOp29
 70
     0
102
RTVSPost2010Prop30
280
     1
102
RTVSPost2010PropOp30
 70
     0
102
RTVSPost2010Prop31
280
     0
102
RTVSPost2010PropOp31
 70
     0
102
RTVSPost2010Prop32
280
     0
102
RTVSPost2010PropOp32
 70
     0
102
RTVSPost2010Prop33
280
     0
102
RTVSPost2010PropOp33
 70
     0
102
RTVSPost2010Prop34
280
     0
102
RTVSPost2010PropOp34
 70
     0
102
RTVSPost2010Prop35
280
     0
102
RTVSPost2010PropOp35
 70
     0
102
RTVSPost2010Prop36
280
     0
102
RTVSPost2010PropOp36
 70
     0
102
RTVSPost2010Prop37
 90
       50
102
RTVSPost2010PropOp37
 70
     0
102
RTVSPost2010Prop38
140
0.0
102
RTVSPost2010PropOp38
 70
     0
102
RTVSPost2010Prop39
140
1.0
102
RTVSPost2010PropOp39
 70
     0
102
RTVSPost2010Prop40
 90
        0
102
RTVSPost2010PropOp40
 70
     0
102
RTVSPost2010Prop41ColorIndex
 90
       18
102
RTVSPost2010Prop41ColorRGB
 90
        0
102
RTVSPost2010PropOp41
 70
     0
102
RTVSPost2010Prop42
 90
       50
102
RTVSPost2010PropOp42
 70
     0
102
RTVSPost2010Prop43
 90
        3
102
RTVSPost2010PropOp43
 70
     0
102
RTVSPost2010Prop44ColorIndex
 90
        5
102
RTVSPost2010Prop44ColorRGB
 90
      255
102
RTVSPost2010PropOp44
 70
     0
102
RTVSPost2010Prop45
280
     0
102
RTVSPost2010PropOp45
 70
     0
102
RTVSPost2010Prop46
 90
       50
102
RTVSPost2010PropOp46
 70
     0
102
RTVSPost2010Prop47
 90
       50
102
RTVSPost2010PropOp47
 70
     0
102
RTVSPost2010Prop48
 90
       50
102
RTVSPost2010PropOp48
 70
     0
102
RTVSPost2010Prop49
280
     0
102
RTVSPost2010PropOp49
 70
     0
102
RTVSPost2010Prop50
 90
       50
102
RTVSPost2010PropOp50
 70
     0
102
RTVSPost2010Prop51ColorIndex
 90
      256
102
RTVSPost2010Prop51ColorRGB
 90
-16777216
102
RTVSPost2010PropOp51
 70
     0
102
RTVSPost2010Prop52
140
1.0
102
RTVSPost2010PropOp52
 70
     0
102
RTVSPost2010Prop53
 90
        2
102
RTVSPost2010PropOp53
 70
     0
102
RTVSPost2010Prop54
  1
strokes_ogs.tif
102
RTVSPost2010PropOp54
 70
     0
102
RTVSPost2010Prop55
280
     0
102
RTVSPost2010PropOp55
 70
     0
102
RTVSPost2010Prop56
140
1.0
102
RTVSPost2010PropOp56
 70
     0
102
RTVSPost2010Prop57
140
1.0
102
RTVSPost2010PropOp57
 70
     0
  0
XRECORD
  5
322
102
{ACAD_REACTORS
330
321
102
}
330
321
100
AcDbXrecord
280
     1
102
RTVSPropertyOp0
 70
     1
102
RTVSPropertyOp1
 70
     1
102
RTVSPropertyOp2
 70
     1
102
RTVSPropertyOp3
 70
     1
102
RTVSPropertyOp4
 70
     1
102
RTVSPropertyOp5
 70
     1
102
RTVSPropertyOp6
 70
     1
102
RTVSPropertyOp7
 70
     1
102
RTVSPropertyOp8
 70
     1
102
RTVSPropertyOp9
 70
     1
102
RTVSPropertyOp10
 70
     1
102
RTVSPropertyOp11
 70
     1
102
RTVSPropertyOp12
 70
     1
102
RTVSPropertyOp13
 70
     1
102
RTVSPropertyOp14
 70
     1
102
RTVSPropertyOp15
 70
     1
102
RTVSPropertyOp16
 70
     1
102
RTVSPropertyOp17
 70
     1
102
RTVSPropertyOp18
 70
     1
102
RTVSPropertyOp19
 70
     1
102
RTVSPropertyOp20
 70
     1
102
RTVSPropertyOp21
 70
     1
102
RTVSPropertyOp22
 70
     1
102
RTVSPropertyOp23
 70
     1
102
RTVSPropertyOp24
 70
     1
102
RTVSPropertyOp25
 70
     1
102
RTVSPropertyOp26
 70
     1
102
RTVSPropertyOp27
 70
     1
102
RTVSPropertyOp28
 70
     1
102
RTVSPropertyOp29
 70
     1
102
RTVSPropertyOp30
 70
     1
102
RTVSPropertyOp31
 70
     1
102
RTVSPropertyOp32
 70
     1
102
RTVSPropertyOp33
 70
     1
102
RTVSPropertyOp34
 70
     1
102
RTVSPropertyOp35
 70
     1
102
RTVSPropertyOp36
 70
     1
102
RTVSPropertyOp37
 70
     1
102
RTVSPropertyOp38
 70
     1
102
RTVSPropertyOp39
 70
     1
102
RTVSPropertyOp40
 70
     1
102
RTVSPropertyOp41
 70
     1
102
RTVSPropertyOp42
 70
     1
102
RTVSPropertyOp43
 70
     1
102
RTVSPropertyOp44
 70
     1
102
RTVSPropertyOp45
 70
     1
102
RTVSPropertyOp46
 70
     1
102
RTVSPropertyOp47
 70
     1
102
RTVSPropertyOp48
 70
     1
102
RTVSPropertyOp49
 70
     1
102
RTVSPropertyOp50
 70
     1
102
RTVSPropertyOp51
 70
     0
102
RTVSPropertyOp52
 70
     0
102
RTVSPropertyOp53
 70
     1
102
RTVSPropertyOp54
 70
     1
102
RTVSPropertyOp55
 70
     1
102
RTVSPropertyOp56
 70
     1
102
RTVSPropertyOp57
 70
     1
102
RTVSPost2010Prop28
280
     0
102
RTVSPost2010PropOp28
 70
     1
102
RTVSPost2010Prop29
280
     1
102
RTVSPost2010PropOp29
 70
     1
102
RTVSPost2010Prop30
280
     1
102
RTVSPost2010PropOp30
 70
     1
102
RTVSPost2010Prop31
280
     0
102
RTVSPost2010PropOp31
 70
     1
102
RTVSPost2010Prop32
280
     0
102
RTVSPost2010PropOp32
 70
     1
102
RTVSPost2010Prop33
280
     0
102
RTVSPost2010PropOp33
 70
     1
102
RTVSPost2010Prop34
280
     0
102
RTVSPost2010PropOp34
 70
     1
102
RTVSPost2010Prop35
280
     0
102
RTVSPost2010PropOp35
 70
     1
102
RTVSPost2010Prop36
280
     0
102
RTVSPost2010PropOp36
 70
     1
102
RTVSPost2010Prop37
 90
       50
102
RTVSPost2010PropOp37
 70
     1
102
RTVSPost2010Prop38
140
0.0
102
RTVSPost2010PropOp38
 70
     1
102
RTVSPost2010Prop39
140
1.0
102
RTVSPost2010PropOp39
 70
     1
102
RTVSPost2010Prop40
 90
        0
102
RTVSPost2010PropOp40
 70
     1
102
RTVSPost2010Prop41ColorIndex
 90
       18
102
RTVSPost2010Prop41ColorRGB
 90
        0
102
RTVSPost2010PropOp41
 70
     1
102
RTVSPost2010Prop42
 90
       50
102
RTVSPost2010PropOp42
 70
     1
102
RTVSPost2010Prop43
 90
        3
102
RTVSPost2010PropOp43
 70
     1
102
RTVSPost2010Prop44ColorIndex
 90
        5
102
RTVSPost2010Prop44ColorRGB
 90
      255
102
RTVSPost2010PropOp44
 70
     1
102
RTVSPost2010Prop45
280
     0
102
RTVSPost2010PropOp45
 70
     1
102
RTVSPost2010Prop46
 90
       50
102
RTVSPost2010PropOp46
 70
     1
102
RTVSPost2010Prop47
 90
       50
102
RTVSPost2010PropOp47
 70
     1
102
RTVSPost2010Prop48
 90
       50
102
RTVSPost2010PropOp48
 70
     1
102
RTVSPost2010Prop49
280
     0
102
RTVSPost2010PropOp49
 70
     1
102
RTVSPost2010Prop50
 90
       50
102
RTVSPost2010PropOp50
 70
     1
102
RTVSPost2010Prop51ColorIndex
 90
      256
102
RTVSPost2010Prop51ColorRGB
 90
-16777216
102
RTVSPost2010PropOp51
 70
     0
102
RTVSPost2010Prop52
140
1.0
102
RTVSPost2010PropOp52
 70
     0
102
RTVSPost2010Prop53
 90
        2
102
RTVSPost2010PropOp53
 70
     1
102
RTVSPost2010Prop54
  1
strokes_ogs.tif
102
RTVSPost2010PropOp54
 70
     1
102
RTVSPost2010Prop55
280
     0
102
RTVSPost2010PropOp55
 70
     1
102
RTVSPost2010Prop56
140
1.0
102
RTVSPost2010PropOp56
 70
     1
102
RTVSPost2010Prop57
140
1.0
102
RTVSPost2010PropOp57
 70
     1
  0
XRECORD
  5
32A
102
{ACAD_REACTORS
330
329
102
}
330
329
100
AcDbXrecord
280
     1
102
RTVSPropertyOp0
 70
     0
102
RTVSPropertyOp1
 70
     0
102
RTVSPropertyOp2
 70
     0
102
RTVSPropertyOp3
 70
     0
102
RTVSPropertyOp4
 70
     0
102
RTVSPropertyOp5
 70
     0
102
RTVSPropertyOp6
 70
     0
102
RTVSPropertyOp7
 70
     0
102
RTVSPropertyOp8
 70
     0
102
RTVSPropertyOp9
 70
     0
102
RTVSPropertyOp10
 70
     0
102
RTVSPropertyOp11
 70
     0
102
RTVSPropertyOp12
 70
     0
102
RTVSPropertyOp13
 70
     0
102
RTVSPropertyOp14
 70
     2
102
RTVSPropertyOp15
 70
     0
102
RTVSPropertyOp16
 70
     0
102
RTVSPropertyOp17
 70
     0
102
RTVSPropertyOp18
 70
     0
102
RTVSPropertyOp19
 70
     0
102
RTVSPropertyOp20
 70
     0
102
RTVSPropertyOp21
 70
     0
102
RTVSPropertyOp22
 70
     0
102
RTVSPropertyOp23
 70
     0
102
RTVSPropertyOp24
 70
     0
102
RTVSPropertyOp25
 70
     0
102
RTVSPropertyOp26
 70
     0
102
RTVSPropertyOp27
 70
     0
102
RTVSPropertyOp28
 70
     0
102
RTVSPropertyOp29
 70
     0
102
RTVSPropertyOp30
 70
     0
102
RTVSPropertyOp31
 70
     0
102
RTVSPropertyOp32
 70
     0
102
RTVSPropertyOp33
 70
     0
102
RTVSPropertyOp34
 70
     0
102
RTVSPropertyOp35
 70
     0
102
RTVSPropertyOp36
 70
     0
102
RTVSPropertyOp37
 70
     0
102
RTVSPropertyOp38
 70
     0
102
RTVSPropertyOp39
 70
     0
102
RTVSPropertyOp40
 70
     0
102
RTVSPropertyOp41
 70
     0
102
RTVSPropertyOp42
 70
     0
102
RTVSPropertyOp43
 70
     0
102
RTVSPropertyOp44
 70
     0
102
RTVSPropertyOp45
 70
     0
102
RTVSPropertyOp46
 70
     0
102
RTVSPropertyOp47
 70
     0
102
RTVSPropertyOp48
 70
     0
102
RTVSPropertyOp49
 70
     0
102
RTVSPropertyOp50
 70
     0
102
RTVSPropertyOp51
 70
     0
102
RTVSPropertyOp52
 70
     0
102
RTVSPropertyOp53
 70
     0
102
RTVSPropertyOp54
 70
     0
102
RTVSPropertyOp55
 70
     0
102
RTVSPropertyOp56
 70
     0
102
RTVSPropertyOp57
 70
     0
102
RTVSPost2010Prop28
280
     0
102
RTVSPost2010PropOp28
 70
     0
102
RTVSPost2010Prop29
280
     1
102
RTVSPost2010PropOp29
 70
     0
102
RTVSPost2010Prop30
280
     1
102
RTVSPost2010PropOp30
 70
     0
102
RTVSPost2010Prop31
280
     0
102
RTVSPost2010PropOp31
 70
     0
102
RTVSPost2010Prop32
280
     0
102
RTVSPost2010PropOp32
 70
     0
102
RTVSPost2010Prop33
280
     0
102
RTVSPost2010PropOp33
 70
     0
102
RTVSPost2010Prop34
280
     0
102
RTVSPost2010PropOp34
 70
     0
102
RTVSPost2010Prop35
280
     0
102
RTVSPost2010PropOp35
 70
     0
102
RTVSPost2010Prop36
280
     0
102
RTVSPost2010PropOp36
 70
     0
102
RTVSPost2010Prop37
 90
       50
102
RTVSPost2010PropOp37
 70
     0
102
RTVSPost2010Prop38
140
0.0
102
RTVSPost2010PropOp38
 70
     0
102
RTVSPost2010Prop39
140
1.0
102
RTVSPost2010PropOp39
 70
     0
102
RTVSPost2010Prop40
 90
        0
102
RTVSPost2010PropOp40
 70
     0
102
RTVSPost2010Prop41ColorIndex
 90
       18
102
RTVSPost2010Prop41ColorRGB
 90
        0
102
RTVSPost2010PropOp41
 70
     0
102
RTVSPost2010Prop42
 90
       50
102
RTVSPost2010PropOp42
 70
     0
102
RTVSPost2010Prop43
 90
        3
102
RTVSPost2010PropOp43
 70
     0
102
RTVSPost2010Prop44ColorIndex
 90
        5
102
RTVSPost2010Prop44ColorRGB
 90
      255
102
RTVSPost2010PropOp44
 70
     0
102
RTVSPost2010Prop45
280
     0
102
RTVSPost2010PropOp45
 70
     0
102
RTVSPost2010Prop46
 90
       50
102
RTVSPost2010PropOp46
 70
     0
102
RTVSPost2010Prop47
 90
       50
102
RTVSPost2010PropOp47
 70
     0
102
RTVSPost2010Prop48
 90
       50
102
RTVSPost2010PropOp48
 70
     0
102
RTVSPost2010Prop49
280
     0
102
RTVSPost2010PropOp49
 70
     0
102
RTVSPost2010Prop50
 90
       50
102
RTVSPost2010PropOp50
 70
     0
102
RTVSPost2010Prop51ColorIndex
 90
      256
102
RTVSPost2010Prop51ColorRGB
 90
-16777216
102
RTVSPost2010PropOp51
 70
     0
102
RTVSPost2010Prop52
140
1.0
102
RTVSPost2010PropOp52
 70
     0
102
RTVSPost2010Prop53
 90
        2
102
RTVSPost2010PropOp53
 70
     0
102
RTVSPost2010Prop54
  1
strokes_ogs.tif
102
RTVSPost2010PropOp54
 70
     0
102
RTVSPost2010Prop55
280
     0
102
RTVSPost2010PropOp55
 70
     0
102
RTVSPost2010Prop56
140
1.0
102
RTVSPost2010PropOp56
 70
     0
102
RTVSPost2010Prop57
140
1.0
102
RTVSPost2010PropOp57
 70
     0
  0
XRECORD
  5
318
102
{ACAD_REACTORS
330
317
102
}
330
317
100
AcDbXrecord
280
     1
102
RTVSPropertyOp0
 70
     1
102
RTVSPropertyOp1
 70
     1
102
RTVSPropertyOp2
 70
     1
102
RTVSPropertyOp3
 70
     1
102
RTVSPropertyOp4
 70
     1
102
RTVSPropertyOp5
 70
     1
102
RTVSPropertyOp6
 70
     1
102
RTVSPropertyOp7
 70
     1
102
RTVSPropertyOp8
 70
     1
102
RTVSPropertyOp9
 70
     1
102
RTVSPropertyOp10
 70
     1
102
RTVSPropertyOp11
 70
     1
102
RTVSPropertyOp12
 70
     1
102
RTVSPropertyOp13
 70
     1
102
RTVSPropertyOp14
 70
     1
102
RTVSPropertyOp15
 70
     1
102
RTVSPropertyOp16
 70
     1
102
RTVSPropertyOp17
 70
     1
102
RTVSPropertyOp18
 70
     1
102
RTVSPropertyOp19
 70
     1
102
RTVSPropertyOp20
 70
     1
102
RTVSPropertyOp21
 70
     1
102
RTVSPropertyOp22
 70
     1
102
RTVSPropertyOp23
 70
     1
102
RTVSPropertyOp24
 70
     1
102
RTVSPropertyOp25
 70
     1
102
RTVSPropertyOp26
 70
     1
102
RTVSPropertyOp27
 70
     1
102
RTVSPropertyOp28
 70
     1
102
RTVSPropertyOp29
 70
     1
102
RTVSPropertyOp30
 70
     1
102
RTVSPropertyOp31
 70
     1
102
RTVSPropertyOp32
 70
     1
102
RTVSPropertyOp33
 70
     1
102
RTVSPropertyOp34
 70
     1
102
RTVSPropertyOp35
 70
     1
102
RTVSPropertyOp36
 70
     1
102
RTVSPropertyOp37
 70
     1
102
RTVSPropertyOp38
 70
     1
102
RTVSPropertyOp39
 70
     1
102
RTVSPropertyOp40
 70
     1
102
RTVSPropertyOp41
 70
     1
102
RTVSPropertyOp42
 70
     1
102
RTVSPropertyOp43
 70
     1
102
RTVSPropertyOp44
 70
     1
102
RTVSPropertyOp45
 70
     1
102
RTVSPropertyOp46
 70
     1
102
RTVSPropertyOp47
 70
     1
102
RTVSPropertyOp48
 70
     1
102
RTVSPropertyOp49
 70
     1
102
RTVSPropertyOp50
 70
     1
102
RTVSPropertyOp51
 70
     0
102
RTVSPropertyOp52
 70
     0
102
RTVSPropertyOp53
 70
     1
102
RTVSPropertyOp54
 70
     1
102
RTVSPropertyOp55
 70
     1
102
RTVSPropertyOp56
 70
     1
102
RTVSPropertyOp57
 70
     1
102
RTVSPost2010Prop28
280
     0
102
RTVSPost2010PropOp28
 70
     1
102
RTVSPost2010Prop29
280
     1
102
RTVSPost2010PropOp29
 70
     1
102
RTVSPost2010Prop30
280
     1
102
RTVSPost2010PropOp30
 70
     1
102
RTVSPost2010Prop31
280
     0
102
RTVSPost2010PropOp31
 70
     1
102
RTVSPost2010Prop32
280
     0
102
RTVSPost2010PropOp32
 70
     1
102
RTVSPost2010Prop33
280
     0
102
RTVSPost2010PropOp33
 70
     1
102
RTVSPost2010Prop34
280
     0
102
RTVSPost2010PropOp34
 70
     1
102
RTVSPost2010Prop35
280
     0
102
RTVSPost2010PropOp35
 70
     1
102
RTVSPost2010Prop36
280
     0
102
RTVSPost2010PropOp36
 70
     1
102
RTVSPost2010Prop37
 90
       50
102
RTVSPost2010PropOp37
 70
     1
102
RTVSPost2010Prop38
140
0.0
102
RTVSPost2010PropOp38
 70
     1
102
RTVSPost2010Prop39
140
1.0
102
RTVSPost2010PropOp39
 70
     1
102
RTVSPost2010Prop40
 90
        0
102
RTVSPost2010PropOp40
 70
     1
102
RTVSPost2010Prop41ColorIndex
 90
       18
102
RTVSPost2010Prop41ColorRGB
 90
        0
102
RTVSPost2010PropOp41
 70
     1
102
RTVSPost2010Prop42
 90
       50
102
RTVSPost2010PropOp42
 70
     1
102
RTVSPost2010Prop43
 90
        3
102
RTVSPost2010PropOp43
 70
     1
102
RTVSPost2010Prop44ColorIndex
 90
        5
102
RTVSPost2010Prop44ColorRGB
 90
      255
102
RTVSPost2010PropOp44
 70
     1
102
RTVSPost2010Prop45
280
     0
102
RTVSPost2010PropOp45
 70
     1
102
RTVSPost2010Prop46
 90
       50
102
RTVSPost2010PropOp46
 70
     1
102
RTVSPost2010Prop47
 90
       50
102
RTVSPost2010PropOp47
 70
     1
102
RTVSPost2010Prop48
 90
       50
102
RTVSPost2010PropOp48
 70
     1
102
RTVSPost2010Prop49
280
     0
102
RTVSPost2010PropOp49
 70
     1
102
RTVSPost2010Prop50
 90
       50
102
RTVSPost2010PropOp50
 70
     1
102
RTVSPost2010Prop51ColorIndex
 90
      256
102
RTVSPost2010Prop51ColorRGB
 90
-16777216
102
RTVSPost2010PropOp51
 70
     0
102
RTVSPost2010Prop52
140
1.0
102
RTVSPost2010PropOp52
 70
     0
102
RTVSPost2010Prop53
 90
        2
102
RTVSPost2010PropOp53
 70
     1
102
RTVSPost2010Prop54
  1
strokes_ogs.tif
102
RTVSPost2010PropOp54
 70
     1
102
RTVSPost2010Prop55
280
     0
102
RTVSPost2010PropOp55
 70
     1
102
RTVSPost2010Prop56
140
1.0
102
RTVSPost2010PropOp56
 70
     1
102
RTVSPost2010Prop57
140
1.0
102
RTVSPost2010PropOp57
 70
     1
  0
XRECORD
  5
336
102
{ACAD_REACTORS
330
335
102
}
330
335
100
AcDbXrecord
280
     1
102
RTVSPropertyOp0
 70
     1
102
RTVSPropertyOp1
 70
     1
102
RTVSPropertyOp2
 70
     1
102
RTVSPropertyOp3
 70
     1
102
RTVSPropertyOp4
 70
     1
102
RTVSPropertyOp5
 70
     1
102
RTVSPropertyOp6
 70
     1
102
RTVSPropertyOp7
 70
     1
102
RTVSPropertyOp8
 70
     1
102
RTVSPropertyOp9
 70
     1
102
RTVSPropertyOp10
 70
     1
102
RTVSPropertyOp11
 70
     1
102
RTVSPropertyOp12
 70
     1
102
RTVSPropertyOp13
 70
     1
102
RTVSPropertyOp14
 70
     1
102
RTVSPropertyOp15
 70
     1
102
RTVSPropertyOp16
 70
     1
102
RTVSPropertyOp17
 70
     1
102
RTVSPropertyOp18
 70
     1
102
RTVSPropertyOp19
 70
     1
102
RTVSPropertyOp20
 70
     1
102
RTVSPropertyOp21
 70
     1
102
RTVSPropertyOp22
 70
     1
102
RTVSPropertyOp23
 70
     1
102
RTVSPropertyOp24
 70
     1
102
RTVSPropertyOp25
 70
     1
102
RTVSPropertyOp26
 70
     1
102
RTVSPropertyOp27
 70
     1
102
RTVSPropertyOp28
 70
     1
102
RTVSPropertyOp29
 70
     1
102
RTVSPropertyOp30
 70
     1
102
RTVSPropertyOp31
 70
     1
102
RTVSPropertyOp32
 70
     1
102
RTVSPropertyOp33
 70
     1
102
RTVSPropertyOp34
 70
     1
102
RTVSPropertyOp35
 70
     1
102
RTVSPropertyOp36
 70
     1
102
RTVSPropertyOp37
 70
     1
102
RTVSPropertyOp38
 70
     1
102
RTVSPropertyOp39
 70
     1
102
RTVSPropertyOp40
 70
     1
102
RTVSPropertyOp41
 70
     1
102
RTVSPropertyOp42
 70
     1
102
RTVSPropertyOp43
 70
     1
102
RTVSPropertyOp44
 70
     1
102
RTVSPropertyOp45
 70
     1
102
RTVSPropertyOp46
 70
     1
102
RTVSPropertyOp47
 70
     1
102
RTVSPropertyOp48
 70
     1
102
RTVSPropertyOp49
 70
     1
102
RTVSPropertyOp50
 70
     1
102
RTVSPropertyOp51
 70
     0
102
RTVSPropertyOp52
 70
     0
102
RTVSPropertyOp53
 70
     1
102
RTVSPropertyOp54
 70
     1
102
RTVSPropertyOp55
 70
     1
102
RTVSPropertyOp56
 70
     1
102
RTVSPropertyOp57
 70
     1
102
RTVSPost2010Prop28
280
     0
102
RTVSPost2010PropOp28
 70
     1
102
RTVSPost2010Prop29
280
     1
102
RTVSPost2010PropOp29
 70
     1
102
RTVSPost2010Prop30
280
     1
102
RTVSPost2010PropOp30
 70
     1
102
RTVSPost2010Prop31
280
     0
102
RTVSPost2010PropOp31
 70
     1
102
RTVSPost2010Prop32
280
     0
102
RTVSPost2010PropOp32
 70
     1
102
RTVSPost2010Prop33
280
     0
102
RTVSPost2010PropOp33
 70
     1
102
RTVSPost2010Prop34
280
     0
102
RTVSPost2010PropOp34
 70
     1
102
RTVSPost2010Prop35
280
     0
102
RTVSPost2010PropOp35
 70
     1
102
RTVSPost2010Prop36
280
     0
102
RTVSPost2010PropOp36
 70
     1
102
RTVSPost2010Prop37
 90
       50
102
RTVSPost2010PropOp37
 70
     1
102
RTVSPost2010Prop38
140
0.0
102
RTVSPost2010PropOp38
 70
     1
102
RTVSPost2010Prop39
140
1.0
102
RTVSPost2010PropOp39
 70
     1
102
RTVSPost2010Prop40
 90
        0
102
RTVSPost2010PropOp40
 70
     1
102
RTVSPost2010Prop41ColorIndex
 90
       18
102
RTVSPost2010Prop41ColorRGB
 90
        0
102
RTVSPost2010PropOp41
 70
     1
102
RTVSPost2010Prop42
 90
       50
102
RTVSPost2010PropOp42
 70
     1
102
RTVSPost2010Prop43
 90
        3
102
RTVSPost2010PropOp43
 70
     1
102
RTVSPost2010Prop44ColorIndex
 90
        5
102
RTVSPost2010Prop44ColorRGB
 90
      255
102
RTVSPost2010PropOp44
 70
     1
102
RTVSPost2010Prop45
280
     0
102
RTVSPost2010PropOp45
 70
     1
102
RTVSPost2010Prop46
 90
       50
102
RTVSPost2010PropOp46
 70
     1
102
RTVSPost2010Prop47
 90
       50
102
RTVSPost2010PropOp47
 70
     1
102
RTVSPost2010Prop48
 90
       50
102
RTVSPost2010PropOp48
 70
     1
102
RTVSPost2010Prop49
280
     0
102
RTVSPost2010PropOp49
 70
     1
102
RTVSPost2010Prop50
 90
       50
102
RTVSPost2010PropOp50
 70
     1
102
RTVSPost2010Prop51ColorIndex
 90
      256
102
RTVSPost2010Prop51ColorRGB
 90
-16777216
102
RTVSPost2010PropOp51
 70
     0
102
RTVSPost2010Prop52
140
1.0
102
RTVSPost2010PropOp52
 70
     0
102
RTVSPost2010Prop53
 90
        2
102
RTVSPost2010PropOp53
 70
     1
102
RTVSPost2010Prop54
  1
strokes_ogs.tif
102
RTVSPost2010PropOp54
 70
     1
102
RTVSPost2010Prop55
280
     0
102
RTVSPost2010PropOp55
 70
     1
102
RTVSPost2010Prop56
140
1.0
102
RTVSPost2010PropOp56
 70
     1
102
RTVSPost2010Prop57
140
1.0
102
RTVSPost2010PropOp57
 70
     1
  0
XRECORD
  5
334
102
{ACAD_REACTORS
330
333
102
}
330
333
100
AcDbXrecord
280
     1
102
RTVSPropertyOp0
 70
     1
102
RTVSPropertyOp1
 70
     1
102
RTVSPropertyOp2
 70
     1
102
RTVSPropertyOp3
 70
     1
102
RTVSPropertyOp4
 70
     1
102
RTVSPropertyOp5
 70
     1
102
RTVSPropertyOp6
 70
     1
102
RTVSPropertyOp7
 70
     1
102
RTVSPropertyOp8
 70
     1
102
RTVSPropertyOp9
 70
     1
102
RTVSPropertyOp10
 70
     1
102
RTVSPropertyOp11
 70
     1
102
RTVSPropertyOp12
 70
     1
102
RTVSPropertyOp13
 70
     1
102
RTVSPropertyOp14
 70
     1
102
RTVSPropertyOp15
 70
     1
102
RTVSPropertyOp16
 70
     1
102
RTVSPropertyOp17
 70
     1
102
RTVSPropertyOp18
 70
     1
102
RTVSPropertyOp19
 70
     1
102
RTVSPropertyOp20
 70
     1
102
RTVSPropertyOp21
 70
     1
102
RTVSPropertyOp22
 70
     1
102
RTVSPropertyOp23
 70
     1
102
RTVSPropertyOp24
 70
     1
102
RTVSPropertyOp25
 70
     1
102
RTVSPropertyOp26
 70
     1
102
RTVSPropertyOp27
 70
     1
102
RTVSPropertyOp28
 70
     1
102
RTVSPropertyOp29
 70
     1
102
RTVSPropertyOp30
 70
     1
102
RTVSPropertyOp31
 70
     1
102
RTVSPropertyOp32
 70
     1
102
RTVSPropertyOp33
 70
     1
102
RTVSPropertyOp34
 70
     1
102
RTVSPropertyOp35
 70
     1
102
RTVSPropertyOp36
 70
     1
102
RTVSPropertyOp37
 70
     1
102
RTVSPropertyOp38
 70
     1
102
RTVSPropertyOp39
 70
     1
102
RTVSPropertyOp40
 70
     1
102
RTVSPropertyOp41
 70
     1
102
RTVSPropertyOp42
 70
     1
102
RTVSPropertyOp43
 70
     1
102
RTVSPropertyOp44
 70
     1
102
RTVSPropertyOp45
 70
     1
102
RTVSPropertyOp46
 70
     1
102
RTVSPropertyOp47
 70
     1
102
RTVSPropertyOp48
 70
     1
102
RTVSPropertyOp49
 70
     1
102
RTVSPropertyOp50
 70
     1
102
RTVSPropertyOp51
 70
     0
102
RTVSPropertyOp52
 70
     0
102
RTVSPropertyOp53
 70
     1
102
RTVSPropertyOp54
 70
     1
102
RTVSPropertyOp55
 70
     1
102
RTVSPropertyOp56
 70
     1
102
RTVSPropertyOp57
 70
     1
102
RTVSPost2010Prop28
280
     0
102
RTVSPost2010PropOp28
 70
     1
102
RTVSPost2010Prop29
280
     1
102
RTVSPost2010PropOp29
 70
     1
102
RTVSPost2010Prop30
280
     1
102
RTVSPost2010PropOp30
 70
     1
102
RTVSPost2010Prop31
280
     0
102
RTVSPost2010PropOp31
 70
     1
102
RTVSPost2010Prop32
280
     0
102
RTVSPost2010PropOp32
 70
     1
102
RTVSPost2010Prop33
280
     0
102
RTVSPost2010PropOp33
 70
     1
102
RTVSPost2010Prop34
280
     0
102
RTVSPost2010PropOp34
 70
     1
102
RTVSPost2010Prop35
280
     0
102
RTVSPost2010PropOp35
 70
     1
102
RTVSPost2010Prop36
280
     0
102
RTVSPost2010PropOp36
 70
     1
102
RTVSPost2010Prop37
 90
       50
102
RTVSPost2010PropOp37
 70
     1
102
RTVSPost2010Prop38
140
0.0
102
RTVSPost2010PropOp38
 70
     1
102
RTVSPost2010Prop39
140
1.0
102
RTVSPost2010PropOp39
 70
     1
102
RTVSPost2010Prop40
 90
        0
102
RTVSPost2010PropOp40
 70
     1
102
RTVSPost2010Prop41ColorIndex
 90
       18
102
RTVSPost2010Prop41ColorRGB
 90
        0
102
RTVSPost2010PropOp41
 70
     1
102
RTVSPost2010Prop42
 90
       50
102
RTVSPost2010PropOp42
 70
     1
102
RTVSPost2010Prop43
 90
        3
102
RTVSPost2010PropOp43
 70
     1
102
RTVSPost2010Prop44ColorIndex
 90
        5
102
RTVSPost2010Prop44ColorRGB
 90
      255
102
RTVSPost2010PropOp44
 70
     1
102
RTVSPost2010Prop45
280
     0
102
RTVSPost2010PropOp45
 70
     1
102
RTVSPost2010Prop46
 90
       50
102
RTVSPost2010PropOp46
 70
     1
102
RTVSPost2010Prop47
 90
       50
102
RTVSPost2010PropOp47
 70
     1
102
RTVSPost2010Prop48
 90
       50
102
RTVSPost2010PropOp48
 70
     1
102
RTVSPost2010Prop49
280
     0
102
RTVSPost2010PropOp49
 70
     1
102
RTVSPost2010Prop50
 90
       50
102
RTVSPost2010PropOp50
 70
     1
102
RTVSPost2010Prop51ColorIndex
 90
      256
102
RTVSPost2010Prop51ColorRGB
 90
-16777216
102
RTVSPost2010PropOp51
 70
     0
102
RTVSPost2010Prop52
140
1.0
102
RTVSPost2010PropOp52
 70
     0
102
RTVSPost2010Prop53
 90
        2
102
RTVSPost2010PropOp53
 70
     1
102
RTVSPost2010Prop54
  1
strokes_ogs.tif
102
RTVSPost2010PropOp54
 70
     1
102
RTVSPost2010Prop55
280
     0
102
RTVSPost2010PropOp55
 70
     1
102
RTVSPost2010Prop56
140
1.0
102
RTVSPost2010PropOp56
 70
     1
102
RTVSPost2010Prop57
140
1.0
102
RTVSPost2010PropOp57
 70
     1
  0
XRECORD
  5
32E
102
{ACAD_REACTORS
330
32D
102
}
330
32D
100
AcDbXrecord
280
     1
102
RTVSPropertyOp0
 70
     1
102
RTVSPropertyOp1
 70
     1
102
RTVSPropertyOp2
 70
     1
102
RTVSPropertyOp3
 70
     1
102
RTVSPropertyOp4
 70
     1
102
RTVSPropertyOp5
 70
     1
102
RTVSPropertyOp6
 70
     1
102
RTVSPropertyOp7
 70
     1
102
RTVSPropertyOp8
 70
     1
102
RTVSPropertyOp9
 70
     1
102
RTVSPropertyOp10
 70
     1
102
RTVSPropertyOp11
 70
     1
102
RTVSPropertyOp12
 70
     1
102
RTVSPropertyOp13
 70
     1
102
RTVSPropertyOp14
 70
     1
102
RTVSPropertyOp15
 70
     1
102
RTVSPropertyOp16
 70
     1
102
RTVSPropertyOp17
 70
     1
102
RTVSPropertyOp18
 70
     1
102
RTVSPropertyOp19
 70
     1
102
RTVSPropertyOp20
 70
     1
102
RTVSPropertyOp21
 70
     1
102
RTVSPropertyOp22
 70
     1
102
RTVSPropertyOp23
 70
     1
102
RTVSPropertyOp24
 70
     1
102
RTVSPropertyOp25
 70
     1
102
RTVSPropertyOp26
 70
     1
102
RTVSPropertyOp27
 70
     1
102
RTVSPropertyOp28
 70
     1
102
RTVSPropertyOp29
 70
     1
102
RTVSPropertyOp30
 70
     1
102
RTVSPropertyOp31
 70
     1
102
RTVSPropertyOp32
 70
     1
102
RTVSPropertyOp33
 70
     1
102
RTVSPropertyOp34
 70
     1
102
RTVSPropertyOp35
 70
     1
102
RTVSPropertyOp36
 70
     1
102
RTVSPropertyOp37
 70
     1
102
RTVSPropertyOp38
 70
     1
102
RTVSPropertyOp39
 70
     1
102
RTVSPropertyOp40
 70
     1
102
RTVSPropertyOp41
 70
     1
102
RTVSPropertyOp42
 70
     1
102
RTVSPropertyOp43
 70
     1
102
RTVSPropertyOp44
 70
     1
102
RTVSPropertyOp45
 70
     1
102
RTVSPropertyOp46
 70
     1
102
RTVSPropertyOp47
 70
     1
102
RTVSPropertyOp48
 70
     1
102
RTVSPropertyOp49
 70
     1
102
RTVSPropertyOp50
 70
     1
102
RTVSPropertyOp51
 70
     0
102
RTVSPropertyOp52
 70
     0
102
RTVSPropertyOp53
 70
     1
102
RTVSPropertyOp54
 70
     1
102
RTVSPropertyOp55
 70
     1
102
RTVSPropertyOp56
 70
     1
102
RTVSPropertyOp57
 70
     1
102
RTVSPost2010Prop28
280
     0
102
RTVSPost2010PropOp28
 70
     1
102
RTVSPost2010Prop29
280
     1
102
RTVSPost2010PropOp29
 70
     1
102
RTVSPost2010Prop30
280
     1
102
RTVSPost2010PropOp30
 70
     1
102
RTVSPost2010Prop31
280
     0
102
RTVSPost2010PropOp31
 70
     1
102
RTVSPost2010Prop32
280
     0
102
RTVSPost2010PropOp32
 70
     1
102
RTVSPost2010Prop33
280
     0
102
RTVSPost2010PropOp33
 70
     1
102
RTVSPost2010Prop34
280
     0
102
RTVSPost2010PropOp34
 70
     1
102
RTVSPost2010Prop35
280
     0
102
RTVSPost2010PropOp35
 70
     1
102
RTVSPost2010Prop36
280
     0
102
RTVSPost2010PropOp36
 70
     1
102
RTVSPost2010Prop37
 90
       50
102
RTVSPost2010PropOp37
 70
     1
102
RTVSPost2010Prop38
140
0.0
102
RTVSPost2010PropOp38
 70
     1
102
RTVSPost2010Prop39
140
1.0
102
RTVSPost2010PropOp39
 70
     1
102
RTVSPost2010Prop40
 90
        0
102
RTVSPost2010PropOp40
 70
     1
102
RTVSPost2010Prop41ColorIndex
 90
       18
102
RTVSPost2010Prop41ColorRGB
 90
        0
102
RTVSPost2010PropOp41
 70
     1
102
RTVSPost2010Prop42
 90
       50
102
RTVSPost2010PropOp42
 70
     1
102
RTVSPost2010Prop43
 90
        3
102
RTVSPost2010PropOp43
 70
     1
102
RTVSPost2010Prop44ColorIndex
 90
        5
102
RTVSPost2010Prop44ColorRGB
 90
      255
102
RTVSPost2010PropOp44
 70
     1
102
RTVSPost2010Prop45
280
     0
102
RTVSPost2010PropOp45
 70
     1
102
RTVSPost2010Prop46
 90
       50
102
RTVSPost2010PropOp46
 70
     1
102
RTVSPost2010Prop47
 90
       50
102
RTVSPost2010PropOp47
 70
     1
102
RTVSPost2010Prop48
 90
       50
102
RTVSPost2010PropOp48
 70
     1
102
RTVSPost2010Prop49
280
     0
102
RTVSPost2010PropOp49
 70
     1
102
RTVSPost2010Prop50
 90
       50
102
RTVSPost2010PropOp50
 70
     1
102
RTVSPost2010Prop51ColorIndex
 90
      256
102
RTVSPost2010Prop51ColorRGB
 90
-16777216
102
RTVSPost2010PropOp51
 70
     0
102
RTVSPost2010Prop52
140
1.0
102
RTVSPost2010PropOp52
 70
     0
102
RTVSPost2010Prop53
 90
        2
102
RTVSPost2010PropOp53
 70
     1
102
RTVSPost2010Prop54
  1
strokes_ogs.tif
102
RTVSPost2010PropOp54
 70
     1
102
RTVSPost2010Prop55
280
     0
102
RTVSPost2010PropOp55
 70
     1
102
RTVSPost2010Prop56
140
1.0
102
RTVSPost2010PropOp56
 70
     1
102
RTVSPost2010Prop57
140
1.0
102
RTVSPost2010PropOp57
 70
     1
  0
XRECORD
  5
330
102
{ACAD_REACTORS
330
32F
102
}
330
32F
100
AcDbXrecord
280
     1
102
RTVSPropertyOp0
 70
     1
102
RTVSPropertyOp1
 70
     1
102
RTVSPropertyOp2
 70
     1
102
RTVSPropertyOp3
 70
     1
102
RTVSPropertyOp4
 70
     1
102
RTVSPropertyOp5
 70
     1
102
RTVSPropertyOp6
 70
     1
102
RTVSPropertyOp7
 70
     1
102
RTVSPropertyOp8
 70
     1
102
RTVSPropertyOp9
 70
     1
102
RTVSPropertyOp10
 70
     1
102
RTVSPropertyOp11
 70
     1
102
RTVSPropertyOp12
 70
     1
102
RTVSPropertyOp13
 70
     1
102
RTVSPropertyOp14
 70
     1
102
RTVSPropertyOp15
 70
     1
102
RTVSPropertyOp16
 70
     1
102
RTVSPropertyOp17
 70
     1
102
RTVSPropertyOp18
 70
     1
102
RTVSPropertyOp19
 70
     1
102
RTVSPropertyOp20
 70
     1
102
RTVSPropertyOp21
 70
     1
102
RTVSPropertyOp22
 70
     1
102
RTVSPropertyOp23
 70
     1
102
RTVSPropertyOp24
 70
     1
102
RTVSPropertyOp25
 70
     1
102
RTVSPropertyOp26
 70
     1
102
RTVSPropertyOp27
 70
     1
102
RTVSPropertyOp28
 70
     1
102
RTVSPropertyOp29
 70
     1
102
RTVSPropertyOp30
 70
     1
102
RTVSPropertyOp31
 70
     1
102
RTVSPropertyOp32
 70
     1
102
RTVSPropertyOp33
 70
     1
102
RTVSPropertyOp34
 70
     1
102
RTVSPropertyOp35
 70
     1
102
RTVSPropertyOp36
 70
     1
102
RTVSPropertyOp37
 70
     1
102
RTVSPropertyOp38
 70
     1
102
RTVSPropertyOp39
 70
     1
102
RTVSPropertyOp40
 70
     1
102
RTVSPropertyOp41
 70
     1
102
RTVSPropertyOp42
 70
     1
102
RTVSPropertyOp43
 70
     1
102
RTVSPropertyOp44
 70
     1
102
RTVSPropertyOp45
 70
     1
102
RTVSPropertyOp46
 70
     1
102
RTVSPropertyOp47
 70
     1
102
RTVSPropertyOp48
 70
     1
102
RTVSPropertyOp49
 70
     1
102
RTVSPropertyOp50
 70
     1
102
RTVSPropertyOp51
 70
     0
102
RTVSPropertyOp52
 70
     0
102
RTVSPropertyOp53
 70
     1
102
RTVSPropertyOp54
 70
     1
102
RTVSPropertyOp55
 70
     1
102
RTVSPropertyOp56
 70
     1
102
RTVSPropertyOp57
 70
     1
102
RTVSPost2010Prop28
280
     0
102
RTVSPost2010PropOp28
 70
     1
102
RTVSPost2010Prop29
280
     1
102
RTVSPost2010PropOp29
 70
     1
102
RTVSPost2010Prop30
280
     1
102
RTVSPost2010PropOp30
 70
     1
102
RTVSPost2010Prop31
280
     0
102
RTVSPost2010PropOp31
 70
     1
102
RTVSPost2010Prop32
280
     0
102
RTVSPost2010PropOp32
 70
     1
102
RTVSPost2010Prop33
280
     0
102
RTVSPost2010PropOp33
 70
     1
102
RTVSPost2010Prop34
280
     0
102
RTVSPost2010PropOp34
 70
     1
102
RTVSPost2010Prop35
280
     0
102
RTVSPost2010PropOp35
 70
     1
102
RTVSPost2010Prop36
280
     0
102
RTVSPost2010PropOp36
 70
     1
102
RTVSPost2010Prop37
 90
       50
102
RTVSPost2010PropOp37
 70
     1
102
RTVSPost2010Prop38
140
0.0
102
RTVSPost2010PropOp38
 70
     1
102
RTVSPost2010Prop39
140
1.0
102
RTVSPost2010PropOp39
 70
     1
102
RTVSPost2010Prop40
 90
        0
102
RTVSPost2010PropOp40
 70
     1
102
RTVSPost2010Prop41ColorIndex
 90
       18
102
RTVSPost2010Prop41ColorRGB
 90
        0
102
RTVSPost2010PropOp41
 70
     1
102
RTVSPost2010Prop42
 90
       50
102
RTVSPost2010PropOp42
 70
     1
102
RTVSPost2010Prop43
 90
        3
102
RTVSPost2010PropOp43
 70
     1
102
RTVSPost2010Prop44ColorIndex
 90
        5
102
RTVSPost2010Prop44ColorRGB
 90
      255
102
RTVSPost2010PropOp44
 70
     1
102
RTVSPost2010Prop45
280
     0
102
RTVSPost2010PropOp45
 70
     1
102
RTVSPost2010Prop46
 90
       50
102
RTVSPost2010PropOp46
 70
     1
102
RTVSPost2010Prop47
 90
       50
102
RTVSPost2010PropOp47
 70
     1
102
RTVSPost2010Prop48
 90
       50
102
RTVSPost2010PropOp48
 70
     1
102
RTVSPost2010Prop49
280
     0
102
RTVSPost2010PropOp49
 70
     1
102
RTVSPost2010Prop50
 90
       50
102
RTVSPost2010PropOp50
 70
     1
102
RTVSPost2010Prop51ColorIndex
 90
      256
102
RTVSPost2010Prop51ColorRGB
 90
-16777216
102
RTVSPost2010PropOp51
 70
     0
102
RTVSPost2010Prop52
140
1.0
102
RTVSPost2010PropOp52
 70
     0
102
RTVSPost2010Prop53
 90
        2
102
RTVSPost2010PropOp53
 70
     1
102
RTVSPost2010Prop54
  1
strokes_ogs.tif
102
RTVSPost2010PropOp54
 70
     1
102
RTVSPost2010Prop55
280
     0
102
RTVSPost2010PropOp55
 70
     1
102
RTVSPost2010Prop56
140
1.0
102
RTVSPost2010PropOp56
 70
     1
102
RTVSPost2010Prop57
140
1.0
102
RTVSPost2010PropOp57
 70
     1
  0
XRECORD
  5
320
102
{ACAD_REACTORS
330
31F
102
}
330
31F
100
AcDbXrecord
280
     1
102
RTVSPropertyOp0
 70
     1
102
RTVSPropertyOp1
 70
     1
102
RTVSPropertyOp2
 70
     1
102
RTVSPropertyOp3
 70
     1
102
RTVSPropertyOp4
 70
     1
102
RTVSPropertyOp5
 70
     1
102
RTVSPropertyOp6
 70
     1
102
RTVSPropertyOp7
 70
     1
102
RTVSPropertyOp8
 70
     1
102
RTVSPropertyOp9
 70
     1
102
RTVSPropertyOp10
 70
     1
102
RTVSPropertyOp11
 70
     1
102
RTVSPropertyOp12
 70
     1
102
RTVSPropertyOp13
 70
     1
102
RTVSPropertyOp14
 70
     1
102
RTVSPropertyOp15
 70
     1
102
RTVSPropertyOp16
 70
     1
102
RTVSPropertyOp17
 70
     1
102
RTVSPropertyOp18
 70
     1
102
RTVSPropertyOp19
 70
     1
102
RTVSPropertyOp20
 70
     1
102
RTVSPropertyOp21
 70
     1
102
RTVSPropertyOp22
 70
     1
102
RTVSPropertyOp23
 70
     1
102
RTVSPropertyOp24
 70
     1
102
RTVSPropertyOp25
 70
     1
102
RTVSPropertyOp26
 70
     1
102
RTVSPropertyOp27
 70
     1
102
RTVSPropertyOp28
 70
     1
102
RTVSPropertyOp29
 70
     1
102
RTVSPropertyOp30
 70
     1
102
RTVSPropertyOp31
 70
     1
102
RTVSPropertyOp32
 70
     1
102
RTVSPropertyOp33
 70
     1
102
RTVSPropertyOp34
 70
     1
102
RTVSPropertyOp35
 70
     1
102
RTVSPropertyOp36
 70
     1
102
RTVSPropertyOp37
 70
     1
102
RTVSPropertyOp38
 70
     1
102
RTVSPropertyOp39
 70
     1
102
RTVSPropertyOp40
 70
     1
102
RTVSPropertyOp41
 70
     1
102
RTVSPropertyOp42
 70
     1
102
RTVSPropertyOp43
 70
     1
102
RTVSPropertyOp44
 70
     1
102
RTVSPropertyOp45
 70
     1
102
RTVSPropertyOp46
 70
     1
102
RTVSPropertyOp47
 70
     1
102
RTVSPropertyOp48
 70
     1
102
RTVSPropertyOp49
 70
     1
102
RTVSPropertyOp50
 70
     1
102
RTVSPropertyOp51
 70
     0
102
RTVSPropertyOp52
 70
     0
102
RTVSPropertyOp53
 70
     1
102
RTVSPropertyOp54
 70
     1
102
RTVSPropertyOp55
 70
     1
102
RTVSPropertyOp56
 70
     1
102
RTVSPropertyOp57
 70
     1
102
RTVSPost2010Prop28
280
     0
102
RTVSPost2010PropOp28
 70
     1
102
RTVSPost2010Prop29
280
     1
102
RTVSPost2010PropOp29
 70
     1
102
RTVSPost2010Prop30
280
     1
102
RTVSPost2010PropOp30
 70
     1
102
RTVSPost2010Prop31
280
     0
102
RTVSPost2010PropOp31
 70
     1
102
RTVSPost2010Prop32
280
     0
102
RTVSPost2010PropOp32
 70
     1
102
RTVSPost2010Prop33
280
     0
102
RTVSPost2010PropOp33
 70
     1
102
RTVSPost2010Prop34
280
     0
102
RTVSPost2010PropOp34
 70
     1
102
RTVSPost2010Prop35
280
     0
102
RTVSPost2010PropOp35
 70
     1
102
RTVSPost2010Prop36
280
     0
102
RTVSPost2010PropOp36
 70
     1
102
RTVSPost2010Prop37
 90
       50
102
RTVSPost2010PropOp37
 70
     1
102
RTVSPost2010Prop38
140
0.0
102
RTVSPost2010PropOp38
 70
     1
102
RTVSPost2010Prop39
140
1.0
102
RTVSPost2010PropOp39
 70
     1
102
RTVSPost2010Prop40
 90
        0
102
RTVSPost2010PropOp40
 70
     1
102
RTVSPost2010Prop41ColorIndex
 90
       18
102
RTVSPost2010Prop41ColorRGB
 90
        0
102
RTVSPost2010PropOp41
 70
     1
102
RTVSPost2010Prop42
 90
       50
102
RTVSPost2010PropOp42
 70
     1
102
RTVSPost2010Prop43
 90
        3
102
RTVSPost2010PropOp43
 70
     1
102
RTVSPost2010Prop44ColorIndex
 90
        5
102
RTVSPost2010Prop44ColorRGB
 90
      255
102
RTVSPost2010PropOp44
 70
     1
102
RTVSPost2010Prop45
280
     0
102
RTVSPost2010PropOp45
 70
     1
102
RTVSPost2010Prop46
 90
       50
102
RTVSPost2010PropOp46
 70
     1
102
RTVSPost2010Prop47
 90
       50
102
RTVSPost2010PropOp47
 70
     1
102
RTVSPost2010Prop48
 90
       50
102
RTVSPost2010PropOp48
 70
     1
102
RTVSPost2010Prop49
280
     0
102
RTVSPost2010PropOp49
 70
     1
102
RTVSPost2010Prop50
 90
       50
102
RTVSPost2010PropOp50
 70
     1
102
RTVSPost2010Prop51ColorIndex
 90
      256
102
RTVSPost2010Prop51ColorRGB
 90
-16777216
102
RTVSPost2010PropOp51
 70
     0
102
RTVSPost2010Prop52
140
1.0
102
RTVSPost2010PropOp52
 70
     0
102
RTVSPost2010Prop53
 90
        2
102
RTVSPost2010PropOp53
 70
     1
102
RTVSPost2010Prop54
  1
strokes_ogs.tif
102
RTVSPost2010PropOp54
 70
     1
102
RTVSPost2010Prop55
280
     0
102
RTVSPost2010PropOp55
 70
     1
102
RTVSPost2010Prop56
140
1.0
102
RTVSPost2010PropOp56
 70
     1
102
RTVSPost2010Prop57
140
1.0
102
RTVSPost2010PropOp57
 70
     1
  0
XRECORD
  5
312
102
{ACAD_REACTORS
330
311
102
}
330
311
100
AcDbXrecord
280
     1
102
RTVSPropertyOp0
 70
     1
102
RTVSPropertyOp1
 70
     1
102
RTVSPropertyOp2
 70
     1
102
RTVSPropertyOp3
 70
     1
102
RTVSPropertyOp4
 70
     1
102
RTVSPropertyOp5
 70
     1
102
RTVSPropertyOp6
 70
     1
102
RTVSPropertyOp7
 70
     1
102
RTVSPropertyOp8
 70
     1
102
RTVSPropertyOp9
 70
     1
102
RTVSPropertyOp10
 70
     1
102
RTVSPropertyOp11
 70
     1
102
RTVSPropertyOp12
 70
     1
102
RTVSPropertyOp13
 70
     1
102
RTVSPropertyOp14
 70
     1
102
RTVSPropertyOp15
 70
     1
102
RTVSPropertyOp16
 70
     1
102
RTVSPropertyOp17
 70
     1
102
RTVSPropertyOp18
 70
     1
102
RTVSPropertyOp19
 70
     1
102
RTVSPropertyOp20
 70
     1
102
RTVSPropertyOp21
 70
     1
102
RTVSPropertyOp22
 70
     1
102
RTVSPropertyOp23
 70
     1
102
RTVSPropertyOp24
 70
     1
102
RTVSPropertyOp25
 70
     1
102
RTVSPropertyOp26
 70
     1
102
RTVSPropertyOp27
 70
     1
102
RTVSPropertyOp28
 70
     1
102
RTVSPropertyOp29
 70
     1
102
RTVSPropertyOp30
 70
     1
102
RTVSPropertyOp31
 70
     1
102
RTVSPropertyOp32
 70
     1
102
RTVSPropertyOp33
 70
     1
102
RTVSPropertyOp34
 70
     1
102
RTVSPropertyOp35
 70
     1
102
RTVSPropertyOp36
 70
     1
102
RTVSPropertyOp37
 70
     1
102
RTVSPropertyOp38
 70
     1
102
RTVSPropertyOp39
 70
     1
102
RTVSPropertyOp40
 70
     1
102
RTVSPropertyOp41
 70
     1
102
RTVSPropertyOp42
 70
     1
102
RTVSPropertyOp43
 70
     1
102
RTVSPropertyOp44
 70
     1
102
RTVSPropertyOp45
 70
     1
102
RTVSPropertyOp46
 70
     1
102
RTVSPropertyOp47
 70
     1
102
RTVSPropertyOp48
 70
     1
102
RTVSPropertyOp49
 70
     1
102
RTVSPropertyOp50
 70
     1
102
RTVSPropertyOp51
 70
     0
102
RTVSPropertyOp52
 70
     0
102
RTVSPropertyOp53
 70
     1
102
RTVSPropertyOp54
 70
     1
102
RTVSPropertyOp55
 70
     1
102
RTVSPropertyOp56
 70
     1
102
RTVSPropertyOp57
 70
     1
102
RTVSPost2010Prop28
280
     0
102
RTVSPost2010PropOp28
 70
     1
102
RTVSPost2010Prop29
280
     1
102
RTVSPost2010PropOp29
 70
     1
102
RTVSPost2010Prop30
280
     1
102
RTVSPost2010PropOp30
 70
     1
102
RTVSPost2010Prop31
280
     0
102
RTVSPost2010PropOp31
 70
     1
102
RTVSPost2010Prop32
280
     0
102
RTVSPost2010PropOp32
 70
     1
102
RTVSPost2010Prop33
280
     0
102
RTVSPost2010PropOp33
 70
     1
102
RTVSPost2010Prop34
280
     0
102
RTVSPost2010PropOp34
 70
     1
102
RTVSPost2010Prop35
280
     0
102
RTVSPost2010PropOp35
 70
     1
102
RTVSPost2010Prop36
280
     0
102
RTVSPost2010PropOp36
 70
     1
102
RTVSPost2010Prop37
 90
       50
102
RTVSPost2010PropOp37
 70
     1
102
RTVSPost2010Prop38
140
0.0
102
RTVSPost2010PropOp38
 70
     1
102
RTVSPost2010Prop39
140
1.0
102
RTVSPost2010PropOp39
 70
     1
102
RTVSPost2010Prop40
 90
        0
102
RTVSPost2010PropOp40
 70
     1
102
RTVSPost2010Prop41ColorIndex
 90
       18
102
RTVSPost2010Prop41ColorRGB
 90
        0
102
RTVSPost2010PropOp41
 70
     1
102
RTVSPost2010Prop42
 90
       50
102
RTVSPost2010PropOp42
 70
     1
102
RTVSPost2010Prop43
 90
        3
102
RTVSPost2010PropOp43
 70
     1
102
RTVSPost2010Prop44ColorIndex
 90
        5
102
RTVSPost2010Prop44ColorRGB
 90
      255
102
RTVSPost2010PropOp44
 70
     1
102
RTVSPost2010Prop45
280
     0
102
RTVSPost2010PropOp45
 70
     1
102
RTVSPost2010Prop46
 90
       50
102
RTVSPost2010PropOp46
 70
     1
102
RTVSPost2010Prop47
 90
       50
102
RTVSPost2010PropOp47
 70
     1
102
RTVSPost2010Prop48
 90
       50
102
RTVSPost2010PropOp48
 70
     1
102
RTVSPost2010Prop49
280
     0
102
RTVSPost2010PropOp49
 70
     1
102
RTVSPost2010Prop50
 90
       50
102
RTVSPost2010PropOp50
 70
     1
102
RTVSPost2010Prop51ColorIndex
 90
      256
102
RTVSPost2010Prop51ColorRGB
 90
-16777216
102
RTVSPost2010PropOp51
 70
     0
102
RTVSPost2010Prop52
140
1.0
102
RTVSPost2010PropOp52
 70
     0
102
RTVSPost2010Prop53
 90
        2
102
RTVSPost2010PropOp53
 70
     1
102
RTVSPost2010Prop54
  1
strokes_ogs.tif
102
RTVSPost2010PropOp54
 70
     1
102
RTVSPost2010Prop55
280
     0
102
RTVSPost2010PropOp55
 70
     1
102
RTVSPost2010Prop56
140
1.0
102
RTVSPost2010PropOp56
 70
     1
102
RTVSPost2010Prop57
140
1.0
102
RTVSPost2010PropOp57
 70
     1
  0
XRECORD
  5
332
102
{ACAD_REACTORS
330
331
102
}
330
331
100
AcDbXrecord
280
     1
102
RTVSPropertyOp0
 70
     1
102
RTVSPropertyOp1
 70
     1
102
RTVSPropertyOp2
 70
     1
102
RTVSPropertyOp3
 70
     1
102
RTVSPropertyOp4
 70
     1
102
RTVSPropertyOp5
 70
     1
102
RTVSPropertyOp6
 70
     1
102
RTVSPropertyOp7
 70
     1
102
RTVSPropertyOp8
 70
     1
102
RTVSPropertyOp9
 70
     1
102
RTVSPropertyOp10
 70
     1
102
RTVSPropertyOp11
 70
     1
102
RTVSPropertyOp12
 70
     1
102
RTVSPropertyOp13
 70
     1
102
RTVSPropertyOp14
 70
     1
102
RTVSPropertyOp15
 70
     1
102
RTVSPropertyOp16
 70
     1
102
RTVSPropertyOp17
 70
     1
102
RTVSPropertyOp18
 70
     1
102
RTVSPropertyOp19
 70
     1
102
RTVSPropertyOp20
 70
     1
102
RTVSPropertyOp21
 70
     1
102
RTVSPropertyOp22
 70
     1
102
RTVSPropertyOp23
 70
     1
102
RTVSPropertyOp24
 70
     1
102
RTVSPropertyOp25
 70
     1
102
RTVSPropertyOp26
 70
     1
102
RTVSPropertyOp27
 70
     1
102
RTVSPropertyOp28
 70
     1
102
RTVSPropertyOp29
 70
     1
102
RTVSPropertyOp30
 70
     1
102
RTVSPropertyOp31
 70
     1
102
RTVSPropertyOp32
 70
     1
102
RTVSPropertyOp33
 70
     1
102
RTVSPropertyOp34
 70
     1
102
RTVSPropertyOp35
 70
     1
102
RTVSPropertyOp36
 70
     1
102
RTVSPropertyOp37
 70
     1
102
RTVSPropertyOp38
 70
     1
102
RTVSPropertyOp39
 70
     1
102
RTVSPropertyOp40
 70
     1
102
RTVSPropertyOp41
 70
     1
102
RTVSPropertyOp42
 70
     1
102
RTVSPropertyOp43
 70
     1
102
RTVSPropertyOp44
 70
     1
102
RTVSPropertyOp45
 70
     1
102
RTVSPropertyOp46
 70
     1
102
RTVSPropertyOp47
 70
     1
102
RTVSPropertyOp48
 70
     1
102
RTVSPropertyOp49
 70
     1
102
RTVSPropertyOp50
 70
     1
102
RTVSPropertyOp51
 70
     0
102
RTVSPropertyOp52
 70
     0
102
RTVSPropertyOp53
 70
     1
102
RTVSPropertyOp54
 70
     1
102
RTVSPropertyOp55
 70
     1
102
RTVSPropertyOp56
 70
     1
102
RTVSPropertyOp57
 70
     1
102
RTVSPost2010Prop28
280
     0
102
RTVSPost2010PropOp28
 70
     1
102
RTVSPost2010Prop29
280
     1
102
RTVSPost2010PropOp29
 70
     1
102
RTVSPost2010Prop30
280
     1
102
RTVSPost2010PropOp30
 70
     1
102
RTVSPost2010Prop31
280
     0
102
RTVSPost2010PropOp31
 70
     1
102
RTVSPost2010Prop32
280
     0
102
RTVSPost2010PropOp32
 70
     1
102
RTVSPost2010Prop33
280
     0
102
RTVSPost2010PropOp33
 70
     1
102
RTVSPost2010Prop34
280
     0
102
RTVSPost2010PropOp34
 70
     1
102
RTVSPost2010Prop35
280
     0
102
RTVSPost2010PropOp35
 70
     1
102
RTVSPost2010Prop36
280
     0
102
RTVSPost2010PropOp36
 70
     1
102
RTVSPost2010Prop37
 90
       50
102
RTVSPost2010PropOp37
 70
     1
102
RTVSPost2010Prop38
140
0.0
102
RTVSPost2010PropOp38
 70
     1
102
RTVSPost2010Prop39
140
1.0
102
RTVSPost2010PropOp39
 70
     1
102
RTVSPost2010Prop40
 90
        0
102
RTVSPost2010PropOp40
 70
     1
102
RTVSPost2010Prop41ColorIndex
 90
       18
102
RTVSPost2010Prop41ColorRGB
 90
        0
102
RTVSPost2010PropOp41
 70
     1
102
RTVSPost2010Prop42
 90
       50
102
RTVSPost2010PropOp42
 70
     1
102
RTVSPost2010Prop43
 90
        3
102
RTVSPost2010PropOp43
 70
     1
102
RTVSPost2010Prop44ColorIndex
 90
        5
102
RTVSPost2010Prop44ColorRGB
 90
      255
102
RTVSPost2010PropOp44
 70
     1
102
RTVSPost2010Prop45
280
     0
102
RTVSPost2010PropOp45
 70
     1
102
RTVSPost2010Prop46
 90
       50
102
RTVSPost2010PropOp46
 70
     1
102
RTVSPost2010Prop47
 90
       50
102
RTVSPost2010PropOp47
 70
     1
102
RTVSPost2010Prop48
 90
       50
102
RTVSPost2010PropOp48
 70
     1
102
RTVSPost2010Prop49
280
     0
102
RTVSPost2010PropOp49
 70
     1
102
RTVSPost2010Prop50
 90
       50
102
RTVSPost2010PropOp50
 70
     1
102
RTVSPost2010Prop51ColorIndex
 90
      256
102
RTVSPost2010Prop51ColorRGB
 90
-16777216
102
RTVSPost2010PropOp51
 70
     0
102
RTVSPost2010Prop52
140
1.0
102
RTVSPost2010PropOp52
 70
     0
102
RTVSPost2010Prop53
 90
        2
102
RTVSPost2010PropOp53
 70
     1
102
RTVSPost2010Prop54
  1
strokes_ogs.tif
102
RTVSPost2010PropOp54
 70
     1
102
RTVSPost2010Prop55
280
     0
102
RTVSPost2010PropOp55
 70
     1
102
RTVSPost2010Prop56
140
1.0
102
RTVSPost2010PropOp56
 70
     1
102
RTVSPost2010Prop57
140
1.0
102
RTVSPost2010PropOp57
 70
     1
  0
ENDSEC
  0
EOF
