  0
SECTION
  2
HEADER
  9
$ACADVER
  1
AC1021
  9
$ACADMAINTVER
 70
    25
  9
$DWGCODEPAGE
  3
ANSI_1252
  9
$INSBASE
 10
0.0
 20
0.0
 30
0.0
  9
$EXTMIN
 10
0.0
 20
0.0
 30
0.0
  9
$EXTMAX
 10
3000.0
 20
4500.0
 30
0.0
  9
$LIMMIN
 10
0.0
 20
0.0
  9
$LIMMAX
 10
3000.0
 20
4500.0
  9
$ORTHOMODE
 70
     0
  9
$REGENMODE
 70
     1
  9
$FILLMODE
 70
     1
  9
$QTEXTMODE
 70
     0
  9
$MIRRTEXT
 70
     1
  9
$LTSCALE
 40
1.0
  9
$ATTMODE
 70
     1
  9
$TEXTSIZE
 40
10.0
  9
$TRACEWID
 40
1.0
  9
$TEXTSTYLE
  7
Standard
  9
$CLAYER
  8
0
  9
$CELTYPE
  6
ByLayer
  9
$CECOLOR
 62
   256
  9
$CELTSCALE
 40
1.0
  9
$DISPSILH
 70
     0
  9
$DIMSCALE
 40
1.0
  9
$DIMASZ
 40
2.5
  9
$DIMEXO
 40
0.625
  9
$DIMDLI
 40
3.75
  9
$DIMRND
 40
0.0
  9
$DIMDLE
 40
0.0
  9
$DIMEXE
 40
1.25
  9
$DIMTP
 40
0.0
  9
$DIMTM
 40
0.0
  9
$DIMTXT
 40
2.5
  9
$DIMCEN
 40
2.5
  9
$DIMTSZ
 40
0.0
  9
$DIMTOL
 70
     0
  9
$DIMLIM
 70
     0
  9
$DIMTIH
 70
     0
  9
$DIMTOH
 70
     0
  9
$DIMSE1
 70
     0
  9
$DIMSE2
 70
     0
  9
$DIMTAD
 70
     1
  9
$DIMZIN
 70
     8
  9
$DIMBLK
  1

  9
$DIMASO
 70
     1
  9
$DIMSHO
 70
     1
  9
$DIMPOST
  1

  9
$DIMAPOST
  1

  9
$DIMALT
 70
     0
  9
$DIMALTD
 70
     3
  9
$DIMALTF
 40
0.0393700787
  9
$DIMLFAC
 40
1.0
  9
$DIMTOFL
 70
     1
  9
$DIMTVP
 40
0.0
  9
$DIMTIX
 70
     0
  9
$DIMSOXD
 70
     0
  9
$DIMSAH
 70
     0
  9
$DIMBLK1
  1

  9
$DIMBLK2
  1

  9
$DIMSTYLE
  2
ISO-25
  9
$DIMCLRD
 70
     0
  9
$DIMCLRE
 70
     0
  9
$DIMCLRT
 70
     0
  9
$DIMTFAC
 40
1.0
  9
$DIMGAP
 40
0.625
  9
$DIMJUST
 70
     0
  9
$DIMSD1
 70
     0
  9
$DIMSD2
 70
     0
  9
$DIMTOLJ
 70
     0
  9
$DIMTZIN
 70
     8
  9
$DIMALTZ
 70
     0
  9
$DIMALTTZ
 70
     0
  9
$DIMUPT
 70
     0
  9
$DIMDEC
 70
     2
  9
$DIMTDEC
 70
     2
  9
$DIMALTU
 70
     2
  9
$DIMALTTD
 70
     3
  9
$DIMTXSTY
  7
Standard
  9
$DIMAUNIT
 70
     0
  9
$DIMADEC
 70
     0
  9
$DIMALTRND
 40
0.0
  9
$DIMAZIN
 70
     0
  9
$DIMDSEP
 70
    44
  9
$DIMATFIT
 70
     3
  9
$DIMFRAC
 70
     0
  9
$DIMLDRBLK
  1

  9
$DIMLUNIT
 70
     2
  9
$DIMLWD
 70
    -2
  9
$DIMLWE
 70
    -2
  9
$DIMTMOVE
 70
     0
  9
$DIMFXL
 40
1.0
  9
$DIMFXLON
 70
     0
  9
$DIMJOGANG
 40
0.7853981634
  9
$DIMTFILL
 70
     0
  9
$DIMTFILLCLR
 70
     0
  9
$DIMARCSYM
 70
     0
  9
$DIMLTYPE
  6

  9
$DIMLTEX1
  6

  9
$DIMLTEX2
  6

  9
$LUNITS
 70
     2
  9
$LUPREC
 70
     4
  9
$SKETCHINC
 40
1.0
  9
$FILLETRAD
 40
10.0
  9
$AUNITS
 70
     0
  9
$AUPREC
 70
     0
  9
$MENU
  1
.
  9
$ELEVATION
 40
0.0
  9
$PELEVATION
 40
0.0
  9
$THICKNESS
 40
0.0
  9
$LIMCHECK
 70
     0
  9
$CHAMFERA
 40
0.0
  9
$CHAMFERB
 40
0.0
  9
$CHAMFERC
 40
0.0
  9
$CHAMFERD
 40
0.0
  9
$SKPOLY
 70
     0
  9
$TDCREATE
 40
2459927.474287847
  9
$TDUCREATE
 40
2459927.432621181
  9
$TDUPDATE
 40
2459927.474290695
  9
$TDUUPDATE
 40
2459927.432624028
  9
$TDINDWG
 40
0.0000000116
  9
$TDUSRTIMER
 40
0.0000000116
  9
$USRTIMER
 70
     1
  9
$ANGBASE
 50
0.0
  9
$ANGDIR
 70
     0
  9
$PDMODE
 70
     0
  9
$PDSIZE
 40
0.0
  9
$PLINEWID
 40
0.0
  9
$SPLFRAME
 70
     0
  9
$SPLINETYPE
 70
     6
  9
$SPLINESEGS
 70
     8
  9
$HANDSEED
  5
30F
  9
$SURFTAB1
 70
     6
  9
$SURFTAB2
 70
     6
  9
$SURFTYPE
 70
     6
  9
$SURFU
 70
     6
  9
$SURFV
 70
     6
  9
$UCSBASE
  2

  9
$UCSNAME
  2

  9
$UCSORG
 10
0.0
 20
0.0
 30
0.0
  9
$UCSXDIR
 10
1.0
 20
0.0
 30
0.0
  9
$UCSYDIR
 10
0.0
 20
1.0
 30
0.0
  9
$UCSORTHOREF
  2

  9
$UCSORTHOVIEW
 70
     0
  9
$UCSORGTOP
 10
0.0
 20
0.0
 30
0.0
  9
$UCSORGBOTTOM
 10
0.0
 20
0.0
 30
0.0
  9
$UCSORGLEFT
 10
0.0
 20
0.0
 30
0.0
  9
$UCSORGRIGHT
 10
0.0
 20
0.0
 30
0.0
  9
$UCSORGFRONT
 10
0.0
 20
0.0
 30
0.0
  9
$UCSORGBACK
 10
0.0
 20
0.0
 30
0.0
  9
$PUCSBASE
  2

  9
$PUCSNAME
  2

  9
$PUCSORG
 10
0.0
 20
0.0
 30
0.0
  9
$PUCSXDIR
 10
1.0
 20
0.0
 30
0.0
  9
$PUCSYDIR
 10
0.0
 20
1.0
 30
0.0
  9
$PUCSORTHOREF
  2

  9
$PUCSORTHOVIEW
 70
     0
  9
$PUCSORGTOP
 10
0.0
 20
0.0
 30
0.0
  9
$PUCSORGBOTTOM
 10
0.0
 20
0.0
 30
0.0
  9
$PUCSORGLEFT
 10
0.0
 20
0.0
 30
0.0
  9
$PUCSORGRIGHT
 10
0.0
 20
0.0
 30
0.0
  9
$PUCSORGFRONT
 10
0.0
 20
0.0
 30
0.0
  9
$PUCSORGBACK
 10
0.0
 20
0.0
 30
0.0
  9
$USERI1
 70
     0
  9
$USERI2
 70
     0
  9
$USERI3
 70
     0
  9
$USERI4
 70
     0
  9
$USERI5
 70
     0
  9
$USERR1
 40
0.0
  9
$USERR2
 40
0.0
  9
$USERR3
 40
0.0
  9
$USERR4
 40
0.0
  9
$USERR5
 40
0.0
  9
$WORLDVIEW
 70
     1
  9
$SHADEDGE
 70
     3
  9
$SHADEDIF
 70
    70
  9
$TILEMODE
 70
     1
  9
$MAXACTVP
 70
    64
  9
$PINSBASE
 10
0.0
 20
0.0
 30
0.0
  9
$PLIMCHECK
 70
     0
  9
$PEXTMIN
 10
0.0
 20
0.0
 30
0.0
  9
$PEXTMAX
 10
3000.0
 20
4500.0
 30
0.0
  9
$PLIMMIN
 10
0.0
 20
0.0
  9
$PLIMMAX
 10
3000.0
 20
4500.0
  9
$UNITMODE
 70
     0
  9
$VISRETAIN
 70
     1
  9
$PLINEGEN
 70
     0
  9
$PSLTSCALE
 70
     1
  9
$TREEDEPTH
 70
  3020
  9
$CMLSTYLE
  2
Standard
  9
$CMLJUST
 70
     0
  9
$CMLSCALE
 40
20.0
  9
$PROXYGRAPHICS
 70
     1
  9
$MEASUREMENT
 70
     1
  9
$CELWEIGHT
370
    -1
  9
$ENDCAPS
280
     0
  9
$JOINSTYLE
280
     0
  9
$LWDISPLAY
290
     0
  9
$INSUNITS
 70
     4
  9
$HYPERLINKBASE
  1

  9
$STYLESHEET
  1

  9
$XEDIT
290
     1
  9
$CEPSNTYPE
380
     0
  9
$PSTYLEMODE
290
     1
  9
$FINGERPRINTGUID
  2
{C66625B2-EC5A-4DC5-9FBE-835F6DD0C416}
  9
$VERSIONGUID
  2
{FAEB1C32-E019-11D5-929B-00C0DF256EC4}
  9
$EXTNAMES
290
     1
  9
$PSVPSCALE
 40
0.0
  9
$OLESTARTUP
290
     0
  9
$SORTENTS
280
   127
  9
$INDEXCTL
280
     0
  9
$HIDETEXT
280
     1
  9
$XCLIPFRAME
290
     0
  9
$HALOGAP
280
     0
  9
$OBSCOLOR
 70
   257
  9
$OBSLTYPE
280
     0
  9
$INTERSECTIONDISPLAY
280
     0
  9
$INTERSECTIONCOLOR
 70
   257
  9
$DIMASSOC
280
     2
  9
$PROJECTNAME
  1

  9
$CAMERADISPLAY
290
     0
  9
$LENSLENGTH
 40
50.0
  9
$CAMERAHEIGHT
 40
0.0
  9
$STEPSPERSEC
 40
2.0
  9
$STEPSIZE
 40
6.0
  9
$3DDWFPREC
 40
2.0
  9
$PSOLWIDTH
 40
5.0
  9
$PSOLHEIGHT
 40
80.0
  9
$LOFTANG1
 40
1.5707963268
  9
$LOFTANG2
 40
1.5707963268
  9
$LOFTMAG1
 40
0.0
  9
$LOFTMAG2
 40
0.0
  9
$LOFTPARAM
 70
     7
  9
$LOFTNORMALS
280
     1
  9
$LATITUDE
 40
37.795
  9
$LONGITUDE
 40
-122.394
  9
$NORTHDIRECTION
 40
0.0
  9
$TIMEZONE
 70
 -8000
  9
$LIGHTGLYPHDISPLAY
280
     1
  9
$TILEMODELIGHTSYNCH
280
     1
  9
$CMATERIAL
347
44
  9
$SOLIDHIST
280
     0
  9
$SHOWHIST
280
     1
  9
$DWFFRAME
280
     2
  9
$DGNFRAME
280
     2
  9
$REALWORLDSCALE
290
     1
  9
$INTERFERECOLOR
 62
   256
  9
$CSHADOW
280
     0
  9
$SHADOWPLANELOCATION
 40
0.0
  0
ENDSEC
  0
SECTION
  2
CLASSES
  0
CLASS
  1
ACDBDICTIONARYWDFLT
  2
AcDbDictionaryWithDefault
  3
ObjectDBX Classes
 90
        0
 91
        4
280
     0
281
     0
  0
CLASS
  1
VISUALSTYLE
  2
AcDbVisualStyle
  3
ObjectDBX Classes
 90
     4095
 91
        4
280
     0
281
     0
  0
CLASS
  1
MATERIAL
  2
AcDbMaterial
  3
ObjectDBX Classes
 90
     1153
 91
        4
280
     0
281
     0
  0
CLASS
  1
SCALE
  2
AcDbScale
  3
ObjectDBX Classes
 90
     1153
 91
        4
280
     0
281
     0
  0
CLASS
  1
TABLESTYLE
  2
AcDbTableStyle
  3
ObjectDBX Classes
 90
     4095
 91
        4
280
     0
281
     0
  0
CLASS
  1
MLEADERSTYLE
  2
AcDbMLeaderStyle
  3
ACDB_MLEADERSTYLE_CLASS
 90
     4095
 91
        4
280
     0
281
     0
  0
CLASS
  1
SUN
  2
AcDbSun
  3
SCENEOE
 90
     1153
 91
        4
280
     0
281
     0
  0
CLASS
  1
DICTIONARYVAR
  2
AcDbDictionaryVar
  3
ObjectDBX Classes
 90
        0
 91
        4
280
     0
281
     0
  0
CLASS
  1
CELLSTYLEMAP
  2
AcDbCellStyleMap
  3
ObjectDBX Classes
 90
     1152
 91
        4
280
     0
281
     0
  0
ENDSEC
  0
SECTION
  2
TABLES
  0
TABLE
  2
VPORT
  5
8
330
0
100
AcDbSymbolTable
 70
     1
  0
VPORT
  5
29
330
8
100
AcDbSymbolTableRecord
100
AcDbViewportTableRecord
  2
*Active
 70
     0
 10
0.0
 20
0.0
 11
1.0
 21
1.0
 12
344.1869158879
 22
148.5
 13
0.0
 23
0.0
 14
10.0
 24
10.0
 15
10.0
 25
10.0
 16
0.0
 26
0.0
 36
1.0
 17
0.0
 27
0.0
 37
0.0
 40
297.0
 41
1.9729729729
 42
50.0
 43
0.0
 44
0.0
 50
0.0
 51
0.0
 71
     0
 72
   100
 73
     1
 74
     3
 75
     0
 76
     0
 77
     0
 78
     0
281
     0
 65
     1
110
0.0
120
0.0
130
0.0
111
1.0
121
0.0
131
0.0
112
0.0
122
1.0
132
0.0
 79
     0
146
0.0
348
2F
 60
     3
 61
     5
292
     1
282
     1
141
0.0
142
0.0
 63
   250
361
6D
  0
ENDTAB
  0
TABLE
  2
LTYPE
  5
5
330
0
100
AcDbSymbolTable
 70
     1
  0
LTYPE
  5
14
330
5
100
AcDbSymbolTableRecord
100
AcDbLinetypeTableRecord
  2
ByBlock
 70
     0
  3

 72
    65
 73
     0
 40
0.0
  0
LTYPE
  5
15
330
5
100
AcDbSymbolTableRecord
100
AcDbLinetypeTableRecord
  2
ByLayer
 70
     0
  3

 72
    65
 73
     0
 40
0.0
  0
LTYPE
  5
16
330
5
100
AcDbSymbolTableRecord
100
AcDbLinetypeTableRecord
  2
Continuous
 70
     0
  3
Solid line
 72
    65
 73
     0
 40
0.0
  0
ENDTAB
  0
TABLE
  2
LAYER
  5
2
330
0
100
AcDbSymbolTable
 70
     5
  0
LAYER
  5
10
330
2
100
AcDbSymbolTableRecord
100
AcDbLayerTableRecord
  2
0
 70
     0
 62
     7
  6
Continuous
370
    -3
390
F
347
46
  0
LAYER
  5
6E
330
2
100
AcDbSymbolTableRecord
100
AcDbLayerTableRecord
  2
Default
 70
     0
 62
     7
  6
Continuous
370
    -3
390
F
347
46
  0
LAYER
  5
71
330
2
100
AcDbSymbolTableRecord
100
AcDbLayerTableRecord
  2
DV1_Default
 70
     0
 62
     7
  6
Continuous
370
    -3
390
F
347
46
  0
LAYER
  5
E5
330
2
100
AcDbSymbolTableRecord
100
AcDbLayerTableRecord
  2
DV2_Default
 70
     0
 62
     7
  6
Continuous
370
    -3
390
F
347
46
  0
LAYER
  5
14A
330
2
100
AcDbSymbolTableRecord
100
AcDbLayerTableRecord
  2
DV3_Default
 70
     0
 62
     7
  6
Continuous
370
    -3
390
F
347
46
  0
ENDTAB
  0
TABLE
  2
STYLE
  5
3
330
0
100
AcDbSymbolTable
 70
     1
  0
STYLE
  5
11
330
3
100
AcDbSymbolTableRecord
100
AcDbTextStyleTableRecord
  2
Standard
 70
     0
 40
0.0
 41
1.0
 50
0.0
 71
     0
 42
10.0
  3
txt
  4

  0
ENDTAB
  0
TABLE
  2
VIEW
  5
6
330
0
100
AcDbSymbolTable
 70
     0
  0
ENDTAB
  0
TABLE
  2
UCS
  5
7
330
0
100
AcDbSymbolTable
 70
     0
  0
ENDTAB
  0
TABLE
  2
APPID
  5
9
330
0
100
AcDbSymbolTable
 70
     2
  0
APPID
  5
12
330
9
100
AcDbSymbolTableRecord
100
AcDbRegAppTableRecord
  2
ACAD
 70
     0
  0
APPID
  5
305
330
9
100
AcDbSymbolTableRecord
100
AcDbRegAppTableRecord
  2
ACAD_MLEADERVER
 70
     0
  0
ENDTAB
  0
TABLE
  2
DIMSTYLE
  5
A
330
0
100
AcDbSymbolTable
 70
     1
100
AcDbDimStyleTable
  0
DIMSTYLE
105
27
330
A
100
AcDbSymbolTableRecord
100
AcDbDimStyleTableRecord
  2
ISO-25
 70
     0
 41
2.5
 42
0.625
 43
3.75
 44
1.25
 73
     0
 74
     0
 77
     1
 78
     8
140
2.5
141
2.5
143
0.0393700787
147
0.625
171
     3
172
     1
178
     0
271
     2
272
     2
274
     3
278
    44
283
     0
284
     8
340
11
  0
ENDTAB
  0
TABLE
  2
BLOCK_RECORD
  5
1
330
0
100
AcDbSymbolTable
 70
     4
  0
BLOCK_RECORD
  5
1F
330
1
100
AcDbSymbolTableRecord
100
AcDbBlockTableRecord
  2
*Model_Space
340
22
 70
     0
280
     1
281
     0
  0
BLOCK_RECORD
  5
1B
330
1
100
AcDbSymbolTableRecord
100
AcDbBlockTableRecord
  2
*Paper_Space
340
1E
 70
     0
280
     1
281
     0
  0
BLOCK_RECORD
  5
6F
330
1
100
AcDbSymbolTableRecord
100
AcDbBlockTableRecord
  2
SE
340
0
102
{BLKREFS
331
70
102
}
 70
     0
280
     1
281
     0
  0
BLOCK_RECORD
  5
E3
330
1
100
AcDbSymbolTableRecord
100
AcDbBlockTableRecord
  2
SE1
340
0
102
{BLKREFS
331
E4
102
}
 70
     0
280
     1
281
     0
  0
BLOCK_RECORD
  5
148
330
1
100
AcDbSymbolTableRecord
100
AcDbBlockTableRecord
  2
SE2
340
0
102
{BLKREFS
331
149
102
}
 70
     0
280
     1
281
     0
  0
ENDTAB
  0
ENDSEC
  0
SECTION
  2
BLOCKS
  0
BLOCK
  5
20
330
1F
100
AcDbEntity
  8
0
100
AcDbBlockBegin
  2
*Model_Space
 70
     0
 10
0.0
 20
0.0
 30
0.0
  3
*Model_Space
  1

  0
ENDBLK
  5
21
330
1F
100
AcDbEntity
  8
0
100
AcDbBlockEnd
  0
BLOCK
  5
1C
330
1B
100
AcDbEntity
 67
     1
  8
0
100
AcDbBlockBegin
  2
*Paper_Space
 70
     0
 10
0.0
 20
0.0
 30
0.0
  3
*Paper_Space
  1

  0
ENDBLK
  5
1D
330
1B
100
AcDbEntity
 67
     1
  8
0
100
AcDbBlockEnd
  0
BLOCK
  5
E1
330
6F
100
AcDbEntity
  8
0
100
AcDbBlockBegin
  2
SE
 70
     0
 10
0.0
 20
0.0
 30
0.0
  3
SE
  1

  0
LINE
  5
72
330
6F
100
AcDbEntity
  8
DV1_Default
 62
     7
100
AcDbLine
 10
43.4105569053
 20
909.3241498178
 30
0.0
 11
65.4105569053
 21
909.3241498178
 31
0.0
  0
LINE
  5
73
330
6F
100
AcDbEntity
  8
DV1_Default
 62
     7
100
AcDbLine
 10
65.4105569053
 20
286.8241498178
 30
0.0
 11
65.4105569053
 21
535.1755150728
 31
0.0
  0
LINE
  5
74
330
6F
100
AcDbEntity
  8
DV1_Default
 62
     7
100
AcDbLine
 10
65.4105569053
 20
570.4350446766
 30
0.0
 11
65.4105569053
 21
868.8241498178
 31
0.0
  0
LINE
  5
75
330
6F
100
AcDbEntity
  8
DV1_Default
 62
     7
100
AcDbLine
 10
65.4105569053
 20
903.8241498178
 30
0.0
 11
65.4105569053
 21
909.3241498178
 31
0.0
  0
LINE
  5
76
330
6F
100
AcDbEntity
  8
DV1_Default
 62
     7
100
AcDbLine
 10
43.4105569053
 20
909.3241498178
 30
0.0
 11
43.4105569053
 21
903.8241498178
 31
0.0
  0
LINE
  5
77
330
6F
100
AcDbEntity
  8
DV1_Default
 62
     7
100
AcDbLine
 10
43.4105569053
 20
868.8241498178
 30
0.0
 11
43.4105569053
 21
570.4349848154
 31
0.0
  0
LINE
  5
78
330
6F
100
AcDbEntity
  8
DV1_Default
 62
     7
100
AcDbLine
 10
43.4105569053
 20
535.1758192779
 30
0.0
 11
43.4105569053
 21
286.8241498178
 31
0.0
  0
LINE
  5
79
330
6F
100
AcDbEntity
  8
DV1_Default
 62
     7
100
AcDbLine
 10
39.3079457414
 20
286.8241498178
 30
0.0
 11
69.5131680691
 21
286.8241498178
 31
0.0
  0
LINE
  5
7A
330
6F
100
AcDbEntity
  8
DV1_Default
 62
     7
100
AcDbLine
 10
69.6911932797
 20
251.8241498178
 30
0.0
 11
39.1299205309
 21
251.8241498178
 31
0.0
  0
LINE
  5
7B
330
6F
100
AcDbEntity
  8
DV1_Default
 62
     7
100
AcDbLine
 10
70.1911864258
 20
252.3267677997
 30
0.0
 11
70.0131612152
 21
286.3267677997
 31
0.0
  0
LINE
  5
7C
330
6F
100
AcDbEntity
  8
DV1_Default
 62
     7
100
AcDbLine
 10
38.8079525953
 20
286.3267677997
 30
0.0
 11
38.6299273847
 21
252.3267677997
 31
0.0
  0
ARC
  5
7D
330
6F
100
AcDbEntity
  8
DV1_Default
 62
     7
100
AcDbCircle
 10
39.3079457414
 20
286.3241498178
 30
0.0
 40
0.5000000000000004
100
AcDbArc
 50
90.0
 51
179.7
  0
ARC
  5
7E
330
6F
100
AcDbEntity
  8
DV1_Default
 62
     7
100
AcDbCircle
 10
69.5131680691
 20
286.3241498178
 30
0.0
 40
0.4999999999999993
100
AcDbArc
 50
0.3
 51
90.0
  0
ARC
  5
7F
330
6F
100
AcDbEntity
  8
DV1_Default
 62
     7
100
AcDbCircle
 10
39.1299205309
 20
252.3241498178
 30
0.0
 40
0.4999999999999977
100
AcDbArc
 50
179.7
 51
270.0
  0
ARC
  5
80
330
6F
100
AcDbEntity
  8
DV1_Default
 62
     7
100
AcDbCircle
 10
69.6911932797
 20
252.3241498178
 30
0.0
 40
0.5000000000000004
100
AcDbArc
 50
270.0
 51
0.3
  0
LINE
  5
81
330
6F
100
AcDbEntity
  8
DV1_Default
 62
     7
100
AcDbLine
 10
69.5131680691
 20
868.8241498178
 30
0.0
 11
39.3079457414
 21
868.8241498178
 31
0.0
  0
LINE
  5
82
330
6F
100
AcDbEntity
  8
DV1_Default
 62
     7
100
AcDbLine
 10
39.1299205309
 20
903.8241498178
 30
0.0
 11
69.6911932797
 21
903.8241498178
 31
0.0
  0
LINE
  5
83
330
6F
100
AcDbEntity
  8
DV1_Default
 62
     7
100
AcDbLine
 10
38.6299273847
 20
903.3215318359
 30
0.0
 11
38.8079525953
 21
869.3215318359
 31
0.0
  0
LINE
  5
84
330
6F
100
AcDbEntity
  8
DV1_Default
 62
     7
100
AcDbLine
 10
70.0131612152
 20
869.3215318359
 30
0.0
 11
70.1911864258
 21
903.3215318359
 31
0.0
  0
ARC
  5
85
330
6F
100
AcDbEntity
  8
DV1_Default
 62
     7
100
AcDbCircle
 10
69.5131680691
 20
869.3241498178
 30
0.0
 40
0.500000000000056
100
AcDbArc
 50
270.0
 51
359.7
  0
ARC
  5
86
330
6F
100
AcDbEntity
  8
DV1_Default
 62
     7
100
AcDbCircle
 10
39.3079457414
 20
869.3241498178
 30
0.0
 40
0.4999999999999999
100
AcDbArc
 50
180.3
 51
270.0
  0
ARC
  5
87
330
6F
100
AcDbEntity
  8
DV1_Default
 62
     7
100
AcDbCircle
 10
69.6911932797
 20
903.3241498178
 30
0.0
 40
0.4999999999999993
100
AcDbArc
 50
359.7000000001
 51
90.0
  0
ARC
  5
88
330
6F
100
AcDbEntity
  8
DV1_Default
 62
     7
100
AcDbCircle
 10
39.1299205309
 20
903.3241498178
 30
0.0
 40
0.500000000000056
100
AcDbArc
 50
90.0
 51
180.2999999999
  0
ARC
  5
89
330
6F
100
AcDbEntity
  8
DV1_Default
 62
     7
100
AcDbCircle
 10
54.4105569053
 20
812.8736043097
 30
0.0
 40
99.99999999998518
100
AcDbArc
 50
83.9713858435
 51
96.0286141565
  0
ARC
  5
8A
330
6F
100
AcDbEntity
  8
DV1_Default
 62
     7
100
AcDbCircle
 10
64.8605569053
 20
911.8233263912
 30
0.0
 40
0.4999999999999987
100
AcDbArc
 50
0.0
 51
83.9713858435
  0
ARC
  5
8B
330
6F
100
AcDbEntity
  8
DV1_Default
 62
     7
100
AcDbCircle
 10
43.9605569053
 20
911.8233263912
 30
0.0
 40
0.4999999999999572
100
AcDbArc
 50
96.0286141565
 51
180.0
  0
LINE
  5
8C
330
6F
100
AcDbEntity
  8
DV1_Default
 62
     7
100
AcDbLine
 10
65.3605569053
 20
909.5241498178
 30
0.0
 11
65.3605569053
 21
911.8233263912
 31
0.0
  0
LINE
  5
8D
330
6F
100
AcDbEntity
  8
DV1_Default
 62
     7
100
AcDbLine
 10
43.4605569053
 20
911.8233263912
 30
0.0
 11
43.4605569053
 21
909.5241498178
 31
0.0
  0
ARC
  5
8E
330
6F
100
AcDbEntity
  8
DV1_Default
 62
     7
100
AcDbCircle
 10
65.1605569053
 20
909.5241498178
 30
0.0
 40
0.199999999999978
100
AcDbArc
 50
270.0
 51
0.0
  0
ARC
  5
8F
330
6F
100
AcDbEntity
  8
DV1_Default
 62
     7
100
AcDbCircle
 10
43.6605569053
 20
909.5241498178
 30
0.0
 40
0.2000000000000005
100
AcDbArc
 50
180.0
 51
270.0
  0
ARC
  5
90
330
6F
100
AcDbEntity
  8
DV1_Default
 62
     7
100
AcDbCircle
 10
38.5364280289
 20
908.1982786942
 30
0.0
 40
0.7000114231842469
100
AcDbArc
 50
90.0031165124
 51
179.9968834875
  0
LINE
  5
91
330
6F
100
AcDbEntity
  8
DV1_Default
 62
     7
100
AcDbLine
 10
37.8364166067
 20
908.1983167702
 30
0.0
 11
37.8364166067
 21
864.4499828654
 31
0.0
  0
LINE
  5
92
330
6F
100
AcDbEntity
  8
DV1_Default
 62
     7
100
AcDbLine
 10
70.2847238577
 20
908.8982901164
 30
0.0
 11
65.4105569053
 21
908.8982901164
 31
0.0
  0
LINE
  5
93
330
6F
100
AcDbEntity
  8
DV1_Default
 62
     7
100
AcDbLine
 10
43.4105569053
 20
908.8982901164
 30
0.0
 11
38.5363899529
 21
908.8982901164
 31
0.0
  0
ARC
  5
94
330
6F
100
AcDbEntity
  8
DV1_Default
 62
     7
100
AcDbCircle
 10
38.5364280289
 20
864.4500209414
 30
0.0
 40
0.700011423184188
100
AcDbArc
 50
180.0031165125
 51
269.9968834876
  0
ARC
  5
95
330
6F
100
AcDbEntity
  8
DV1_Default
 62
     7
100
AcDbCircle
 10
70.2846857817
 20
908.1982786942
 30
0.0
 40
0.7000114231841845
100
AcDbArc
 50
0.0031165125
 51
89.9968834876
  0
LINE
  5
96
330
6F
100
AcDbEntity
  8
DV1_Default
 62
     7
100
AcDbLine
 10
38.5363899529
 20
863.7500095192
 30
0.0
 11
43.4105569053
 21
863.7500095192
 31
0.0
  0
LINE
  5
97
330
6F
100
AcDbEntity
  8
DV1_Default
 62
     7
100
AcDbLine
 10
65.4105569053
 20
863.7500095192
 30
0.0
 11
70.2847238577
 21
863.7500095192
 31
0.0
  0
LINE
  5
98
330
6F
100
AcDbEntity
  8
DV1_Default
 62
     7
100
AcDbLine
 10
70.9846972038
 20
864.4499828654
 30
0.0
 11
70.9846972038
 21
908.1983167702
 31
0.0
  0
ARC
  5
99
330
6F
100
AcDbEntity
  8
DV1_Default
 62
     7
100
AcDbCircle
 10
70.2846857817
 20
864.4500209414
 30
0.0
 40
0.700011423184136
100
AcDbArc
 50
270.0031165124
 51
359.9968834875
  0
ARC
  5
9A
330
6F
100
AcDbEntity
  8
DV1_Default
 62
     7
100
AcDbCircle
 10
70.2846857817
 20
247.4500209414
 30
0.0
 40
0.7000114231842157
100
AcDbArc
 50
270.0031165125
 51
359.9968834875
  0
LINE
  5
9B
330
6F
100
AcDbEntity
  8
DV1_Default
 62
     7
100
AcDbLine
 10
70.9846972038
 20
247.4499828654
 30
0.0
 11
70.9846972038
 21
291.1983167702
 31
0.0
  0
LINE
  5
9C
330
6F
100
AcDbEntity
  8
DV1_Default
 62
     7
100
AcDbLine
 10
38.5363899529
 20
246.7500095192
 30
0.0
 11
70.2847238577
 21
246.7500095192
 31
0.0
  0
ARC
  5
9D
330
6F
100
AcDbEntity
  8
DV1_Default
 62
     7
100
AcDbCircle
 10
70.2846857817
 20
291.1982786942
 30
0.0
 40
0.7000114231842157
100
AcDbArc
 50
0.0031165124
 51
89.9968834875
  0
ARC
  5
9E
330
6F
100
AcDbEntity
  8
DV1_Default
 62
     7
100
AcDbCircle
 10
38.5364280289
 20
247.4500209414
 30
0.0
 40
0.7000114231842157
100
AcDbArc
 50
180.0031165125
 51
269.9968834875
  0
LINE
  5
9F
330
6F
100
AcDbEntity
  8
DV1_Default
 62
     7
100
AcDbLine
 10
70.2847238577
 20
291.8982901164
 30
0.0
 11
65.4105569053
 21
291.8982901164
 31
0.0
  0
LINE
  5
A0
330
6F
100
AcDbEntity
  8
DV1_Default
 62
     7
100
AcDbLine
 10
43.4105569053
 20
291.8982901164
 30
0.0
 11
38.5363899529
 21
291.8982901164
 31
0.0
  0
LINE
  5
A1
330
6F
100
AcDbEntity
  8
DV1_Default
 62
     7
100
AcDbLine
 10
37.8364166067
 20
291.1983167702
 30
0.0
 11
37.8364166067
 21
247.4499828654
 31
0.0
  0
ARC
  5
A2
330
6F
100
AcDbEntity
  8
DV1_Default
 62
     7
100
AcDbCircle
 10
38.5364280289
 20
291.1982786942
 30
0.0
 40
0.7000114231842157
100
AcDbArc
 50
90.0031165125
 51
179.9968834876
  0
LINE
  5
A3
330
6F
100
AcDbEntity
  8
DV1_Default
 62
     7
100
AcDbLine
 10
7.8225147228
 20
571.8592750231
 30
0.0
 11
7.8225147228
 21
572.12642257
 31
0.0
  0
LINE
  5
A4
330
6F
100
AcDbEntity
  8
DV1_Default
 62
     7
100
AcDbLine
 10
7.8225147228
 20
572.12642257
 30
0.0
 11
7.8225147228
 21
574.3646697375
 31
0.0
  0
LINE
  5
A5
330
6F
100
AcDbEntity
  8
DV1_Default
 62
     7
100
AcDbLine
 10
7.8225147228
 20
574.4003573104
 30
0.0
 11
7.8225147228
 21
574.3646697375
 31
0.0
  0
ARC
  5
A6
330
6F
100
AcDbEntity
  8
DV1_Default
 62
     7
100
AcDbCircle
 10
-6.4608223105
 20
572.000202101
 30
0.0
 40
14.28403224755656
100
AcDbArc
 50
351.2209327021
 51
359.4347073964
  0
LINE
  5
A7
330
6F
100
AcDbEntity
  8
DV1_Default
 62
     7
100
AcDbLine
 10
37.1805569053
 20
575.2622245676
 30
0.0
 11
37.1805569053
 21
574.8071757317
 31
0.0
  0
LINE
  5
A8
330
6F
100
AcDbEntity
  8
DV1_Default
 62
     7
100
AcDbLine
 10
37.1805569053
 20
574.8071757317
 30
0.0
 11
37.1805569053
 21
572.2149836288
 31
0.0
  0
LINE
  5
A9
330
6F
100
AcDbEntity
  8
DV1_Default
 62
     7
100
AcDbLine
 10
37.1805569053
 20
572.2149836288
 30
0.0
 11
37.1805569053
 21
569.7503821961
 31
0.0
  0
LINE
  5
AA
330
6F
100
AcDbEntity
  8
DV1_Default
 62
     7
100
AcDbLine
 10
37.1805569053
 20
535.3267746896
 30
0.0
 11
37.1805569053
 21
569.7503821961
 31
0.0
  0
ARC
  5
AB
330
6F
100
AcDbEntity
  8
DV1_Default
 62
     7
100
AcDbCircle
 10
-2.4231806186
 20
571.9160121241
 30
0.0
 40
10.2456953414594
100
AcDbArc
 50
349.6518046922
 51
0.0
  0
ARC
  5
AC
330
6F
100
AcDbEntity
  8
DV1_Default
 62
     7
100
AcDbCircle
 10
127.589994297
 20
552.8241498178
 30
0.0
 40
121.239994297011
100
AcDbArc
 50
173.6046308787
 51
186.3497145668
  0
ARC
  5
AD
330
6F
100
AcDbEntity
  8
DV1_Default
 62
     7
100
AcDbCircle
 10
61.6662847114
 20
545.435016214
 30
0.0
 40
54.90346754931819
100
AcDbArc
 50
186.4852958831
 51
190.1089908333
  0
ARC
  5
AE
330
6F
100
AcDbEntity
  8
DV1_Default
 62
     7
100
AcDbCircle
 10
61.6662847114
 20
560.2132834216
 30
0.0
 40
54.90346754931819
100
AcDbArc
 50
169.6518046922
 51
173.6046308787
  0
LINE
  5
AF
330
6F
100
AcDbEntity
  8
DV1_Default
 62
     7
100
AcDbLine
 10
8.5943975406
 20
534.9738279661
 30
0.0
 11
36.6779389234
 21
534.8267815435
 31
0.0
  0
ARC
  5
B0
330
6F
100
AcDbEntity
  8
DV1_Default
 62
     7
100
AcDbCircle
 10
37.1805569053
 20
-374.1758501822
 30
0.0
 40
950.0
100
AcDbArc
 50
90.0301715546
 51
91.7123688463
  0
ARC
  5
B1
330
6F
100
AcDbEntity
  8
DV1_Default
 62
     7
100
AcDbCircle
 10
8.8225147351
 20
574.4003573104
 30
0.0
 40
1.000000012234469
100
AcDbArc
 50
91.7123688464
 51
180.0
  0
ARC
  5
B2
330
6F
100
AcDbEntity
  8
DV1_Default
 62
     7
100
AcDbCircle
 10
8.5996335045
 20
535.9738142706
 30
0.0
 40
1.000000012234459
100
AcDbArc
 50
190.1089908333
 51
269.7
  0
ARC
  5
B3
330
6F
100
AcDbEntity
  8
DV1_Default
 62
     7
100
AcDbCircle
 10
36.6805569053
 20
535.3267746896
 30
0.0
 40
0.4999999999999857
100
AcDbArc
 50
269.7
 51
0.0
  0
ARC
  5
B4
330
6F
100
AcDbEntity
  8
DV1_Default
 62
     7
100
AcDbCircle
 10
36.6805569053
 20
575.3240181695
 30
0.0
 40
0.5000000000000004
100
AcDbArc
 50
0.0
 51
90.0301715546
  0
LINE
  5
B5
330
6F
100
AcDbEntity
  8
DV1_Default
 62
     7
100
AcDbLine
 10
70.4105569053
 20
535.1241498178
 30
0.0
 11
70.4105569053
 21
570.5241498178
 31
0.0
  0
LINE
  5
B6
330
6F
100
AcDbEntity
  8
DV1_Default
 62
     7
100
AcDbLine
 10
38.4105569053
 20
570.5241498178
 30
0.0
 11
38.4105569053
 21
535.1241498178
 31
0.0
  0
ARC
  5
B7
330
6F
100
AcDbEntity
  8
DV1_Default
 62
     7
100
AcDbCircle
 10
54.4105567862
 20
584.2375820584
 30
0.0
 40
17.71201156415132
100
AcDbArc
 50
302.3567946779
 51
309.9319704807
  0
ARC
  5
B8
330
6F
100
AcDbEntity
  8
DV1_Default
 62
     7
100
AcDbCircle
 10
54.4105567862
 20
584.2375820584
 30
0.0
 40
17.71201156415132
100
AcDbArc
 50
229.725228218
 51
234.1808459275
  0
ARC
  5
B9
330
6F
100
AcDbEntity
  8
DV1_Default
 62
     7
100
AcDbCircle
 10
54.410556814
 20
584.5134020964
 30
0.0
 40
17.91083834044103
100
AcDbArc
 50
229.8447534459
 51
310.1552502091
  0
ARC
  5
BA
330
6F
100
AcDbEntity
  8
DV1_Default
 62
     7
100
AcDbCircle
 10
54.410556814
 20
521.1348975392
 30
0.0
 40
17.910838340441
100
AcDbArc
 50
49.8447497909
 51
50.0604430039
  0
ARC
  5
BB
330
6F
100
AcDbEntity
  8
DV1_Default
 62
     7
100
AcDbCircle
 10
54.410556814
 20
521.1348975392
 30
0.0
 40
17.910838340441
100
AcDbArc
 50
50.8848848446
 51
130.1552465541
  0
LINE
  5
BC
330
6F
100
AcDbEntity
  8
DV1_Default
 62
     7
100
AcDbLine
 10
65.9605569053
 20
534.8241498178
 30
0.0
 11
70.1105569053
 21
534.8241498178
 31
0.0
  0
LINE
  5
BD
330
6F
100
AcDbEntity
  8
DV1_Default
 62
     7
100
AcDbLine
 10
38.7105569053
 20
534.8241498178
 30
0.0
 11
42.8704931588
 21
534.8241498178
 31
0.0
  0
LINE
  5
BE
330
6F
100
AcDbEntity
  8
DV1_Default
 62
     7
100
AcDbLine
 10
42.8704931588
 20
570.8241498178
 30
0.0
 11
38.7105569053
 21
570.8241498178
 31
0.0
  0
LINE
  5
BF
330
6F
100
AcDbEntity
  8
DV1_Default
 62
     7
100
AcDbLine
 10
70.1105569053
 20
570.8241498178
 30
0.0
 11
65.9605569053
 21
570.8241498178
 31
0.0
  0
ARC
  5
C0
330
6F
100
AcDbEntity
  8
DV1_Default
 62
     7
100
AcDbCircle
 10
70.1105569053
 20
535.1241498178
 30
0.0
 40
0.3000000000000225
100
AcDbArc
 50
270.0
 51
0.0
  0
ARC
  5
C1
330
6F
100
AcDbEntity
  8
DV1_Default
 62
     7
100
AcDbCircle
 10
70.1105569053
 20
570.5241498178
 30
0.0
 40
0.3000000000000017
100
AcDbArc
 50
0.0
 51
90.0
  0
ARC
  5
C2
330
6F
100
AcDbEntity
  8
DV1_Default
 62
     7
100
AcDbCircle
 10
38.7105569053
 20
535.1241498178
 30
0.0
 40
0.3000000000000017
100
AcDbArc
 50
180.0
 51
270.0
  0
ARC
  5
C3
330
6F
100
AcDbEntity
  8
DV1_Default
 62
     7
100
AcDbCircle
 10
38.7105569053
 20
570.5241498178
 30
0.0
 40
0.3000000000000225
100
AcDbArc
 50
90.0
 51
180.0
  0
LINE
  5
C4
330
6F
100
AcDbEntity
  8
DV1_Default
 62
     7
100
AcDbLine
 10
70.6105569053
 20
536.1241498178
 30
0.0
 11
71.2605569053
 21
536.1241498178
 31
0.0
  0
LINE
  5
C5
330
6F
100
AcDbEntity
  8
DV1_Default
 62
     7
100
AcDbLine
 10
71.2605569053
 20
569.5241498178
 30
0.0
 11
70.6105569053
 21
569.5241498178
 31
0.0
  0
LINE
  5
C6
330
6F
100
AcDbEntity
  8
DV1_Default
 62
     7
100
AcDbLine
 10
37.1805569053
 20
536.1241498178
 30
0.0
 11
38.2105569053
 21
536.1241498178
 31
0.0
  0
LINE
  5
C7
330
6F
100
AcDbEntity
  8
DV1_Default
 62
     7
100
AcDbLine
 10
38.2105569053
 20
569.5241498178
 30
0.0
 11
37.1805569053
 21
569.5241498178
 31
0.0
  0
SPLINE
  5
C8
330
6F
100
AcDbEntity
  8
DV1_Default
 62
     7
100
AcDbSpline
210
0.0
220
0.0
230
1.0
 70
     8
 71
     3
 72
    12
 73
     8
 74
     0
 42
0.000000001
 43
0.0000000001
 40
0.0
 40
0.0
 40
0.0
 40
0.0
 40
0.3308200454969682
 40
0.8690464725940097
 40
0.9455298072099648
 40
0.9851150611139712
 40
1.0
 40
1.0
 40
1.0
 40
1.0
 10
65.76684275798586
 20
534.9312212833022
 30
0.0
 10
65.79645228541325
 20
534.9127677269724
 30
0.0
 10
65.86414087446519
 20
534.8716968818377
 30
0.0
 10
65.8845704706362
 20
534.8563605459991
 30
0.0
 10
65.91144293405421
 20
534.8469178988618
 30
0.0
 10
65.92895870771031
 20
534.8394986097657
 30
0.0
 10
65.9478115749404
 20
534.8398715071187
 30
0.0
 10
65.95379302061684
 20
534.8399743196211
 30
0.0
  0
ARC
  5
C9
330
6F
100
AcDbEntity
  8
DV1_Default
 62
     7
100
AcDbCircle
 10
70.1019823316
 20
541.983402794
 30
0.0
 40
8.278085478114829
100
AcDbArc
 50
237.3345193013
 51
238.4199929605
  0
ARC
  5
CA
330
6F
100
AcDbEntity
  8
DV1_Default
 62
     7
100
AcDbCircle
 10
70.6105569053
 20
535.9241498178
 30
0.0
 40
0.1999999999999988
100
AcDbArc
 50
90.0
 51
180.0
  0
ARC
  5
CB
330
6F
100
AcDbEntity
  8
DV1_Default
 62
     7
100
AcDbCircle
 10
70.6105569053
 20
569.7241498178
 30
0.0
 40
0.2000000000000335
100
AcDbArc
 50
180.0
 51
270.0
  0
ARC
  5
CC
330
6F
100
AcDbEntity
  8
DV1_Default
 62
     7
100
AcDbCircle
 10
38.2105569053
 20
535.9241498178
 30
0.0
 40
0.2000000000000335
100
AcDbArc
 50
0.0
 51
90.0
  0
ARC
  5
CD
330
6F
100
AcDbEntity
  8
DV1_Default
 62
     7
100
AcDbCircle
 10
38.2105569053
 20
569.7241498178
 30
0.0
 40
0.1999999999999988
100
AcDbArc
 50
270.0
 51
0.0
  0
LINE
  5
CE
330
6F
100
AcDbEntity
  8
DV1_Default
 62
     7
100
AcDbLine
 10
71.2605569053
 20
570.6241498178
 30
0.0
 11
71.2605569053
 21
535.0241498178
 31
0.0
  0
LINE
  5
CF
330
6F
100
AcDbEntity
  8
DV1_Default
 62
     7
100
AcDbLine
 10
117.7605569053
 20
567.1855564341
 30
0.0
 11
117.7605569053
 21
538.4627432014
 31
0.0
  0
ELLIPSE
  5
D0
330
6F
100
AcDbEntity
  8
DV1_Default
 62
     7
100
AcDbEllipse
 10
113.6881115768
 20
567.5210882745
 30
0.0
 11
0.2706987918529302
 21
-0.420383353725351
 31
0.0
210
0.0
220
0.0
230
1.0
 40
0.6420978827
 41
3.141592653589793
 42
3.16285367279526
  0
LINE
  5
D1
330
6F
100
AcDbEntity
  8
DV1_Default
 62
     7
100
AcDbLine
 10
71.4605569053
 20
534.8241498178
 30
0.0
 11
91.7084760375
 21
534.8241498178
 31
0.0
  0
LINE
  5
D2
330
6F
100
AcDbEntity
  8
DV1_Default
 62
     7
100
AcDbLine
 10
89.891373642
 20
570.8241498178
 30
0.0
 11
71.4605569053
 21
570.8241498178
 31
0.0
  0
ARC
  5
D3
330
6F
100
AcDbEntity
  8
DV1_Default
 62
     7
100
AcDbCircle
 10
71.4605569053
 20
535.0241498178
 30
0.0
 40
0.1999999999999988
100
AcDbArc
 50
180.0
 51
270.0
  0
ARC
  5
D4
330
6F
100
AcDbEntity
  8
DV1_Default
 62
     7
100
AcDbCircle
 10
71.4605569053
 20
570.6241498178
 30
0.0
 40
0.2000000000000335
100
AcDbArc
 50
90.0
 51
180.0
  0
SPLINE
  5
D5
330
6F
100
AcDbEntity
  8
DV1_Default
 62
     7
100
AcDbSpline
210
0.0
220
0.0
230
1.0
 70
     8
 71
     3
 72
    48
 73
    44
 74
     0
 42
0.000000001
 43
0.0000000001
 40
0.0
 40
0.0
 40
0.0
 40
0.0
 40
0.0168233632977357
 40
0.0499920226587513
 40
0.0833859792683832
 40
0.1174738968559688
 40
0.1506209227729493
 40
0.1826016795787433
 40
0.2101663145896214
 40
0.235979521246945
 40
0.2633523779897978
 40
0.290167120074233
 40
0.3161666407672257
 40
0.3412323805529367
 40
0.3653995601785429
 40
0.3891487208292228
 40
0.414363157049815
 40
0.4404301511240278
 40
0.4675792724089208
 40
0.4959827331329469
 40
0.5257538324115271
 40
0.5569207277695196
 40
0.5893922329890923
 40
0.6229222328447488
 40
0.6570932185715541
 40
0.6876067983717248
 40
0.719988683475505
 40
0.7521543985054435
 40
0.7839859156315483
 40
0.8152664376815926
 40
0.8458442621031792
 40
0.8756391145167416
 40
0.9046403111877678
 40
0.9329004992869875
 40
0.960531146932635
 40
0.9877481927642634
 40
0.9897582938527065
 40
0.990625206184721
 40
0.9911669046074968
 40
0.9916345549080078
 40
0.9923202524197274
 40
0.9953240722018254
 40
1.0
 40
1.0
 40
1.0
 40
1.0
 10
113.4123017819159
 20
567.9369812229226
 30
0.0
 10
113.2788598075913
 20
567.8511612881108
 30
0.0
 10
112.9407623238476
 20
567.6342603166693
 30
0.0
 10
112.2688205114116
 20
567.2246466338671
 30
0.0
 10
111.4438249993306
 20
566.7447937028065
 30
0.0
 10
110.5624336301328
 20
566.2700638345939
 30
0.0
 10
109.6479276451298
 20
565.824419037849
 30
0.0
 10
108.7493655360139
 20
565.4389542197284
 30
0.0
 10
107.8874879938623
 20
565.1181166817838
 30
0.0
 10
107.0412909273513
 20
564.8582630068893
 30
0.0
 10
106.1756314924469
 20
564.6509807642708
 30
0.0
 10
105.2863589958551
 20
564.4995830510279
 30
0.0
 10
104.408133313602
 20
564.4126471583694
 30
0.0
 10
103.5529115652823
 20
564.3904618430098
 30
0.0
 10
102.7250317682572
 20
564.4354500132829
 30
0.0
 10
101.9049478884041
 20
564.5391376868998
 30
0.0
 10
101.0788751384118
 20
564.6986596024351
 30
0.0
 10
100.2376307468578
 20
564.917066770813
 30
0.0
 10
99.39011680531806
 20
565.1912704721647
 30
0.0
 10
98.53724748970707
 20
565.5196050586317
 30
0.0
 10
97.68186366364681
 20
565.8988544586898
 30
0.0
 10
96.8290810257
 20
566.3235200649018
 30
0.0
 10
95.98674390462527
 20
566.7848628882748
 30
0.0
 10
95.16555052669703
 20
567.270043712385
 30
0.0
 10
94.40742268583483
 20
567.7444066058821
 30
0.0
 10
93.70242688244149
 20
568.2002467526232
 30
0.0
 10
93.06252844935777
 20
568.6268187655206
 30
0.0
 10
92.46775980281556
 20
569.0347619978581
 30
0.0
 10
91.93620946464195
 20
569.4087843243673
 30
0.0
 10
91.47199326136436
 20
569.7430561794565
 30
0.0
 10
91.07824203750542
 20
570.0325616216053
 30
0.0
 10
90.7564470877046
 20
570.27366109366
 30
0.0
 10
90.50615043759389
 20
570.4644319736998
 30
0.0
 10
90.32784477160124
 20
570.6024431575529
 30
0.0
 10
90.21433532831216
 20
570.69155952132
 30
0.0
 10
90.19305534721366
 20
570.7085545648547
 30
0.0
 10
90.17996547293134
 20
570.7188242630898
 30
0.0
 10
90.17509772159217
 20
570.7225608769808
 30
0.0
 10
90.16902971976037
 20
570.7271049141278
 30
0.0
 10
90.15827874468486
 20
570.7348645556824
 30
0.0
 10
90.12059800723608
 20
570.7601390176162
 30
0.0
 10
90.03290957584265
 20
570.8055646968719
 30
0.0
 10
89.9520428165956
 20
570.8153946176291
 30
0.0
 10
89.89396865727578
 20
570.8215332562381
 30
0.0
  0
LINE
  5
D6
330
6F
100
AcDbEntity
  8
DV1_Default
 62
     7
100
AcDbLine
 10
116.7605569053
 20
568.0210882745
 30
0.0
 11
113.6881115768
 21
568.0210882745
 31
0.0
  0
SPLINE
  5
D7
330
6F
100
AcDbEntity
  8
DV1_Default
 62
     7
100
AcDbSpline
210
0.0
220
0.0
230
1.0
 70
     8
 71
     3
 72
    14
 73
    10
 74
     0
 42
0.000000001
 43
0.0000000001
 40
0.0
 40
0.0
 40
0.0
 40
0.0
 40
0.0311187781400115
 40
0.2075423502783641
 40
0.3787202391204272
 40
0.5483244294421916
 40
0.7256779550722917
 40
0.9079146047975114
 40
1.0
 40
1.0
 40
1.0
 40
1.0
 10
117.7554137753564
 20
567.1869353245953
 30
0.0
 10
117.7571759558582
 20
567.202739146732
 30
0.0
 10
117.7668870771652
 20
567.293370555737
 30
0.0
 10
117.7133941214943
 20
567.4744057064433
 30
0.0
 10
117.5898766115212
 20
567.6810087954029
 30
0.0
 10
117.4041716067162
 20
567.8462487813587
 30
0.0
 10
117.1751839385498
 20
567.9598802606139
 30
0.0
 10
116.9451392992648
 20
568.0186850134244
 30
0.0
 10
116.8124780013151
 20
568.0152424185087
 30
0.0
 10
116.7605439434952
 20
568.0134218888444
 30
0.0
  0
SPLINE
  5
D8
330
6F
100
AcDbEntity
  8
DV1_Default
 62
     7
100
AcDbSpline
210
0.0
220
0.0
230
1.0
 70
     8
 71
     3
 72
    13
 73
     9
 74
     0
 42
0.000000001
 43
0.0000000001
 40
0.0
 40
0.0
 40
0.0
 40
0.0
 40
0.1601513573764116
 40
0.3410386454164877
 40
0.5319322454808012
 40
0.7027215297246368
 40
0.8696027079778891
 40
1.0
 40
1.0
 40
1.0
 40
1.0
 10
116.7605400408909
 20
537.6299231368589
 30
0.0
 10
116.8508469027344
 20
537.6330675324576
 30
0.0
 10
117.0150509818024
 20
537.641396919122
 30
0.0
 10
117.273876304822
 20
537.7272731628107
 30
0.0
 10
117.4933479210472
 20
537.8684827153988
 30
0.0
 10
117.6545177893195
 20
538.0578795789422
 30
0.0
 10
117.7483778647077
 20
538.2657348509586
 30
0.0
 10
117.7517645106831
 20
538.3957764023031
 30
0.0
 10
117.7523252529222
 20
538.4625793783373
 30
0.0
  0
LINE
  5
D9
330
6F
100
AcDbEntity
  8
DV1_Default
 62
     7
100
AcDbLine
 10
111.4153087716
 20
537.6272113611
 30
0.0
 11
116.7605569053
 21
537.6272113611
 31
0.0
  0
SPLINE
  5
DA
330
6F
100
AcDbEntity
  8
DV1_Default
 62
     7
100
AcDbSpline
210
0.0
220
0.0
230
1.0
 70
     8
 71
     3
 72
    46
 73
    42
 74
     0
 42
0.000000001
 43
0.0000000001
 40
0.0
 40
0.0
 40
0.0
 40
0.0
 40
0.0000713999587879
 40
0.0036467173550701
 40
0.0065231058535532
 40
0.008483384311338
 40
0.0097928276675607
 40
0.0112282616237652
 40
0.0135800680389308
 40
0.0190548277544749
 40
0.0305946582607478
 40
0.0621493142810019
 40
0.0958101196930687
 40
0.1284950612982757
 40
0.1616056173109353
 40
0.1954548227160469
 40
0.2300880731137045
 40
0.2654559137889329
 40
0.3014351478426919
 40
0.3378375356114609
 40
0.3745008200333627
 40
0.411935754930323
 40
0.4501654808137885
 40
0.487569579195452
 40
0.523672022714536
 40
0.55821571959482
 40
0.5911606721417864
 40
0.6226396328846695
 40
0.6529049142218943
 40
0.6785766117050285
 40
0.7054618268771162
 40
0.7326049204645217
 40
0.7606917256640492
 40
0.7899290956453517
 40
0.8204665566728395
 40
0.852371142667569
 40
0.8856056029684826
 40
0.9200052075142477
 40
0.9552604711799649
 40
0.9910633043071915
 40
1.0
 40
1.0
 40
1.0
 40
1.0
 10
91.71025394573483
 20
534.8254602775069
 30
0.0
 10
91.7109871504982
 20
534.8253767222931
 30
0.0
 10
91.74330702358546
 20
534.8216992231146
 30
0.0
 10
91.80702970196968
 20
534.8335692332946
 30
0.0
 10
91.88128149034262
 20
534.8544813267449
 30
0.0
 10
91.92912121572732
 20
534.8763384730204
 30
0.0
 10
91.95402275602702
 20
534.8897554829197
 30
0.0
 10
91.97063878890665
 20
534.8995773671519
 30
0.0
 10
91.9866731494893
 20
534.9097972302079
 30
0.0
 10
92.00135417623355
 20
534.919842544155
 30
0.0
 10
92.03002085694709
 20
534.9401098100767
 30
0.0
 10
92.09710085681158
 20
534.9891624981204
 30
0.0
 10
92.249205827226
 20
535.0997736463902
 30
0.0
 10
92.46854302354251
 20
535.2569531445007
 30
0.0
 10
92.75025367731239
 20
535.4550675041454
 30
0.0
 10
93.09783812642944
 20
535.6942374897795
 30
0.0
 10
93.51241043368833
 20
535.9725407740606
 30
0.0
 10
93.99350329986375
 20
536.2866507255382
 30
0.0
 10
94.53923302149187
 20
536.63211341973
 30
0.0
 10
95.14666153812176
 20
537.003368786877
 30
0.0
 10
95.8156354875121
 20
537.3972628764898
 30
0.0
 10
96.54468214358278
 20
537.8050891266048
 30
0.0
 10
97.3297401689383
 20
538.2124597506942
 30
0.0
 10
98.15593790942023
 20
538.600711059895
 30
0.0
 10
99.00226276728058
 20
538.9515755514763
 30
0.0
 10
99.85654009090261
 20
539.2543556123226
 30
0.0
 10
100.7098568293716
 20
539.5024010375928
 30
0.0
 10
101.556717097385
 20
539.692139077349
 30
0.0
 10
102.3604259830585
 20
539.8170281446572
 30
0.0
 10
103.1348178301341
 20
539.8851510733977
 30
0.0
 10
103.8862716150305
 20
539.8939655509356
 30
0.0
 10
104.6580475091071
 20
539.8495892160571
 30
0.0
 10
105.4422413628956
 20
539.7527893070022
 30
0.0
 10
106.2412512860383
 20
539.604087259048
 30
0.0
 10
107.0517995868563
 20
539.4045286119615
 30
0.0
 10
107.8687775351876
 20
539.1561451806597
 30
0.0
 10
108.6834580678908
 20
538.8630592432426
 30
0.0
 10
109.488651336116
 20
538.5299332302518
 30
0.0
 10
110.2588351991361
 20
538.1704897010613
 30
0.0
 10
110.8366687883318
 20
537.8743868283882
 30
0.0
 10
111.109089340927
 20
537.7239900428674
 30
0.0
 10
111.1725720527202
 20
537.6888493431975
 30
0.0
  0
ARC
  5
DB
330
6F
100
AcDbEntity
  8
DV1_Default
 62
     7
100
AcDbCircle
 10
111.4153087716
 20
538.1272113611
 30
0.0
 40
0.5000000000000095
100
AcDbArc
 50
241.430404504
 51
270.0
  0
ARC
  5
DC
330
6F
100
AcDbEntity
  8
DV1_Default
 62
     7
100
AcDbCircle
 10
113.6881115768
 20
567.5210882745
 30
0.0
 40
0.5000000000000004
100
AcDbArc
 50
90.0
 51
122.7788291928
  0
LINE
  5
DD
330
6F
100
AcDbEntity
  8
DV1_Default
 62
     7
100
AcDbLine
 10
74.3277253854
 20
887.1051220467
 30
0.0
 11
34.3277262795
 21
887.1051220467
 31
0.0
  0
LINE
  5
DE
330
6F
100
AcDbEntity
  8
DV1_Default
 62
     7
100
AcDbLine
 10
54.3277258324
 20
907.1051215996
 30
0.0
 11
54.3277258324
 21
867.1051224937
 31
0.0
  0
LINE
  5
DF
330
6F
100
AcDbEntity
  8
DV1_Default
 62
     7
100
AcDbLine
 10
74.2970195421
 20
268.5101297033
 30
0.0
 11
34.2970204361
 21
268.5101297033
 31
0.0
  0
LINE
  5
E0
330
6F
100
AcDbEntity
  8
DV1_Default
 62
     7
100
AcDbLine
 10
54.2970199891
 20
288.5101292563
 30
0.0
 11
54.2970199891
 21
248.5101301503
 31
0.0
  0
ENDBLK
  5
E2
330
6F
100
AcDbEntity
  8
0
100
AcDbBlockEnd
  0
BLOCK
  5
146
330
E3
100
AcDbEntity
  8
0
100
AcDbBlockBegin
  2
SE1
 70
     0
 10
0.0
 20
0.0
 30
0.0
  3
SE1
  1

  0
LINE
  5
E6
330
E3
100
AcDbEntity
  8
DV2_Default
 62
     7
100
AcDbLine
 10
190.148886316
 20
253.5241498178
 30
0.0
 11
189.8637219912
 21
253.5241498178
 31
0.0
  0
LINE
  5
E7
330
E3
100
AcDbEntity
  8
DV2_Default
 62
     7
100
AcDbLine
 10
190.4611153544
 20
251.8241498178
 30
0.0
 11
189.8637219912
 21
251.8241498178
 31
0.0
  0
LINE
  5
E8
330
E3
100
AcDbEntity
  8
DV2_Default
 62
     7
100
AcDbLine
 10
189.6637219912
 20
283.8241498178
 30
0.0
 11
189.8844622219
 21
283.8241498178
 31
0.0
  0
ELLIPSE
  5
E9
330
E3
100
AcDbEntity
  8
DV2_Default
 62
     7
100
AcDbEllipse
 10
189.8637219912
 20
283.1207099253
 30
0.0
 11
5.421010862427527E-17
 21
0.3517400359976577
 31
0.0
210
0.0
220
0.0
230
1.0
 40
0.56860175
 41
1.570796326794897
 42
3.141592653589793
  0
LINE
  5
EA
330
E3
100
AcDbEntity
  8
DV2_Default
 62
     7
100
AcDbLine
 10
189.8637219912
 20
253.5241498178
 30
0.0
 11
189.6637219912
 21
253.5241498178
 31
0.0
  0
ARC
  5
EB
330
E3
100
AcDbEntity
  8
DV2_Default
 62
     7
100
AcDbCircle
 10
189.8637219912
 20
252.0241498178
 30
0.0
 40
0.1999999999999988
100
AcDbArc
 50
180.0
 51
270.0
  0
LINE
  5
EC
330
E3
100
AcDbEntity
  8
DV2_Default
 62
     7
100
AcDbLine
 10
189.8936706376
 20
282.7689698893
 30
0.0
 11
189.8637219912
 21
282.7689698893
 31
0.0
  0
LINE
  5
ED
330
E3
100
AcDbEntity
  8
DV2_Default
 62
     7
100
AcDbLine
 10
229.1637219912
 20
909.3241498178
 30
0.0
 11
251.1637219912
 21
909.3241498178
 31
0.0
  0
LINE
  5
EE
330
E3
100
AcDbEntity
  8
DV2_Default
 62
     7
100
AcDbLine
 10
251.1637219912
 20
286.8241498178
 30
0.0
 11
251.1637219912
 21
538.576342969
 31
0.0
  0
LINE
  5
EF
330
E3
100
AcDbEntity
  8
DV2_Default
 62
     7
100
AcDbLine
 10
251.1637219912
 20
567.0719566666
 30
0.0
 11
251.1637219912
 21
868.8241498178
 31
0.0
  0
LINE
  5
F0
330
E3
100
AcDbEntity
  8
DV2_Default
 62
     7
100
AcDbLine
 10
251.1637219912
 20
903.8241498178
 30
0.0
 11
251.1637219912
 21
909.3241498178
 31
0.0
  0
LINE
  5
F1
330
E3
100
AcDbEntity
  8
DV2_Default
 62
     7
100
AcDbLine
 10
229.1637219912
 20
909.3241498178
 30
0.0
 11
229.1637219912
 21
903.8241498178
 31
0.0
  0
LINE
  5
F2
330
E3
100
AcDbEntity
  8
DV2_Default
 62
     7
100
AcDbLine
 10
229.1637219912
 20
868.8241498178
 30
0.0
 11
229.1637219912
 21
567.0719566666
 31
0.0
  0
LINE
  5
F3
330
E3
100
AcDbEntity
  8
DV2_Default
 62
     7
100
AcDbLine
 10
229.1637219912
 20
538.576342969
 30
0.0
 11
229.1637219912
 21
286.8241498178
 31
0.0
  0
LINE
  5
F4
330
E3
100
AcDbEntity
  8
DV2_Default
 62
     7
100
AcDbLine
 10
230.920646257
 20
286.8241498178
 30
0.0
 11
255.2663331551
 21
286.8241498178
 31
0.0
  0
LINE
  5
F5
330
E3
100
AcDbEntity
  8
DV2_Default
 62
     7
100
AcDbLine
 10
228.1666012647
 20
286.8241498178
 30
0.0
 11
230.920646257
 21
286.8241498178
 31
0.0
  0
LINE
  5
F6
330
E3
100
AcDbEntity
  8
DV2_Default
 62
     7
100
AcDbLine
 10
228.1059148749
 20
251.8241498178
 30
0.0
 11
190.4611153544
 21
251.8241498178
 31
0.0
  0
LINE
  5
F7
330
E3
100
AcDbEntity
  8
DV2_Default
 62
     7
100
AcDbLine
 10
230.8489791736
 20
251.8241498178
 30
0.0
 11
228.1059148749
 21
251.8241498178
 31
0.0
  0
LINE
  5
F8
330
E3
100
AcDbEntity
  8
DV2_Default
 62
     7
100
AcDbLine
 10
255.4443583656
 20
251.8241498178
 30
0.0
 11
230.8489791736
 21
251.8241498178
 31
0.0
  0
LINE
  5
F9
330
E3
100
AcDbEntity
  8
DV2_Default
 62
     7
100
AcDbLine
 10
190.1611267775
 20
252.1215318571
 30
0.0
 11
190.1593722652
 21
252.3225790499
 31
0.0
  0
LINE
  5
FA
330
E3
100
AcDbEntity
  8
DV2_Default
 62
     7
100
AcDbLine
 10
189.8626587603
 20
286.3225790499
 30
0.0
 11
189.8609225255
 21
286.5215318571
 31
0.0
  0
LINE
  5
FB
330
E3
100
AcDbEntity
  8
DV2_Default
 62
     7
100
AcDbLine
 10
190.1593722652
 20
252.3225790499
 30
0.0
 11
189.8626587603
 21
286.3225790499
 31
0.0
  0
LINE
  5
FC
330
E3
100
AcDbEntity
  8
DV2_Default
 62
     7
100
AcDbLine
 10
190.1609111024
 20
286.8241498178
 30
0.0
 11
228.1666012647
 21
286.8241498178
 31
0.0
  0
ARC
  5
FD
330
E3
100
AcDbEntity
  8
DV2_Default
 62
     7
100
AcDbCircle
 10
190.4611153544
 20
252.1241498178
 30
0.0
 40
0.2999999999999982
100
AcDbArc
 50
180.5
 51
270.0
  0
ARC
  5
FE
330
E3
100
AcDbEntity
  8
DV2_Default
 62
     7
100
AcDbCircle
 10
190.1609111024
 20
286.5241498178
 30
0.0
 40
0.2999999999999982
100
AcDbArc
 50
90.0
 51
180.5
  0
LINE
  5
FF
330
E3
100
AcDbEntity
  8
DV2_Default
 62
     7
100
AcDbLine
 10
255.9443515118
 20
252.3267677997
 30
0.0
 11
255.7663263012
 21
286.3267677997
 31
0.0
  0
ARC
  5
100
330
E3
100
AcDbEntity
  8
DV2_Default
 62
     7
100
AcDbCircle
 10
255.2663331551
 20
286.3241498178
 30
0.0
 40
0.4999999999999872
100
AcDbArc
 50
0.3
 51
90.0
  0
ARC
  5
101
330
E3
100
AcDbEntity
  8
DV2_Default
 62
     7
100
AcDbCircle
 10
255.4443583656
 20
252.3241498178
 30
0.0
 40
0.5000000000000004
100
AcDbArc
 50
270.0
 51
0.3
  0
LINE
  5
102
330
E3
100
AcDbEntity
  8
DV2_Default
 62
     7
100
AcDbLine
 10
189.8637219912
 20
903.8241498178
 30
0.0
 11
190.4611153544
 21
903.8241498178
 31
0.0
  0
ARC
  5
103
330
E3
100
AcDbEntity
  8
DV2_Default
 62
     7
100
AcDbCircle
 10
189.8637219912
 20
903.6241498178
 30
0.0
 40
0.1999999999999988
100
AcDbArc
 50
90.0
 51
180.0
  0
LINE
  5
104
330
E3
100
AcDbEntity
  8
DV2_Default
 62
     7
100
AcDbLine
 10
189.8844622219
 20
871.8241498178
 30
0.0
 11
189.6637219912
 21
871.8241498178
 31
0.0
  0
LINE
  5
105
330
E3
100
AcDbEntity
  8
DV2_Default
 62
     7
100
AcDbLine
 10
189.8637219912
 20
872.8777127352
 30
0.0
 11
189.8936565262
 21
872.8777127352
 31
0.0
  0
ELLIPSE
  5
106
330
E3
100
AcDbEntity
  8
DV2_Default
 62
     7
100
AcDbEllipse
 10
189.8637219912
 20
872.5265142642
 30
0.0
 11
-4.878909776184771E-16
 21
-0.3511984709093641
 31
0.0
210
0.0
220
0.0
230
1.0
 40
0.5694785615
 41
3.141592653589795
 42
4.712388980384691
  0
LINE
  5
107
330
E3
100
AcDbEntity
  8
DV2_Default
 62
     7
100
AcDbLine
 10
228.1666012647
 20
868.8241498178
 30
0.0
 11
190.1609111024
 21
868.8241498178
 31
0.0
  0
LINE
  5
108
330
E3
100
AcDbEntity
  8
DV2_Default
 62
     7
100
AcDbLine
 10
230.920646257
 20
868.8241498178
 30
0.0
 11
228.1666012647
 21
868.8241498178
 31
0.0
  0
LINE
  5
109
330
E3
100
AcDbEntity
  8
DV2_Default
 62
     7
100
AcDbLine
 10
230.920646257
 20
868.8241498178
 30
0.0
 11
255.2663331551
 21
868.8241498178
 31
0.0
  0
LINE
  5
10A
330
E3
100
AcDbEntity
  8
DV2_Default
 62
     7
100
AcDbLine
 10
255.4443583656
 20
903.8241498178
 30
0.0
 11
230.8489791736
 21
903.8241498178
 31
0.0
  0
LINE
  5
10B
330
E3
100
AcDbEntity
  8
DV2_Default
 62
     7
100
AcDbLine
 10
228.1059148749
 20
903.8241498178
 30
0.0
 11
230.8489791736
 21
903.8241498178
 31
0.0
  0
LINE
  5
10C
330
E3
100
AcDbEntity
  8
DV2_Default
 62
     7
100
AcDbLine
 10
190.1593722652
 20
903.3257205857
 30
0.0
 11
190.1611267775
 21
903.5267677784
 31
0.0
  0
LINE
  5
10D
330
E3
100
AcDbEntity
  8
DV2_Default
 62
     7
100
AcDbLine
 10
189.8626587603
 20
869.3257205857
 30
0.0
 11
190.1593722652
 21
903.3257205857
 31
0.0
  0
LINE
  5
10E
330
E3
100
AcDbEntity
  8
DV2_Default
 62
     7
100
AcDbLine
 10
189.8609225255
 20
869.1267677784
 30
0.0
 11
189.8626587603
 21
869.3257205857
 31
0.0
  0
LINE
  5
10F
330
E3
100
AcDbEntity
  8
DV2_Default
 62
     7
100
AcDbLine
 10
190.4611153544
 20
903.8241498178
 30
0.0
 11
228.1059148749
 21
903.8241498178
 31
0.0
  0
ARC
  5
110
330
E3
100
AcDbEntity
  8
DV2_Default
 62
     7
100
AcDbCircle
 10
190.4611153544
 20
903.5241498178
 30
0.0
 40
0.300000000000078
100
AcDbArc
 50
90.0
 51
179.5
  0
ARC
  5
111
330
E3
100
AcDbEntity
  8
DV2_Default
 62
     7
100
AcDbCircle
 10
190.1609111024
 20
869.1241498178
 30
0.0
 40
0.299999999999967
100
AcDbArc
 50
179.5
 51
270.0
  0
LINE
  5
112
330
E3
100
AcDbEntity
  8
DV2_Default
 62
     7
100
AcDbLine
 10
255.7663263012
 20
869.3215318359
 30
0.0
 11
255.9443515118
 21
903.3215318359
 31
0.0
  0
ARC
  5
113
330
E3
100
AcDbEntity
  8
DV2_Default
 62
     7
100
AcDbCircle
 10
255.2663331551
 20
869.3241498178
 30
0.0
 40
0.500000000000056
100
AcDbArc
 50
270.0
 51
359.7
  0
ARC
  5
114
330
E3
100
AcDbEntity
  8
DV2_Default
 62
     7
100
AcDbCircle
 10
255.4443583656
 20
903.3241498178
 30
0.0
 40
0.4999999999999855
100
AcDbArc
 50
359.7000000001
 51
90.0
  0
ARC
  5
115
330
E3
100
AcDbEntity
  8
DV2_Default
 62
     7
100
AcDbCircle
 10
240.1637219912
 20
812.8736043097
 30
0.0
 40
99.99999999998522
100
AcDbArc
 50
83.9713858435
 51
96.0286141565
  0
ARC
  5
116
330
E3
100
AcDbEntity
  8
DV2_Default
 62
     7
100
AcDbCircle
 10
250.6137219912
 20
911.8233263912
 30
0.0
 40
0.5000000000000004
100
AcDbArc
 50
0.0
 51
83.9713858435
  0
ARC
  5
117
330
E3
100
AcDbEntity
  8
DV2_Default
 62
     7
100
AcDbCircle
 10
229.7137219912
 20
911.8233263912
 30
0.0
 40
0.4999999999999574
100
AcDbArc
 50
96.0286141565
 51
180.0
  0
LINE
  5
118
330
E3
100
AcDbEntity
  8
DV2_Default
 62
     7
100
AcDbLine
 10
251.1137219912
 20
909.5241498178
 30
0.0
 11
251.1137219912
 21
911.8233263912
 31
0.0
  0
LINE
  5
119
330
E3
100
AcDbEntity
  8
DV2_Default
 62
     7
100
AcDbLine
 10
229.2137219912
 20
911.8233263912
 30
0.0
 11
229.2137219912
 21
909.5241498178
 31
0.0
  0
ARC
  5
11A
330
E3
100
AcDbEntity
  8
DV2_Default
 62
     7
100
AcDbCircle
 10
250.9137219912
 20
909.5241498178
 30
0.0
 40
0.199999999999978
100
AcDbArc
 50
270.0
 51
0.0
  0
ARC
  5
11B
330
E3
100
AcDbEntity
  8
DV2_Default
 62
     7
100
AcDbCircle
 10
229.4137219912
 20
909.5241498178
 30
0.0
 40
0.1999999999999988
100
AcDbArc
 50
180.0
 51
270.0
  0
LINE
  5
11C
330
E3
100
AcDbEntity
  8
DV2_Default
 62
     7
100
AcDbLine
 10
189.6637219912
 20
864.5197978077
 30
0.0
 11
189.6637219912
 21
864.3198054231
 31
0.0
  0
LINE
  5
11D
330
E3
100
AcDbEntity
  8
DV2_Default
 62
     7
100
AcDbLine
 10
189.6637219912
 20
908.1285018279
 30
0.0
 11
189.6637219912
 21
864.5197978077
 31
0.0
  0
LINE
  5
11E
330
E3
100
AcDbEntity
  8
DV2_Default
 62
     7
100
AcDbLine
 10
189.6637219912
 20
908.3284942125
 30
0.0
 11
189.6637219912
 21
908.1285018279
 31
0.0
  0
LINE
  5
11F
330
E3
100
AcDbEntity
  8
DV2_Default
 62
     7
100
AcDbLine
 10
189.168085259
 20
863.8198244616
 30
0.0
 11
181.168085259
 21
863.7500095192
 31
0.0
  0
ARC
  5
120
330
E3
100
AcDbEntity
  8
DV2_Default
 62
     7
100
AcDbCircle
 10
189.1637219912
 20
864.3198054231
 30
0.0
 40
0.5000000000000571
100
AcDbArc
 50
270.5
 51
0.0
  0
ARC
  5
121
330
E3
100
AcDbEntity
  8
DV2_Default
 62
     7
100
AcDbCircle
 10
189.1637219912
 20
908.3284942125
 30
0.0
 40
0.5000000000000001
100
AcDbArc
 50
0.0
 51
89.5
  0
LINE
  5
122
330
E3
100
AcDbEntity
  8
DV2_Default
 62
     7
100
AcDbLine
 10
180.6637219912
 20
864.2499904808
 30
0.0
 11
180.6637219912
 21
864.4499828654
 31
0.0
  0
LINE
  5
123
330
E3
100
AcDbEntity
  8
DV2_Default
 62
     7
100
AcDbLine
 10
180.6637219912
 20
864.4499828654
 30
0.0
 11
180.6637219912
 21
908.1983167702
 31
0.0
  0
LINE
  5
124
330
E3
100
AcDbEntity
  8
DV2_Default
 62
     7
100
AcDbLine
 10
180.6637219912
 20
908.1983167702
 30
0.0
 11
180.6637219912
 21
908.3983091548
 31
0.0
  0
LINE
  5
125
330
E3
100
AcDbEntity
  8
DV2_Default
 62
     7
100
AcDbLine
 10
181.168085259
 20
908.8982901164
 30
0.0
 11
189.168085259
 21
908.828475174
 31
0.0
  0
ARC
  5
126
330
E3
100
AcDbEntity
  8
DV2_Default
 62
     7
100
AcDbCircle
 10
181.1637219912
 20
864.2499904808
 30
0.0
 40
0.5000000000000004
100
AcDbArc
 50
180.0
 51
270.5
  0
ARC
  5
127
330
E3
100
AcDbEntity
  8
DV2_Default
 62
     7
100
AcDbCircle
 10
181.1637219912
 20
908.3983091548
 30
0.0
 40
0.499999999999946
100
AcDbArc
 50
89.5
 51
180.0
  0
LINE
  5
128
330
E3
100
AcDbEntity
  8
DV2_Default
 62
     7
100
AcDbLine
 10
189.6637219912
 20
291.3284942125
 30
0.0
 11
189.6637219912
 21
291.1285018279
 31
0.0
  0
LINE
  5
129
330
E3
100
AcDbEntity
  8
DV2_Default
 62
     7
100
AcDbLine
 10
189.6637219912
 20
291.1285018279
 30
0.0
 11
189.6637219912
 21
247.5197978077
 31
0.0
  0
LINE
  5
12A
330
E3
100
AcDbEntity
  8
DV2_Default
 62
     7
100
AcDbLine
 10
189.6637219912
 20
247.5197978077
 30
0.0
 11
189.6637219912
 21
247.3198054231
 31
0.0
  0
LINE
  5
12B
330
E3
100
AcDbEntity
  8
DV2_Default
 62
     7
100
AcDbLine
 10
189.168085259
 20
246.8198244616
 30
0.0
 11
181.168085259
 21
246.7500095192
 31
0.0
  0
ARC
  5
12C
330
E3
100
AcDbEntity
  8
DV2_Default
 62
     7
100
AcDbCircle
 10
189.1637219912
 20
291.3284942125
 30
0.0
 40
0.500000000000005
100
AcDbArc
 50
0.0
 51
89.5
  0
ARC
  5
12D
330
E3
100
AcDbEntity
  8
DV2_Default
 62
     7
100
AcDbCircle
 10
189.1637219912
 20
247.3198054231
 30
0.0
 40
0.5000000000000001
100
AcDbArc
 50
270.5
 51
0.0
  0
LINE
  5
12E
330
E3
100
AcDbEntity
  8
DV2_Default
 62
     7
100
AcDbLine
 10
180.6637219912
 20
291.1983167702
 30
0.0
 11
180.6637219912
 21
291.3983091548
 31
0.0
  0
LINE
  5
12F
330
E3
100
AcDbEntity
  8
DV2_Default
 62
     7
100
AcDbLine
 10
180.6637219912
 20
247.4499828654
 30
0.0
 11
180.6637219912
 21
291.1983167702
 31
0.0
  0
LINE
  5
130
330
E3
100
AcDbEntity
  8
DV2_Default
 62
     7
100
AcDbLine
 10
180.6637219912
 20
247.2499904808
 30
0.0
 11
180.6637219912
 21
247.4499828654
 31
0.0
  0
LINE
  5
131
330
E3
100
AcDbEntity
  8
DV2_Default
 62
     7
100
AcDbLine
 10
181.168085259
 20
291.8982901164
 30
0.0
 11
189.168085259
 21
291.828475174
 31
0.0
  0
ARC
  5
132
330
E3
100
AcDbEntity
  8
DV2_Default
 62
     7
100
AcDbCircle
 10
181.1637219912
 20
291.3983091548
 30
0.0
 40
0.5000000000000004
100
AcDbArc
 50
89.5
 51
180.0
  0
ARC
  5
133
330
E3
100
AcDbEntity
  8
DV2_Default
 62
     7
100
AcDbCircle
 10
181.1637219912
 20
247.2499904808
 30
0.0
 40
0.500000000000005
100
AcDbArc
 50
180.0
 51
270.5
  0
LINE
  5
134
330
E3
100
AcDbEntity
  8
DV2_Default
 62
     7
100
AcDbLine
 10
243.0160692898
 20
572.2585615002
 30
0.0
 11
242.7892818388
 21
574.8507535671
 31
0.0
  0
LINE
  5
135
330
E3
100
AcDbEntity
  8
DV2_Default
 62
     7
100
AcDbLine
 10
237.5381621437
 20
574.8507535671
 30
0.0
 11
237.3113746926
 21
572.2585615002
 31
0.0
  0
ARC
  5
136
330
E3
100
AcDbEntity
  8
DV2_Default
 62
     7
100
AcDbCircle
 10
240.1637219912
 20
552.8241498178
 30
0.0
 40
22.99986828242976
100
AcDbArc
 50
85.7526422482
 51
94.2473577518
  0
ARC
  5
137
330
E3
100
AcDbEntity
  8
DV2_Default
 62
     7
100
AcDbCircle
 10
245.3073548394
 20
572.4590088145
 30
0.0
 40
2.300036650971059
100
AcDbArc
 50
184.9996477064
 51
255.3199194472
  0
ARC
  5
138
330
E3
100
AcDbEntity
  8
DV2_Default
 62
     7
100
AcDbCircle
 10
235.020095557
 20
572.459003402
 30
0.0
 40
2.30002978972489
100
AcDbArc
 50
284.6799601601
 51
355.0004726862
  0
ARC
  5
139
330
E3
100
AcDbEntity
  8
DV2_Default
 62
     7
100
AcDbCircle
 10
238.5343568426
 20
574.7635976942
 30
0.0
 40
1.000000012124066
100
AcDbArc
 50
94.2473644742
 51
174.9999925785
  0
ARC
  5
13A
330
E3
100
AcDbEntity
  8
DV2_Default
 62
     7
100
AcDbCircle
 10
241.7930871399
 20
574.7635976942
 30
0.0
 40
1.000000012124001
100
AcDbArc
 50
5.0000074215
 51
85.7526355258
  0
ARC
  5
13B
330
E3
100
AcDbEntity
  8
DV2_Default
 62
     7
100
AcDbCircle
 10
240.1637219912
 20
552.8241498178
 30
0.0
 40
17.99737512820367
100
AcDbArc
 50
104.6795244458
 51
0.0
  0
ARC
  5
13C
330
E3
100
AcDbEntity
  8
DV2_Default
 62
     7
100
AcDbCircle
 10
240.1637219912
 20
552.8241498178
 30
0.0
 40
17.99737512820369
100
AcDbArc
 50
0.0
 51
75.3204755542
  0
ARC
  5
13D
330
E3
100
AcDbEntity
  8
DV2_Default
 62
     7
100
AcDbCircle
 10
240.1637219912
 20
552.8241498178
 30
0.0
 40
18.0
100
AcDbArc
 50
104.1025125342
 51
0.0
  0
ARC
  5
13E
330
E3
100
AcDbEntity
  8
DV2_Default
 62
     7
100
AcDbCircle
 10
240.1637219912
 20
552.8241498178
 30
0.0
 40
18.0
100
AcDbArc
 50
0.0
 51
75.9263691368
  0
ARC
  5
13F
330
E3
100
AcDbEntity
  8
DV2_Default
 62
     7
100
AcDbCircle
 10
240.1637089935
 20
552.8260089969
 30
0.0
 40
18.00000000000001
100
AcDbArc
 50
140.733936504
 51
140.7353631217
  0
ARC
  5
140
330
E3
100
AcDbEntity
  8
DV2_Default
 62
     7
100
AcDbCircle
 10
240.1637089935
 20
552.8260089969
 30
0.0
 40
18.00000000000001
100
AcDbArc
 50
39.2648022836
 51
39.26524399
  0
ARC
  5
141
330
E3
100
AcDbEntity
  8
DV2_Default
 62
     7
100
AcDbCircle
 10
240.1637042173
 20
552.8227395143
 30
0.0
 40
17.99999999999997
100
AcDbArc
 50
314.7336010248
 51
314.7358829846
  0
LINE
  5
142
330
E3
100
AcDbEntity
  8
DV2_Default
 62
     7
100
AcDbLine
 10
200.6637215442
 20
886.3241498178
 30
0.0
 11
160.6637224383
 21
886.3241498178
 31
0.0
  0
LINE
  5
143
330
E3
100
AcDbEntity
  8
DV2_Default
 62
     7
100
AcDbLine
 10
180.6637219912
 20
906.3241493708
 30
0.0
 11
180.6637219912
 21
866.3241502648
 31
0.0
  0
LINE
  5
144
330
E3
100
AcDbEntity
  8
DV2_Default
 62
     7
100
AcDbLine
 10
200.6637215442
 20
269.3241498178
 30
0.0
 11
160.6637224383
 21
269.3241498178
 31
0.0
  0
LINE
  5
145
330
E3
100
AcDbEntity
  8
DV2_Default
 62
     7
100
AcDbLine
 10
180.6637219912
 20
289.3241493708
 30
0.0
 11
180.6637219912
 21
249.3241502648
 31
0.0
  0
ENDBLK
  5
147
330
E3
100
AcDbEntity
  8
0
100
AcDbBlockEnd
  0
BLOCK
  5
2C7
330
148
100
AcDbEntity
  8
0
100
AcDbBlockBegin
  2
SE2
 70
     0
 10
0.0
 20
0.0
 30
0.0
  3
SE2
  1

  0
ARC
  5
14B
330
148
100
AcDbEntity
  8
DV3_Default
 62
     7
100
AcDbCircle
 10
43.0637685093
 20
128.4798932307
 30
0.0
 40
0.9999999999999961
100
AcDbArc
 50
353.2761184323
 51
3.9861343327
  0
ARC
  5
14C
330
148
100
AcDbEntity
  8
DV3_Default
 62
     7
100
AcDbCircle
 10
43.0637685093
 20
128.4798932307
 30
0.0
 40
0.9345484915693134
100
AcDbArc
 50
354.065632854
 51
1.9315005084
  0
ARC
  5
14D
330
148
100
AcDbEntity
  8
DV3_Default
 62
     7
100
AcDbCircle
 10
45.1605702546
 20
132.111660387
 30
0.0
 40
0.9999999999999972
100
AcDbArc
 50
286.9531178687
 51
353.0468821313
  0
ARC
  5
14E
330
148
100
AcDbEntity
  8
DV3_Default
 62
     7
100
AcDbCircle
 10
45.1605702546
 20
132.111660387
 30
0.0
 40
0.9345484915693143
100
AcDbArc
 50
293.039568519
 51
346.960431481
  0
ARC
  5
14F
330
148
100
AcDbEntity
  8
DV3_Default
 62
     7
100
AcDbCircle
 10
45.1605702546
 20
116.588339613
 30
0.0
 40
0.9999999999999991
100
AcDbArc
 50
6.9531178687
 51
73.0468821313
  0
ARC
  5
150
330
148
100
AcDbEntity
  8
DV3_Default
 62
     7
100
AcDbCircle
 10
45.1605702546
 20
116.588339613
 30
0.0
 40
0.934548491569311
100
AcDbArc
 50
13.039568519
 51
66.960431481
  0
ARC
  5
151
330
148
100
AcDbEntity
  8
DV3_Default
 62
     7
100
AcDbCircle
 10
43.0637685093
 20
120.2201067693
 30
0.0
 40
1.000000000000001
100
AcDbArc
 50
356.0138656673
 51
6.8538472358
  0
ARC
  5
152
330
148
100
AcDbEntity
  8
DV3_Default
 62
     7
100
AcDbCircle
 10
43.0637685093
 20
120.2201067693
 30
0.0
 40
0.9345484915693173
100
AcDbArc
 50
358.0684995133
 51
5.9303187069
  0
SPLINE
  5
153
330
148
100
AcDbEntity
  8
DV3_Default
 62
     7
100
AcDbSpline
210
0.0
220
0.0
230
1.0
 70
     8
 71
     3
 72
     8
 73
     4
 74
     0
 42
0.000000001
 43
0.0000000001
 40
0.0
 40
0.0
 40
0.0
 40
0.0
 40
1.0
 40
1.0
 40
1.0
 40
1.0
 10
49.01902711036585
 20
114.7366645190242
 30
0.0
 10
49.01936103016816
 20
114.7507370583336
 30
0.0
 10
49.01969554385171
 20
114.7648095834986
 30
0.0
 10
49.02003065863168
 20
114.7788820942764
 30
0.0
  0
SPLINE
  5
154
330
148
100
AcDbEntity
  8
DV3_Default
 62
     7
100
AcDbSpline
210
0.0
220
0.0
230
1.0
 70
     8
 71
     3
 72
     8
 73
     4
 74
     0
 42
0.000000001
 43
0.0000000001
 40
0.0
 40
0.0
 40
0.0
 40
0.0
 40
1.0
 40
1.0
 40
1.0
 40
1.0
 10
59.80137587137752
 20
114.7666231923084
 30
0.0
 10
59.80172142925903
 20
114.7520954576026
 30
0.0
 10
59.80206634567541
 20
114.7375677076816
 30
0.0
 10
59.80241062968108
 20
114.7230399428562
 30
0.0
  0
LINE
  5
155
330
148
100
AcDbEntity
  8
DV3_Default
 62
     7
100
AcDbLine
 10
52.3605569053
 20
135.1572892068
 30
0.0
 11
52.3605569053
 21
135.2081766425
 31
0.0
  0
LINE
  5
156
330
148
100
AcDbEntity
  8
DV3_Default
 62
     7
100
AcDbLine
 10
56.4605569053
 20
135.1572892068
 30
0.0
 11
56.4605569053
 21
135.2081766425
 31
0.0
  0
ARC
  5
157
330
148
100
AcDbEntity
  8
DV3_Default
 62
     7
100
AcDbCircle
 10
55.6932726391
 20
113.8204025548
 30
0.0
 40
0.6934779721750288
100
AcDbArc
 50
330.1983649275
 51
336.3480121211
  0
CIRCLE
  5
158
330
148
100
AcDbEntity
  8
DV3_Default
 62
     7
100
AcDbCircle
 10
54.4105569053
 20
124.35
 30
0.0
 40
11.0
  0
ARC
  5
159
330
148
100
AcDbEntity
  8
DV3_Default
 62
     7
100
AcDbCircle
 10
58.5470845854
 20
113.0018038234
 30
0.0
 40
0.9558948961169457
100
AcDbArc
 50
67.469795834
 51
153.234788907
  0
ARC
  5
15A
330
148
100
AcDbEntity
  8
DV3_Default
 62
     7
100
AcDbCircle
 10
54.4124094951
 20
124.1623181092
 30
0.0
 40
11.22051781981985
100
AcDbArc
 50
273.2925567427
 51
287.003382205
  0
ARC
  5
15B
330
148
100
AcDbEntity
  8
DV3_Default
 62
     7
100
AcDbCircle
 10
54.4105569053
 20
112.2741555894
 30
0.0
 40
0.9426147031744446
100
AcDbArc
 50
46.7139397616
 51
133.2860602384
  0
ARC
  5
15C
330
148
100
AcDbEntity
  8
DV3_Default
 62
     7
100
AcDbCircle
 10
54.4087090382
 20
124.1623444949
 30
0.0
 40
11.22054443326083
100
AcDbArc
 50
252.996634133
 51
266.7074269192
  0
ARC
  5
15D
330
148
100
AcDbEntity
  8
DV3_Default
 62
     7
100
AcDbCircle
 10
50.2740086468
 20
113.0017483485
 30
0.0
 40
0.9559382528169541
100
AcDbArc
 50
26.7676243882
 51
112.5277908708
  0
ARC
  5
15E
330
148
100
AcDbEntity
  8
DV3_Default
 62
     7
100
AcDbCircle
 10
53.8970507104
 20
123.0923705452
 30
0.0
 40
10.03468306468749
100
AcDbArc
 50
232.3767564959
 51
246.5748696586
  0
ARC
  5
15F
330
148
100
AcDbEntity
  8
DV3_Default
 62
     7
100
AcDbCircle
 10
54.412831996
 20
124.5487203709
 30
0.0
 40
11.20598652726766
100
AcDbArc
 50
72.9904996344
 51
86.6986785285
  0
ARC
  5
160
330
148
100
AcDbEntity
  8
DV3_Default
 62
     7
100
AcDbCircle
 10
58.547793416
 20
135.6988181906
 30
0.0
 40
0.960649424778268
100
AcDbArc
 50
206.8780568169
 51
292.365776556
  0
ARC
  5
161
330
148
100
AcDbEntity
  8
DV3_Default
 62
     7
100
AcDbCircle
 10
55.109571459
 20
126.0050243412
 30
0.0
 40
9.591866195653022
100
AcDbArc
 50
54.1691981213
 51
66.6365933101
  0
ARC
  5
162
330
148
100
AcDbEntity
  8
DV3_Default
 62
     7
100
AcDbCircle
 10
50.2733202822
 20
135.6988184929
 30
0.0
 40
0.9606496616527815
100
AcDbArc
 50
247.6342365008
 51
333.1219301263
  0
ARC
  5
163
330
148
100
AcDbEntity
  8
DV3_Default
 62
     7
100
AcDbCircle
 10
54.408540591
 20
124.5472757018
 30
0.0
 40
11.20744370249624
100
AcDbArc
 50
93.3022169047
 51
107.0086049325
  0
ARC
  5
164
330
148
100
AcDbEntity
  8
DV3_Default
 62
     7
100
AcDbCircle
 10
54.4105569053
 20
136.4262038919
 30
0.0
 40
0.9463656997682544
100
AcDbArc
 50
226.8196864361
 51
313.1803135639
  0
LINE
  5
165
330
148
100
AcDbEntity
  8
DV3_Default
 62
     7
100
AcDbLine
 10
63.5442449294
 20
151.7413795867
 30
0.0
 11
63.440390312
 21
151.7422859122
 31
0.0
  0
LINE
  5
166
330
148
100
AcDbEntity
  8
DV3_Default
 62
     7
100
AcDbLine
 10
63.5442449294
 20
143.7786204133
 30
0.0
 11
63.440390312
 21
143.7777140878
 31
0.0
  0
ARC
  5
167
330
148
100
AcDbEntity
  8
DV3_Default
 62
     7
100
AcDbCircle
 10
64.867813656
 20
130.3875
 30
0.0
 40
0.9999999999999986
100
AcDbArc
 50
168.1284322295
 51
251.8715677705
  0
ARC
  5
168
330
148
100
AcDbEntity
  8
DV3_Default
 62
     7
100
AcDbCircle
 10
54.4105569053
 20
124.35
 30
0.0
 40
11.35
100
AcDbArc
 50
193.3713565294
 51
206.6286434706
  0
ARC
  5
169
330
148
100
AcDbEntity
  8
DV3_Default
 62
     7
100
AcDbCircle
 10
54.4105569053
 20
124.35
 30
0.0
 40
11.35000000000001
100
AcDbArc
 50
213.3713565294
 51
226.6286434706
  0
ARC
  5
16A
330
148
100
AcDbEntity
  8
DV3_Default
 62
     7
100
AcDbCircle
 10
54.4105569053
 20
124.35
 30
0.0
 40
11.35
100
AcDbArc
 50
233.3713565294
 51
234.1995350823
  0
ARC
  5
16B
330
148
100
AcDbEntity
  8
DV3_Default
 62
     7
100
AcDbCircle
 10
54.976681941
 20
123.0031276485
 30
0.0
 40
9.931885148823396
100
AcDbArc
 50
293.3512687566
 51
307.6971050889
  0
ARC
  5
16C
330
148
100
AcDbEntity
  8
DV3_Default
 62
     7
100
AcDbCircle
 10
54.4105569053
 20
124.35
 30
0.0
 40
11.35
100
AcDbArc
 50
305.8004649177
 51
306.6286434706
  0
ARC
  5
16D
330
148
100
AcDbEntity
  8
DV3_Default
 62
     7
100
AcDbCircle
 10
54.4105569053
 20
124.35
 30
0.0
 40
11.34999999999999
100
AcDbArc
 50
313.3713565294
 51
326.6286434706
  0
ARC
  5
16E
330
148
100
AcDbEntity
  8
DV3_Default
 62
     7
100
AcDbCircle
 10
54.4105569053
 20
124.35
 30
0.0
 40
11.35000000000001
100
AcDbArc
 50
333.3713565294
 51
346.6286434706
  0
ARC
  5
16F
330
148
100
AcDbEntity
  8
DV3_Default
 62
     7
100
AcDbCircle
 10
54.4105569053
 20
124.35
 30
0.0
 40
11.35000000000001
100
AcDbArc
 50
353.3713565294
 51
6.6286434706
  0
ARC
  5
170
330
148
100
AcDbEntity
  8
DV3_Default
 62
     7
100
AcDbCircle
 10
54.4105569053
 20
124.35
 30
0.0
 40
11.35000000000001
100
AcDbArc
 50
13.3713565294
 51
26.6286434706
  0
ARC
  5
171
330
148
100
AcDbEntity
  8
DV3_Default
 62
     7
100
AcDbCircle
 10
54.4105569053
 20
124.35
 30
0.0
 40
11.35
100
AcDbArc
 50
33.3713565294
 51
46.6286434706
  0
ARC
  5
172
330
148
100
AcDbEntity
  8
DV3_Default
 62
     7
100
AcDbCircle
 10
54.4105569053
 20
124.35
 30
0.0
 40
11.35000000000001
100
AcDbArc
 50
53.3713565294
 51
56.1995350823
  0
ARC
  5
173
330
148
100
AcDbEntity
  8
DV3_Default
 62
     7
100
AcDbCircle
 10
53.676009405
 20
126.0675810001
 30
0.0
 40
9.520350877603766
100
AcDbArc
 50
113.3163924186
 51
125.87781615
  0
ARC
  5
174
330
148
100
AcDbEntity
  8
DV3_Default
 62
     7
100
AcDbCircle
 10
54.4105569053
 20
124.35
 30
0.0
 40
11.35
100
AcDbArc
 50
123.8004649177
 51
126.6286434706
  0
ARC
  5
175
330
148
100
AcDbEntity
  8
DV3_Default
 62
     7
100
AcDbCircle
 10
54.4105569053
 20
124.35
 30
0.0
 40
11.35
100
AcDbArc
 50
133.3713565294
 51
146.6286434706
  0
ARC
  5
176
330
148
100
AcDbEntity
  8
DV3_Default
 62
     7
100
AcDbCircle
 10
54.4105569053
 20
124.35
 30
0.0
 40
11.35
100
AcDbArc
 50
153.3713565294
 51
166.6286434706
  0
ARC
  5
177
330
148
100
AcDbEntity
  8
DV3_Default
 62
     7
100
AcDbCircle
 10
54.4105569053
 20
124.35
 30
0.0
 40
11.35000000000001
100
AcDbArc
 50
173.3713565294
 51
186.6286434706
  0
ARC
  5
178
330
148
100
AcDbEntity
  8
DV3_Default
 62
     7
100
AcDbCircle
 10
62.1722172922
 20
133.5999866507
 30
0.0
 40
0.9999999999999987
100
AcDbArc
 50
188.1284322295
 51
271.8715677705
  0
ARC
  5
179
330
148
100
AcDbEntity
  8
DV3_Default
 62
     7
100
AcDbCircle
 10
66.3021105229
 20
126.4468017453
 30
0.0
 40
1.000000000000001
100
AcDbArc
 50
148.1284322295
 51
231.8715677705
  0
ARC
  5
17A
330
148
100
AcDbEntity
  8
DV3_Default
 62
     7
100
AcDbCircle
 10
66.3021105229
 20
122.2531982547
 30
0.0
 40
1.0
100
AcDbArc
 50
128.1284322295
 51
211.8715677705
  0
ARC
  5
17B
330
148
100
AcDbEntity
  8
DV3_Default
 62
     7
100
AcDbCircle
 10
64.867813656
 20
118.3125
 30
0.0
 40
1.000000000000001
100
AcDbArc
 50
108.1284322295
 51
191.8715677705
  0
ARC
  5
17C
330
148
100
AcDbEntity
  8
DV3_Default
 62
     7
100
AcDbCircle
 10
62.1722172922
 20
115.1000133493
 30
0.0
 40
0.9999999999999996
100
AcDbArc
 50
88.1284322295
 51
171.8715677705
  0
ARC
  5
17D
330
148
100
AcDbEntity
  8
DV3_Default
 62
     7
100
AcDbCircle
 10
46.6488965183
 20
115.1000133493
 30
0.0
 40
0.9999999999999987
100
AcDbArc
 50
8.1284322295
 51
91.8715677705
  0
ARC
  5
17E
330
148
100
AcDbEntity
  8
DV3_Default
 62
     7
100
AcDbCircle
 10
46.6488965183
 20
133.5999866507
 30
0.0
 40
0.9999999999999996
100
AcDbArc
 50
268.1284322295
 51
351.8715677705
  0
ARC
  5
17F
330
148
100
AcDbEntity
  8
DV3_Default
 62
     7
100
AcDbCircle
 10
43.9533001546
 20
130.3875
 30
0.0
 40
0.9999999999999991
100
AcDbArc
 50
288.1284322295
 51
11.8715677705
  0
ARC
  5
180
330
148
100
AcDbEntity
  8
DV3_Default
 62
     7
100
AcDbCircle
 10
42.5190032877
 20
126.4468017453
 30
0.0
 40
0.9999999999999986
100
AcDbArc
 50
308.1284322295
 51
31.8715677705
  0
ARC
  5
181
330
148
100
AcDbEntity
  8
DV3_Default
 62
     7
100
AcDbCircle
 10
42.5190032877
 20
122.2531982547
 30
0.0
 40
1.000000000000002
100
AcDbArc
 50
328.1284322295
 51
51.8715677705
  0
ARC
  5
182
330
148
100
AcDbEntity
  8
DV3_Default
 62
     7
100
AcDbCircle
 10
43.9533001546
 20
118.3125
 30
0.0
 40
0.9999999999999986
100
AcDbArc
 50
348.1284322295
 51
71.8715677705
  0
LINE
  5
183
330
148
100
AcDbEntity
  8
DV3_Default
 62
     7
100
AcDbLine
 10
45.3807234985
 20
143.7777140878
 30
0.0
 11
45.2768688811
 21
143.7786204133
 31
0.0
  0
LINE
  5
184
330
148
100
AcDbEntity
  8
DV3_Default
 62
     7
100
AcDbLine
 10
45.3807234985
 20
151.7422859122
 30
0.0
 11
45.2768688811
 21
151.7413795867
 31
0.0
  0
LINE
  5
185
330
148
100
AcDbEntity
  8
DV3_Default
 62
     7
100
AcDbLine
 10
45.3807234985
 20
136.1844039348
 30
0.0
 11
45.3807234985
 21
174.65
 31
0.0
  0
ARC
  5
186
330
148
100
AcDbEntity
  8
DV3_Default
 62
     7
100
AcDbCircle
 10
39.3809315511
 20
136.184395967
 30
0.0
 40
5.999791947431873
100
AcDbArc
 50
321.7828900438
 51
0.0
  0
ARC
  5
187
330
148
100
AcDbEntity
  8
DV3_Default
 62
     7
100
AcDbCircle
 10
69.4401822595
 20
136.184395967
 30
0.0
 40
5.999791947424573
100
AcDbArc
 50
179.9999239109
 51
218.2171099562
  0
LINE
  5
188
330
148
100
AcDbEntity
  8
DV3_Default
 62
     7
100
AcDbLine
 10
63.440390312
 20
174.65
 30
0.0
 11
63.440390312
 21
136.1844039348
 31
0.0
  0
ARC
  5
189
330
148
100
AcDbEntity
  8
DV3_Default
 62
     7
100
AcDbCircle
 10
45.5807173301
 20
174.65
 30
0.0
 40
0.1999999999999988
100
AcDbArc
 50
90.0
 51
180.0
  0
ARC
  5
18A
330
148
100
AcDbEntity
  8
DV3_Default
 62
     7
100
AcDbCircle
 10
63.2403964805
 20
174.65
 30
0.0
 40
0.1999999999999988
100
AcDbArc
 50
0.0
 51
90.0
  0
ARC
  5
18B
330
148
100
AcDbEntity
  8
DV3_Default
 62
     7
100
AcDbCircle
 10
54.4105569053
 20
124.35
 30
0.0
 40
11.45472241348911
100
AcDbArc
 50
88.4510202599
 51
91.5489797401
  0
ARC
  5
18C
330
148
100
AcDbEntity
  8
DV3_Default
 62
     7
100
AcDbCircle
 10
51.0676000753
 20
134.28513483
 30
0.0
 40
4.246155054291876
100
AcDbArc
 50
19.9814061426
 51
20.6949682756
  0
ARC
  5
18D
330
148
100
AcDbEntity
  8
DV3_Default
 62
     7
100
AcDbCircle
 10
57.7535137353
 20
134.28513483
 30
0.0
 40
4.246155054290019
100
AcDbArc
 50
159.3050317244
 51
160.0185938574
  0
ARC
  5
18E
330
148
100
AcDbEntity
  8
DV3_Default
 62
     7
100
AcDbCircle
 10
54.5911714962
 20
129.5742858482
 30
0.0
 40
6.227587512380688
100
AcDbArc
 50
85.8691529272
 51
88.8128554041
  0
ARC
  5
18F
330
148
100
AcDbEntity
  8
DV3_Default
 62
     7
100
AcDbCircle
 10
54.22989959
 20
129.5752058077
 30
0.0
 40
6.226666865213016
100
AcDbArc
 50
91.1869269266
 51
94.1310647421
  0
ARC
  5
190
330
148
100
AcDbEntity
  8
DV3_Default
 62
     7
100
AcDbCircle
 10
54.4105569053
 20
124.35
 30
0.0
 40
11.45472241348911
100
AcDbArc
 50
48.4510202599
 51
51.5489797401
  0
ARC
  5
191
330
148
100
AcDbEntity
  8
DV3_Default
 62
     7
100
AcDbCircle
 10
58.0269978995
 20
134.1844442007
 30
0.0
 40
4.468051607752083
100
AcDbArc
 50
339.2371990788
 51
340.6743175222
  0
ARC
  5
192
330
148
100
AcDbEntity
  8
DV3_Default
 62
     7
100
AcDbCircle
 10
63.4676054124
 20
129.6192324431
 30
0.0
 40
4.468051607865704
100
AcDbArc
 50
119.3256824778
 51
120.7628009212
  0
ARC
  5
193
330
148
100
AcDbEntity
  8
DV3_Default
 62
     7
100
AcDbCircle
 10
57.9070219217
 20
128.2359383221
 30
0.0
 40
6.227587512398036
100
AcDbArc
 50
45.8691529272
 51
48.8128554041
  0
ARC
  5
194
330
148
100
AcDbEntity
  8
DV3_Default
 62
     7
100
AcDbCircle
 10
57.6308629241
 20
128.468864157
 30
0.0
 40
6.22666686521652
100
AcDbArc
 50
51.1869269266
 51
54.1310647421
  0
ARC
  5
195
330
148
100
AcDbEntity
  8
DV3_Default
 62
     7
100
AcDbCircle
 10
54.4105569053
 20
124.35
 30
0.0
 40
11.45472241348911
100
AcDbArc
 50
68.4510202599
 51
71.5489797401
  0
ARC
  5
196
330
148
100
AcDbEntity
  8
DV3_Default
 62
     7
100
AcDbCircle
 10
54.6337396807
 20
134.8289846061
 30
0.0
 40
4.279638397111594
100
AcDbArc
 50
359.7516581529
 51
0.6941746919
  0
ARC
  5
197
330
148
100
AcDbEntity
  8
DV3_Default
 62
     7
100
AcDbCircle
 10
60.9620896697
 20
132.5321903164
 30
0.0
 40
4.262174975225191
100
AcDbArc
 50
139.3054129658
 51
140.128831199
  0
ARC
  5
198
330
148
100
AcDbEntity
  8
DV3_Default
 62
     7
100
AcDbCircle
 10
56.3670900981
 20
129.1974490322
 30
0.0
 40
6.227587512387099
100
AcDbArc
 50
65.8691529272
 51
68.8128554041
  0
ARC
  5
199
330
148
100
AcDbEntity
  8
DV3_Default
 62
     7
100
AcDbCircle
 10
56.0279201985
 20
129.3218757805
 30
0.0
 40
6.226666865216755
100
AcDbArc
 50
71.1869269266
 51
74.1310647421
  0
ARC
  5
19A
330
148
100
AcDbEntity
  8
DV3_Default
 62
     7
100
AcDbCircle
 10
54.4105569053
 20
124.35
 30
0.0
 40
11.4547224134891
100
AcDbArc
 50
28.4510202599
 51
31.5489797401
  0
ARC
  5
19B
330
148
100
AcDbEntity
  8
DV3_Default
 62
     7
100
AcDbCircle
 10
61.1724778361
 20
132.3544589777
 30
0.0
 40
4.468051607748817
100
AcDbArc
 50
319.2371990788
 51
320.6743175222
  0
ARC
  5
19C
330
148
100
AcDbEntity
  8
DV3_Default
 62
     7
100
AcDbCircle
 10
64.7235821889
 20
126.2037658156
 30
0.0
 40
4.46805160775592
100
AcDbArc
 50
99.3256824778
 51
100.7628009212
  0
ARC
  5
19D
330
148
100
AcDbEntity
  8
DV3_Default
 62
     7
100
AcDbCircle
 10
59.0252284619
 20
126.8057261001
 30
0.0
 40
6.227587512376245
100
AcDbArc
 50
25.8691529272
 51
28.8128554041
  0
ARC
  5
19E
330
148
100
AcDbEntity
  8
DV3_Default
 62
     7
100
AcDbCircle
 10
58.8453892171
 20
127.1190567283
 30
0.0
 40
6.226666865202009
100
AcDbArc
 50
31.1869269266
 51
34.1310647421
  0
ARC
  5
19F
330
148
100
AcDbEntity
  8
DV3_Default
 62
     7
100
AcDbCircle
 10
54.4105569053
 20
124.35
 30
0.0
 40
11.4547224134891
100
AcDbArc
 50
8.4510202599
 51
11.5489797401
  0
ARC
  5
1A0
330
148
100
AcDbEntity
  8
DV3_Default
 62
     7
100
AcDbCircle
 10
63.5023703131
 20
129.5590178688
 30
0.0
 40
4.468051607775741
100
AcDbArc
 50
299.2371990788
 51
300.6743175222
  0
ARC
  5
1A1
330
148
100
AcDbEntity
  8
DV3_Default
 62
     7
100
AcDbCircle
 10
64.7356559122
 20
122.5647076718
 30
0.0
 40
4.468051607912594
100
AcDbArc
 50
79.3256824778
 51
80.7628009212
  0
ARC
  5
1A2
330
148
100
AcDbEntity
  8
DV3_Default
 62
     7
100
AcDbCircle
 10
59.5868375071
 20
125.0793170677
 30
0.0
 40
6.227587512368961
100
AcDbArc
 50
5.8691529272
 51
8.8128554041
  0
ARC
  5
1A3
330
148
100
AcDbEntity
  8
DV3_Default
 62
     7
100
AcDbCircle
 10
59.5250092822
 20
125.4352601912
 30
0.0
 40
6.226666865218456
100
AcDbArc
 50
11.1869269266
 51
14.1310647421
  0
ARC
  5
1A4
330
148
100
AcDbEntity
  8
DV3_Default
 62
     7
100
AcDbCircle
 10
54.4105569053
 20
124.35
 30
0.0
 40
11.4547224134891
100
AcDbArc
 50
348.4510202599
 51
351.5489797401
  0
ARC
  5
1A5
330
148
100
AcDbEntity
  8
DV3_Default
 62
     7
100
AcDbCircle
 10
64.7356559123
 20
126.1352923281
 30
0.0
 40
4.468051607786774
100
AcDbArc
 50
279.2371990788
 51
280.6743175222
  0
ARC
  5
1A6
330
148
100
AcDbEntity
  8
DV3_Default
 62
     7
100
AcDbCircle
 10
63.5023703131
 20
119.1409821312
 30
0.0
 40
4.468051607775741
100
AcDbArc
 50
59.3256824778
 51
60.7628009212
  0
ARC
  5
1A7
330
148
100
AcDbEntity
  8
DV3_Default
 62
     7
100
AcDbCircle
 10
59.524110718
 20
123.2649416334
 30
0.0
 40
6.227587512376142
100
AcDbArc
 50
345.8691529272
 51
348.8128554041
  0
ARC
  5
1A8
330
148
100
AcDbEntity
  8
DV3_Default
 62
     7
100
AcDbCircle
 10
59.5877509094
 20
123.6205652583
 30
0.0
 40
6.226666865202529
100
AcDbArc
 50
351.1869269266
 51
354.1310647421
  0
ARC
  5
1A9
330
148
100
AcDbEntity
  8
DV3_Default
 62
     7
100
AcDbCircle
 10
54.4105569053
 20
124.35
 30
0.0
 40
11.4547224134891
100
AcDbArc
 50
328.4510202599
 51
331.5489797401
  0
ARC
  5
1AA
330
148
100
AcDbEntity
  8
DV3_Default
 62
     7
100
AcDbCircle
 10
64.7235821889
 20
122.4962341844
 30
0.0
 40
4.468051607770166
100
AcDbArc
 50
259.2371990788
 51
260.6743175222
  0
ARC
  5
1AB
330
148
100
AcDbEntity
  8
DV3_Default
 62
     7
100
AcDbCircle
 10
61.1724778361
 20
116.3455410223
 30
0.0
 40
4.468051607800272
100
AcDbArc
 50
39.3256824778
 51
40.7628009212
  0
ARC
  5
1AC
330
148
100
AcDbEntity
  8
DV3_Default
 62
     7
100
AcDbCircle
 10
58.844613871
 20
121.5814402519
 30
0.0
 40
6.227587512387458
100
AcDbArc
 50
325.8691529272
 51
328.8128554041
  0
ARC
  5
1AD
330
148
100
AcDbEntity
  8
DV3_Default
 62
     7
100
AcDbCircle
 10
59.0260465324
 20
121.8938509205
 30
0.0
 40
6.226666865211456
100
AcDbArc
 50
331.1869269266
 51
334.1310647421
  0
ARC
  5
1AE
330
148
100
AcDbEntity
  8
DV3_Default
 62
     7
100
AcDbCircle
 10
54.4105569053
 20
124.35
 30
0.0
 40
11.4547224134891
100
AcDbArc
 50
308.4510202599
 51
311.5489797401
  0
ARC
  5
1AF
330
148
100
AcDbEntity
  8
DV3_Default
 62
     7
100
AcDbCircle
 10
63.4676054123
 20
119.0807675567
 30
0.0
 40
4.468051607682264
100
AcDbArc
 50
239.2371990788
 51
240.6743175222
  0
ARC
  5
1B0
330
148
100
AcDbEntity
  8
DV3_Default
 62
     7
100
AcDbCircle
 10
58.0269978996
 20
114.5155557994
 30
0.0
 40
4.468051607632099
100
AcDbArc
 50
19.3256824778
 51
20.7628009212
  0
ARC
  5
1B1
330
148
100
AcDbEntity
  8
DV3_Default
 62
     7
100
AcDbCircle
 10
57.6303043143
 20
120.2318680356
 30
0.0
 40
6.227587512382268
100
AcDbArc
 50
305.8691529272
 51
308.8128554041
  0
ARC
  5
1B2
330
148
100
AcDbEntity
  8
DV3_Default
 62
     7
100
AcDbCircle
 10
57.907645989
 20
120.4633844107
 30
0.0
 40
6.226666865206879
100
AcDbArc
 50
311.1869269266
 51
314.1310647421
  0
ARC
  5
1B3
330
148
100
AcDbEntity
  8
DV3_Default
 62
     7
100
AcDbCircle
 10
54.4105569053
 20
124.35
 30
0.0
 40
11.45472241348911
100
AcDbArc
 50
288.4510202599
 51
291.5489797401
  0
ARC
  5
1B4
330
148
100
AcDbEntity
  8
DV3_Default
 62
     7
100
AcDbCircle
 10
60.9560169152
 20
116.1626058915
 30
0.0
 40
4.254177625614244
100
AcDbArc
 50
219.9261277735
 51
220.6947769959
  0
ARC
  5
1B5
330
148
100
AcDbEntity
  8
DV3_Default
 62
     7
100
AcDbCircle
 10
54.642941035
 20
113.870920072
 30
0.0
 40
4.270436563386276
100
AcDbArc
 50
359.3056084569
 51
0.1854549105
  0
ARC
  5
1B6
330
148
100
AcDbEntity
  8
DV3_Default
 62
     7
100
AcDbCircle
 10
56.0276457016
 20
119.3790033113
 30
0.0
 40
6.227587512382494
100
AcDbArc
 50
285.8691529272
 51
288.8128554041
  0
ARC
  5
1B7
330
148
100
AcDbEntity
  8
DV3_Default
 62
     7
100
AcDbCircle
 10
56.3674448906
 20
119.5017011013
 30
0.0
 40
6.226666865203948
100
AcDbArc
 50
291.1869269266
 51
294.1310647421
  0
ARC
  5
1B8
330
148
100
AcDbEntity
  8
DV3_Default
 62
     7
100
AcDbCircle
 10
54.4105569053
 20
124.35
 30
0.0
 40
11.45472241348911
100
AcDbArc
 50
268.4510202599
 51
271.5489797401
  0
ARC
  5
1B9
330
148
100
AcDbEntity
  8
DV3_Default
 62
     7
100
AcDbCircle
 10
57.7467017775
 20
114.4123056002
 30
0.0
 40
4.238878104415254
100
AcDbArc
 50
200.031673635
 51
200.695142404
  0
ARC
  5
1BA
330
148
100
AcDbEntity
  8
DV3_Default
 62
     7
100
AcDbCircle
 10
51.0744120332
 20
114.4123056002
 30
0.0
 40
4.238878104220071
100
AcDbArc
 50
339.304857596
 51
339.968326365
  0
ARC
  5
1BB
330
148
100
AcDbEntity
  8
DV3_Default
 62
     7
100
AcDbCircle
 10
54.2299423144
 20
119.1257141518
 30
0.0
 40
6.227587512403233
100
AcDbArc
 50
265.8691529272
 51
268.8128554041
  0
ARC
  5
1BC
330
148
100
AcDbEntity
  8
DV3_Default
 62
     7
100
AcDbCircle
 10
54.5912142205
 20
119.1247941923
 30
0.0
 40
6.226666865214567
100
AcDbArc
 50
271.1869269266
 51
274.1310647421
  0
ARC
  5
1BD
330
148
100
AcDbEntity
  8
DV3_Default
 62
     7
100
AcDbCircle
 10
54.4105569053
 20
124.35
 30
0.0
 40
11.45472241348911
100
AcDbArc
 50
248.4510202599
 51
251.5489797401
  0
ARC
  5
1BE
330
148
100
AcDbEntity
  8
DV3_Default
 62
     7
100
AcDbCircle
 10
54.1781727756
 20
113.870920072
 30
0.0
 40
4.270436563398682
100
AcDbArc
 50
179.8145450895
 51
180.6943915431
  0
ARC
  5
1BF
330
148
100
AcDbEntity
  8
DV3_Default
 62
     7
100
AcDbCircle
 10
47.8650968956
 20
116.1626058913
 30
0.0
 40
4.254177625346177
100
AcDbArc
 50
319.3052230041
 51
320.0738722265
  0
ARC
  5
1C0
330
148
100
AcDbEntity
  8
DV3_Default
 62
     7
100
AcDbCircle
 10
52.4540237124
 20
119.5025509678
 30
0.0
 40
6.227587512375995
100
AcDbArc
 50
245.8691529272
 51
248.8128554041
  0
ARC
  5
1C1
330
148
100
AcDbEntity
  8
DV3_Default
 62
     7
100
AcDbCircle
 10
52.7931936121
 20
119.3781242195
 30
0.0
 40
6.226666865207698
100
AcDbArc
 50
251.1869269266
 51
254.1310647421
  0
ARC
  5
1C2
330
148
100
AcDbEntity
  8
DV3_Default
 62
     7
100
AcDbCircle
 10
54.4105569053
 20
124.35
 30
0.0
 40
11.45472241348911
100
AcDbArc
 50
228.4510202599
 51
231.5489797401
  0
ARC
  5
1C3
330
148
100
AcDbEntity
  8
DV3_Default
 62
     7
100
AcDbCircle
 10
50.7941159109
 20
114.5155557994
 30
0.0
 40
4.468051607632099
100
AcDbArc
 50
159.2371990788
 51
160.6743175222
  0
ARC
  5
1C4
330
148
100
AcDbEntity
  8
DV3_Default
 62
     7
100
AcDbCircle
 10
45.3535083982
 20
119.0807675568
 30
0.0
 40
4.468051607770199
100
AcDbArc
 50
299.3256824778
 51
300.7628009212
  0
ARC
  5
1C5
330
148
100
AcDbEntity
  8
DV3_Default
 62
     7
100
AcDbCircle
 10
50.9140918889
 20
120.4640616779
 30
0.0
 40
6.227587512377714
100
AcDbArc
 50
225.8691529272
 51
228.8128554041
  0
ARC
  5
1C6
330
148
100
AcDbEntity
  8
DV3_Default
 62
     7
100
AcDbCircle
 10
51.1902508865
 20
120.231135843
 30
0.0
 40
6.226666865215755
100
AcDbArc
 50
231.1869269266
 51
234.1310647421
  0
ARC
  5
1C7
330
148
100
AcDbEntity
  8
DV3_Default
 62
     7
100
AcDbCircle
 10
54.4105569053
 20
124.35
 30
0.0
 40
11.45472241348911
100
AcDbArc
 50
208.4510202599
 51
211.5489797401
  0
ARC
  5
1C8
330
148
100
AcDbEntity
  8
DV3_Default
 62
     7
100
AcDbCircle
 10
47.6486359745
 20
116.3455410222
 30
0.0
 40
4.468051607859032
100
AcDbArc
 50
139.2371990788
 51
140.6743175222
  0
ARC
  5
1C9
330
148
100
AcDbEntity
  8
DV3_Default
 62
     7
100
AcDbCircle
 10
44.0975316216
 20
122.4962341846
 30
0.0
 40
4.468051607929107
100
AcDbArc
 50
279.3256824778
 51
280.7628009212
  0
ARC
  5
1CA
330
148
100
AcDbEntity
  8
DV3_Default
 62
     7
100
AcDbCircle
 10
49.7958853486
 20
121.8942738999
 30
0.0
 40
6.227587512374721
100
AcDbArc
 50
205.8691529272
 51
208.8128554041
  0
ARC
  5
1CB
330
148
100
AcDbEntity
  8
DV3_Default
 62
     7
100
AcDbCircle
 10
49.9757245934
 20
121.5809432717
 30
0.0
 40
6.226666865208423
100
AcDbArc
 50
211.1869269266
 51
214.1310647421
  0
ARC
  5
1CC
330
148
100
AcDbEntity
  8
DV3_Default
 62
     7
100
AcDbCircle
 10
54.4105569053
 20
124.35
 30
0.0
 40
11.45472241348911
100
AcDbArc
 50
188.4510202599
 51
191.5489797401
  0
ARC
  5
1CD
330
148
100
AcDbEntity
  8
DV3_Default
 62
     7
100
AcDbCircle
 10
45.3187434974
 20
119.1409821312
 30
0.0
 40
4.468051607748161
100
AcDbArc
 50
119.2371990788
 51
120.6743175222
  0
ARC
  5
1CE
330
148
100
AcDbEntity
  8
DV3_Default
 62
     7
100
AcDbCircle
 10
44.0854578983
 20
126.1352923281
 30
0.0
 40
4.468051607778373
100
AcDbArc
 50
259.3256824778
 51
260.7628009212
  0
ARC
  5
1CF
330
148
100
AcDbEntity
  8
DV3_Default
 62
     7
100
AcDbCircle
 10
49.2342763034
 20
123.6206829323
 30
0.0
 40
6.227587512372885
100
AcDbArc
 50
185.8691529272
 51
188.8128554041
  0
ARC
  5
1D0
330
148
100
AcDbEntity
  8
DV3_Default
 62
     7
100
AcDbCircle
 10
49.2961045283
 20
123.2647398088
 30
0.0
 40
6.226666865205218
100
AcDbArc
 50
191.1869269266
 51
194.1310647421
  0
ARC
  5
1D1
330
148
100
AcDbEntity
  8
DV3_Default
 62
     7
100
AcDbCircle
 10
54.4105569053
 20
124.35
 30
0.0
 40
11.45472241348911
100
AcDbArc
 50
168.4510202599
 51
171.5489797401
  0
ARC
  5
1D2
330
148
100
AcDbEntity
  8
DV3_Default
 62
     7
100
AcDbCircle
 10
44.0854578983
 20
122.564707672
 30
0.0
 40
4.468051607748073
100
AcDbArc
 50
99.2371990788
 51
100.6743175222
  0
ARC
  5
1D3
330
148
100
AcDbEntity
  8
DV3_Default
 62
     7
100
AcDbCircle
 10
45.3187434975
 20
129.5590178689
 30
0.0
 40
4.468051607834814
100
AcDbArc
 50
239.3256824778
 51
240.7628009212
  0
ARC
  5
1D4
330
148
100
AcDbEntity
  8
DV3_Default
 62
     7
100
AcDbCircle
 10
49.2970030926
 20
125.4350583666
 30
0.0
 40
6.22758751237452
100
AcDbArc
 50
165.8691529272
 51
168.8128554041
  0
ARC
  5
1D5
330
148
100
AcDbEntity
  8
DV3_Default
 62
     7
100
AcDbCircle
 10
49.2333629012
 20
125.0794347417
 30
0.0
 40
6.226666865202008
100
AcDbArc
 50
171.1869269266
 51
174.1310647421
  0
ARC
  5
1D6
330
148
100
AcDbEntity
  8
DV3_Default
 62
     7
100
AcDbCircle
 10
54.4105569053
 20
124.35
 30
0.0
 40
11.4547224134891
100
AcDbArc
 50
148.4510202599
 51
151.5489797401
  0
ARC
  5
1D7
330
148
100
AcDbEntity
  8
DV3_Default
 62
     7
100
AcDbCircle
 10
44.0975316216
 20
126.2037658156
 30
0.0
 40
4.468051607718122
100
AcDbArc
 50
79.2371990788
 51
80.6743175222
  0
ARC
  5
1D8
330
148
100
AcDbEntity
  8
DV3_Default
 62
     7
100
AcDbCircle
 10
47.6486359745
 20
132.3544589777
 30
0.0
 40
4.468051607770168
100
AcDbArc
 50
219.3256824778
 51
220.7628009212
  0
ARC
  5
1D9
330
148
100
AcDbEntity
  8
DV3_Default
 62
     7
100
AcDbCircle
 10
49.9764999395
 20
127.1185597481
 30
0.0
 40
6.227587512378977
100
AcDbArc
 50
145.8691529272
 51
148.8128554041
  0
ARC
  5
1DA
330
148
100
AcDbEntity
  8
DV3_Default
 62
     7
100
AcDbCircle
 10
49.7950672782
 20
126.8061490795
 30
0.0
 40
6.226666865203878
100
AcDbArc
 50
151.1869269266
 51
154.1310647421
  0
ARC
  5
1DB
330
148
100
AcDbEntity
  8
DV3_Default
 62
     7
100
AcDbCircle
 10
54.4105569053
 20
124.35
 30
0.0
 40
11.45472241348911
100
AcDbArc
 50
128.4510202599
 51
131.5489797401
  0
ARC
  5
1DC
330
148
100
AcDbEntity
  8
DV3_Default
 62
     7
100
AcDbCircle
 10
45.3535083982
 20
129.6192324433
 30
0.0
 40
4.468051607690501
100
AcDbArc
 50
59.2371990788
 51
60.6743175222
  0
ARC
  5
1DD
330
148
100
AcDbEntity
  8
DV3_Default
 62
     7
100
AcDbCircle
 10
50.794115911
 20
134.1844442006
 30
0.0
 40
4.46805160769119
100
AcDbArc
 50
199.3256824778
 51
200.7628009212
  0
ARC
  5
1DE
330
148
100
AcDbEntity
  8
DV3_Default
 62
     7
100
AcDbCircle
 10
51.1908094963
 20
128.4681319644
 30
0.0
 40
6.227587512375464
100
AcDbArc
 50
125.8691529272
 51
128.8128554041
  0
ARC
  5
1DF
330
148
100
AcDbEntity
  8
DV3_Default
 62
     7
100
AcDbCircle
 10
50.9134678215
 20
128.2366155893
 30
0.0
 40
6.226666865208254
100
AcDbArc
 50
131.1869269266
 51
134.1310647421
  0
ARC
  5
1E0
330
148
100
AcDbEntity
  8
DV3_Default
 62
     7
100
AcDbCircle
 10
54.4105569053
 20
124.35
 30
0.0
 40
11.45472241348911
100
AcDbArc
 50
108.4510202599
 51
111.5489797401
  0
ARC
  5
1E1
330
148
100
AcDbEntity
  8
DV3_Default
 62
     7
100
AcDbCircle
 10
47.8590241407
 20
132.5321903164
 30
0.0
 40
4.262174975329597
100
AcDbArc
 50
39.871168801
 51
40.6945870342
  0
ARC
  5
1E2
330
148
100
AcDbEntity
  8
DV3_Default
 62
     7
100
AcDbCircle
 10
54.1873741299
 20
134.8289846061
 30
0.0
 40
4.27963839715763
100
AcDbArc
 50
179.3058253081
 51
180.2483418471
  0
ARC
  5
1E3
330
148
100
AcDbEntity
  8
DV3_Default
 62
     7
100
AcDbCircle
 10
52.793468109
 20
129.3209966887
 30
0.0
 40
6.227587512366427
100
AcDbArc
 50
105.8691529272
 51
108.8128554041
  0
ARC
  5
1E4
330
148
100
AcDbEntity
  8
DV3_Default
 62
     7
100
AcDbCircle
 10
52.45366892
 20
129.1982988987
 30
0.0
 40
6.226666865210754
100
AcDbArc
 50
111.1869269266
 51
114.1310647421
  0
ARC
  5
1E5
330
148
100
AcDbEntity
  8
DV3_Default
 62
     7
100
AcDbCircle
 10
54.4105569053
 20
124.35
 30
0.0
 40
13.12983957522884
100
AcDbArc
 50
141.7829661329
 51
38.2170338671
  0
ARC
  5
1E6
330
148
100
AcDbEntity
  8
DV3_Default
 62
     7
100
AcDbCircle
 10
54.4105569053
 20
124.35
 30
0.0
 40
11.25
100
AcDbArc
 50
0.0
 51
7.2215933294
  0
ARC
  5
1E7
330
148
100
AcDbEntity
  8
DV3_Default
 62
     7
100
AcDbCircle
 10
54.4105569053
 20
124.35
 30
0.0
 40
11.25
100
AcDbArc
 50
12.7784066706
 51
27.2215933294
  0
ARC
  5
1E8
330
148
100
AcDbEntity
  8
DV3_Default
 62
     7
100
AcDbCircle
 10
54.4105569053
 20
124.35
 30
0.0
 40
11.25
100
AcDbArc
 50
32.7784066706
 51
47.2215933294
  0
ARC
  5
1E9
330
148
100
AcDbEntity
  8
DV3_Default
 62
     7
100
AcDbCircle
 10
54.4105569053
 20
124.35
 30
0.0
 40
11.25
100
AcDbArc
 50
52.7784066706
 51
68.0568334103
  0
ARC
  5
1EA
330
148
100
AcDbEntity
  8
DV3_Default
 62
     7
100
AcDbCircle
 10
54.4105569053
 20
124.35
 30
0.0
 40
11.25
100
AcDbArc
 50
72.1580577497
 51
87.8119657678
  0
ARC
  5
1EB
330
148
100
AcDbEntity
  8
DV3_Default
 62
     7
100
AcDbCircle
 10
54.4105569053
 20
124.35
 30
0.0
 40
11.25
100
AcDbArc
 50
91.9224902311
 51
107.7980932277
  0
ARC
  5
1EC
330
148
100
AcDbEntity
  8
DV3_Default
 62
     7
100
AcDbCircle
 10
54.4105569053
 20
124.35
 30
0.0
 40
11.25
100
AcDbArc
 50
112.0725943357
 51
127.2215933294
  0
ARC
  5
1ED
330
148
100
AcDbEntity
  8
DV3_Default
 62
     7
100
AcDbCircle
 10
54.4105569053
 20
124.35
 30
0.0
 40
11.25
100
AcDbArc
 50
132.7784066706
 51
147.2215933294
  0
ARC
  5
1EE
330
148
100
AcDbEntity
  8
DV3_Default
 62
     7
100
AcDbCircle
 10
54.4105569053
 20
124.35
 30
0.0
 40
11.25
100
AcDbArc
 50
152.7784066706
 51
167.2215933294
  0
ARC
  5
1EF
330
148
100
AcDbEntity
  8
DV3_Default
 62
     7
100
AcDbCircle
 10
54.4105569053
 20
124.35
 30
0.0
 40
11.25
100
AcDbArc
 50
172.7784066706
 51
187.2215933294
  0
ARC
  5
1F0
330
148
100
AcDbEntity
  8
DV3_Default
 62
     7
100
AcDbCircle
 10
54.4105569053
 20
124.35
 30
0.0
 40
11.25
100
AcDbArc
 50
192.7784066706
 51
207.2215933294
  0
ARC
  5
1F1
330
148
100
AcDbEntity
  8
DV3_Default
 62
     7
100
AcDbCircle
 10
54.4105569053
 20
124.35
 30
0.0
 40
11.25
100
AcDbArc
 50
212.7784066706
 51
227.2215933294
  0
ARC
  5
1F2
330
148
100
AcDbEntity
  8
DV3_Default
 62
     7
100
AcDbCircle
 10
54.4105569053
 20
124.35
 30
0.0
 40
11.25
100
AcDbArc
 50
232.7784066706
 51
247.9951398519
  0
ARC
  5
1F3
330
148
100
AcDbEntity
  8
DV3_Default
 62
     7
100
AcDbCircle
 10
54.4105569053
 20
124.35
 30
0.0
 40
11.25
100
AcDbArc
 50
252.1608913376
 51
267.9263420974
  0
ARC
  5
1F4
330
148
100
AcDbEntity
  8
DV3_Default
 62
     7
100
AcDbCircle
 10
54.4105569053
 20
124.35
 30
0.0
 40
11.25
100
AcDbArc
 50
271.815878896
 51
287.9231724949
  0
ARC
  5
1F5
330
148
100
AcDbEntity
  8
DV3_Default
 62
     7
100
AcDbCircle
 10
54.4105569053
 20
124.35
 30
0.0
 40
11.25
100
AcDbArc
 50
291.9592431194
 51
307.2215933294
  0
ARC
  5
1F6
330
148
100
AcDbEntity
  8
DV3_Default
 62
     7
100
AcDbCircle
 10
54.4105569053
 20
124.35
 30
0.0
 40
11.25
100
AcDbArc
 50
312.7784066706
 51
327.2215933294
  0
ARC
  5
1F7
330
148
100
AcDbEntity
  8
DV3_Default
 62
     7
100
AcDbCircle
 10
54.4105569053
 20
124.35
 30
0.0
 40
11.25
100
AcDbArc
 50
332.7784066706
 51
347.2215933294
  0
ARC
  5
1F8
330
148
100
AcDbEntity
  8
DV3_Default
 62
     7
100
AcDbCircle
 10
54.4105569053
 20
124.35
 30
0.0
 40
11.25
100
AcDbArc
 50
352.7784066706
 51
360.0
  0
LINE
  5
1F9
330
148
100
AcDbEntity
  8
DV3_Default
 62
     7
100
AcDbLine
 10
42.7299273847
 20
136.4078071163
 30
0.0
 11
42.7299273847
 21
174.0543611491
 31
0.0
  0
ARC
  5
1FA
330
148
100
AcDbEntity
  8
DV3_Default
 62
     7
100
AcDbCircle
 10
38.7299994936
 20
136.4078012414
 30
0.0
 40
3.999927891164944
100
AcDbArc
 50
322.4409055138
 51
0.0
  0
ARC
  5
1FB
330
148
100
AcDbEntity
  8
DV3_Default
 62
     7
100
AcDbCircle
 10
70.091114317
 20
136.4078012414
 30
0.0
 40
3.999927891163324
100
AcDbArc
 50
179.9999158459
 51
217.5590944862
  0
LINE
  5
1FC
330
148
100
AcDbEntity
  8
DV3_Default
 62
     7
100
AcDbLine
 10
63.5250258473
 20
153.0183824276
 30
0.0
 11
63.5412501334
 21
153.0182408404
 31
0.0
  0
LINE
  5
1FD
330
148
100
AcDbEntity
  8
DV3_Default
 62
     7
100
AcDbLine
 10
63.5442449294
 20
152.7195123118
 30
0.0
 11
63.5442449294
 21
142.8004876882
 31
0.0
  0
ELLIPSE
  5
1FE
330
148
100
AcDbEntity
  8
DV3_Default
 62
     7
100
AcDbEllipse
 10
63.541237009
 20
152.7182295314
 30
0.0
 11
1.286247960224918E-5
 21
0.30001131012947
 31
0.0
210
0.0
220
0.0
230
1.0
 40
0.0100259317
 41
4.716665196876324
 42
6.283098242825202
  0
ELLIPSE
  5
1FF
330
148
100
AcDbEntity
  8
DV3_Default
 62
     7
100
AcDbEllipse
 10
63.5250660261
 20
152.7183706534
 30
0.0
 11
4.101379810425577E-5
 21
-0.3000117777371067
 31
0.0
210
0.0
220
0.0
230
1.0
 40
0.0177203813
 41
3.141435587430188
 42
4.704674440898466
  0
LINE
  5
200
330
148
100
AcDbEntity
  8
DV3_Default
 62
     7
100
AcDbLine
 10
45.2960879633
 20
142.5016175724
 30
0.0
 11
45.2798636772
 21
142.5017591596
 31
0.0
  0
LINE
  5
201
330
148
100
AcDbEntity
  8
DV3_Default
 62
     7
100
AcDbLine
 10
45.2768688811
 20
142.8004876882
 30
0.0
 11
45.2768688811
 21
152.7195123118
 31
0.0
  0
ELLIPSE
  5
202
330
148
100
AcDbEntity
  8
DV3_Default
 62
     7
100
AcDbEllipse
 10
45.2798768015
 20
142.8017704686
 30
0.0
 11
-1.286247960224918E-5
 21
-0.3000113101294666
 31
0.0
210
0.0
220
0.0
230
1.0
 40
0.0100259317
 41
4.716665196876324
 42
6.283098241872652
  0
ELLIPSE
  5
203
330
148
100
AcDbEntity
  8
DV3_Default
 62
     7
100
AcDbEllipse
 10
45.2960477845
 20
142.8016293466
 30
0.0
 11
-4.101379810599049E-5
 21
0.3000117777371067
 31
0.0
210
0.0
220
0.0
230
1.0
 40
0.0177203813
 41
3.141435587430188
 42
4.70467444089856
  0
LINE
  5
204
330
148
100
AcDbEntity
  8
DV3_Default
 62
     7
100
AcDbLine
 10
45.2798636772
 20
153.0182408404
 30
0.0
 11
45.2960879633
 21
153.0183824276
 31
0.0
  0
LINE
  5
205
330
148
100
AcDbEntity
  8
DV3_Default
 62
     7
100
AcDbLine
 10
45.3013642658
 20
152.7206843564
 30
0.0
 11
45.3013642658
 21
151.7415933547
 31
0.0
  0
LINE
  5
206
330
148
100
AcDbEntity
  8
DV3_Default
 62
     7
100
AcDbLine
 10
45.3013642658
 20
143.7784066453
 30
0.0
 11
45.3013642658
 21
142.7993156436
 31
0.0
  0
ELLIPSE
  5
207
330
148
100
AcDbEntity
  8
DV3_Default
 62
     7
100
AcDbEllipse
 10
45.2960477845
 20
152.7183706534
 30
0.0
 11
-4.101379810425577E-5
 21
-0.3000117777371067
 31
0.0
210
0.0
220
0.0
230
1.0
 40
0.0177203813
 41
1.57851086628112
 42
3.141749719749398
  0
ELLIPSE
  5
208
330
148
100
AcDbEntity
  8
DV3_Default
 62
     7
100
AcDbEllipse
 10
45.2798768015
 20
152.7182295314
 30
0.0
 11
-1.286247960224918E-5
 21
0.30001131012947
 31
0.0
210
0.0
220
0.0
230
1.0
 40
0.0100259317
 41
0.0000870643543847
 42
1.566520110303262
  0
LINE
  5
209
330
148
100
AcDbEntity
  8
DV3_Default
 62
     7
100
AcDbLine
 10
63.5412501334
 20
142.5017591596
 30
0.0
 11
63.5250258473
 21
142.5016175724
 31
0.0
  0
LINE
  5
20A
330
148
100
AcDbEntity
  8
DV3_Default
 62
     7
100
AcDbLine
 10
63.5197495448
 20
142.7993156436
 30
0.0
 11
63.5197495448
 21
143.7784066453
 31
0.0
  0
LINE
  5
20B
330
148
100
AcDbEntity
  8
DV3_Default
 62
     7
100
AcDbLine
 10
63.5197495448
 20
151.7415933547
 30
0.0
 11
63.5197495448
 21
152.7206843564
 31
0.0
  0
ELLIPSE
  5
20C
330
148
100
AcDbEntity
  8
DV3_Default
 62
     7
100
AcDbEllipse
 10
63.5250660261
 20
142.8016293466
 30
0.0
 11
4.101379810599049E-5
 21
0.3000117777371067
 31
0.0
210
0.0
220
0.0
230
1.0
 40
0.0177203813
 41
1.578510866281026
 42
3.141749719749398
  0
ELLIPSE
  5
20D
330
148
100
AcDbEntity
  8
DV3_Default
 62
     7
100
AcDbEllipse
 10
63.541237009
 20
142.8017704686
 30
0.0
 11
1.286247960224918E-5
 21
-0.3000113101294666
 31
0.0
210
0.0
220
0.0
230
1.0
 40
0.0100259317
 41
0.0000870653069347
 42
1.566520110303262
  0
ELLIPSE
  5
20E
330
148
100
AcDbEntity
  8
DV3_Default
 62
     7
100
AcDbEllipse
 10
43.4079457414
 20
174.6510540922
 30
0.0
 11
-0.2000000000000005
 21
0.0
 31
0.0
210
0.0
220
0.0
230
1.0
 40
0.0087268678
 41
4.71238898038469
 42
6.277949319423318
  0
LINE
  5
20F
330
148
100
AcDbEntity
  8
DV3_Default
 62
     7
100
AcDbLine
 10
65.4131680691
 20
174.6527994657
 30
0.0
 11
63.4403707192
 21
174.6527994657
 31
0.0
  0
LINE
  5
210
330
148
100
AcDbEntity
  8
DV3_Default
 62
     7
100
AcDbLine
 10
45.3807430914
 20
174.6527994657
 30
0.0
 11
43.4079457414
 21
174.6527994657
 31
0.0
  0
ELLIPSE
  5
211
330
148
100
AcDbEntity
  8
DV3_Default
 62
     7
100
AcDbEllipse
 10
65.4131680691
 20
174.6510540922
 30
0.0
 11
0.2000000000000005
 21
0.0
 31
0.0
210
0.0
220
0.0
230
1.0
 40
0.0087268678
 41
0.005235987742676
 42
1.570796326794897
  0
LINE
  5
212
330
148
100
AcDbEntity
  8
DV3_Default
 62
     7
100
AcDbLine
 10
66.0911864258
 20
174.0543611491
 30
0.0
 11
66.0911864258
 21
136.4078071163
 31
0.0
  0
ARC
  5
213
330
148
100
AcDbEntity
  8
DV3_Default
 62
     7
100
AcDbCircle
 10
43.0299095663
 20
174.0543748562
 30
0.0
 40
0.2999821819223726
100
AcDbArc
 50
149.03755224
 51
180.0026180125
  0
ARC
  5
214
330
148
100
AcDbEntity
  8
DV3_Default
 62
     7
100
AcDbCircle
 10
43.2079347769
 20
174.351088361
 30
0.0
 40
0.2999821819223743
100
AcDbArc
 50
89.9973821151
 51
149.03755224
  0
ARC
  5
215
330
148
100
AcDbEntity
  8
DV3_Default
 62
     7
100
AcDbCircle
 10
65.7912042442
 20
174.0543748562
 30
0.0
 40
0.2999748701652173
100
AcDbArc
 50
359.9973819875
 51
30.96244776
  0
ARC
  5
216
330
148
100
AcDbEntity
  8
DV3_Default
 62
     7
100
AcDbCircle
 10
65.6131790336
 20
174.351088361
 30
0.0
 40
0.2999821819223743
100
AcDbArc
 50
30.96244776
 51
90.0026178849
  0
ARC
  5
217
330
148
100
AcDbEntity
  8
DV3_Default
 62
     7
100
AcDbCircle
 10
54.4105569053
 20
124.35
 30
0.0
 40
15.78063637442641
100
AcDbArc
 50
142.4409896679
 51
360.0
  0
ARC
  5
218
330
148
100
AcDbEntity
  8
DV3_Default
 62
     7
100
AcDbCircle
 10
54.4105569053
 20
124.35
 30
0.0
 40
15.78063637442641
100
AcDbArc
 50
0.0
 51
37.5590103321
  0
LINE
  5
219
330
148
100
AcDbEntity
  8
DV3_Default
 62
     7
100
AcDbLine
 10
42.7726742884
 20
174.2087080319
 30
0.0
 11
42.7485281449
 21
174.1454122305
 31
0.0
  0
LINE
  5
21A
330
148
100
AcDbEntity
  8
DV3_Default
 62
     7
100
AcDbLine
 10
42.950699499
 20
174.5054215367
 30
0.0
 11
42.7726742884
 21
174.2087080319
 31
0.0
  0
ARC
  5
21B
330
148
100
AcDbEntity
  8
DV3_Default
 62
     7
100
AcDbCircle
 10
43.2057502919
 20
174.3527178933
 30
0.0
 40
0.2972697590793779
100
AcDbArc
 50
140.0382654464
 51
149.0902601024
  0
ARC
  5
21C
330
148
100
AcDbEntity
  8
DV3_Default
 62
     7
100
AcDbCircle
 10
43.1853792272
 20
174.4195169274
 30
0.0
 40
0.2278918595996325
100
AcDbArc
 50
99.6526692986
 51
114.4646070102
  0
LINE
  5
21D
330
148
100
AcDbEntity
  8
DV3_Default
 62
     7
100
AcDbLine
 10
66.0711431086
 20
174.1615234399
 30
0.0
 11
66.0484395222
 21
174.2087080319
 31
0.0
  0
ARC
  5
21E
330
148
100
AcDbEntity
  8
DV3_Default
 62
     7
100
AcDbCircle
 10
65.6444792464
 20
174.4495696715
 30
0.0
 40
0.1965802662567154
100
AcDbArc
 50
63.2877525475
 51
79.5603411904
  0
ARC
  5
21F
330
148
100
AcDbEntity
  8
DV3_Default
 62
     7
100
AcDbCircle
 10
65.6223201114
 20
174.3593005997
 30
0.0
 40
0.2879271790128211
100
AcDbArc
 50
30.4969625618
 51
49.3183721101
  0
LINE
  5
220
330
148
100
AcDbEntity
  8
DV3_Default
 62
     7
100
AcDbLine
 10
66.0484395222
 20
174.2087080319
 30
0.0
 11
65.8704143116
 21
174.5054215367
 31
0.0
  0
CIRCLE
  5
221
330
148
100
AcDbEntity
  8
DV3_Default
 62
     7
100
AcDbCircle
 10
54.4105569053
 20
124.35
 30
0.0
 40
10.94999999999997
  0
LINE
  5
222
330
148
100
AcDbEntity
  8
DV3_Default
 62
     7
100
AcDbLine
 10
70.4149013
 20
174.85
 30
0.0
 11
70.2149089154
 21
174.85
 31
0.0
  0
LINE
  5
223
330
148
100
AcDbEntity
  8
DV3_Default
 62
     7
100
AcDbLine
 10
70.2149089154
 20
174.85
 30
0.0
 11
38.6062048952
 21
174.85
 31
0.0
  0
LINE
  5
224
330
148
100
AcDbEntity
  8
DV3_Default
 62
     7
100
AcDbLine
 10
38.6062048952
 20
174.85
 30
0.0
 11
38.4062125106
 21
174.85
 31
0.0
  0
LINE
  5
225
330
148
100
AcDbEntity
  8
DV3_Default
 62
     7
100
AcDbLine
 10
37.906231549
 20
175.3456367323
 30
0.0
 11
37.8364166067
 21
183.3456367323
 31
0.0
  0
ARC
  5
226
330
148
100
AcDbEntity
  8
DV3_Default
 62
     7
100
AcDbCircle
 10
70.4149013
 20
175.35
 30
0.0
 40
0.5
100
AcDbArc
 50
270.0
 51
359.5
  0
ARC
  5
227
330
148
100
AcDbEntity
  8
DV3_Default
 62
     7
100
AcDbCircle
 10
38.4062125106
 20
175.35
 30
0.0
 40
0.4999999999999981
100
AcDbArc
 50
180.5
 51
270.0
  0
LINE
  5
228
330
148
100
AcDbEntity
  8
DV3_Default
 62
     7
100
AcDbLine
 10
70.2847238577
 20
183.85
 30
0.0
 11
70.4847162423
 21
183.85
 31
0.0
  0
LINE
  5
229
330
148
100
AcDbEntity
  8
DV3_Default
 62
     7
100
AcDbLine
 10
38.5363899529
 20
183.85
 30
0.0
 11
70.2847238577
 21
183.85
 31
0.0
  0
LINE
  5
22A
330
148
100
AcDbEntity
  8
DV3_Default
 62
     7
100
AcDbLine
 10
38.3363975683
 20
183.85
 30
0.0
 11
38.5363899529
 21
183.85
 31
0.0
  0
LINE
  5
22B
330
148
100
AcDbEntity
  8
DV3_Default
 62
     7
100
AcDbLine
 10
70.9846972038
 20
183.3456367323
 30
0.0
 11
70.9148822615
 21
175.3456367323
 31
0.0
  0
ARC
  5
22C
330
148
100
AcDbEntity
  8
DV3_Default
 62
     7
100
AcDbCircle
 10
70.4847162423
 20
183.35
 30
0.0
 40
0.5000000000000014
100
AcDbArc
 50
359.5
 51
90.0
  0
ARC
  5
22D
330
148
100
AcDbEntity
  8
DV3_Default
 62
     7
100
AcDbCircle
 10
38.3363975683
 20
183.35
 30
0.0
 40
0.5000000000000004
100
AcDbArc
 50
90.0
 51
180.5
  0
ARC
  5
22E
330
148
100
AcDbEntity
  8
DV3_Default
 62
     7
100
AcDbCircle
 10
54.4030572786
 20
124.2864397957
 30
0.0
 40
11.20983454648725
100
AcDbArc
 50
100.5353124165
 51
108.9506495319
  0
ARC
  5
22F
330
148
100
AcDbEntity
  8
DV3_Default
 62
     7
100
AcDbCircle
 10
54.4030572786
 20
124.2864397957
 30
0.0
 40
11.20983454648725
100
AcDbArc
 50
110.9425923316
 51
122.9414756969
  0
ARC
  5
230
330
148
100
AcDbEntity
  8
DV3_Default
 62
     7
100
AcDbCircle
 10
54.4574841503
 20
124.35
 30
0.0
 40
11.14016987327092
100
AcDbArc
 50
280.3957188403
 51
289.0790291833
  0
ARC
  5
231
330
148
100
AcDbEntity
  8
DV3_Default
 62
     7
100
AcDbCircle
 10
54.4574841503
 20
124.35
 30
0.0
 40
11.14016987327092
100
AcDbArc
 50
290.8307327058
 51
308.0544183535
  0
ARC
  5
232
330
148
100
AcDbEntity
  8
DV3_Default
 62
     7
100
AcDbCircle
 10
54.4574841503
 20
124.35
 30
0.0
 40
11.14016987327092
100
AcDbArc
 50
311.5985567954
 51
328.0108282462
  0
ARC
  5
233
330
148
100
AcDbEntity
  8
DV3_Default
 62
     7
100
AcDbCircle
 10
54.4574841503
 20
124.35
 30
0.0
 40
11.14016987327092
100
AcDbArc
 50
331.9499797478
 51
347.9479673037
  0
ARC
  5
234
330
148
100
AcDbEntity
  8
DV3_Default
 62
     7
100
AcDbCircle
 10
54.4574841503
 20
124.35
 30
0.0
 40
11.14016987327092
100
AcDbArc
 50
351.9808126595
 51
8.0323481329
  0
ARC
  5
235
330
148
100
AcDbEntity
  8
DV3_Default
 62
     7
100
AcDbCircle
 10
54.4574841503
 20
124.35
 30
0.0
 40
11.14016987327092
100
AcDbArc
 50
12.1965614612
 51
28.1361871068
  0
ARC
  5
236
330
148
100
AcDbEntity
  8
DV3_Default
 62
     7
100
AcDbCircle
 10
54.4574841503
 20
124.35
 30
0.0
 40
11.14016987327092
100
AcDbArc
 50
32.1172684759
 51
48.3494372264
  0
ARC
  5
237
330
148
100
AcDbEntity
  8
DV3_Default
 62
     7
100
AcDbCircle
 10
54.4574841503
 20
124.35
 30
0.0
 40
11.14016987327092
100
AcDbArc
 50
51.8085492452
 51
69.1848490617
  0
ARC
  5
238
330
148
100
AcDbEntity
  8
DV3_Default
 62
     7
100
AcDbCircle
 10
54.4574841503
 20
124.35
 30
0.0
 40
11.14016987327092
100
AcDbArc
 50
70.9275663342
 51
79.6042811597
  0
LINE
  5
239
330
148
100
AcDbEntity
  8
DV3_Default
 62
     7
100
AcDbLine
 10
56.9600666621
 20
135.3073035004
 30
0.0
 11
56.4676793661
 21
135.3073035004
 31
0.0
  0
LINE
  5
23A
330
148
100
AcDbEntity
  8
DV3_Default
 62
     7
100
AcDbLine
 10
51.8610471485
 20
135.3073035004
 30
0.0
 11
52.3534344445
 21
135.3073035004
 31
0.0
  0
LINE
  5
23B
330
148
100
AcDbEntity
  8
DV3_Default
 62
     7
100
AcDbLine
 10
56.9600666621
 20
113.3926964996
 30
0.0
 11
56.4676793661
 21
113.3926964996
 31
0.0
  0
LINE
  5
23C
330
148
100
AcDbEntity
  8
DV3_Default
 62
     7
100
AcDbLine
 10
51.8610471485
 20
113.3926964996
 30
0.0
 11
52.3534344445
 21
113.3926964996
 31
0.0
  0
ARC
  5
23D
330
148
100
AcDbEntity
  8
DV3_Default
 62
     7
100
AcDbCircle
 10
54.4105569053
 20
124.35
 30
0.0
 40
11.14873323829404
100
AcDbArc
 50
79.3670699076
 51
87.50937788
  0
ARC
  5
23E
330
148
100
AcDbEntity
  8
DV3_Default
 62
     7
100
AcDbCircle
 10
54.4105569053
 20
124.35
 30
0.0
 40
11.14873323829382
100
AcDbArc
 50
259.3670699076
 51
267.50937788
  0
ARC
  5
23F
330
148
100
AcDbEntity
  8
DV3_Default
 62
     7
100
AcDbCircle
 10
54.4105569053
 20
124.35
 30
0.0
 40
11.14873323829405
100
AcDbArc
 50
92.49062212
 51
100.6329300924
  0
ARC
  5
240
330
148
100
AcDbEntity
  8
DV3_Default
 62
     7
100
AcDbCircle
 10
54.4105569053
 20
124.35
 30
0.0
 40
11.14873323829383
100
AcDbArc
 50
272.49062212
 51
280.6329300924
  0
ARC
  5
241
330
148
100
AcDbEntity
  8
DV3_Default
 62
     7
100
AcDbCircle
 10
54.4105569053
 20
115.6381094663
 30
0.0
 40
19.8560034993444
100
AcDbArc
 50
88.6018690713
 51
89.6597062526
  0
ARC
  5
242
330
148
100
AcDbEntity
  8
DV3_Default
 62
     7
100
AcDbCircle
 10
54.4105569053
 20
115.6381094663
 30
0.0
 40
19.8560034993444
100
AcDbArc
 50
90.3418984741
 51
91.3981309287
  0
ARC
  5
243
330
148
100
AcDbEntity
  8
DV3_Default
 62
     7
100
AcDbCircle
 10
54.4105569053
 20
133.0618905337
 30
0.0
 40
19.8560034993442
100
AcDbArc
 50
268.6018690713
 51
269.6950802268
  0
ARC
  5
244
330
148
100
AcDbEntity
  8
DV3_Default
 62
     7
100
AcDbCircle
 10
54.4105569053
 20
133.0618905337
 30
0.0
 40
19.8560034993442
100
AcDbArc
 50
270.3057555063
 51
271.3981309287
  0
SPLINE
  5
245
330
148
100
AcDbEntity
  8
DV3_Default
 62
     7
100
AcDbSpline
210
0.0
220
0.0
230
1.0
 70
     8
 71
     3
 72
    10
 73
     6
 74
     0
 42
0.000000001
 43
0.0000000001
 40
0.0
 40
0.0
 40
0.0
 40
0.0
 40
0.911014813622387
 40
0.911014813622387
 40
1.0
 40
1.0
 40
1.0
 40
1.0
 10
54.89503478168949
 20
135.4882015606609
 30
0.0
 10
54.90018483752004
 20
135.5169718235165
 30
0.0
 10
54.90405639701555
 20
135.5460187462173
 30
0.0
 10
54.90690619363396
 20
135.5782058213462
 30
0.0
 10
54.90714749369985
 20
135.5810732191536
 30
0.0
 10
54.90737648552702
 20
135.5839432679219
 30
0.0
  0
SPLINE
  5
246
330
148
100
AcDbEntity
  8
DV3_Default
 62
     7
100
AcDbSpline
210
0.0
220
0.0
230
1.0
 70
     8
 71
     3
 72
     8
 73
     4
 74
     0
 42
0.000000001
 43
0.0000000001
 40
0.0
 40
0.0
 40
0.0
 40
0.0
 40
0.9999999999999999
 40
0.9999999999999999
 40
0.9999999999999999
 40
0.9999999999999999
 10
53.91561826144426
 20
135.563126119168
 30
0.0
 10
53.91815124680369
 20
135.5380262040907
 30
0.0
 10
53.92163463127142
 20
135.513029735595
 30
0.0
 10
53.92607902886774
 20
135.4882015606609
 30
0.0
  0
LINE
  5
247
330
148
100
AcDbEntity
  8
DV3_Default
 62
     7
100
AcDbLine
 10
53.9260790289
 20
113.2117984393
 30
0.0
 11
53.9186787208
 21
113.1281239722
 31
0.0
  0
LINE
  5
248
330
148
100
AcDbEntity
  8
DV3_Default
 62
     7
100
AcDbLine
 10
54.9012918674
 20
113.1410502618
 30
0.0
 11
54.8950347817
 21
113.2117984393
 31
0.0
  0
ARC
  5
249
330
148
100
AcDbEntity
  8
DV3_Default
 62
     7
100
AcDbCircle
 10
54.7093953304
 20
124.35
 30
0.0
 40
10.81050356339355
100
AcDbArc
 50
322.7952917914
 51
329.4895382022
  0
ARC
  5
24A
330
148
100
AcDbEntity
  8
DV3_Default
 62
     7
100
AcDbCircle
 10
54.7093953304
 20
124.35
 30
0.0
 40
10.81050356339355
100
AcDbArc
 50
329.6019530941
 51
349.188035041
  0
ARC
  5
24B
330
148
100
AcDbEntity
  8
DV3_Default
 62
     7
100
AcDbCircle
 10
54.7093953304
 20
124.35
 30
0.0
 40
10.81050356339355
100
AcDbArc
 50
350.5191162881
 51
9.9182574169
  0
ARC
  5
24C
330
148
100
AcDbEntity
  8
DV3_Default
 62
     7
100
AcDbCircle
 10
54.7093953304
 20
124.35
 30
0.0
 40
10.81050356339355
100
AcDbArc
 50
11.092395794
 51
37.2047082086
  0
ARC
  5
24D
330
148
100
AcDbEntity
  8
DV3_Default
 62
     7
100
AcDbCircle
 10
54.4105569053
 20
124.35
 30
0.0
 40
11.05000000000003
100
AcDbArc
 50
235.3193519609
 51
323.7322725463
  0
ELLIPSE
  5
24E
330
148
100
AcDbEntity
  8
DV3_Default
 62
     7
100
AcDbEllipse
 10
-3.4108063023
 20
124.3500000003
 30
0.0
 11
89.33670526824538
 21
15.74767347232169
 31
0.0
210
0.0
220
0.0
230
1.0
 40
0.0030301448
 41
0.9528676684827788
 42
0.9558595745105541
  0
ELLIPSE
  5
24F
330
148
100
AcDbEntity
  8
DV3_Default
 62
     7
100
AcDbEllipse
 10
53.7125687886
 20
128.3084871869
 30
0.0
 11
-1.396082428638589
 21
7.917577290763576
 31
0.0
210
0.0
220
0.0
230
1.0
 40
0.866047388
 41
0.6818051509238483
 42
0.7243815066506325
  0
ARC
  5
250
330
148
100
AcDbEntity
  8
DV3_Default
 62
     7
100
AcDbCircle
 10
54.4105569053
 20
124.35
 30
0.0
 40
11.05000000000041
100
AcDbArc
 50
36.2677274537
 51
124.6806480391
  0
ARC
  5
251
330
148
100
AcDbEntity
  8
DV3_Default
 62
     7
100
AcDbCircle
 10
54.4025688694
 20
124.4123352761
 30
0.0
 40
11.20854096908072
100
AcDbArc
 50
237.0572146194
 51
249.1289553071
  0
ARC
  5
252
330
148
100
AcDbEntity
  8
DV3_Default
 62
     7
100
AcDbCircle
 10
54.4025688694
 20
124.4123352761
 30
0.0
 40
11.20854096908072
100
AcDbArc
 50
250.9645126846
 51
259.4659972672
  0
ELLIPSE
  5
253
330
148
100
AcDbEntity
  8
DV3_Default
 62
     7
100
AcDbEllipse
 10
-3.4108063062
 20
124.3500000004
 30
0.0
 11
89.33670527304054
 21
-15.74767347317646
 31
0.0
210
0.0
220
0.0
230
1.0
 40
0.0030301448
 41
-0.9558595744941654
 42
-0.9528676682667845
  0
ELLIPSE
  5
254
330
148
100
AcDbEntity
  8
DV3_Default
 62
     7
100
AcDbEllipse
 10
53.7125688396
 20
120.3915128618
 30
0.0
 11
-1.396082564420495
 21
-7.917577326695229
 31
0.0
210
0.0
220
0.0
230
1.0
 40
0.8660473873
 41
-0.7243814905329362
 42
-0.6818051350036463
  0
ARC
  5
255
330
148
100
AcDbEntity
  8
DV3_Default
 62
     7
100
AcDbCircle
 10
54.4105569053
 20
124.35
 30
0.0
 40
11.10236120674455
100
AcDbArc
 50
159.2888027972
 51
160.6352323506
  0
ARC
  5
256
330
148
100
AcDbEntity
  8
DV3_Default
 62
     7
100
AcDbCircle
 10
54.4105569053
 20
124.35
 30
0.0
 40
11.05
100
AcDbArc
 50
146.9047873368
 51
157.1936420125
  0
SPLINE
  5
257
330
148
100
AcDbEntity
  8
DV3_Default
 62
     7
100
AcDbSpline
210
0.0
220
0.0
230
1.0
 70
     8
 71
     3
 72
     8
 73
     4
 74
     0
 42
0.000000001
 43
0.0000000001
 40
0.0
 40
0.0
 40
0.0
 40
0.0
 40
1.0
 40
1.0
 40
1.0
 40
1.0
 10
45.08878748268245
 20
130.3805090329904
 30
0.0
 10
45.15103245177661
 20
130.476725330228
 30
0.0
 10
45.17788247315758
 20
130.593195510294
 30
0.0
 10
45.16602687025497
 20
130.7056811824727
 30
0.0
  0
SPLINE
  5
258
330
148
100
AcDbEntity
  8
DV3_Default
 62
     7
100
AcDbSpline
210
0.0
220
0.0
230
1.0
 70
     8
 71
     3
 72
    10
 73
     6
 74
     0
 42
0.000000001
 43
0.0000000001
 40
0.0
 40
0.0
 40
0.0
 40
0.0
 40
0.3116819023845076
 40
0.3116819023845076
 40
1.0
 40
1.0
 40
1.0
 40
1.0
 10
45.22128977358469
 20
130.7694618267661
 30
0.0
 10
45.23077800056688
 20
130.728605952301
 30
0.0
 10
45.2352168053071
 20
130.6866137981352
 30
0.0
 10
45.23208094870417
 20
130.5528997522253
 30
0.0
 10
45.20419506791518
 20
130.4618003057963
 30
0.0
 10
45.15326091368047
 20
130.3836531988458
 30
0.0
  0
ARC
  5
259
330
148
100
AcDbEntity
  8
DV3_Default
 62
     7
100
AcDbCircle
 10
54.4105569053
 20
124.35
 30
0.0
 40
11.10236120674456
100
AcDbArc
 50
211.1496617456
 51
212.899939097
  0
ARC
  5
25A
330
148
100
AcDbEntity
  8
DV3_Default
 62
     7
100
AcDbCircle
 10
54.4105569053
 20
124.35
 30
0.0
 40
11.10236120674456
100
AcDbArc
 50
202.5988685712
 51
208.8503382544
  0
SPLINE
  5
25B
330
148
100
AcDbEntity
  8
DV3_Default
 62
     7
100
AcDbSpline
210
0.0
220
0.0
230
1.0
 70
     8
 71
     3
 72
     8
 73
     4
 74
     0
 42
0.000000001
 43
0.0000000001
 40
0.0
 40
0.0
 40
0.0
 40
0.0
 40
0.9999999999999999
 40
0.9999999999999999
 40
0.9999999999999999
 40
0.9999999999999999
 10
45.16655299519953
 20
117.9996011888751
 30
0.0
 10
45.17702856916217
 20
118.1104856423644
 30
0.0
 10
45.15000859567686
 20
118.2248573140285
 30
0.0
 10
45.08878748268245
 20
118.3194909670098
 30
0.0
  0
SPLINE
  5
25C
330
148
100
AcDbEntity
  8
DV3_Default
 62
     7
100
AcDbSpline
210
0.0
220
0.0
230
1.0
 70
     8
 71
     3
 72
    10
 73
     6
 74
     0
 42
0.000000001
 43
0.0000000001
 40
0.0
 40
0.0
 40
0.0
 40
0.0
 40
0.6883180976154918
 40
0.6883180976154918
 40
1.0
 40
1.0
 40
1.0
 40
1.0
 10
45.15326091368046
 20
118.3163468011544
 30
0.0
 10
45.20419506791518
 20
118.2381996942039
 30
0.0
 10
45.23208094870417
 20
118.1471002477748
 30
0.0
 10
45.2352168053071
 20
118.0133862018649
 30
0.0
 10
45.23077800056689
 20
117.9713940476992
 30
0.0
 10
45.22128977358469
 20
117.9305381732341
 30
0.0
  0
ARC
  5
25D
330
148
100
AcDbEntity
  8
DV3_Default
 62
     7
100
AcDbCircle
 10
44.0767229519
 20
128.45
 30
0.0
 40
0.0999999999999961
100
AcDbArc
 50
105.0
 51
223.707146129
  0
LINE
  5
25E
330
148
100
AcDbEntity
  8
DV3_Default
 62
     7
100
AcDbLine
 10
44.0508410474
 20
120.1534074174
 30
0.0
 11
44.0942137091
 21
120.1417857477
 31
0.0
  0
ARC
  5
25F
330
148
100
AcDbEntity
  8
DV3_Default
 62
     7
100
AcDbCircle
 10
44.7426107936
 20
118.15
 30
0.0
 40
0.3023612067445535
100
AcDbArc
 50
354.2066094013
 51
46.239416055
  0
ARC
  5
260
330
148
100
AcDbEntity
  8
DV3_Default
 62
     7
100
AcDbCircle
 10
44.7426107936
 20
130.55
 30
0.0
 40
0.3023612067445547
100
AcDbArc
 50
313.7605839265
 51
5.7933905986
  0
LINE
  5
261
330
148
100
AcDbEntity
  8
DV3_Default
 62
     7
100
AcDbLine
 10
47.6697373716
 20
133.3568780392
 30
0.0
 11
48.1230869341
 21
133.4368157988
 31
0.0
  0
LINE
  5
262
330
148
100
AcDbEntity
  8
DV3_Default
 62
     7
100
AcDbLine
 10
48.1230869341
 20
115.2631842012
 30
0.0
 11
47.6697373716
 21
115.3431219608
 31
0.0
  0
ARC
  5
263
330
148
100
AcDbEntity
  8
DV3_Default
 62
     7
100
AcDbCircle
 10
44.7426107936
 20
130.55
 30
0.0
 40
0.2500000000000022
100
AcDbArc
 50
327.2736119146
 51
346.9479145835
  0
ARC
  5
264
330
148
100
AcDbEntity
  8
DV3_Default
 62
     7
100
AcDbCircle
 10
44.7426107936
 20
118.15
 30
0.0
 40
0.2500000000000006
100
AcDbArc
 50
13.0520854166
 51
32.7263880854
  0
ARC
  5
265
330
148
100
AcDbEntity
  8
DV3_Default
 62
     7
100
AcDbCircle
 10
54.4105569053
 20
124.35
 30
0.0
 40
11.16344961357225
100
AcDbArc
 50
161.0693997189
 51
167.9707133465
  0
ARC
  5
266
330
148
100
AcDbEntity
  8
DV3_Default
 62
     7
100
AcDbCircle
 10
54.4105569053
 20
124.35
 30
0.0
 40
11.16344961357225
100
AcDbArc
 50
172.0292866535
 51
187.9707133466
  0
ARC
  5
267
330
148
100
AcDbEntity
  8
DV3_Default
 62
     7
100
AcDbCircle
 10
54.4105569053
 20
124.35
 30
0.0
 40
11.16344961357225
100
AcDbArc
 50
192.0292866535
 51
198.9306002811
  0
LINE
  5
268
330
148
100
AcDbEntity
  8
DV3_Default
 62
     7
100
AcDbLine
 10
43.8509134147
 20
127.9716759418
 30
0.0
 11
43.8513750134
 21
127.9730385743
 31
0.0
  0
SPLINE
  5
269
330
148
100
AcDbEntity
  8
DV3_Default
 62
     7
100
AcDbSpline
210
0.0
220
0.0
230
1.0
 70
     8
 71
     3
 72
    10
 73
     6
 74
     0
 42
0.000000001
 43
0.0000000001
 40
0.0
 40
0.0
 40
0.0
 40
0.0
 40
0.3438939297744746
 40
0.3438939297744746
 40
1.0
 40
1.0
 40
1.0
 40
1.0
 10
43.87783637605465
 20
128.2492363440429
 30
0.0
 10
43.8986616618193
 20
128.2313309982323
 30
0.0
 10
43.91580898584657
 20
128.2092718188735
 30
0.0
 10
43.95045174762922
 20
128.1375065676079
 30
0.0
 10
43.95385076227526
 20
128.0812899946042
 30
0.0
 10
43.93629255116338
 20
128.0313327213304
 30
0.0
  0
ARC
  5
26A
330
148
100
AcDbEntity
  8
DV3_Default
 62
     7
100
AcDbCircle
 10
43.6615784608
 20
128.0365594111
 30
0.0
 40
0.2001440184161671
100
AcDbArc
 50
341.4957109931
 51
26.6699017524
  0
LINE
  5
26B
330
148
100
AcDbEntity
  8
DV3_Default
 62
     7
100
AcDbLine
 10
43.8513750134
 20
120.7269614257
 30
0.0
 11
43.8509134147
 21
120.7283240582
 31
0.0
  0
SPLINE
  5
26C
330
148
100
AcDbEntity
  8
DV3_Default
 62
     7
100
AcDbSpline
210
0.0
220
0.0
230
1.0
 70
     8
 71
     3
 72
    10
 73
     6
 74
     0
 42
0.000000001
 43
0.0000000001
 40
0.0
 40
0.0
 40
0.0
 40
0.0
 40
0.6227975094218725
 40
0.6227975094218725
 40
1.0
 40
1.0
 40
1.0
 40
1.0
 10
43.93629255116338
 20
120.6686672786697
 30
0.0
 10
43.9538507666668
 20
120.618709992901
 30
0.0
 10
43.95048030118656
 20
120.5626388372827
 30
0.0
 10
43.91403881877255
 20
120.4870090875065
 30
0.0
 10
43.89325708273239
 20
120.4619449739545
 30
0.0
 10
43.86789008112505
 20
120.4427566697469
 30
0.0
  0
ARC
  5
26D
330
148
100
AcDbEntity
  8
DV3_Default
 62
     7
100
AcDbCircle
 10
43.6615784608
 20
120.6634405889
 30
0.0
 40
0.2001440184161634
100
AcDbArc
 50
329.4331400655
 51
18.5042890069
  0
LINE
  5
26E
330
148
100
AcDbEntity
  8
DV3_Default
 62
     7
100
AcDbLine
 10
44.0942137091
 20
128.5582142523
 30
0.0
 11
44.0508410474
 21
128.5465925826
 31
0.0
  0
LINE
  5
26F
330
148
100
AcDbEntity
  8
DV3_Default
 62
     7
100
AcDbLine
 10
44.1581384021
 20
128.5753428222
 30
0.0
 11
44.0942137091
 21
128.5582142523
 31
0.0
  0
ARC
  5
270
330
148
100
AcDbEntity
  8
DV3_Default
 62
     7
100
AcDbCircle
 10
54.4105569053
 20
124.35
 30
0.0
 40
11.10236120674455
100
AcDbArc
 50
151.1496617456
 51
157.4011314288
  0
ARC
  5
271
330
148
100
AcDbEntity
  8
DV3_Default
 62
     7
100
AcDbCircle
 10
54.4105569053
 20
124.35
 30
0.0
 40
11.10236120674455
100
AcDbArc
 50
147.100060903
 51
148.8503382544
  0
SPLINE
  5
272
330
148
100
AcDbEntity
  8
DV3_Default
 62
     7
100
AcDbSpline
210
0.0
220
0.0
230
1.0
 70
     8
 71
     3
 72
    14
 73
    10
 74
     0
 42
0.000000001
 43
0.0000000001
 40
0.0
 40
0.0
 40
0.0
 40
0.0
 40
0.3693510188842678
 40
0.3693510188842678
 40
0.3693510188842678
 40
0.7387026667456569
 40
0.7387026667456569
 40
0.7387026667456569
 40
1.0
 40
1.0
 40
1.0
 40
1.0
 10
44.09421370907561
 20
128.5582142523096
 30
0.0
 10
44.10502589812818
 20
128.5611113696347
 30
0.0
 10
44.11548701157736
 20
128.5659151521052
 30
0.0
 10
44.12473075391222
 20
128.572227833671
 30
0.0
 10
44.13397450500867
 20
128.5785405212201
 30
0.0
 10
44.14225584286603
 20
128.5865362371481
 30
0.0
 10
44.1488888777502
 20
128.5955528776894
 30
0.0
 10
44.15361479643281
 20
128.6019770727573
 30
0.0
 10
44.15759464886717
 20
128.6090201852326
 30
0.0
 10
44.16065935419196
 20
128.616383076712
 30
0.0
  0
SPLINE
  5
273
330
148
100
AcDbEntity
  8
DV3_Default
 62
     7
100
AcDbSpline
210
0.0
220
0.0
230
1.0
 70
     8
 71
     3
 72
    17
 73
    13
 74
     0
 42
0.000000001
 43
0.0000000001
 40
0.0
 40
0.0
 40
0.0
 40
0.0
 40
0.3704740216768417
 40
0.3704740216768417
 40
0.3704740216768417
 40
0.7409469996338024
 40
0.7409469996338024
 40
0.7409469996338024
 40
0.8511898540501919
 40
0.8511898540501919
 40
0.8511898540501919
 40
1.0
 40
1.0
 40
1.0
 40
1.0
 10
44.22444431236968
 20
128.6331775873273
 30
0.0
 10
44.22010573650892
 20
128.6228597283757
 30
0.0
 10
44.21392586686321
 20
128.6131486773123
 30
0.0
 10
44.2064165642613
 20
128.6048485671758
 30
0.0
 10
44.19890727442778
 20
128.5965484711524
 30
0.0
 10
44.18986145579915
 20
128.5894303820115
 30
0.0
 10
44.18002817891185
 20
128.5840836359487
 30
0.0
 10
44.1770637369025
 20
128.582471750224
 30
0.0
 10
44.17401372044943
 20
128.5810082169171
 30
0.0
 10
44.17090152094736
 20
128.57970425899
 30
0.0
 10
44.16675486255207
 20
128.577966880624
 30
0.0
 10
44.16248112330175
 20
128.5765064508209
 30
0.0
 10
44.15813840205828
 20
128.5753428221707
 30
0.0
  0
ARC
  5
274
330
148
100
AcDbEntity
  8
DV3_Default
 62
     7
100
AcDbCircle
 10
54.4105569053
 20
124.35
 30
0.0
 40
11.10236120674455
100
AcDbArc
 50
199.3647676494
 51
200.7111972028
  0
ARC
  5
275
330
148
100
AcDbEntity
  8
DV3_Default
 62
     7
100
AcDbCircle
 10
44.0767229519
 20
120.25
 30
0.0
 40
0.100000000000002
100
AcDbArc
 50
136.292853871
 51
255.0
  0
ARC
  5
276
330
148
100
AcDbEntity
  8
DV3_Default
 62
     7
100
AcDbCircle
 10
44.0767229519
 20
120.25
 30
0.0
 40
0.0999999999999406
100
AcDbArc
 50
120.4948583907
 51
136.292853871
  0
SPLINE
  5
277
330
148
100
AcDbEntity
  8
DV3_Default
 62
     7
100
AcDbSpline
210
0.0
220
0.0
230
1.0
 70
     8
 71
     3
 72
    17
 73
    13
 74
     0
 42
0.000000001
 43
0.0000000001
 40
0.0
 40
0.0
 40
0.0
 40
0.0
 40
0.3003307594140257
 40
0.3003307594140257
 40
0.3003307594140257
 40
0.6006619135221273
 40
0.6006619135221273
 40
0.6006619135221273
 40
0.9009867913718517
 40
0.9009867913718517
 40
0.9009867913718517
 40
1.0
 40
1.0
 40
1.0
 40
1.0
 10
44.00443485476621
 20
120.3190972576682
 30
0.0
 10
44.01216911316036
 20
120.3271886760643
 30
0.0
 10
44.0186130572195
 20
120.3367269919444
 30
0.0
 10
44.02323304490897
 20
120.3469223594374
 30
0.0
 10
44.02785303597788
 20
120.3571177343881
 30
0.0
 10
44.03077649054195
 20
120.368251373631
 30
0.0
 10
44.03176123574178
 20
120.3794012733953
 30
0.0
 10
44.03274596010353
 20
120.3905509372177
 30
0.0
 10
44.03181921063069
 20
120.4020244014238
 30
0.0
 10
44.02905765464435
 20
120.4128714514356
 30
0.0
 10
44.02813554807289
 20
120.4164933718841
 30
0.0
 10
44.02700830396594
 20
120.420069112848
 30
0.0
 10
44.02568652354729
 20
120.4235650368731
 30
0.0
  0
SPLINE
  5
278
330
148
100
AcDbEntity
  8
DV3_Default
 62
     7
100
AcDbSpline
210
0.0
220
0.0
230
1.0
 70
     8
 71
     3
 72
    20
 73
    16
 74
     0
 42
0.000000001
 43
0.0000000001
 40
0.0
 40
0.0
 40
0.0
 40
0.0
 40
0.1083046782554411
 40
0.1083046782554411
 40
0.1083046782554411
 40
0.2760392661165372
 40
0.2760392661165372
 40
0.2760392661165372
 40
0.5173632356826914
 40
0.5173632356826914
 40
0.5173632356826914
 40
0.7586814280630536
 40
0.7586814280630536
 40
0.7586814280630536
 40
1.0
 40
1.0
 40
1.0
 40
1.0
 10
44.02597684786595
 20
120.3361674702456
 30
0.0
 10
44.03030512325161
 20
120.3387164961394
 30
0.0
 10
44.03445249378177
 20
120.3416006736429
 30
0.0
 10
44.03834863412319
 20
120.3447710981096
 30
0.0
 10
44.04442714213159
 20
120.349717390805
 30
0.0
 10
44.04995774742066
 20
120.3554218808456
 30
0.0
 10
44.05471355264102
 20
120.3616505554833
 30
0.0
 10
44.06150582691465
 20
120.3705463921587
 30
0.0
 10
44.06685597724659
 20
120.3807375308134
 30
0.0
 10
44.07032093282079
 20
120.3913801330719
 30
0.0
 10
44.07378580526634
 20
120.4020224800009
 30
0.0
 10
44.07546112593489
 20
120.413409778404
 30
0.0
 10
44.07520809881617
 20
120.4245990977086
 30
0.0
 10
44.07495507146843
 20
120.4357884271405
 30
0.0
 10
44.07276670652404
 20
120.4470883853655
 30
0.0
 10
44.06882418235058
 20
120.4575631941521
 30
0.0
  0
ARC
  5
279
330
148
100
AcDbEntity
  8
DV3_Default
 62
     7
100
AcDbCircle
 10
54.4105569053
 20
124.35
 30
0.0
 40
11.05
100
AcDbArc
 50
159.3745912613
 51
200.6254087387
  0
SPLINE
  5
27A
330
148
100
AcDbEntity
  8
DV3_Default
 62
     7
100
AcDbSpline
210
0.0
220
0.0
230
1.0
 70
     8
 71
     3
 72
    17
 73
    13
 74
     0
 42
0.000000001
 43
0.0000000001
 40
0.0
 40
0.0
 40
0.0
 40
0.0
 40
0.3003103270688549
 40
0.3003103270688549
 40
0.3003103270688549
 40
0.6006199634810996
 40
0.6006199634810996
 40
0.6006199634810996
 40
0.9009396986206882
 40
0.9009396986206882
 40
0.9009396986206882
 40
1.0
 40
1.0
 40
1.0
 40
1.0
 10
44.02568652354729
 20
128.276434963127
 30
0.0
 10
44.02964484481989
 20
128.28690416833
 30
0.0
 10
44.03185016676022
 20
128.2982011807983
 30
0.0
 10
44.03211993981341
 20
128.3093904518819
 30
0.0
 10
44.03238971249927
 20
128.3205797077292
 30
0.0
 10
44.03073139282466
 20
128.3319698288287
 30
0.0
 10
44.02728237706344
 20
128.3426176696426
 30
0.0
 10
44.02383324623047
 20
128.3532658657073
 30
0.0
 10
44.01849817713826
 20
128.3634654111195
 30
0.0
 10
44.0117189773709
 20
128.3723717590495
 30
0.0
 10
44.00945423946006
 20
128.375347116687
 30
0.0
 10
44.00701855552357
 20
128.378199728963
 30
0.0
 10
44.00443485476621
 20
128.3809027423319
 30
0.0
  0
ARC
  5
27B
330
148
100
AcDbEntity
  8
DV3_Default
 62
     7
100
AcDbCircle
 10
44.0767229519
 20
128.45
 30
0.0
 40
0.0999999999962331
100
AcDbArc
 50
223.7071461287
 51
239.5051416096
  0
SPLINE
  5
27C
330
148
100
AcDbEntity
  8
DV3_Default
 62
     7
100
AcDbSpline
210
0.0
220
0.0
230
1.0
 70
     8
 71
     3
 72
    20
 73
    16
 74
     0
 42
0.000000001
 43
0.0000000001
 40
0.0
 40
0.0
 40
0.0
 40
0.0
 40
0.2413185719434299
 40
0.2413185719434299
 40
0.2413185719434299
 40
0.4826367643302837
 40
0.4826367643302837
 40
0.4826367643302837
 40
0.7239607339029256
 40
0.7239607339029256
 40
0.7239607339029256
 40
0.8916953217685082
 40
0.8916953217685082
 40
0.8916953217685082
 40
1.0
 40
1.0
 40
1.0
 40
1.0
 10
44.06882418235058
 20
128.242436805848
 30
0.0
 10
44.07276670652404
 20
128.2529116146347
 30
0.0
 10
44.07495507146843
 20
128.2642115728596
 30
0.0
 10
44.07520809881617
 20
128.2754009022916
 30
0.0
 10
44.07546112593489
 20
128.2865902215961
 30
0.0
 10
44.07378580526634
 20
128.2979775199992
 30
0.0
 10
44.07032093282079
 20
128.3086198669283
 30
0.0
 10
44.06685597724659
 20
128.3192624691868
 30
0.0
 10
44.06150582691465
 20
128.3294536078415
 30
0.0
 10
44.05471355264101
 20
128.3383494445168
 30
0.0
 10
44.04995774742065
 20
128.3445781191545
 30
0.0
 10
44.04442714213159
 20
128.3502826091952
 30
0.0
 10
44.03834863412319
 20
128.3552289018905
 30
0.0
 10
44.03445249378274
 20
128.3583993263564
 30
0.0
 10
44.03030512325368
 20
128.3612835038594
 30
0.0
 10
44.02597684786595
 20
128.3638325297545
 30
0.0
  0
ARC
  5
27D
330
148
100
AcDbEntity
  8
DV3_Default
 62
     7
100
AcDbCircle
 10
54.4105569053
 20
124.35
 30
0.0
 40
11.05
100
AcDbArc
 50
202.8063579875
 51
213.0952126632
  0
LINE
  5
27E
330
148
100
AcDbEntity
  8
DV3_Default
 62
     7
100
AcDbLine
 10
44.0942137091
 20
120.1417857477
 30
0.0
 11
44.1581384021
 21
120.1246571778
 31
0.0
  0
SPLINE
  5
27F
330
148
100
AcDbEntity
  8
DV3_Default
 62
     7
100
AcDbSpline
210
0.0
220
0.0
230
1.0
 70
     8
 71
     3
 72
    14
 73
    10
 74
     0
 42
0.000000001
 43
0.0000000001
 40
0.0
 40
0.0
 40
0.0
 40
0.0
 40
0.3693283177888251
 40
0.3693283177888251
 40
0.3693283177888251
 40
0.7386555981411516
 40
0.7386555981411516
 40
0.7386555981411516
 40
1.0
 40
1.0
 40
1.0
 40
1.0
 10
44.16065935419196
 20
120.0836169232881
 30
0.0
 10
44.15635817472936
 20
120.0939504184403
 30
0.0
 10
44.15021351747796
 20
120.1036837782258
 30
0.0
 10
44.1427343271151
 20
120.1120110213678
 30
0.0
 10
44.13525514942761
 20
120.1203382503972
 30
0.0
 10
44.12623517327374
 20
120.1274890451203
 30
0.0
 10
44.11642133000365
 20
120.1328713608356
 30
0.0
 10
44.10942745024443
 20
120.136707092455
 30
0.0
 10
44.10191857620761
 20
120.1397212347647
 30
0.0
 10
44.09421370907561
 20
120.1417857476905
 30
0.0
  0
SPLINE
  5
280
330
148
100
AcDbEntity
  8
DV3_Default
 62
     7
100
AcDbSpline
210
0.0
220
0.0
230
1.0
 70
     8
 71
     3
 72
    17
 73
    13
 74
     0
 42
0.000000001
 43
0.0000000001
 40
0.0
 40
0.0
 40
0.0
 40
0.0
 40
0.1488101459346884
 40
0.1488101459346884
 40
0.1488101459346884
 40
0.2590530003530583
 40
0.2590530003530583
 40
0.2590530003530583
 40
0.6295259783165918
 40
0.6295259783165918
 40
0.6295259783165918
 40
1.0
 40
1.0
 40
1.0
 40
1.0
 10
44.15813840205828
 20
120.1246571778294
 30
0.0
 10
44.16248112330276
 20
120.1234935491789
 30
0.0
 10
44.16675486255256
 20
120.122033119376
 30
0.0
 10
44.17090152094736
 20
120.1202957410102
 30
0.0
 10
44.17401372044943
 20
120.1189917830831
 30
0.0
 10
44.17706373690249
 20
120.1175282497762
 30
0.0
 10
44.18002817891185
 20
120.1159163640515
 30
0.0
 10
44.18986145579915
 20
120.1105696179887
 30
0.0
 10
44.19890727442778
 20
120.1034515288478
 30
0.0
 10
44.2064165642613
 20
120.0951514328243
 30
0.0
 10
44.21392586686321
 20
120.0868513226879
 30
0.0
 10
44.22010573650892
 20
120.0771402716245
 30
0.0
 10
44.22444431236968
 20
120.0668224126729
 30
0.0
  0
LINE
  5
281
330
148
100
AcDbEntity
  8
DV3_Default
 62
     7
100
AcDbLine
 10
7.8225147228
 20
125.5904561072
 30
0.0
 11
7.8225147228
 21
125.7863648912
 31
0.0
  0
LINE
  5
282
330
148
100
AcDbEntity
  8
DV3_Default
 62
     7
100
AcDbLine
 10
7.8225147228
 20
125.7863648912
 30
0.0
 11
7.8225147228
 21
125.8207871159
 31
0.0
  0
LINE
  5
283
330
148
100
AcDbEntity
  8
DV3_Default
 62
     7
100
AcDbLine
 10
7.8225147228
 20
122.8792128841
 30
0.0
 11
7.8225147228
 21
122.9136351088
 31
0.0
  0
LINE
  5
284
330
148
100
AcDbEntity
  8
DV3_Default
 62
     7
100
AcDbLine
 10
7.8225147228
 20
122.9136351088
 30
0.0
 11
7.8225147228
 21
123.1095438925
 31
0.0
  0
LINE
  5
285
330
148
100
AcDbEntity
  8
DV3_Default
 62
     7
100
AcDbLine
 10
7.8225147228
 20
125.5904561072
 30
0.0
 11
7.8225147228
 21
123.1095438925
 31
0.0
  0
LINE
  5
286
330
148
100
AcDbEntity
  8
DV3_Default
 62
     7
100
AcDbLine
 10
37.1805569053
 20
126.4774625676
 30
0.0
 11
37.1805569053
 21
126.0163965583
 31
0.0
  0
LINE
  5
287
330
148
100
AcDbEntity
  8
DV3_Default
 62
     7
100
AcDbLine
 10
37.1805569053
 20
122.6836034778
 30
0.0
 11
37.1805569053
 21
126.0163965583
 31
0.0
  0
LINE
  5
288
330
148
100
AcDbEntity
  8
DV3_Default
 62
     7
100
AcDbLine
 10
37.1805569053
 20
122.6836034778
 30
0.0
 11
37.1805569053
 21
122.2225374355
 31
0.0
  0
LINE
  5
289
330
148
100
AcDbEntity
  8
DV3_Default
 62
     7
100
AcDbLine
 10
37.1805569053
 20
122.2225374355
 30
0.0
 11
37.1805569053
 21
121.9957499814
 31
0.0
  0
LINE
  5
28A
330
148
100
AcDbEntity
  8
DV3_Default
 62
     7
100
AcDbLine
 10
37.1805569053
 20
121.9957499814
 30
0.0
 11
37.1805569053
 21
119.9159506258
 31
0.0
  0
LINE
  5
28B
330
148
100
AcDbEntity
  8
DV3_Default
 62
     7
100
AcDbLine
 10
37.1805569053
 20
141.8473751282
 30
0.0
 11
37.1805569053
 21
128.7840493742
 31
0.0
  0
LINE
  5
28C
330
148
100
AcDbEntity
  8
DV3_Default
 62
     7
100
AcDbLine
 10
37.1805569053
 20
119.9159506258
 30
0.0
 11
37.1805569053
 21
106.8526248718
 31
0.0
  0
LINE
  5
28D
330
148
100
AcDbEntity
  8
DV3_Default
 62
     7
100
AcDbLine
 10
37.1805569053
 20
128.7840493742
 30
0.0
 11
37.1805569053
 21
126.7042500186
 31
0.0
  0
LINE
  5
28E
330
148
100
AcDbEntity
  8
DV3_Default
 62
     7
100
AcDbLine
 10
37.1805569053
 20
126.7042500186
 30
0.0
 11
37.1805569053
 21
126.4774625676
 31
0.0
  0
ARC
  5
28F
330
148
100
AcDbEntity
  8
DV3_Default
 62
     7
100
AcDbCircle
 10
127.589994297
 20
124.35
 30
0.0
 40
121.239994297011
100
AcDbArc
 50
173.6046308787
 51
180.0
  0
ARC
  5
290
330
148
100
AcDbEntity
  8
DV3_Default
 62
     7
100
AcDbCircle
 10
127.589994297
 20
124.35
 30
0.0
 40
121.239994297011
100
AcDbArc
 50
180.0
 51
186.3953691213
  0
ARC
  5
291
330
148
100
AcDbEntity
  8
DV3_Default
 62
     7
100
AcDbCircle
 10
61.6662847114
 20
116.9608663962
 30
0.0
 40
54.9034675493182
100
AcDbArc
 50
186.3953691213
 51
190.1089908333
  0
ARC
  5
292
330
148
100
AcDbEntity
  8
DV3_Default
 62
     7
100
AcDbCircle
 10
61.6662847114
 20
131.7391336038
 30
0.0
 40
54.9034675493182
100
AcDbArc
 50
169.8910091667
 51
173.6046308787
  0
LINE
  5
293
330
148
100
AcDbEntity
  8
DV3_Default
 62
     7
100
AcDbLine
 10
36.6779389234
 20
142.3473682743
 30
0.0
 11
8.5943975406
 21
142.2003218517
 31
0.0
  0
LINE
  5
294
330
148
100
AcDbEntity
  8
DV3_Default
 62
     7
100
AcDbLine
 10
8.5943975406
 20
106.4996781483
 30
0.0
 11
36.6779389234
 21
106.3526317257
 31
0.0
  0
ARC
  5
295
330
148
100
AcDbEntity
  8
DV3_Default
 62
     7
100
AcDbCircle
 10
8.5996335045
 20
141.2003355472
 30
0.0
 40
1.000000012234467
100
AcDbArc
 50
90.3
 51
169.8910091667
  0
ARC
  5
296
330
148
100
AcDbEntity
  8
DV3_Default
 62
     7
100
AcDbCircle
 10
8.5996335045
 20
107.4996644528
 30
0.0
 40
1.000000012234464
100
AcDbArc
 50
190.1089908333
 51
269.7
  0
ARC
  5
297
330
148
100
AcDbEntity
  8
DV3_Default
 62
     7
100
AcDbCircle
 10
36.6805569053
 20
106.8526248718
 30
0.0
 40
0.5000000000000134
100
AcDbArc
 50
269.7
 51
0.0
  0
ARC
  5
298
330
148
100
AcDbEntity
  8
DV3_Default
 62
     7
100
AcDbCircle
 10
36.6805569053
 20
141.8473751282
 30
0.0
 40
0.499999999999997
100
AcDbArc
 50
0.0
 51
90.3
  0
LINE
  5
299
330
148
100
AcDbEntity
  8
DV3_Default
 62
     7
100
AcDbLine
 10
70.4105569053
 20
142.05
 30
0.0
 11
70.4105569053
 21
106.65
 31
0.0
  0
LINE
  5
29A
330
148
100
AcDbEntity
  8
DV3_Default
 62
     7
100
AcDbLine
 10
38.4105569053
 20
106.65
 30
0.0
 11
38.4105569053
 21
142.05
 31
0.0
  0
LINE
  5
29B
330
148
100
AcDbEntity
  8
DV3_Default
 62
     7
100
AcDbLine
 10
38.7105569053
 20
106.35
 30
0.0
 11
70.1105569053
 21
106.35
 31
0.0
  0
LINE
  5
29C
330
148
100
AcDbEntity
  8
DV3_Default
 62
     7
100
AcDbLine
 10
70.1105569053
 20
142.35
 30
0.0
 11
66.0911864258
 21
142.35
 31
0.0
  0
LINE
  5
29D
330
148
100
AcDbEntity
  8
DV3_Default
 62
     7
100
AcDbLine
 10
42.7299273847
 20
142.35
 30
0.0
 11
38.7105569053
 21
142.35
 31
0.0
  0
ARC
  5
29E
330
148
100
AcDbEntity
  8
DV3_Default
 62
     7
100
AcDbCircle
 10
70.1105569053
 20
106.65
 30
0.0
 40
0.2999999999999947
100
AcDbArc
 50
270.0
 51
0.0
  0
ARC
  5
29F
330
148
100
AcDbEntity
  8
DV3_Default
 62
     7
100
AcDbCircle
 10
70.1105569053
 20
142.05
 30
0.0
 40
0.3000000000000017
100
AcDbArc
 50
0.0
 51
90.0
  0
ARC
  5
2A0
330
148
100
AcDbEntity
  8
DV3_Default
 62
     7
100
AcDbCircle
 10
38.7105569053
 20
106.65
 30
0.0
 40
0.3000000000000017
100
AcDbArc
 50
180.0
 51
270.0
  0
ARC
  5
2A1
330
148
100
AcDbEntity
  8
DV3_Default
 62
     7
100
AcDbCircle
 10
38.7105569053
 20
142.05
 30
0.0
 40
0.3000000000000017
100
AcDbArc
 50
90.0
 51
180.0
  0
LINE
  5
2A2
330
148
100
AcDbEntity
  8
DV3_Default
 62
     7
100
AcDbLine
 10
70.6105569053
 20
107.65
 30
0.0
 11
71.2605569053
 21
107.65
 31
0.0
  0
LINE
  5
2A3
330
148
100
AcDbEntity
  8
DV3_Default
 62
     7
100
AcDbLine
 10
71.2605569053
 20
141.05
 30
0.0
 11
70.6105569053
 21
141.05
 31
0.0
  0
LINE
  5
2A4
330
148
100
AcDbEntity
  8
DV3_Default
 62
     7
100
AcDbLine
 10
37.1805569053
 20
107.65
 30
0.0
 11
38.2105569053
 21
107.65
 31
0.0
  0
LINE
  5
2A5
330
148
100
AcDbEntity
  8
DV3_Default
 62
     7
100
AcDbLine
 10
38.2105569053
 20
141.05
 30
0.0
 11
37.1805569053
 21
141.05
 31
0.0
  0
ARC
  5
2A6
330
148
100
AcDbEntity
  8
DV3_Default
 62
     7
100
AcDbCircle
 10
70.6105569053
 20
107.45
 30
0.0
 40
0.1999999999999988
100
AcDbArc
 50
90.0
 51
180.0
  0
ARC
  5
2A7
330
148
100
AcDbEntity
  8
DV3_Default
 62
     7
100
AcDbCircle
 10
70.6105569053
 20
141.25
 30
0.0
 40
0.1999999999999919
100
AcDbArc
 50
180.0
 51
270.0
  0
ARC
  5
2A8
330
148
100
AcDbEntity
  8
DV3_Default
 62
     7
100
AcDbCircle
 10
38.2105569053
 20
107.45
 30
0.0
 40
0.1999999999999919
100
AcDbArc
 50
0.0
 51
90.0
  0
ARC
  5
2A9
330
148
100
AcDbEntity
  8
DV3_Default
 62
     7
100
AcDbCircle
 10
38.2105569053
 20
141.25
 30
0.0
 40
0.1999999999999988
100
AcDbArc
 50
270.0
 51
0.0
  0
LINE
  5
2AA
330
148
100
AcDbEntity
  8
DV3_Default
 62
     7
100
AcDbLine
 10
71.2605569053
 20
106.55
 30
0.0
 11
71.2605569053
 21
142.15
 31
0.0
  0
LINE
  5
2AB
330
148
100
AcDbEntity
  8
DV3_Default
 62
     7
100
AcDbLine
 10
116.7605569053
 20
133.35
 30
0.0
 11
113.6881115768
 21
133.35
 31
0.0
  0
ARC
  5
2AC
330
148
100
AcDbEntity
  8
DV3_Default
 62
     7
100
AcDbCircle
 10
116.7605569053
 20
114.35
 30
0.0
 40
1.0
100
AcDbArc
 50
0.0
 51
90.0
  0
ARC
  5
2AD
330
148
100
AcDbEntity
  8
DV3_Default
 62
     7
100
AcDbCircle
 10
116.7605569053
 20
134.35
 30
0.0
 40
1.000000000000008
100
AcDbArc
 50
270.0
 51
0.0
  0
LINE
  5
2AE
330
148
100
AcDbEntity
  8
DV3_Default
 62
     7
100
AcDbLine
 10
117.7605569053
 20
106.85
 30
0.0
 11
117.7605569053
 21
114.35
 31
0.0
  0
LINE
  5
2AF
330
148
100
AcDbEntity
  8
DV3_Default
 62
     7
100
AcDbLine
 10
117.7605569053
 20
134.35
 30
0.0
 11
117.7605569053
 21
141.85
 31
0.0
  0
LINE
  5
2B0
330
148
100
AcDbEntity
  8
DV3_Default
 62
     7
100
AcDbLine
 10
113.6881115768
 20
133.35
 30
0.0
 11
113.5485853793
 21
133.35
 31
0.0
  0
SPLINE
  5
2B1
330
148
100
AcDbEntity
  8
DV3_Default
 62
     7
100
AcDbSpline
210
0.0
220
0.0
230
1.0
 70
     8
 71
     3
 72
    40
 73
    36
 74
     0
 42
0.000000001
 43
0.0000000001
 40
0.0
 40
0.0
 40
0.0
 40
0.0
 40
0.0625000000000002
 40
0.0625000000000002
 40
0.1250000000000004
 40
0.1250000000000004
 40
0.1562500000000005
 40
0.1562500000000005
 40
0.1875000000000006
 40
0.1875000000000006
 40
0.2500000000000005
 40
0.2500000000000005
 40
0.3125000000000004
 40
0.3125000000000004
 40
0.3750000000000003
 40
0.3750000000000003
 40
0.4375000000000002
 40
0.4375000000000002
 40
0.5000000000000001
 40
0.5000000000000001
 40
0.5625
 40
0.5625
 40
0.6249999999999999
 40
0.6249999999999999
 40
0.6874999999999999
 40
0.6874999999999999
 40
0.7499999999999998
 40
0.7499999999999998
 40
0.8124999999999998
 40
0.8124999999999998
 40
0.8749999999999999
 40
0.8749999999999999
 40
0.9375
 40
0.9375
 40
1.0
 40
1.0
 40
1.0
 40
1.0
 10
113.1809084975104
 20
133.5020676228546
 30
0.0
 10
112.3039146266391
 20
134.3589477144117
 30
0.0
 10
111.3066232245146
 20
135.0902030721632
 30
0.0
 10
109.1311633247904
 20
136.2587156904236
 30
0.0
 10
107.9601024772757
 20
136.7019957494694
 30
0.0
 10
105.9816535975327
 20
137.1238934811462
 30
0.0
 10
105.3087428119665
 20
137.2170852643096
 30
0.0
 10
103.9309983591567
 20
137.3033604805759
 30
0.0
 10
103.2255530214923
 20
137.294332854904
 30
0.0
 10
101.1838373260545
 20
137.1167147681261
 30
0.0
 10
99.88384326132669
 20
136.7983490313039
 30
0.0
 10
97.53650367274561
 20
135.8726868071547
 30
0.0
 10
96.45924161957447
 20
135.2579011193195
 30
0.0
 10
94.53047419945965
 20
133.7755381183066
 30
0.0
 10
93.6522395316613
 20
132.8849093024262
 30
0.0
 10
92.16980750810009
 20
130.8477293216262
 30
0.0
 10
91.55256107993371
 20
129.6799638539339
 30
0.0
 10
90.70017157493042
 20
127.1458933964524
 30
0.0
 10
90.46472069814595
 20
125.758158957116
 30
0.0
 10
90.45747177925955
 20
123.0089880386862
 30
0.0
 10
90.68537414110834
 20
121.6192087581395
 30
0.0
 10
91.52771582768067
 20
119.0737515120115
 30
0.0
 10
92.13909262305057
 20
117.9027961983982
 30
0.0
 10
93.6258371018311
 20
115.8433693111035
 30
0.0
 10
94.49220659533425
 20
114.9596526795376
 30
0.0
 10
96.42120059497985
 20
113.4657793218838
 30
0.0
 10
97.49975422357952
 20
112.846321196094
 30
0.0
 10
99.83855379278079
 20
111.9151501937762
 30
0.0
 10
101.1359783471779
 20
111.5918355789574
 30
0.0
 10
103.8672376745274
 20
111.3455943440511
 30
0.0
 10
105.2899295824355
 20
111.4325470726033
 30
0.0
 10
107.9160320151931
 20
111.9847710717847
 30
0.0
 10
109.1189365146373
 20
112.435249273687
 30
0.0
 10
111.3100333509932
 20
113.6110983648556
 30
0.0
 10
112.2911945424229
 20
114.3286239354143
 30
0.0
 10
113.1809084975103
 20
115.1979323771456
 30
0.0
  0
ARC
  5
2B2
330
148
100
AcDbEntity
  8
DV3_Default
 62
     7
100
AcDbCircle
 10
113.5539396583
 20
133.8834736531
 30
0.0
 40
0.5335005218666826
100
AcDbArc
 50
225.6360038556
 51
269.4249626279
  0
ARC
  5
2B3
330
148
100
AcDbEntity
  8
DV3_Default
 62
     7
100
AcDbCircle
 10
113.5520353024
 20
114.8211307962
 30
0.0
 40
0.528880455994487
100
AcDbArc
 50
90.3737469023
 51
134.5652866143
  0
LINE
  5
2B4
330
148
100
AcDbEntity
  8
DV3_Default
 62
     7
100
AcDbLine
 10
113.6881115768
 20
115.35
 30
0.0
 11
116.7605569053
 21
115.35
 31
0.0
  0
LINE
  5
2B5
330
148
100
AcDbEntity
  8
DV3_Default
 62
     7
100
AcDbLine
 10
113.5485853793
 20
115.35
 30
0.0
 11
113.6881115768
 21
115.35
 31
0.0
  0
LINE
  5
2B6
330
148
100
AcDbEntity
  8
DV3_Default
 62
     7
100
AcDbLine
 10
71.4605569053
 20
106.35
 30
0.0
 11
117.2605569053
 21
106.35
 31
0.0
  0
LINE
  5
2B7
330
148
100
AcDbEntity
  8
DV3_Default
 62
     7
100
AcDbLine
 10
117.2605569053
 20
142.35
 30
0.0
 11
71.4605569053
 21
142.35
 31
0.0
  0
ARC
  5
2B8
330
148
100
AcDbEntity
  8
DV3_Default
 62
     7
100
AcDbCircle
 10
71.4605569053
 20
106.55
 30
0.0
 40
0.1999999999999988
100
AcDbArc
 50
180.0
 51
270.0
  0
ARC
  5
2B9
330
148
100
AcDbEntity
  8
DV3_Default
 62
     7
100
AcDbCircle
 10
71.4605569053
 20
142.15
 30
0.0
 40
0.1999999999999988
100
AcDbArc
 50
90.0
 51
180.0
  0
ARC
  5
2BA
330
148
100
AcDbEntity
  8
DV3_Default
 62
     7
100
AcDbCircle
 10
117.2605569053
 20
106.85
 30
0.0
 40
0.5000000000000004
100
AcDbArc
 50
270.0
 51
0.0
  0
ARC
  5
2BB
330
148
100
AcDbEntity
  8
DV3_Default
 62
     7
100
AcDbCircle
 10
117.2605569053
 20
141.85
 30
0.0
 40
0.5000000000000004
100
AcDbArc
 50
0.0
 51
90.0
  0
LINE
  5
2BC
330
148
100
AcDbEntity
  8
DV3_Default
 62
     7
100
AcDbLine
 10
113.5468067682
 20
133.35
 30
0.0
 11
112.6696698009
 21
133.35
 31
0.0
  0
LINE
  5
2BD
330
148
100
AcDbEntity
  8
DV3_Default
 62
     7
100
AcDbLine
 10
113.5468213363
 20
115.35
 30
0.0
 11
112.6696698009
 21
115.35
 31
0.0
  0
SPLINE
  5
2BE
330
148
100
AcDbEntity
  8
DV3_Default
 62
     7
100
AcDbSpline
210
0.0
220
0.0
230
1.0
 70
     8
 71
     3
 72
    30
 73
    26
 74
     0
 42
0.000000001
 43
0.0000000001
 40
0.0
 40
0.0
 40
0.0
 40
0.0
 40
0.0625000000000001
 40
0.0625000000000001
 40
0.1250000000000003
 40
0.1250000000000003
 40
0.1875000000000002
 40
0.1875000000000002
 40
0.2500000000000001
 40
0.2500000000000001
 40
0.3750000000000001
 40
0.3750000000000001
 40
0.5
 40
0.5
 40
0.625
 40
0.625
 40
0.75
 40
0.75
 40
0.8125
 40
0.8125
 40
0.875
 40
0.875
 40
0.9375000000000001
 40
0.9375000000000001
 40
1.0
 40
1.0
 40
1.0
 40
1.0
 10
107.9574248428464
 20
114.9123713555849
 30
0.0
 10
107.2040757648123
 20
114.5594688177329
 30
0.0
 10
106.3800523697798
 20
114.2895434106366
 30
0.0
 10
104.6591618422368
 20
113.9769540139401
 30
0.0
 10
103.7468008743397
 20
113.9357892263833
 30
0.0
 10
101.9926121162293
 20
114.0973397733506
 30
0.0
 10
101.133642493669
 20
114.2991029766138
 30
0.0
 10
99.56328391940458
 20
114.8800605726958
 30
0.0
 10
98.82689497845645
 20
115.265653338511
 30
0.0
 10
96.82473586565479
 20
116.6332281852934
 30
0.0
 10
95.71108340213269
 20
117.8554352980874
 30
0.0
 10
94.11887925533819
 20
120.774463138765
 30
0.0
 10
93.63736635730996
 20
122.5402737714275
 30
0.0
 10
93.62794416174164
 20
126.1040047952308
 30
0.0
 10
94.0878043420087
 20
127.8528105802419
 30
0.0
 10
95.69833162111266
 20
130.8365210798249
 30
0.0
 10
96.81089342957291
 20
132.0537509745178
 30
0.0
 10
98.81096330911454
 20
133.4252170507496
 30
0.0
 10
99.54788402260567
 20
133.812962495382
 30
0.0
 10
101.1225286589803
 20
134.3980437796711
 30
0.0
 10
101.9810402777105
 20
134.6007068342443
 30
0.0
 10
103.7389311069414
 20
134.7643639444089
 30
0.0
 10
104.6526002815981
 20
134.7237650652532
 30
0.0
 10
106.3763639968905
 20
134.4115965457366
 30
0.0
 10
107.2023467047779
 20
134.1413411516321
 30
0.0
 10
107.9574248428464
 20
133.7876286444153
 30
0.0
  0
ARC
  5
2BF
330
148
100
AcDbEntity
  8
DV3_Default
 62
     7
100
AcDbCircle
 10
109.8239462209
 20
111.1515203836
 30
0.0
 40
4.198559525382818
100
AcDbArc
 50
89.6465027617
 51
116.395339754
  0
LINE
  5
2C0
330
148
100
AcDbEntity
  8
DV3_Default
 62
     7
100
AcDbLine
 10
109.8498498703
 20
115.35
 30
0.0
 11
112.6696698009
 21
115.35
 31
0.0
  0
LINE
  5
2C1
330
148
100
AcDbEntity
  8
DV3_Default
 62
     7
100
AcDbLine
 10
112.6696698009
 20
133.35
 30
0.0
 11
109.8498498703
 21
133.35
 31
0.0
  0
ARC
  5
2C2
330
148
100
AcDbEntity
  8
DV3_Default
 62
     7
100
AcDbCircle
 10
109.8239462209
 20
137.5484796164
 30
0.0
 40
4.198559525382681
100
AcDbArc
 50
243.604660246
 51
270.3534972383
  0
LINE
  5
2C3
330
148
100
AcDbEntity
  8
DV3_Default
 62
     7
100
AcDbLine
 10
108.0011992773
 20
133.7655645656
 30
0.0
 11
108.0176409832
 21
133.7570885656
 31
0.0
  0
LINE
  5
2C4
330
148
100
AcDbEntity
  8
DV3_Default
 62
     7
100
AcDbLine
 10
108.0164218337
 20
114.9404461277
 30
0.0
 11
108.0017024333
 21
114.9340798915
 31
0.0
  0
LINE
  5
2C5
330
148
100
AcDbEntity
  8
DV3_Default
 62
     7
100
AcDbLine
 10
74.4105564582
 20
183.85
 30
0.0
 11
34.4105573523
 21
183.85
 31
0.0
  0
LINE
  5
2C6
330
148
100
AcDbEntity
  8
DV3_Default
 62
     7
100
AcDbLine
 10
54.4105569053
 20
203.849999553
 30
0.0
 11
54.4105569053
 21
163.850000447
 31
0.0
  0
ENDBLK
  5
2C8
330
148
100
AcDbEntity
  8
0
100
AcDbBlockEnd
  0
ENDSEC
  0
SECTION
  2
ENTITIES
  0
INSERT
  5
70
330
1F
100
AcDbEntity
  8
Default
100
AcDbBlockReference
  2
SE
 10
0.0
 20
0.0
 30
0.0
  0
INSERT
  5
E4
330
1F
100
AcDbEntity
  8
Default
100
AcDbBlockReference
  2
SE1
 10
0.0
 20
0.0
 30
0.0
  0
INSERT
  5
149
330
1F
100
AcDbEntity
  8
Default
100
AcDbBlockReference
  2
SE2
 10
0.0
 20
0.0
 30
0.0
  0
MTEXT
  5
2C9
330
1F
100
AcDbEntity
  8
Default
100
AcDbMText
 10
5.9362635081
 20
63.4225120485
 30
0.0
 40
10.0
 41
113.8626497168
 46
65.4545454545
 71
     1
 72
     1
  1
{\fArial Narrow|b0||i0||c0|p34;\C7;\H10.;\W1.;Grohe AG\P}{\fArial Narrow|b0||i0||c0|p34;\C7;\H10.;\W1.;\P}{\fArial Narrow|b0||i0||c0|p34;\C7;\H10.;\W1.;ecn:\P}{\fArial Narrow|b0||i0||c0|p34;\C7;\H10.;\W1.;unit: mm}
 73
     1
 44
1.0
1001
ACAD
1000
ACAD_MTEXT_DEFINED_HEIGHT_BEGIN
1070
    46
1040
65.4545454545
1000
ACAD_MTEXT_DEFINED_HEIGHT_END
  0
LINE
  5
2CA
330
1F
100
AcDbEntity
  8
Default
 62
     7
100
AcDbLine
 10
0.0
 20
0.0
 30
0.0
 11
100.0
 21
0.0
 31
0.0
  0
LINE
  5
2CB
330
1F
100
AcDbEntity
  8
Default
 62
     7
100
AcDbLine
 10
0.0
 20
0.0
 30
0.0
 11
0.0
 21
100.0
 31
0.0
  0
MTEXT
  5
2CC
330
1F
100
AcDbEntity
  8
Default
100
AcDbMText
 10
24.3923665681
 20
-8.2375342018
 30
0.0
 40
10.0
 41
35.00001
 46
16.3636363636
 71
     1
 72
     1
  1
{\fArial Narrow|b0||i0||c0|p34;\C7;\H10.;\W0.82;100 mm}
 73
     1
 44
1.0
1001
ACAD
1000
ACAD_MTEXT_DEFINED_HEIGHT_BEGIN
1070
    46
1040
16.3636363636
1000
ACAD_MTEXT_DEFINED_HEIGHT_END
  0
MTEXT
  5
2CD
330
1F
100
AcDbEntity
  8
Default
100
AcDbMText
 10
-17.6150308803
 20
24.6231930421
 30
0.0
 40
10.0
 41
35.00001
 46
16.3636363636
 71
     1
 72
     1
  1
{\fArial Narrow|b0||i0||c0|p34;\C7;\H10.;\W0.82;100 mm}
 11
6.123233995736766E-17
 21
1.0
 31
0.0
 73
     1
 44
1.0
1001
ACAD
1000
ACAD_MTEXT_DEFINED_HEIGHT_BEGIN
1070
    46
1040
16.3636363636
1000
ACAD_MTEXT_DEFINED_HEIGHT_END
  0
MTEXT
  5
2CE
330
1F
100
AcDbEntity
  8
Default
100
AcDbMText
 10
28.4878128572
 20
24.8634936442
 30
0.0
 40
10.0
 41
86.691737001
 46
16.3636363636
 71
     4
 72
     1
  1
{\fArial Narrow|b0||i0||c0|p34;\C7;\H10.;\W1.;254058}
 73
     1
 44
1.0
1001
ACAD
1000
ACAD_MTEXT_DEFINED_HEIGHT_BEGIN
1070
    46
1040
16.3636363636
1000
ACAD_MTEXT_DEFINED_HEIGHT_END
  0
MTEXT
  5
2CF
330
1F
100
AcDbEntity
  8
Default
100
AcDbMText
 10
5.9012241913
 20
41.4970052916
 30
0.0
 40
10.0
 41
109.9146987306
 46
16.3636363636
 71
     4
 72
     1
  1
{\fArial Narrow|b0||i0||c0|p34;\C7;\H10.;\W1.;27724001}
 73
     1
 44
1.0
1001
ACAD
1000
ACAD_MTEXT_DEFINED_HEIGHT_BEGIN
1070
    46
1040
16.3636363636
1000
ACAD_MTEXT_DEFINED_HEIGHT_END
  0
ENDSEC
  0
SECTION
  2
OBJECTS
  0
DICTIONARY
  5
C
330
0
100
AcDbDictionary
281
     1
  3
ACAD_DETAILVIEWSTYLE
350
30B
  3
ACAD_GROUP
350
D
  3
ACAD_LAYOUT
350
1A
  3
ACAD_MATERIAL
350
43
  3
ACAD_MLEADERSTYLE
350
6B
  3
ACAD_MLINESTYLE
350
17
  3
ACAD_PLOTSETTINGS
350
19
  3
ACAD_PLOTSTYLENAME
350
E
  3
ACAD_SCALELIST
350
47
  3
ACAD_SECTIONVIEWSTYLE
350
30C
  3
ACAD_TABLESTYLE
350
69
  3
ACAD_VISUALSTYLE
350
2A
  3
ACDB_RECOMPOSE_DATA
350
308
  3
AcDbVariableDictionary
350
2D0
  0
SUN
  5
6D
330
29
100
AcDbSun
 90
        1
290
     0
 63
     7
421
 16777215
 40
1.0
291
     1
 91
  2455826
 92
 54000000
292
     0
 70
     2
 71
   256
280
     1
  0
DICTIONARY
  5
30B
102
{ACAD_REACTORS
330
C
102
}
330
C
100
AcDbDictionary
281
     1
  0
DICTIONARY
  5
D
102
{ACAD_REACTORS
330
C
102
}
330
C
100
AcDbDictionary
281
     1
  0
DICTIONARY
  5
1A
102
{ACAD_REACTORS
330
C
102
}
330
C
100
AcDbDictionary
281
     1
  3
Layout1
350
1E
  3
Model
350
22
  0
DICTIONARY
  5
43
102
{ACAD_REACTORS
330
C
102
}
330
C
100
AcDbDictionary
281
     1
  3
ByBlock
350
45
  3
ByLayer
350
44
  3
Global
350
46
  0
DICTIONARY
  5
6B
102
{ACAD_REACTORS
330
C
102
}
330
C
100
AcDbDictionary
281
     1
  3
Standard
350
6C
  0
DICTIONARY
  5
17
102
{ACAD_REACTORS
330
C
102
}
330
C
100
AcDbDictionary
281
     1
  3
Standard
350
18
  0
DICTIONARY
  5
19
102
{ACAD_REACTORS
330
C
102
}
330
C
100
AcDbDictionary
281
     1
  0
ACDBDICTIONARYWDFLT
  5
E
102
{ACAD_REACTORS
330
C
102
}
330
C
100
AcDbDictionary
281
     1
  3
Normal
350
F
100
AcDbDictionaryWithDefault
340
F
  0
DICTIONARY
  5
47
102
{ACAD_REACTORS
330
C
102
}
330
C
100
AcDbDictionary
281
     1
  3
A0
350
48
  3
A1
350
49
  3
A2
350
4A
  3
A3
350
4B
  3
A4
350
4C
  3
A5
350
4D
  3
A6
350
4E
  3
A7
350
4F
  3
A8
350
50
  3
A9
350
51
  3
B0
350
52
  3
B1
350
53
  3
B2
350
54
  3
B3
350
55
  3
B4
350
56
  3
B5
350
57
  3
B6
350
58
  3
B7
350
59
  3
B8
350
5A
  3
B9
350
5B
  3
C0
350
5C
  3
C1
350
5D
  3
C2
350
5E
  3
C3
350
5F
  3
C4
350
60
  3
C5
350
61
  3
C6
350
62
  3
C7
350
63
  3
C8
350
64
  3
C9
350
65
  3
D0
350
66
  3
D1
350
67
  3
D2
350
68
  0
DICTIONARY
  5
30C
102
{ACAD_REACTORS
330
C
102
}
330
C
100
AcDbDictionary
281
     1
  0
DICTIONARY
  5
69
102
{ACAD_REACTORS
330
C
102
}
330
C
100
AcDbDictionary
281
     1
  3
Standard
350
6A
  0
DICTIONARY
  5
2A
102
{ACAD_REACTORS
330
C
102
}
330
C
100
AcDbDictionary
281
     1
  3
2dWireframe
350
2F
  3
Basic
350
32
  3
Brighten
350
36
  3
ColorChange
350
3A
  3
Conceptual
350
34
  3
Dim
350
35
  3
EdgeColorOff
350
3D
  3
Facepattern
350
39
  3
Flat
350
2B
  3
FlatWithEdges
350
2C
  3
Gouraud
350
2D
  3
GouraudWithEdges
350
2E
  3
Hidden
350
31
  3
JitterOff
350
3B
  3
Linepattern
350
38
  3
OverhangOff
350
3C
  3
Realistic
350
33
  3
Shaded
350
42
  3
Shaded with edges
350
41
  3
Shades of Gray
350
3E
  3
Sketchy
350
3F
  3
Thicken
350
37
  3
Wireframe
350
30
  3
X-Ray
350
40
  0
XRECORD
  5
308
102
{ACAD_REACTORS
330
C
102
}
330
C
100
AcDbXrecord
280
     1
 90
        1
330
6A
  0
DICTIONARY
  5
2D0
102
{ACAD_REACTORS
330
C
102
}
330
C
100
AcDbDictionary
281
     1
  3
CANNOSCALE
350
2D1
  3
CENTEREXE
350
30D
  3
CENTERLTYPEFILE
350
30E
  3
CMLEADERSTYLE
350
30A
  3
CTABLESTYLE
350
309
  3
XCLIPFRAME
350
2D2
  0
LAYOUT
  5
1E
102
{ACAD_REACTORS
330
1A
102
}
330
1A
100
AcDbPlotSettings
  1

  2
none_device
  4

  6

 40
0.0
 41
0.0
 42
0.0
 43
0.0
 44
0.0
 45
0.0
 46
0.0
 47
0.0
 48
0.0
 49
0.0
140
0.0
141
0.0
142
1.0
143
1.0
 70
   688
 72
     1
 73
     0
 74
     5
  7

 75
    16
 76
     0
 77
     2
 78
   300
147
1.0
148
0.0
149
0.0
100
AcDbLayout
  1
Layout1
 70
     1
 71
     1
 10
0.0
 20
0.0
 11
3000.0
 21
4500.0
 12
0.0
 22
0.0
 32
0.0
 14
0.0
 24
0.0
 34
0.0
 15
3000.0
 25
4500.0
 35
0.0
146
0.0
 13
0.0
 23
0.0
 33
0.0
 16
1.0
 26
0.0
 36
0.0
 17
0.0
 27
1.0
 37
0.0
 76
     0
330
1B
  0
LAYOUT
  5
22
102
{ACAD_REACTORS
330
1A
102
}
330
1A
100
AcDbPlotSettings
  1

  2
none_device
  4
Letter_(8.50_x_11.00_Inches)
  6

 40
6.35
 41
6.35
 42
6.35000508
 43
6.35000508
 44
215.9
 45
279.4
 46
0.0
 47
0.0
 48
0.0
 49
0.0
140
0.0
141
0.0
142
1.0
143
1.0
 70
  1712
 72
     1
 73
     0
 74
     0
  7

 75
     0
 76
     0
 77
     2
 78
   300
147
1.0
148
0.0
149
0.0
100
AcDbLayout
  1
Model
 70
     1
 71
     0
 10
0.0
 20
0.0
 11
3000.0
 21
4500.0
 12
0.0
 22
0.0
 32
0.0
 14
0.0
 24
0.0
 34
0.0
 15
3000.0
 25
4500.0
 35
0.0
146
0.0
 13
0.0
 23
0.0
 33
0.0
 16
1.0
 26
0.0
 36
0.0
 17
0.0
 27
1.0
 37
0.0
 76
     0
330
1F
331
29
  0
MATERIAL
  5
45
102
{ACAD_REACTORS
330
43
102
}
330
43
100
AcDbMaterial
  1
ByBlock
 72
     1
 94
      127
  0
MATERIAL
  5
44
102
{ACAD_REACTORS
330
43
102
}
330
43
100
AcDbMaterial
  1
ByLayer
 72
     1
 94
      127
  0
MATERIAL
  5
46
102
{ACAD_REACTORS
330
43
102
}
330
43
100
AcDbMaterial
  1
Global
 72
     1
 94
      127
  0
MLEADERSTYLE
  5
6C
102
{ACAD_REACTORS
330
6B
102
}
102
{ACAD_XDICTIONARY
360
306
102
}
330
6B
100
AcDbMLeaderStyle
170
     2
171
     1
172
     0
 90
        2
 40
0.0
 41
0.0
173
     1
 91
-1056964608
340
14
 92
       -2
290
     1
 42
2.0
291
     1
 43
8.0
  3
Standard
341
0
 44
4.0
300

342
11
174
     1
178
     6
175
     1
176
     0
 93
-1056964608
 45
4.0
292
     0
297
     0
 46
4.0
343
0
 94
-1056964608
 47
1.0
 49
1.0
140
1.0
293
     1
141
0.0
294
     1
177
     0
142
1.0
295
     0
296
     0
143
3.75
1001
ACAD_MLEADERVER
1070
     2
  0
MLINESTYLE
  5
18
102
{ACAD_REACTORS
330
17
102
}
330
17
100
AcDbMlineStyle
  2
Standard
 70
     0
  3

 62
   256
 51
90.0
 52
90.0
 71
     2
 49
0.5
 62
   256
  6
BYLAYER
 49
-0.5
 62
   256
  6
BYLAYER
  0
ACDBPLACEHOLDER
  5
F
102
{ACAD_REACTORS
330
E
102
}
330
E
  0
SCALE
  5
48
102
{ACAD_REACTORS
330
47
102
}
330
47
100
AcDbScale
 70
     0
300
1:1
140
1.0
141
1.0
290
     1
  0
SCALE
  5
49
102
{ACAD_REACTORS
330
47
102
}
330
47
100
AcDbScale
 70
     0
300
1:2
140
1.0
141
2.0
290
     0
  0
SCALE
  5
4A
102
{ACAD_REACTORS
330
47
102
}
330
47
100
AcDbScale
 70
     0
300
1:4
140
1.0
141
4.0
290
     0
  0
SCALE
  5
4B
102
{ACAD_REACTORS
330
47
102
}
330
47
100
AcDbScale
 70
     0
300
1:5
140
1.0
141
5.0
290
     0
  0
SCALE
  5
4C
102
{ACAD_REACTORS
330
47
102
}
330
47
100
AcDbScale
 70
     0
300
1:8
140
1.0
141
8.0
290
     0
  0
SCALE
  5
4D
102
{ACAD_REACTORS
330
47
102
}
330
47
100
AcDbScale
 70
     0
300
1:10
140
1.0
141
10.0
290
     0
  0
SCALE
  5
4E
102
{ACAD_REACTORS
330
47
102
}
330
47
100
AcDbScale
 70
     0
300
1:16
140
1.0
141
16.0
290
     0
  0
SCALE
  5
4F
102
{ACAD_REACTORS
330
47
102
}
330
47
100
AcDbScale
 70
     0
300
1:20
140
1.0
141
20.0
290
     0
  0
SCALE
  5
50
102
{ACAD_REACTORS
330
47
102
}
330
47
100
AcDbScale
 70
     0
300
1:30
140
1.0
141
30.0
290
     0
  0
SCALE
  5
51
102
{ACAD_REACTORS
330
47
102
}
330
47
100
AcDbScale
 70
     0
300
1:40
140
1.0
141
40.0
290
     0
  0
SCALE
  5
52
102
{ACAD_REACTORS
330
47
102
}
330
47
100
AcDbScale
 70
     0
300
1:50
140
1.0
141
50.0
290
     0
  0
SCALE
  5
53
102
{ACAD_REACTORS
330
47
102
}
330
47
100
AcDbScale
 70
     0
300
1:100
140
1.0
141
100.0
290
     0
  0
SCALE
  5
54
102
{ACAD_REACTORS
330
47
102
}
330
47
100
AcDbScale
 70
     0
300
2:1
140
2.0
141
1.0
290
     0
  0
SCALE
  5
55
102
{ACAD_REACTORS
330
47
102
}
330
47
100
AcDbScale
 70
     0
300
4:1
140
4.0
141
1.0
290
     0
  0
SCALE
  5
56
102
{ACAD_REACTORS
330
47
102
}
330
47
100
AcDbScale
 70
     0
300
8:1
140
8.0
141
1.0
290
     0
  0
SCALE
  5
57
102
{ACAD_REACTORS
330
47
102
}
330
47
100
AcDbScale
 70
     0
300
10:1
140
10.0
141
1.0
290
     0
  0
SCALE
  5
58
102
{ACAD_REACTORS
330
47
102
}
330
47
100
AcDbScale
 70
     0
300
100:1
140
100.0
141
1.0
290
     0
  0
SCALE
  5
59
102
{ACAD_REACTORS
330
47
102
}
330
47
100
AcDbScale
 70
     0
300
1/128" = 1'-0"
140
0.0078125
141
12.0
290
     0
  0
SCALE
  5
5A
102
{ACAD_REACTORS
330
47
102
}
330
47
100
AcDbScale
 70
     0
300
1/64" = 1'-0"
140
0.015625
141
12.0
290
     0
  0
SCALE
  5
5B
102
{ACAD_REACTORS
330
47
102
}
330
47
100
AcDbScale
 70
     0
300
1/32" = 1'-0"
140
0.03125
141
12.0
290
     0
  0
SCALE
  5
5C
102
{ACAD_REACTORS
330
47
102
}
330
47
100
AcDbScale
 70
     0
300
1/16" = 1'-0"
140
0.0625
141
12.0
290
     0
  0
SCALE
  5
5D
102
{ACAD_REACTORS
330
47
102
}
330
47
100
AcDbScale
 70
     0
300
3/32" = 1'-0"
140
0.09375
141
12.0
290
     0
  0
SCALE
  5
5E
102
{ACAD_REACTORS
330
47
102
}
330
47
100
AcDbScale
 70
     0
300
1/8" = 1'-0"
140
0.125
141
12.0
290
     0
  0
SCALE
  5
5F
102
{ACAD_REACTORS
330
47
102
}
330
47
100
AcDbScale
 70
     0
300
3/16" = 1'-0"
140
0.1875
141
12.0
290
     0
  0
SCALE
  5
60
102
{ACAD_REACTORS
330
47
102
}
330
47
100
AcDbScale
 70
     0
300
1/4" = 1'-0"
140
0.25
141
12.0
290
     0
  0
SCALE
  5
61
102
{ACAD_REACTORS
330
47
102
}
330
47
100
AcDbScale
 70
     0
300
3/8" = 1'-0"
140
0.375
141
12.0
290
     0
  0
SCALE
  5
62
102
{ACAD_REACTORS
330
47
102
}
330
47
100
AcDbScale
 70
     0
300
1/2" = 1'-0"
140
0.5
141
12.0
290
     0
  0
SCALE
  5
63
102
{ACAD_REACTORS
330
47
102
}
330
47
100
AcDbScale
 70
     0
300
3/4" = 1'-0"
140
0.75
141
12.0
290
     0
  0
SCALE
  5
64
102
{ACAD_REACTORS
330
47
102
}
330
47
100
AcDbScale
 70
     0
300
1" = 1'-0"
140
1.0
141
12.0
290
     0
  0
SCALE
  5
65
102
{ACAD_REACTORS
330
47
102
}
330
47
100
AcDbScale
 70
     0
300
1-1/2" = 1'-0"
140
1.5
141
12.0
290
     0
  0
SCALE
  5
66
102
{ACAD_REACTORS
330
47
102
}
330
47
100
AcDbScale
 70
     0
300
3" = 1'-0"
140
3.0
141
12.0
290
     0
  0
SCALE
  5
67
102
{ACAD_REACTORS
330
47
102
}
330
47
100
AcDbScale
 70
     0
300
6" = 1'-0"
140
6.0
141
12.0
290
     0
  0
SCALE
  5
68
102
{ACAD_REACTORS
330
47
102
}
330
47
100
AcDbScale
 70
     0
300
1'-0" = 1'-0"
140
12.0
141
12.0
290
     0
  0
TABLESTYLE
  5
6A
102
{ACAD_REACTORS
330
69
102
}
102
{ACAD_XDICTIONARY
360
303
102
}
330
69
100
AcDbTableStyle
  3
Standard
 70
     0
 71
     0
 40
0.06
 41
0.06
280
     0
281
     0
  7
Standard
140
4.5
170
     2
 62
     0
 63
   257
283
     0
 90
        4
 91
        0
  1

274
    -2
284
     1
 64
     0
275
    -2
285
     1
 65
     0
276
    -2
286
     1
 66
     0
277
    -2
287
     1
 67
     0
278
    -2
288
     1
 68
     0
279
    -2
289
     1
 69
     0
  7
Standard
140
6.0
170
     5
 62
     0
 63
   257
283
     0
 90
        4
 91
        0
  1

274
    -2
284
     1
 64
     0
275
    -2
285
     1
 65
     0
276
    -2
286
     1
 66
     0
277
    -2
287
     1
 67
     0
278
    -2
288
     1
 68
     0
279
    -2
289
     1
 69
     0
  7
Standard
140
4.5
170
     5
 62
     0
 63
   257
283
     0
 90
        4
 91
        0
  1

274
    -2
284
     1
 64
     0
275
    -2
285
     1
 65
     0
276
    -2
286
     1
 66
     0
277
    -2
287
     1
 67
     0
278
    -2
288
     1
 68
     0
279
    -2
289
     1
 69
     0
  0
VISUALSTYLE
  5
2F
102
{ACAD_REACTORS
330
2A
102
}
102
{ACAD_XDICTIONARY
360
2DB
102
}
330
2A
100
AcDbVisualStyle
  2
2dWireframe
 70
     4
 71
     0
 72
     2
 73
     0
 90
        0
 40
0.6
 41
30.0
 62
     5
 63
     7
421
 16777215
 74
     1
 91
        4
 64
     7
 65
   257
 75
     1
175
     1
 42
1.0
 92
        0
 66
   257
 43
1.0
 76
     1
 77
     6
 78
     2
 67
     7
 79
     5
170
     0
171
     0
290
     0
174
     0
 93
        1
 44
0.0
173
     0
291
     0
 45
0.0
  0
VISUALSTYLE
  5
32
102
{ACAD_REACTORS
330
2A
102
}
102
{ACAD_XDICTIONARY
360
2E1
102
}
330
2A
100
AcDbVisualStyle
  2
Basic
 70
     7
 71
     1
 72
     0
 73
     1
 90
        0
 40
0.6
 41
30.0
 62
     5
 63
     7
421
 16777215
 74
     0
 91
        4
 64
     7
 65
   257
 75
     1
175
     1
 42
1.0
 92
        8
 66
     7
 43
1.0
 76
     1
 77
     6
 78
     2
 67
     7
 79
     5
170
     0
171
     0
290
     0
174
     0
 93
        1
 44
0.0
173
     0
291
     1
 45
0.0
  0
VISUALSTYLE
  5
36
102
{ACAD_REACTORS
330
2A
102
}
102
{ACAD_XDICTIONARY
360
2E9
102
}
330
2A
100
AcDbVisualStyle
  2
Brighten
 70
    12
 71
     2
 72
     2
 73
     0
 90
        0
 40
0.6
 41
30.0
 62
     5
 63
     7
421
 16777215
 74
     1
 91
        4
 64
     7
 65
   257
 75
     1
175
     1
 42
1.0
 92
        8
 66
     7
 43
1.0
 76
     1
 77
     6
 78
     2
 67
     7
 79
     5
170
     0
171
     0
290
     0
174
     0
 93
        1
 44
50.0
173
     0
291
     1
 45
0.0
  0
VISUALSTYLE
  5
3A
102
{ACAD_REACTORS
330
2A
102
}
102
{ACAD_XDICTIONARY
360
2F1
102
}
330
2A
100
AcDbVisualStyle
  2
ColorChange
 70
    16
 71
     2
 72
     2
 73
     3
 90
        0
 40
0.6
 41
30.0
 62
     5
 63
     8
421
  8421504
 74
     1
 91
        4
 64
     7
 65
   257
 75
     1
175
     1
 42
1.0
 92
        8
 66
     8
424
  8421504
 43
1.0
 76
     1
 77
     6
 78
     2
 67
     7
 79
     5
170
     0
171
     0
290
     0
174
     0
 93
        1
 44
0.0
173
     0
291
     1
 45
0.0
  0
VISUALSTYLE
  5
34
102
{ACAD_REACTORS
330
2A
102
}
102
{ACAD_XDICTIONARY
360
2E5
102
}
330
2A
100
AcDbVisualStyle
  2
Conceptual
 70
     9
 71
     3
 72
     2
 73
     0
 90
        0
 40
0.6
 41
30.0
 62
     5
 63
     7
421
 16777215
 74
     2
 91
        2
 64
     7
 65
   257
 75
     1
175
     1
 42
179.0
 92
        8
 66
     7
 43
1.0
 76
     1
 77
     6
 78
     2
 67
     7
 79
     3
170
     0
171
     0
290
     0
174
     0
 93
        1
 44
0.0
173
     0
291
     0
 45
0.0
  0
VISUALSTYLE
  5
35
102
{ACAD_REACTORS
330
2A
102
}
102
{ACAD_XDICTIONARY
360
2E7
102
}
330
2A
100
AcDbVisualStyle
  2
Dim
 70
    11
 71
     2
 72
     2
 73
     0
 90
        0
 40
0.6
 41
30.0
 62
     5
 63
     7
421
 16777215
 74
     1
 91
        4
 64
     7
 65
   257
 75
     1
175
     1
 42
1.0
 92
        8
 66
     7
 43
1.0
 76
     1
 77
     6
 78
     2
 67
     7
 79
     5
170
     0
171
     0
290
     0
174
     0
 93
        1
 44
-50.0
173
     0
291
     1
 45
0.0
  0
VISUALSTYLE
  5
3D
102
{ACAD_REACTORS
330
2A
102
}
102
{ACAD_XDICTIONARY
360
2F7
102
}
330
2A
100
AcDbVisualStyle
  2
EdgeColorOff
 70
    22
 71
     2
 72
     2
 73
     0
 90
        0
 40
0.6
 41
30.0
 62
     5
 63
     7
421
 16777215
 74
     1
 91
        4
 64
     7
 65
   257
 75
     1
175
     1
 42
1.0
 92
        8
 66
     7
 43
1.0
 76
     1
 77
     6
 78
     2
 67
     7
 79
     5
170
     0
171
     0
290
     0
174
     0
 93
        1
 44
0.0
173
     0
291
     1
 45
0.0
  0
VISUALSTYLE
  5
39
102
{ACAD_REACTORS
330
2A
102
}
102
{ACAD_XDICTIONARY
360
2EF
102
}
330
2A
100
AcDbVisualStyle
  2
Facepattern
 70
    15
 71
     2
 72
     2
 73
     0
 90
        0
 40
0.6
 41
30.0
 62
     5
 63
     7
421
 16777215
 74
     1
 91
        4
 64
     7
 65
   257
 75
     1
175
     1
 42
1.0
 92
        8
 66
     7
 43
1.0
 76
     1
 77
     6
 78
     2
 67
     7
 79
     5
170
     0
171
     0
290
     0
174
     0
 93
        1
 44
0.0
173
     0
291
     1
 45
0.0
  0
VISUALSTYLE
  5
2B
102
{ACAD_REACTORS
330
2A
102
}
102
{ACAD_XDICTIONARY
360
2D3
102
}
330
2A
100
AcDbVisualStyle
  2
Flat
 70
     0
 71
     2
 72
     1
 73
     1
 90
        2
 40
0.6
 41
30.0
 62
     5
 63
     7
421
 16777215
 74
     0
 91
        0
 64
     7
 65
   257
 75
     1
175
     1
 42
1.0
 92
        8
 66
     7
 43
1.0
 76
     1
 77
     6
 78
     2
 67
     7
 79
     5
170
     0
171
     0
290
     0
174
     0
 93
       13
 44
0.0
173
     0
291
     1
 45
0.0
  0
VISUALSTYLE
  5
2C
102
{ACAD_REACTORS
330
2A
102
}
102
{ACAD_XDICTIONARY
360
2D5
102
}
330
2A
100
AcDbVisualStyle
  2
FlatWithEdges
 70
     1
 71
     2
 72
     1
 73
     1
 90
        2
 40
0.6
 41
30.0
 62
     5
 63
     7
421
 16777215
 74
     1
 91
        0
 64
     7
 65
   257
 75
     1
175
     1
 42
1.0
 92
        0
 66
   257
 43
1.0
 76
     1
 77
     6
 78
     2
 67
     7
 79
     5
170
     0
171
     0
290
     0
174
     0
 93
       13
 44
0.0
173
     0
291
     1
 45
0.0
  0
VISUALSTYLE
  5
2D
102
{ACAD_REACTORS
330
2A
102
}
102
{ACAD_XDICTIONARY
360
2D7
102
}
330
2A
100
AcDbVisualStyle
  2
Gouraud
 70
     2
 71
     2
 72
     2
 73
     1
 90
        2
 40
0.6
 41
30.0
 62
     5
 63
     7
421
 16777215
 74
     0
 91
        0
 64
     7
 65
   257
 75
     1
175
     1
 42
1.0
 92
        0
 66
     7
 43
1.0
 76
     1
 77
     6
 78
     2
 67
     7
 79
     5
170
     0
171
     0
290
     0
174
     0
 93
       13
 44
0.0
173
     0
291
     1
 45
0.0
  0
VISUALSTYLE
  5
2E
102
{ACAD_REACTORS
330
2A
102
}
102
{ACAD_XDICTIONARY
360
2D9
102
}
330
2A
100
AcDbVisualStyle
  2
GouraudWithEdges
 70
     3
 71
     2
 72
     2
 73
     1
 90
        2
 40
0.6
 41
30.0
 62
     5
 63
     7
421
 16777215
 74
     1
 91
        0
 64
     7
 65
   257
 75
     1
175
     1
 42
1.0
 92
        0
 66
   257
 43
1.0
 76
     1
 77
     6
 78
     2
 67
     7
 79
     5
170
     0
171
     0
290
     0
174
     0
 93
       13
 44
0.0
173
     0
291
     1
 45
0.0
  0
VISUALSTYLE
  5
31
102
{ACAD_REACTORS
330
2A
102
}
102
{ACAD_XDICTIONARY
360
2DF
102
}
330
2A
100
AcDbVisualStyle
  2
Hidden
 70
     6
 71
     1
 72
     2
 73
     2
 90
        0
 40
0.6
 41
30.0
 62
     5
 63
     7
421
 16777215
 74
     2
 91
        2
 64
     7
 65
   257
 75
     2
175
     1
 42
40.0
 92
        0
 66
   257
 43
1.0
 76
     1
 77
     6
 78
     2
 67
     7
 79
     3
170
     0
171
     0
290
     0
174
     0
 93
        1
 44
0.0
173
     0
291
     0
 45
0.0
  0
VISUALSTYLE
  5
3B
102
{ACAD_REACTORS
330
2A
102
}
102
{ACAD_XDICTIONARY
360
2F3
102
}
330
2A
100
AcDbVisualStyle
  2
JitterOff
 70
    20
 71
     2
 72
     2
 73
     0
 90
        0
 40
0.6
 41
30.0
 62
     5
 63
     7
421
 16777215
 74
     1
 91
        4
 64
     7
 65
   257
 75
     1
175
     1
 42
1.0
 92
       10
 66
     7
 43
1.0
 76
     1
 77
     6
 78
     2
 67
     7
 79
     5
170
     0
171
     0
290
     0
174
     0
 93
        1
 44
0.0
173
     0
291
     1
 45
0.0
  0
VISUALSTYLE
  5
38
102
{ACAD_REACTORS
330
2A
102
}
102
{ACAD_XDICTIONARY
360
2ED
102
}
330
2A
100
AcDbVisualStyle
  2
Linepattern
 70
    14
 71
     2
 72
     2
 73
     0
 90
        0
 40
0.6
 41
30.0
 62
     5
 63
     7
421
 16777215
 74
     1
 91
        4
 64
     7
 65
   257
 75
     7
175
     7
 42
1.0
 92
        8
 66
     7
 43
1.0
 76
     1
 77
     6
 78
     2
 67
     7
 79
     5
170
     0
171
     0
290
     0
174
     0
 93
        1
 44
0.0
173
     0
291
     1
 45
0.0
  0
VISUALSTYLE
  5
3C
102
{ACAD_REACTORS
330
2A
102
}
102
{ACAD_XDICTIONARY
360
2F5
102
}
330
2A
100
AcDbVisualStyle
  2
OverhangOff
 70
    21
 71
     2
 72
     2
 73
     0
 90
        0
 40
0.6
 41
30.0
 62
     5
 63
     7
421
 16777215
 74
     1
 91
        4
 64
     7
 65
   257
 75
     1
175
     1
 42
1.0
 92
        9
 66
     7
 43
1.0
 76
     1
 77
     6
 78
     2
 67
     7
 79
     5
170
     0
171
     0
290
     0
174
     0
 93
        1
 44
0.0
173
     0
291
     1
 45
0.0
  0
VISUALSTYLE
  5
33
102
{ACAD_REACTORS
330
2A
102
}
102
{ACAD_XDICTIONARY
360
2E3
102
}
330
2A
100
AcDbVisualStyle
  2
Realistic
 70
     8
 71
     2
 72
     3
 73
     0
 90
        2
 40
0.6
 41
30.0
 62
     5
 63
     7
421
 16777215
 74
     0
 91
        0
 64
     7
 65
   257
 75
     1
175
     1
 42
1.0
 92
        8
 66
   257
 43
1.0
 76
     1
 77
     6
 78
     2
 67
     7
 79
     3
170
     0
171
     0
290
     0
174
     0
 93
       13
 44
0.0
173
     0
291
     0
 45
0.0
  0
VISUALSTYLE
  5
42
102
{ACAD_REACTORS
330
2A
102
}
102
{ACAD_XDICTIONARY
360
301
102
}
330
2A
100
AcDbVisualStyle
  2
Shaded
 70
    27
 71
     2
 72
     2
 73
     1
 90
        2
 40
0.6
 41
30.0
 62
     5
 63
     7
421
 16777215
 74
     0
 91
        4
 64
     7
 65
   257
 75
     1
175
     1
 42
1.0
 92
        8
 66
   257
 43
1.0
 76
     1
 77
     6
 78
     2
 67
     8
425
  7895160
 79
     3
170
     0
171
     0
290
     0
174
     0
 93
        5
 44
0.0
173
     0
291
     0
 45
0.0
  0
VISUALSTYLE
  5
41
102
{ACAD_REACTORS
330
2A
102
}
102
{ACAD_XDICTIONARY
360
2FF
102
}
330
2A
100
AcDbVisualStyle
  2
Shaded with edges
 70
    26
 71
     2
 72
     2
 73
     1
 90
        2
 40
0.6
 41
30.0
 62
     5
 63
     7
421
 16777215
 74
     1
 91
       10
 64
     7
 65
   257
 75
     2
175
     1
 42
1.0
 92
        8
 66
   257
 43
1.0
 76
     1
 77
     6
 78
     2
 67
     7
 79
     3
170
     0
171
     0
290
     0
174
     0
 93
        5
 44
0.0
173
     0
291
     0
 45
0.0
  0
VISUALSTYLE
  5
3E
102
{ACAD_REACTORS
330
2A
102
}
102
{ACAD_XDICTIONARY
360
2F9
102
}
330
2A
100
AcDbVisualStyle
  2
Shades of Gray
 70
    23
 71
     2
 72
     2
 73
     3
 90
        0
 40
0.6
 41
30.0
 62
     5
 63
     7
421
 16777215
 74
     2
 91
        2
 64
     7
 65
     7
 75
     1
175
     1
 42
40.0
 92
        8
 66
     7
 43
1.0
 76
     1
 77
     6
 78
     2
 67
     7
 79
     3
170
     0
171
     0
290
     0
174
     0
 93
        1
 44
0.0
173
     0
291
     0
 45
0.0
  0
VISUALSTYLE
  5
3F
102
{ACAD_REACTORS
330
2A
102
}
102
{ACAD_XDICTIONARY
360
2FB
102
}
330
2A
100
AcDbVisualStyle
  2
Sketchy
 70
    24
 71
     1
 72
     2
 73
     2
 90
        0
 40
0.6
 41
30.0
 62
     5
 63
     7
421
 16777215
 74
     2
 91
        2
 64
     7
 65
     7
 75
     1
175
     1
 42
40.0
 92
       11
 66
     7
 43
1.0
 76
     1
 77
     6
 78
     2
 67
     7
 79
     6
170
     0
171
     0
290
     0
174
     0
 93
        1
 44
0.0
173
     0
291
     0
 45
0.0
  0
VISUALSTYLE
  5
37
102
{ACAD_REACTORS
330
2A
102
}
102
{ACAD_XDICTIONARY
360
2EB
102
}
330
2A
100
AcDbVisualStyle
  2
Thicken
 70
    13
 71
     2
 72
     2
 73
     0
 90
        0
 40
0.6
 41
30.0
 62
     5
 63
     7
421
 16777215
 74
     1
 91
        4
 64
     7
 65
   257
 75
     1
175
     1
 42
1.0
 92
       12
 66
     7
 43
1.0
 76
     1
 77
     6
 78
     2
 67
     7
 79
     5
170
     0
171
     0
290
     0
174
     0
 93
        1
 44
0.0
173
     0
291
     1
 45
0.0
  0
VISUALSTYLE
  5
30
102
{ACAD_REACTORS
330
2A
102
}
102
{ACAD_XDICTIONARY
360
2DD
102
}
330
2A
100
AcDbVisualStyle
  2
Wireframe
 70
     5
 71
     0
 72
     2
 73
     0
 90
        0
 40
0.6
 41
30.0
 62
     5
 63
     7
421
 16777215
 74
     1
 91
        4
 64
     7
 65
   257
 75
     1
175
     1
 42
1.0
 92
        0
 66
   257
 43
1.0
 76
     1
 77
     6
 78
     2
 67
     7
 79
     3
170
     0
171
     0
290
     0
174
     0
 93
        1
 44
0.0
173
     0
291
     0
 45
0.0
  0
VISUALSTYLE
  5
40
102
{ACAD_REACTORS
330
2A
102
}
102
{ACAD_XDICTIONARY
360
2FD
102
}
330
2A
100
AcDbVisualStyle
  2
X-Ray
 70
    25
 71
     2
 72
     2
 73
     1
 90
        1
 40
0.5
 41
30.0
 62
     5
 63
     7
421
 16777215
 74
     1
 91
        0
 64
     7
 65
   257
 75
     1
175
     1
 42
1.0
 92
        8
 66
     7
 43
1.0
 76
     1
 77
     6
 78
     2
 67
     7
 79
     3
170
     0
171
     0
290
     0
174
     0
 93
       13
 44
0.0
173
     0
291
     0
 45
0.0
  0
DICTIONARYVAR
  5
2D1
102
{ACAD_REACTORS
330
2D0
102
}
330
2D0
100
DictionaryVariables
280
     0
  1
1:1
  0
DICTIONARYVAR
  5
30D
102
{ACAD_REACTORS
330
2D0
102
}
330
2D0
100
DictionaryVariables
280
     0
  1
3.500000
  0
DICTIONARYVAR
  5
30E
102
{ACAD_REACTORS
330
2D0
102
}
330
2D0
100
DictionaryVariables
280
     0
  1
acadiso.lin
  0
DICTIONARYVAR
  5
30A
102
{ACAD_REACTORS
330
2D0
102
}
330
2D0
100
DictionaryVariables
280
     0
  1
Standard
  0
DICTIONARYVAR
  5
309
102
{ACAD_REACTORS
330
2D0
102
}
330
2D0
100
DictionaryVariables
280
     0
  1
Standard
  0
DICTIONARYVAR
  5
2D2
102
{ACAD_REACTORS
330
2D0
102
}
330
2D0
100
DictionaryVariables
280
     0
  1
2
  0
DICTIONARY
  5
306
330
6C
100
AcDbDictionary
280
     1
281
     1
  3
ACAD_XREC_ROUNDTRIP
360
307
  0
DICTIONARY
  5
303
330
6A
100
AcDbDictionary
280
     1
281
     1
  3
ACAD_ROUNDTRIP_2008_TABLESTYLE_CELLSTYLEMAP
360
304
  0
DICTIONARY
  5
2DB
330
2F
100
AcDbDictionary
280
     1
281
     1
  3
ACAD_XREC_ROUNDTRIP
360
2DC
  0
DICTIONARY
  5
2E1
330
32
100
AcDbDictionary
280
     1
281
     1
  3
ACAD_XREC_ROUNDTRIP
360
2E2
  0
DICTIONARY
  5
2E9
330
36
100
AcDbDictionary
280
     1
281
     1
  3
ACAD_XREC_ROUNDTRIP
360
2EA
  0
DICTIONARY
  5
2F1
330
3A
100
AcDbDictionary
280
     1
281
     1
  3
ACAD_XREC_ROUNDTRIP
360
2F2
  0
DICTIONARY
  5
2E5
330
34
100
AcDbDictionary
280
     1
281
     1
  3
ACAD_XREC_ROUNDTRIP
360
2E6
  0
DICTIONARY
  5
2E7
330
35
100
AcDbDictionary
280
     1
281
     1
  3
ACAD_XREC_ROUNDTRIP
360
2E8
  0
DICTIONARY
  5
2F7
330
3D
100
AcDbDictionary
280
     1
281
     1
  3
ACAD_XREC_ROUNDTRIP
360
2F8
  0
DICTIONARY
  5
2EF
330
39
100
AcDbDictionary
280
     1
281
     1
  3
ACAD_XREC_ROUNDTRIP
360
2F0
  0
DICTIONARY
  5
2D3
330
2B
100
AcDbDictionary
280
     1
281
     1
  3
ACAD_XREC_ROUNDTRIP
360
2D4
  0
DICTIONARY
  5
2D5
330
2C
100
AcDbDictionary
280
     1
281
     1
  3
ACAD_XREC_ROUNDTRIP
360
2D6
  0
DICTIONARY
  5
2D7
330
2D
100
AcDbDictionary
280
     1
281
     1
  3
ACAD_XREC_ROUNDTRIP
360
2D8
  0
DICTIONARY
  5
2D9
330
2E
100
AcDbDictionary
280
     1
281
     1
  3
ACAD_XREC_ROUNDTRIP
360
2DA
  0
DICTIONARY
  5
2DF
330
31
100
AcDbDictionary
280
     1
281
     1
  3
ACAD_XREC_ROUNDTRIP
360
2E0
  0
DICTIONARY
  5
2F3
330
3B
100
AcDbDictionary
280
     1
281
     1
  3
ACAD_XREC_ROUNDTRIP
360
2F4
  0
DICTIONARY
  5
2ED
330
38
100
AcDbDictionary
280
     1
281
     1
  3
ACAD_XREC_ROUNDTRIP
360
2EE
  0
DICTIONARY
  5
2F5
330
3C
100
AcDbDictionary
280
     1
281
     1
  3
ACAD_XREC_ROUNDTRIP
360
2F6
  0
DICTIONARY
  5
2E3
330
33
100
AcDbDictionary
280
     1
281
     1
  3
ACAD_XREC_ROUNDTRIP
360
2E4
  0
DICTIONARY
  5
301
330
42
100
AcDbDictionary
280
     1
281
     1
  3
ACAD_XREC_ROUNDTRIP
360
302
  0
DICTIONARY
  5
2FF
330
41
100
AcDbDictionary
280
     1
281
     1
  3
ACAD_XREC_ROUNDTRIP
360
300
  0
DICTIONARY
  5
2F9
330
3E
100
AcDbDictionary
280
     1
281
     1
  3
ACAD_XREC_ROUNDTRIP
360
2FA
  0
DICTIONARY
  5
2FB
330
3F
100
AcDbDictionary
280
     1
281
     1
  3
ACAD_XREC_ROUNDTRIP
360
2FC
  0
DICTIONARY
  5
2EB
330
37
100
AcDbDictionary
280
     1
281
     1
  3
ACAD_XREC_ROUNDTRIP
360
2EC
  0
DICTIONARY
  5
2DD
330
30
100
AcDbDictionary
280
     1
281
     1
  3
ACAD_XREC_ROUNDTRIP
360
2DE
  0
DICTIONARY
  5
2FD
330
40
100
AcDbDictionary
280
     1
281
     1
  3
ACAD_XREC_ROUNDTRIP
360
2FE
  0
XRECORD
  5
307
102
{ACAD_REACTORS
330
306
102
}
330
306
100
AcDbXrecord
280
     1
102
ACAD_ROUNDTRIP_2010_MLEADER_STYLE
  0
CELLSTYLEMAP
  5
304
102
{ACAD_REACTORS
330
303
102
}
330
303
100
AcDbCellStyleMap
 90
        3
300
CELLSTYLE
  1
TABLEFORMAT_BEGIN
 90
        5
170
     1
 91
        0
 92
    32768
 62
   257
 93
        1
300
CONTENTFORMAT
  1
CONTENTFORMAT_BEGIN
 90
        0
 91
        0
 92
        4
 93
        0
300

 40
0.0
140
1.0
 94
        5
 62
     0
340
11
144
6.0
309
CONTENTFORMAT_END
171
     1
301
MARGIN
  1
CELLMARGIN_BEGIN
 40
1.5
 40
1.5
 40
1.5
 40
1.5
 40
1.5
 40
1.5
309
CELLMARGIN_END
 94
        6
 95
        1
302
GRIDFORMAT
  1
GRIDFORMAT_BEGIN
 90
        0
 91
        1
 62
     0
 92
       -2
340
14
 93
        0
 40
0.045
309
GRIDFORMAT_END
 95
        2
302
GRIDFORMAT
  1
GRIDFORMAT_BEGIN
 90
        0
 91
        1
 62
     0
 92
       -2
340
14
 93
        0
 40
0.045
309
GRIDFORMAT_END
 95
        4
302
GRIDFORMAT
  1
GRIDFORMAT_BEGIN
 90
        0
 91
        1
 62
     0
 92
       -2
340
14
 93
        0
 40
0.045
309
GRIDFORMAT_END
 95
        8
302
GRIDFORMAT
  1
GRIDFORMAT_BEGIN
 90
        0
 91
        1
 62
     0
 92
       -2
340
14
 93
        0
 40
0.045
309
GRIDFORMAT_END
 95
       16
302
GRIDFORMAT
  1
GRIDFORMAT_BEGIN
 90
        0
 91
        1
 62
     0
 92
       -2
340
14
 93
        0
 40
0.045
309
GRIDFORMAT_END
 95
       32
302
GRIDFORMAT
  1
GRIDFORMAT_BEGIN
 90
        0
 91
        1
 62
     0
 92
       -2
340
14
 93
        0
 40
0.045
309
GRIDFORMAT_END
309
TABLEFORMAT_END
  1
CELLSTYLE_BEGIN
 90
        1
 91
        1
300
_TITLE
309
CELLSTYLE_END
300
CELLSTYLE
  1
TABLEFORMAT_BEGIN
 90
        5
170
     1
 91
        0
 92
        0
 62
   257
 93
        1
300
CONTENTFORMAT
  1
CONTENTFORMAT_BEGIN
 90
        0
 91
        0
 92
        4
 93
        0
300

 40
0.0
140
1.0
 94
        5
 62
     0
340
11
144
4.5
309
CONTENTFORMAT_END
171
     1
301
MARGIN
  1
CELLMARGIN_BEGIN
 40
1.5
 40
1.5
 40
1.5
 40
1.5
 40
1.5
 40
1.5
309
CELLMARGIN_END
 94
        6
 95
        1
302
GRIDFORMAT
  1
GRIDFORMAT_BEGIN
 90
        0
 91
        1
 62
     0
 92
       -2
340
14
 93
        0
 40
0.045
309
GRIDFORMAT_END
 95
        2
302
GRIDFORMAT
  1
GRIDFORMAT_BEGIN
 90
        0
 91
        1
 62
     0
 92
       -2
340
14
 93
        0
 40
0.045
309
GRIDFORMAT_END
 95
        4
302
GRIDFORMAT
  1
GRIDFORMAT_BEGIN
 90
        0
 91
        1
 62
     0
 92
       -2
340
14
 93
        0
 40
0.045
309
GRIDFORMAT_END
 95
        8
302
GRIDFORMAT
  1
GRIDFORMAT_BEGIN
 90
        0
 91
        1
 62
     0
 92
       -2
340
14
 93
        0
 40
0.045
309
GRIDFORMAT_END
 95
       16
302
GRIDFORMAT
  1
GRIDFORMAT_BEGIN
 90
        0
 91
        1
 62
     0
 92
       -2
340
14
 93
        0
 40
0.045
309
GRIDFORMAT_END
 95
       32
302
GRIDFORMAT
  1
GRIDFORMAT_BEGIN
 90
        0
 91
        1
 62
     0
 92
       -2
340
14
 93
        0
 40
0.045
309
GRIDFORMAT_END
309
TABLEFORMAT_END
  1
CELLSTYLE_BEGIN
 90
        2
 91
        1
300
_HEADER
309
CELLSTYLE_END
300
CELLSTYLE
  1
TABLEFORMAT_BEGIN
 90
        5
170
     1
 91
        0
 92
        0
 62
   257
 93
        1
300
CONTENTFORMAT
  1
CONTENTFORMAT_BEGIN
 90
        0
 91
        0
 92
        4
 93
        0
300

 40
0.0
140
1.0
 94
        2
 62
     0
340
11
144
4.5
309
CONTENTFORMAT_END
171
     1
301
MARGIN
  1
CELLMARGIN_BEGIN
 40
1.5
 40
1.5
 40
1.5
 40
1.5
 40
1.5
 40
1.5
309
CELLMARGIN_END
 94
        6
 95
        1
302
GRIDFORMAT
  1
GRIDFORMAT_BEGIN
 90
        0
 91
        1
 62
     0
 92
       -2
340
14
 93
        0
 40
0.045
309
GRIDFORMAT_END
 95
        2
302
GRIDFORMAT
  1
GRIDFORMAT_BEGIN
 90
        0
 91
        1
 62
     0
 92
       -2
340
14
 93
        0
 40
0.045
309
GRIDFORMAT_END
 95
        4
302
GRIDFORMAT
  1
GRIDFORMAT_BEGIN
 90
        0
 91
        1
 62
     0
 92
       -2
340
14
 93
        0
 40
0.045
309
GRIDFORMAT_END
 95
        8
302
GRIDFORMAT
  1
GRIDFORMAT_BEGIN
 90
        0
 91
        1
 62
     0
 92
       -2
340
14
 93
        0
 40
0.045
309
GRIDFORMAT_END
 95
       16
302
GRIDFORMAT
  1
GRIDFORMAT_BEGIN
 90
        0
 91
        1
 62
     0
 92
       -2
340
14
 93
        0
 40
0.045
309
GRIDFORMAT_END
 95
       32
302
GRIDFORMAT
  1
GRIDFORMAT_BEGIN
 90
        0
 91
        1
 62
     0
 92
       -2
340
14
 93
        0
 40
0.045
309
GRIDFORMAT_END
309
TABLEFORMAT_END
  1
CELLSTYLE_BEGIN
 90
        3
 91
        2
300
_DATA
309
CELLSTYLE_END
  0
XRECORD
  5
2DC
102
{ACAD_REACTORS
330
2DB
102
}
330
2DB
100
AcDbXrecord
280
     1
102
RTVSPropertyOp0
 70
     1
102
RTVSPropertyOp1
 70
     1
102
RTVSPropertyOp2
 70
     1
102
RTVSPropertyOp3
 70
     1
102
RTVSPropertyOp4
 70
     1
102
RTVSPropertyOp5
 70
     1
102
RTVSPropertyOp6
 70
     1
102
RTVSPropertyOp7
 70
     1
102
RTVSPropertyOp8
 70
     1
102
RTVSPropertyOp9
 70
     1
102
RTVSPropertyOp10
 70
     1
102
RTVSPropertyOp11
 70
     1
102
RTVSPropertyOp12
 70
     1
102
RTVSPropertyOp13
 70
     1
102
RTVSPropertyOp14
 70
     1
102
RTVSPropertyOp15
 70
     1
102
RTVSPropertyOp16
 70
     1
102
RTVSPropertyOp17
 70
     1
102
RTVSPropertyOp18
 70
     1
102
RTVSPropertyOp19
 70
     1
102
RTVSPropertyOp20
 70
     1
102
RTVSPropertyOp21
 70
     1
102
RTVSPropertyOp22
 70
     1
102
RTVSPropertyOp23
 70
     1
102
RTVSPropertyOp24
 70
     1
102
RTVSPropertyOp25
 70
     1
102
RTVSPropertyOp26
 70
     1
102
RTVSPropertyOp27
 70
     1
102
RTVSPropertyOp28
 70
     1
102
RTVSPropertyOp29
 70
     1
102
RTVSPropertyOp30
 70
     1
102
RTVSPropertyOp31
 70
     1
102
RTVSPropertyOp32
 70
     1
102
RTVSPropertyOp33
 70
     1
102
RTVSPropertyOp34
 70
     1
102
RTVSPropertyOp35
 70
     1
102
RTVSPropertyOp36
 70
     1
102
RTVSPropertyOp37
 70
     1
102
RTVSPropertyOp38
 70
     1
102
RTVSPropertyOp39
 70
     1
102
RTVSPropertyOp40
 70
     1
102
RTVSPropertyOp41
 70
     1
102
RTVSPropertyOp42
 70
     1
102
RTVSPropertyOp43
 70
     1
102
RTVSPropertyOp44
 70
     1
102
RTVSPropertyOp45
 70
     1
102
RTVSPropertyOp46
 70
     1
102
RTVSPropertyOp47
 70
     1
102
RTVSPropertyOp48
 70
     1
102
RTVSPropertyOp49
 70
     1
102
RTVSPropertyOp50
 70
     1
102
RTVSPropertyOp51
 70
     0
102
RTVSPropertyOp52
 70
     0
102
RTVSPropertyOp53
 70
     1
102
RTVSPropertyOp54
 70
     1
102
RTVSPropertyOp55
 70
     1
102
RTVSPropertyOp56
 70
     1
102
RTVSPropertyOp57
 70
     1
102
RTVSPost2010Prop28
280
     1
102
RTVSPost2010PropOp28
 70
     1
102
RTVSPost2010Prop29
280
     1
102
RTVSPost2010PropOp29
 70
     1
102
RTVSPost2010Prop30
280
     0
102
RTVSPost2010PropOp30
 70
     1
102
RTVSPost2010Prop31
280
     0
102
RTVSPost2010PropOp31
 70
     1
102
RTVSPost2010Prop32
280
     0
102
RTVSPost2010PropOp32
 70
     1
102
RTVSPost2010Prop33
280
     0
102
RTVSPost2010PropOp33
 70
     1
102
RTVSPost2010Prop34
280
     0
102
RTVSPost2010PropOp34
 70
     1
102
RTVSPost2010Prop35
280
     0
102
RTVSPost2010PropOp35
 70
     1
102
RTVSPost2010Prop36
280
     0
102
RTVSPost2010PropOp36
 70
     1
102
RTVSPost2010Prop37
 90
       50
102
RTVSPost2010PropOp37
 70
     1
102
RTVSPost2010Prop38
140
0.0
102
RTVSPost2010PropOp38
 70
     1
102
RTVSPost2010Prop39
140
1.0
102
RTVSPost2010PropOp39
 70
     1
102
RTVSPost2010Prop40
 90
        0
102
RTVSPost2010PropOp40
 70
     1
102
RTVSPost2010Prop41ColorIndex
 90
       18
102
RTVSPost2010Prop41ColorRGB
 90
        0
102
RTVSPost2010PropOp41
 70
     1
102
RTVSPost2010Prop42
 90
       50
102
RTVSPost2010PropOp42
 70
     1
102
RTVSPost2010Prop43
 90
        3
102
RTVSPost2010PropOp43
 70
     1
102
RTVSPost2010Prop44ColorIndex
 90
        5
102
RTVSPost2010Prop44ColorRGB
 90
      255
102
RTVSPost2010PropOp44
 70
     1
102
RTVSPost2010Prop45
280
     0
102
RTVSPost2010PropOp45
 70
     1
102
RTVSPost2010Prop46
 90
       50
102
RTVSPost2010PropOp46
 70
     1
102
RTVSPost2010Prop47
 90
       50
102
RTVSPost2010PropOp47
 70
     1
102
RTVSPost2010Prop48
 90
       50
102
RTVSPost2010PropOp48
 70
     1
102
RTVSPost2010Prop49
280
     0
102
RTVSPost2010PropOp49
 70
     1
102
RTVSPost2010Prop50
 90
       50
102
RTVSPost2010PropOp50
 70
     1
102
RTVSPost2010Prop51ColorIndex
 90
      256
102
RTVSPost2010Prop51ColorRGB
 90
-16777216
102
RTVSPost2010PropOp51
 70
     0
102
RTVSPost2010Prop52
140
1.0
102
RTVSPost2010PropOp52
 70
     0
102
RTVSPost2010Prop53
 90
        2
102
RTVSPost2010PropOp53
 70
     1
102
RTVSPost2010Prop54
  1
strokes_ogs.tif
102
RTVSPost2010PropOp54
 70
     1
102
RTVSPost2010Prop55
280
     0
102
RTVSPost2010PropOp55
 70
     1
102
RTVSPost2010Prop56
140
1.0
102
RTVSPost2010PropOp56
 70
     1
102
RTVSPost2010Prop57
140
1.0
102
RTVSPost2010PropOp57
 70
     1
  0
XRECORD
  5
2E2
102
{ACAD_REACTORS
330
2E1
102
}
330
2E1
100
AcDbXrecord
280
     1
102
RTVSPropertyOp0
 70
     1
102
RTVSPropertyOp1
 70
     1
102
RTVSPropertyOp2
 70
     1
102
RTVSPropertyOp3
 70
     1
102
RTVSPropertyOp4
 70
     1
102
RTVSPropertyOp5
 70
     1
102
RTVSPropertyOp6
 70
     1
102
RTVSPropertyOp7
 70
     1
102
RTVSPropertyOp8
 70
     1
102
RTVSPropertyOp9
 70
     1
102
RTVSPropertyOp10
 70
     1
102
RTVSPropertyOp11
 70
     1
102
RTVSPropertyOp12
 70
     1
102
RTVSPropertyOp13
 70
     1
102
RTVSPropertyOp14
 70
     1
102
RTVSPropertyOp15
 70
     1
102
RTVSPropertyOp16
 70
     1
102
RTVSPropertyOp17
 70
     1
102
RTVSPropertyOp18
 70
     1
102
RTVSPropertyOp19
 70
     1
102
RTVSPropertyOp20
 70
     1
102
RTVSPropertyOp21
 70
     1
102
RTVSPropertyOp22
 70
     1
102
RTVSPropertyOp23
 70
     1
102
RTVSPropertyOp24
 70
     1
102
RTVSPropertyOp25
 70
     1
102
RTVSPropertyOp26
 70
     1
102
RTVSPropertyOp27
 70
     1
102
RTVSPropertyOp28
 70
     1
102
RTVSPropertyOp29
 70
     1
102
RTVSPropertyOp30
 70
     1
102
RTVSPropertyOp31
 70
     1
102
RTVSPropertyOp32
 70
     1
102
RTVSPropertyOp33
 70
     1
102
RTVSPropertyOp34
 70
     1
102
RTVSPropertyOp35
 70
     1
102
RTVSPropertyOp36
 70
     1
102
RTVSPropertyOp37
 70
     1
102
RTVSPropertyOp38
 70
     1
102
RTVSPropertyOp39
 70
     1
102
RTVSPropertyOp40
 70
     1
102
RTVSPropertyOp41
 70
     1
102
RTVSPropertyOp42
 70
     1
102
RTVSPropertyOp43
 70
     1
102
RTVSPropertyOp44
 70
     1
102
RTVSPropertyOp45
 70
     1
102
RTVSPropertyOp46
 70
     1
102
RTVSPropertyOp47
 70
     1
102
RTVSPropertyOp48
 70
     1
102
RTVSPropertyOp49
 70
     1
102
RTVSPropertyOp50
 70
     1
102
RTVSPropertyOp51
 70
     0
102
RTVSPropertyOp52
 70
     0
102
RTVSPropertyOp53
 70
     1
102
RTVSPropertyOp54
 70
     1
102
RTVSPropertyOp55
 70
     1
102
RTVSPropertyOp56
 70
     1
102
RTVSPropertyOp57
 70
     1
102
RTVSPost2010Prop28
280
     0
102
RTVSPost2010PropOp28
 70
     1
102
RTVSPost2010Prop29
280
     1
102
RTVSPost2010PropOp29
 70
     1
102
RTVSPost2010Prop30
280
     1
102
RTVSPost2010PropOp30
 70
     1
102
RTVSPost2010Prop31
280
     0
102
RTVSPost2010PropOp31
 70
     1
102
RTVSPost2010Prop32
280
     0
102
RTVSPost2010PropOp32
 70
     1
102
RTVSPost2010Prop33
280
     0
102
RTVSPost2010PropOp33
 70
     1
102
RTVSPost2010Prop34
280
     0
102
RTVSPost2010PropOp34
 70
     1
102
RTVSPost2010Prop35
280
     0
102
RTVSPost2010PropOp35
 70
     1
102
RTVSPost2010Prop36
280
     0
102
RTVSPost2010PropOp36
 70
     1
102
RTVSPost2010Prop37
 90
       50
102
RTVSPost2010PropOp37
 70
     1
102
RTVSPost2010Prop38
140
0.0
102
RTVSPost2010PropOp38
 70
     1
102
RTVSPost2010Prop39
140
1.0
102
RTVSPost2010PropOp39
 70
     1
102
RTVSPost2010Prop40
 90
        0
102
RTVSPost2010PropOp40
 70
     1
102
RTVSPost2010Prop41ColorIndex
 90
       18
102
RTVSPost2010Prop41ColorRGB
 90
        0
102
RTVSPost2010PropOp41
 70
     1
102
RTVSPost2010Prop42
 90
       50
102
RTVSPost2010PropOp42
 70
     1
102
RTVSPost2010Prop43
 90
        3
102
RTVSPost2010PropOp43
 70
     1
102
RTVSPost2010Prop44ColorIndex
 90
        5
102
RTVSPost2010Prop44ColorRGB
 90
      255
102
RTVSPost2010PropOp44
 70
     1
102
RTVSPost2010Prop45
280
     0
102
RTVSPost2010PropOp45
 70
     1
102
RTVSPost2010Prop46
 90
       50
102
RTVSPost2010PropOp46
 70
     1
102
RTVSPost2010Prop47
 90
       50
102
RTVSPost2010PropOp47
 70
     1
102
RTVSPost2010Prop48
 90
       50
102
RTVSPost2010PropOp48
 70
     1
102
RTVSPost2010Prop49
280
     0
102
RTVSPost2010PropOp49
 70
     1
102
RTVSPost2010Prop50
 90
       50
102
RTVSPost2010PropOp50
 70
     1
102
RTVSPost2010Prop51ColorIndex
 90
      256
102
RTVSPost2010Prop51ColorRGB
 90
-16777216
102
RTVSPost2010PropOp51
 70
     0
102
RTVSPost2010Prop52
140
1.0
102
RTVSPost2010PropOp52
 70
     0
102
RTVSPost2010Prop53
 90
        2
102
RTVSPost2010PropOp53
 70
     1
102
RTVSPost2010Prop54
  1
strokes_ogs.tif
102
RTVSPost2010PropOp54
 70
     1
102
RTVSPost2010Prop55
280
     0
102
RTVSPost2010PropOp55
 70
     1
102
RTVSPost2010Prop56
140
1.0
102
RTVSPost2010PropOp56
 70
     1
102
RTVSPost2010Prop57
140
1.0
102
RTVSPost2010PropOp57
 70
     1
  0
XRECORD
  5
2EA
102
{ACAD_REACTORS
330
2E9
102
}
330
2E9
100
AcDbXrecord
280
     1
102
RTVSPropertyOp0
 70
     1
102
RTVSPropertyOp1
 70
     1
102
RTVSPropertyOp2
 70
     1
102
RTVSPropertyOp3
 70
     1
102
RTVSPropertyOp4
 70
     1
102
RTVSPropertyOp5
 70
     1
102
RTVSPropertyOp6
 70
     1
102
RTVSPropertyOp7
 70
     1
102
RTVSPropertyOp8
 70
     1
102
RTVSPropertyOp9
 70
     1
102
RTVSPropertyOp10
 70
     1
102
RTVSPropertyOp11
 70
     1
102
RTVSPropertyOp12
 70
     1
102
RTVSPropertyOp13
 70
     1
102
RTVSPropertyOp14
 70
     1
102
RTVSPropertyOp15
 70
     1
102
RTVSPropertyOp16
 70
     1
102
RTVSPropertyOp17
 70
     1
102
RTVSPropertyOp18
 70
     1
102
RTVSPropertyOp19
 70
     1
102
RTVSPropertyOp20
 70
     1
102
RTVSPropertyOp21
 70
     1
102
RTVSPropertyOp22
 70
     1
102
RTVSPropertyOp23
 70
     1
102
RTVSPropertyOp24
 70
     1
102
RTVSPropertyOp25
 70
     1
102
RTVSPropertyOp26
 70
     1
102
RTVSPropertyOp27
 70
     1
102
RTVSPropertyOp28
 70
     1
102
RTVSPropertyOp29
 70
     1
102
RTVSPropertyOp30
 70
     1
102
RTVSPropertyOp31
 70
     1
102
RTVSPropertyOp32
 70
     1
102
RTVSPropertyOp33
 70
     1
102
RTVSPropertyOp34
 70
     1
102
RTVSPropertyOp35
 70
     1
102
RTVSPropertyOp36
 70
     1
102
RTVSPropertyOp37
 70
     1
102
RTVSPropertyOp38
 70
     1
102
RTVSPropertyOp39
 70
     1
102
RTVSPropertyOp40
 70
     1
102
RTVSPropertyOp41
 70
     1
102
RTVSPropertyOp42
 70
     1
102
RTVSPropertyOp43
 70
     1
102
RTVSPropertyOp44
 70
     1
102
RTVSPropertyOp45
 70
     1
102
RTVSPropertyOp46
 70
     1
102
RTVSPropertyOp47
 70
     1
102
RTVSPropertyOp48
 70
     1
102
RTVSPropertyOp49
 70
     1
102
RTVSPropertyOp50
 70
     1
102
RTVSPropertyOp51
 70
     0
102
RTVSPropertyOp52
 70
     0
102
RTVSPropertyOp53
 70
     1
102
RTVSPropertyOp54
 70
     1
102
RTVSPropertyOp55
 70
     1
102
RTVSPropertyOp56
 70
     1
102
RTVSPropertyOp57
 70
     1
102
RTVSPost2010Prop28
280
     0
102
RTVSPost2010PropOp28
 70
     1
102
RTVSPost2010Prop29
280
     1
102
RTVSPost2010PropOp29
 70
     1
102
RTVSPost2010Prop30
280
     1
102
RTVSPost2010PropOp30
 70
     1
102
RTVSPost2010Prop31
280
     0
102
RTVSPost2010PropOp31
 70
     1
102
RTVSPost2010Prop32
280
     0
102
RTVSPost2010PropOp32
 70
     1
102
RTVSPost2010Prop33
280
     0
102
RTVSPost2010PropOp33
 70
     1
102
RTVSPost2010Prop34
280
     0
102
RTVSPost2010PropOp34
 70
     1
102
RTVSPost2010Prop35
280
     0
102
RTVSPost2010PropOp35
 70
     1
102
RTVSPost2010Prop36
280
     0
102
RTVSPost2010PropOp36
 70
     1
102
RTVSPost2010Prop37
 90
       50
102
RTVSPost2010PropOp37
 70
     1
102
RTVSPost2010Prop38
140
0.0
102
RTVSPost2010PropOp38
 70
     1
102
RTVSPost2010Prop39
140
1.0
102
RTVSPost2010PropOp39
 70
     1
102
RTVSPost2010Prop40
 90
        0
102
RTVSPost2010PropOp40
 70
     1
102
RTVSPost2010Prop41ColorIndex
 90
       18
102
RTVSPost2010Prop41ColorRGB
 90
        0
102
RTVSPost2010PropOp41
 70
     1
102
RTVSPost2010Prop42
 90
       50
102
RTVSPost2010PropOp42
 70
     1
102
RTVSPost2010Prop43
 90
        3
102
RTVSPost2010PropOp43
 70
     1
102
RTVSPost2010Prop44ColorIndex
 90
        5
102
RTVSPost2010Prop44ColorRGB
 90
      255
102
RTVSPost2010PropOp44
 70
     1
102
RTVSPost2010Prop45
280
     0
102
RTVSPost2010PropOp45
 70
     1
102
RTVSPost2010Prop46
 90
       50
102
RTVSPost2010PropOp46
 70
     1
102
RTVSPost2010Prop47
 90
       50
102
RTVSPost2010PropOp47
 70
     1
102
RTVSPost2010Prop48
 90
       50
102
RTVSPost2010PropOp48
 70
     1
102
RTVSPost2010Prop49
280
     0
102
RTVSPost2010PropOp49
 70
     1
102
RTVSPost2010Prop50
 90
       50
102
RTVSPost2010PropOp50
 70
     1
102
RTVSPost2010Prop51ColorIndex
 90
      256
102
RTVSPost2010Prop51ColorRGB
 90
-16777216
102
RTVSPost2010PropOp51
 70
     0
102
RTVSPost2010Prop52
140
1.0
102
RTVSPost2010PropOp52
 70
     0
102
RTVSPost2010Prop53
 90
        2
102
RTVSPost2010PropOp53
 70
     1
102
RTVSPost2010Prop54
  1
strokes_ogs.tif
102
RTVSPost2010PropOp54
 70
     1
102
RTVSPost2010Prop55
280
     0
102
RTVSPost2010PropOp55
 70
     1
102
RTVSPost2010Prop56
140
1.0
102
RTVSPost2010PropOp56
 70
     1
102
RTVSPost2010Prop57
140
1.0
102
RTVSPost2010PropOp57
 70
     1
  0
XRECORD
  5
2F2
102
{ACAD_REACTORS
330
2F1
102
}
330
2F1
100
AcDbXrecord
280
     1
102
RTVSPropertyOp0
 70
     1
102
RTVSPropertyOp1
 70
     1
102
RTVSPropertyOp2
 70
     1
102
RTVSPropertyOp3
 70
     1
102
RTVSPropertyOp4
 70
     1
102
RTVSPropertyOp5
 70
     1
102
RTVSPropertyOp6
 70
     1
102
RTVSPropertyOp7
 70
     1
102
RTVSPropertyOp8
 70
     1
102
RTVSPropertyOp9
 70
     1
102
RTVSPropertyOp10
 70
     1
102
RTVSPropertyOp11
 70
     1
102
RTVSPropertyOp12
 70
     1
102
RTVSPropertyOp13
 70
     1
102
RTVSPropertyOp14
 70
     1
102
RTVSPropertyOp15
 70
     1
102
RTVSPropertyOp16
 70
     1
102
RTVSPropertyOp17
 70
     1
102
RTVSPropertyOp18
 70
     1
102
RTVSPropertyOp19
 70
     1
102
RTVSPropertyOp20
 70
     1
102
RTVSPropertyOp21
 70
     1
102
RTVSPropertyOp22
 70
     1
102
RTVSPropertyOp23
 70
     1
102
RTVSPropertyOp24
 70
     1
102
RTVSPropertyOp25
 70
     1
102
RTVSPropertyOp26
 70
     1
102
RTVSPropertyOp27
 70
     1
102
RTVSPropertyOp28
 70
     1
102
RTVSPropertyOp29
 70
     1
102
RTVSPropertyOp30
 70
     1
102
RTVSPropertyOp31
 70
     1
102
RTVSPropertyOp32
 70
     1
102
RTVSPropertyOp33
 70
     1
102
RTVSPropertyOp34
 70
     1
102
RTVSPropertyOp35
 70
     1
102
RTVSPropertyOp36
 70
     1
102
RTVSPropertyOp37
 70
     1
102
RTVSPropertyOp38
 70
     1
102
RTVSPropertyOp39
 70
     1
102
RTVSPropertyOp40
 70
     1
102
RTVSPropertyOp41
 70
     1
102
RTVSPropertyOp42
 70
     1
102
RTVSPropertyOp43
 70
     1
102
RTVSPropertyOp44
 70
     1
102
RTVSPropertyOp45
 70
     1
102
RTVSPropertyOp46
 70
     1
102
RTVSPropertyOp47
 70
     1
102
RTVSPropertyOp48
 70
     1
102
RTVSPropertyOp49
 70
     1
102
RTVSPropertyOp50
 70
     1
102
RTVSPropertyOp51
 70
     0
102
RTVSPropertyOp52
 70
     0
102
RTVSPropertyOp53
 70
     1
102
RTVSPropertyOp54
 70
     1
102
RTVSPropertyOp55
 70
     1
102
RTVSPropertyOp56
 70
     1
102
RTVSPropertyOp57
 70
     1
102
RTVSPost2010Prop28
280
     0
102
RTVSPost2010PropOp28
 70
     1
102
RTVSPost2010Prop29
280
     1
102
RTVSPost2010PropOp29
 70
     1
102
RTVSPost2010Prop30
280
     1
102
RTVSPost2010PropOp30
 70
     1
102
RTVSPost2010Prop31
280
     0
102
RTVSPost2010PropOp31
 70
     1
102
RTVSPost2010Prop32
280
     0
102
RTVSPost2010PropOp32
 70
     1
102
RTVSPost2010Prop33
280
     0
102
RTVSPost2010PropOp33
 70
     1
102
RTVSPost2010Prop34
280
     0
102
RTVSPost2010PropOp34
 70
     1
102
RTVSPost2010Prop35
280
     0
102
RTVSPost2010PropOp35
 70
     1
102
RTVSPost2010Prop36
280
     0
102
RTVSPost2010PropOp36
 70
     1
102
RTVSPost2010Prop37
 90
       50
102
RTVSPost2010PropOp37
 70
     1
102
RTVSPost2010Prop38
140
0.0
102
RTVSPost2010PropOp38
 70
     1
102
RTVSPost2010Prop39
140
1.0
102
RTVSPost2010PropOp39
 70
     1
102
RTVSPost2010Prop40
 90
        0
102
RTVSPost2010PropOp40
 70
     1
102
RTVSPost2010Prop41ColorIndex
 90
       18
102
RTVSPost2010Prop41ColorRGB
 90
        0
102
RTVSPost2010PropOp41
 70
     1
102
RTVSPost2010Prop42
 90
       50
102
RTVSPost2010PropOp42
 70
     1
102
RTVSPost2010Prop43
 90
        3
102
RTVSPost2010PropOp43
 70
     1
102
RTVSPost2010Prop44ColorIndex
 90
        5
102
RTVSPost2010Prop44ColorRGB
 90
      255
102
RTVSPost2010PropOp44
 70
     1
102
RTVSPost2010Prop45
280
     0
102
RTVSPost2010PropOp45
 70
     1
102
RTVSPost2010Prop46
 90
       50
102
RTVSPost2010PropOp46
 70
     1
102
RTVSPost2010Prop47
 90
       50
102
RTVSPost2010PropOp47
 70
     1
102
RTVSPost2010Prop48
 90
       50
102
RTVSPost2010PropOp48
 70
     1
102
RTVSPost2010Prop49
280
     0
102
RTVSPost2010PropOp49
 70
     1
102
RTVSPost2010Prop50
 90
       50
102
RTVSPost2010PropOp50
 70
     1
102
RTVSPost2010Prop51ColorIndex
 90
      256
102
RTVSPost2010Prop51ColorRGB
 90
-16777216
102
RTVSPost2010PropOp51
 70
     0
102
RTVSPost2010Prop52
140
1.0
102
RTVSPost2010PropOp52
 70
     0
102
RTVSPost2010Prop53
 90
        2
102
RTVSPost2010PropOp53
 70
     1
102
RTVSPost2010Prop54
  1
strokes_ogs.tif
102
RTVSPost2010PropOp54
 70
     1
102
RTVSPost2010Prop55
280
     0
102
RTVSPost2010PropOp55
 70
     1
102
RTVSPost2010Prop56
140
1.0
102
RTVSPost2010PropOp56
 70
     1
102
RTVSPost2010Prop57
140
1.0
102
RTVSPost2010PropOp57
 70
     1
  0
XRECORD
  5
2E6
102
{ACAD_REACTORS
330
2E5
102
}
330
2E5
100
AcDbXrecord
280
     1
102
RTVSPropertyOp0
 70
     1
102
RTVSPropertyOp1
 70
     1
102
RTVSPropertyOp2
 70
     1
102
RTVSPropertyOp3
 70
     1
102
RTVSPropertyOp4
 70
     1
102
RTVSPropertyOp5
 70
     1
102
RTVSPropertyOp6
 70
     1
102
RTVSPropertyOp7
 70
     1
102
RTVSPropertyOp8
 70
     1
102
RTVSPropertyOp9
 70
     1
102
RTVSPropertyOp10
 70
     1
102
RTVSPropertyOp11
 70
     1
102
RTVSPropertyOp12
 70
     1
102
RTVSPropertyOp13
 70
     1
102
RTVSPropertyOp14
 70
     1
102
RTVSPropertyOp15
 70
     1
102
RTVSPropertyOp16
 70
     1
102
RTVSPropertyOp17
 70
     1
102
RTVSPropertyOp18
 70
     1
102
RTVSPropertyOp19
 70
     1
102
RTVSPropertyOp20
 70
     1
102
RTVSPropertyOp21
 70
     1
102
RTVSPropertyOp22
 70
     1
102
RTVSPropertyOp23
 70
     1
102
RTVSPropertyOp24
 70
     1
102
RTVSPropertyOp25
 70
     1
102
RTVSPropertyOp26
 70
     1
102
RTVSPropertyOp27
 70
     1
102
RTVSPropertyOp28
 70
     1
102
RTVSPropertyOp29
 70
     1
102
RTVSPropertyOp30
 70
     1
102
RTVSPropertyOp31
 70
     1
102
RTVSPropertyOp32
 70
     1
102
RTVSPropertyOp33
 70
     1
102
RTVSPropertyOp34
 70
     1
102
RTVSPropertyOp35
 70
     1
102
RTVSPropertyOp36
 70
     1
102
RTVSPropertyOp37
 70
     1
102
RTVSPropertyOp38
 70
     1
102
RTVSPropertyOp39
 70
     1
102
RTVSPropertyOp40
 70
     1
102
RTVSPropertyOp41
 70
     1
102
RTVSPropertyOp42
 70
     1
102
RTVSPropertyOp43
 70
     1
102
RTVSPropertyOp44
 70
     1
102
RTVSPropertyOp45
 70
     1
102
RTVSPropertyOp46
 70
     1
102
RTVSPropertyOp47
 70
     1
102
RTVSPropertyOp48
 70
     1
102
RTVSPropertyOp49
 70
     1
102
RTVSPropertyOp50
 70
     1
102
RTVSPropertyOp51
 70
     0
102
RTVSPropertyOp52
 70
     0
102
RTVSPropertyOp53
 70
     1
102
RTVSPropertyOp54
 70
     1
102
RTVSPropertyOp55
 70
     1
102
RTVSPropertyOp56
 70
     1
102
RTVSPropertyOp57
 70
     1
102
RTVSPost2010Prop28
280
     0
102
RTVSPost2010PropOp28
 70
     1
102
RTVSPost2010Prop29
280
     1
102
RTVSPost2010PropOp29
 70
     1
102
RTVSPost2010Prop30
280
     1
102
RTVSPost2010PropOp30
 70
     1
102
RTVSPost2010Prop31
280
     0
102
RTVSPost2010PropOp31
 70
     1
102
RTVSPost2010Prop32
280
     0
102
RTVSPost2010PropOp32
 70
     1
102
RTVSPost2010Prop33
280
     0
102
RTVSPost2010PropOp33
 70
     1
102
RTVSPost2010Prop34
280
     0
102
RTVSPost2010PropOp34
 70
     1
102
RTVSPost2010Prop35
280
     0
102
RTVSPost2010PropOp35
 70
     1
102
RTVSPost2010Prop36
280
     0
102
RTVSPost2010PropOp36
 70
     1
102
RTVSPost2010Prop37
 90
       50
102
RTVSPost2010PropOp37
 70
     1
102
RTVSPost2010Prop38
140
0.0
102
RTVSPost2010PropOp38
 70
     1
102
RTVSPost2010Prop39
140
1.0
102
RTVSPost2010PropOp39
 70
     1
102
RTVSPost2010Prop40
 90
        0
102
RTVSPost2010PropOp40
 70
     1
102
RTVSPost2010Prop41ColorIndex
 90
       18
102
RTVSPost2010Prop41ColorRGB
 90
        0
102
RTVSPost2010PropOp41
 70
     1
102
RTVSPost2010Prop42
 90
       50
102
RTVSPost2010PropOp42
 70
     1
102
RTVSPost2010Prop43
 90
        3
102
RTVSPost2010PropOp43
 70
     1
102
RTVSPost2010Prop44ColorIndex
 90
        5
102
RTVSPost2010Prop44ColorRGB
 90
      255
102
RTVSPost2010PropOp44
 70
     1
102
RTVSPost2010Prop45
280
     0
102
RTVSPost2010PropOp45
 70
     1
102
RTVSPost2010Prop46
 90
       50
102
RTVSPost2010PropOp46
 70
     1
102
RTVSPost2010Prop47
 90
       50
102
RTVSPost2010PropOp47
 70
     1
102
RTVSPost2010Prop48
 90
       50
102
RTVSPost2010PropOp48
 70
     1
102
RTVSPost2010Prop49
280
     0
102
RTVSPost2010PropOp49
 70
     1
102
RTVSPost2010Prop50
 90
       50
102
RTVSPost2010PropOp50
 70
     1
102
RTVSPost2010Prop51ColorIndex
 90
      256
102
RTVSPost2010Prop51ColorRGB
 90
-16777216
102
RTVSPost2010PropOp51
 70
     0
102
RTVSPost2010Prop52
140
1.0
102
RTVSPost2010PropOp52
 70
     0
102
RTVSPost2010Prop53
 90
        2
102
RTVSPost2010PropOp53
 70
     1
102
RTVSPost2010Prop54
  1
strokes_ogs.tif
102
RTVSPost2010PropOp54
 70
     1
102
RTVSPost2010Prop55
280
     0
102
RTVSPost2010PropOp55
 70
     1
102
RTVSPost2010Prop56
140
1.0
102
RTVSPost2010PropOp56
 70
     1
102
RTVSPost2010Prop57
140
1.0
102
RTVSPost2010PropOp57
 70
     1
  0
XRECORD
  5
2E8
102
{ACAD_REACTORS
330
2E7
102
}
330
2E7
100
AcDbXrecord
280
     1
102
RTVSPropertyOp0
 70
     1
102
RTVSPropertyOp1
 70
     1
102
RTVSPropertyOp2
 70
     1
102
RTVSPropertyOp3
 70
     1
102
RTVSPropertyOp4
 70
     1
102
RTVSPropertyOp5
 70
     1
102
RTVSPropertyOp6
 70
     1
102
RTVSPropertyOp7
 70
     1
102
RTVSPropertyOp8
 70
     1
102
RTVSPropertyOp9
 70
     1
102
RTVSPropertyOp10
 70
     1
102
RTVSPropertyOp11
 70
     1
102
RTVSPropertyOp12
 70
     1
102
RTVSPropertyOp13
 70
     1
102
RTVSPropertyOp14
 70
     1
102
RTVSPropertyOp15
 70
     1
102
RTVSPropertyOp16
 70
     1
102
RTVSPropertyOp17
 70
     1
102
RTVSPropertyOp18
 70
     1
102
RTVSPropertyOp19
 70
     1
102
RTVSPropertyOp20
 70
     1
102
RTVSPropertyOp21
 70
     1
102
RTVSPropertyOp22
 70
     1
102
RTVSPropertyOp23
 70
     1
102
RTVSPropertyOp24
 70
     1
102
RTVSPropertyOp25
 70
     1
102
RTVSPropertyOp26
 70
     1
102
RTVSPropertyOp27
 70
     1
102
RTVSPropertyOp28
 70
     1
102
RTVSPropertyOp29
 70
     1
102
RTVSPropertyOp30
 70
     1
102
RTVSPropertyOp31
 70
     1
102
RTVSPropertyOp32
 70
     1
102
RTVSPropertyOp33
 70
     1
102
RTVSPropertyOp34
 70
     1
102
RTVSPropertyOp35
 70
     1
102
RTVSPropertyOp36
 70
     1
102
RTVSPropertyOp37
 70
     1
102
RTVSPropertyOp38
 70
     1
102
RTVSPropertyOp39
 70
     1
102
RTVSPropertyOp40
 70
     1
102
RTVSPropertyOp41
 70
     1
102
RTVSPropertyOp42
 70
     1
102
RTVSPropertyOp43
 70
     1
102
RTVSPropertyOp44
 70
     1
102
RTVSPropertyOp45
 70
     1
102
RTVSPropertyOp46
 70
     1
102
RTVSPropertyOp47
 70
     1
102
RTVSPropertyOp48
 70
     1
102
RTVSPropertyOp49
 70
     1
102
RTVSPropertyOp50
 70
     1
102
RTVSPropertyOp51
 70
     0
102
RTVSPropertyOp52
 70
     0
102
RTVSPropertyOp53
 70
     1
102
RTVSPropertyOp54
 70
     1
102
RTVSPropertyOp55
 70
     1
102
RTVSPropertyOp56
 70
     1
102
RTVSPropertyOp57
 70
     1
102
RTVSPost2010Prop28
280
     0
102
RTVSPost2010PropOp28
 70
     1
102
RTVSPost2010Prop29
280
     1
102
RTVSPost2010PropOp29
 70
     1
102
RTVSPost2010Prop30
280
     1
102
RTVSPost2010PropOp30
 70
     1
102
RTVSPost2010Prop31
280
     0
102
RTVSPost2010PropOp31
 70
     1
102
RTVSPost2010Prop32
280
     0
102
RTVSPost2010PropOp32
 70
     1
102
RTVSPost2010Prop33
280
     0
102
RTVSPost2010PropOp33
 70
     1
102
RTVSPost2010Prop34
280
     0
102
RTVSPost2010PropOp34
 70
     1
102
RTVSPost2010Prop35
280
     0
102
RTVSPost2010PropOp35
 70
     1
102
RTVSPost2010Prop36
280
     0
102
RTVSPost2010PropOp36
 70
     1
102
RTVSPost2010Prop37
 90
       50
102
RTVSPost2010PropOp37
 70
     1
102
RTVSPost2010Prop38
140
0.0
102
RTVSPost2010PropOp38
 70
     1
102
RTVSPost2010Prop39
140
1.0
102
RTVSPost2010PropOp39
 70
     1
102
RTVSPost2010Prop40
 90
        0
102
RTVSPost2010PropOp40
 70
     1
102
RTVSPost2010Prop41ColorIndex
 90
       18
102
RTVSPost2010Prop41ColorRGB
 90
        0
102
RTVSPost2010PropOp41
 70
     1
102
RTVSPost2010Prop42
 90
       50
102
RTVSPost2010PropOp42
 70
     1
102
RTVSPost2010Prop43
 90
        3
102
RTVSPost2010PropOp43
 70
     1
102
RTVSPost2010Prop44ColorIndex
 90
        5
102
RTVSPost2010Prop44ColorRGB
 90
      255
102
RTVSPost2010PropOp44
 70
     1
102
RTVSPost2010Prop45
280
     0
102
RTVSPost2010PropOp45
 70
     1
102
RTVSPost2010Prop46
 90
       50
102
RTVSPost2010PropOp46
 70
     1
102
RTVSPost2010Prop47
 90
       50
102
RTVSPost2010PropOp47
 70
     1
102
RTVSPost2010Prop48
 90
       50
102
RTVSPost2010PropOp48
 70
     1
102
RTVSPost2010Prop49
280
     0
102
RTVSPost2010PropOp49
 70
     1
102
RTVSPost2010Prop50
 90
       50
102
RTVSPost2010PropOp50
 70
     1
102
RTVSPost2010Prop51ColorIndex
 90
      256
102
RTVSPost2010Prop51ColorRGB
 90
-16777216
102
RTVSPost2010PropOp51
 70
     0
102
RTVSPost2010Prop52
140
1.0
102
RTVSPost2010PropOp52
 70
     0
102
RTVSPost2010Prop53
 90
        2
102
RTVSPost2010PropOp53
 70
     1
102
RTVSPost2010Prop54
  1
strokes_ogs.tif
102
RTVSPost2010PropOp54
 70
     1
102
RTVSPost2010Prop55
280
     0
102
RTVSPost2010PropOp55
 70
     1
102
RTVSPost2010Prop56
140
1.0
102
RTVSPost2010PropOp56
 70
     1
102
RTVSPost2010Prop57
140
1.0
102
RTVSPost2010PropOp57
 70
     1
  0
XRECORD
  5
2F8
102
{ACAD_REACTORS
330
2F7
102
}
330
2F7
100
AcDbXrecord
280
     1
102
RTVSPropertyOp0
 70
     0
102
RTVSPropertyOp1
 70
     0
102
RTVSPropertyOp2
 70
     0
102
RTVSPropertyOp3
 70
     0
102
RTVSPropertyOp4
 70
     0
102
RTVSPropertyOp5
 70
     0
102
RTVSPropertyOp6
 70
     0
102
RTVSPropertyOp7
 70
     0
102
RTVSPropertyOp8
 70
     0
102
RTVSPropertyOp9
 70
     0
102
RTVSPropertyOp10
 70
     0
102
RTVSPropertyOp11
 70
     0
102
RTVSPropertyOp12
 70
     0
102
RTVSPropertyOp13
 70
     0
102
RTVSPropertyOp14
 70
     2
102
RTVSPropertyOp15
 70
     0
102
RTVSPropertyOp16
 70
     0
102
RTVSPropertyOp17
 70
     0
102
RTVSPropertyOp18
 70
     0
102
RTVSPropertyOp19
 70
     0
102
RTVSPropertyOp20
 70
     0
102
RTVSPropertyOp21
 70
     0
102
RTVSPropertyOp22
 70
     0
102
RTVSPropertyOp23
 70
     0
102
RTVSPropertyOp24
 70
     0
102
RTVSPropertyOp25
 70
     0
102
RTVSPropertyOp26
 70
     0
102
RTVSPropertyOp27
 70
     0
102
RTVSPropertyOp28
 70
     0
102
RTVSPropertyOp29
 70
     0
102
RTVSPropertyOp30
 70
     0
102
RTVSPropertyOp31
 70
     0
102
RTVSPropertyOp32
 70
     0
102
RTVSPropertyOp33
 70
     0
102
RTVSPropertyOp34
 70
     0
102
RTVSPropertyOp35
 70
     0
102
RTVSPropertyOp36
 70
     0
102
RTVSPropertyOp37
 70
     0
102
RTVSPropertyOp38
 70
     0
102
RTVSPropertyOp39
 70
     0
102
RTVSPropertyOp40
 70
     0
102
RTVSPropertyOp41
 70
     0
102
RTVSPropertyOp42
 70
     0
102
RTVSPropertyOp43
 70
     0
102
RTVSPropertyOp44
 70
     0
102
RTVSPropertyOp45
 70
     0
102
RTVSPropertyOp46
 70
     0
102
RTVSPropertyOp47
 70
     0
102
RTVSPropertyOp48
 70
     0
102
RTVSPropertyOp49
 70
     0
102
RTVSPropertyOp50
 70
     0
102
RTVSPropertyOp51
 70
     0
102
RTVSPropertyOp52
 70
     0
102
RTVSPropertyOp53
 70
     0
102
RTVSPropertyOp54
 70
     0
102
RTVSPropertyOp55
 70
     0
102
RTVSPropertyOp56
 70
     0
102
RTVSPropertyOp57
 70
     0
102
RTVSPost2010Prop28
280
     0
102
RTVSPost2010PropOp28
 70
     0
102
RTVSPost2010Prop29
280
     1
102
RTVSPost2010PropOp29
 70
     0
102
RTVSPost2010Prop30
280
     1
102
RTVSPost2010PropOp30
 70
     0
102
RTVSPost2010Prop31
280
     0
102
RTVSPost2010PropOp31
 70
     0
102
RTVSPost2010Prop32
280
     0
102
RTVSPost2010PropOp32
 70
     0
102
RTVSPost2010Prop33
280
     0
102
RTVSPost2010PropOp33
 70
     0
102
RTVSPost2010Prop34
280
     0
102
RTVSPost2010PropOp34
 70
     0
102
RTVSPost2010Prop35
280
     0
102
RTVSPost2010PropOp35
 70
     0
102
RTVSPost2010Prop36
280
     0
102
RTVSPost2010PropOp36
 70
     0
102
RTVSPost2010Prop37
 90
       50
102
RTVSPost2010PropOp37
 70
     0
102
RTVSPost2010Prop38
140
0.0
102
RTVSPost2010PropOp38
 70
     0
102
RTVSPost2010Prop39
140
1.0
102
RTVSPost2010PropOp39
 70
     0
102
RTVSPost2010Prop40
 90
        0
102
RTVSPost2010PropOp40
 70
     0
102
RTVSPost2010Prop41ColorIndex
 90
       18
102
RTVSPost2010Prop41ColorRGB
 90
        0
102
RTVSPost2010PropOp41
 70
     0
102
RTVSPost2010Prop42
 90
       50
102
RTVSPost2010PropOp42
 70
     0
102
RTVSPost2010Prop43
 90
        3
102
RTVSPost2010PropOp43
 70
     0
102
RTVSPost2010Prop44ColorIndex
 90
        5
102
RTVSPost2010Prop44ColorRGB
 90
      255
102
RTVSPost2010PropOp44
 70
     0
102
RTVSPost2010Prop45
280
     0
102
RTVSPost2010PropOp45
 70
     0
102
RTVSPost2010Prop46
 90
       50
102
RTVSPost2010PropOp46
 70
     0
102
RTVSPost2010Prop47
 90
       50
102
RTVSPost2010PropOp47
 70
     0
102
RTVSPost2010Prop48
 90
       50
102
RTVSPost2010PropOp48
 70
     0
102
RTVSPost2010Prop49
280
     0
102
RTVSPost2010PropOp49
 70
     0
102
RTVSPost2010Prop50
 90
       50
102
RTVSPost2010PropOp50
 70
     0
102
RTVSPost2010Prop51ColorIndex
 90
      256
102
RTVSPost2010Prop51ColorRGB
 90
-16777216
102
RTVSPost2010PropOp51
 70
     0
102
RTVSPost2010Prop52
140
1.0
102
RTVSPost2010PropOp52
 70
     0
102
RTVSPost2010Prop53
 90
        2
102
RTVSPost2010PropOp53
 70
     0
102
RTVSPost2010Prop54
  1
strokes_ogs.tif
102
RTVSPost2010PropOp54
 70
     0
102
RTVSPost2010Prop55
280
     0
102
RTVSPost2010PropOp55
 70
     0
102
RTVSPost2010Prop56
140
1.0
102
RTVSPost2010PropOp56
 70
     0
102
RTVSPost2010Prop57
140
1.0
102
RTVSPost2010PropOp57
 70
     0
  0
XRECORD
  5
2F0
102
{ACAD_REACTORS
330
2EF
102
}
330
2EF
100
AcDbXrecord
280
     1
102
RTVSPropertyOp0
 70
     1
102
RTVSPropertyOp1
 70
     1
102
RTVSPropertyOp2
 70
     1
102
RTVSPropertyOp3
 70
     1
102
RTVSPropertyOp4
 70
     1
102
RTVSPropertyOp5
 70
     1
102
RTVSPropertyOp6
 70
     1
102
RTVSPropertyOp7
 70
     1
102
RTVSPropertyOp8
 70
     1
102
RTVSPropertyOp9
 70
     1
102
RTVSPropertyOp10
 70
     1
102
RTVSPropertyOp11
 70
     1
102
RTVSPropertyOp12
 70
     1
102
RTVSPropertyOp13
 70
     1
102
RTVSPropertyOp14
 70
     1
102
RTVSPropertyOp15
 70
     1
102
RTVSPropertyOp16
 70
     1
102
RTVSPropertyOp17
 70
     1
102
RTVSPropertyOp18
 70
     1
102
RTVSPropertyOp19
 70
     1
102
RTVSPropertyOp20
 70
     1
102
RTVSPropertyOp21
 70
     1
102
RTVSPropertyOp22
 70
     1
102
RTVSPropertyOp23
 70
     1
102
RTVSPropertyOp24
 70
     1
102
RTVSPropertyOp25
 70
     1
102
RTVSPropertyOp26
 70
     1
102
RTVSPropertyOp27
 70
     1
102
RTVSPropertyOp28
 70
     1
102
RTVSPropertyOp29
 70
     1
102
RTVSPropertyOp30
 70
     1
102
RTVSPropertyOp31
 70
     1
102
RTVSPropertyOp32
 70
     1
102
RTVSPropertyOp33
 70
     1
102
RTVSPropertyOp34
 70
     1
102
RTVSPropertyOp35
 70
     1
102
RTVSPropertyOp36
 70
     1
102
RTVSPropertyOp37
 70
     1
102
RTVSPropertyOp38
 70
     1
102
RTVSPropertyOp39
 70
     1
102
RTVSPropertyOp40
 70
     1
102
RTVSPropertyOp41
 70
     1
102
RTVSPropertyOp42
 70
     1
102
RTVSPropertyOp43
 70
     1
102
RTVSPropertyOp44
 70
     1
102
RTVSPropertyOp45
 70
     1
102
RTVSPropertyOp46
 70
     1
102
RTVSPropertyOp47
 70
     1
102
RTVSPropertyOp48
 70
     1
102
RTVSPropertyOp49
 70
     1
102
RTVSPropertyOp50
 70
     1
102
RTVSPropertyOp51
 70
     0
102
RTVSPropertyOp52
 70
     0
102
RTVSPropertyOp53
 70
     1
102
RTVSPropertyOp54
 70
     1
102
RTVSPropertyOp55
 70
     1
102
RTVSPropertyOp56
 70
     1
102
RTVSPropertyOp57
 70
     1
102
RTVSPost2010Prop28
280
     0
102
RTVSPost2010PropOp28
 70
     1
102
RTVSPost2010Prop29
280
     1
102
RTVSPost2010PropOp29
 70
     1
102
RTVSPost2010Prop30
280
     1
102
RTVSPost2010PropOp30
 70
     1
102
RTVSPost2010Prop31
280
     0
102
RTVSPost2010PropOp31
 70
     1
102
RTVSPost2010Prop32
280
     0
102
RTVSPost2010PropOp32
 70
     1
102
RTVSPost2010Prop33
280
     0
102
RTVSPost2010PropOp33
 70
     1
102
RTVSPost2010Prop34
280
     0
102
RTVSPost2010PropOp34
 70
     1
102
RTVSPost2010Prop35
280
     0
102
RTVSPost2010PropOp35
 70
     1
102
RTVSPost2010Prop36
280
     0
102
RTVSPost2010PropOp36
 70
     1
102
RTVSPost2010Prop37
 90
       50
102
RTVSPost2010PropOp37
 70
     1
102
RTVSPost2010Prop38
140
0.0
102
RTVSPost2010PropOp38
 70
     1
102
RTVSPost2010Prop39
140
1.0
102
RTVSPost2010PropOp39
 70
     1
102
RTVSPost2010Prop40
 90
        0
102
RTVSPost2010PropOp40
 70
     1
102
RTVSPost2010Prop41ColorIndex
 90
       18
102
RTVSPost2010Prop41ColorRGB
 90
        0
102
RTVSPost2010PropOp41
 70
     1
102
RTVSPost2010Prop42
 90
       50
102
RTVSPost2010PropOp42
 70
     1
102
RTVSPost2010Prop43
 90
        3
102
RTVSPost2010PropOp43
 70
     1
102
RTVSPost2010Prop44ColorIndex
 90
        5
102
RTVSPost2010Prop44ColorRGB
 90
      255
102
RTVSPost2010PropOp44
 70
     1
102
RTVSPost2010Prop45
280
     0
102
RTVSPost2010PropOp45
 70
     1
102
RTVSPost2010Prop46
 90
       50
102
RTVSPost2010PropOp46
 70
     1
102
RTVSPost2010Prop47
 90
       50
102
RTVSPost2010PropOp47
 70
     1
102
RTVSPost2010Prop48
 90
       50
102
RTVSPost2010PropOp48
 70
     1
102
RTVSPost2010Prop49
280
     0
102
RTVSPost2010PropOp49
 70
     1
102
RTVSPost2010Prop50
 90
       50
102
RTVSPost2010PropOp50
 70
     1
102
RTVSPost2010Prop51ColorIndex
 90
      256
102
RTVSPost2010Prop51ColorRGB
 90
-16777216
102
RTVSPost2010PropOp51
 70
     0
102
RTVSPost2010Prop52
140
1.0
102
RTVSPost2010PropOp52
 70
     0
102
RTVSPost2010Prop53
 90
        2
102
RTVSPost2010PropOp53
 70
     1
102
RTVSPost2010Prop54
  1
strokes_ogs.tif
102
RTVSPost2010PropOp54
 70
     1
102
RTVSPost2010Prop55
280
     0
102
RTVSPost2010PropOp55
 70
     1
102
RTVSPost2010Prop56
140
1.0
102
RTVSPost2010PropOp56
 70
     1
102
RTVSPost2010Prop57
140
1.0
102
RTVSPost2010PropOp57
 70
     1
  0
XRECORD
  5
2D4
102
{ACAD_REACTORS
330
2D3
102
}
330
2D3
100
AcDbXrecord
280
     1
102
RTVSPropertyOp0
 70
     1
102
RTVSPropertyOp1
 70
     1
102
RTVSPropertyOp2
 70
     1
102
RTVSPropertyOp3
 70
     1
102
RTVSPropertyOp4
 70
     1
102
RTVSPropertyOp5
 70
     1
102
RTVSPropertyOp6
 70
     1
102
RTVSPropertyOp7
 70
     1
102
RTVSPropertyOp8
 70
     1
102
RTVSPropertyOp9
 70
     1
102
RTVSPropertyOp10
 70
     1
102
RTVSPropertyOp11
 70
     1
102
RTVSPropertyOp12
 70
     1
102
RTVSPropertyOp13
 70
     1
102
RTVSPropertyOp14
 70
     1
102
RTVSPropertyOp15
 70
     1
102
RTVSPropertyOp16
 70
     1
102
RTVSPropertyOp17
 70
     1
102
RTVSPropertyOp18
 70
     1
102
RTVSPropertyOp19
 70
     1
102
RTVSPropertyOp20
 70
     1
102
RTVSPropertyOp21
 70
     1
102
RTVSPropertyOp22
 70
     1
102
RTVSPropertyOp23
 70
     1
102
RTVSPropertyOp24
 70
     1
102
RTVSPropertyOp25
 70
     1
102
RTVSPropertyOp26
 70
     1
102
RTVSPropertyOp27
 70
     1
102
RTVSPropertyOp28
 70
     1
102
RTVSPropertyOp29
 70
     1
102
RTVSPropertyOp30
 70
     1
102
RTVSPropertyOp31
 70
     1
102
RTVSPropertyOp32
 70
     1
102
RTVSPropertyOp33
 70
     1
102
RTVSPropertyOp34
 70
     1
102
RTVSPropertyOp35
 70
     1
102
RTVSPropertyOp36
 70
     1
102
RTVSPropertyOp37
 70
     1
102
RTVSPropertyOp38
 70
     1
102
RTVSPropertyOp39
 70
     1
102
RTVSPropertyOp40
 70
     1
102
RTVSPropertyOp41
 70
     1
102
RTVSPropertyOp42
 70
     1
102
RTVSPropertyOp43
 70
     1
102
RTVSPropertyOp44
 70
     1
102
RTVSPropertyOp45
 70
     1
102
RTVSPropertyOp46
 70
     1
102
RTVSPropertyOp47
 70
     1
102
RTVSPropertyOp48
 70
     1
102
RTVSPropertyOp49
 70
     1
102
RTVSPropertyOp50
 70
     1
102
RTVSPropertyOp51
 70
     0
102
RTVSPropertyOp52
 70
     0
102
RTVSPropertyOp53
 70
     1
102
RTVSPropertyOp54
 70
     1
102
RTVSPropertyOp55
 70
     1
102
RTVSPropertyOp56
 70
     1
102
RTVSPropertyOp57
 70
     1
102
RTVSPost2010Prop28
280
     0
102
RTVSPost2010PropOp28
 70
     1
102
RTVSPost2010Prop29
280
     1
102
RTVSPost2010PropOp29
 70
     1
102
RTVSPost2010Prop30
280
     1
102
RTVSPost2010PropOp30
 70
     1
102
RTVSPost2010Prop31
280
     0
102
RTVSPost2010PropOp31
 70
     1
102
RTVSPost2010Prop32
280
     0
102
RTVSPost2010PropOp32
 70
     1
102
RTVSPost2010Prop33
280
     0
102
RTVSPost2010PropOp33
 70
     1
102
RTVSPost2010Prop34
280
     0
102
RTVSPost2010PropOp34
 70
     1
102
RTVSPost2010Prop35
280
     0
102
RTVSPost2010PropOp35
 70
     1
102
RTVSPost2010Prop36
280
     0
102
RTVSPost2010PropOp36
 70
     1
102
RTVSPost2010Prop37
 90
       50
102
RTVSPost2010PropOp37
 70
     1
102
RTVSPost2010Prop38
140
0.0
102
RTVSPost2010PropOp38
 70
     1
102
RTVSPost2010Prop39
140
1.0
102
RTVSPost2010PropOp39
 70
     1
102
RTVSPost2010Prop40
 90
        0
102
RTVSPost2010PropOp40
 70
     1
102
RTVSPost2010Prop41ColorIndex
 90
       18
102
RTVSPost2010Prop41ColorRGB
 90
        0
102
RTVSPost2010PropOp41
 70
     1
102
RTVSPost2010Prop42
 90
       50
102
RTVSPost2010PropOp42
 70
     1
102
RTVSPost2010Prop43
 90
        3
102
RTVSPost2010PropOp43
 70
     1
102
RTVSPost2010Prop44ColorIndex
 90
        5
102
RTVSPost2010Prop44ColorRGB
 90
      255
102
RTVSPost2010PropOp44
 70
     1
102
RTVSPost2010Prop45
280
     0
102
RTVSPost2010PropOp45
 70
     1
102
RTVSPost2010Prop46
 90
       50
102
RTVSPost2010PropOp46
 70
     1
102
RTVSPost2010Prop47
 90
       50
102
RTVSPost2010PropOp47
 70
     1
102
RTVSPost2010Prop48
 90
       50
102
RTVSPost2010PropOp48
 70
     1
102
RTVSPost2010Prop49
280
     0
102
RTVSPost2010PropOp49
 70
     1
102
RTVSPost2010Prop50
 90
       50
102
RTVSPost2010PropOp50
 70
     1
102
RTVSPost2010Prop51ColorIndex
 90
      256
102
RTVSPost2010Prop51ColorRGB
 90
-16777216
102
RTVSPost2010PropOp51
 70
     0
102
RTVSPost2010Prop52
140
1.0
102
RTVSPost2010PropOp52
 70
     0
102
RTVSPost2010Prop53
 90
        2
102
RTVSPost2010PropOp53
 70
     1
102
RTVSPost2010Prop54
  1
strokes_ogs.tif
102
RTVSPost2010PropOp54
 70
     1
102
RTVSPost2010Prop55
280
     0
102
RTVSPost2010PropOp55
 70
     1
102
RTVSPost2010Prop56
140
1.0
102
RTVSPost2010PropOp56
 70
     1
102
RTVSPost2010Prop57
140
1.0
102
RTVSPost2010PropOp57
 70
     1
  0
XRECORD
  5
2D6
102
{ACAD_REACTORS
330
2D5
102
}
330
2D5
100
AcDbXrecord
280
     1
102
RTVSPropertyOp0
 70
     1
102
RTVSPropertyOp1
 70
     1
102
RTVSPropertyOp2
 70
     1
102
RTVSPropertyOp3
 70
     1
102
RTVSPropertyOp4
 70
     1
102
RTVSPropertyOp5
 70
     1
102
RTVSPropertyOp6
 70
     1
102
RTVSPropertyOp7
 70
     1
102
RTVSPropertyOp8
 70
     1
102
RTVSPropertyOp9
 70
     1
102
RTVSPropertyOp10
 70
     1
102
RTVSPropertyOp11
 70
     1
102
RTVSPropertyOp12
 70
     1
102
RTVSPropertyOp13
 70
     1
102
RTVSPropertyOp14
 70
     1
102
RTVSPropertyOp15
 70
     1
102
RTVSPropertyOp16
 70
     1
102
RTVSPropertyOp17
 70
     1
102
RTVSPropertyOp18
 70
     1
102
RTVSPropertyOp19
 70
     1
102
RTVSPropertyOp20
 70
     1
102
RTVSPropertyOp21
 70
     1
102
RTVSPropertyOp22
 70
     1
102
RTVSPropertyOp23
 70
     1
102
RTVSPropertyOp24
 70
     1
102
RTVSPropertyOp25
 70
     1
102
RTVSPropertyOp26
 70
     1
102
RTVSPropertyOp27
 70
     1
102
RTVSPropertyOp28
 70
     1
102
RTVSPropertyOp29
 70
     1
102
RTVSPropertyOp30
 70
     1
102
RTVSPropertyOp31
 70
     1
102
RTVSPropertyOp32
 70
     1
102
RTVSPropertyOp33
 70
     1
102
RTVSPropertyOp34
 70
     1
102
RTVSPropertyOp35
 70
     1
102
RTVSPropertyOp36
 70
     1
102
RTVSPropertyOp37
 70
     1
102
RTVSPropertyOp38
 70
     1
102
RTVSPropertyOp39
 70
     1
102
RTVSPropertyOp40
 70
     1
102
RTVSPropertyOp41
 70
     1
102
RTVSPropertyOp42
 70
     1
102
RTVSPropertyOp43
 70
     1
102
RTVSPropertyOp44
 70
     1
102
RTVSPropertyOp45
 70
     1
102
RTVSPropertyOp46
 70
     1
102
RTVSPropertyOp47
 70
     1
102
RTVSPropertyOp48
 70
     1
102
RTVSPropertyOp49
 70
     1
102
RTVSPropertyOp50
 70
     1
102
RTVSPropertyOp51
 70
     0
102
RTVSPropertyOp52
 70
     0
102
RTVSPropertyOp53
 70
     1
102
RTVSPropertyOp54
 70
     1
102
RTVSPropertyOp55
 70
     1
102
RTVSPropertyOp56
 70
     1
102
RTVSPropertyOp57
 70
     1
102
RTVSPost2010Prop28
280
     0
102
RTVSPost2010PropOp28
 70
     1
102
RTVSPost2010Prop29
280
     1
102
RTVSPost2010PropOp29
 70
     1
102
RTVSPost2010Prop30
280
     1
102
RTVSPost2010PropOp30
 70
     1
102
RTVSPost2010Prop31
280
     0
102
RTVSPost2010PropOp31
 70
     1
102
RTVSPost2010Prop32
280
     0
102
RTVSPost2010PropOp32
 70
     1
102
RTVSPost2010Prop33
280
     0
102
RTVSPost2010PropOp33
 70
     1
102
RTVSPost2010Prop34
280
     0
102
RTVSPost2010PropOp34
 70
     1
102
RTVSPost2010Prop35
280
     0
102
RTVSPost2010PropOp35
 70
     1
102
RTVSPost2010Prop36
280
     0
102
RTVSPost2010PropOp36
 70
     1
102
RTVSPost2010Prop37
 90
       50
102
RTVSPost2010PropOp37
 70
     1
102
RTVSPost2010Prop38
140
0.0
102
RTVSPost2010PropOp38
 70
     1
102
RTVSPost2010Prop39
140
1.0
102
RTVSPost2010PropOp39
 70
     1
102
RTVSPost2010Prop40
 90
        0
102
RTVSPost2010PropOp40
 70
     1
102
RTVSPost2010Prop41ColorIndex
 90
       18
102
RTVSPost2010Prop41ColorRGB
 90
        0
102
RTVSPost2010PropOp41
 70
     1
102
RTVSPost2010Prop42
 90
       50
102
RTVSPost2010PropOp42
 70
     1
102
RTVSPost2010Prop43
 90
        3
102
RTVSPost2010PropOp43
 70
     1
102
RTVSPost2010Prop44ColorIndex
 90
        5
102
RTVSPost2010Prop44ColorRGB
 90
      255
102
RTVSPost2010PropOp44
 70
     1
102
RTVSPost2010Prop45
280
     0
102
RTVSPost2010PropOp45
 70
     1
102
RTVSPost2010Prop46
 90
       50
102
RTVSPost2010PropOp46
 70
     1
102
RTVSPost2010Prop47
 90
       50
102
RTVSPost2010PropOp47
 70
     1
102
RTVSPost2010Prop48
 90
       50
102
RTVSPost2010PropOp48
 70
     1
102
RTVSPost2010Prop49
280
     0
102
RTVSPost2010PropOp49
 70
     1
102
RTVSPost2010Prop50
 90
       50
102
RTVSPost2010PropOp50
 70
     1
102
RTVSPost2010Prop51ColorIndex
 90
      256
102
RTVSPost2010Prop51ColorRGB
 90
-16777216
102
RTVSPost2010PropOp51
 70
     0
102
RTVSPost2010Prop52
140
1.0
102
RTVSPost2010PropOp52
 70
     0
102
RTVSPost2010Prop53
 90
        2
102
RTVSPost2010PropOp53
 70
     1
102
RTVSPost2010Prop54
  1
strokes_ogs.tif
102
RTVSPost2010PropOp54
 70
     1
102
RTVSPost2010Prop55
280
     0
102
RTVSPost2010PropOp55
 70
     1
102
RTVSPost2010Prop56
140
1.0
102
RTVSPost2010PropOp56
 70
     1
102
RTVSPost2010Prop57
140
1.0
102
RTVSPost2010PropOp57
 70
     1
  0
XRECORD
  5
2D8
102
{ACAD_REACTORS
330
2D7
102
}
330
2D7
100
AcDbXrecord
280
     1
102
RTVSPropertyOp0
 70
     1
102
RTVSPropertyOp1
 70
     1
102
RTVSPropertyOp2
 70
     1
102
RTVSPropertyOp3
 70
     1
102
RTVSPropertyOp4
 70
     1
102
RTVSPropertyOp5
 70
     1
102
RTVSPropertyOp6
 70
     1
102
RTVSPropertyOp7
 70
     1
102
RTVSPropertyOp8
 70
     1
102
RTVSPropertyOp9
 70
     1
102
RTVSPropertyOp10
 70
     1
102
RTVSPropertyOp11
 70
     1
102
RTVSPropertyOp12
 70
     1
102
RTVSPropertyOp13
 70
     1
102
RTVSPropertyOp14
 70
     1
102
RTVSPropertyOp15
 70
     1
102
RTVSPropertyOp16
 70
     1
102
RTVSPropertyOp17
 70
     1
102
RTVSPropertyOp18
 70
     1
102
RTVSPropertyOp19
 70
     1
102
RTVSPropertyOp20
 70
     1
102
RTVSPropertyOp21
 70
     1
102
RTVSPropertyOp22
 70
     1
102
RTVSPropertyOp23
 70
     1
102
RTVSPropertyOp24
 70
     1
102
RTVSPropertyOp25
 70
     1
102
RTVSPropertyOp26
 70
     1
102
RTVSPropertyOp27
 70
     1
102
RTVSPropertyOp28
 70
     1
102
RTVSPropertyOp29
 70
     1
102
RTVSPropertyOp30
 70
     1
102
RTVSPropertyOp31
 70
     1
102
RTVSPropertyOp32
 70
     1
102
RTVSPropertyOp33
 70
     1
102
RTVSPropertyOp34
 70
     1
102
RTVSPropertyOp35
 70
     1
102
RTVSPropertyOp36
 70
     1
102
RTVSPropertyOp37
 70
     1
102
RTVSPropertyOp38
 70
     1
102
RTVSPropertyOp39
 70
     1
102
RTVSPropertyOp40
 70
     1
102
RTVSPropertyOp41
 70
     1
102
RTVSPropertyOp42
 70
     1
102
RTVSPropertyOp43
 70
     1
102
RTVSPropertyOp44
 70
     1
102
RTVSPropertyOp45
 70
     1
102
RTVSPropertyOp46
 70
     1
102
RTVSPropertyOp47
 70
     1
102
RTVSPropertyOp48
 70
     1
102
RTVSPropertyOp49
 70
     1
102
RTVSPropertyOp50
 70
     1
102
RTVSPropertyOp51
 70
     0
102
RTVSPropertyOp52
 70
     0
102
RTVSPropertyOp53
 70
     1
102
RTVSPropertyOp54
 70
     1
102
RTVSPropertyOp55
 70
     1
102
RTVSPropertyOp56
 70
     1
102
RTVSPropertyOp57
 70
     1
102
RTVSPost2010Prop28
280
     0
102
RTVSPost2010PropOp28
 70
     1
102
RTVSPost2010Prop29
280
     1
102
RTVSPost2010PropOp29
 70
     1
102
RTVSPost2010Prop30
280
     1
102
RTVSPost2010PropOp30
 70
     1
102
RTVSPost2010Prop31
280
     0
102
RTVSPost2010PropOp31
 70
     1
102
RTVSPost2010Prop32
280
     0
102
RTVSPost2010PropOp32
 70
     1
102
RTVSPost2010Prop33
280
     0
102
RTVSPost2010PropOp33
 70
     1
102
RTVSPost2010Prop34
280
     0
102
RTVSPost2010PropOp34
 70
     1
102
RTVSPost2010Prop35
280
     0
102
RTVSPost2010PropOp35
 70
     1
102
RTVSPost2010Prop36
280
     0
102
RTVSPost2010PropOp36
 70
     1
102
RTVSPost2010Prop37
 90
       50
102
RTVSPost2010PropOp37
 70
     1
102
RTVSPost2010Prop38
140
0.0
102
RTVSPost2010PropOp38
 70
     1
102
RTVSPost2010Prop39
140
1.0
102
RTVSPost2010PropOp39
 70
     1
102
RTVSPost2010Prop40
 90
        0
102
RTVSPost2010PropOp40
 70
     1
102
RTVSPost2010Prop41ColorIndex
 90
       18
102
RTVSPost2010Prop41ColorRGB
 90
        0
102
RTVSPost2010PropOp41
 70
     1
102
RTVSPost2010Prop42
 90
       50
102
RTVSPost2010PropOp42
 70
     1
102
RTVSPost2010Prop43
 90
        3
102
RTVSPost2010PropOp43
 70
     1
102
RTVSPost2010Prop44ColorIndex
 90
        5
102
RTVSPost2010Prop44ColorRGB
 90
      255
102
RTVSPost2010PropOp44
 70
     1
102
RTVSPost2010Prop45
280
     0
102
RTVSPost2010PropOp45
 70
     1
102
RTVSPost2010Prop46
 90
       50
102
RTVSPost2010PropOp46
 70
     1
102
RTVSPost2010Prop47
 90
       50
102
RTVSPost2010PropOp47
 70
     1
102
RTVSPost2010Prop48
 90
       50
102
RTVSPost2010PropOp48
 70
     1
102
RTVSPost2010Prop49
280
     0
102
RTVSPost2010PropOp49
 70
     1
102
RTVSPost2010Prop50
 90
       50
102
RTVSPost2010PropOp50
 70
     1
102
RTVSPost2010Prop51ColorIndex
 90
      256
102
RTVSPost2010Prop51ColorRGB
 90
-16777216
102
RTVSPost2010PropOp51
 70
     0
102
RTVSPost2010Prop52
140
1.0
102
RTVSPost2010PropOp52
 70
     0
102
RTVSPost2010Prop53
 90
        2
102
RTVSPost2010PropOp53
 70
     1
102
RTVSPost2010Prop54
  1
strokes_ogs.tif
102
RTVSPost2010PropOp54
 70
     1
102
RTVSPost2010Prop55
280
     0
102
RTVSPost2010PropOp55
 70
     1
102
RTVSPost2010Prop56
140
1.0
102
RTVSPost2010PropOp56
 70
     1
102
RTVSPost2010Prop57
140
1.0
102
RTVSPost2010PropOp57
 70
     1
  0
XRECORD
  5
2DA
102
{ACAD_REACTORS
330
2D9
102
}
330
2D9
100
AcDbXrecord
280
     1
102
RTVSPropertyOp0
 70
     1
102
RTVSPropertyOp1
 70
     1
102
RTVSPropertyOp2
 70
     1
102
RTVSPropertyOp3
 70
     1
102
RTVSPropertyOp4
 70
     1
102
RTVSPropertyOp5
 70
     1
102
RTVSPropertyOp6
 70
     1
102
RTVSPropertyOp7
 70
     1
102
RTVSPropertyOp8
 70
     1
102
RTVSPropertyOp9
 70
     1
102
RTVSPropertyOp10
 70
     1
102
RTVSPropertyOp11
 70
     1
102
RTVSPropertyOp12
 70
     1
102
RTVSPropertyOp13
 70
     1
102
RTVSPropertyOp14
 70
     1
102
RTVSPropertyOp15
 70
     1
102
RTVSPropertyOp16
 70
     1
102
RTVSPropertyOp17
 70
     1
102
RTVSPropertyOp18
 70
     1
102
RTVSPropertyOp19
 70
     1
102
RTVSPropertyOp20
 70
     1
102
RTVSPropertyOp21
 70
     1
102
RTVSPropertyOp22
 70
     1
102
RTVSPropertyOp23
 70
     1
102
RTVSPropertyOp24
 70
     1
102
RTVSPropertyOp25
 70
     1
102
RTVSPropertyOp26
 70
     1
102
RTVSPropertyOp27
 70
     1
102
RTVSPropertyOp28
 70
     1
102
RTVSPropertyOp29
 70
     1
102
RTVSPropertyOp30
 70
     1
102
RTVSPropertyOp31
 70
     1
102
RTVSPropertyOp32
 70
     1
102
RTVSPropertyOp33
 70
     1
102
RTVSPropertyOp34
 70
     1
102
RTVSPropertyOp35
 70
     1
102
RTVSPropertyOp36
 70
     1
102
RTVSPropertyOp37
 70
     1
102
RTVSPropertyOp38
 70
     1
102
RTVSPropertyOp39
 70
     1
102
RTVSPropertyOp40
 70
     1
102
RTVSPropertyOp41
 70
     1
102
RTVSPropertyOp42
 70
     1
102
RTVSPropertyOp43
 70
     1
102
RTVSPropertyOp44
 70
     1
102
RTVSPropertyOp45
 70
     1
102
RTVSPropertyOp46
 70
     1
102
RTVSPropertyOp47
 70
     1
102
RTVSPropertyOp48
 70
     1
102
RTVSPropertyOp49
 70
     1
102
RTVSPropertyOp50
 70
     1
102
RTVSPropertyOp51
 70
     0
102
RTVSPropertyOp52
 70
     0
102
RTVSPropertyOp53
 70
     1
102
RTVSPropertyOp54
 70
     1
102
RTVSPropertyOp55
 70
     1
102
RTVSPropertyOp56
 70
     1
102
RTVSPropertyOp57
 70
     1
102
RTVSPost2010Prop28
280
     0
102
RTVSPost2010PropOp28
 70
     1
102
RTVSPost2010Prop29
280
     1
102
RTVSPost2010PropOp29
 70
     1
102
RTVSPost2010Prop30
280
     1
102
RTVSPost2010PropOp30
 70
     1
102
RTVSPost2010Prop31
280
     0
102
RTVSPost2010PropOp31
 70
     1
102
RTVSPost2010Prop32
280
     0
102
RTVSPost2010PropOp32
 70
     1
102
RTVSPost2010Prop33
280
     0
102
RTVSPost2010PropOp33
 70
     1
102
RTVSPost2010Prop34
280
     0
102
RTVSPost2010PropOp34
 70
     1
102
RTVSPost2010Prop35
280
     0
102
RTVSPost2010PropOp35
 70
     1
102
RTVSPost2010Prop36
280
     0
102
RTVSPost2010PropOp36
 70
     1
102
RTVSPost2010Prop37
 90
       50
102
RTVSPost2010PropOp37
 70
     1
102
RTVSPost2010Prop38
140
0.0
102
RTVSPost2010PropOp38
 70
     1
102
RTVSPost2010Prop39
140
1.0
102
RTVSPost2010PropOp39
 70
     1
102
RTVSPost2010Prop40
 90
        0
102
RTVSPost2010PropOp40
 70
     1
102
RTVSPost2010Prop41ColorIndex
 90
       18
102
RTVSPost2010Prop41ColorRGB
 90
        0
102
RTVSPost2010PropOp41
 70
     1
102
RTVSPost2010Prop42
 90
       50
102
RTVSPost2010PropOp42
 70
     1
102
RTVSPost2010Prop43
 90
        3
102
RTVSPost2010PropOp43
 70
     1
102
RTVSPost2010Prop44ColorIndex
 90
        5
102
RTVSPost2010Prop44ColorRGB
 90
      255
102
RTVSPost2010PropOp44
 70
     1
102
RTVSPost2010Prop45
280
     0
102
RTVSPost2010PropOp45
 70
     1
102
RTVSPost2010Prop46
 90
       50
102
RTVSPost2010PropOp46
 70
     1
102
RTVSPost2010Prop47
 90
       50
102
RTVSPost2010PropOp47
 70
     1
102
RTVSPost2010Prop48
 90
       50
102
RTVSPost2010PropOp48
 70
     1
102
RTVSPost2010Prop49
280
     0
102
RTVSPost2010PropOp49
 70
     1
102
RTVSPost2010Prop50
 90
       50
102
RTVSPost2010PropOp50
 70
     1
102
RTVSPost2010Prop51ColorIndex
 90
      256
102
RTVSPost2010Prop51ColorRGB
 90
-16777216
102
RTVSPost2010PropOp51
 70
     0
102
RTVSPost2010Prop52
140
1.0
102
RTVSPost2010PropOp52
 70
     0
102
RTVSPost2010Prop53
 90
        2
102
RTVSPost2010PropOp53
 70
     1
102
RTVSPost2010Prop54
  1
strokes_ogs.tif
102
RTVSPost2010PropOp54
 70
     1
102
RTVSPost2010Prop55
280
     0
102
RTVSPost2010PropOp55
 70
     1
102
RTVSPost2010Prop56
140
1.0
102
RTVSPost2010PropOp56
 70
     1
102
RTVSPost2010Prop57
140
1.0
102
RTVSPost2010PropOp57
 70
     1
  0
XRECORD
  5
2E0
102
{ACAD_REACTORS
330
2DF
102
}
330
2DF
100
AcDbXrecord
280
     1
102
RTVSPropertyOp0
 70
     1
102
RTVSPropertyOp1
 70
     1
102
RTVSPropertyOp2
 70
     1
102
RTVSPropertyOp3
 70
     1
102
RTVSPropertyOp4
 70
     1
102
RTVSPropertyOp5
 70
     1
102
RTVSPropertyOp6
 70
     1
102
RTVSPropertyOp7
 70
     1
102
RTVSPropertyOp8
 70
     1
102
RTVSPropertyOp9
 70
     1
102
RTVSPropertyOp10
 70
     1
102
RTVSPropertyOp11
 70
     1
102
RTVSPropertyOp12
 70
     1
102
RTVSPropertyOp13
 70
     1
102
RTVSPropertyOp14
 70
     1
102
RTVSPropertyOp15
 70
     1
102
RTVSPropertyOp16
 70
     1
102
RTVSPropertyOp17
 70
     1
102
RTVSPropertyOp18
 70
     1
102
RTVSPropertyOp19
 70
     1
102
RTVSPropertyOp20
 70
     1
102
RTVSPropertyOp21
 70
     1
102
RTVSPropertyOp22
 70
     1
102
RTVSPropertyOp23
 70
     1
102
RTVSPropertyOp24
 70
     1
102
RTVSPropertyOp25
 70
     1
102
RTVSPropertyOp26
 70
     1
102
RTVSPropertyOp27
 70
     1
102
RTVSPropertyOp28
 70
     1
102
RTVSPropertyOp29
 70
     1
102
RTVSPropertyOp30
 70
     1
102
RTVSPropertyOp31
 70
     1
102
RTVSPropertyOp32
 70
     1
102
RTVSPropertyOp33
 70
     1
102
RTVSPropertyOp34
 70
     1
102
RTVSPropertyOp35
 70
     1
102
RTVSPropertyOp36
 70
     1
102
RTVSPropertyOp37
 70
     1
102
RTVSPropertyOp38
 70
     1
102
RTVSPropertyOp39
 70
     1
102
RTVSPropertyOp40
 70
     1
102
RTVSPropertyOp41
 70
     1
102
RTVSPropertyOp42
 70
     1
102
RTVSPropertyOp43
 70
     1
102
RTVSPropertyOp44
 70
     1
102
RTVSPropertyOp45
 70
     1
102
RTVSPropertyOp46
 70
     1
102
RTVSPropertyOp47
 70
     1
102
RTVSPropertyOp48
 70
     1
102
RTVSPropertyOp49
 70
     1
102
RTVSPropertyOp50
 70
     1
102
RTVSPropertyOp51
 70
     0
102
RTVSPropertyOp52
 70
     0
102
RTVSPropertyOp53
 70
     1
102
RTVSPropertyOp54
 70
     1
102
RTVSPropertyOp55
 70
     1
102
RTVSPropertyOp56
 70
     1
102
RTVSPropertyOp57
 70
     1
102
RTVSPost2010Prop28
280
     0
102
RTVSPost2010PropOp28
 70
     1
102
RTVSPost2010Prop29
280
     1
102
RTVSPost2010PropOp29
 70
     1
102
RTVSPost2010Prop30
280
     1
102
RTVSPost2010PropOp30
 70
     1
102
RTVSPost2010Prop31
280
     0
102
RTVSPost2010PropOp31
 70
     1
102
RTVSPost2010Prop32
280
     0
102
RTVSPost2010PropOp32
 70
     1
102
RTVSPost2010Prop33
280
     0
102
RTVSPost2010PropOp33
 70
     1
102
RTVSPost2010Prop34
280
     0
102
RTVSPost2010PropOp34
 70
     1
102
RTVSPost2010Prop35
280
     0
102
RTVSPost2010PropOp35
 70
     1
102
RTVSPost2010Prop36
280
     0
102
RTVSPost2010PropOp36
 70
     1
102
RTVSPost2010Prop37
 90
       50
102
RTVSPost2010PropOp37
 70
     1
102
RTVSPost2010Prop38
140
0.0
102
RTVSPost2010PropOp38
 70
     1
102
RTVSPost2010Prop39
140
1.0
102
RTVSPost2010PropOp39
 70
     1
102
RTVSPost2010Prop40
 90
        0
102
RTVSPost2010PropOp40
 70
     1
102
RTVSPost2010Prop41ColorIndex
 90
       18
102
RTVSPost2010Prop41ColorRGB
 90
        0
102
RTVSPost2010PropOp41
 70
     1
102
RTVSPost2010Prop42
 90
       50
102
RTVSPost2010PropOp42
 70
     1
102
RTVSPost2010Prop43
 90
        3
102
RTVSPost2010PropOp43
 70
     1
102
RTVSPost2010Prop44ColorIndex
 90
        5
102
RTVSPost2010Prop44ColorRGB
 90
      255
102
RTVSPost2010PropOp44
 70
     1
102
RTVSPost2010Prop45
280
     0
102
RTVSPost2010PropOp45
 70
     1
102
RTVSPost2010Prop46
 90
       50
102
RTVSPost2010PropOp46
 70
     1
102
RTVSPost2010Prop47
 90
       50
102
RTVSPost2010PropOp47
 70
     1
102
RTVSPost2010Prop48
 90
       50
102
RTVSPost2010PropOp48
 70
     1
102
RTVSPost2010Prop49
280
     0
102
RTVSPost2010PropOp49
 70
     1
102
RTVSPost2010Prop50
 90
       50
102
RTVSPost2010PropOp50
 70
     1
102
RTVSPost2010Prop51ColorIndex
 90
      256
102
RTVSPost2010Prop51ColorRGB
 90
-16777216
102
RTVSPost2010PropOp51
 70
     0
102
RTVSPost2010Prop52
140
1.0
102
RTVSPost2010PropOp52
 70
     0
102
RTVSPost2010Prop53
 90
        2
102
RTVSPost2010PropOp53
 70
     1
102
RTVSPost2010Prop54
  1
strokes_ogs.tif
102
RTVSPost2010PropOp54
 70
     1
102
RTVSPost2010Prop55
280
     0
102
RTVSPost2010PropOp55
 70
     1
102
RTVSPost2010Prop56
140
1.0
102
RTVSPost2010PropOp56
 70
     1
102
RTVSPost2010Prop57
140
1.0
102
RTVSPost2010PropOp57
 70
     1
  0
XRECORD
  5
2F4
102
{ACAD_REACTORS
330
2F3
102
}
330
2F3
100
AcDbXrecord
280
     1
102
RTVSPropertyOp0
 70
     0
102
RTVSPropertyOp1
 70
     0
102
RTVSPropertyOp2
 70
     0
102
RTVSPropertyOp3
 70
     0
102
RTVSPropertyOp4
 70
     0
102
RTVSPropertyOp5
 70
     0
102
RTVSPropertyOp6
 70
     0
102
RTVSPropertyOp7
 70
     0
102
RTVSPropertyOp8
 70
     0
102
RTVSPropertyOp9
 70
     0
102
RTVSPropertyOp10
 70
     0
102
RTVSPropertyOp11
 70
     0
102
RTVSPropertyOp12
 70
     0
102
RTVSPropertyOp13
 70
     0
102
RTVSPropertyOp14
 70
     2
102
RTVSPropertyOp15
 70
     0
102
RTVSPropertyOp16
 70
     0
102
RTVSPropertyOp17
 70
     0
102
RTVSPropertyOp18
 70
     0
102
RTVSPropertyOp19
 70
     0
102
RTVSPropertyOp20
 70
     0
102
RTVSPropertyOp21
 70
     0
102
RTVSPropertyOp22
 70
     0
102
RTVSPropertyOp23
 70
     0
102
RTVSPropertyOp24
 70
     0
102
RTVSPropertyOp25
 70
     0
102
RTVSPropertyOp26
 70
     0
102
RTVSPropertyOp27
 70
     0
102
RTVSPropertyOp28
 70
     0
102
RTVSPropertyOp29
 70
     0
102
RTVSPropertyOp30
 70
     0
102
RTVSPropertyOp31
 70
     0
102
RTVSPropertyOp32
 70
     0
102
RTVSPropertyOp33
 70
     0
102
RTVSPropertyOp34
 70
     0
102
RTVSPropertyOp35
 70
     0
102
RTVSPropertyOp36
 70
     0
102
RTVSPropertyOp37
 70
     0
102
RTVSPropertyOp38
 70
     0
102
RTVSPropertyOp39
 70
     0
102
RTVSPropertyOp40
 70
     0
102
RTVSPropertyOp41
 70
     0
102
RTVSPropertyOp42
 70
     0
102
RTVSPropertyOp43
 70
     0
102
RTVSPropertyOp44
 70
     0
102
RTVSPropertyOp45
 70
     0
102
RTVSPropertyOp46
 70
     0
102
RTVSPropertyOp47
 70
     0
102
RTVSPropertyOp48
 70
     0
102
RTVSPropertyOp49
 70
     0
102
RTVSPropertyOp50
 70
     0
102
RTVSPropertyOp51
 70
     0
102
RTVSPropertyOp52
 70
     0
102
RTVSPropertyOp53
 70
     0
102
RTVSPropertyOp54
 70
     0
102
RTVSPropertyOp55
 70
     0
102
RTVSPropertyOp56
 70
     0
102
RTVSPropertyOp57
 70
     0
102
RTVSPost2010Prop28
280
     0
102
RTVSPost2010PropOp28
 70
     0
102
RTVSPost2010Prop29
280
     1
102
RTVSPost2010PropOp29
 70
     0
102
RTVSPost2010Prop30
280
     1
102
RTVSPost2010PropOp30
 70
     0
102
RTVSPost2010Prop31
280
     0
102
RTVSPost2010PropOp31
 70
     0
102
RTVSPost2010Prop32
280
     0
102
RTVSPost2010PropOp32
 70
     0
102
RTVSPost2010Prop33
280
     0
102
RTVSPost2010PropOp33
 70
     0
102
RTVSPost2010Prop34
280
     0
102
RTVSPost2010PropOp34
 70
     0
102
RTVSPost2010Prop35
280
     0
102
RTVSPost2010PropOp35
 70
     0
102
RTVSPost2010Prop36
280
     0
102
RTVSPost2010PropOp36
 70
     0
102
RTVSPost2010Prop37
 90
       50
102
RTVSPost2010PropOp37
 70
     0
102
RTVSPost2010Prop38
140
0.0
102
RTVSPost2010PropOp38
 70
     0
102
RTVSPost2010Prop39
140
1.0
102
RTVSPost2010PropOp39
 70
     0
102
RTVSPost2010Prop40
 90
        0
102
RTVSPost2010PropOp40
 70
     0
102
RTVSPost2010Prop41ColorIndex
 90
       18
102
RTVSPost2010Prop41ColorRGB
 90
        0
102
RTVSPost2010PropOp41
 70
     0
102
RTVSPost2010Prop42
 90
       50
102
RTVSPost2010PropOp42
 70
     0
102
RTVSPost2010Prop43
 90
        3
102
RTVSPost2010PropOp43
 70
     0
102
RTVSPost2010Prop44ColorIndex
 90
        5
102
RTVSPost2010Prop44ColorRGB
 90
      255
102
RTVSPost2010PropOp44
 70
     0
102
RTVSPost2010Prop45
280
     0
102
RTVSPost2010PropOp45
 70
     0
102
RTVSPost2010Prop46
 90
       50
102
RTVSPost2010PropOp46
 70
     0
102
RTVSPost2010Prop47
 90
       50
102
RTVSPost2010PropOp47
 70
     0
102
RTVSPost2010Prop48
 90
       50
102
RTVSPost2010PropOp48
 70
     0
102
RTVSPost2010Prop49
280
     0
102
RTVSPost2010PropOp49
 70
     0
102
RTVSPost2010Prop50
 90
       50
102
RTVSPost2010PropOp50
 70
     0
102
RTVSPost2010Prop51ColorIndex
 90
      256
102
RTVSPost2010Prop51ColorRGB
 90
-16777216
102
RTVSPost2010PropOp51
 70
     0
102
RTVSPost2010Prop52
140
1.0
102
RTVSPost2010PropOp52
 70
     0
102
RTVSPost2010Prop53
 90
        2
102
RTVSPost2010PropOp53
 70
     0
102
RTVSPost2010Prop54
  1
strokes_ogs.tif
102
RTVSPost2010PropOp54
 70
     0
102
RTVSPost2010Prop55
280
     0
102
RTVSPost2010PropOp55
 70
     0
102
RTVSPost2010Prop56
140
1.0
102
RTVSPost2010PropOp56
 70
     0
102
RTVSPost2010Prop57
140
1.0
102
RTVSPost2010PropOp57
 70
     0
  0
XRECORD
  5
2EE
102
{ACAD_REACTORS
330
2ED
102
}
330
2ED
100
AcDbXrecord
280
     1
102
RTVSPropertyOp0
 70
     1
102
RTVSPropertyOp1
 70
     1
102
RTVSPropertyOp2
 70
     1
102
RTVSPropertyOp3
 70
     1
102
RTVSPropertyOp4
 70
     1
102
RTVSPropertyOp5
 70
     1
102
RTVSPropertyOp6
 70
     1
102
RTVSPropertyOp7
 70
     1
102
RTVSPropertyOp8
 70
     1
102
RTVSPropertyOp9
 70
     1
102
RTVSPropertyOp10
 70
     1
102
RTVSPropertyOp11
 70
     1
102
RTVSPropertyOp12
 70
     1
102
RTVSPropertyOp13
 70
     1
102
RTVSPropertyOp14
 70
     1
102
RTVSPropertyOp15
 70
     1
102
RTVSPropertyOp16
 70
     1
102
RTVSPropertyOp17
 70
     1
102
RTVSPropertyOp18
 70
     1
102
RTVSPropertyOp19
 70
     1
102
RTVSPropertyOp20
 70
     1
102
RTVSPropertyOp21
 70
     1
102
RTVSPropertyOp22
 70
     1
102
RTVSPropertyOp23
 70
     1
102
RTVSPropertyOp24
 70
     1
102
RTVSPropertyOp25
 70
     1
102
RTVSPropertyOp26
 70
     1
102
RTVSPropertyOp27
 70
     1
102
RTVSPropertyOp28
 70
     1
102
RTVSPropertyOp29
 70
     1
102
RTVSPropertyOp30
 70
     1
102
RTVSPropertyOp31
 70
     1
102
RTVSPropertyOp32
 70
     1
102
RTVSPropertyOp33
 70
     1
102
RTVSPropertyOp34
 70
     1
102
RTVSPropertyOp35
 70
     1
102
RTVSPropertyOp36
 70
     1
102
RTVSPropertyOp37
 70
     1
102
RTVSPropertyOp38
 70
     1
102
RTVSPropertyOp39
 70
     1
102
RTVSPropertyOp40
 70
     1
102
RTVSPropertyOp41
 70
     1
102
RTVSPropertyOp42
 70
     1
102
RTVSPropertyOp43
 70
     1
102
RTVSPropertyOp44
 70
     1
102
RTVSPropertyOp45
 70
     1
102
RTVSPropertyOp46
 70
     1
102
RTVSPropertyOp47
 70
     1
102
RTVSPropertyOp48
 70
     1
102
RTVSPropertyOp49
 70
     1
102
RTVSPropertyOp50
 70
     1
102
RTVSPropertyOp51
 70
     0
102
RTVSPropertyOp52
 70
     0
102
RTVSPropertyOp53
 70
     1
102
RTVSPropertyOp54
 70
     1
102
RTVSPropertyOp55
 70
     1
102
RTVSPropertyOp56
 70
     1
102
RTVSPropertyOp57
 70
     1
102
RTVSPost2010Prop28
280
     0
102
RTVSPost2010PropOp28
 70
     1
102
RTVSPost2010Prop29
280
     1
102
RTVSPost2010PropOp29
 70
     1
102
RTVSPost2010Prop30
280
     1
102
RTVSPost2010PropOp30
 70
     1
102
RTVSPost2010Prop31
280
     0
102
RTVSPost2010PropOp31
 70
     1
102
RTVSPost2010Prop32
280
     0
102
RTVSPost2010PropOp32
 70
     1
102
RTVSPost2010Prop33
280
     0
102
RTVSPost2010PropOp33
 70
     1
102
RTVSPost2010Prop34
280
     0
102
RTVSPost2010PropOp34
 70
     1
102
RTVSPost2010Prop35
280
     0
102
RTVSPost2010PropOp35
 70
     1
102
RTVSPost2010Prop36
280
     0
102
RTVSPost2010PropOp36
 70
     1
102
RTVSPost2010Prop37
 90
       50
102
RTVSPost2010PropOp37
 70
     1
102
RTVSPost2010Prop38
140
0.0
102
RTVSPost2010PropOp38
 70
     1
102
RTVSPost2010Prop39
140
1.0
102
RTVSPost2010PropOp39
 70
     1
102
RTVSPost2010Prop40
 90
        0
102
RTVSPost2010PropOp40
 70
     1
102
RTVSPost2010Prop41ColorIndex
 90
       18
102
RTVSPost2010Prop41ColorRGB
 90
        0
102
RTVSPost2010PropOp41
 70
     1
102
RTVSPost2010Prop42
 90
       50
102
RTVSPost2010PropOp42
 70
     1
102
RTVSPost2010Prop43
 90
        3
102
RTVSPost2010PropOp43
 70
     1
102
RTVSPost2010Prop44ColorIndex
 90
        5
102
RTVSPost2010Prop44ColorRGB
 90
      255
102
RTVSPost2010PropOp44
 70
     1
102
RTVSPost2010Prop45
280
     0
102
RTVSPost2010PropOp45
 70
     1
102
RTVSPost2010Prop46
 90
       50
102
RTVSPost2010PropOp46
 70
     1
102
RTVSPost2010Prop47
 90
       50
102
RTVSPost2010PropOp47
 70
     1
102
RTVSPost2010Prop48
 90
       50
102
RTVSPost2010PropOp48
 70
     1
102
RTVSPost2010Prop49
280
     0
102
RTVSPost2010PropOp49
 70
     1
102
RTVSPost2010Prop50
 90
       50
102
RTVSPost2010PropOp50
 70
     1
102
RTVSPost2010Prop51ColorIndex
 90
      256
102
RTVSPost2010Prop51ColorRGB
 90
-16777216
102
RTVSPost2010PropOp51
 70
     0
102
RTVSPost2010Prop52
140
1.0
102
RTVSPost2010PropOp52
 70
     0
102
RTVSPost2010Prop53
 90
        2
102
RTVSPost2010PropOp53
 70
     1
102
RTVSPost2010Prop54
  1
strokes_ogs.tif
102
RTVSPost2010PropOp54
 70
     1
102
RTVSPost2010Prop55
280
     0
102
RTVSPost2010PropOp55
 70
     1
102
RTVSPost2010Prop56
140
1.0
102
RTVSPost2010PropOp56
 70
     1
102
RTVSPost2010Prop57
140
1.0
102
RTVSPost2010PropOp57
 70
     1
  0
XRECORD
  5
2F6
102
{ACAD_REACTORS
330
2F5
102
}
330
2F5
100
AcDbXrecord
280
     1
102
RTVSPropertyOp0
 70
     0
102
RTVSPropertyOp1
 70
     0
102
RTVSPropertyOp2
 70
     0
102
RTVSPropertyOp3
 70
     0
102
RTVSPropertyOp4
 70
     0
102
RTVSPropertyOp5
 70
     0
102
RTVSPropertyOp6
 70
     0
102
RTVSPropertyOp7
 70
     0
102
RTVSPropertyOp8
 70
     0
102
RTVSPropertyOp9
 70
     0
102
RTVSPropertyOp10
 70
     0
102
RTVSPropertyOp11
 70
     0
102
RTVSPropertyOp12
 70
     0
102
RTVSPropertyOp13
 70
     0
102
RTVSPropertyOp14
 70
     2
102
RTVSPropertyOp15
 70
     0
102
RTVSPropertyOp16
 70
     0
102
RTVSPropertyOp17
 70
     0
102
RTVSPropertyOp18
 70
     0
102
RTVSPropertyOp19
 70
     0
102
RTVSPropertyOp20
 70
     0
102
RTVSPropertyOp21
 70
     0
102
RTVSPropertyOp22
 70
     0
102
RTVSPropertyOp23
 70
     0
102
RTVSPropertyOp24
 70
     0
102
RTVSPropertyOp25
 70
     0
102
RTVSPropertyOp26
 70
     0
102
RTVSPropertyOp27
 70
     0
102
RTVSPropertyOp28
 70
     0
102
RTVSPropertyOp29
 70
     0
102
RTVSPropertyOp30
 70
     0
102
RTVSPropertyOp31
 70
     0
102
RTVSPropertyOp32
 70
     0
102
RTVSPropertyOp33
 70
     0
102
RTVSPropertyOp34
 70
     0
102
RTVSPropertyOp35
 70
     0
102
RTVSPropertyOp36
 70
     0
102
RTVSPropertyOp37
 70
     0
102
RTVSPropertyOp38
 70
     0
102
RTVSPropertyOp39
 70
     0
102
RTVSPropertyOp40
 70
     0
102
RTVSPropertyOp41
 70
     0
102
RTVSPropertyOp42
 70
     0
102
RTVSPropertyOp43
 70
     0
102
RTVSPropertyOp44
 70
     0
102
RTVSPropertyOp45
 70
     0
102
RTVSPropertyOp46
 70
     0
102
RTVSPropertyOp47
 70
     0
102
RTVSPropertyOp48
 70
     0
102
RTVSPropertyOp49
 70
     0
102
RTVSPropertyOp50
 70
     0
102
RTVSPropertyOp51
 70
     0
102
RTVSPropertyOp52
 70
     0
102
RTVSPropertyOp53
 70
     0
102
RTVSPropertyOp54
 70
     0
102
RTVSPropertyOp55
 70
     0
102
RTVSPropertyOp56
 70
     0
102
RTVSPropertyOp57
 70
     0
102
RTVSPost2010Prop28
280
     0
102
RTVSPost2010PropOp28
 70
     0
102
RTVSPost2010Prop29
280
     1
102
RTVSPost2010PropOp29
 70
     0
102
RTVSPost2010Prop30
280
     1
102
RTVSPost2010PropOp30
 70
     0
102
RTVSPost2010Prop31
280
     0
102
RTVSPost2010PropOp31
 70
     0
102
RTVSPost2010Prop32
280
     0
102
RTVSPost2010PropOp32
 70
     0
102
RTVSPost2010Prop33
280
     0
102
RTVSPost2010PropOp33
 70
     0
102
RTVSPost2010Prop34
280
     0
102
RTVSPost2010PropOp34
 70
     0
102
RTVSPost2010Prop35
280
     0
102
RTVSPost2010PropOp35
 70
     0
102
RTVSPost2010Prop36
280
     0
102
RTVSPost2010PropOp36
 70
     0
102
RTVSPost2010Prop37
 90
       50
102
RTVSPost2010PropOp37
 70
     0
102
RTVSPost2010Prop38
140
0.0
102
RTVSPost2010PropOp38
 70
     0
102
RTVSPost2010Prop39
140
1.0
102
RTVSPost2010PropOp39
 70
     0
102
RTVSPost2010Prop40
 90
        0
102
RTVSPost2010PropOp40
 70
     0
102
RTVSPost2010Prop41ColorIndex
 90
       18
102
RTVSPost2010Prop41ColorRGB
 90
        0
102
RTVSPost2010PropOp41
 70
     0
102
RTVSPost2010Prop42
 90
       50
102
RTVSPost2010PropOp42
 70
     0
102
RTVSPost2010Prop43
 90
        3
102
RTVSPost2010PropOp43
 70
     0
102
RTVSPost2010Prop44ColorIndex
 90
        5
102
RTVSPost2010Prop44ColorRGB
 90
      255
102
RTVSPost2010PropOp44
 70
     0
102
RTVSPost2010Prop45
280
     0
102
RTVSPost2010PropOp45
 70
     0
102
RTVSPost2010Prop46
 90
       50
102
RTVSPost2010PropOp46
 70
     0
102
RTVSPost2010Prop47
 90
       50
102
RTVSPost2010PropOp47
 70
     0
102
RTVSPost2010Prop48
 90
       50
102
RTVSPost2010PropOp48
 70
     0
102
RTVSPost2010Prop49
280
     0
102
RTVSPost2010PropOp49
 70
     0
102
RTVSPost2010Prop50
 90
       50
102
RTVSPost2010PropOp50
 70
     0
102
RTVSPost2010Prop51ColorIndex
 90
      256
102
RTVSPost2010Prop51ColorRGB
 90
-16777216
102
RTVSPost2010PropOp51
 70
     0
102
RTVSPost2010Prop52
140
1.0
102
RTVSPost2010PropOp52
 70
     0
102
RTVSPost2010Prop53
 90
        2
102
RTVSPost2010PropOp53
 70
     0
102
RTVSPost2010Prop54
  1
strokes_ogs.tif
102
RTVSPost2010PropOp54
 70
     0
102
RTVSPost2010Prop55
280
     0
102
RTVSPost2010PropOp55
 70
     0
102
RTVSPost2010Prop56
140
1.0
102
RTVSPost2010PropOp56
 70
     0
102
RTVSPost2010Prop57
140
1.0
102
RTVSPost2010PropOp57
 70
     0
  0
XRECORD
  5
2E4
102
{ACAD_REACTORS
330
2E3
102
}
330
2E3
100
AcDbXrecord
280
     1
102
RTVSPropertyOp0
 70
     1
102
RTVSPropertyOp1
 70
     1
102
RTVSPropertyOp2
 70
     1
102
RTVSPropertyOp3
 70
     1
102
RTVSPropertyOp4
 70
     1
102
RTVSPropertyOp5
 70
     1
102
RTVSPropertyOp6
 70
     1
102
RTVSPropertyOp7
 70
     1
102
RTVSPropertyOp8
 70
     1
102
RTVSPropertyOp9
 70
     1
102
RTVSPropertyOp10
 70
     1
102
RTVSPropertyOp11
 70
     1
102
RTVSPropertyOp12
 70
     1
102
RTVSPropertyOp13
 70
     1
102
RTVSPropertyOp14
 70
     1
102
RTVSPropertyOp15
 70
     1
102
RTVSPropertyOp16
 70
     1
102
RTVSPropertyOp17
 70
     1
102
RTVSPropertyOp18
 70
     1
102
RTVSPropertyOp19
 70
     1
102
RTVSPropertyOp20
 70
     1
102
RTVSPropertyOp21
 70
     1
102
RTVSPropertyOp22
 70
     1
102
RTVSPropertyOp23
 70
     1
102
RTVSPropertyOp24
 70
     1
102
RTVSPropertyOp25
 70
     1
102
RTVSPropertyOp26
 70
     1
102
RTVSPropertyOp27
 70
     1
102
RTVSPropertyOp28
 70
     1
102
RTVSPropertyOp29
 70
     1
102
RTVSPropertyOp30
 70
     1
102
RTVSPropertyOp31
 70
     1
102
RTVSPropertyOp32
 70
     1
102
RTVSPropertyOp33
 70
     1
102
RTVSPropertyOp34
 70
     1
102
RTVSPropertyOp35
 70
     1
102
RTVSPropertyOp36
 70
     1
102
RTVSPropertyOp37
 70
     1
102
RTVSPropertyOp38
 70
     1
102
RTVSPropertyOp39
 70
     1
102
RTVSPropertyOp40
 70
     1
102
RTVSPropertyOp41
 70
     1
102
RTVSPropertyOp42
 70
     1
102
RTVSPropertyOp43
 70
     1
102
RTVSPropertyOp44
 70
     1
102
RTVSPropertyOp45
 70
     1
102
RTVSPropertyOp46
 70
     1
102
RTVSPropertyOp47
 70
     1
102
RTVSPropertyOp48
 70
     1
102
RTVSPropertyOp49
 70
     1
102
RTVSPropertyOp50
 70
     1
102
RTVSPropertyOp51
 70
     0
102
RTVSPropertyOp52
 70
     0
102
RTVSPropertyOp53
 70
     1
102
RTVSPropertyOp54
 70
     1
102
RTVSPropertyOp55
 70
     1
102
RTVSPropertyOp56
 70
     1
102
RTVSPropertyOp57
 70
     1
102
RTVSPost2010Prop28
280
     0
102
RTVSPost2010PropOp28
 70
     1
102
RTVSPost2010Prop29
280
     1
102
RTVSPost2010PropOp29
 70
     1
102
RTVSPost2010Prop30
280
     1
102
RTVSPost2010PropOp30
 70
     1
102
RTVSPost2010Prop31
280
     0
102
RTVSPost2010PropOp31
 70
     1
102
RTVSPost2010Prop32
280
     0
102
RTVSPost2010PropOp32
 70
     1
102
RTVSPost2010Prop33
280
     0
102
RTVSPost2010PropOp33
 70
     1
102
RTVSPost2010Prop34
280
     0
102
RTVSPost2010PropOp34
 70
     1
102
RTVSPost2010Prop35
280
     0
102
RTVSPost2010PropOp35
 70
     1
102
RTVSPost2010Prop36
280
     0
102
RTVSPost2010PropOp36
 70
     1
102
RTVSPost2010Prop37
 90
       50
102
RTVSPost2010PropOp37
 70
     1
102
RTVSPost2010Prop38
140
0.0
102
RTVSPost2010PropOp38
 70
     1
102
RTVSPost2010Prop39
140
1.0
102
RTVSPost2010PropOp39
 70
     1
102
RTVSPost2010Prop40
 90
        0
102
RTVSPost2010PropOp40
 70
     1
102
RTVSPost2010Prop41ColorIndex
 90
       18
102
RTVSPost2010Prop41ColorRGB
 90
        0
102
RTVSPost2010PropOp41
 70
     1
102
RTVSPost2010Prop42
 90
       50
102
RTVSPost2010PropOp42
 70
     1
102
RTVSPost2010Prop43
 90
        3
102
RTVSPost2010PropOp43
 70
     1
102
RTVSPost2010Prop44ColorIndex
 90
        5
102
RTVSPost2010Prop44ColorRGB
 90
      255
102
RTVSPost2010PropOp44
 70
     1
102
RTVSPost2010Prop45
280
     0
102
RTVSPost2010PropOp45
 70
     1
102
RTVSPost2010Prop46
 90
       50
102
RTVSPost2010PropOp46
 70
     1
102
RTVSPost2010Prop47
 90
       50
102
RTVSPost2010PropOp47
 70
     1
102
RTVSPost2010Prop48
 90
       50
102
RTVSPost2010PropOp48
 70
     1
102
RTVSPost2010Prop49
280
     0
102
RTVSPost2010PropOp49
 70
     1
102
RTVSPost2010Prop50
 90
       50
102
RTVSPost2010PropOp50
 70
     1
102
RTVSPost2010Prop51ColorIndex
 90
      256
102
RTVSPost2010Prop51ColorRGB
 90
-16777216
102
RTVSPost2010PropOp51
 70
     0
102
RTVSPost2010Prop52
140
1.0
102
RTVSPost2010PropOp52
 70
     0
102
RTVSPost2010Prop53
 90
        2
102
RTVSPost2010PropOp53
 70
     1
102
RTVSPost2010Prop54
  1
strokes_ogs.tif
102
RTVSPost2010PropOp54
 70
     1
102
RTVSPost2010Prop55
280
     0
102
RTVSPost2010PropOp55
 70
     1
102
RTVSPost2010Prop56
140
1.0
102
RTVSPost2010PropOp56
 70
     1
102
RTVSPost2010Prop57
140
1.0
102
RTVSPost2010PropOp57
 70
     1
  0
XRECORD
  5
302
102
{ACAD_REACTORS
330
301
102
}
330
301
100
AcDbXrecord
280
     1
102
RTVSPropertyOp0
 70
     1
102
RTVSPropertyOp1
 70
     1
102
RTVSPropertyOp2
 70
     1
102
RTVSPropertyOp3
 70
     1
102
RTVSPropertyOp4
 70
     1
102
RTVSPropertyOp5
 70
     1
102
RTVSPropertyOp6
 70
     1
102
RTVSPropertyOp7
 70
     1
102
RTVSPropertyOp8
 70
     1
102
RTVSPropertyOp9
 70
     1
102
RTVSPropertyOp10
 70
     1
102
RTVSPropertyOp11
 70
     1
102
RTVSPropertyOp12
 70
     1
102
RTVSPropertyOp13
 70
     1
102
RTVSPropertyOp14
 70
     1
102
RTVSPropertyOp15
 70
     1
102
RTVSPropertyOp16
 70
     1
102
RTVSPropertyOp17
 70
     1
102
RTVSPropertyOp18
 70
     1
102
RTVSPropertyOp19
 70
     1
102
RTVSPropertyOp20
 70
     1
102
RTVSPropertyOp21
 70
     1
102
RTVSPropertyOp22
 70
     1
102
RTVSPropertyOp23
 70
     1
102
RTVSPropertyOp24
 70
     1
102
RTVSPropertyOp25
 70
     1
102
RTVSPropertyOp26
 70
     1
102
RTVSPropertyOp27
 70
     1
102
RTVSPropertyOp28
 70
     1
102
RTVSPropertyOp29
 70
     1
102
RTVSPropertyOp30
 70
     1
102
RTVSPropertyOp31
 70
     1
102
RTVSPropertyOp32
 70
     1
102
RTVSPropertyOp33
 70
     1
102
RTVSPropertyOp34
 70
     1
102
RTVSPropertyOp35
 70
     1
102
RTVSPropertyOp36
 70
     1
102
RTVSPropertyOp37
 70
     1
102
RTVSPropertyOp38
 70
     1
102
RTVSPropertyOp39
 70
     1
102
RTVSPropertyOp40
 70
     1
102
RTVSPropertyOp41
 70
     1
102
RTVSPropertyOp42
 70
     1
102
RTVSPropertyOp43
 70
     1
102
RTVSPropertyOp44
 70
     1
102
RTVSPropertyOp45
 70
     1
102
RTVSPropertyOp46
 70
     1
102
RTVSPropertyOp47
 70
     1
102
RTVSPropertyOp48
 70
     1
102
RTVSPropertyOp49
 70
     1
102
RTVSPropertyOp50
 70
     1
102
RTVSPropertyOp51
 70
     0
102
RTVSPropertyOp52
 70
     0
102
RTVSPropertyOp53
 70
     1
102
RTVSPropertyOp54
 70
     1
102
RTVSPropertyOp55
 70
     1
102
RTVSPropertyOp56
 70
     1
102
RTVSPropertyOp57
 70
     1
102
RTVSPost2010Prop28
280
     0
102
RTVSPost2010PropOp28
 70
     1
102
RTVSPost2010Prop29
280
     1
102
RTVSPost2010PropOp29
 70
     1
102
RTVSPost2010Prop30
280
     1
102
RTVSPost2010PropOp30
 70
     1
102
RTVSPost2010Prop31
280
     0
102
RTVSPost2010PropOp31
 70
     1
102
RTVSPost2010Prop32
280
     0
102
RTVSPost2010PropOp32
 70
     1
102
RTVSPost2010Prop33
280
     0
102
RTVSPost2010PropOp33
 70
     1
102
RTVSPost2010Prop34
280
     0
102
RTVSPost2010PropOp34
 70
     1
102
RTVSPost2010Prop35
280
     0
102
RTVSPost2010PropOp35
 70
     1
102
RTVSPost2010Prop36
280
     0
102
RTVSPost2010PropOp36
 70
     1
102
RTVSPost2010Prop37
 90
       50
102
RTVSPost2010PropOp37
 70
     1
102
RTVSPost2010Prop38
140
0.0
102
RTVSPost2010PropOp38
 70
     1
102
RTVSPost2010Prop39
140
1.0
102
RTVSPost2010PropOp39
 70
     1
102
RTVSPost2010Prop40
 90
        0
102
RTVSPost2010PropOp40
 70
     1
102
RTVSPost2010Prop41ColorIndex
 90
       18
102
RTVSPost2010Prop41ColorRGB
 90
        0
102
RTVSPost2010PropOp41
 70
     1
102
RTVSPost2010Prop42
 90
       50
102
RTVSPost2010PropOp42
 70
     1
102
RTVSPost2010Prop43
 90
        3
102
RTVSPost2010PropOp43
 70
     1
102
RTVSPost2010Prop44ColorIndex
 90
        5
102
RTVSPost2010Prop44ColorRGB
 90
      255
102
RTVSPost2010PropOp44
 70
     1
102
RTVSPost2010Prop45
280
     0
102
RTVSPost2010PropOp45
 70
     1
102
RTVSPost2010Prop46
 90
       50
102
RTVSPost2010PropOp46
 70
     1
102
RTVSPost2010Prop47
 90
       50
102
RTVSPost2010PropOp47
 70
     1
102
RTVSPost2010Prop48
 90
       50
102
RTVSPost2010PropOp48
 70
     1
102
RTVSPost2010Prop49
280
     0
102
RTVSPost2010PropOp49
 70
     1
102
RTVSPost2010Prop50
 90
       50
102
RTVSPost2010PropOp50
 70
     1
102
RTVSPost2010Prop51ColorIndex
 90
      256
102
RTVSPost2010Prop51ColorRGB
 90
-16777216
102
RTVSPost2010PropOp51
 70
     0
102
RTVSPost2010Prop52
140
1.0
102
RTVSPost2010PropOp52
 70
     0
102
RTVSPost2010Prop53
 90
        2
102
RTVSPost2010PropOp53
 70
     1
102
RTVSPost2010Prop54
  1
strokes_ogs.tif
102
RTVSPost2010PropOp54
 70
     1
102
RTVSPost2010Prop55
280
     0
102
RTVSPost2010PropOp55
 70
     1
102
RTVSPost2010Prop56
140
1.0
102
RTVSPost2010PropOp56
 70
     1
102
RTVSPost2010Prop57
140
1.0
102
RTVSPost2010PropOp57
 70
     1
  0
XRECORD
  5
300
102
{ACAD_REACTORS
330
2FF
102
}
330
2FF
100
AcDbXrecord
280
     1
102
RTVSPropertyOp0
 70
     1
102
RTVSPropertyOp1
 70
     1
102
RTVSPropertyOp2
 70
     1
102
RTVSPropertyOp3
 70
     1
102
RTVSPropertyOp4
 70
     1
102
RTVSPropertyOp5
 70
     1
102
RTVSPropertyOp6
 70
     1
102
RTVSPropertyOp7
 70
     1
102
RTVSPropertyOp8
 70
     1
102
RTVSPropertyOp9
 70
     1
102
RTVSPropertyOp10
 70
     1
102
RTVSPropertyOp11
 70
     1
102
RTVSPropertyOp12
 70
     1
102
RTVSPropertyOp13
 70
     1
102
RTVSPropertyOp14
 70
     1
102
RTVSPropertyOp15
 70
     1
102
RTVSPropertyOp16
 70
     1
102
RTVSPropertyOp17
 70
     1
102
RTVSPropertyOp18
 70
     1
102
RTVSPropertyOp19
 70
     1
102
RTVSPropertyOp20
 70
     1
102
RTVSPropertyOp21
 70
     1
102
RTVSPropertyOp22
 70
     1
102
RTVSPropertyOp23
 70
     1
102
RTVSPropertyOp24
 70
     1
102
RTVSPropertyOp25
 70
     1
102
RTVSPropertyOp26
 70
     1
102
RTVSPropertyOp27
 70
     1
102
RTVSPropertyOp28
 70
     1
102
RTVSPropertyOp29
 70
     1
102
RTVSPropertyOp30
 70
     1
102
RTVSPropertyOp31
 70
     1
102
RTVSPropertyOp32
 70
     1
102
RTVSPropertyOp33
 70
     1
102
RTVSPropertyOp34
 70
     1
102
RTVSPropertyOp35
 70
     1
102
RTVSPropertyOp36
 70
     1
102
RTVSPropertyOp37
 70
     1
102
RTVSPropertyOp38
 70
     1
102
RTVSPropertyOp39
 70
     1
102
RTVSPropertyOp40
 70
     1
102
RTVSPropertyOp41
 70
     1
102
RTVSPropertyOp42
 70
     1
102
RTVSPropertyOp43
 70
     1
102
RTVSPropertyOp44
 70
     1
102
RTVSPropertyOp45
 70
     1
102
RTVSPropertyOp46
 70
     1
102
RTVSPropertyOp47
 70
     1
102
RTVSPropertyOp48
 70
     1
102
RTVSPropertyOp49
 70
     1
102
RTVSPropertyOp50
 70
     1
102
RTVSPropertyOp51
 70
     0
102
RTVSPropertyOp52
 70
     0
102
RTVSPropertyOp53
 70
     1
102
RTVSPropertyOp54
 70
     1
102
RTVSPropertyOp55
 70
     1
102
RTVSPropertyOp56
 70
     1
102
RTVSPropertyOp57
 70
     1
102
RTVSPost2010Prop28
280
     0
102
RTVSPost2010PropOp28
 70
     1
102
RTVSPost2010Prop29
280
     1
102
RTVSPost2010PropOp29
 70
     1
102
RTVSPost2010Prop30
280
     1
102
RTVSPost2010PropOp30
 70
     1
102
RTVSPost2010Prop31
280
     0
102
RTVSPost2010PropOp31
 70
     1
102
RTVSPost2010Prop32
280
     0
102
RTVSPost2010PropOp32
 70
     1
102
RTVSPost2010Prop33
280
     0
102
RTVSPost2010PropOp33
 70
     1
102
RTVSPost2010Prop34
280
     0
102
RTVSPost2010PropOp34
 70
     1
102
RTVSPost2010Prop35
280
     0
102
RTVSPost2010PropOp35
 70
     1
102
RTVSPost2010Prop36
280
     0
102
RTVSPost2010PropOp36
 70
     1
102
RTVSPost2010Prop37
 90
       50
102
RTVSPost2010PropOp37
 70
     1
102
RTVSPost2010Prop38
140
0.0
102
RTVSPost2010PropOp38
 70
     1
102
RTVSPost2010Prop39
140
1.0
102
RTVSPost2010PropOp39
 70
     1
102
RTVSPost2010Prop40
 90
        0
102
RTVSPost2010PropOp40
 70
     1
102
RTVSPost2010Prop41ColorIndex
 90
       18
102
RTVSPost2010Prop41ColorRGB
 90
        0
102
RTVSPost2010PropOp41
 70
     1
102
RTVSPost2010Prop42
 90
       50
102
RTVSPost2010PropOp42
 70
     1
102
RTVSPost2010Prop43
 90
        3
102
RTVSPost2010PropOp43
 70
     1
102
RTVSPost2010Prop44ColorIndex
 90
        5
102
RTVSPost2010Prop44ColorRGB
 90
      255
102
RTVSPost2010PropOp44
 70
     1
102
RTVSPost2010Prop45
280
     0
102
RTVSPost2010PropOp45
 70
     1
102
RTVSPost2010Prop46
 90
       50
102
RTVSPost2010PropOp46
 70
     1
102
RTVSPost2010Prop47
 90
       50
102
RTVSPost2010PropOp47
 70
     1
102
RTVSPost2010Prop48
 90
       50
102
RTVSPost2010PropOp48
 70
     1
102
RTVSPost2010Prop49
280
     0
102
RTVSPost2010PropOp49
 70
     1
102
RTVSPost2010Prop50
 90
       50
102
RTVSPost2010PropOp50
 70
     1
102
RTVSPost2010Prop51ColorIndex
 90
      256
102
RTVSPost2010Prop51ColorRGB
 90
-16777216
102
RTVSPost2010PropOp51
 70
     0
102
RTVSPost2010Prop52
140
1.0
102
RTVSPost2010PropOp52
 70
     0
102
RTVSPost2010Prop53
 90
        2
102
RTVSPost2010PropOp53
 70
     1
102
RTVSPost2010Prop54
  1
strokes_ogs.tif
102
RTVSPost2010PropOp54
 70
     1
102
RTVSPost2010Prop55
280
     0
102
RTVSPost2010PropOp55
 70
     1
102
RTVSPost2010Prop56
140
1.0
102
RTVSPost2010PropOp56
 70
     1
102
RTVSPost2010Prop57
140
1.0
102
RTVSPost2010PropOp57
 70
     1
  0
XRECORD
  5
2FA
102
{ACAD_REACTORS
330
2F9
102
}
330
2F9
100
AcDbXrecord
280
     1
102
RTVSPropertyOp0
 70
     1
102
RTVSPropertyOp1
 70
     1
102
RTVSPropertyOp2
 70
     1
102
RTVSPropertyOp3
 70
     1
102
RTVSPropertyOp4
 70
     1
102
RTVSPropertyOp5
 70
     1
102
RTVSPropertyOp6
 70
     1
102
RTVSPropertyOp7
 70
     1
102
RTVSPropertyOp8
 70
     1
102
RTVSPropertyOp9
 70
     1
102
RTVSPropertyOp10
 70
     1
102
RTVSPropertyOp11
 70
     1
102
RTVSPropertyOp12
 70
     1
102
RTVSPropertyOp13
 70
     1
102
RTVSPropertyOp14
 70
     1
102
RTVSPropertyOp15
 70
     1
102
RTVSPropertyOp16
 70
     1
102
RTVSPropertyOp17
 70
     1
102
RTVSPropertyOp18
 70
     1
102
RTVSPropertyOp19
 70
     1
102
RTVSPropertyOp20
 70
     1
102
RTVSPropertyOp21
 70
     1
102
RTVSPropertyOp22
 70
     1
102
RTVSPropertyOp23
 70
     1
102
RTVSPropertyOp24
 70
     1
102
RTVSPropertyOp25
 70
     1
102
RTVSPropertyOp26
 70
     1
102
RTVSPropertyOp27
 70
     1
102
RTVSPropertyOp28
 70
     1
102
RTVSPropertyOp29
 70
     1
102
RTVSPropertyOp30
 70
     1
102
RTVSPropertyOp31
 70
     1
102
RTVSPropertyOp32
 70
     1
102
RTVSPropertyOp33
 70
     1
102
RTVSPropertyOp34
 70
     1
102
RTVSPropertyOp35
 70
     1
102
RTVSPropertyOp36
 70
     1
102
RTVSPropertyOp37
 70
     1
102
RTVSPropertyOp38
 70
     1
102
RTVSPropertyOp39
 70
     1
102
RTVSPropertyOp40
 70
     1
102
RTVSPropertyOp41
 70
     1
102
RTVSPropertyOp42
 70
     1
102
RTVSPropertyOp43
 70
     1
102
RTVSPropertyOp44
 70
     1
102
RTVSPropertyOp45
 70
     1
102
RTVSPropertyOp46
 70
     1
102
RTVSPropertyOp47
 70
     1
102
RTVSPropertyOp48
 70
     1
102
RTVSPropertyOp49
 70
     1
102
RTVSPropertyOp50
 70
     1
102
RTVSPropertyOp51
 70
     0
102
RTVSPropertyOp52
 70
     0
102
RTVSPropertyOp53
 70
     1
102
RTVSPropertyOp54
 70
     1
102
RTVSPropertyOp55
 70
     1
102
RTVSPropertyOp56
 70
     1
102
RTVSPropertyOp57
 70
     1
102
RTVSPost2010Prop28
280
     0
102
RTVSPost2010PropOp28
 70
     1
102
RTVSPost2010Prop29
280
     1
102
RTVSPost2010PropOp29
 70
     1
102
RTVSPost2010Prop30
280
     1
102
RTVSPost2010PropOp30
 70
     1
102
RTVSPost2010Prop31
280
     0
102
RTVSPost2010PropOp31
 70
     1
102
RTVSPost2010Prop32
280
     0
102
RTVSPost2010PropOp32
 70
     1
102
RTVSPost2010Prop33
280
     0
102
RTVSPost2010PropOp33
 70
     1
102
RTVSPost2010Prop34
280
     0
102
RTVSPost2010PropOp34
 70
     1
102
RTVSPost2010Prop35
280
     0
102
RTVSPost2010PropOp35
 70
     1
102
RTVSPost2010Prop36
280
     0
102
RTVSPost2010PropOp36
 70
     1
102
RTVSPost2010Prop37
 90
       50
102
RTVSPost2010PropOp37
 70
     1
102
RTVSPost2010Prop38
140
0.0
102
RTVSPost2010PropOp38
 70
     1
102
RTVSPost2010Prop39
140
1.0
102
RTVSPost2010PropOp39
 70
     1
102
RTVSPost2010Prop40
 90
        0
102
RTVSPost2010PropOp40
 70
     1
102
RTVSPost2010Prop41ColorIndex
 90
       18
102
RTVSPost2010Prop41ColorRGB
 90
        0
102
RTVSPost2010PropOp41
 70
     1
102
RTVSPost2010Prop42
 90
       50
102
RTVSPost2010PropOp42
 70
     1
102
RTVSPost2010Prop43
 90
        3
102
RTVSPost2010PropOp43
 70
     1
102
RTVSPost2010Prop44ColorIndex
 90
        5
102
RTVSPost2010Prop44ColorRGB
 90
      255
102
RTVSPost2010PropOp44
 70
     1
102
RTVSPost2010Prop45
280
     0
102
RTVSPost2010PropOp45
 70
     1
102
RTVSPost2010Prop46
 90
       50
102
RTVSPost2010PropOp46
 70
     1
102
RTVSPost2010Prop47
 90
       50
102
RTVSPost2010PropOp47
 70
     1
102
RTVSPost2010Prop48
 90
       50
102
RTVSPost2010PropOp48
 70
     1
102
RTVSPost2010Prop49
280
     0
102
RTVSPost2010PropOp49
 70
     1
102
RTVSPost2010Prop50
 90
       50
102
RTVSPost2010PropOp50
 70
     1
102
RTVSPost2010Prop51ColorIndex
 90
      256
102
RTVSPost2010Prop51ColorRGB
 90
-16777216
102
RTVSPost2010PropOp51
 70
     0
102
RTVSPost2010Prop52
140
1.0
102
RTVSPost2010PropOp52
 70
     0
102
RTVSPost2010Prop53
 90
        2
102
RTVSPost2010PropOp53
 70
     1
102
RTVSPost2010Prop54
  1
strokes_ogs.tif
102
RTVSPost2010PropOp54
 70
     1
102
RTVSPost2010Prop55
280
     0
102
RTVSPost2010PropOp55
 70
     1
102
RTVSPost2010Prop56
140
1.0
102
RTVSPost2010PropOp56
 70
     1
102
RTVSPost2010Prop57
140
1.0
102
RTVSPost2010PropOp57
 70
     1
  0
XRECORD
  5
2FC
102
{ACAD_REACTORS
330
2FB
102
}
330
2FB
100
AcDbXrecord
280
     1
102
RTVSPropertyOp0
 70
     1
102
RTVSPropertyOp1
 70
     1
102
RTVSPropertyOp2
 70
     1
102
RTVSPropertyOp3
 70
     1
102
RTVSPropertyOp4
 70
     1
102
RTVSPropertyOp5
 70
     1
102
RTVSPropertyOp6
 70
     1
102
RTVSPropertyOp7
 70
     1
102
RTVSPropertyOp8
 70
     1
102
RTVSPropertyOp9
 70
     1
102
RTVSPropertyOp10
 70
     1
102
RTVSPropertyOp11
 70
     1
102
RTVSPropertyOp12
 70
     1
102
RTVSPropertyOp13
 70
     1
102
RTVSPropertyOp14
 70
     1
102
RTVSPropertyOp15
 70
     1
102
RTVSPropertyOp16
 70
     1
102
RTVSPropertyOp17
 70
     1
102
RTVSPropertyOp18
 70
     1
102
RTVSPropertyOp19
 70
     1
102
RTVSPropertyOp20
 70
     1
102
RTVSPropertyOp21
 70
     1
102
RTVSPropertyOp22
 70
     1
102
RTVSPropertyOp23
 70
     1
102
RTVSPropertyOp24
 70
     1
102
RTVSPropertyOp25
 70
     1
102
RTVSPropertyOp26
 70
     1
102
RTVSPropertyOp27
 70
     1
102
RTVSPropertyOp28
 70
     1
102
RTVSPropertyOp29
 70
     1
102
RTVSPropertyOp30
 70
     1
102
RTVSPropertyOp31
 70
     1
102
RTVSPropertyOp32
 70
     1
102
RTVSPropertyOp33
 70
     1
102
RTVSPropertyOp34
 70
     1
102
RTVSPropertyOp35
 70
     1
102
RTVSPropertyOp36
 70
     1
102
RTVSPropertyOp37
 70
     1
102
RTVSPropertyOp38
 70
     1
102
RTVSPropertyOp39
 70
     1
102
RTVSPropertyOp40
 70
     1
102
RTVSPropertyOp41
 70
     1
102
RTVSPropertyOp42
 70
     1
102
RTVSPropertyOp43
 70
     1
102
RTVSPropertyOp44
 70
     1
102
RTVSPropertyOp45
 70
     1
102
RTVSPropertyOp46
 70
     1
102
RTVSPropertyOp47
 70
     1
102
RTVSPropertyOp48
 70
     1
102
RTVSPropertyOp49
 70
     1
102
RTVSPropertyOp50
 70
     1
102
RTVSPropertyOp51
 70
     0
102
RTVSPropertyOp52
 70
     0
102
RTVSPropertyOp53
 70
     1
102
RTVSPropertyOp54
 70
     1
102
RTVSPropertyOp55
 70
     1
102
RTVSPropertyOp56
 70
     1
102
RTVSPropertyOp57
 70
     1
102
RTVSPost2010Prop28
280
     0
102
RTVSPost2010PropOp28
 70
     1
102
RTVSPost2010Prop29
280
     1
102
RTVSPost2010PropOp29
 70
     1
102
RTVSPost2010Prop30
280
     1
102
RTVSPost2010PropOp30
 70
     1
102
RTVSPost2010Prop31
280
     0
102
RTVSPost2010PropOp31
 70
     1
102
RTVSPost2010Prop32
280
     0
102
RTVSPost2010PropOp32
 70
     1
102
RTVSPost2010Prop33
280
     0
102
RTVSPost2010PropOp33
 70
     1
102
RTVSPost2010Prop34
280
     0
102
RTVSPost2010PropOp34
 70
     1
102
RTVSPost2010Prop35
280
     0
102
RTVSPost2010PropOp35
 70
     1
102
RTVSPost2010Prop36
280
     0
102
RTVSPost2010PropOp36
 70
     1
102
RTVSPost2010Prop37
 90
       50
102
RTVSPost2010PropOp37
 70
     1
102
RTVSPost2010Prop38
140
0.0
102
RTVSPost2010PropOp38
 70
     1
102
RTVSPost2010Prop39
140
1.0
102
RTVSPost2010PropOp39
 70
     1
102
RTVSPost2010Prop40
 90
        0
102
RTVSPost2010PropOp40
 70
     1
102
RTVSPost2010Prop41ColorIndex
 90
       18
102
RTVSPost2010Prop41ColorRGB
 90
        0
102
RTVSPost2010PropOp41
 70
     1
102
RTVSPost2010Prop42
 90
       50
102
RTVSPost2010PropOp42
 70
     1
102
RTVSPost2010Prop43
 90
        3
102
RTVSPost2010PropOp43
 70
     1
102
RTVSPost2010Prop44ColorIndex
 90
        5
102
RTVSPost2010Prop44ColorRGB
 90
      255
102
RTVSPost2010PropOp44
 70
     1
102
RTVSPost2010Prop45
280
     0
102
RTVSPost2010PropOp45
 70
     1
102
RTVSPost2010Prop46
 90
       50
102
RTVSPost2010PropOp46
 70
     1
102
RTVSPost2010Prop47
 90
       50
102
RTVSPost2010PropOp47
 70
     1
102
RTVSPost2010Prop48
 90
       50
102
RTVSPost2010PropOp48
 70
     1
102
RTVSPost2010Prop49
280
     0
102
RTVSPost2010PropOp49
 70
     1
102
RTVSPost2010Prop50
 90
       50
102
RTVSPost2010PropOp50
 70
     1
102
RTVSPost2010Prop51ColorIndex
 90
      256
102
RTVSPost2010Prop51ColorRGB
 90
-16777216
102
RTVSPost2010PropOp51
 70
     0
102
RTVSPost2010Prop52
140
1.0
102
RTVSPost2010PropOp52
 70
     0
102
RTVSPost2010Prop53
 90
        2
102
RTVSPost2010PropOp53
 70
     1
102
RTVSPost2010Prop54
  1
strokes_ogs.tif
102
RTVSPost2010PropOp54
 70
     1
102
RTVSPost2010Prop55
280
     0
102
RTVSPost2010PropOp55
 70
     1
102
RTVSPost2010Prop56
140
1.0
102
RTVSPost2010PropOp56
 70
     1
102
RTVSPost2010Prop57
140
1.0
102
RTVSPost2010PropOp57
 70
     1
  0
XRECORD
  5
2EC
102
{ACAD_REACTORS
330
2EB
102
}
330
2EB
100
AcDbXrecord
280
     1
102
RTVSPropertyOp0
 70
     1
102
RTVSPropertyOp1
 70
     1
102
RTVSPropertyOp2
 70
     1
102
RTVSPropertyOp3
 70
     1
102
RTVSPropertyOp4
 70
     1
102
RTVSPropertyOp5
 70
     1
102
RTVSPropertyOp6
 70
     1
102
RTVSPropertyOp7
 70
     1
102
RTVSPropertyOp8
 70
     1
102
RTVSPropertyOp9
 70
     1
102
RTVSPropertyOp10
 70
     1
102
RTVSPropertyOp11
 70
     1
102
RTVSPropertyOp12
 70
     1
102
RTVSPropertyOp13
 70
     1
102
RTVSPropertyOp14
 70
     1
102
RTVSPropertyOp15
 70
     1
102
RTVSPropertyOp16
 70
     1
102
RTVSPropertyOp17
 70
     1
102
RTVSPropertyOp18
 70
     1
102
RTVSPropertyOp19
 70
     1
102
RTVSPropertyOp20
 70
     1
102
RTVSPropertyOp21
 70
     1
102
RTVSPropertyOp22
 70
     1
102
RTVSPropertyOp23
 70
     1
102
RTVSPropertyOp24
 70
     1
102
RTVSPropertyOp25
 70
     1
102
RTVSPropertyOp26
 70
     1
102
RTVSPropertyOp27
 70
     1
102
RTVSPropertyOp28
 70
     1
102
RTVSPropertyOp29
 70
     1
102
RTVSPropertyOp30
 70
     1
102
RTVSPropertyOp31
 70
     1
102
RTVSPropertyOp32
 70
     1
102
RTVSPropertyOp33
 70
     1
102
RTVSPropertyOp34
 70
     1
102
RTVSPropertyOp35
 70
     1
102
RTVSPropertyOp36
 70
     1
102
RTVSPropertyOp37
 70
     1
102
RTVSPropertyOp38
 70
     1
102
RTVSPropertyOp39
 70
     1
102
RTVSPropertyOp40
 70
     1
102
RTVSPropertyOp41
 70
     1
102
RTVSPropertyOp42
 70
     1
102
RTVSPropertyOp43
 70
     1
102
RTVSPropertyOp44
 70
     1
102
RTVSPropertyOp45
 70
     1
102
RTVSPropertyOp46
 70
     1
102
RTVSPropertyOp47
 70
     1
102
RTVSPropertyOp48
 70
     1
102
RTVSPropertyOp49
 70
     1
102
RTVSPropertyOp50
 70
     1
102
RTVSPropertyOp51
 70
     0
102
RTVSPropertyOp52
 70
     0
102
RTVSPropertyOp53
 70
     1
102
RTVSPropertyOp54
 70
     1
102
RTVSPropertyOp55
 70
     1
102
RTVSPropertyOp56
 70
     1
102
RTVSPropertyOp57
 70
     1
102
RTVSPost2010Prop28
280
     0
102
RTVSPost2010PropOp28
 70
     1
102
RTVSPost2010Prop29
280
     1
102
RTVSPost2010PropOp29
 70
     1
102
RTVSPost2010Prop30
280
     1
102
RTVSPost2010PropOp30
 70
     1
102
RTVSPost2010Prop31
280
     0
102
RTVSPost2010PropOp31
 70
     1
102
RTVSPost2010Prop32
280
     0
102
RTVSPost2010PropOp32
 70
     1
102
RTVSPost2010Prop33
280
     0
102
RTVSPost2010PropOp33
 70
     1
102
RTVSPost2010Prop34
280
     0
102
RTVSPost2010PropOp34
 70
     1
102
RTVSPost2010Prop35
280
     0
102
RTVSPost2010PropOp35
 70
     1
102
RTVSPost2010Prop36
280
     0
102
RTVSPost2010PropOp36
 70
     1
102
RTVSPost2010Prop37
 90
       50
102
RTVSPost2010PropOp37
 70
     1
102
RTVSPost2010Prop38
140
0.0
102
RTVSPost2010PropOp38
 70
     1
102
RTVSPost2010Prop39
140
1.0
102
RTVSPost2010PropOp39
 70
     1
102
RTVSPost2010Prop40
 90
        0
102
RTVSPost2010PropOp40
 70
     1
102
RTVSPost2010Prop41ColorIndex
 90
       18
102
RTVSPost2010Prop41ColorRGB
 90
        0
102
RTVSPost2010PropOp41
 70
     1
102
RTVSPost2010Prop42
 90
       50
102
RTVSPost2010PropOp42
 70
     1
102
RTVSPost2010Prop43
 90
        3
102
RTVSPost2010PropOp43
 70
     1
102
RTVSPost2010Prop44ColorIndex
 90
        5
102
RTVSPost2010Prop44ColorRGB
 90
      255
102
RTVSPost2010PropOp44
 70
     1
102
RTVSPost2010Prop45
280
     0
102
RTVSPost2010PropOp45
 70
     1
102
RTVSPost2010Prop46
 90
       50
102
RTVSPost2010PropOp46
 70
     1
102
RTVSPost2010Prop47
 90
       50
102
RTVSPost2010PropOp47
 70
     1
102
RTVSPost2010Prop48
 90
       50
102
RTVSPost2010PropOp48
 70
     1
102
RTVSPost2010Prop49
280
     0
102
RTVSPost2010PropOp49
 70
     1
102
RTVSPost2010Prop50
 90
       50
102
RTVSPost2010PropOp50
 70
     1
102
RTVSPost2010Prop51ColorIndex
 90
      256
102
RTVSPost2010Prop51ColorRGB
 90
-16777216
102
RTVSPost2010PropOp51
 70
     0
102
RTVSPost2010Prop52
140
1.0
102
RTVSPost2010PropOp52
 70
     0
102
RTVSPost2010Prop53
 90
        2
102
RTVSPost2010PropOp53
 70
     1
102
RTVSPost2010Prop54
  1
strokes_ogs.tif
102
RTVSPost2010PropOp54
 70
     1
102
RTVSPost2010Prop55
280
     0
102
RTVSPost2010PropOp55
 70
     1
102
RTVSPost2010Prop56
140
1.0
102
RTVSPost2010PropOp56
 70
     1
102
RTVSPost2010Prop57
140
1.0
102
RTVSPost2010PropOp57
 70
     1
  0
XRECORD
  5
2DE
102
{ACAD_REACTORS
330
2DD
102
}
330
2DD
100
AcDbXrecord
280
     1
102
RTVSPropertyOp0
 70
     1
102
RTVSPropertyOp1
 70
     1
102
RTVSPropertyOp2
 70
     1
102
RTVSPropertyOp3
 70
     1
102
RTVSPropertyOp4
 70
     1
102
RTVSPropertyOp5
 70
     1
102
RTVSPropertyOp6
 70
     1
102
RTVSPropertyOp7
 70
     1
102
RTVSPropertyOp8
 70
     1
102
RTVSPropertyOp9
 70
     1
102
RTVSPropertyOp10
 70
     1
102
RTVSPropertyOp11
 70
     1
102
RTVSPropertyOp12
 70
     1
102
RTVSPropertyOp13
 70
     1
102
RTVSPropertyOp14
 70
     1
102
RTVSPropertyOp15
 70
     1
102
RTVSPropertyOp16
 70
     1
102
RTVSPropertyOp17
 70
     1
102
RTVSPropertyOp18
 70
     1
102
RTVSPropertyOp19
 70
     1
102
RTVSPropertyOp20
 70
     1
102
RTVSPropertyOp21
 70
     1
102
RTVSPropertyOp22
 70
     1
102
RTVSPropertyOp23
 70
     1
102
RTVSPropertyOp24
 70
     1
102
RTVSPropertyOp25
 70
     1
102
RTVSPropertyOp26
 70
     1
102
RTVSPropertyOp27
 70
     1
102
RTVSPropertyOp28
 70
     1
102
RTVSPropertyOp29
 70
     1
102
RTVSPropertyOp30
 70
     1
102
RTVSPropertyOp31
 70
     1
102
RTVSPropertyOp32
 70
     1
102
RTVSPropertyOp33
 70
     1
102
RTVSPropertyOp34
 70
     1
102
RTVSPropertyOp35
 70
     1
102
RTVSPropertyOp36
 70
     1
102
RTVSPropertyOp37
 70
     1
102
RTVSPropertyOp38
 70
     1
102
RTVSPropertyOp39
 70
     1
102
RTVSPropertyOp40
 70
     1
102
RTVSPropertyOp41
 70
     1
102
RTVSPropertyOp42
 70
     1
102
RTVSPropertyOp43
 70
     1
102
RTVSPropertyOp44
 70
     1
102
RTVSPropertyOp45
 70
     1
102
RTVSPropertyOp46
 70
     1
102
RTVSPropertyOp47
 70
     1
102
RTVSPropertyOp48
 70
     1
102
RTVSPropertyOp49
 70
     1
102
RTVSPropertyOp50
 70
     1
102
RTVSPropertyOp51
 70
     0
102
RTVSPropertyOp52
 70
     0
102
RTVSPropertyOp53
 70
     1
102
RTVSPropertyOp54
 70
     1
102
RTVSPropertyOp55
 70
     1
102
RTVSPropertyOp56
 70
     1
102
RTVSPropertyOp57
 70
     1
102
RTVSPost2010Prop28
280
     0
102
RTVSPost2010PropOp28
 70
     1
102
RTVSPost2010Prop29
280
     1
102
RTVSPost2010PropOp29
 70
     1
102
RTVSPost2010Prop30
280
     1
102
RTVSPost2010PropOp30
 70
     1
102
RTVSPost2010Prop31
280
     0
102
RTVSPost2010PropOp31
 70
     1
102
RTVSPost2010Prop32
280
     0
102
RTVSPost2010PropOp32
 70
     1
102
RTVSPost2010Prop33
280
     0
102
RTVSPost2010PropOp33
 70
     1
102
RTVSPost2010Prop34
280
     0
102
RTVSPost2010PropOp34
 70
     1
102
RTVSPost2010Prop35
280
     0
102
RTVSPost2010PropOp35
 70
     1
102
RTVSPost2010Prop36
280
     0
102
RTVSPost2010PropOp36
 70
     1
102
RTVSPost2010Prop37
 90
       50
102
RTVSPost2010PropOp37
 70
     1
102
RTVSPost2010Prop38
140
0.0
102
RTVSPost2010PropOp38
 70
     1
102
RTVSPost2010Prop39
140
1.0
102
RTVSPost2010PropOp39
 70
     1
102
RTVSPost2010Prop40
 90
        0
102
RTVSPost2010PropOp40
 70
     1
102
RTVSPost2010Prop41ColorIndex
 90
       18
102
RTVSPost2010Prop41ColorRGB
 90
        0
102
RTVSPost2010PropOp41
 70
     1
102
RTVSPost2010Prop42
 90
       50
102
RTVSPost2010PropOp42
 70
     1
102
RTVSPost2010Prop43
 90
        3
102
RTVSPost2010PropOp43
 70
     1
102
RTVSPost2010Prop44ColorIndex
 90
        5
102
RTVSPost2010Prop44ColorRGB
 90
      255
102
RTVSPost2010PropOp44
 70
     1
102
RTVSPost2010Prop45
280
     0
102
RTVSPost2010PropOp45
 70
     1
102
RTVSPost2010Prop46
 90
       50
102
RTVSPost2010PropOp46
 70
     1
102
RTVSPost2010Prop47
 90
       50
102
RTVSPost2010PropOp47
 70
     1
102
RTVSPost2010Prop48
 90
       50
102
RTVSPost2010PropOp48
 70
     1
102
RTVSPost2010Prop49
280
     0
102
RTVSPost2010PropOp49
 70
     1
102
RTVSPost2010Prop50
 90
       50
102
RTVSPost2010PropOp50
 70
     1
102
RTVSPost2010Prop51ColorIndex
 90
      256
102
RTVSPost2010Prop51ColorRGB
 90
-16777216
102
RTVSPost2010PropOp51
 70
     0
102
RTVSPost2010Prop52
140
1.0
102
RTVSPost2010PropOp52
 70
     0
102
RTVSPost2010Prop53
 90
        2
102
RTVSPost2010PropOp53
 70
     1
102
RTVSPost2010Prop54
  1
strokes_ogs.tif
102
RTVSPost2010PropOp54
 70
     1
102
RTVSPost2010Prop55
280
     0
102
RTVSPost2010PropOp55
 70
     1
102
RTVSPost2010Prop56
140
1.0
102
RTVSPost2010PropOp56
 70
     1
102
RTVSPost2010Prop57
140
1.0
102
RTVSPost2010PropOp57
 70
     1
  0
XRECORD
  5
2FE
102
{ACAD_REACTORS
330
2FD
102
}
330
2FD
100
AcDbXrecord
280
     1
102
RTVSPropertyOp0
 70
     1
102
RTVSPropertyOp1
 70
     1
102
RTVSPropertyOp2
 70
     1
102
RTVSPropertyOp3
 70
     1
102
RTVSPropertyOp4
 70
     1
102
RTVSPropertyOp5
 70
     1
102
RTVSPropertyOp6
 70
     1
102
RTVSPropertyOp7
 70
     1
102
RTVSPropertyOp8
 70
     1
102
RTVSPropertyOp9
 70
     1
102
RTVSPropertyOp10
 70
     1
102
RTVSPropertyOp11
 70
     1
102
RTVSPropertyOp12
 70
     1
102
RTVSPropertyOp13
 70
     1
102
RTVSPropertyOp14
 70
     1
102
RTVSPropertyOp15
 70
     1
102
RTVSPropertyOp16
 70
     1
102
RTVSPropertyOp17
 70
     1
102
RTVSPropertyOp18
 70
     1
102
RTVSPropertyOp19
 70
     1
102
RTVSPropertyOp20
 70
     1
102
RTVSPropertyOp21
 70
     1
102
RTVSPropertyOp22
 70
     1
102
RTVSPropertyOp23
 70
     1
102
RTVSPropertyOp24
 70
     1
102
RTVSPropertyOp25
 70
     1
102
RTVSPropertyOp26
 70
     1
102
RTVSPropertyOp27
 70
     1
102
RTVSPropertyOp28
 70
     1
102
RTVSPropertyOp29
 70
     1
102
RTVSPropertyOp30
 70
     1
102
RTVSPropertyOp31
 70
     1
102
RTVSPropertyOp32
 70
     1
102
RTVSPropertyOp33
 70
     1
102
RTVSPropertyOp34
 70
     1
102
RTVSPropertyOp35
 70
     1
102
RTVSPropertyOp36
 70
     1
102
RTVSPropertyOp37
 70
     1
102
RTVSPropertyOp38
 70
     1
102
RTVSPropertyOp39
 70
     1
102
RTVSPropertyOp40
 70
     1
102
RTVSPropertyOp41
 70
     1
102
RTVSPropertyOp42
 70
     1
102
RTVSPropertyOp43
 70
     1
102
RTVSPropertyOp44
 70
     1
102
RTVSPropertyOp45
 70
     1
102
RTVSPropertyOp46
 70
     1
102
RTVSPropertyOp47
 70
     1
102
RTVSPropertyOp48
 70
     1
102
RTVSPropertyOp49
 70
     1
102
RTVSPropertyOp50
 70
     1
102
RTVSPropertyOp51
 70
     0
102
RTVSPropertyOp52
 70
     0
102
RTVSPropertyOp53
 70
     1
102
RTVSPropertyOp54
 70
     1
102
RTVSPropertyOp55
 70
     1
102
RTVSPropertyOp56
 70
     1
102
RTVSPropertyOp57
 70
     1
102
RTVSPost2010Prop28
280
     0
102
RTVSPost2010PropOp28
 70
     1
102
RTVSPost2010Prop29
280
     1
102
RTVSPost2010PropOp29
 70
     1
102
RTVSPost2010Prop30
280
     1
102
RTVSPost2010PropOp30
 70
     1
102
RTVSPost2010Prop31
280
     0
102
RTVSPost2010PropOp31
 70
     1
102
RTVSPost2010Prop32
280
     0
102
RTVSPost2010PropOp32
 70
     1
102
RTVSPost2010Prop33
280
     0
102
RTVSPost2010PropOp33
 70
     1
102
RTVSPost2010Prop34
280
     0
102
RTVSPost2010PropOp34
 70
     1
102
RTVSPost2010Prop35
280
     0
102
RTVSPost2010PropOp35
 70
     1
102
RTVSPost2010Prop36
280
     0
102
RTVSPost2010PropOp36
 70
     1
102
RTVSPost2010Prop37
 90
       50
102
RTVSPost2010PropOp37
 70
     1
102
RTVSPost2010Prop38
140
0.0
102
RTVSPost2010PropOp38
 70
     1
102
RTVSPost2010Prop39
140
1.0
102
RTVSPost2010PropOp39
 70
     1
102
RTVSPost2010Prop40
 90
        0
102
RTVSPost2010PropOp40
 70
     1
102
RTVSPost2010Prop41ColorIndex
 90
       18
102
RTVSPost2010Prop41ColorRGB
 90
        0
102
RTVSPost2010PropOp41
 70
     1
102
RTVSPost2010Prop42
 90
       50
102
RTVSPost2010PropOp42
 70
     1
102
RTVSPost2010Prop43
 90
        3
102
RTVSPost2010PropOp43
 70
     1
102
RTVSPost2010Prop44ColorIndex
 90
        5
102
RTVSPost2010Prop44ColorRGB
 90
      255
102
RTVSPost2010PropOp44
 70
     1
102
RTVSPost2010Prop45
280
     0
102
RTVSPost2010PropOp45
 70
     1
102
RTVSPost2010Prop46
 90
       50
102
RTVSPost2010PropOp46
 70
     1
102
RTVSPost2010Prop47
 90
       50
102
RTVSPost2010PropOp47
 70
     1
102
RTVSPost2010Prop48
 90
       50
102
RTVSPost2010PropOp48
 70
     1
102
RTVSPost2010Prop49
280
     0
102
RTVSPost2010PropOp49
 70
     1
102
RTVSPost2010Prop50
 90
       50
102
RTVSPost2010PropOp50
 70
     1
102
RTVSPost2010Prop51ColorIndex
 90
      256
102
RTVSPost2010Prop51ColorRGB
 90
-16777216
102
RTVSPost2010PropOp51
 70
     0
102
RTVSPost2010Prop52
140
1.0
102
RTVSPost2010PropOp52
 70
     0
102
RTVSPost2010Prop53
 90
        2
102
RTVSPost2010PropOp53
 70
     1
102
RTVSPost2010Prop54
  1
strokes_ogs.tif
102
RTVSPost2010PropOp54
 70
     1
102
RTVSPost2010Prop55
280
     0
102
RTVSPost2010PropOp55
 70
     1
102
RTVSPost2010Prop56
140
1.0
102
RTVSPost2010PropOp56
 70
     1
102
RTVSPost2010Prop57
140
1.0
102
RTVSPost2010PropOp57
 70
     1
  0
ENDSEC
  0
EOF
