  0
SECTION
  2
HEADER
  9
$ACADVER
  1
AC1027
  9
$ACADMAINTVER
 70
   125
  9
$DWGCODEPAGE
  3
ANSI_1252
  9
$LASTSAVEDBY
  1
kaschu
  9
$REQUIREDVERSIONS
160
                 0
  9
$INSBASE
 10
0.0
 20
0.0
 30
0.0
  9
$EXTMIN
 10
-12778.43550409069
 20
31.49261666666666
 30
-0.0000000000000102
  9
$EXTMAX
 10
658.3185533777723
 20
6547.083994783846
 30
0.0000000000000094
  9
$LIMMIN
 10
-0.5
 20
-0.5
  9
$LIMMAX
 10
5.0
 20
5.0
  9
$ORTHOMODE
 70
     0
  9
$REGENMODE
 70
     1
  9
$FILLMODE
 70
     1
  9
$QTEXTMODE
 70
     0
  9
$MIRRTEXT
 70
     1
  9
$LTSCALE
 40
1.0
  9
$ATTMODE
 70
     1
  9
$TEXTSIZE
 40
0.2
  9
$TRACEWID
 40
0.05
  9
$TEXTSTYLE
  7
Standard
  9
$CLAYER
  8
0
  9
$CELTYPE
  6
ByLayer
  9
$CECOLOR
 62
   256
  9
$CELTSCALE
 40
1.0
  9
$DISPSILH
 70
     0
  9
$DIMSCALE
 40
1.0
  9
$DIMASZ
 40
0.18
  9
$DIMEXO
 40
0.0625
  9
$DIMDLI
 40
0.38
  9
$DIMRND
 40
0.0
  9
$DIMDLE
 40
0.0
  9
$DIMEXE
 40
0.18
  9
$DIMTP
 40
0.0
  9
$DIMTM
 40
0.0
  9
$DIMTXT
 40
0.18
  9
$DIMCEN
 40
0.09
  9
$DIMTSZ
 40
0.0
  9
$DIMTOL
 70
     0
  9
$DIMLIM
 70
     0
  9
$DIMTIH
 70
     1
  9
$DIMTOH
 70
     1
  9
$DIMSE1
 70
     0
  9
$DIMSE2
 70
     0
  9
$DIMTAD
 70
     0
  9
$DIMZIN
 70
     0
  9
$DIMBLK
  1

  9
$DIMASO
 70
     1
  9
$DIMSHO
 70
     1
  9
$DIMPOST
  1

  9
$DIMAPOST
  1

  9
$DIMALT
 70
     0
  9
$DIMALTD
 70
     2
  9
$DIMALTF
 40
25.4
  9
$DIMLFAC
 40
1.0
  9
$DIMTOFL
 70
     0
  9
$DIMTVP
 40
0.0
  9
$DIMTIX
 70
     0
  9
$DIMSOXD
 70
     0
  9
$DIMSAH
 70
     0
  9
$DIMBLK1
  1

  9
$DIMBLK2
  1

  9
$DIMSTYLE
  2
Standard
  9
$DIMCLRD
 70
     0
  9
$DIMCLRE
 70
     0
  9
$DIMCLRT
 70
     0
  9
$DIMTFAC
 40
1.0
  9
$DIMGAP
 40
0.09
  9
$DIMJUST
 70
     0
  9
$DIMSD1
 70
     0
  9
$DIMSD2
 70
     0
  9
$DIMTOLJ
 70
     1
  9
$DIMTZIN
 70
     0
  9
$DIMALTZ
 70
     0
  9
$DIMALTTZ
 70
     0
  9
$DIMUPT
 70
     0
  9
$DIMDEC
 70
     4
  9
$DIMTDEC
 70
     4
  9
$DIMALTU
 70
     2
  9
$DIMALTTD
 70
     2
  9
$DIMTXSTY
  7
Standard
  9
$DIMAUNIT
 70
     0
  9
$DIMADEC
 70
     0
  9
$DIMALTRND
 40
0.0
  9
$DIMAZIN
 70
     0
  9
$DIMDSEP
 70
    46
  9
$DIMATFIT
 70
     3
  9
$DIMFRAC
 70
     0
  9
$DIMLDRBLK
  1

  9
$DIMLUNIT
 70
     2
  9
$DIMLWD
 70
    -2
  9
$DIMLWE
 70
    -2
  9
$DIMTMOVE
 70
     0
  9
$DIMFXL
 40
1.0
  9
$DIMFXLON
 70
     0
  9
$DIMJOGANG
 40
0.7853981633974483
  9
$DIMTFILL
 70
     0
  9
$DIMTFILLCLR
 70
     0
  9
$DIMARCSYM
 70
     0
  9
$DIMLTYPE
  6

  9
$DIMLTEX1
  6

  9
$DIMLTEX2
  6

  9
$DIMTXTDIRECTION
 70
     0
  9
$LUNITS
 70
     2
  9
$LUPREC
 70
     4
  9
$SKETCHINC
 40
0.1
  9
$FILLETRAD
 40
0.5
  9
$AUNITS
 70
     0
  9
$AUPREC
 70
     0
  9
$MENU
  1
.
  9
$ELEVATION
 40
0.0
  9
$PELEVATION
 40
0.0
  9
$THICKNESS
 40
0.0
  9
$LIMCHECK
 70
     0
  9
$CHAMFERA
 40
0.0
  9
$CHAMFERB
 40
0.0
  9
$CHAMFERC
 40
0.0
  9
$CHAMFERD
 40
0.0
  9
$SKPOLY
 70
     0
  9
$TDCREATE
 40
2460343.496574074
  9
$TDUCREATE
 40
2460343.454911597
  9
$TDUPDATE
 40
2460504.346666667
  9
$TDUUPDATE
 40
2460504.263333333
  9
$TDINDWG
 40
0.0012615856
  9
$TDUSRTIMER
 40
0.0012615856
  9
$USRTIMER
 70
     1
  9
$ANGBASE
 50
0.0
  9
$ANGDIR
 70
     0
  9
$PDMODE
 70
     0
  9
$PDSIZE
 40
0.0
  9
$PLINEWID
 40
0.0
  9
$SPLFRAME
 70
     0
  9
$SPLINETYPE
 70
     6
  9
$SPLINESEGS
 70
     8
  9
$HANDSEED
  5
23F
  9
$SURFTAB1
 70
     6
  9
$SURFTAB2
 70
     6
  9
$SURFTYPE
 70
     6
  9
$SURFU
 70
     6
  9
$SURFV
 70
     6
  9
$UCSBASE
  2

  9
$UCSNAME
  2

  9
$UCSORG
 10
0.0
 20
0.0
 30
0.0
  9
$UCSXDIR
 10
1.0
 20
0.0
 30
0.0
  9
$UCSYDIR
 10
0.0
 20
1.0
 30
0.0
  9
$UCSORTHOREF
  2

  9
$UCSORTHOVIEW
 70
     0
  9
$UCSORGTOP
 10
0.0
 20
0.0
 30
0.0
  9
$UCSORGBOTTOM
 10
0.0
 20
0.0
 30
0.0
  9
$UCSORGLEFT
 10
0.0
 20
0.0
 30
0.0
  9
$UCSORGRIGHT
 10
0.0
 20
0.0
 30
0.0
  9
$UCSORGFRONT
 10
0.0
 20
0.0
 30
0.0
  9
$UCSORGBACK
 10
0.0
 20
0.0
 30
0.0
  9
$PUCSBASE
  2

  9
$PUCSNAME
  2

  9
$PUCSORG
 10
0.0
 20
0.0
 30
0.0
  9
$PUCSXDIR
 10
1.0
 20
0.0
 30
0.0
  9
$PUCSYDIR
 10
0.0
 20
1.0
 30
0.0
  9
$PUCSORTHOREF
  2

  9
$PUCSORTHOVIEW
 70
     0
  9
$PUCSORGTOP
 10
0.0
 20
0.0
 30
0.0
  9
$PUCSORGBOTTOM
 10
0.0
 20
0.0
 30
0.0
  9
$PUCSORGLEFT
 10
0.0
 20
0.0
 30
0.0
  9
$PUCSORGRIGHT
 10
0.0
 20
0.0
 30
0.0
  9
$PUCSORGFRONT
 10
0.0
 20
0.0
 30
0.0
  9
$PUCSORGBACK
 10
0.0
 20
0.0
 30
0.0
  9
$USERI1
 70
     0
  9
$USERI2
 70
     0
  9
$USERI3
 70
     0
  9
$USERI4
 70
     0
  9
$USERI5
 70
     0
  9
$USERR1
 40
0.0
  9
$USERR2
 40
0.0
  9
$USERR3
 40
0.0
  9
$USERR4
 40
0.0
  9
$USERR5
 40
0.0
  9
$WORLDVIEW
 70
     1
  9
$SHADEDGE
 70
     3
  9
$SHADEDIF
 70
    70
  9
$TILEMODE
 70
     1
  9
$MAXACTVP
 70
    64
  9
$PINSBASE
 10
0.0
 20
0.0
 30
0.0
  9
$PLIMCHECK
 70
     0
  9
$PEXTMIN
 10
-0.5
 20
-0.5
 30
-0.5
  9
$PEXTMAX
 10
5.0
 20
5.0
 30
5.0
  9
$PLIMMIN
 10
-0.5
 20
-0.5
  9
$PLIMMAX
 10
5.0
 20
5.0
  9
$UNITMODE
 70
     0
  9
$VISRETAIN
 70
     1
  9
$PLINEGEN
 70
     0
  9
$PSLTSCALE
 70
     1
  9
$TREEDEPTH
 70
  3020
  9
$CMLSTYLE
  2
Standard
  9
$CMLJUST
 70
     0
  9
$CMLSCALE
 40
1.0
  9
$PROXYGRAPHICS
 70
     1
  9
$MEASUREMENT
 70
     1
  9
$CELWEIGHT
370
    18
  9
$ENDCAPS
280
     0
  9
$JOINSTYLE
280
     0
  9
$LWDISPLAY
290
     0
  9
$INSUNITS
 70
     4
  9
$HYPERLINKBASE
  1

  9
$STYLESHEET
  1

  9
$XEDIT
290
     1
  9
$CEPSNTYPE
380
     0
  9
$PSTYLEMODE
290
     1
  9
$FINGERPRINTGUID
  2
{3427A944-41B7-4620-AD06-DC4CEFA3369C}
  9
$VERSIONGUID
  2
{4D96FA2C-11AE-FD49-B72F-20C5E928ADE2}
  9
$EXTNAMES
290
     1
  9
$PSVPSCALE
 40
0.0
  9
$OLESTARTUP
290
     0
  9
$SORTENTS
280
   127
  9
$INDEXCTL
280
     0
  9
$HIDETEXT
280
     1
  9
$XCLIPFRAME
280
     2
  9
$HALOGAP
280
     0
  9
$OBSCOLOR
 70
   257
  9
$OBSLTYPE
280
     0
  9
$INTERSECTIONDISPLAY
280
     0
  9
$INTERSECTIONCOLOR
 70
   257
  9
$DIMASSOC
280
     2
  9
$PROJECTNAME
  1

  9
$CAMERADISPLAY
290
     0
  9
$LENSLENGTH
 40
50.0
  9
$CAMERAHEIGHT
 40
0.0
  9
$STEPSPERSEC
 40
2.0
  9
$STEPSIZE
 40
6.0
  9
$3DDWFPREC
 40
2.0
  9
$PSOLWIDTH
 40
0.25
  9
$PSOLHEIGHT
 40
4.0
  9
$LOFTANG1
 40
1.570796326794896
  9
$LOFTANG2
 40
1.570796326794896
  9
$LOFTMAG1
 40
0.0
  9
$LOFTMAG2
 40
0.0
  9
$LOFTPARAM
 70
     7
  9
$LOFTNORMALS
280
     1
  9
$LATITUDE
 40
37.795
  9
$LONGITUDE
 40
-122.394
  9
$NORTHDIRECTION
 40
0.0
  9
$TIMEZONE
 70
 -8000
  9
$LIGHTGLYPHDISPLAY
280
     1
  9
$TILEMODELIGHTSYNCH
280
     1
  9
$CMATERIAL
347
44
  9
$SOLIDHIST
280
     0
  9
$SHOWHIST
280
     1
  9
$DWFFRAME
280
     2
  9
$DGNFRAME
280
     0
  9
$REALWORLDSCALE
290
     1
  9
$INTERFERECOLOR
 62
     1
  9
$INTERFEREOBJVS
345
33
  9
$INTERFEREVPVS
346
30
  9
$CSHADOW
280
     0
  9
$SHADOWPLANELOCATION
 40
0.0
  0
ENDSEC
  0
SECTION
  2
CLASSES
  0
CLASS
  1
ACDBDICTIONARYWDFLT
  2
AcDbDictionaryWithDefault
  3
ObjectDBX Classes
 90
        0
 91
        1
280
     0
281
     0
  0
CLASS
  1
VISUALSTYLE
  2
AcDbVisualStyle
  3
ObjectDBX Classes
 90
     4095
 91
       24
280
     0
281
     0
  0
CLASS
  1
MATERIAL
  2
AcDbMaterial
  3
ObjectDBX Classes
 90
     1153
 91
        3
280
     0
281
     0
  0
CLASS
  1
SCALE
  2
AcDbScale
  3
ObjectDBX Classes
 90
     1153
 91
       33
280
     0
281
     0
  0
CLASS
  1
TABLESTYLE
  2
AcDbTableStyle
  3
ObjectDBX Classes
 90
     4095
 91
        1
280
     0
281
     0
  0
CLASS
  1
MLEADERSTYLE
  2
AcDbMLeaderStyle
  3
ACDB_MLEADERSTYLE_CLASS
 90
     4095
 91
        1
280
     0
281
     0
  0
CLASS
  1
SUN
  2
AcDbSun
  3
SCENEOE
 90
     1153
 91
        0
280
     0
281
     0
  0
CLASS
  1
DICTIONARYVAR
  2
AcDbDictionaryVar
  3
ObjectDBX Classes
 90
        0
 91
       10
280
     0
281
     0
  0
CLASS
  1
CELLSTYLEMAP
  2
AcDbCellStyleMap
  3
ObjectDBX Classes
 90
     1152
 91
        2
280
     0
281
     0
  0
CLASS
  1
ACDBSECTIONVIEWSTYLE
  2
AcDbSectionViewStyle
  3
ObjectDBX Classes
 90
     1025
 91
        2
280
     0
281
     0
  0
CLASS
  1
ACDBDETAILVIEWSTYLE
  2
AcDbDetailViewStyle
  3
ObjectDBX Classes
 90
     1025
 91
        2
280
     0
281
     0
  0
CLASS
  1
DIMASSOC
  2
AcDbDimAssoc
  3
"AcDbDimAssoc|Product Desc:     AcDim ARX App For Dimension|Company:          Autodesk, Inc.|WEB Address:      www.autodesk.com"
 90
        0
 91
        1
280
     0
281
     0
  0
CLASS
  1
SORTENTSTABLE
  2
AcDbSortentsTable
  3
ObjectDBX Classes
 90
        0
 91
        1
280
     0
281
     0
  0
ENDSEC
  0
SECTION
  2
TABLES
  0
TABLE
  2
VPORT
  5
8
330
0
100
AcDbSymbolTable
 70
    16
1001
ACAD
1000
DbSaveVer
1071
      224
  0
VPORT
  5
29
330
8
100
AcDbSymbolTableRecord
100
AcDbViewportTableRecord
  2
*Active
 70
     0
 10
0.0
 20
0.0
 11
1.0
 21
1.0
 12
516.6984178310376
 22
126.0308894927558
 13
0.0
 23
0.0
 14
0.5
 24
0.5
 15
0.5
 25
0.5
 16
0.0
 26
0.0
 36
1.0
 17
0.0
 27
0.0
 37
0.0
 40
759.6440123335654
 41
2.008902077151335
 42
50.0
 43
681.8799339999999
 44
-681.8799339999999
 50
0.0
 51
0.0
 71
     0
 72
   100
 73
     1
 74
     3
 75
     0
 76
     0
 77
     0
 78
     0
281
     0
 65
     1
110
0.0
120
0.0
130
0.0
111
1.0
121
0.0
131
0.0
112
0.0
122
1.0
132
0.0
 79
     0
146
0.0
348
2F
 60
     3
 61
     5
292
     1
282
     1
141
0.0
142
0.0
 63
   250
421
  3355443
1001
ACAD_NAV_VCDISPLAY
1070
     3
  0
VPORT
  5
11C
330
8
100
AcDbSymbolTableRecord
100
AcDbViewportTableRecord
  2
L1
 70
     0
 10
0.0
 20
0.0
 11
1.0
 21
1.0
 12
225.420239
 22
142.142456
 13
0.0
 23
0.0
 14
0.5
 24
0.5
 15
0.5
 25
0.5
 16
0.0
 26
0.0
 36
1.0
 17
0.0
 27
0.0
 37
0.0
 40
254.0
 41
0.069908
 42
50.0
 43
681.8799339999999
 44
-681.8799339999999
 50
0.0
 51
0.0
 71
     0
 72
   100
 73
     1
 74
     3
 75
     0
 76
     0
 77
     0
 78
     0
281
     0
 65
     1
110
0.0
120
0.0
130
0.0
111
1.0
121
0.0
131
0.0
112
0.0
122
1.0
132
0.0
 79
     0
146
0.0
348
2F
 60
     3
 61
     5
292
     1
282
     1
141
0.0
142
0.0
 63
   250
421
  3355443
  0
VPORT
  5
11D
330
8
100
AcDbSymbolTableRecord
100
AcDbViewportTableRecord
  2
L2
 70
     0
 10
0.0
 20
0.0
 11
0.5
 21
1.0
 12
0.0
 22
0.0
 13
0.0
 23
0.0
 14
0.5
 24
0.5
 15
0.5
 25
0.5
 16
0.0
 26
-1.0
 36
0.0
 17
0.0
 27
0.0
 37
0.0
 40
1319.822715
 41
0.013454
 42
50.0
 43
672.020833
 44
-672.020833
 50
0.0
 51
0.0
 71
     0
 72
   100
 73
     1
 74
     3
 75
     0
 76
     0
 77
     0
 78
     0
281
     0
 65
     1
110
0.0
120
0.0
130
0.0
111
1.0
121
0.0
131
0.0
112
0.0
122
1.0
132
0.0
 79
     0
146
0.0
348
2F
 60
     3
 61
     5
292
     1
282
     1
141
0.0
142
0.0
 63
   250
421
  3355443
  0
VPORT
  5
11E
330
8
100
AcDbSymbolTableRecord
100
AcDbViewportTableRecord
  2
L2
 70
     0
 10
0.5
 20
0.0
 11
1.0
 21
1.0
 12
0.0
 22
0.0
 13
0.0
 23
0.0
 14
0.5
 24
0.5
 15
0.5
 25
0.5
 16
1.0
 26
0.0
 36
0.0
 17
0.0
 27
0.0
 37
0.0
 40
1319.822715
 41
0.013454
 42
50.0
 43
672.020833
 44
-672.020833
 50
0.0
 51
0.0
 71
     0
 72
   100
 73
     1
 74
     3
 75
     0
 76
     0
 77
     0
 78
     0
281
     0
 65
     1
110
0.0
120
0.0
130
0.0
111
1.0
121
0.0
131
0.0
112
0.0
122
1.0
132
0.0
 79
     0
146
0.0
348
2F
 60
     3
 61
     5
292
     1
282
     1
141
0.0
142
0.0
 63
   250
421
  3355443
  0
VPORT
  5
11F
330
8
100
AcDbSymbolTableRecord
100
AcDbViewportTableRecord
  2
L3
 70
     0
 10
0.0
 20
0.5
 11
1.0
 21
1.0
 12
225.420239
 22
142.142456
 13
0.0
 23
0.0
 14
0.5
 24
0.5
 15
0.5
 25
0.5
 16
0.0
 26
0.0
 36
1.0
 17
0.0
 27
0.0
 37
0.0
 40
254.0
 41
0.069908
 42
50.0
 43
681.8799339999999
 44
-681.8799339999999
 50
0.0
 51
0.0
 71
     0
 72
   100
 73
     1
 74
     3
 75
     0
 76
     0
 77
     0
 78
     0
281
     0
 65
     1
110
0.0
120
0.0
130
0.0
111
1.0
121
0.0
131
0.0
112
0.0
122
1.0
132
0.0
 79
     0
146
0.0
348
2F
 60
     3
 61
     5
292
     1
282
     1
141
0.0
142
0.0
 63
   250
421
  3355443
  0
VPORT
  5
120
330
8
100
AcDbSymbolTableRecord
100
AcDbViewportTableRecord
  2
L3
 70
     0
 10
0.0
 20
0.0
 11
1.0
 21
0.5
 12
0.0
 22
0.0
 13
0.0
 23
0.0
 14
0.5
 24
0.5
 15
0.5
 25
0.5
 16
0.0
 26
-1.0
 36
0.0
 17
0.0
 27
0.0
 37
0.0
 40
1319.822715
 41
0.013454
 42
50.0
 43
672.020833
 44
-672.020833
 50
0.0
 51
0.0
 71
     0
 72
   100
 73
     1
 74
     3
 75
     0
 76
     0
 77
     0
 78
     0
281
     0
 65
     1
110
0.0
120
0.0
130
0.0
111
1.0
121
0.0
131
0.0
112
0.0
122
1.0
132
0.0
 79
     0
146
0.0
348
2F
 60
     3
 61
     5
292
     1
282
     1
141
0.0
142
0.0
 63
   250
421
  3355443
  0
VPORT
  5
121
330
8
100
AcDbSymbolTableRecord
100
AcDbViewportTableRecord
  2
L4
 70
     0
 10
0.0
 20
0.5
 11
0.5
 21
1.0
 12
225.420239
 22
142.142456
 13
0.0
 23
0.0
 14
0.5
 24
0.5
 15
0.5
 25
0.5
 16
0.0
 26
0.0
 36
1.0
 17
0.0
 27
0.0
 37
0.0
 40
254.0
 41
0.069908
 42
50.0
 43
681.8799339999999
 44
-681.8799339999999
 50
0.0
 51
0.0
 71
     0
 72
   100
 73
     1
 74
     3
 75
     0
 76
     0
 77
     0
 78
     0
281
     0
 65
     1
110
0.0
120
0.0
130
0.0
111
1.0
121
0.0
131
0.0
112
0.0
122
1.0
132
0.0
 79
     0
146
0.0
348
2F
 60
     3
 61
     5
292
     1
282
     1
141
0.0
142
0.0
 63
   250
421
  3355443
  0
VPORT
  5
122
330
8
100
AcDbSymbolTableRecord
100
AcDbViewportTableRecord
  2
L4
 70
     0
 10
0.0
 20
0.0
 11
0.5
 21
0.5
 12
0.0
 22
0.0
 13
0.0
 23
0.0
 14
0.5
 24
0.5
 15
0.5
 25
0.5
 16
0.0
 26
-1.0
 36
0.0
 17
0.0
 27
0.0
 37
0.0
 40
1319.822715
 41
0.013454
 42
50.0
 43
672.020833
 44
-672.020833
 50
0.0
 51
0.0
 71
     0
 72
   100
 73
     1
 74
     3
 75
     0
 76
     0
 77
     0
 78
     0
281
     0
 65
     1
110
0.0
120
0.0
130
0.0
111
1.0
121
0.0
131
0.0
112
0.0
122
1.0
132
0.0
 79
     0
146
0.0
348
2F
 60
     3
 61
     5
292
     1
282
     1
141
0.0
142
0.0
 63
   250
421
  3355443
  0
VPORT
  5
123
330
8
100
AcDbSymbolTableRecord
100
AcDbViewportTableRecord
  2
L4
 70
     0
 10
0.5
 20
0.0
 11
1.0
 21
0.5
 12
0.0
 22
0.0
 13
0.0
 23
0.0
 14
0.5
 24
0.5
 15
0.5
 25
0.5
 16
1.0
 26
0.0
 36
0.0
 17
0.0
 27
0.0
 37
0.0
 40
1319.822715
 41
0.013454
 42
50.0
 43
672.020833
 44
-672.020833
 50
0.0
 51
0.0
 71
     0
 72
   100
 73
     1
 74
     3
 75
     0
 76
     0
 77
     0
 78
     0
281
     0
 65
     1
110
0.0
120
0.0
130
0.0
111
1.0
121
0.0
131
0.0
112
0.0
122
1.0
132
0.0
 79
     0
146
0.0
348
2F
 60
     3
 61
     5
292
     1
282
     1
141
0.0
142
0.0
 63
   250
421
  3355443
  0
VPORT
  5
124
330
8
100
AcDbSymbolTableRecord
100
AcDbViewportTableRecord
  2
L4
 70
     0
 10
0.5
 20
0.5
 11
1.0
 21
1.0
 12
0.0
 22
0.0
 13
0.0
 23
0.0
 14
0.5
 24
0.5
 15
0.5
 25
0.5
 16
0.5773502691896259
 26
-0.5773502691896259
 36
0.5773502691896259
 17
0.0
 27
0.0
 37
0.0
 40
1285.020866
 41
0.013818
 42
50.0
 43
667.141407
 44
-667.141407
 50
0.0
 51
0.0
 71
     0
 72
   100
 73
     1
 74
     3
 75
     0
 76
     0
 77
     0
 78
     0
281
     0
 65
     1
110
0.0
120
0.0
130
0.0
111
1.0
121
0.0
131
0.0
112
0.0
122
1.0
132
0.0
 79
     0
146
0.0
348
2F
 60
     3
 61
     5
292
     1
282
     1
141
0.0
142
0.0
 63
   250
421
  3355443
  0
VPORT
  5
125
330
8
100
AcDbSymbolTableRecord
100
AcDbViewportTableRecord
  2
L6
 70
     0
 10
0.0
 20
0.5
 11
0.333333
 21
1.0
 12
0.0
 22
0.0
 13
0.0
 23
0.0
 14
0.5
 24
0.5
 15
0.5
 25
0.5
 16
0.7188730927569434
 26
-0.5850486126764433
 36
0.3754192287502549
 17
0.0
 27
0.0
 37
0.0
 40
1357.434192
 41
0.013081
 42
50.0
 43
701.839477
 44
-701.839477
 50
0.0
 51
0.0
 71
     0
 72
   100
 73
     1
 74
     3
 75
     0
 76
     0
 77
     0
 78
     0
281
     0
 65
     1
110
0.0
120
0.0
130
0.0
111
1.0
121
0.0
131
0.0
112
0.0
122
1.0
132
0.0
 79
     0
146
0.0
348
2F
 60
     3
 61
     5
292
     1
282
     1
141
0.0
142
0.0
 63
   250
421
  3355443
  0
VPORT
  5
126
330
8
100
AcDbSymbolTableRecord
100
AcDbViewportTableRecord
  2
L6
 70
     0
 10
0.0
 20
0.0
 11
0.333333
 21
0.5
 12
0.0
 22
0.0
 13
0.0
 23
0.0
 14
0.5
 24
0.5
 15
0.5
 25
0.5
 16
-1.0
 26
0.0
 36
0.0
 17
0.0
 27
0.0
 37
0.0
 40
1319.822715
 41
0.013454
 42
50.0
 43
672.020833
 44
-672.020833
 50
0.0
 51
0.0
 71
     0
 72
   100
 73
     1
 74
     3
 75
     0
 76
     0
 77
     0
 78
     0
281
     0
 65
     1
110
0.0
120
0.0
130
0.0
111
1.0
121
0.0
131
0.0
112
0.0
122
1.0
132
0.0
 79
     0
146
0.0
348
2F
 60
     3
 61
     5
292
     1
282
     1
141
0.0
142
0.0
 63
   250
421
  3355443
  0
VPORT
  5
127
330
8
100
AcDbSymbolTableRecord
100
AcDbViewportTableRecord
  2
L6
 70
     0
 10
0.333333
 20
0.5
 11
0.666667
 21
1.0
 12
225.420239
 22
142.142456
 13
0.0
 23
0.0
 14
0.5
 24
0.5
 15
0.5
 25
0.5
 16
0.0
 26
0.0
 36
1.0
 17
0.0
 27
0.0
 37
0.0
 40
254.0
 41
0.069908
 42
50.0
 43
681.8799339999999
 44
-681.8799339999999
 50
0.0
 51
0.0
 71
     0
 72
   100
 73
     1
 74
     3
 75
     0
 76
     0
 77
     0
 78
     0
281
     0
 65
     1
110
0.0
120
0.0
130
0.0
111
1.0
121
0.0
131
0.0
112
0.0
122
1.0
132
0.0
 79
     0
146
0.0
348
2F
 60
     3
 61
     5
292
     1
282
     1
141
0.0
142
0.0
 63
   250
421
  3355443
  0
VPORT
  5
128
330
8
100
AcDbSymbolTableRecord
100
AcDbViewportTableRecord
  2
L6
 70
     0
 10
0.333333
 20
0.0
 11
0.666667
 21
0.5
 12
0.0
 22
0.0
 13
0.0
 23
0.0
 14
0.5
 24
0.5
 15
0.5
 25
0.5
 16
0.0
 26
-1.0
 36
0.0
 17
0.0
 27
0.0
 37
0.0
 40
1319.822715
 41
0.013454
 42
50.0
 43
672.020833
 44
-672.020833
 50
0.0
 51
0.0
 71
     0
 72
   100
 73
     1
 74
     3
 75
     0
 76
     0
 77
     0
 78
     0
281
     0
 65
     1
110
0.0
120
0.0
130
0.0
111
1.0
121
0.0
131
0.0
112
0.0
122
1.0
132
0.0
 79
     0
146
0.0
348
2F
 60
     3
 61
     5
292
     1
282
     1
141
0.0
142
0.0
 63
   250
421
  3355443
  0
VPORT
  5
129
330
8
100
AcDbSymbolTableRecord
100
AcDbViewportTableRecord
  2
L6
 70
     0
 10
0.666667
 20
0.5
 11
1.0
 21
1.0
 12
0.0
 22
0.0
 13
0.0
 23
0.0
 14
0.5
 24
0.5
 15
0.5
 25
0.5
 16
0.5773502691896259
 26
-0.5773502691896259
 36
0.5773502691896259
 17
0.0
 27
0.0
 37
0.0
 40
1285.020866
 41
0.013818
 42
50.0
 43
667.141407
 44
-667.141407
 50
0.0
 51
0.0
 71
     0
 72
   100
 73
     1
 74
     3
 75
     0
 76
     0
 77
     0
 78
     0
281
     0
 65
     1
110
0.0
120
0.0
130
0.0
111
1.0
121
0.0
131
0.0
112
0.0
122
1.0
132
0.0
 79
     0
146
0.0
348
2F
 60
     3
 61
     5
292
     1
282
     1
141
0.0
142
0.0
 63
   250
421
  3355443
  0
VPORT
  5
12A
330
8
100
AcDbSymbolTableRecord
100
AcDbViewportTableRecord
  2
L6
 70
     0
 10
0.666667
 20
0.0
 11
1.0
 21
0.5
 12
0.0
 22
0.0
 13
0.0
 23
0.0
 14
0.5
 24
0.5
 15
0.5
 25
0.5
 16
1.0
 26
0.0
 36
0.0
 17
0.0
 27
0.0
 37
0.0
 40
1319.822715
 41
0.013454
 42
50.0
 43
672.020833
 44
-672.020833
 50
0.0
 51
0.0
 71
     0
 72
   100
 73
     1
 74
     3
 75
     0
 76
     0
 77
     0
 78
     0
281
     0
 65
     1
110
0.0
120
0.0
130
0.0
111
1.0
121
0.0
131
0.0
112
0.0
122
1.0
132
0.0
 79
     0
146
0.0
348
2F
 60
     3
 61
     5
292
     1
282
     1
141
0.0
142
0.0
 63
   250
421
  3355443
  0
ENDTAB
  0
TABLE
  2
LTYPE
  5
5
330
0
100
AcDbSymbolTable
 70
     8
  0
LTYPE
  5
14
330
5
100
AcDbSymbolTableRecord
100
AcDbLinetypeTableRecord
  2
ByBlock
 70
     0
  3

 72
    65
 73
     0
 40
0.0
  0
LTYPE
  5
15
330
5
100
AcDbSymbolTableRecord
100
AcDbLinetypeTableRecord
  2
ByLayer
 70
     0
  3

 72
    65
 73
     0
 40
0.0
  0
LTYPE
  5
16
330
5
100
AcDbSymbolTableRecord
100
AcDbLinetypeTableRecord
  2
Continuous
 70
     0
  3
Solid line
 72
    65
 73
     0
 40
0.0
  0
LTYPE
  5
6E
330
5
100
AcDbSymbolTableRecord
100
AcDbLinetypeTableRecord
  2
CENTER
 70
     0
  3
____ _ ____ _ ____ _ ____
 72
    65
 73
     4
 40
47.4
 49
22.0
 74
     4
 75
     0
340
0
 46
0.0
 50
0.0
 44
0.0
 45
0.0
 49
-8.5
 74
     4
 75
     0
340
0
 46
0.0
 50
0.0
 44
0.0
 45
0.0
 49
8.5
 74
     4
 75
     0
340
0
 46
0.0
 50
0.0
 44
0.0
 45
0.0
 49
-8.5
 74
     4
 75
     0
340
0
 46
0.0
 50
0.0
 44
0.0
 45
0.0
  0
LTYPE
  5
6F
330
5
100
AcDbSymbolTableRecord
100
AcDbLinetypeTableRecord
  2
DASHDOT
 70
     0
  3
_._._._._._._._._._._._._._._._.
 72
    65
 73
     4
 40
70.0
 49
31.0
 74
     4
 75
     0
340
0
 46
0.0
 50
0.0
 44
0.0
 45
0.0
 49
-13.0
 74
     4
 75
     0
340
0
 46
0.0
 50
0.0
 44
0.0
 45
0.0
 49
13.0
 74
     4
 75
     0
340
0
 46
0.0
 50
0.0
 44
0.0
 45
0.0
 49
-13.0
 74
     4
 75
     0
340
0
 46
0.0
 50
0.0
 44
0.0
 45
0.0
  0
LTYPE
  5
70
330
5
100
AcDbSymbolTableRecord
100
AcDbLinetypeTableRecord
  2
DASHED
 70
     0
  3
__ __ __ __ __ __ __ __ __
 72
    65
 73
     2
 40
25.72
 49
12.86
 74
     4
 75
     0
340
0
 46
0.0
 50
0.0
 44
0.0
 45
0.0
 49
-12.86
 74
     4
 75
     0
340
0
 46
0.0
 50
0.0
 44
0.0
 45
0.0
  0
LTYPE
  5
71
330
5
100
AcDbSymbolTableRecord
100
AcDbLinetypeTableRecord
  2
DOT
 70
     0
  3
.........................
 72
    65
 73
     2
 40
10.0
 49
0.0
 74
     4
 75
     0
340
0
 46
0.0
 50
0.0
 44
0.0
 45
0.0
 49
-10.0
 74
     4
 75
     0
340
0
 46
0.0
 50
0.0
 44
0.0
 45
0.0
  0
LTYPE
  5
72
330
5
100
AcDbSymbolTableRecord
100
AcDbLinetypeTableRecord
  2
PHANTOM
 70
     0
  3
____ _ _ ____ _ _ _____ _ _ ____
 72
    65
 73
     6
 40
50.5
 49
18.0
 74
     4
 75
     0
340
0
 46
0.0
 50
0.0
 44
0.0
 45
0.0
 49
-6.5
 74
     4
 75
     0
340
0
 46
0.0
 50
0.0
 44
0.0
 45
0.0
 49
6.5
 74
     4
 75
     0
340
0
 46
0.0
 50
0.0
 44
0.0
 45
0.0
 49
-6.5
 74
     4
 75
     0
340
0
 46
0.0
 50
0.0
 44
0.0
 45
0.0
 49
6.5
 74
     4
 75
     0
340
0
 46
0.0
 50
0.0
 44
0.0
 45
0.0
 49
-6.5
 74
     4
 75
     0
340
0
 46
0.0
 50
0.0
 44
0.0
 45
0.0
  0
LTYPE
  5
195
330
5
100
AcDbSymbolTableRecord
100
AcDbLinetypeTableRecord
  2
IMPORT
 70
     0
  3

 72
    65
 73
     0
 40
0.0
  0
ENDTAB
  0
TABLE
  2
LAYER
  5
2
102
{ACAD_XDICTIONARY
360
19B
102
}
330
0
100
AcDbSymbolTable
 70
     4
  0
LAYER
  5
10
102
{ACAD_XDICTIONARY
360
22B
102
}
330
2
100
AcDbSymbolTableRecord
100
AcDbLayerTableRecord
  2
0
 70
     0
 62
     7
  6
Continuous
370
    -3
390
F
347
46
348
0
  0
LAYER
  5
74
102
{ACAD_XDICTIONARY
360
22D
102
}
330
2
100
AcDbSymbolTableRecord
100
AcDbLayerTableRecord
  2
1
 70
     0
 62
     7
420
 16777215
  6
Continuous
370
    -3
390
F
347
46
348
0
  0
LAYER
  5
17B
330
2
100
AcDbSymbolTableRecord
100
AcDbLayerTableRecord
  2
Defpoints
 70
     0
 62
     7
  6
Continuous
290
     0
370
    -3
390
F
347
46
348
0
  0
LAYER
  5
196
102
{ACAD_XDICTIONARY
360
197
102
}
330
2
100
AcDbSymbolTableRecord
100
AcDbLayerTableRecord
  2
Hewi
 70
     0
 62
     7
  6
Continuous
370
     9
390
F
347
46
348
0
  0
ENDTAB
  0
TABLE
  2
STYLE
  5
3
330
0
100
AcDbSymbolTable
 70
     4
  0
STYLE
  5
11
330
3
100
AcDbSymbolTableRecord
100
AcDbTextStyleTableRecord
  2
Standard
 70
     0
 40
0.0
 41
1.0
 50
0.0
 71
     0
 42
0.2
  3
txt
  4

  0
STYLE
  5
11A
330
3
100
AcDbSymbolTableRecord
100
AcDbTextStyleTableRecord
  2
blockfont
 70
     0
 40
0.0
 41
1.0
 50
0.0
 71
     0
 42
0.2
  3
simplex.shx
  4

  0
STYLE
  5
11B
330
3
100
AcDbSymbolTableRecord
100
AcDbTextStyleTableRecord
  2
DWGDirectTextStyle
 70
     0
 40
0.0
 41
1.0
 50
0.0
 71
     0
 42
0.2
  3
simplex
  4

  0
STYLE
  5
198
330
3
100
AcDbSymbolTableRecord
100
AcDbTextStyleTableRecord
  2
ROMANS
 70
     0
 40
0.0
 41
0.8
 50
0.0
 71
     0
 42
7.0
  3
romans.shx
  4

  0
ENDTAB
  0
TABLE
  2
VIEW
  5
6
330
0
100
AcDbSymbolTable
 70
     0
  0
ENDTAB
  0
TABLE
  2
UCS
  5
7
330
0
100
AcDbSymbolTable
 70
     0
  0
ENDTAB
  0
TABLE
  2
APPID
  5
9
330
0
100
AcDbSymbolTable
 70
     4
  0
APPID
  5
12
330
9
100
AcDbSymbolTableRecord
100
AcDbRegAppTableRecord
  2
ACAD
 70
     0
  0
APPID
  5
16A
330
9
100
AcDbSymbolTableRecord
100
AcDbRegAppTableRecord
  2
ACAD_MLEADERVER
 70
     0
  0
APPID
  5
19A
330
9
100
AcDbSymbolTableRecord
100
AcDbRegAppTableRecord
  2
ACAD_NAV_VCDISPLAY
 70
     0
  0
APPID
  5
224
330
9
100
AcDbSymbolTableRecord
100
AcDbRegAppTableRecord
  2
ACAD_EXEMPT_FROM_CAD_STANDARDS
 70
     0
  0
ENDTAB
  0
TABLE
  2
DIMSTYLE
  5
A
330
0
100
AcDbSymbolTable
 70
     3
100
AcDbDimStyleTable
 71
     1
340
27
  0
DIMSTYLE
105
27
330
A
100
AcDbSymbolTableRecord
100
AcDbDimStyleTableRecord
  2
Standard
 70
     0
340
11
  0
DIMSTYLE
105
199
330
A
100
AcDbSymbolTableRecord
100
AcDbDimStyleTableRecord
  2
NEU
 70
     0
 41
35.0
 42
0.625
 43
3.75
 44
10.0
 73
     0
 74
     0
 77
     1
 78
     8
140
35.0
141
2.5
143
0.0394
145
1.0
147
10.0
172
     1
271
     0
340
11
  0
ENDTAB
  0
TABLE
  2
BLOCK_RECORD
  5
1
330
0
100
AcDbSymbolTable
 70
     4
  0
BLOCK_RECORD
  5
1F
330
1
100
AcDbSymbolTableRecord
100
AcDbBlockTableRecord
  2
*Model_Space
340
22
 70
     0
280
     1
281
     0
  0
BLOCK_RECORD
  5
1B
330
1
100
AcDbSymbolTableRecord
100
AcDbBlockTableRecord
  2
*Paper_Space
340
1E
 70
     0
280
     1
281
     0
  0
BLOCK_RECORD
  5
23
330
1
100
AcDbSymbolTableRecord
100
AcDbBlockTableRecord
  2
*Paper_Space0
340
26
 70
     0
280
     1
281
     0
  0
BLOCK_RECORD
  5
17C
330
1
100
AcDbSymbolTableRecord
100
AcDbBlockTableRecord
  2
*D1
340
0
 70
     0
280
     1
281
     0
  0
ENDTAB
  0
ENDSEC
  0
SECTION
  2
BLOCKS
  0
BLOCK
  5
20
330
1F
100
AcDbEntity
  8
0
100
AcDbBlockBegin
  2
*Model_Space
 70
     0
 10
0.0
 20
0.0
 30
0.0
  3
*Model_Space
  1

  0
ENDBLK
  5
21
330
1F
100
AcDbEntity
  8
0
100
AcDbBlockEnd
  0
BLOCK
  5
1C
330
1B
100
AcDbEntity
 67
     1
  8
0
100
AcDbBlockBegin
  2
*Paper_Space
 70
     0
 10
0.0
 20
0.0
 30
0.0
  3
*Paper_Space
  1

  0
ENDBLK
  5
1D
330
1B
100
AcDbEntity
 67
     1
  8
0
100
AcDbBlockEnd
  0
BLOCK
  5
24
330
23
100
AcDbEntity
 67
     1
  8
0
100
AcDbBlockBegin
  2
*Paper_Space0
 70
     0
 10
0.0
 20
0.0
 30
0.0
  3
*Paper_Space0
  1

  0
ENDBLK
  5
25
330
23
100
AcDbEntity
 67
     1
  8
0
100
AcDbBlockEnd
  0
BLOCK
  5
17D
330
17C
100
AcDbEntity
  8
0
370
    18
100
AcDbBlockBegin
  2
*D1
 70
     1
 10
0.0
 20
0.0
 30
0.0
  3
*D1
  1

  0
LINE
  5
18A
330
17C
100
AcDbEntity
  8
0
 62
     0
440
 16777216
370
    -2
100
AcDbLine
 10
125.951683
 20
260.3224130000001
 30
0.0
 11
207.2773012269319
 21
260.3224130000001
 31
0.0
  0
LINE
  5
18B
330
17C
100
AcDbEntity
  8
0
 62
     0
440
 16777216
370
    -2
100
AcDbLine
 10
125.882469
 20
238.5224130000001
 30
0.0
 11
207.2773012269319
 21
238.5224130000001
 31
0.0
  0
LINE
  5
18C
330
17C
100
AcDbEntity
  8
0
 62
     0
440
 16777216
370
    -2
100
AcDbLine
 10
207.0973012269319
 20
260.1424130000002
 30
0.0
 11
207.0973012269319
 21
249.6024130000002
 31
0.0
  0
LINE
  5
18D
330
17C
100
AcDbEntity
  8
0
 62
     0
440
 16777216
370
    -2
100
AcDbLine
 10
207.0973012269319
 20
238.7024130000002
 30
0.0
 11
207.0973012269319
 21
249.2424130000002
 31
0.0
  0
SOLID
  5
18E
330
17C
100
AcDbEntity
  8
0
 62
     0
440
 16777216
370
    18
100
AcDbTrace
 10
207.0673012269319
 20
260.1424130000002
 30
0.0
 11
207.1273012269319
 21
260.1424130000002
 31
0.0
 12
207.0973012269319
 22
260.3224130000001
 32
0.0
 13
207.0973012269319
 23
260.3224130000001
 33
0.0
  0
SOLID
  5
18F
330
17C
100
AcDbEntity
  8
0
 62
     0
440
 16777216
370
    18
100
AcDbTrace
 10
207.0673012269319
 20
238.7024130000002
 30
0.0
 11
207.1273012269319
 21
238.7024130000002
 31
0.0
 12
207.0973012269319
 22
238.5224130000001
 32
0.0
 13
207.0973012269319
 23
238.5224130000001
 33
0.0
  0
MTEXT
  5
190
330
17C
100
AcDbEntity
  8
0
 62
     0
440
 16777216
370
    18
100
AcDbMText
 10
207.0973012269319
 20
249.422413
 30
0.0
 40
0.18
 41
0.0
 46
0.0
 71
     5
 72
     1
  1
\A1;21.8000
 73
     1
 44
1.0
  0
POINT
  5
191
330
17C
100
AcDbEntity
  8
Defpoints
 62
     0
440
 16777216
370
    18
100
AcDbPoint
 10
125.889183
 20
260.3224130000001
 30
0.0
  0
POINT
  5
192
330
17C
100
AcDbEntity
  8
Defpoints
 62
     0
440
 16777216
370
    18
100
AcDbPoint
 10
125.819969
 20
238.5224130000001
 30
0.0
  0
POINT
  5
193
330
17C
100
AcDbEntity
  8
Defpoints
 62
     0
440
 16777216
370
    18
100
AcDbPoint
 10
207.0973012269319
 20
238.5224130000001
 30
0.0
  0
ENDBLK
  5
17E
330
17C
100
AcDbEntity
  8
0
370
    18
100
AcDbBlockEnd
  0
ENDSEC
  0
SECTION
  2
ENTITIES
  0
LINE
  5
73
330
1F
100
AcDbEntity
  8
Hewi
  6
IMPORT
100
AcDbLine
 10
204.210565
 20
168.9224129999999
 30
0.0
 11
204.210565
 21
176.922413
 31
0.0
  0
LINE
  5
75
330
1F
100
AcDbEntity
  8
Hewi
  6
IMPORT
100
AcDbLine
 10
183.210565
 20
176.922413
 30
0.0
 11
183.210565
 21
168.9224129999999
 31
0.0
  0
LINE
  5
76
330
1F
100
AcDbEntity
  8
Hewi
  6
IMPORT
100
AcDbLine
 10
73.210565
 20
139.922413
 30
0.0
 11
175.210565
 21
139.922413
 31
0.0
  0
LINE
  5
77
330
1F
100
AcDbEntity
  8
Hewi
  6
IMPORT
100
AcDbLine
 10
175.210565
 20
160.922413
 30
0.0
 11
73.210565
 21
160.922413
 31
0.0
  0
LINE
  5
78
330
1F
100
AcDbEntity
  8
Hewi
  6
IMPORT
100
AcDbLine
 10
44.210565
 20
230.922413
 30
0.0
 11
44.210565
 21
168.9224129999999
 31
0.0
  0
LINE
  5
79
330
1F
100
AcDbEntity
  8
Hewi
  6
IMPORT
100
AcDbLine
 10
65.210565
 20
168.9224129999999
 30
0.0
 11
65.210565
 21
230.922413
 31
0.0
  0
LINE
  5
7A
330
1F
100
AcDbEntity
  8
Hewi
  6
IMPORT
100
AcDbLine
 10
73.210565
 20
238.922413
 30
0.0
 11
89.210565
 21
238.922413
 31
0.0
  0
LINE
  5
7B
330
1F
100
AcDbEntity
  8
Hewi
  6
IMPORT
100
AcDbLine
 10
89.210565
 20
259.922413
 30
0.0
 11
73.210565
 21
259.922413
 31
0.0
  0
LINE
  5
7C
330
1F
100
AcDbEntity
  8
Hewi
  6
IMPORT
100
AcDbLine
 10
84.210565
 20
243.902413
 30
0.0
 11
80.210565
 21
243.902413
 31
0.0
  0
LINE
  5
7D
330
1F
100
AcDbEntity
  8
Hewi
  6
IMPORT
100
AcDbLine
 10
80.210565
 20
243.902413
 30
0.0
 11
80.210565
 21
243.072413
 31
0.0
  0
LINE
  5
7E
330
1F
100
AcDbEntity
  8
Hewi
  6
IMPORT
100
AcDbLine
 10
84.210565
 20
243.072413
 30
0.0
 11
84.210565
 21
243.902413
 31
0.0
  0
LINE
  5
7F
330
1F
100
AcDbEntity
  8
Hewi
  6
IMPORT
100
AcDbLine
 10
80.210565
 20
243.072413
 30
0.0
 11
84.210565
 21
243.072413
 31
0.0
  0
LINE
  5
80
330
1F
100
AcDbEntity
  8
Hewi
  6
IMPORT
100
AcDbLine
 10
80.210565
 20
252.462413
 30
0.0
 11
84.210565
 21
252.462413
 31
0.0
  0
LINE
  5
81
330
1F
100
AcDbEntity
  8
Hewi
  6
IMPORT
100
AcDbLine
 10
84.210565
 20
252.462413
 30
0.0
 11
84.210565
 21
253.267427
 31
0.0
  0
LINE
  5
82
330
1F
100
AcDbEntity
  8
Hewi
  6
IMPORT
100
AcDbLine
 10
84.210565
 20
253.267427
 30
0.0
 11
82.615578
 21
253.267427
 31
0.0
  0
LINE
  5
83
330
1F
100
AcDbEntity
  8
Hewi
  6
IMPORT
100
AcDbLine
 10
82.615578
 20
253.267427
 30
0.0
 11
82.615578
 21
254.882413
 31
0.0
  0
LINE
  5
84
330
1F
100
AcDbEntity
  8
Hewi
  6
IMPORT
100
AcDbLine
 10
82.615578
 20
254.882413
 30
0.0
 11
84.210565
 21
254.882413
 31
0.0
  0
LINE
  5
85
330
1F
100
AcDbEntity
  8
Hewi
  6
IMPORT
100
AcDbLine
 10
84.210565
 20
254.882413
 30
0.0
 11
84.210565
 21
255.687427
 31
0.0
  0
LINE
  5
86
330
1F
100
AcDbEntity
  8
Hewi
  6
IMPORT
100
AcDbLine
 10
84.210565
 20
255.687427
 30
0.0
 11
80.210565
 21
255.687427
 31
0.0
  0
LINE
  5
87
330
1F
100
AcDbEntity
  8
Hewi
  6
IMPORT
100
AcDbLine
 10
80.210565
 20
255.687427
 30
0.0
 11
80.210565
 21
254.882413
 31
0.0
  0
LINE
  5
88
330
1F
100
AcDbEntity
  8
Hewi
  6
IMPORT
100
AcDbLine
 10
80.210565
 20
254.882413
 30
0.0
 11
81.98056499999999
 21
254.882413
 31
0.0
  0
LINE
  5
89
330
1F
100
AcDbEntity
  8
Hewi
  6
IMPORT
100
AcDbLine
 10
81.98056499999999
 20
254.882413
 30
0.0
 11
81.98056499999999
 21
253.267427
 31
0.0
  0
LINE
  5
8A
330
1F
100
AcDbEntity
  8
Hewi
  6
IMPORT
100
AcDbLine
 10
81.98056499999999
 20
253.267427
 30
0.0
 11
80.210565
 21
253.267427
 31
0.0
  0
LINE
  5
8B
330
1F
100
AcDbEntity
  8
Hewi
  6
IMPORT
100
AcDbLine
 10
80.210565
 20
253.267427
 30
0.0
 11
80.210565
 21
252.462413
 31
0.0
  0
LINE
  5
8C
330
1F
100
AcDbEntity
  8
Hewi
  6
IMPORT
100
AcDbLine
 10
84.210565
 20
249.302413
 30
0.0
 11
80.210565
 21
248.177427
 31
0.0
  0
LINE
  5
8D
330
1F
100
AcDbEntity
  8
Hewi
  6
IMPORT
100
AcDbLine
 10
84.210565
 20
248.452413
 30
0.0
 11
84.210565
 21
249.302413
 31
0.0
  0
LINE
  5
8E
330
1F
100
AcDbEntity
  8
Hewi
  6
IMPORT
100
AcDbLine
 10
84.210565
 20
244.1174
 30
0.0
 11
84.210565
 21
245.002413
 31
0.0
  0
LINE
  5
8F
330
1F
100
AcDbEntity
  8
Hewi
  6
IMPORT
100
AcDbLine
 10
84.210565
 20
245.002413
 30
0.0
 11
81.420565
 21
245.7174
 31
0.0
  0
LINE
  5
90
330
1F
100
AcDbEntity
  8
Hewi
  6
IMPORT
100
AcDbLine
 10
81.420565
 20
245.7174
 30
0.0
 11
84.210565
 21
246.327427
 31
0.0
  0
LINE
  5
91
330
1F
100
AcDbEntity
  8
Hewi
  6
IMPORT
100
AcDbLine
 10
84.210565
 20
246.327427
 30
0.0
 11
84.210565
 21
247.142413
 31
0.0
  0
LINE
  5
92
330
1F
100
AcDbEntity
  8
Hewi
  6
IMPORT
100
AcDbLine
 10
84.210565
 20
247.142413
 30
0.0
 11
81.44056500000001
 21
247.757427
 31
0.0
  0
LINE
  5
93
330
1F
100
AcDbEntity
  8
Hewi
  6
IMPORT
100
AcDbLine
 10
81.44056500000001
 20
247.757427
 30
0.0
 11
84.210565
 21
248.452413
 31
0.0
  0
LINE
  5
94
330
1F
100
AcDbEntity
  8
Hewi
  6
IMPORT
100
AcDbLine
 10
80.210565
 20
248.177427
 30
0.0
 11
80.210565
 21
247.392413
 31
0.0
  0
LINE
  5
95
330
1F
100
AcDbEntity
  8
Hewi
  6
IMPORT
100
AcDbLine
 10
80.210565
 20
247.392413
 30
0.0
 11
82.94056500000001
 21
246.742413
 31
0.0
  0
LINE
  5
96
330
1F
100
AcDbEntity
  8
Hewi
  6
IMPORT
100
AcDbLine
 10
82.94056500000001
 20
246.742413
 30
0.0
 11
80.210565
 21
246.102413
 31
0.0
  0
LINE
  5
97
330
1F
100
AcDbEntity
  8
Hewi
  6
IMPORT
100
AcDbLine
 10
80.210565
 20
246.102413
 30
0.0
 11
80.210565
 21
245.3174
 31
0.0
  0
LINE
  5
98
330
1F
100
AcDbEntity
  8
Hewi
  6
IMPORT
100
AcDbLine
 10
80.210565
 20
245.3174
 30
0.0
 11
84.210565
 21
244.1174
 31
0.0
  0
LINE
  5
99
330
1F
100
AcDbEntity
  8
Hewi
  6
IMPORT
100
AcDbLine
 10
80.210565
 20
251.922413
 30
0.0
 11
80.210565
 21
249.422413
 31
0.0
  0
LINE
  5
9A
330
1F
100
AcDbEntity
  8
Hewi
  6
IMPORT
100
AcDbLine
 10
84.210565
 20
249.422413
 30
0.0
 11
84.210565
 21
251.922413
 31
0.0
  0
LINE
  5
9B
330
1F
100
AcDbEntity
  8
Hewi
  6
IMPORT
100
AcDbLine
 10
84.210565
 20
251.922413
 30
0.0
 11
80.210565
 21
251.922413
 31
0.0
  0
LINE
  5
9C
330
1F
100
AcDbEntity
  8
Hewi
  6
IMPORT
100
AcDbLine
 10
80.210565
 20
249.422413
 30
0.0
 11
80.880565
 21
249.422413
 31
0.0
  0
LINE
  5
9D
330
1F
100
AcDbEntity
  8
Hewi
  6
IMPORT
100
AcDbLine
 10
80.880565
 20
249.422413
 30
0.0
 11
80.880565
 21
251.1174
 31
0.0
  0
LINE
  5
9E
330
1F
100
AcDbEntity
  8
Hewi
  6
IMPORT
100
AcDbLine
 10
80.880565
 20
251.1174
 30
0.0
 11
81.98056499999999
 21
251.1174
 31
0.0
  0
LINE
  5
9F
330
1F
100
AcDbEntity
  8
Hewi
  6
IMPORT
100
AcDbLine
 10
81.98056499999999
 20
251.1174
 30
0.0
 11
81.98056499999999
 21
249.5574
 31
0.0
  0
LINE
  5
A0
330
1F
100
AcDbEntity
  8
Hewi
  6
IMPORT
100
AcDbLine
 10
81.98056499999999
 20
249.5574
 30
0.0
 11
82.615578
 21
249.5574
 31
0.0
  0
LINE
  5
A1
330
1F
100
AcDbEntity
  8
Hewi
  6
IMPORT
100
AcDbLine
 10
82.615578
 20
249.5574
 30
0.0
 11
82.615578
 21
251.1174
 31
0.0
  0
LINE
  5
A2
330
1F
100
AcDbEntity
  8
Hewi
  6
IMPORT
100
AcDbLine
 10
82.615578
 20
251.1174
 30
0.0
 11
83.510565
 21
251.1174
 31
0.0
  0
LINE
  5
A3
330
1F
100
AcDbEntity
  8
Hewi
  6
IMPORT
100
AcDbLine
 10
83.510565
 20
251.1174
 30
0.0
 11
83.510565
 21
249.422413
 31
0.0
  0
LINE
  5
A4
330
1F
100
AcDbEntity
  8
Hewi
  6
IMPORT
100
AcDbLine
 10
83.510565
 20
249.422413
 30
0.0
 11
84.210565
 21
249.422413
 31
0.0
  0
LINE
  5
A5
330
1F
100
AcDbEntity
  8
Hewi
  6
IMPORT
100
AcDbLine
 10
89.210565
 20
238.922413
 30
0.0
 11
89.210565
 21
259.922413
 31
0.0
  0
LINE
  5
A6
330
1F
100
AcDbEntity
  8
Hewi
  6
IMPORT
100
AcDbLine
 10
162.123587
 20
238.522413
 30
0.0
 11
89.516351
 21
238.522413
 31
0.0
  0
LINE
  5
A7
330
1F
100
AcDbEntity
  8
Hewi
  6
IMPORT
100
AcDbLine
 10
162.123587
 20
260.322413
 30
0.0
 11
89.65477900000001
 21
260.322413
 31
0.0
  0
LINE
  5
A8
330
1F
100
AcDbEntity
  8
Hewi
  6
IMPORT
100
AcDbLine
 10
204.210565
 20
176.922413
 30
0.0
 11
183.210565
 21
176.922413
 31
0.0
  0
LINE
  5
A9
330
1F
100
AcDbEntity
  8
Hewi
  6
IMPORT
100
AcDbLine
 10
73.210565
 20
50.716025
 30
0.0
 11
80.210565
 21
50.716025
 31
0.0
  0
LINE
  5
AA
330
1F
100
AcDbEntity
  8
Hewi
  6
IMPORT
100
AcDbLine
 10
80.880565
 20
50.716025
 30
0.0
 11
81.98060400000001
 21
50.716025
 31
0.0
  0
LINE
  5
AB
330
1F
100
AcDbEntity
  8
Hewi
  6
IMPORT
100
AcDbLine
 10
82.615543
 20
50.716025
 30
0.0
 11
83.510565
 21
50.716025
 31
0.0
  0
LINE
  5
AC
330
1F
100
AcDbEntity
  8
Hewi
  6
IMPORT
100
AcDbLine
 10
84.210565
 20
50.716025
 30
0.0
 11
89.210565
 21
50.716025
 31
0.0
  0
LINE
  5
AD
330
1F
100
AcDbEntity
  8
Hewi
  6
IMPORT
100
AcDbLine
 10
163.139503
 20
50.716025
 30
0.0
 11
175.210565
 21
50.716025
 31
0.0
  0
LINE
  5
AE
330
1F
100
AcDbEntity
  8
Hewi
  6
IMPORT
100
AcDbLine
 10
175.210565
 20
71.716025
 30
0.0
 11
165.209784
 21
71.716025
 31
0.0
  0
LINE
  5
AF
330
1F
100
AcDbEntity
  8
Hewi
  6
IMPORT
100
AcDbLine
 10
175.210565
 20
50.716025
 30
0.0
 11
193.710565
 21
50.716025
 31
0.0
  0
LINE
  5
B0
330
1F
100
AcDbEntity
  8
Hewi
  6
IMPORT
100
AcDbLine
 10
193.710565
 20
71.716025
 30
0.0
 11
175.210565
 21
71.716025
 31
0.0
  0
LINE
  5
B1
330
1F
100
AcDbEntity
  8
Hewi
  6
IMPORT
100
AcDbLine
 10
89.210565
 20
71.716025
 30
0.0
 11
73.210565
 21
71.716025
 31
0.0
  0
LINE
  5
B2
330
1F
100
AcDbEntity
  8
Hewi
  6
IMPORT
100
AcDbLine
 10
54.710565
 20
50.716025
 30
0.0
 11
73.210565
 21
50.716025
 31
0.0
  0
LINE
  5
B3
330
1F
100
AcDbEntity
  8
Hewi
  6
IMPORT
100
AcDbLine
 10
73.210565
 20
71.716025
 30
0.0
 11
54.710565
 21
71.716025
 31
0.0
  0
LINE
  5
B4
330
1F
100
AcDbEntity
  8
Hewi
  6
IMPORT
100
AcDbLine
 10
89.585565
 20
50.316025
 30
0.0
 11
161.940096
 21
50.316025
 31
0.0
  0
LINE
  5
B5
330
1F
100
AcDbEntity
  8
Hewi
  6
IMPORT
100
AcDbLine
 10
80.210565
 20
50.666025
 30
0.0
 11
80.210565
 21
50.966513
 31
0.0
  0
LINE
  5
B6
330
1F
100
AcDbEntity
  8
Hewi
  6
IMPORT
100
AcDbLine
 10
84.210565
 20
50.666025
 30
0.0
 11
84.210565
 21
50.966513
 31
0.0
  0
LINE
  5
B7
330
1F
100
AcDbEntity
  8
Hewi
  6
IMPORT
100
AcDbLine
 10
80.210565
 20
50.666025
 30
0.0
 11
80.880565
 21
50.666025
 31
0.0
  0
LINE
  5
B8
330
1F
100
AcDbEntity
  8
Hewi
  6
IMPORT
100
AcDbLine
 10
80.880565
 20
50.666025
 30
0.0
 11
80.880565
 21
50.80307499999999
 31
0.0
  0
LINE
  5
B9
330
1F
100
AcDbEntity
  8
Hewi
  6
IMPORT
100
AcDbLine
 10
80.880565
 20
50.80307499999999
 30
0.0
 11
81.98056499999999
 21
50.80307499999999
 31
0.0
  0
LINE
  5
BA
330
1F
100
AcDbEntity
  8
Hewi
  6
IMPORT
100
AcDbLine
 10
81.98056499999999
 20
50.80307499999999
 30
0.0
 11
81.98056499999999
 21
50.666889
 31
0.0
  0
LINE
  5
BB
330
1F
100
AcDbEntity
  8
Hewi
  6
IMPORT
100
AcDbLine
 10
81.98056499999999
 20
50.666889
 30
0.0
 11
82.615578
 21
50.666889
 31
0.0
  0
LINE
  5
BC
330
1F
100
AcDbEntity
  8
Hewi
  6
IMPORT
100
AcDbLine
 10
82.615578
 20
50.666889
 30
0.0
 11
82.615578
 21
50.80307499999999
 31
0.0
  0
LINE
  5
BD
330
1F
100
AcDbEntity
  8
Hewi
  6
IMPORT
100
AcDbLine
 10
82.615578
 20
50.80307499999999
 30
0.0
 11
83.510565
 21
50.80307499999999
 31
0.0
  0
LINE
  5
BE
330
1F
100
AcDbEntity
  8
Hewi
  6
IMPORT
100
AcDbLine
 10
83.510565
 20
50.666025
 30
0.0
 11
83.510565
 21
50.80307499999999
 31
0.0
  0
LINE
  5
BF
330
1F
100
AcDbEntity
  8
Hewi
  6
IMPORT
100
AcDbLine
 10
83.510565
 20
50.666025
 30
0.0
 11
84.210565
 21
50.666025
 31
0.0
  0
LINE
  5
C0
330
1F
100
AcDbEntity
  8
Hewi
  6
IMPORT
100
AcDbLine
 10
80.210565
 20
51.017986
 30
0.0
 11
80.210565
 21
50.966513
 31
0.0
  0
LINE
  5
C1
330
1F
100
AcDbEntity
  8
Hewi
  6
IMPORT
100
AcDbLine
 10
84.210565
 20
50.966513
 30
0.0
 11
80.210565
 21
50.966513
 31
0.0
  0
LINE
  5
C2
330
1F
100
AcDbEntity
  8
Hewi
  6
IMPORT
100
AcDbLine
 10
84.210565
 20
51.017986
 30
0.0
 11
84.210565
 21
50.966513
 31
0.0
  0
LINE
  5
C3
330
1F
100
AcDbEntity
  8
Hewi
  6
IMPORT
100
AcDbLine
 10
80.210565
 20
51.44536099999999
 30
0.0
 11
80.210565
 21
51.39164799999999
 31
0.0
  0
LINE
  5
C4
330
1F
100
AcDbEntity
  8
Hewi
  6
IMPORT
100
AcDbLine
 10
84.210565
 20
51.44536099999999
 30
0.0
 11
84.210565
 21
51.39164799999999
 31
0.0
  0
LINE
  5
C5
330
1F
100
AcDbEntity
  8
Hewi
  6
IMPORT
100
AcDbLine
 10
84.210565
 20
52.789898
 30
0.0
 11
84.210565
 21
52.727674
 31
0.0
  0
LINE
  5
C6
330
1F
100
AcDbEntity
  8
Hewi
  6
IMPORT
100
AcDbLine
 10
80.210565
 20
52.789898
 30
0.0
 11
80.210565
 21
52.727674
 31
0.0
  0
LINE
  5
C7
330
1F
100
AcDbEntity
  8
Hewi
  6
IMPORT
100
AcDbLine
 10
80.210565
 20
51.113505
 30
0.0
 11
84.210565
 21
51.113505
 31
0.0
  0
LINE
  5
C8
330
1F
100
AcDbEntity
  8
Hewi
  6
IMPORT
100
AcDbLine
 10
84.210565
 20
51.113505
 30
0.0
 11
84.210565
 21
51.39164799999999
 31
0.0
  0
LINE
  5
C9
330
1F
100
AcDbEntity
  8
Hewi
  6
IMPORT
100
AcDbLine
 10
84.210565
 20
51.39164799999999
 30
0.0
 11
82.615578
 21
51.39164799999999
 31
0.0
  0
LINE
  5
CA
330
1F
100
AcDbEntity
  8
Hewi
  6
IMPORT
100
AcDbLine
 10
82.615578
 20
51.39164799999999
 30
0.0
 11
82.615578
 21
52.188794
 31
0.0
  0
LINE
  5
CB
330
1F
100
AcDbEntity
  8
Hewi
  6
IMPORT
100
AcDbLine
 10
82.615578
 20
52.188794
 30
0.0
 11
84.210565
 21
52.188794
 31
0.0
  0
LINE
  5
CC
330
1F
100
AcDbEntity
  8
Hewi
  6
IMPORT
100
AcDbLine
 10
84.210565
 20
52.188794
 30
0.0
 11
84.210565
 21
52.727674
 31
0.0
  0
LINE
  5
CD
330
1F
100
AcDbEntity
  8
Hewi
  6
IMPORT
100
AcDbLine
 10
84.210565
 20
52.727674
 30
0.0
 11
80.210565
 21
52.727674
 31
0.0
  0
LINE
  5
CE
330
1F
100
AcDbEntity
  8
Hewi
  6
IMPORT
100
AcDbLine
 10
80.210565
 20
52.727674
 30
0.0
 11
80.210565
 21
52.188794
 31
0.0
  0
LINE
  5
CF
330
1F
100
AcDbEntity
  8
Hewi
  6
IMPORT
100
AcDbLine
 10
80.210565
 20
52.188794
 30
0.0
 11
81.98056499999999
 21
52.188794
 31
0.0
  0
LINE
  5
D0
330
1F
100
AcDbEntity
  8
Hewi
  6
IMPORT
100
AcDbLine
 10
81.98056499999999
 20
52.188794
 30
0.0
 11
81.98056499999999
 21
51.39164799999999
 31
0.0
  0
LINE
  5
D1
330
1F
100
AcDbEntity
  8
Hewi
  6
IMPORT
100
AcDbLine
 10
81.98056499999999
 20
51.39164799999999
 30
0.0
 11
80.210565
 21
51.39164799999999
 31
0.0
  0
LINE
  5
D2
330
1F
100
AcDbEntity
  8
Hewi
  6
IMPORT
100
AcDbLine
 10
80.210565
 20
51.39164799999999
 30
0.0
 11
80.210565
 21
51.113505
 31
0.0
  0
LINE
  5
D3
330
1F
100
AcDbEntity
  8
Hewi
  6
IMPORT
100
AcDbLine
 10
81.98056499999999
 20
51.44536099999999
 30
0.0
 11
80.210565
 21
51.44536099999999
 31
0.0
  0
LINE
  5
D4
330
1F
100
AcDbEntity
  8
Hewi
  6
IMPORT
100
AcDbLine
 10
84.210565
 20
52.789898
 30
0.0
 11
80.210565
 21
52.789898
 31
0.0
  0
LINE
  5
D5
330
1F
100
AcDbEntity
  8
Hewi
  6
IMPORT
100
AcDbLine
 10
84.210565
 20
51.44536099999999
 30
0.0
 11
82.615578
 21
51.44536099999999
 31
0.0
  0
LINE
  5
D6
330
1F
100
AcDbEntity
  8
Hewi
  6
IMPORT
100
AcDbLine
 10
84.210565
 20
51.017986
 30
0.0
 11
80.210565
 21
51.017986
 31
0.0
  0
LINE
  5
D7
330
1F
100
AcDbEntity
  8
Hewi
  6
IMPORT
100
AcDbLine
 10
89.210565
 20
71.716025
 30
0.0
 11
89.210565
 21
50.716025
 31
0.0
  0
LINE
  5
D8
330
1F
100
AcDbEntity
  8
Hewi
  6
IMPORT
100
AcDbLine
 10
165.210565
 20
75.016025
 30
0.0
 11
164.098001
 21
75.016025
 31
0.0
  0
LINE
  5
D9
330
1F
100
AcDbEntity
  8
Hewi
  6
IMPORT
100
AcDbLine
 10
165.210565
 20
75.016025
 30
0.0
 11
165.210565
 21
61.216025
 31
0.0
  0
LINE
  5
DA
330
1F
100
AcDbEntity
  8
Hewi
  6
IMPORT
100
AcDbLine
 10
165.210565
 20
61.216025
 30
0.0
 11
163.920633
 21
52.03767899999999
 31
0.0
  0
LINE
  5
DB
330
1F
100
AcDbEntity
  8
Hewi
  6
IMPORT
100
AcDbLine
 10
162.153629
 20
75.016025
 30
0.0
 11
89.71056500000001
 21
75.016025
 31
0.0
  0
LINE
  5
DC
330
1F
100
AcDbEntity
  8
Hewi
  6
IMPORT
100
AcDbLine
 10
162.153629
 20
75.016025
 30
0.0
 11
164.098001
 21
75.016025
 31
0.0
  0
LINE
  5
DD
330
1F
100
AcDbEntity
  8
Hewi
  6
IMPORT
100
AcDbLine
 10
267.496169
 20
230.922413
 30
0.0
 11
267.496169
 21
168.9224129999999
 31
0.0
  0
LINE
  5
DE
330
1F
100
AcDbEntity
  8
Hewi
  6
IMPORT
100
AcDbLine
 10
288.496169
 20
168.9224129999999
 30
0.0
 11
288.496169
 21
230.922413
 31
0.0
  0
LINE
  5
DF
330
1F
100
AcDbEntity
  8
Hewi
  6
IMPORT
100
AcDbLine
 10
288.496169
 20
249.422413
 30
0.0
 11
288.496169
 21
230.922413
 31
0.0
  0
LINE
  5
E0
330
1F
100
AcDbEntity
  8
Hewi
  6
IMPORT
100
AcDbLine
 10
267.496169
 20
249.422413
 30
0.0
 11
267.496169
 21
230.922413
 31
0.0
  0
LINE
  5
E1
330
1F
100
AcDbEntity
  8
Hewi
  6
IMPORT
100
AcDbLine
 10
288.496169
 20
150.422413
 30
0.0
 11
288.496169
 21
168.9224129999999
 31
0.0
  0
LINE
  5
E2
330
1F
100
AcDbEntity
  8
Hewi
  6
IMPORT
100
AcDbLine
 10
267.496169
 20
150.422413
 30
0.0
 11
267.496169
 21
168.9224129999999
 31
0.0
  0
LINE
  5
E3
330
1F
100
AcDbEntity
  8
Hewi
  6
IMPORT
100
AcDbLine
 10
288.496169
 20
249.422413
 30
0.0
 11
288.546169
 21
249.422413
 31
0.0
  0
LINE
  5
E4
330
1F
100
AcDbEntity
  8
Hewi
  6
IMPORT
100
AcDbLine
 10
288.194208
 20
251.922413
 30
0.0
 11
288.245681
 21
251.922413
 31
0.0
  0
LINE
  5
E5
330
1F
100
AcDbEntity
  8
Hewi
  6
IMPORT
100
AcDbLine
 10
286.422295
 20
255.687427
 30
0.0
 11
286.48452
 21
255.687427
 31
0.0
  0
LINE
  5
E6
330
1F
100
AcDbEntity
  8
Hewi
  6
IMPORT
100
AcDbLine
 10
286.964914
 20
254.882413
 30
0.0
 11
287.0234
 21
254.882413
 31
0.0
  0
LINE
  5
E7
330
1F
100
AcDbEntity
  8
Hewi
  6
IMPORT
100
AcDbLine
 10
288.046462
 20
252.462413
 30
0.0
 11
288.098688
 21
252.462413
 31
0.0
  0
LINE
  5
E8
330
1F
100
AcDbEntity
  8
Hewi
  6
IMPORT
100
AcDbLine
 10
287.766833
 20
253.267427
 30
0.0
 11
287.820545
 21
253.267427
 31
0.0
  0
LINE
  5
E9
330
1F
100
AcDbEntity
  8
Hewi
  6
IMPORT
100
AcDbLine
 10
288.496169
 20
249.302413
 30
0.0
 11
288.545486
 21
249.302413
 31
0.0
  0
LINE
  5
EA
330
1F
100
AcDbEntity
  8
Hewi
  6
IMPORT
100
AcDbLine
 10
264.196169
 20
238.772413
 30
0.0
 11
264.196169
 21
259.822413
 31
0.0
  0
ARC
  5
EB
330
1F
100
AcDbEntity
  8
Hewi
  6
IMPORT
100
AcDbCircle
 10
73.210565
 20
168.9224129999999
 30
0.0
 40
29.0
100
AcDbArc
 50
180.0
 51
270.0
  0
ARC
  5
EC
330
1F
100
AcDbEntity
  8
Hewi
  6
IMPORT
100
AcDbCircle
 10
73.210565
 20
168.9224129999999
 30
0.0
 40
7.999999999999997
100
AcDbArc
 50
180.0
 51
270.0
  0
ARC
  5
ED
330
1F
100
AcDbEntity
  8
Hewi
  6
IMPORT
100
AcDbCircle
 10
175.210565
 20
168.9224129999999
 30
0.0
 40
29.0
100
AcDbArc
 50
270.0
 51
0.0
  0
ARC
  5
EE
330
1F
100
AcDbEntity
  8
Hewi
  6
IMPORT
100
AcDbCircle
 10
175.210565
 20
168.9224129999999
 30
0.0
 40
7.999999999999997
100
AcDbArc
 50
270.0
 51
0.0
  0
ARC
  5
EF
330
1F
100
AcDbEntity
  8
Hewi
  6
IMPORT
100
AcDbCircle
 10
73.210565
 20
230.922413
 30
0.0
 40
28.99999999999999
100
AcDbArc
 50
90.0
 51
180.0
  0
ARC
  5
F0
330
1F
100
AcDbEntity
  8
Hewi
  6
IMPORT
100
AcDbCircle
 10
73.210565
 20
230.922413
 30
0.0
 40
7.999999999999986
100
AcDbArc
 50
90.0
 51
180.0
  0
ARC
  5
F1
330
1F
100
AcDbEntity
  8
Hewi
  6
IMPORT
100
AcDbCircle
 10
193.710565
 20
139.422413
 30
0.0
 40
40.0
100
AcDbArc
 50
90.0
 51
103.014475
  0
ARC
  5
F2
330
1F
100
AcDbEntity
  8
Hewi
  6
IMPORT
100
AcDbCircle
 10
193.710565
 20
139.422413
 30
0.0
 40
40.0
100
AcDbArc
 50
76.98552499999999
 51
90.0
  0
ARC
  5
F3
330
1F
100
AcDbEntity
  8
Hewi
  6
IMPORT
100
AcDbCircle
 10
185.153071
 20
176.446315
 30
0.0
 40
2.0
100
AcDbArc
 50
103.014475
 51
166.228573
  0
ARC
  5
F4
330
1F
100
AcDbEntity
  8
Hewi
  6
IMPORT
100
AcDbCircle
 10
202.268059
 20
176.446315
 30
0.0
 40
2.0
100
AcDbArc
 50
13.771427
 51
76.98552499999999
  0
ARC
  5
F5
330
1F
100
AcDbEntity
  8
Hewi
  6
IMPORT
100
AcDbCircle
 10
125.210565
 20
249.422413
 30
0.0
 40
40.0
100
AcDbArc
 50
346.454909
 51
0.0
  0
ARC
  5
F6
330
1F
100
AcDbEntity
  8
Hewi
  6
IMPORT
100
AcDbCircle
 10
162.153629
 20
240.522413
 30
0.0
 40
2.0
100
AcDbArc
 50
270.0
 51
346.454909
  0
ARC
  5
F7
330
1F
100
AcDbEntity
  8
Hewi
  6
IMPORT
100
AcDbCircle
 10
54.710565
 20
61.216025
 30
0.0
 40
10.5
100
AcDbArc
 50
90.0
 51
270.000001
  0
ARC
  5
F8
330
1F
100
AcDbEntity
  8
Hewi
  6
IMPORT
100
AcDbCircle
 10
161.940096
 20
52.31602500000001
 30
0.0
 40
2.0
100
AcDbArc
 50
270.0
 51
352.0
  0
CIRCLE
  5
F9
330
1F
100
AcDbEntity
  8
Hewi
  6
IMPORT
100
AcDbCircle
 10
193.710565
 20
61.216025
 30
0.0
 40
10.5
  0
ARC
  5
FA
330
1F
100
AcDbEntity
  8
Hewi
  6
IMPORT
100
AcDbCircle
 10
277.996169
 20
249.422413
 30
0.0
 40
10.55
100
AcDbArc
 50
21.374123
 51
31.167085
  0
ARC
  5
FB
330
1F
100
AcDbEntity
  8
Hewi
  6
IMPORT
100
AcDbCircle
 10
277.996169
 20
249.422413
 30
0.0
 40
10.55
100
AcDbArc
 50
0.0
 51
13.707589
  0
ARC
  5
FC
330
1F
100
AcDbEntity
  8
Hewi
  6
IMPORT
100
AcDbCircle
 10
277.996169
 20
249.422413
 30
0.0
 40
10.55
100
AcDbArc
 50
31.167085
 51
36.42999099999999
  0
ARC
  5
FD
330
1F
100
AcDbEntity
  8
Hewi
  6
IMPORT
100
AcDbCircle
 10
277.996169
 20
249.422413
 30
0.0
 40
10.55
100
AcDbArc
 50
16.747331
 51
21.374123
  0
ARC
  5
FE
330
1F
100
AcDbEntity
  8
Hewi
  6
IMPORT
100
AcDbCircle
 10
277.996169
 20
249.422413
 30
0.0
 40
10.5
100
AcDbArc
 50
359.999999
 51
180.0
  0
ARC
  5
FF
330
1F
100
AcDbEntity
  8
Hewi
  6
IMPORT
100
AcDbCircle
 10
277.996169
 20
150.422413
 30
0.0
 40
10.5
100
AcDbArc
 50
180.0
 51
0.000001
  0
ELLIPSE
  5
100
330
1F
100
AcDbEntity
  8
Hewi
  6
IMPORT
100
AcDbEllipse
 10
84.637237
 20
61.216025
 30
0.0
 11
37.51155566924415
 21
-0.0000000000000439
 31
0.0
210
0.0
220
0.0
230
1.0
 40
0.281247
 41
4.658467812051795
 42
4.682348650142197
  0
ELLIPSE
  5
101
330
1F
100
AcDbEntity
  8
Hewi
  6
IMPORT
100
AcDbEllipse
 10
84.637237
 20
61.216025
 30
0.0
 11
37.51155566924415
 21
-0.0000000000000439
 31
0.0
210
0.0
220
0.0
230
1.0
 40
0.281247
 41
4.614992522637563
 42
4.641507672307671
  0
ELLIPSE
  5
102
330
1F
100
AcDbEntity
  8
Hewi
  6
IMPORT
100
AcDbEllipse
 10
277.996169
 20
249.422413
 30
0.0
 11
0.0000000000000124
 21
10.54999999346084
 31
0.0
210
0.0
220
0.0
230
1.0
 40
1.0
 41
4.61499252651358
 42
4.701014327514954
  0
SPLINE
  5
103
330
1F
100
AcDbEntity
  8
Hewi
  6
IMPORT
100
AcDbSpline
210
0.0
220
0.0
230
1.0
 70
    24
 71
     3
 72
     8
 73
     4
 74
     0
 42
0.000000001
 43
0.0000000001
 40
0.0
 40
0.0
 40
0.0
 40
0.0
 40
1.0
 40
1.0
 40
1.0
 40
1.0
 10
89.51635615166777
 20
238.5224132383517
 30
0.0
 10
89.5163461506678
 20
238.5224132383517
 30
0.0
 10
89.48845810004447
 20
238.5224132383517
 30
0.0
 10
89.46056504892117
 20
238.5224132383517
 30
0.0
  0
SPLINE
  5
104
330
1F
100
AcDbEntity
  8
Hewi
  6
IMPORT
100
AcDbSpline
210
0.0
220
0.0
230
1.0
 70
    12
 71
     2
 72
     6
 73
     3
 74
     0
 42
0.000000001
 43
0.0000000001
 40
0.0
 40
0.0
 40
0.0
 40
1.0
 40
1.0
 40
1.0
 10
89.46056504892117
 20
238.5224132383517
 30
0.0
 41
1.0
 10
89.21056504892119
 20
238.5224132383517
 30
0.0
 41
0.7071067811865475
 10
89.21056504892119
 20
238.7724132383517
 30
0.0
 41
1.0
  0
SPLINE
  5
105
330
1F
100
AcDbEntity
  8
Hewi
  6
IMPORT
100
AcDbSpline
210
0.0
220
0.0
230
1.0
 70
    24
 71
     3
 72
     8
 73
     4
 74
     0
 42
0.000000001
 43
0.0000000001
 40
0.0
 40
0.0
 40
0.0
 40
0.0
 40
1.0
 40
1.0
 40
1.0
 40
1.0
 10
162.1536293506274
 20
238.5224132383517
 30
0.0
 10
162.1436152648741
 20
238.5224132383517
 30
0.0
 10
162.1336011791209
 20
238.5224132383517
 30
0.0
 10
162.1235870933677
 20
238.5224132383517
 30
0.0
  0
SPLINE
  5
106
330
1F
100
AcDbEntity
  8
Hewi
  6
IMPORT
100
AcDbSpline
210
0.0
220
0.0
230
1.0
 70
     8
 71
     3
 72
    36
 73
    32
 74
     0
 42
0.000000001
 43
0.0000000001
 40
0.0
 40
0.0
 40
0.0
 40
0.0
 40
0.1250000000000061
 40
0.2500000000000122
 40
0.2500000000000122
 40
0.3125000000000153
 40
0.3125000000000153
 40
0.3750000000000184
 40
0.3750000000000184
 40
0.5000000000000337
 40
0.5000000000000337
 40
0.5312500000000279
 40
0.5312500000000279
 40
0.5625000000000221
 40
0.6250000000000116
 40
0.6250000000000116
 40
0.7499999999999769
 40
0.7499999999999769
 40
0.7812499999999756
 40
0.7812499999999756
 40
0.8124999999999742
 40
0.8749999999999721
 40
0.9374999999999699
 40
0.9374999999999699
 40
0.9687499999999687
 40
0.972656249999965
 40
0.972656249999965
 40
0.9765624999999612
 40
0.9765624999999612
 40
0.9843749999999687
 40
1.0
 40
1.0
 40
1.0
 40
1.0
 10
164.0980011559804
 20
240.0539921857202
 30
0.0
 10
164.0716837989947
 20
239.944751308038
 30
0.0
 10
164.0015269497818
 20
239.7338161187379
 30
0.0
 10
163.8978219512842
 20
239.5373297007468
 30
0.0
 10
163.8069455689414
 20
239.3956058753471
 30
0.0
 10
163.7748240192641
 20
239.3498883554369
 30
0.0
 10
163.7072302600264
 20
239.2616948046857
 30
0.0
 10
163.6717263856575
 20
239.2191698940699
 30
0.0
 10
163.5601556987205
 20
239.0962537378577
 30
0.0
 10
163.4790662161492
 20
239.0204875550964
 30
0.0
 10
163.3689910237531
 20
238.9338033960198
 30
0.0
 10
163.3466083264589
 20
238.9169290494887
 30
0.0
 10
163.3013625258124
 20
238.8842780558821
 30
0.0
 10
163.2326615948095
 20
238.8368613975101
 30
0.0
 10
163.1615044353592
 20
238.7940483987892
 30
0.0
 10
163.015957598126
 20
238.7144810455408
 30
0.0
 10
162.9146394682116
 20
238.6694710034971
 30
0.0
 10
162.7824330947153
 20
238.6236270315293
 30
0.0
 10
162.7557477708336
 20
238.6149980643441
 30
0.0
 10
162.7022784114537
 20
238.5989363224412
 30
0.0
 10
162.6217639177109
 20
238.5765818477228
 30
0.0
 10
162.4860421363639
 20
238.547895744989
 30
0.0
 10
162.3758448199974
 20
238.5340161249877
 30
0.0
 10
162.2925814730531
 20
238.5270516153649
 30
0.0
 10
162.2612421888289
 20
238.5250867354882
 30
0.0
 10
162.2297710465581
 20
238.5238600873708
 30
0.0
 10
162.2227741937036
 20
238.5236057824343
 30
0.0
 10
162.2192380772218
 20
238.5234866702054
 30
0.0
 10
162.2088811994779
 20
238.5231646413571
 30
0.0
 10
162.1881657582627
 20
238.5226279546331
 30
0.0
 10
162.1674452621023
 20
238.5224132383517
 30
0.0
 10
162.1536293506274
 20
238.5224132383517
 30
0.0
  0
SPLINE
  5
107
330
1F
100
AcDbEntity
  8
Hewi
  6
IMPORT
100
AcDbSpline
210
0.0
220
0.0
230
1.0
 70
     8
 71
     3
 72
    36
 73
    32
 74
     0
 42
0.000000001
 43
0.0000000001
 40
0.0
 40
0.0
 40
0.0
 40
0.0
 40
0.1249999999999992
 40
0.2499999999999984
 40
0.2499999999999984
 40
0.3124999999999981
 40
0.3124999999999981
 40
0.3749999999999977
 40
0.3749999999999977
 40
0.4999999999999878
 40
0.4999999999999878
 40
0.5312499999999924
 40
0.5312499999999924
 40
0.5624999999999969
 40
0.6250000000000073
 40
0.6250000000000073
 40
0.7500000000000289
 40
0.7500000000000289
 40
0.7812500000000309
 40
0.7812500000000309
 40
0.812500000000033
 40
0.8750000000000373
 40
0.9375000000000413
 40
0.9375000000000413
 40
0.9687500000000511
 40
0.9726562500000429
 40
0.9726562500000429
 40
0.9765625000000344
 40
0.9765625000000344
 40
0.9843750000000179
 40
1.0
 40
1.0
 40
1.0
 40
1.0
 10
164.0980011559804
 20
258.7908342909833
 30
0.0
 10
164.0716837989947
 20
258.9000751686655
 30
0.0
 10
164.0015269497818
 20
259.1110103579655
 30
0.0
 10
163.8978219512842
 20
259.3074967759567
 30
0.0
 10
163.8069455689414
 20
259.4492206013563
 30
0.0
 10
163.7748240192641
 20
259.4949381212666
 30
0.0
 10
163.7072302600264
 20
259.5831316720177
 30
0.0
 10
163.6717263856576
 20
259.6256565826336
 30
0.0
 10
163.5601556987206
 20
259.7485727388457
 30
0.0
 10
163.4790662161492
 20
259.824338921607
 30
0.0
 10
163.3689910237531
 20
259.9110230806837
 30
0.0
 10
163.3466083264589
 20
259.9278974272147
 30
0.0
 10
163.3013625258124
 20
259.9605484208213
 30
0.0
 10
163.2326615948095
 20
260.0079650791934
 30
0.0
 10
163.1615044353592
 20
260.0507780779142
 30
0.0
 10
163.015957598126
 20
260.1303454311627
 30
0.0
 10
162.9146394682116
 20
260.1753554732064
 30
0.0
 10
162.7824330947153
 20
260.2211994451742
 30
0.0
 10
162.7557477708336
 20
260.2298284123594
 30
0.0
 10
162.7022784114537
 20
260.2458901542623
 30
0.0
 10
162.621763917711
 20
260.2682446289807
 30
0.0
 10
162.4860421363639
 20
260.2969307317144
 30
0.0
 10
162.3758448199974
 20
260.3108103517158
 30
0.0
 10
162.2925814730531
 20
260.3177748613386
 30
0.0
 10
162.2612421888288
 20
260.3197397412152
 30
0.0
 10
162.2297710465581
 20
260.3209663893327
 30
0.0
 10
162.2227741937036
 20
260.3212206942692
 30
0.0
 10
162.2192380772217
 20
260.3213398064981
 30
0.0
 10
162.2088811994778
 20
260.3216618353463
 30
0.0
 10
162.1881657582628
 20
260.3221985220704
 30
0.0
 10
162.1674452621023
 20
260.3224132383517
 30
0.0
 10
162.1536293506274
 20
260.3224132383517
 30
0.0
  0
SPLINE
  5
108
330
1F
100
AcDbEntity
  8
Hewi
  6
IMPORT
100
AcDbSpline
210
0.0
220
0.0
230
1.0
 70
    24
 71
     3
 72
     8
 73
     4
 74
     0
 42
0.000000001
 43
0.0000000001
 40
0.0
 40
0.0
 40
0.0
 40
0.0
 40
1.0
 40
1.0
 40
1.0
 40
1.0
 10
162.1235870933676
 20
260.3224132383517
 30
0.0
 10
162.1336011791209
 20
260.3224132383517
 30
0.0
 10
162.1436152648741
 20
260.3224132383517
 30
0.0
 10
162.1536293506274
 20
260.3224132383517
 30
0.0
  0
SPLINE
  5
109
330
1F
100
AcDbEntity
  8
Hewi
  6
IMPORT
100
AcDbSpline
210
0.0
220
0.0
230
1.0
 70
    12
 71
     2
 72
     6
 73
     3
 74
     0
 42
0.000000001
 43
0.0000000001
 40
0.0
 40
0.0
 40
0.0
 40
1.0
 40
1.0
 40
1.0
 10
164.0980011559801
 20
258.7908342909845
 30
0.0
 41
0.9645052685510917
 10
165.2105650489211
 20
254.1726860396727
 30
0.0
 41
0.975239379253537
 10
165.2105650489211
 20
249.4224132383517
 30
0.0
 41
1.0
  0
SPLINE
  5
10A
330
1F
100
AcDbEntity
  8
Hewi
  6
IMPORT
100
AcDbSpline
210
0.0
220
0.0
230
1.0
 70
    12
 71
     2
 72
     6
 73
     3
 74
     0
 42
0.000000001
 43
0.0000000001
 40
0.0
 40
0.0
 40
0.0
 40
1.0
 40
1.0
 40
1.0
 10
165.2105650489211
 20
249.4224132383517
 30
0.0
 41
1.0
 10
165.2105650489211
 20
244.6721404370307
 30
0.0
 41
0.9752393792535368
 10
164.0980011559801
 20
240.053992185719
 30
0.0
 41
0.9645052685510917
  0
SPLINE
  5
10B
330
1F
100
AcDbEntity
  8
Hewi
  6
IMPORT
100
AcDbSpline
210
0.0
220
0.0
230
1.0
 70
    12
 71
     2
 72
     6
 73
     3
 74
     0
 42
0.000000001
 43
0.0000000001
 40
0.0
 40
0.0
 40
0.0
 40
1.0
 40
1.0
 40
1.0
 10
89.65477894667461
 20
260.3224132383517
 30
0.0
 41
1.0
 10
89.21056504892119
 20
260.3224132383517
 30
0.0
 41
0.7071067811865488
 10
89.21056504892119
 20
259.8781993405983
 30
0.0
 41
1.0
  0
SPLINE
  5
10C
330
1F
100
AcDbEntity
  8
Hewi
  6
IMPORT
100
AcDbSpline
210
0.0
220
0.0
230
1.0
 70
    24
 71
     3
 72
    22
 73
    18
 74
     0
 42
0.000000001
 43
0.0000000001
 40
0.0
 40
0.0
 40
0.0
 40
0.0
 40
0.1250090077540666
 40
0.1250090077540666
 40
0.2500180155081332
 40
0.2500180155081332
 40
0.3750270232621998
 40
0.3750270232621998
 40
0.5000360310162665
 40
0.5000360310162665
 40
0.6250450387703329
 40
0.6250450387703329
 40
0.7500540465243996
 40
0.7500540465243996
 40
0.875063054278466
 40
0.875063054278466
 40
1.0
 40
1.0
 40
1.0
 40
1.0
 10
89.21056504892119
 20
259.8782043411082
 30
0.0
 10
89.21056504892119
 20
259.8781943401082
 30
0.0
 10
89.21056504892119
 20
259.6083594625595
 30
0.0
 10
89.21056504892119
 20
258.5672311655462
 30
0.0
 10
89.21056504892119
 20
257.7962666861239
 30
0.0
 10
89.21056504892119
 20
255.8658628119324
 30
0.0
 10
89.21056504892119
 20
254.7070998447491
 30
0.0
 10
89.21056504892119
 20
252.1737614838316
 30
0.0
 10
89.21056504892119
 20
250.8001325147121
 30
0.0
 10
89.21056504892119
 20
248.0446939619914
 30
0.0
 10
89.21056504892119
 20
246.663968514498
 30
0.0
 10
89.21056504892119
 20
244.1059203115124
 30
0.0
 10
89.21056504892119
 20
242.9296543537287
 30
0.0
 10
89.21056504892119
 20
240.963279656374
 30
0.0
 10
89.21056504892119
 20
240.1740276892106
 30
0.0
 10
89.21056504892119
 20
239.1065423873471
 30
0.0
 10
89.21056504892119
 20
238.8285089867175
 30
0.0
 10
89.21056504892119
 20
238.8282043410383
 30
0.0
  0
SPLINE
  5
10D
330
1F
100
AcDbEntity
  8
Hewi
  6
IMPORT
100
AcDbSpline
210
0.0
220
0.0
230
1.0
 70
    12
 71
     2
 72
     6
 73
     3
 74
     0
 42
0.000000001
 43
0.0000000001
 40
0.0
 40
0.0
 40
0.0
 40
1.0
 40
1.0
 40
1.0
 10
89.51635115116777
 20
238.5224132383517
 30
0.0
 41
1.0
 10
89.21056504892119
 20
238.5224132383517
 30
0.0
 41
0.7071067811865475
 10
89.21056504892119
 20
238.8281993405983
 30
0.0
 41
1.0
  0
SPLINE
  5
10E
330
1F
100
AcDbEntity
  8
Hewi
  6
IMPORT
100
AcDbSpline
210
0.0
220
0.0
230
1.0
 70
     8
 71
     3
 72
    13
 73
     9
 74
     0
 42
0.000000001
 43
0.0000000001
 40
0.0
 40
0.0
 40
0.0
 40
0.0
 40
0.239456844394596
 40
0.368360660238187
 40
0.4999999999999923
 40
0.6316393397618412
 40
0.7605431556054159
 40
1.0
 40
1.0
 40
1.0
 40
1.0
 10
89.21056504892113
 20
50.6910249002346
 30
0.0
 10
89.21103991972186
 20
50.64213950856232
 30
0.0
 10
89.22438610306206
 20
50.57170808777712
 30
0.0
 10
89.26981374620911
 20
50.48387792647397
 30
0.0
 10
89.31852254640016
 20
50.42398239771362
 30
0.0
 10
89.37841807516052
 20
50.37527359752257
 30
0.0
 10
89.46624823646368
 20
50.32984595437554
 30
0.0
 10
89.53667965724889
 20
50.3164997710353
 30
0.0
 10
89.58556504892117
 20
50.3160249002346
 30
0.0
  0
SPLINE
  5
10F
330
1F
100
AcDbEntity
  8
Hewi
  6
IMPORT
100
AcDbSpline
210
0.0
220
0.0
230
1.0
 70
    28
 71
     2
 72
     6
 73
     3
 74
     0
 42
0.000000001
 43
0.0000000001
 40
0.0
 40
0.0
 40
0.0
 40
1.0
 40
1.0
 40
1.0
 10
164.0980011559801
 20
61.29382294635117
 30
0.0
 41
0.9645052685510917
 10
165.2105760232231
 20
61.21602413283638
 30
0.0
 41
0.975239379253537
 10
165.2105603100181
 20
61.21602523161071
 30
0.0
 41
1.0
  0
SPLINE
  5
110
330
1F
100
AcDbEntity
  8
Hewi
  6
IMPORT
100
AcDbSpline
210
0.0
220
0.0
230
1.0
 70
    24
 71
     3
 72
    14
 73
    10
 74
     0
 42
0.000000001
 43
0.0000000001
 40
0.0
 40
0.0
 40
0.0
 40
0.0
 40
0.25
 40
0.25
 40
0.5
 40
0.5
 40
0.75
 40
0.75
 40
1.0
 40
1.0
 40
1.0
 40
1.0
 10
89.21056504892119
 20
61.2160249002346
 30
0.0
 10
89.21056504892119
 20
59.84716241598778
 30
0.0
 10
89.21056504892119
 20
58.47913662080855
 30
0.0
 10
89.21056504892117
 20
55.94584849711423
 30
0.0
 10
89.21056504892117
 20
54.78175187968878
 30
0.0
 10
89.21056504892117
 20
52.83299489942755
 30
0.0
 10
89.21056504892117
 20
52.04912357729988
 30
0.0
 10
89.21056504892117
 20
50.98222189606431
 30
0.0
 10
89.21056504892117
 20
50.69967663740667
 30
0.0
 10
89.21056504892117
 20
50.6910249002346
 30
0.0
  0
SPLINE
  5
111
330
1F
100
AcDbEntity
  8
Hewi
  6
IMPORT
100
AcDbSpline
210
0.0
220
0.0
230
1.0
 70
    24
 71
     1
 72
     4
 73
     2
 74
     0
 42
0.000000001
 43
0.0000000001
 40
0.0
 40
0.0
 40
1.0
 40
1.0
 10
89.21056504892124
 20
75.01602490023461
 30
0.0
 10
89.71056504892123
 20
75.01602490023461
 30
0.0
  0
SPLINE
  5
112
330
1F
100
AcDbEntity
  8
Hewi
  6
IMPORT
100
AcDbSpline
210
0.0
220
0.0
230
1.0
 70
    24
 71
     3
 72
     8
 73
     4
 74
     0
 42
0.000000001
 43
0.0000000001
 40
0.0
 40
0.0
 40
0.0
 40
0.0
 40
1.0
 40
1.0
 40
1.0
 40
1.0
 10
89.21056504892119
 20
61.2160249002346
 30
0.0
 10
89.21056504892119
 20
65.81602490023461
 30
0.0
 10
89.21056504892119
 20
70.41602490023459
 30
0.0
 10
89.21056504892124
 20
75.0160249002346
 30
0.0
  0
SPLINE
  5
113
330
1F
100
AcDbEntity
  8
Hewi
  6
IMPORT
100
AcDbSpline
210
0.0
220
0.0
230
1.0
 70
    24
 71
     3
 72
    36
 73
    32
 74
     0
 42
0.000000001
 43
0.0000000001
 40
0.0
 40
0.0
 40
0.0
 40
0.0
 40
0.1249999999999992
 40
0.2499999999999984
 40
0.2499999999999984
 40
0.3124999999999981
 40
0.3124999999999981
 40
0.3749999999999977
 40
0.3749999999999977
 40
0.4999999999999878
 40
0.4999999999999878
 40
0.5312499999999924
 40
0.5312499999999924
 40
0.5624999999999969
 40
0.6250000000000073
 40
0.6250000000000073
 40
0.7500000000000289
 40
0.7500000000000289
 40
0.7812500000000309
 40
0.7812500000000309
 40
0.812500000000033
 40
0.8750000000000373
 40
0.9375000000000413
 40
0.9375000000000413
 40
0.9687500000000511
 40
0.9726562500000429
 40
0.9726562500000429
 40
0.9765625000000344
 40
0.9765625000000344
 40
0.9843750000000179
 40
1.0
 40
1.0
 40
1.0
 40
1.0
 10
164.0980011559803
 20
61.29382294635114
 30
0.0
 10
164.0716837989947
 20
61.29566323522393
 30
0.0
 10
164.0015269497818
 20
61.30056908002565
 30
0.0
 10
163.8978219512841
 20
61.30782083995296
 30
0.0
 10
163.8069455689414
 20
61.31417553565112
 30
0.0
 10
163.7748240192641
 20
61.31642169321469
 30
0.0
 10
163.7072302600264
 20
61.32114830930546
 30
0.0
 10
163.6717263856576
 20
61.32363098205178
 30
0.0
 10
163.5601556987206
 20
61.33143276449565
 30
0.0
 10
163.4790662161492
 20
61.33710309349409
 30
0.0
 10
163.368991023753
 20
61.34480030077241
 30
0.0
 10
163.3466083264589
 20
61.34636545143671
 30
0.0
 10
163.3013625258124
 20
61.34952934602974
 30
0.0
 10
163.2326615948095
 20
61.35433338311233
 30
0.0
 10
163.1615044353592
 20
61.35930917641979
 30
0.0
 10
163.015957598126
 20
61.36948680273593
 30
0.0
 10
162.9146394682116
 20
61.37657165655281
 30
0.0
 10
162.7824330947153
 20
61.38581642676999
 30
0.0
 10
162.7557477708336
 20
61.387682446395
 30
0.0
 10
162.7022784114537
 20
61.39142138823312
 30
0.0
 10
162.621763917711
 20
61.39705151009556
 30
0.0
 10
162.4860421363639
 20
61.40654210157675
 30
0.0
 10
162.3758448199974
 20
61.41424784859454
 30
0.0
 10
162.2925814730531
 20
61.42007018899787
 30
0.0
 10
162.2612421888288
 20
61.42226164523134
 30
0.0
 10
162.2297710465581
 20
61.42446232187986
 30
0.0
 10
162.2227741937036
 20
61.42495158949365
 30
0.0
 10
162.2192380772217
 20
61.42519885884411
 30
0.0
 10
162.2088811994778
 20
61.42592308228672
 30
0.0
 10
162.1881657582628
 20
61.4273716470495
 30
0.0
 10
162.1674452621023
 20
61.4288205652885
 30
0.0
 10
162.1536293506274
 20
61.42978666793244
 30
0.0
  0
SPLINE
  5
114
330
1F
100
AcDbEntity
  8
Hewi
  6
IMPORT
100
AcDbSpline
210
0.0
220
0.0
230
1.0
 70
    24
 71
     1
 72
     4
 73
     2
 74
     0
 42
0.000000001
 43
0.0000000001
 40
0.0
 40
0.0
 40
1.0
 40
1.0
 10
264.1961686630347
 20
238.5224132383518
 30
0.0
 10
264.1961686630347
 20
238.7724132383518
 30
0.0
  0
SPLINE
  5
115
330
1F
100
AcDbEntity
  8
Hewi
  6
IMPORT
100
AcDbSpline
210
0.0
220
0.0
230
1.0
 70
    24
 71
     3
 72
     8
 73
     4
 74
     0
 42
0.000000001
 43
0.0000000001
 40
0.0
 40
0.0
 40
0.0
 40
0.0
 40
1.0
 40
1.0
 40
1.0
 40
1.0
 10
267.4963096630347
 20
238.5224132383518
 30
0.0
 10
266.3962626630347
 20
238.5224132383518
 30
0.0
 10
265.2962156630347
 20
238.5224132383518
 30
0.0
 10
264.1961686630347
 20
238.5224132383518
 30
0.0
  0
SPLINE
  5
116
330
1F
100
AcDbEntity
  8
Hewi
  6
IMPORT
100
AcDbSpline
210
0.0
220
0.0
230
1.0
 70
    28
 71
     2
 72
     6
 73
     3
 74
     0
 42
0.000000001
 43
0.0000000001
 40
0.0
 40
0.0
 40
0.0
 40
1.0
 40
1.0
 40
1.0
 10
264.1961686630347
 20
259.8224132383518
 30
0.0
 41
1.0
 10
264.1961686630347
 20
260.3219089748865
 30
0.0
 41
0.707320270498998
 10
264.1961686630347
 20
260.3224082383517
 30
0.0
 41
0.9995733325990102
  0
SPLINE
  5
117
330
1F
100
AcDbEntity
  8
Hewi
  6
IMPORT
100
AcDbSpline
210
0.0
220
0.0
230
1.0
 70
    24
 71
     3
 72
     8
 73
     4
 74
     0
 42
0.000000001
 43
0.0000000001
 40
0.0
 40
0.0
 40
0.0
 40
0.0
 40
1.0
 40
1.0
 40
1.0
 40
1.0
 10
264.1961686630347
 20
260.3224132383518
 30
0.0
 10
268.7961686630347
 20
260.3224132383518
 30
0.0
 10
273.3961686630347
 20
260.3224132383518
 30
0.0
 10
277.9961686630347
 20
260.3224132383518
 30
0.0
  0
SPLINE
  5
118
330
1F
100
AcDbEntity
  8
Hewi
  6
IMPORT
100
AcDbSpline
210
0.0
220
0.0
230
1.0
 70
     8
 71
     3
 72
    16
 73
    12
 74
     0
 42
0.000000001
 43
0.0000000001
 40
0.0
 40
0.0
 40
0.0
 40
0.0
 40
0.1458010690704012
 40
0.1458010690704012
 40
0.3593508018028009
 40
0.3593508018028009
 40
0.5729005345352007
 40
0.5729005345352007
 40
0.7864502672676003
 40
0.7864502672676003
 40
1.0
 40
1.0
 40
1.0
 40
1.0
 10
288.5062381398491
 20
246.5349506375453
 30
0.0
 10
288.7639236332555
 20
247.4743705750716
 30
0.0
 10
288.8961686630347
 20
248.4482610633888
 30
0.0
 10
288.8961686630347
 20
250.8492198998556
 30
0.0
 10
288.6124708379527
 20
252.2754651797188
 30
0.0
 10
287.5204402968627
 20
254.9118601225437
 30
0.0
 10
286.7125372437595
 20
256.1209724874938
 30
0.0
 10
284.6947279121767
 20
258.1387818190765
 30
0.0
 10
283.4856155472301
 20
258.9466848721784
 30
0.0
 10
280.8492206043982
 20
260.0387154132712
 30
0.0
 10
279.4232325745089
 20
260.3224132383518
 30
0.0
 10
277.9961686630347
 20
260.3224132383518
 30
0.0
  0
MTEXT
  5
119
330
1F
100
AcDbEntity
  8
1
  6
Continuous
 62
     2
370
    18
100
AcDbMText
 10
358.848649
 20
23.9625
 30
0.0
 40
5.0
 41
0.0
 46
0.0
 71
     7
 72
     5
  1
\W0.7960;Materialnummer:\P477.21.100\P477.21B100\P477.21D100\PF60060.0001\P 
  7
blockfont
 73
     1
 44
0.9036139999999999
  0
ENDSEC
  0
SECTION
  2
OBJECTS
  0
DICTIONARY
  5
C
330
0
100
AcDbDictionary
281
     1
  3
ACAD_CIP_PREVIOUS_PRODUCT_INFO
350
179
  3
ACAD_COLOR
350
174
  3
ACAD_DETAILVIEWSTYLE
350
170
  3
ACAD_GROUP
350
D
  3
ACAD_LAYOUT
350
1A
  3
ACAD_MATERIAL
350
43
  3
ACAD_MLEADERSTYLE
350
6B
  3
ACAD_MLINESTYLE
350
17
  3
ACAD_PLOTSETTINGS
350
19
  3
ACAD_PLOTSTYLENAME
350
E
  3
ACAD_SCALELIST
350
47
  3
ACAD_SECTIONVIEWSTYLE
350
171
  3
ACAD_TABLESTYLE
350
69
  3
ACAD_VISUALSTYLE
350
2A
  3
ACDB_RECOMPOSE_DATA
350
236
  3
AcDbVariableDictionary
350
12D
  0
DICTIONARY
  5
19B
330
2
100
AcDbDictionary
280
     1
281
     1
  3
ACAD_LAYERSTATES
360
19C
  0
DICTIONARY
  5
22B
330
10
100
AcDbDictionary
280
     1
281
     1
  3
ADSK_XREC_LAYER_RECONCILED
360
22C
  0
DICTIONARY
  5
22D
330
74
100
AcDbDictionary
280
     1
281
     1
  3
ADSK_XREC_LAYER_RECONCILED
360
22E
  0
DICTIONARY
  5
197
330
196
100
AcDbDictionary
280
     1
281
     1
  3
ADSK_XREC_LAYER_RECONCILED
360
22F
  0
XRECORD
  5
179
102
{ACAD_REACTORS
330
C
102
}
330
C
100
AcDbXrecord
280
     1
300
ACDLT
300
2021
300
ACDLT_F_S
  0
DICTIONARY
  5
174
102
{ACAD_REACTORS
330
C
102
}
330
C
100
AcDbDictionary
281
     1
  0
DICTIONARY
  5
170
102
{ACAD_REACTORS
330
C
102
}
330
C
100
AcDbDictionary
281
     1
  3
Imperial24
350
19E
  3
Metric50
350
176
  0
DICTIONARY
  5
D
102
{ACAD_REACTORS
330
C
102
}
330
C
100
AcDbDictionary
281
     1
  0
DICTIONARY
  5
1A
102
{ACAD_REACTORS
330
C
102
}
330
C
100
AcDbDictionary
281
     1
  3
Layout1
350
1E
  3
Layout2
350
26
  3
Model
350
22
  0
DICTIONARY
  5
43
102
{ACAD_REACTORS
330
C
102
}
330
C
100
AcDbDictionary
281
     1
  3
ByBlock
350
45
  3
ByLayer
350
44
  3
Global
350
46
  0
DICTIONARY
  5
6B
102
{ACAD_REACTORS
330
C
102
}
330
C
100
AcDbDictionary
281
     1
  3
Standard
350
6C
  0
DICTIONARY
  5
17
102
{ACAD_REACTORS
330
C
102
}
330
C
100
AcDbDictionary
281
     1
  3
Standard
350
18
  0
DICTIONARY
  5
19
102
{ACAD_REACTORS
330
C
102
}
330
C
100
AcDbDictionary
281
     1
  0
ACDBDICTIONARYWDFLT
  5
E
102
{ACAD_REACTORS
330
C
102
}
330
C
100
AcDbDictionary
281
     1
  3
Normal
350
F
100
AcDbDictionaryWithDefault
340
F
  0
DICTIONARY
  5
47
102
{ACAD_REACTORS
330
C
102
}
330
C
100
AcDbDictionary
281
     1
  3
A0
350
48
  3
A1
350
49
  3
A2
350
4A
  3
A3
350
4B
  3
A4
350
4C
  3
A5
350
4D
  3
A6
350
4E
  3
A7
350
4F
  3
A8
350
50
  3
A9
350
51
  3
B0
350
52
  3
B1
350
53
  3
B2
350
54
  3
B3
350
55
  3
B4
350
56
  3
B5
350
57
  3
B6
350
58
  3
B7
350
59
  3
B8
350
5A
  3
B9
350
5B
  3
C0
350
5C
  3
C1
350
5D
  3
C2
350
5E
  3
C3
350
5F
  3
C4
350
60
  3
C5
350
61
  3
C6
350
62
  3
C7
350
63
  3
C8
350
64
  3
C9
350
65
  3
D0
350
66
  3
D1
350
67
  3
D2
350
68
  0
DICTIONARY
  5
171
102
{ACAD_REACTORS
330
C
102
}
330
C
100
AcDbDictionary
281
     1
  3
Imperial24
350
19D
  3
Metric50
350
175
  0
DICTIONARY
  5
69
102
{ACAD_REACTORS
330
C
102
}
330
C
100
AcDbDictionary
281
     1
  3
Standard
350
6A
  0
DICTIONARY
  5
2A
102
{ACAD_REACTORS
330
C
102
}
330
C
100
AcDbDictionary
281
     1
  3
2dWireframe
350
2F
  3
Basic
350
32
  3
Brighten
350
36
  3
ColorChange
350
3A
  3
Conceptual
350
34
  3
Dim
350
35
  3
EdgeColorOff
350
3D
  3
Facepattern
350
39
  3
Flat
350
2B
  3
FlatWithEdges
350
2C
  3
Gouraud
350
2D
  3
GouraudWithEdges
350
2E
  3
Hidden
350
31
  3
JitterOff
350
3B
  3
Linepattern
350
38
  3
OverhangOff
350
3C
  3
Realistic
350
33
  3
Shaded
350
42
  3
Shaded with edges
350
41
  3
Shades of Gray
350
3E
  3
Sketchy
350
3F
  3
Thicken
350
37
  3
Wireframe
350
30
  3
X-Ray
350
40
  0
XRECORD
  5
236
102
{ACAD_REACTORS
330
C
102
}
330
C
100
AcDbXrecord
280
     1
 90
        1
330
6A
  0
DICTIONARY
  5
12D
102
{ACAD_REACTORS
330
C
102
}
330
C
100
AcDbDictionary
281
     1
  3
CANNOSCALE
350
12E
  3
CMLEADERSTYLE
350
16F
  3
CTABLESTYLE
350
16E
  3
CVIEWDETAILSTYLE
350
230
  3
CVIEWSECTIONSTYLE
350
231
  3
LAYEREVAL
350
233
  3
LAYERNOTIFY
350
234
  3
LIGHTINGUNITS
350
232
  3
MSLTSCALE
350
12F
  0
DICTIONARY
  5
19C
102
{ACAD_REACTORS
330
19B
102
}
330
19B
100
AcDbDictionary
281
     1
  0
XRECORD
  5
22C
102
{ACAD_REACTORS
330
22B
102
}
330
22B
100
AcDbXrecord
280
     1
290
     1
  0
XRECORD
  5
22E
102
{ACAD_REACTORS
330
22D
102
}
330
22D
100
AcDbXrecord
280
     1
290
     1
  0
XRECORD
  5
22F
102
{ACAD_REACTORS
330
197
102
}
330
197
100
AcDbXrecord
280
     1
290
     1
  0
ACDBDETAILVIEWSTYLE
  5
19E
102
{ACAD_XDICTIONARY
360
23D
102
}
102
{ACAD_REACTORS
330
170
102
}
330
170
100
AcDbModelDocViewStyle
 70
     0
  3
Imperial24
290
     0
100
AcDbDetailViewStyle
 70
     0
 71
     0
 90
        3
 71
     1
340
11
 62
   256
 40
0.24
340
0
 62
   256
 40
0.24
300

 40
0.36
280
     3
 71
     2
340
16
 90
       25
 62
   256
 71
     3
340
11
 62
   256
 40
0.24
 90
        1
 40
0.75
 90
        1
300
%<\AcVar ViewType \f "%tc1">% %<\AcVar ViewDetailId>%\PVARIA %<\AcVar ViewScale \f "%sn">%
 71
     4
340
16
 90
       25
 62
   256
340
16
 90
       25
 62
   256
280
     0
  0
ACDBDETAILVIEWSTYLE
  5
176
102
{ACAD_XDICTIONARY
360
239
102
}
102
{ACAD_REACTORS
330
170
102
}
330
170
100
AcDbModelDocViewStyle
 70
     0
  3
Metric50
290
     0
100
AcDbDetailViewStyle
 70
     0
 71
     0
 90
        3
 71
     1
340
11
 62
   256
 40
5.0
340
0
 62
   256
 40
5.0
300

 40
0.0
280
     1
 71
     2
340
16
 90
       25
 62
   256
 71
     3
340
11
 62
   256
 40
5.0
 90
        0
 40
15.0
 90
        1
300
%<\AcVar ViewDetailId>% (%<\AcVar ViewScale \f "%sn">%)
 71
     4
340
16
 90
       25
 62
   256
340
16
 90
       25
 62
   256
280
     0
  0
LAYOUT
  5
1E
102
{ACAD_REACTORS
330
1A
102
}
330
1A
100
AcDbPlotSettings
  1

  2
none_device
  4

  6

 40
0.0
 41
0.0
 42
0.0
 43
0.0
 44
0.0
 45
0.0
 46
0.0
 47
0.0
 48
0.0
 49
0.0
140
0.0
141
0.0
142
1.0
143
1.0
 70
   688
 72
     0
 73
     0
 74
     5
  7

 75
    16
147
1.0
 76
     0
 77
     2
 78
   300
148
0.0
149
0.0
100
AcDbLayout
  1
Layout1
 70
     1
 71
     1
 10
-0.5
 20
-0.5
 11
5.0
 21
5.0
 12
0.0
 22
0.0
 32
0.0
 14
-0.5
 24
-0.5
 34
-0.5
 15
5.0
 25
5.0
 35
5.0
146
0.0
 13
0.0
 23
0.0
 33
0.0
 16
1.0
 26
0.0
 36
0.0
 17
0.0
 27
1.0
 37
0.0
 76
     0
330
1B
  0
LAYOUT
  5
26
102
{ACAD_REACTORS
330
1A
102
}
330
1A
100
AcDbPlotSettings
  1

  2
none_device
  4

  6

 40
0.0
 41
0.0
 42
0.0
 43
0.0
 44
0.0
 45
0.0
 46
0.0
 47
0.0
 48
0.0
 49
0.0
140
0.0
141
0.0
142
1.0
143
1.0
 70
   688
 72
     0
 73
     0
 74
     5
  7

 75
    16
147
1.0
 76
     0
 77
     2
 78
   300
148
0.0
149
0.0
100
AcDbLayout
  1
Layout2
 70
     1
 71
     2
 10
0.0
 20
0.0
 11
0.0
 21
0.0
 12
0.0
 22
0.0
 32
0.0
 14
0.0
 24
0.0
 34
0.0
 15
0.0
 25
0.0
 35
0.0
146
0.0
 13
0.0
 23
0.0
 33
0.0
 16
1.0
 26
0.0
 36
0.0
 17
0.0
 27
1.0
 37
0.0
 76
     0
330
23
  0
LAYOUT
  5
22
102
{ACAD_REACTORS
330
1A
102
}
330
1A
100
AcDbPlotSettings
  1

  2
none_device
  4
Letter_(8.50_x_11.00_Inches)
  6

 40
6.349999999999999
 41
6.349999999999999
 42
6.350005
 43
6.350005
 44
215.9
 45
279.4
 46
0.0
 47
0.0
 48
0.0
 49
0.0
140
0.0
141
0.0
142
1.0
143
1.0
 70
  1712
 72
     0
 73
     0
 74
     0
  7

 75
     0
147
1.0
 76
     0
 77
     2
 78
   300
148
0.0
149
0.0
100
AcDbLayout
  1
Model
 70
     1
 71
     0
 10
-0.5
 20
-0.5
 11
5.0
 21
5.0
 12
0.0
 22
0.0
 32
0.0
 14
-0.5
 24
-0.5
 34
-0.5
 15
5.0
 25
5.0
 35
5.0
146
0.0
 13
0.0
 23
0.0
 33
0.0
 16
1.0
 26
0.0
 36
0.0
 17
0.0
 27
1.0
 37
0.0
 76
     0
330
1F
331
29
  0
MATERIAL
  5
45
102
{ACAD_XDICTIONARY
360
163
102
}
102
{ACAD_REACTORS
330
43
102
}
330
43
100
AcDbMaterial
  1
ByBlock
  0
MATERIAL
  5
44
102
{ACAD_XDICTIONARY
360
161
102
}
102
{ACAD_REACTORS
330
43
102
}
330
43
100
AcDbMaterial
  1
ByLayer
  0
MATERIAL
  5
46
102
{ACAD_XDICTIONARY
360
165
102
}
102
{ACAD_REACTORS
330
43
102
}
330
43
100
AcDbMaterial
  1
Global
  0
MLEADERSTYLE
  5
6C
102
{ACAD_REACTORS
330
6B
102
}
330
6B
100
AcDbMLeaderStyle
179
     2
170
     2
171
     1
172
     0
 90
        2
 40
0.0
 41
0.0
173
     1
 91
-1056964608
340
14
 92
       -2
290
     1
 42
0.09
291
     1
 43
0.36
  3
Standard
 44
0.18
300

342
11
174
     1
178
     6
175
     1
176
     0
 93
-1056964608
 45
0.18
292
     0
297
     0
 46
0.18
 94
-1056964608
 47
1.0
 49
1.0
140
1.0
293
     1
141
0.0
294
     1
177
     0
142
1.0
295
     0
296
     0
143
0.125
271
     0
272
     9
273
     9
298
     0
1001
ACAD_MLEADERVER
1070
     2
  0
MLINESTYLE
  5
18
102
{ACAD_REACTORS
330
17
102
}
330
17
100
AcDbMlineStyle
  2
STANDARD
 70
     0
  3

 62
   256
 51
90.0
 52
90.0
 71
     2
 49
0.5
 62
   256
  6
BYLAYER
 49
-0.5
 62
   256
  6
BYLAYER
  0
ACDBPLACEHOLDER
  5
F
102
{ACAD_REACTORS
330
E
102
}
330
E
  0
SCALE
  5
48
102
{ACAD_REACTORS
330
47
102
}
330
47
100
AcDbScale
 70
     0
300
1:1
140
1.0
141
1.0
290
     1
  0
SCALE
  5
49
102
{ACAD_REACTORS
330
47
102
}
330
47
100
AcDbScale
 70
     0
300
1:2
140
1.0
141
2.0
290
     0
  0
SCALE
  5
4A
102
{ACAD_REACTORS
330
47
102
}
330
47
100
AcDbScale
 70
     0
300
1:4
140
1.0
141
4.0
290
     0
  0
SCALE
  5
4B
102
{ACAD_REACTORS
330
47
102
}
330
47
100
AcDbScale
 70
     0
300
1:5
140
1.0
141
5.0
290
     0
  0
SCALE
  5
4C
102
{ACAD_REACTORS
330
47
102
}
330
47
100
AcDbScale
 70
     0
300
1:8
140
1.0
141
8.0
290
     0
  0
SCALE
  5
4D
102
{ACAD_REACTORS
330
47
102
}
330
47
100
AcDbScale
 70
     0
300
1:10
140
1.0
141
10.0
290
     0
  0
SCALE
  5
4E
102
{ACAD_REACTORS
330
47
102
}
330
47
100
AcDbScale
 70
     0
300
1:16
140
1.0
141
16.0
290
     0
  0
SCALE
  5
4F
102
{ACAD_REACTORS
330
47
102
}
330
47
100
AcDbScale
 70
     0
300
1:20
140
1.0
141
20.0
290
     0
  0
SCALE
  5
50
102
{ACAD_REACTORS
330
47
102
}
330
47
100
AcDbScale
 70
     0
300
1:30
140
1.0
141
30.0
290
     0
  0
SCALE
  5
51
102
{ACAD_REACTORS
330
47
102
}
330
47
100
AcDbScale
 70
     0
300
1:40
140
1.0
141
40.0
290
     0
  0
SCALE
  5
52
102
{ACAD_REACTORS
330
47
102
}
330
47
100
AcDbScale
 70
     0
300
1:50
140
1.0
141
50.0
290
     0
  0
SCALE
  5
53
102
{ACAD_REACTORS
330
47
102
}
330
47
100
AcDbScale
 70
     0
300
1:100
140
1.0
141
100.0
290
     0
  0
SCALE
  5
54
102
{ACAD_REACTORS
330
47
102
}
330
47
100
AcDbScale
 70
     0
300
2:1
140
2.0
141
1.0
290
     0
  0
SCALE
  5
55
102
{ACAD_REACTORS
330
47
102
}
330
47
100
AcDbScale
 70
     0
300
4:1
140
4.0
141
1.0
290
     0
  0
SCALE
  5
56
102
{ACAD_REACTORS
330
47
102
}
330
47
100
AcDbScale
 70
     0
300
8:1
140
8.0
141
1.0
290
     0
  0
SCALE
  5
57
102
{ACAD_REACTORS
330
47
102
}
330
47
100
AcDbScale
 70
     0
300
10:1
140
10.0
141
1.0
290
     0
  0
SCALE
  5
58
102
{ACAD_REACTORS
330
47
102
}
330
47
100
AcDbScale
 70
     0
300
100:1
140
100.0
141
1.0
290
     0
  0
SCALE
  5
59
102
{ACAD_REACTORS
330
47
102
}
330
47
100
AcDbScale
 70
     0
300
1/128" = 1'-0"
140
0.007812
141
12.0
290
     0
  0
SCALE
  5
5A
102
{ACAD_REACTORS
330
47
102
}
330
47
100
AcDbScale
 70
     0
300
1/64" = 1'-0"
140
0.015625
141
12.0
290
     0
  0
SCALE
  5
5B
102
{ACAD_REACTORS
330
47
102
}
330
47
100
AcDbScale
 70
     0
300
1/32" = 1'-0"
140
0.03125
141
12.0
290
     0
  0
SCALE
  5
5C
102
{ACAD_REACTORS
330
47
102
}
330
47
100
AcDbScale
 70
     0
300
1/16" = 1'-0"
140
0.0625
141
12.0
290
     0
  0
SCALE
  5
5D
102
{ACAD_REACTORS
330
47
102
}
330
47
100
AcDbScale
 70
     0
300
3/32" = 1'-0"
140
0.09375
141
12.0
290
     0
  0
SCALE
  5
5E
102
{ACAD_REACTORS
330
47
102
}
330
47
100
AcDbScale
 70
     0
300
1/8" = 1'-0"
140
0.125
141
12.0
290
     0
  0
SCALE
  5
5F
102
{ACAD_REACTORS
330
47
102
}
330
47
100
AcDbScale
 70
     0
300
3/16" = 1'-0"
140
0.1875
141
12.0
290
     0
  0
SCALE
  5
60
102
{ACAD_REACTORS
330
47
102
}
330
47
100
AcDbScale
 70
     0
300
1/4" = 1'-0"
140
0.25
141
12.0
290
     0
  0
SCALE
  5
61
102
{ACAD_REACTORS
330
47
102
}
330
47
100
AcDbScale
 70
     0
300
3/8" = 1'-0"
140
0.375
141
12.0
290
     0
  0
SCALE
  5
62
102
{ACAD_REACTORS
330
47
102
}
330
47
100
AcDbScale
 70
     0
300
1/2" = 1'-0"
140
0.5
141
12.0
290
     0
  0
SCALE
  5
63
102
{ACAD_REACTORS
330
47
102
}
330
47
100
AcDbScale
 70
     0
300
3/4" = 1'-0"
140
0.75
141
12.0
290
     0
  0
SCALE
  5
64
102
{ACAD_REACTORS
330
47
102
}
330
47
100
AcDbScale
 70
     0
300
1" = 1'-0"
140
1.0
141
12.0
290
     0
  0
SCALE
  5
65
102
{ACAD_REACTORS
330
47
102
}
330
47
100
AcDbScale
 70
     0
300
1-1/2" = 1'-0"
140
1.5
141
12.0
290
     0
  0
SCALE
  5
66
102
{ACAD_REACTORS
330
47
102
}
330
47
100
AcDbScale
 70
     0
300
3" = 1'-0"
140
3.0
141
12.0
290
     0
  0
SCALE
  5
67
102
{ACAD_REACTORS
330
47
102
}
330
47
100
AcDbScale
 70
     0
300
6" = 1'-0"
140
6.0
141
12.0
290
     0
  0
SCALE
  5
68
102
{ACAD_REACTORS
330
47
102
}
330
47
100
AcDbScale
 70
     0
300
1'-0" = 1'-0"
140
12.0
141
12.0
290
     0
  0
ACDBSECTIONVIEWSTYLE
  5
19D
102
{ACAD_XDICTIONARY
360
23B
102
}
102
{ACAD_REACTORS
330
171
102
}
330
171
100
AcDbModelDocViewStyle
 70
     0
  3
Imperial24
290
     0
100
AcDbSectionViewStyle
 70
     0
 71
     0
 90
       78
 71
     1
340
11
 62
   256
 40
0.24
340
0
340
0
 62
   256
 40
0.24
300
I, O, Q, S, X, Z
 40
0.48
 90
        3
 40
0.18
 90
        1
 71
     2
340
16
 90
       25
 62
   256
340
16
 90
       50
 62
   256
 40
0.24
 40
0.0
 40
0.24
 71
     3
340
11
 62
   256
 40
0.24
 90
        1
 40
0.75
 90
        1
300
%<\AcVar ViewType \f "%tc1">% %<\AcVar ViewSectionStartId>%-%<\AcVar ViewSectionEndId>%\PVARIA %<\AcVar ViewScale \f "%sn">%
 71
     4
 62
   256
 62
   257
300
ANSI31
 40
1.0
 90
        0
290
     0
290
     0
 90
        6
 40
0.0
 40
1.570796326794896
 40
0.2617993877991494
 40
1.308996938995747
 40
-0.2617993877991494
 40
1.832595714594046
  0
ACDBSECTIONVIEWSTYLE
  5
175
102
{ACAD_XDICTIONARY
360
237
102
}
102
{ACAD_REACTORS
330
171
102
}
330
171
100
AcDbModelDocViewStyle
 70
     0
  3
Metric50
290
     0
100
AcDbSectionViewStyle
 70
     0
 71
     0
 90
      102
 71
     1
340
11
 62
   256
 40
5.0
340
0
340
0
 62
   256
 40
5.0
300
I, O, Q, S, X, Z
 40
10.0
 90
        0
 40
2.5
 90
        0
 71
     2
340
16
 90
       25
 62
   256
340
16
 90
       50
 62
   256
 40
5.0
 40
2.5
 40
5.0
 71
     3
340
11
 62
   256
 40
5.0
 90
        0
 40
15.0
 90
        1
300
%<\AcVar ViewSectionStartId>%-%<\AcVar ViewSectionEndId>% (%<\AcVar ViewScale \f "%sn">%)
 71
     4
 62
   256
 62
   257
300
ANSI31
 40
1.0
 90
        0
290
     0
290
     0
 90
        6
 40
0.0
 40
1.570796326794896
 40
0.2617993877991494
 40
1.308996938995747
 40
-0.2617993877991494
 40
1.832595714594046
  0
TABLESTYLE
  5
6A
102
{ACAD_XDICTIONARY
360
167
102
}
102
{ACAD_REACTORS
330
69
102
}
330
69
100
AcDbTableStyle
280
     0
  3
Standard
 70
     0
 71
     0
 40
0.06
 41
0.06
280
     0
281
     0
  7
Standard
140
0.18
170
     2
 62
     0
 63
     7
283
     0
 90
        4
 91
        0
  1

274
    -2
284
     1
 64
     0
275
    -2
285
     1
 65
     0
276
    -2
286
     1
 66
     0
277
    -2
287
     1
 67
     0
278
    -2
288
     1
 68
     0
279
    -2
289
     1
 69
     0
  7
Standard
140
0.25
170
     5
 62
     0
 63
     7
283
     0
 90
        4
 91
        0
  1

274
    -2
284
     1
 64
     0
275
    -2
285
     1
 65
     0
276
    -2
286
     1
 66
     0
277
    -2
287
     1
 67
     0
278
    -2
288
     1
 68
     0
279
    -2
289
     1
 69
     0
  7
Standard
140
0.18
170
     5
 62
     0
 63
     7
283
     0
 90
        4
 91
        0
  1

274
    -2
284
     1
 64
     0
275
    -2
285
     1
 65
     0
276
    -2
286
     1
 66
     0
277
    -2
287
     1
 67
     0
278
    -2
288
     1
 68
     0
279
    -2
289
     1
 69
     0
  0
VISUALSTYLE
  5
2F
102
{ACAD_REACTORS
330
2A
102
}
330
2A
100
AcDbVisualStyle
  2

 70
     4
177
     3
291
     0
 70
    58
 90
        0
176
     1
 90
        2
176
     1
 90
        0
176
     1
 90
        0
176
     1
 40
0.6
176
     1
 40
30.0
176
     1
 62
     7
420
 16777215
176
     1
 90
        1
176
     1
 90
        4
176
     1
 62
     7
176
     1
 62
   257
176
     1
 90
        1
176
     1
 90
        1
176
     1
 40
1.0
176
     1
 90
        0
176
     1
 62
   257
176
     1
 40
1.0
176
     1
 90
        1
176
     1
 90
        6
176
     1
 90
        2
176
     1
 62
     7
176
     1
 90
        5
176
     1
 90
        0
176
     1
 90
        0
176
     1
290
     0
176
     1
 90
        1
176
     1
 40
0.0
176
     1
 90
        0
176
     1
290
     1
176
     1
290
     1
176
     1
290
     0
176
     1
290
     0
176
     1
290
     0
176
     1
290
     0
176
     1
290
     0
176
     1
290
     0
176
     1
290
     0
176
     1
 90
       50
176
     1
 40
0.0
176
     1
 40
1.0
176
     1
 90
        0
176
     1
 62
    18
420
        0
176
     1
 90
       50
176
     1
 90
        3
176
     1
 62
     5
420
      255
176
     1
290
     0
176
     1
 90
       50
176
     1
 90
       50
176
     1
 90
       50
176
     1
290
     0
176
     1
 90
       50
176
     1
 62
   256
176
     0
 40
1.0
176
     0
 90
        2
176
     1
  1
strokes_ogs.tif
176
     1
290
     0
176
     1
 40
1.0
176
     1
 40
1.0
176
     1
1001
ACAD
1000
AcDbSavedByObjectVersion
1070
     0
  0
VISUALSTYLE
  5
32
102
{ACAD_REACTORS
330
2A
102
}
330
2A
100
AcDbVisualStyle
  2

 70
     7
177
     3
291
     1
 70
    58
 90
        1
176
     1
 90
        0
176
     1
 90
        1
176
     1
 90
        0
176
     1
 40
0.6
176
     1
 40
30.0
176
     1
 62
     7
420
 16777215
176
     1
 90
        0
176
     1
 90
        4
176
     1
 62
     7
176
     1
 62
   257
176
     1
 90
        1
176
     1
 90
        1
176
     1
 40
1.0
176
     1
 90
        8
176
     1
 62
     7
176
     1
 40
1.0
176
     1
 90
        1
176
     1
 90
        6
176
     1
 90
        2
176
     1
 62
     7
176
     1
 90
        5
176
     1
 90
        0
176
     1
 90
        0
176
     1
290
     0
176
     1
 90
        1
176
     1
 40
0.0
176
     1
 90
        0
176
     1
290
     0
176
     1
290
     1
176
     1
290
     1
176
     1
290
     0
176
     1
290
     0
176
     1
290
     0
176
     1
290
     0
176
     1
290
     0
176
     1
290
     0
176
     1
 90
       50
176
     1
 40
0.0
176
     1
 40
1.0
176
     1
 90
        0
176
     1
 62
    18
420
        0
176
     1
 90
       50
176
     1
 90
        3
176
     1
 62
     5
420
      255
176
     1
290
     0
176
     1
 90
       50
176
     1
 90
       50
176
     1
 90
       50
176
     1
290
     0
176
     1
 90
       50
176
     1
 62
   256
176
     0
 40
1.0
176
     0
 90
        2
176
     1
  1
strokes_ogs.tif
176
     1
290
     0
176
     1
 40
1.0
176
     1
 40
1.0
176
     1
1001
ACAD
1000
AcDbSavedByObjectVersion
1070
     0
  0
VISUALSTYLE
  5
36
102
{ACAD_REACTORS
330
2A
102
}
330
2A
100
AcDbVisualStyle
  2

 70
    12
177
     3
291
     1
 70
    58
 90
        2
176
     1
 90
        2
176
     1
 90
        0
176
     1
 90
        0
176
     1
 40
0.6
176
     1
 40
30.0
176
     1
 62
     7
420
 16777215
176
     1
 90
        1
176
     1
 90
        4
176
     1
 62
     7
176
     1
 62
   257
176
     1
 90
        1
176
     1
 90
        1
176
     1
 40
1.0
176
     1
 90
        8
176
     1
 62
     7
176
     1
 40
1.0
176
     1
 90
        1
176
     1
 90
        6
176
     1
 90
        2
176
     1
 62
     7
176
     1
 90
        5
176
     1
 90
        0
176
     1
 90
        0
176
     1
290
     0
176
     1
 90
        1
176
     1
 40
50.0
176
     1
 90
        0
176
     1
290
     0
176
     1
290
     1
176
     1
290
     1
176
     1
290
     0
176
     1
290
     0
176
     1
290
     0
176
     1
290
     0
176
     1
290
     0
176
     1
290
     0
176
     1
 90
       50
176
     1
 40
0.0
176
     1
 40
1.0
176
     1
 90
        0
176
     1
 62
    18
420
        0
176
     1
 90
       50
176
     1
 90
        3
176
     1
 62
     5
420
      255
176
     1
290
     0
176
     1
 90
       50
176
     1
 90
       50
176
     1
 90
       50
176
     1
290
     0
176
     1
 90
       50
176
     1
 62
   256
176
     0
 40
1.0
176
     0
 90
        2
176
     1
  1
strokes_ogs.tif
176
     1
290
     0
176
     1
 40
1.0
176
     1
 40
1.0
176
     1
1001
ACAD
1000
AcDbSavedByObjectVersion
1070
     0
  0
VISUALSTYLE
  5
3A
102
{ACAD_REACTORS
330
2A
102
}
330
2A
100
AcDbVisualStyle
  2

 70
    16
177
     3
291
     1
 70
    58
 90
        2
176
     1
 90
        2
176
     1
 90
        3
176
     1
 90
        0
176
     1
 40
0.6
176
     1
 40
30.0
176
     1
 62
     8
420
  8421504
176
     1
 90
        1
176
     1
 90
        4
176
     1
 62
     7
176
     1
 62
   257
176
     1
 90
        1
176
     1
 90
        1
176
     1
 40
1.0
176
     1
 90
        8
176
     1
 62
     8
420
  8421504
176
     1
 40
1.0
176
     1
 90
        1
176
     1
 90
        6
176
     1
 90
        2
176
     1
 62
     7
176
     1
 90
        5
176
     1
 90
        0
176
     1
 90
        0
176
     1
290
     0
176
     1
 90
        1
176
     1
 40
0.0
176
     1
 90
        0
176
     1
290
     0
176
     1
290
     1
176
     1
290
     1
176
     1
290
     0
176
     1
290
     0
176
     1
290
     0
176
     1
290
     0
176
     1
290
     0
176
     1
290
     0
176
     1
 90
       50
176
     1
 40
0.0
176
     1
 40
1.0
176
     1
 90
        0
176
     1
 62
    18
420
        0
176
     1
 90
       50
176
     1
 90
        3
176
     1
 62
     5
420
      255
176
     1
290
     0
176
     1
 90
       50
176
     1
 90
       50
176
     1
 90
       50
176
     1
290
     0
176
     1
 90
       50
176
     1
 62
   256
176
     0
 40
1.0
176
     0
 90
        2
176
     1
  1
strokes_ogs.tif
176
     1
290
     0
176
     1
 40
1.0
176
     1
 40
1.0
176
     1
1001
ACAD
1000
AcDbSavedByObjectVersion
1070
     0
  0
VISUALSTYLE
  5
34
102
{ACAD_REACTORS
330
2A
102
}
330
2A
100
AcDbVisualStyle
  2

 70
     9
177
     3
291
     0
 70
    58
 90
        3
176
     1
 90
        2
176
     1
 90
        0
176
     1
 90
        0
176
     1
 40
0.6
176
     1
 40
30.0
176
     1
 62
     7
420
 16777215
176
     1
 90
        2
176
     1
 90
        2
176
     1
 62
     7
176
     1
 62
   257
176
     1
 90
        1
176
     1
 90
        1
176
     1
 40
179.0
176
     1
 90
        8
176
     1
 62
     7
176
     1
 40
1.0
176
     1
 90
        1
176
     1
 90
        6
176
     1
 90
        2
176
     1
 62
     7
176
     1
 90
        3
176
     1
 90
        0
176
     1
 90
        0
176
     1
290
     0
176
     1
 90
        1
176
     1
 40
0.0
176
     1
 90
        0
176
     1
290
     0
176
     1
290
     1
176
     1
290
     1
176
     1
290
     0
176
     1
290
     0
176
     1
290
     0
176
     1
290
     0
176
     1
290
     0
176
     1
290
     0
176
     1
 90
       50
176
     1
 40
0.0
176
     1
 40
1.0
176
     1
 90
        0
176
     1
 62
    18
420
        0
176
     1
 90
       50
176
     1
 90
        3
176
     1
 62
     5
420
      255
176
     1
290
     0
176
     1
 90
       50
176
     1
 90
       50
176
     1
 90
       50
176
     1
290
     0
176
     1
 90
       50
176
     1
 62
   256
176
     0
 40
1.0
176
     0
 90
        2
176
     1
  1
strokes_ogs.tif
176
     1
290
     0
176
     1
 40
1.0
176
     1
 40
1.0
176
     1
1001
ACAD
1000
AcDbSavedByObjectVersion
1070
     0
  0
VISUALSTYLE
  5
35
102
{ACAD_REACTORS
330
2A
102
}
330
2A
100
AcDbVisualStyle
  2

 70
    11
177
     3
291
     1
 70
    58
 90
        2
176
     1
 90
        2
176
     1
 90
        0
176
     1
 90
        0
176
     1
 40
0.6
176
     1
 40
30.0
176
     1
 62
     7
420
 16777215
176
     1
 90
        1
176
     1
 90
        4
176
     1
 62
     7
176
     1
 62
   257
176
     1
 90
        1
176
     1
 90
        1
176
     1
 40
1.0
176
     1
 90
        8
176
     1
 62
     7
176
     1
 40
1.0
176
     1
 90
        1
176
     1
 90
        6
176
     1
 90
        2
176
     1
 62
     7
176
     1
 90
        5
176
     1
 90
        0
176
     1
 90
        0
176
     1
290
     0
176
     1
 90
        1
176
     1
 40
-50.0
176
     1
 90
        0
176
     1
290
     0
176
     1
290
     1
176
     1
290
     1
176
     1
290
     0
176
     1
290
     0
176
     1
290
     0
176
     1
290
     0
176
     1
290
     0
176
     1
290
     0
176
     1
 90
       50
176
     1
 40
0.0
176
     1
 40
1.0
176
     1
 90
        0
176
     1
 62
    18
420
        0
176
     1
 90
       50
176
     1
 90
        3
176
     1
 62
     5
420
      255
176
     1
290
     0
176
     1
 90
       50
176
     1
 90
       50
176
     1
 90
       50
176
     1
290
     0
176
     1
 90
       50
176
     1
 62
   256
176
     0
 40
1.0
176
     0
 90
        2
176
     1
  1
strokes_ogs.tif
176
     1
290
     0
176
     1
 40
1.0
176
     1
 40
1.0
176
     1
1001
ACAD
1000
AcDbSavedByObjectVersion
1070
     0
  0
VISUALSTYLE
  5
3D
102
{ACAD_REACTORS
330
2A
102
}
330
2A
100
AcDbVisualStyle
  2

 70
    22
177
     3
291
     1
 70
    58
 90
        2
176
     0
 90
        2
176
     0
 90
        0
176
     0
 90
        0
176
     0
 40
0.6
176
     0
 40
30.0
176
     0
 62
     7
420
 16777215
176
     0
 90
        1
176
     0
 90
        4
176
     0
 62
     7
176
     0
 62
   257
176
     0
 90
        1
176
     0
 90
        1
176
     0
 40
1.0
176
     0
 90
        8
176
     2
 62
     7
176
     0
 40
1.0
176
     0
 90
        1
176
     0
 90
        6
176
     0
 90
        2
176
     0
 62
     7
176
     0
 90
        5
176
     0
 90
        0
176
     0
 90
        0
176
     0
290
     0
176
     0
 90
        1
176
     0
 40
0.0
176
     0
 90
        0
176
     0
290
     0
176
     0
290
     1
176
     0
290
     1
176
     0
290
     0
176
     0
290
     0
176
     0
290
     0
176
     0
290
     0
176
     0
290
     0
176
     0
290
     0
176
     0
 90
       50
176
     0
 40
0.0
176
     0
 40
1.0
176
     0
 90
        0
176
     0
 62
    18
420
        0
176
     0
 90
       50
176
     0
 90
        3
176
     0
 62
     5
420
      255
176
     0
290
     0
176
     0
 90
       50
176
     0
 90
       50
176
     0
 90
       50
176
     0
290
     0
176
     0
 90
       50
176
     0
 62
   256
176
     0
 40
1.0
176
     0
 90
        2
176
     0
  1
strokes_ogs.tif
176
     0
290
     0
176
     0
 40
1.0
176
     0
 40
1.0
176
     0
1001
ACAD
1000
AcDbSavedByObjectVersion
1070
     0
  0
VISUALSTYLE
  5
39
102
{ACAD_REACTORS
330
2A
102
}
330
2A
100
AcDbVisualStyle
  2

 70
    15
177
     3
291
     1
 70
    58
 90
        2
176
     1
 90
        2
176
     1
 90
        0
176
     1
 90
        0
176
     1
 40
0.6
176
     1
 40
30.0
176
     1
 62
     7
420
 16777215
176
     1
 90
        1
176
     1
 90
        4
176
     1
 62
     7
176
     1
 62
   257
176
     1
 90
        1
176
     1
 90
        1
176
     1
 40
1.0
176
     1
 90
        8
176
     1
 62
     7
176
     1
 40
1.0
176
     1
 90
        1
176
     1
 90
        6
176
     1
 90
        2
176
     1
 62
     7
176
     1
 90
        5
176
     1
 90
        0
176
     1
 90
        0
176
     1
290
     0
176
     1
 90
        1
176
     1
 40
0.0
176
     1
 90
        0
176
     1
290
     0
176
     1
290
     1
176
     1
290
     1
176
     1
290
     0
176
     1
290
     0
176
     1
290
     0
176
     1
290
     0
176
     1
290
     0
176
     1
290
     0
176
     1
 90
       50
176
     1
 40
0.0
176
     1
 40
1.0
176
     1
 90
        0
176
     1
 62
    18
420
        0
176
     1
 90
       50
176
     1
 90
        3
176
     1
 62
     5
420
      255
176
     1
290
     0
176
     1
 90
       50
176
     1
 90
       50
176
     1
 90
       50
176
     1
290
     0
176
     1
 90
       50
176
     1
 62
   256
176
     0
 40
1.0
176
     0
 90
        2
176
     1
  1
strokes_ogs.tif
176
     1
290
     0
176
     1
 40
1.0
176
     1
 40
1.0
176
     1
1001
ACAD
1000
AcDbSavedByObjectVersion
1070
     0
  0
VISUALSTYLE
  5
2B
102
{ACAD_REACTORS
330
2A
102
}
330
2A
100
AcDbVisualStyle
  2

 70
     0
177
     3
291
     1
 70
    58
 90
        2
176
     1
 90
        1
176
     1
 90
        1
176
     1
 90
        2
176
     1
 40
0.6
176
     1
 40
30.0
176
     1
 62
     7
420
 16777215
176
     1
 90
        0
176
     1
 90
        0
176
     1
 62
     7
176
     1
 62
   257
176
     1
 90
        1
176
     1
 90
        1
176
     1
 40
1.0
176
     1
 90
        8
176
     1
 62
     7
176
     1
 40
1.0
176
     1
 90
        1
176
     1
 90
        6
176
     1
 90
        2
176
     1
 62
     7
176
     1
 90
        5
176
     1
 90
        0
176
     1
 90
        0
176
     1
290
     0
176
     1
 90
       13
176
     1
 40
0.0
176
     1
 90
        0
176
     1
290
     0
176
     1
290
     1
176
     1
290
     1
176
     1
290
     0
176
     1
290
     0
176
     1
290
     0
176
     1
290
     0
176
     1
290
     0
176
     1
290
     0
176
     1
 90
       50
176
     1
 40
0.0
176
     1
 40
1.0
176
     1
 90
        0
176
     1
 62
    18
420
        0
176
     1
 90
       50
176
     1
 90
        3
176
     1
 62
     5
420
      255
176
     1
290
     0
176
     1
 90
       50
176
     1
 90
       50
176
     1
 90
       50
176
     1
290
     0
176
     1
 90
       50
176
     1
 62
   256
176
     0
 40
1.0
176
     0
 90
        2
176
     1
  1
strokes_ogs.tif
176
     1
290
     0
176
     1
 40
1.0
176
     1
 40
1.0
176
     1
1001
ACAD
1000
AcDbSavedByObjectVersion
1070
     0
  0
VISUALSTYLE
  5
2C
102
{ACAD_REACTORS
330
2A
102
}
330
2A
100
AcDbVisualStyle
  2

 70
     1
177
     3
291
     1
 70
    58
 90
        2
176
     1
 90
        1
176
     1
 90
        1
176
     1
 90
        2
176
     1
 40
0.6
176
     1
 40
30.0
176
     1
 62
     7
420
 16777215
176
     1
 90
        1
176
     1
 90
        0
176
     1
 62
     7
176
     1
 62
   257
176
     1
 90
        1
176
     1
 90
        1
176
     1
 40
1.0
176
     1
 90
        0
176
     1
 62
   257
176
     1
 40
1.0
176
     1
 90
        1
176
     1
 90
        6
176
     1
 90
        2
176
     1
 62
     7
176
     1
 90
        5
176
     1
 90
        0
176
     1
 90
        0
176
     1
290
     0
176
     1
 90
       13
176
     1
 40
0.0
176
     1
 90
        0
176
     1
290
     0
176
     1
290
     1
176
     1
290
     1
176
     1
290
     0
176
     1
290
     0
176
     1
290
     0
176
     1
290
     0
176
     1
290
     0
176
     1
290
     0
176
     1
 90
       50
176
     1
 40
0.0
176
     1
 40
1.0
176
     1
 90
        0
176
     1
 62
    18
420
        0
176
     1
 90
       50
176
     1
 90
        3
176
     1
 62
     5
420
      255
176
     1
290
     0
176
     1
 90
       50
176
     1
 90
       50
176
     1
 90
       50
176
     1
290
     0
176
     1
 90
       50
176
     1
 62
   256
176
     0
 40
1.0
176
     0
 90
        2
176
     1
  1
strokes_ogs.tif
176
     1
290
     0
176
     1
 40
1.0
176
     1
 40
1.0
176
     1
1001
ACAD
1000
AcDbSavedByObjectVersion
1070
     0
  0
VISUALSTYLE
  5
2D
102
{ACAD_REACTORS
330
2A
102
}
330
2A
100
AcDbVisualStyle
  2

 70
     2
177
     3
291
     1
 70
    58
 90
        2
176
     1
 90
        2
176
     1
 90
        1
176
     1
 90
        2
176
     1
 40
0.6
176
     1
 40
30.0
176
     1
 62
     7
420
 16777215
176
     1
 90
        0
176
     1
 90
        0
176
     1
 62
     7
176
     1
 62
   257
176
     1
 90
        1
176
     1
 90
        1
176
     1
 40
1.0
176
     1
 90
        0
176
     1
 62
     7
176
     1
 40
1.0
176
     1
 90
        1
176
     1
 90
        6
176
     1
 90
        2
176
     1
 62
     7
176
     1
 90
        5
176
     1
 90
        0
176
     1
 90
        0
176
     1
290
     0
176
     1
 90
       13
176
     1
 40
0.0
176
     1
 90
        0
176
     1
290
     0
176
     1
290
     1
176
     1
290
     1
176
     1
290
     0
176
     1
290
     0
176
     1
290
     0
176
     1
290
     0
176
     1
290
     0
176
     1
290
     0
176
     1
 90
       50
176
     1
 40
0.0
176
     1
 40
1.0
176
     1
 90
        0
176
     1
 62
    18
420
        0
176
     1
 90
       50
176
     1
 90
        3
176
     1
 62
     5
420
      255
176
     1
290
     0
176
     1
 90
       50
176
     1
 90
       50
176
     1
 90
       50
176
     1
290
     0
176
     1
 90
       50
176
     1
 62
   256
176
     0
 40
1.0
176
     0
 90
        2
176
     1
  1
strokes_ogs.tif
176
     1
290
     0
176
     1
 40
1.0
176
     1
 40
1.0
176
     1
1001
ACAD
1000
AcDbSavedByObjectVersion
1070
     0
  0
VISUALSTYLE
  5
2E
102
{ACAD_REACTORS
330
2A
102
}
330
2A
100
AcDbVisualStyle
  2

 70
     3
177
     3
291
     1
 70
    58
 90
        2
176
     1
 90
        2
176
     1
 90
        1
176
     1
 90
        2
176
     1
 40
0.6
176
     1
 40
30.0
176
     1
 62
     7
420
 16777215
176
     1
 90
        1
176
     1
 90
        0
176
     1
 62
     7
176
     1
 62
   257
176
     1
 90
        1
176
     1
 90
        1
176
     1
 40
1.0
176
     1
 90
        0
176
     1
 62
   257
176
     1
 40
1.0
176
     1
 90
        1
176
     1
 90
        6
176
     1
 90
        2
176
     1
 62
     7
176
     1
 90
        5
176
     1
 90
        0
176
     1
 90
        0
176
     1
290
     0
176
     1
 90
       13
176
     1
 40
0.0
176
     1
 90
        0
176
     1
290
     0
176
     1
290
     1
176
     1
290
     1
176
     1
290
     0
176
     1
290
     0
176
     1
290
     0
176
     1
290
     0
176
     1
290
     0
176
     1
290
     0
176
     1
 90
       50
176
     1
 40
0.0
176
     1
 40
1.0
176
     1
 90
        0
176
     1
 62
    18
420
        0
176
     1
 90
       50
176
     1
 90
        3
176
     1
 62
     5
420
      255
176
     1
290
     0
176
     1
 90
       50
176
     1
 90
       50
176
     1
 90
       50
176
     1
290
     0
176
     1
 90
       50
176
     1
 62
   256
176
     0
 40
1.0
176
     0
 90
        2
176
     1
  1
strokes_ogs.tif
176
     1
290
     0
176
     1
 40
1.0
176
     1
 40
1.0
176
     1
1001
ACAD
1000
AcDbSavedByObjectVersion
1070
     0
  0
VISUALSTYLE
  5
31
102
{ACAD_REACTORS
330
2A
102
}
330
2A
100
AcDbVisualStyle
  2

 70
     6
177
     3
291
     0
 70
    58
 90
        1
176
     1
 90
        2
176
     1
 90
        2
176
     1
 90
        0
176
     1
 40
0.6
176
     1
 40
30.0
176
     1
 62
     7
420
 16777215
176
     1
 90
        2
176
     1
 90
        2
176
     1
 62
     7
176
     1
 62
   257
176
     1
 90
        2
176
     1
 90
        1
176
     1
 40
40.0
176
     1
 90
        0
176
     1
 62
   257
176
     1
 40
1.0
176
     1
 90
        1
176
     1
 90
        6
176
     1
 90
        2
176
     1
 62
     7
176
     1
 90
        3
176
     1
 90
        0
176
     1
 90
        0
176
     1
290
     0
176
     1
 90
        1
176
     1
 40
0.0
176
     1
 90
        0
176
     1
290
     0
176
     1
290
     1
176
     1
290
     1
176
     1
290
     0
176
     1
290
     0
176
     1
290
     0
176
     1
290
     0
176
     1
290
     0
176
     1
290
     0
176
     1
 90
       50
176
     1
 40
0.0
176
     1
 40
1.0
176
     1
 90
        0
176
     1
 62
    18
420
        0
176
     1
 90
       50
176
     1
 90
        3
176
     1
 62
     5
420
      255
176
     1
290
     0
176
     1
 90
       50
176
     1
 90
       50
176
     1
 90
       50
176
     1
290
     0
176
     1
 90
       50
176
     1
 62
   256
176
     0
 40
1.0
176
     0
 90
        2
176
     1
  1
strokes_ogs.tif
176
     1
290
     0
176
     1
 40
1.0
176
     1
 40
1.0
176
     1
1001
ACAD
1000
AcDbSavedByObjectVersion
1070
     0
  0
VISUALSTYLE
  5
3B
102
{ACAD_REACTORS
330
2A
102
}
330
2A
100
AcDbVisualStyle
  2

 70
    20
177
     3
291
     1
 70
    58
 90
        2
176
     0
 90
        2
176
     0
 90
        0
176
     0
 90
        0
176
     0
 40
0.6
176
     0
 40
30.0
176
     0
 62
     7
420
 16777215
176
     0
 90
        1
176
     0
 90
        4
176
     0
 62
     7
176
     0
 62
   257
176
     0
 90
        1
176
     0
 90
        1
176
     0
 40
1.0
176
     0
 90
       10
176
     2
 62
     7
176
     0
 40
1.0
176
     0
 90
        1
176
     0
 90
        6
176
     0
 90
        2
176
     0
 62
     7
176
     0
 90
        5
176
     0
 90
        0
176
     0
 90
        0
176
     0
290
     0
176
     0
 90
        1
176
     0
 40
0.0
176
     0
 90
        0
176
     0
290
     0
176
     0
290
     1
176
     0
290
     1
176
     0
290
     0
176
     0
290
     0
176
     0
290
     0
176
     0
290
     0
176
     0
290
     0
176
     0
290
     0
176
     0
 90
       50
176
     0
 40
0.0
176
     0
 40
1.0
176
     0
 90
        0
176
     0
 62
    18
420
        0
176
     0
 90
       50
176
     0
 90
        3
176
     0
 62
     5
420
      255
176
     0
290
     0
176
     0
 90
       50
176
     0
 90
       50
176
     0
 90
       50
176
     0
290
     0
176
     0
 90
       50
176
     0
 62
   256
176
     0
 40
1.0
176
     0
 90
        2
176
     0
  1
strokes_ogs.tif
176
     0
290
     0
176
     0
 40
1.0
176
     0
 40
1.0
176
     0
1001
ACAD
1000
AcDbSavedByObjectVersion
1070
     0
  0
VISUALSTYLE
  5
38
102
{ACAD_REACTORS
330
2A
102
}
330
2A
100
AcDbVisualStyle
  2

 70
    14
177
     3
291
     1
 70
    58
 90
        2
176
     1
 90
        2
176
     1
 90
        0
176
     1
 90
        0
176
     1
 40
0.6
176
     1
 40
30.0
176
     1
 62
     7
420
 16777215
176
     1
 90
        1
176
     1
 90
        4
176
     1
 62
     7
176
     1
 62
   257
176
     1
 90
        7
176
     1
 90
        7
176
     1
 40
1.0
176
     1
 90
        8
176
     1
 62
     7
176
     1
 40
1.0
176
     1
 90
        1
176
     1
 90
        6
176
     1
 90
        2
176
     1
 62
     7
176
     1
 90
        5
176
     1
 90
        0
176
     1
 90
        0
176
     1
290
     0
176
     1
 90
        1
176
     1
 40
0.0
176
     1
 90
        0
176
     1
290
     0
176
     1
290
     1
176
     1
290
     1
176
     1
290
     0
176
     1
290
     0
176
     1
290
     0
176
     1
290
     0
176
     1
290
     0
176
     1
290
     0
176
     1
 90
       50
176
     1
 40
0.0
176
     1
 40
1.0
176
     1
 90
        0
176
     1
 62
    18
420
        0
176
     1
 90
       50
176
     1
 90
        3
176
     1
 62
     5
420
      255
176
     1
290
     0
176
     1
 90
       50
176
     1
 90
       50
176
     1
 90
       50
176
     1
290
     0
176
     1
 90
       50
176
     1
 62
   256
176
     0
 40
1.0
176
     0
 90
        2
176
     1
  1
strokes_ogs.tif
176
     1
290
     0
176
     1
 40
1.0
176
     1
 40
1.0
176
     1
1001
ACAD
1000
AcDbSavedByObjectVersion
1070
     0
  0
VISUALSTYLE
  5
3C
102
{ACAD_REACTORS
330
2A
102
}
330
2A
100
AcDbVisualStyle
  2

 70
    21
177
     3
291
     1
 70
    58
 90
        2
176
     0
 90
        2
176
     0
 90
        0
176
     0
 90
        0
176
     0
 40
0.6
176
     0
 40
30.0
176
     0
 62
     7
420
 16777215
176
     0
 90
        1
176
     0
 90
        4
176
     0
 62
     7
176
     0
 62
   257
176
     0
 90
        1
176
     0
 90
        1
176
     0
 40
1.0
176
     0
 90
        9
176
     2
 62
     7
176
     0
 40
1.0
176
     0
 90
        1
176
     0
 90
        6
176
     0
 90
        2
176
     0
 62
     7
176
     0
 90
        5
176
     0
 90
        0
176
     0
 90
        0
176
     0
290
     0
176
     0
 90
        1
176
     0
 40
0.0
176
     0
 90
        0
176
     0
290
     0
176
     0
290
     1
176
     0
290
     1
176
     0
290
     0
176
     0
290
     0
176
     0
290
     0
176
     0
290
     0
176
     0
290
     0
176
     0
290
     0
176
     0
 90
       50
176
     0
 40
0.0
176
     0
 40
1.0
176
     0
 90
        0
176
     0
 62
    18
420
        0
176
     0
 90
       50
176
     0
 90
        3
176
     0
 62
     5
420
      255
176
     0
290
     0
176
     0
 90
       50
176
     0
 90
       50
176
     0
 90
       50
176
     0
290
     0
176
     0
 90
       50
176
     0
 62
   256
176
     0
 40
1.0
176
     0
 90
        2
176
     0
  1
strokes_ogs.tif
176
     0
290
     0
176
     0
 40
1.0
176
     0
 40
1.0
176
     0
1001
ACAD
1000
AcDbSavedByObjectVersion
1070
     0
  0
VISUALSTYLE
  5
33
102
{ACAD_REACTORS
330
2A
102
}
330
2A
100
AcDbVisualStyle
  2

 70
     8
177
     3
291
     0
 70
    58
 90
        2
176
     1
 90
        3
176
     1
 90
        0
176
     1
 90
        2
176
     1
 40
0.6
176
     1
 40
30.0
176
     1
 62
     7
420
 16777215
176
     1
 90
        0
176
     1
 90
        0
176
     1
 62
     7
176
     1
 62
   257
176
     1
 90
        1
176
     1
 90
        1
176
     1
 40
1.0
176
     1
 90
        8
176
     1
 62
   257
176
     1
 40
1.0
176
     1
 90
        1
176
     1
 90
        6
176
     1
 90
        2
176
     1
 62
     7
176
     1
 90
        3
176
     1
 90
        0
176
     1
 90
        0
176
     1
290
     0
176
     1
 90
       13
176
     1
 40
0.0
176
     1
 90
        0
176
     1
290
     0
176
     1
290
     1
176
     1
290
     1
176
     1
290
     0
176
     1
290
     0
176
     1
290
     0
176
     1
290
     0
176
     1
290
     0
176
     1
290
     0
176
     1
 90
       50
176
     1
 40
0.0
176
     1
 40
1.0
176
     1
 90
        0
176
     1
 62
    18
420
        0
176
     1
 90
       50
176
     1
 90
        3
176
     1
 62
     5
420
      255
176
     1
290
     0
176
     1
 90
       50
176
     1
 90
       50
176
     1
 90
       50
176
     1
290
     0
176
     1
 90
       50
176
     1
 62
   256
176
     0
 40
1.0
176
     0
 90
        2
176
     1
  1
strokes_ogs.tif
176
     1
290
     0
176
     1
 40
1.0
176
     1
 40
1.0
176
     1
1001
ACAD
1000
AcDbSavedByObjectVersion
1070
     0
  0
VISUALSTYLE
  5
42
102
{ACAD_REACTORS
330
2A
102
}
330
2A
100
AcDbVisualStyle
  2

 70
    27
177
     3
291
     0
 70
    58
 90
        2
176
     1
 90
        2
176
     1
 90
        1
176
     1
 90
        2
176
     1
 40
0.6
176
     1
 40
30.0
176
     1
 62
     7
420
 16777215
176
     1
 90
        0
176
     1
 90
        4
176
     1
 62
     7
176
     1
 62
   257
176
     1
 90
        1
176
     1
 90
        1
176
     1
 40
1.0
176
     1
 90
        8
176
     1
 62
   257
176
     1
 40
1.0
176
     1
 90
        1
176
     1
 90
        6
176
     1
 90
        2
176
     1
 62
     8
420
  7895160
176
     1
 90
        3
176
     1
 90
        0
176
     1
 90
        0
176
     1
290
     0
176
     1
 90
        5
176
     1
 40
0.0
176
     1
 90
        0
176
     1
290
     0
176
     1
290
     1
176
     1
290
     1
176
     1
290
     0
176
     1
290
     0
176
     1
290
     0
176
     1
290
     0
176
     1
290
     0
176
     1
290
     0
176
     1
 90
       50
176
     1
 40
0.0
176
     1
 40
1.0
176
     1
 90
        0
176
     1
 62
    18
420
        0
176
     1
 90
       50
176
     1
 90
        3
176
     1
 62
     5
420
      255
176
     1
290
     0
176
     1
 90
       50
176
     1
 90
       50
176
     1
 90
       50
176
     1
290
     0
176
     1
 90
       50
176
     1
 62
   256
176
     0
 40
1.0
176
     0
 90
        2
176
     1
  1
strokes_ogs.tif
176
     1
290
     0
176
     1
 40
1.0
176
     1
 40
1.0
176
     1
1001
ACAD
1000
AcDbSavedByObjectVersion
1070
     0
  0
VISUALSTYLE
  5
41
102
{ACAD_REACTORS
330
2A
102
}
330
2A
100
AcDbVisualStyle
  2

 70
    26
177
     3
291
     0
 70
    58
 90
        2
176
     1
 90
        2
176
     1
 90
        1
176
     1
 90
        2
176
     1
 40
0.6
176
     1
 40
30.0
176
     1
 62
     7
420
 16777215
176
     1
 90
        1
176
     1
 90
       10
176
     1
 62
     7
176
     1
 62
   257
176
     1
 90
        2
176
     1
 90
        1
176
     1
 40
1.0
176
     1
 90
        8
176
     1
 62
   257
176
     1
 40
1.0
176
     1
 90
        1
176
     1
 90
        6
176
     1
 90
        2
176
     1
 62
     7
176
     1
 90
        3
176
     1
 90
        0
176
     1
 90
        0
176
     1
290
     0
176
     1
 90
        5
176
     1
 40
0.0
176
     1
 90
        0
176
     1
290
     0
176
     1
290
     1
176
     1
290
     1
176
     1
290
     0
176
     1
290
     0
176
     1
290
     0
176
     1
290
     0
176
     1
290
     0
176
     1
290
     0
176
     1
 90
       50
176
     1
 40
0.0
176
     1
 40
1.0
176
     1
 90
        0
176
     1
 62
    18
420
        0
176
     1
 90
       50
176
     1
 90
        3
176
     1
 62
     5
420
      255
176
     1
290
     0
176
     1
 90
       50
176
     1
 90
       50
176
     1
 90
       50
176
     1
290
     0
176
     1
 90
       50
176
     1
 62
   256
176
     0
 40
1.0
176
     0
 90
        2
176
     1
  1
strokes_ogs.tif
176
     1
290
     0
176
     1
 40
1.0
176
     1
 40
1.0
176
     1
1001
ACAD
1000
AcDbSavedByObjectVersion
1070
     0
  0
VISUALSTYLE
  5
3E
102
{ACAD_REACTORS
330
2A
102
}
330
2A
100
AcDbVisualStyle
  2

 70
    23
177
     3
291
     0
 70
    58
 90
        2
176
     1
 90
        2
176
     1
 90
        3
176
     1
 90
        0
176
     1
 40
0.6
176
     1
 40
30.0
176
     1
 62
     7
420
 16777215
176
     1
 90
        2
176
     1
 90
        2
176
     1
 62
     7
176
     1
 62
     7
176
     1
 90
        1
176
     1
 90
        1
176
     1
 40
40.0
176
     1
 90
        8
176
     1
 62
     7
176
     1
 40
1.0
176
     1
 90
        1
176
     1
 90
        6
176
     1
 90
        2
176
     1
 62
     7
176
     1
 90
        3
176
     1
 90
        0
176
     1
 90
        0
176
     1
290
     0
176
     1
 90
        1
176
     1
 40
0.0
176
     1
 90
        0
176
     1
290
     0
176
     1
290
     1
176
     1
290
     1
176
     1
290
     0
176
     1
290
     0
176
     1
290
     0
176
     1
290
     0
176
     1
290
     0
176
     1
290
     0
176
     1
 90
       50
176
     1
 40
0.0
176
     1
 40
1.0
176
     1
 90
        0
176
     1
 62
    18
420
        0
176
     1
 90
       50
176
     1
 90
        3
176
     1
 62
     5
420
      255
176
     1
290
     0
176
     1
 90
       50
176
     1
 90
       50
176
     1
 90
       50
176
     1
290
     0
176
     1
 90
       50
176
     1
 62
   256
176
     0
 40
1.0
176
     0
 90
        2
176
     1
  1
strokes_ogs.tif
176
     1
290
     0
176
     1
 40
1.0
176
     1
 40
1.0
176
     1
1001
ACAD
1000
AcDbSavedByObjectVersion
1070
     0
  0
VISUALSTYLE
  5
3F
102
{ACAD_REACTORS
330
2A
102
}
330
2A
100
AcDbVisualStyle
  2

 70
    24
177
     3
291
     0
 70
    58
 90
        1
176
     1
 90
        2
176
     1
 90
        2
176
     1
 90
        0
176
     1
 40
0.6
176
     1
 40
30.0
176
     1
 62
     7
420
 16777215
176
     1
 90
        2
176
     1
 90
        2
176
     1
 62
     7
176
     1
 62
     7
176
     1
 90
        1
176
     1
 90
        1
176
     1
 40
40.0
176
     1
 90
       11
176
     1
 62
     7
176
     1
 40
1.0
176
     1
 90
        1
176
     1
 90
        6
176
     1
 90
        2
176
     1
 62
     7
176
     1
 90
        6
176
     1
 90
        0
176
     1
 90
        0
176
     1
290
     0
176
     1
 90
        1
176
     1
 40
0.0
176
     1
 90
        0
176
     1
290
     0
176
     1
290
     1
176
     1
290
     1
176
     1
290
     0
176
     1
290
     0
176
     1
290
     0
176
     1
290
     0
176
     1
290
     0
176
     1
290
     0
176
     1
 90
       50
176
     1
 40
0.0
176
     1
 40
1.0
176
     1
 90
        0
176
     1
 62
    18
420
        0
176
     1
 90
       50
176
     1
 90
        3
176
     1
 62
     5
420
      255
176
     1
290
     0
176
     1
 90
       50
176
     1
 90
       50
176
     1
 90
       50
176
     1
290
     0
176
     1
 90
       50
176
     1
 62
   256
176
     0
 40
1.0
176
     0
 90
        2
176
     1
  1
strokes_ogs.tif
176
     1
290
     0
176
     1
 40
1.0
176
     1
 40
1.0
176
     1
1001
ACAD
1000
AcDbSavedByObjectVersion
1070
     0
  0
VISUALSTYLE
  5
37
102
{ACAD_REACTORS
330
2A
102
}
330
2A
100
AcDbVisualStyle
  2

 70
    13
177
     3
291
     1
 70
    58
 90
        2
176
     1
 90
        2
176
     1
 90
        0
176
     1
 90
        0
176
     1
 40
0.6
176
     1
 40
30.0
176
     1
 62
     7
420
 16777215
176
     1
 90
        1
176
     1
 90
        4
176
     1
 62
     7
176
     1
 62
   257
176
     1
 90
        1
176
     1
 90
        1
176
     1
 40
1.0
176
     1
 90
       12
176
     1
 62
     7
176
     1
 40
1.0
176
     1
 90
        1
176
     1
 90
        6
176
     1
 90
        2
176
     1
 62
     7
176
     1
 90
        5
176
     1
 90
        0
176
     1
 90
        0
176
     1
290
     0
176
     1
 90
        1
176
     1
 40
0.0
176
     1
 90
        0
176
     1
290
     0
176
     1
290
     1
176
     1
290
     1
176
     1
290
     0
176
     1
290
     0
176
     1
290
     0
176
     1
290
     0
176
     1
290
     0
176
     1
290
     0
176
     1
 90
       50
176
     1
 40
0.0
176
     1
 40
1.0
176
     1
 90
        0
176
     1
 62
    18
420
        0
176
     1
 90
       50
176
     1
 90
        3
176
     1
 62
     5
420
      255
176
     1
290
     0
176
     1
 90
       50
176
     1
 90
       50
176
     1
 90
       50
176
     1
290
     0
176
     1
 90
       50
176
     1
 62
   256
176
     0
 40
1.0
176
     0
 90
        2
176
     1
  1
strokes_ogs.tif
176
     1
290
     0
176
     1
 40
1.0
176
     1
 40
1.0
176
     1
1001
ACAD
1000
AcDbSavedByObjectVersion
1070
     0
  0
VISUALSTYLE
  5
30
102
{ACAD_REACTORS
330
2A
102
}
330
2A
100
AcDbVisualStyle
  2

 70
     5
177
     3
291
     0
 70
    58
 90
        0
176
     1
 90
        2
176
     1
 90
        0
176
     1
 90
        0
176
     1
 40
0.6
176
     1
 40
30.0
176
     1
 62
     7
420
 16777215
176
     1
 90
        1
176
     1
 90
        4
176
     1
 62
     7
176
     1
 62
   257
176
     1
 90
        1
176
     1
 90
        1
176
     1
 40
1.0
176
     1
 90
        0
176
     1
 62
   257
176
     1
 40
1.0
176
     1
 90
        1
176
     1
 90
        6
176
     1
 90
        2
176
     1
 62
     7
176
     1
 90
        3
176
     1
 90
        0
176
     1
 90
        0
176
     1
290
     0
176
     1
 90
        1
176
     1
 40
0.0
176
     1
 90
        0
176
     1
290
     0
176
     1
290
     1
176
     1
290
     1
176
     1
290
     0
176
     1
290
     0
176
     1
290
     0
176
     1
290
     0
176
     1
290
     0
176
     1
290
     0
176
     1
 90
       50
176
     1
 40
0.0
176
     1
 40
1.0
176
     1
 90
        0
176
     1
 62
    18
420
        0
176
     1
 90
       50
176
     1
 90
        3
176
     1
 62
     5
420
      255
176
     1
290
     0
176
     1
 90
       50
176
     1
 90
       50
176
     1
 90
       50
176
     1
290
     0
176
     1
 90
       50
176
     1
 62
   256
176
     0
 40
1.0
176
     0
 90
        2
176
     1
  1
strokes_ogs.tif
176
     1
290
     0
176
     1
 40
1.0
176
     1
 40
1.0
176
     1
1001
ACAD
1000
AcDbSavedByObjectVersion
1070
     0
  0
VISUALSTYLE
  5
40
102
{ACAD_REACTORS
330
2A
102
}
330
2A
100
AcDbVisualStyle
  2

 70
    25
177
     3
291
     0
 70
    58
 90
        2
176
     1
 90
        2
176
     1
 90
        1
176
     1
 90
        1
176
     1
 40
0.5
176
     1
 40
30.0
176
     1
 62
     7
420
 16777215
176
     1
 90
        1
176
     1
 90
        0
176
     1
 62
     7
176
     1
 62
   257
176
     1
 90
        1
176
     1
 90
        1
176
     1
 40
1.0
176
     1
 90
        8
176
     1
 62
     7
176
     1
 40
1.0
176
     1
 90
        1
176
     1
 90
        6
176
     1
 90
        2
176
     1
 62
     7
176
     1
 90
        3
176
     1
 90
        0
176
     1
 90
        0
176
     1
290
     0
176
     1
 90
       13
176
     1
 40
0.0
176
     1
 90
        0
176
     1
290
     0
176
     1
290
     1
176
     1
290
     1
176
     1
290
     0
176
     1
290
     0
176
     1
290
     0
176
     1
290
     0
176
     1
290
     0
176
     1
290
     0
176
     1
 90
       50
176
     1
 40
0.0
176
     1
 40
1.0
176
     1
 90
        0
176
     1
 62
    18
420
        0
176
     1
 90
       50
176
     1
 90
        3
176
     1
 62
     5
420
      255
176
     1
290
     0
176
     1
 90
       50
176
     1
 90
       50
176
     1
 90
       50
176
     1
290
     0
176
     1
 90
       50
176
     1
 62
   256
176
     0
 40
1.0
176
     0
 90
        2
176
     1
  1
strokes_ogs.tif
176
     1
290
     0
176
     1
 40
1.0
176
     1
 40
1.0
176
     1
1001
ACAD
1000
AcDbSavedByObjectVersion
1070
     0
  0
DICTIONARYVAR
  5
12E
102
{ACAD_REACTORS
330
12D
102
}
330
12D
100
DictionaryVariables
280
     0
  1
1:1
  0
DICTIONARYVAR
  5
16F
102
{ACAD_REACTORS
330
12D
102
}
330
12D
100
DictionaryVariables
280
     0
  1
STANDARD
  0
DICTIONARYVAR
  5
16E
102
{ACAD_REACTORS
330
12D
102
}
330
12D
100
DictionaryVariables
280
     0
  1
STANDARD
  0
DICTIONARYVAR
  5
230
102
{ACAD_REACTORS
330
12D
102
}
330
12D
100
DictionaryVariables
280
     0
  1
Metric50
  0
DICTIONARYVAR
  5
231
102
{ACAD_REACTORS
330
12D
102
}
330
12D
100
DictionaryVariables
280
     0
  1
Metric50
  0
DICTIONARYVAR
  5
233
102
{ACAD_REACTORS
330
12D
102
}
330
12D
100
DictionaryVariables
280
     0
  1
1
  0
DICTIONARYVAR
  5
234
102
{ACAD_REACTORS
330
12D
102
}
330
12D
100
DictionaryVariables
280
     0
  1
15
  0
DICTIONARYVAR
  5
232
102
{ACAD_REACTORS
330
12D
102
}
330
12D
100
DictionaryVariables
280
     0
  1
0
  0
DICTIONARYVAR
  5
12F
102
{ACAD_REACTORS
330
12D
102
}
330
12D
100
DictionaryVariables
280
     0
  1
1
  0
DICTIONARY
  5
23D
330
19E
100
AcDbDictionary
280
     1
281
     1
  3
ACAD_XREC_ROUNDTRIP
360
23E
  0
DICTIONARY
  5
239
330
176
100
AcDbDictionary
280
     1
281
     1
  3
ACAD_XREC_ROUNDTRIP
360
23A
  0
DICTIONARY
  5
163
330
45
100
AcDbDictionary
280
     1
281
     1
  3
ACAD_XREC_ROUNDTRIP
360
164
  0
DICTIONARY
  5
161
330
44
100
AcDbDictionary
280
     1
281
     1
  3
ACAD_XREC_ROUNDTRIP
360
162
  0
DICTIONARY
  5
165
330
46
100
AcDbDictionary
280
     1
281
     1
  3
ACAD_XREC_ROUNDTRIP
360
166
  0
DICTIONARY
  5
23B
330
19D
100
AcDbDictionary
280
     1
281
     1
  3
ACAD_XREC_ROUNDTRIP
360
23C
  0
DICTIONARY
  5
237
330
175
100
AcDbDictionary
280
     1
281
     1
  3
ACAD_XREC_ROUNDTRIP
360
238
  0
DICTIONARY
  5
167
330
6A
100
AcDbDictionary
280
     1
281
     1
  3
ACAD_ROUNDTRIP_2008_TABLESTYLE_CELLSTYLEMAP
360
235
  0
XRECORD
  5
23E
102
{ACAD_REACTORS
330
23D
102
}
330
23D
100
AcDbXrecord
280
     1
102
DISPLAYNAME
  1
Imperial24
102
FLAGS
 90
        0
  0
XRECORD
  5
23A
102
{ACAD_REACTORS
330
239
102
}
330
239
100
AcDbXrecord
280
     1
102
DISPLAYNAME
  1
Metric50
102
FLAGS
 90
        0
  0
XRECORD
  5
164
102
{ACAD_REACTORS
330
163
102
}
330
163
100
AcDbXrecord
280
     1
102
MATERIAL
148
0.0
149
0.0
149
0.0
 93
        0
 94
      127
282
     0
 72
     1
 77
     1
171
     1
175
     1
179
     1
273
     0
  0
XRECORD
  5
162
102
{ACAD_REACTORS
330
161
102
}
330
161
100
AcDbXrecord
280
     1
102
MATERIAL
148
0.0
149
0.0
149
0.0
 93
        0
 94
      127
282
     0
 72
     1
 77
     1
171
     1
175
     1
179
     1
273
     0
  0
XRECORD
  5
166
102
{ACAD_REACTORS
330
165
102
}
330
165
100
AcDbXrecord
280
     1
102
MATERIAL
148
0.0
149
0.0
149
0.0
 93
        0
 94
      127
282
     0
 72
     1
 77
     1
171
     1
175
     1
179
     1
273
     0
  0
XRECORD
  5
23C
102
{ACAD_REACTORS
330
23B
102
}
330
23B
100
AcDbXrecord
280
     1
102
DISPLAYNAME
  1
Imperial24
102
FLAGS
 90
        0
  0
XRECORD
  5
238
102
{ACAD_REACTORS
330
237
102
}
330
237
100
AcDbXrecord
280
     1
102
DISPLAYNAME
  1
Metric50
102
FLAGS
 90
        0
  0
CELLSTYLEMAP
  5
235
102
{ACAD_REACTORS
330
167
102
}
330
167
100
AcDbCellStyleMap
 90
        3
300
CELLSTYLE
  1
TABLEFORMAT_BEGIN
 90
        5
170
     1
 91
        0
 92
    32768
 62
   257
 93
        1
300
CONTENTFORMAT
  1
CONTENTFORMAT_BEGIN
 90
        0
 91
        0
 92
        4
 93
        0
300

 40
0.0
140
1.0
 94
        5
 62
     0
340
11
144
0.25
309
CONTENTFORMAT_END
171
     1
301
MARGIN
  1
CELLMARGIN_BEGIN
 40
0.06
 40
0.06
 40
0.06
 40
0.06
 40
0.18
 40
0.18
309
CELLMARGIN_END
 94
        6
 95
        1
302
GRIDFORMAT
  1
GRIDFORMAT_BEGIN
 90
        0
 91
        1
 62
     0
 92
       -2
340
14
 93
        0
 40
0.045
309
GRIDFORMAT_END
 95
        2
302
GRIDFORMAT
  1
GRIDFORMAT_BEGIN
 90
        0
 91
        1
 62
     0
 92
       -2
340
14
 93
        0
 40
0.045
309
GRIDFORMAT_END
 95
        4
302
GRIDFORMAT
  1
GRIDFORMAT_BEGIN
 90
        0
 91
        1
 62
     0
 92
       -2
340
14
 93
        0
 40
0.045
309
GRIDFORMAT_END
 95
        8
302
GRIDFORMAT
  1
GRIDFORMAT_BEGIN
 90
        0
 91
        1
 62
     0
 92
       -2
340
14
 93
        0
 40
0.045
309
GRIDFORMAT_END
 95
       16
302
GRIDFORMAT
  1
GRIDFORMAT_BEGIN
 90
        0
 91
        1
 62
     0
 92
       -2
340
14
 93
        0
 40
0.045
309
GRIDFORMAT_END
 95
       32
302
GRIDFORMAT
  1
GRIDFORMAT_BEGIN
 90
        0
 91
        1
 62
     0
 92
       -2
340
14
 93
        0
 40
0.045
309
GRIDFORMAT_END
309
TABLEFORMAT_END
  1
CELLSTYLE_BEGIN
 90
        1
 91
        1
300
_TITLE
309
CELLSTYLE_END
300
CELLSTYLE
  1
TABLEFORMAT_BEGIN
 90
        5
170
     1
 91
        0
 92
        0
 62
   257
 93
        1
300
CONTENTFORMAT
  1
CONTENTFORMAT_BEGIN
 90
        0
 91
        0
 92
        4
 93
        0
300

 40
0.0
140
1.0
 94
        5
 62
     0
340
11
144
0.18
309
CONTENTFORMAT_END
171
     1
301
MARGIN
  1
CELLMARGIN_BEGIN
 40
0.06
 40
0.06
 40
0.06
 40
0.06
 40
0.18
 40
0.18
309
CELLMARGIN_END
 94
        6
 95
        1
302
GRIDFORMAT
  1
GRIDFORMAT_BEGIN
 90
        0
 91
        1
 62
     0
 92
       -2
340
14
 93
        0
 40
0.045
309
GRIDFORMAT_END
 95
        2
302
GRIDFORMAT
  1
GRIDFORMAT_BEGIN
 90
        0
 91
        1
 62
     0
 92
       -2
340
14
 93
        0
 40
0.045
309
GRIDFORMAT_END
 95
        4
302
GRIDFORMAT
  1
GRIDFORMAT_BEGIN
 90
        0
 91
        1
 62
     0
 92
       -2
340
14
 93
        0
 40
0.045
309
GRIDFORMAT_END
 95
        8
302
GRIDFORMAT
  1
GRIDFORMAT_BEGIN
 90
        0
 91
        1
 62
     0
 92
       -2
340
14
 93
        0
 40
0.045
309
GRIDFORMAT_END
 95
       16
302
GRIDFORMAT
  1
GRIDFORMAT_BEGIN
 90
        0
 91
        1
 62
     0
 92
       -2
340
14
 93
        0
 40
0.045
309
GRIDFORMAT_END
 95
       32
302
GRIDFORMAT
  1
GRIDFORMAT_BEGIN
 90
        0
 91
        1
 62
     0
 92
       -2
340
14
 93
        0
 40
0.045
309
GRIDFORMAT_END
309
TABLEFORMAT_END
  1
CELLSTYLE_BEGIN
 90
        2
 91
        1
300
_HEADER
309
CELLSTYLE_END
300
CELLSTYLE
  1
TABLEFORMAT_BEGIN
 90
        5
170
     1
 91
        0
 92
        0
 62
   257
 93
        1
300
CONTENTFORMAT
  1
CONTENTFORMAT_BEGIN
 90
        0
 91
        0
 92
        4
 93
        0
300

 40
0.0
140
1.0
 94
        2
 62
     0
340
11
144
0.18
309
CONTENTFORMAT_END
171
     1
301
MARGIN
  1
CELLMARGIN_BEGIN
 40
0.06
 40
0.06
 40
0.06
 40
0.06
 40
0.18
 40
0.18
309
CELLMARGIN_END
 94
        6
 95
        1
302
GRIDFORMAT
  1
GRIDFORMAT_BEGIN
 90
        0
 91
        1
 62
     0
 92
       -2
340
14
 93
        0
 40
0.045
309
GRIDFORMAT_END
 95
        2
302
GRIDFORMAT
  1
GRIDFORMAT_BEGIN
 90
        0
 91
        1
 62
     0
 92
       -2
340
14
 93
        0
 40
0.045
309
GRIDFORMAT_END
 95
        4
302
GRIDFORMAT
  1
GRIDFORMAT_BEGIN
 90
        0
 91
        1
 62
     0
 92
       -2
340
14
 93
        0
 40
0.045
309
GRIDFORMAT_END
 95
        8
302
GRIDFORMAT
  1
GRIDFORMAT_BEGIN
 90
        0
 91
        1
 62
     0
 92
       -2
340
14
 93
        0
 40
0.045
309
GRIDFORMAT_END
 95
       16
302
GRIDFORMAT
  1
GRIDFORMAT_BEGIN
 90
        0
 91
        1
 62
     0
 92
       -2
340
14
 93
        0
 40
0.045
309
GRIDFORMAT_END
 95
       32
302
GRIDFORMAT
  1
GRIDFORMAT_BEGIN
 90
        0
 91
        1
 62
     0
 92
       -2
340
14
 93
        0
 40
0.045
309
GRIDFORMAT_END
309
TABLEFORMAT_END
  1
CELLSTYLE_BEGIN
 90
        3
 91
        2
300
_DATA
309
CELLSTYLE_END
  0
ENDSEC
  0
EOF
