  0
SECTION
  2
HEADER
  9
$ACADVER
  1
AC1021
  9
$ACADMAINTVER
 70
    25
  9
$DWGCODEPAGE
  3
UNDEFINED
  9
$INSBASE
 10
0.0
 20
0.0
 30
0.0
  9
$EXTMIN
 10
1.000000000000000E+20
 20
1.000000000000000E+20
 30
1.000000000000000E+20
  9
$EXTMAX
 10
-1.000000000000000E+20
 20
-1.000000000000000E+20
 30
-1.000000000000000E+20
  9
$LIMMIN
 10
0.0
 20
0.0
  9
$LIMMAX
 10
12.0
 20
9.0
  9
$ORTHOMODE
 70
     0
  9
$REGENMODE
 70
     1
  9
$FILLMODE
 70
     1
  9
$QTEXTMODE
 70
     0
  9
$MIRRTEXT
 70
     1
  9
$LTSCALE
 40
1.0
  9
$ATTMODE
 70
     1
  9
$TEXTSIZE
 40
0.2
  9
$TRACEWID
 40
0.05
  9
$TEXTSTYLE
  7
Standard
  9
$CLAYER
  8
0
  9
$CELTYPE
  6
ByLayer
  9
$CECOLOR
 62
   256
  9
$CELTSCALE
 40
1.0
  9
$DISPSILH
 70
     0
  9
$DIMSCALE
 40
1.0
  9
$DIMASZ
 40
0.18
  9
$DIMEXO
 40
0.0625
  9
$DIMDLI
 40
0.38
  9
$DIMRND
 40
0.0
  9
$DIMDLE
 40
0.0
  9
$DIMEXE
 40
0.18
  9
$DIMTP
 40
0.0
  9
$DIMTM
 40
0.0
  9
$DIMTXT
 40
0.18
  9
$DIMCEN
 40
0.09
  9
$DIMTSZ
 40
0.0
  9
$DIMTOL
 70
     0
  9
$DIMLIM
 70
     0
  9
$DIMTIH
 70
     1
  9
$DIMTOH
 70
     1
  9
$DIMSE1
 70
     0
  9
$DIMSE2
 70
     0
  9
$DIMTAD
 70
     0
  9
$DIMZIN
 70
     0
  9
$DIMBLK
  1

  9
$DIMASO
 70
     1
  9
$DIMSHO
 70
     1
  9
$DIMPOST
  1

  9
$DIMAPOST
  1

  9
$DIMALT
 70
     0
  9
$DIMALTD
 70
     2
  9
$DIMALTF
 40
25.4
  9
$DIMLFAC
 40
1.0
  9
$DIMTOFL
 70
     0
  9
$DIMTVP
 40
0.0
  9
$DIMTIX
 70
     0
  9
$DIMSOXD
 70
     0
  9
$DIMSAH
 70
     0
  9
$DIMBLK1
  1

  9
$DIMBLK2
  1

  9
$DIMSTYLE
  2
Standard
  9
$DIMCLRD
 70
     0
  9
$DIMCLRE
 70
     0
  9
$DIMCLRT
 70
     0
  9
$DIMTFAC
 40
1.0
  9
$DIMGAP
 40
0.09
  9
$DIMJUST
 70
     0
  9
$DIMSD1
 70
     0
  9
$DIMSD2
 70
     0
  9
$DIMTOLJ
 70
     1
  9
$DIMTZIN
 70
     0
  9
$DIMALTZ
 70
     0
  9
$DIMALTTZ
 70
     0
  9
$DIMUPT
 70
     0
  9
$DIMDEC
 70
     4
  9
$DIMTDEC
 70
     4
  9
$DIMALTU
 70
     2
  9
$DIMALTTD
 70
     2
  9
$DIMTXSTY
  7
Standard
  9
$DIMAUNIT
 70
     0
  9
$DIMADEC
 70
     0
  9
$DIMALTRND
 40
0.0
  9
$DIMAZIN
 70
     0
  9
$DIMDSEP
 70
    46
  9
$DIMATFIT
 70
     3
  9
$DIMFRAC
 70
     0
  9
$DIMLDRBLK
  1

  9
$DIMLUNIT
 70
     2
  9
$DIMLWD
 70
    -2
  9
$DIMLWE
 70
    -2
  9
$DIMTMOVE
 70
     0
  9
$DIMFXL
 40
1.0
  9
$DIMFXLON
 70
     0
  9
$DIMJOGANG
 40
0.7853981633974483
  9
$DIMTFILL
 70
     0
  9
$DIMTFILLCLR
 70
     0
  9
$DIMARCSYM
 70
     0
  9
$DIMLTYPE
  6

  9
$DIMLTEX1
  6

  9
$DIMLTEX2
  6

  9
$LUNITS
 70
     2
  9
$LUPREC
 70
     4
  9
$SKETCHINC
 40
0.1
  9
$FILLETRAD
 40
0.5
  9
$AUNITS
 70
     0
  9
$AUPREC
 70
     0
  9
$MENU
  1
.
  9
$ELEVATION
 40
0.0
  9
$PELEVATION
 40
0.0
  9
$THICKNESS
 40
0.0
  9
$LIMCHECK
 70
     0
  9
$CHAMFERA
 40
0.5
  9
$CHAMFERB
 40
0.5
  9
$CHAMFERC
 40
1.0
  9
$CHAMFERD
 40
0.0
  9
$SKPOLY
 70
     0
  9
$TDCREATE
 40
2459538.325046285
  9
$TDUCREATE
 40
2459538.28337963
  9
$TDUPDATE
 40
2459538.325046285
  9
$TDUUPDATE
 40
2459538.28337963
  9
$TDINDWG
 40
0.0000000116
  9
$TDUSRTIMER
 40
0.0000000116
  9
$USRTIMER
 70
     1
  9
$ANGBASE
 50
0.0
  9
$ANGDIR
 70
     0
  9
$PDMODE
 70
     0
  9
$PDSIZE
 40
0.0
  9
$PLINEWID
 40
0.0
  9
$SPLFRAME
 70
     0
  9
$SPLINETYPE
 70
     6
  9
$SPLINESEGS
 70
     8
  9
$HANDSEED
  5
171
  9
$SURFTAB1
 70
     6
  9
$SURFTAB2
 70
     6
  9
$SURFTYPE
 70
     6
  9
$SURFU
 70
     6
  9
$SURFV
 70
     6
  9
$UCSBASE
  2

  9
$UCSNAME
  2

  9
$UCSORG
 10
0.0
 20
0.0
 30
0.0
  9
$UCSXDIR
 10
1.0
 20
0.0
 30
0.0
  9
$UCSYDIR
 10
0.0
 20
1.0
 30
0.0
  9
$UCSORTHOREF
  2

  9
$UCSORTHOVIEW
 70
     0
  9
$UCSORGTOP
 10
0.0
 20
0.0
 30
0.0
  9
$UCSORGBOTTOM
 10
0.0
 20
0.0
 30
0.0
  9
$UCSORGLEFT
 10
0.0
 20
0.0
 30
0.0
  9
$UCSORGRIGHT
 10
0.0
 20
0.0
 30
0.0
  9
$UCSORGFRONT
 10
0.0
 20
0.0
 30
0.0
  9
$UCSORGBACK
 10
0.0
 20
0.0
 30
0.0
  9
$PUCSBASE
  2

  9
$PUCSNAME
  2

  9
$PUCSORG
 10
0.0
 20
0.0
 30
0.0
  9
$PUCSXDIR
 10
1.0
 20
0.0
 30
0.0
  9
$PUCSYDIR
 10
0.0
 20
1.0
 30
0.0
  9
$PUCSORTHOREF
  2

  9
$PUCSORTHOVIEW
 70
     0
  9
$PUCSORGTOP
 10
0.0
 20
0.0
 30
0.0
  9
$PUCSORGBOTTOM
 10
0.0
 20
0.0
 30
0.0
  9
$PUCSORGLEFT
 10
0.0
 20
0.0
 30
0.0
  9
$PUCSORGRIGHT
 10
0.0
 20
0.0
 30
0.0
  9
$PUCSORGFRONT
 10
0.0
 20
0.0
 30
0.0
  9
$PUCSORGBACK
 10
0.0
 20
0.0
 30
0.0
  9
$USERI1
 70
     0
  9
$USERI2
 70
     0
  9
$USERI3
 70
     0
  9
$USERI4
 70
     0
  9
$USERI5
 70
     0
  9
$USERR1
 40
0.0
  9
$USERR2
 40
0.0
  9
$USERR3
 40
0.0
  9
$USERR4
 40
0.0
  9
$USERR5
 40
0.0
  9
$WORLDVIEW
 70
     1
  9
$SHADEDGE
 70
     3
  9
$SHADEDIF
 70
    70
  9
$TILEMODE
 70
     1
  9
$MAXACTVP
 70
    64
  9
$PINSBASE
 10
0.0
 20
0.0
 30
0.0
  9
$PLIMCHECK
 70
     0
  9
$PEXTMIN
 10
1.000000000000000E+20
 20
1.000000000000000E+20
 30
1.000000000000000E+20
  9
$PEXTMAX
 10
-1.000000000000000E+20
 20
-1.000000000000000E+20
 30
-1.000000000000000E+20
  9
$PLIMMIN
 10
0.0
 20
0.0
  9
$PLIMMAX
 10
12.0
 20
9.0
  9
$UNITMODE
 70
     0
  9
$VISRETAIN
 70
     1
  9
$PLINEGEN
 70
     0
  9
$PSLTSCALE
 70
     1
  9
$TREEDEPTH
 70
  3020
  9
$CMLSTYLE
  2
Standard
  9
$CMLJUST
 70
     0
  9
$CMLSCALE
 40
1.0
  9
$PROXYGRAPHICS
 70
     1
  9
$MEASUREMENT
 70
     0
  9
$CELWEIGHT
370
    -1
  9
$ENDCAPS
280
     0
  9
$JOINSTYLE
280
     0
  9
$LWDISPLAY
290
     1
  9
$INSUNITS
 70
     1
  9
$HYPERLINKBASE
  1

  9
$STYLESHEET
  1

  9
$XEDIT
290
     1
  9
$CEPSNTYPE
380
     0
  9
$PSTYLEMODE
290
     1
  9
$FINGERPRINTGUID
  2
{0FFA89A9-94B2-398D-B9EF-2DC8A693F400}
  9
$VERSIONGUID
  2
{FAEB1C32-E019-11D5-929B-00C0DF256EC4}
  9
$EXTNAMES
290
     1
  9
$PSVPSCALE
 40
0.0
  9
$OLESTARTUP
290
     0
  9
$SORTENTS
280
   127
  9
$INDEXCTL
280
     0
  9
$HIDETEXT
280
     1
  9
$XCLIPFRAME
290
     0
  9
$HALOGAP
280
     0
  9
$OBSCOLOR
 70
   257
  9
$OBSLTYPE
280
     0
  9
$INTERSECTIONDISPLAY
280
     0
  9
$INTERSECTIONCOLOR
 70
   257
  9
$DIMASSOC
280
     2
  9
$PROJECTNAME
  1

  9
$CAMERADISPLAY
290
     0
  9
$LENSLENGTH
 40
50.0
  9
$CAMERAHEIGHT
 40
0.0
  9
$STEPSPERSEC
 40
2.0
  9
$STEPSIZE
 40
6.0
  9
$3DDWFPREC
 40
2.0
  9
$PSOLWIDTH
 40
0.25
  9
$PSOLHEIGHT
 40
4.0
  9
$LOFTANG1
 40
1.570796326794897
  9
$LOFTANG2
 40
1.570796326794897
  9
$LOFTMAG1
 40
0.0
  9
$LOFTMAG2
 40
0.0
  9
$LOFTPARAM
 70
     7
  9
$LOFTNORMALS
280
     1
  9
$LATITUDE
 40
37.795
  9
$LONGITUDE
 40
-122.394
  9
$NORTHDIRECTION
 40
0.0
  9
$TIMEZONE
 70
 -8000
  9
$LIGHTGLYPHDISPLAY
280
     1
  9
$TILEMODELIGHTSYNCH
280
     1
  9
$CMATERIAL
347
3C
  9
$SOLIDHIST
280
     1
  9
$SHOWHIST
280
     1
  9
$DWFFRAME
280
     2
  9
$DGNFRAME
280
     2
  9
$REALWORLDSCALE
290
     1
  9
$INTERFERECOLOR
 62
   256
  9
$CSHADOW
280
     0
  9
$SHADOWPLANELOCATION
 40
0.0
  0
ENDSEC
  0
SECTION
  2
CLASSES
  0
CLASS
  1
ACDBDICTIONARYWDFLT
  2
AcDbDictionaryWithDefault
  3
ObjectDBX Classes
 90
        0
 91
        4
280
     0
281
     0
  0
CLASS
  1
VISUALSTYLE
  2
AcDbVisualStyle
  3
ObjectDBX Classes
 90
     4095
 91
        4
280
     0
281
     0
  0
CLASS
  1
MATERIAL
  2
AcDbMaterial
  3
ObjectDBX Classes
 90
     1153
 91
        4
280
     0
281
     0
  0
CLASS
  1
SUN
  2
AcDbSun
  3
SCENEOE
 90
     1024
 91
        4
280
     0
281
     0
  0
ENDSEC
  0
SECTION
  2
TABLES
  0
TABLE
  2
VPORT
  5
8
330
0
100
AcDbSymbolTable
 70
     1
  0
VPORT
  5
29
330
8
100
AcDbSymbolTableRecord
100
AcDbViewportTableRecord
  2
*Active
 70
     0
 10
0.0
 20
0.0
 11
1.0
 21
1.0
 12
0.0
 22
0.0
 13
0.0
 23
0.0
 14
0.5
 24
0.5
 15
0.5
 25
0.5
 16
0.0
 26
0.0
 36
1.0
 17
105.0007777515277
 27
148.5000416295417
 37
0.0
 40
297.0000832590835
 41
0.7070757462376325
 42
50.0
 43
0.0
 44
0.0
 50
0.0
 51
0.0
 71
     0
 72
   100
 73
     1
 74
     3
 75
     0
 76
     0
 77
     0
 78
     0
281
     0
 65
     1
110
0.0
120
0.0
130
0.0
111
1.0
121
0.0
131
0.0
112
0.0
122
1.0
132
0.0
 79
     0
146
0.0
 60
     3
 61
     5
292
     1
282
     1
141
0.0
142
0.0
 63
   250
361
3F
  0
ENDTAB
  0
TABLE
  2
LTYPE
  5
5
330
0
100
AcDbSymbolTable
 70
    21
  0
LTYPE
  5
14
330
5
100
AcDbSymbolTableRecord
100
AcDbLinetypeTableRecord
  2
ByBlock
 70
     0
  3

 72
    65
 73
     0
 40
0.0
  0
LTYPE
  5
15
330
5
100
AcDbSymbolTableRecord
100
AcDbLinetypeTableRecord
  2
ByLayer
 70
     0
  3

 72
    65
 73
     0
 40
0.0
  0
LTYPE
  5
16
330
5
100
AcDbSymbolTableRecord
100
AcDbLinetypeTableRecord
  2
Continuous
 70
     0
  3
Solid line
 72
    65
 73
     0
 40
0.0
  0
LTYPE
  5
A4
330
5
100
AcDbSymbolTableRecord
100
AcDbLinetypeTableRecord
  2
AI-Linetype-1
 70
     0
  3
Adobe Illustrator Linetype No. 1
 72
    65
 73
     2
 40
7.270862246391072
 49
3.635375106750391
 74
     0
 49
-3.635487139640682
 74
     0
  0
LTYPE
  5
AA
330
5
100
AcDbSymbolTableRecord
100
AcDbLinetypeTableRecord
  2
AI-Linetype-2
 70
     0
  3
Adobe Illustrator Linetype No. 2
 72
    65
 73
     2
 40
7.270862246391072
 49
3.635375106750391
 74
     0
 49
-3.635487139640682
 74
     0
  0
LTYPE
  5
B0
330
5
100
AcDbSymbolTableRecord
100
AcDbLinetypeTableRecord
  2
AI-Linetype-3
 70
     0
  3
Adobe Illustrator Linetype No. 3
 72
    65
 73
     2
 40
7.270862246391072
 49
3.635375106750391
 74
     0
 49
-3.635487139640682
 74
     0
  0
LTYPE
  5
B6
330
5
100
AcDbSymbolTableRecord
100
AcDbLinetypeTableRecord
  2
AI-Linetype-4
 70
     0
  3
Adobe Illustrator Linetype No. 4
 72
    65
 73
     2
 40
7.270862246391072
 49
3.635375106750391
 74
     0
 49
-3.635487139640682
 74
     0
  0
LTYPE
  5
BC
330
5
100
AcDbSymbolTableRecord
100
AcDbLinetypeTableRecord
  2
AI-Linetype-5
 70
     0
  3
Adobe Illustrator Linetype No. 5
 72
    65
 73
     2
 40
7.270862246391072
 49
3.635375106750391
 74
     0
 49
-3.635487139640682
 74
     0
  0
LTYPE
  5
C2
330
5
100
AcDbSymbolTableRecord
100
AcDbLinetypeTableRecord
  2
AI-Linetype-6
 70
     0
  3
Adobe Illustrator Linetype No. 6
 72
    65
 73
     2
 40
7.270862246391072
 49
3.635375106750391
 74
     0
 49
-3.635487139640682
 74
     0
  0
LTYPE
  5
C8
330
5
100
AcDbSymbolTableRecord
100
AcDbLinetypeTableRecord
  2
AI-Linetype-7
 70
     0
  3
Adobe Illustrator Linetype No. 7
 72
    65
 73
     2
 40
7.270862246391072
 49
3.635375106750391
 74
     0
 49
-3.635487139640682
 74
     0
  0
LTYPE
  5
CE
330
5
100
AcDbSymbolTableRecord
100
AcDbLinetypeTableRecord
  2
AI-Linetype-8
 70
     0
  3
Adobe Illustrator Linetype No. 8
 72
    65
 73
     2
 40
7.270862246391072
 49
3.635375106750391
 74
     0
 49
-3.635487139640682
 74
     0
  0
LTYPE
  5
D4
330
5
100
AcDbSymbolTableRecord
100
AcDbLinetypeTableRecord
  2
AI-Linetype-9
 70
     0
  3
Adobe Illustrator Linetype No. 9
 72
    65
 73
     2
 40
7.270862246391072
 49
3.635375106750391
 74
     0
 49
-3.635487139640682
 74
     0
  0
LTYPE
  5
DA
330
5
100
AcDbSymbolTableRecord
100
AcDbLinetypeTableRecord
  2
AI-Linetype-10
 70
     0
  3
Adobe Illustrator Linetype No. 10
 72
    65
 73
     2
 40
7.270862246391072
 49
3.635375106750391
 74
     0
 49
-3.635487139640682
 74
     0
  0
LTYPE
  5
E0
330
5
100
AcDbSymbolTableRecord
100
AcDbLinetypeTableRecord
  2
AI-Linetype-11
 70
     0
  3
Adobe Illustrator Linetype No. 11
 72
    65
 73
     2
 40
7.270862246391072
 49
3.635375106750391
 74
     0
 49
-3.635487139640682
 74
     0
  0
LTYPE
  5
E6
330
5
100
AcDbSymbolTableRecord
100
AcDbLinetypeTableRecord
  2
AI-Linetype-12
 70
     0
  3
Adobe Illustrator Linetype No. 12
 72
    65
 73
     2
 40
7.270862246391072
 49
3.635375106750391
 74
     0
 49
-3.635487139640682
 74
     0
  0
LTYPE
  5
100
330
5
100
AcDbSymbolTableRecord
100
AcDbLinetypeTableRecord
  2
AI-Linetype-13
 70
     0
  3
Adobe Illustrator Linetype No. 13
 72
    65
 73
     2
 40
7.270862246391072
 49
3.635375106750391
 74
     0
 49
-3.635487139640682
 74
     0
  0
LTYPE
  5
106
330
5
100
AcDbSymbolTableRecord
100
AcDbLinetypeTableRecord
  2
AI-Linetype-14
 70
     0
  3
Adobe Illustrator Linetype No. 14
 72
    65
 73
     2
 40
7.270862246391072
 49
3.635375106750391
 74
     0
 49
-3.635487139640682
 74
     0
  0
LTYPE
  5
10C
330
5
100
AcDbSymbolTableRecord
100
AcDbLinetypeTableRecord
  2
AI-Linetype-15
 70
     0
  3
Adobe Illustrator Linetype No. 15
 72
    65
 73
     2
 40
7.270862246391072
 49
3.635375106750391
 74
     0
 49
-3.635487139640682
 74
     0
  0
LTYPE
  5
112
330
5
100
AcDbSymbolTableRecord
100
AcDbLinetypeTableRecord
  2
AI-Linetype-16
 70
     0
  3
Adobe Illustrator Linetype No. 16
 72
    65
 73
     2
 40
7.270862246391072
 49
3.635375106750391
 74
     0
 49
-3.635487139640682
 74
     0
  0
LTYPE
  5
126
330
5
100
AcDbSymbolTableRecord
100
AcDbLinetypeTableRecord
  2
AI-Linetype-17
 70
     0
  3
Adobe Illustrator Linetype No. 17
 72
    65
 73
     2
 40
7.14825351854273
 49
3.574126759271365
 74
     0
 49
-3.574126759271365
 74
     0
  0
LTYPE
  5
12B
330
5
100
AcDbSymbolTableRecord
100
AcDbLinetypeTableRecord
  2
AI-Linetype-18
 70
     0
  3
Adobe Illustrator Linetype No. 18
 72
    65
 73
     4
 40
32.16729895794209
 49
21.444918680128
 74
     0
 49
-3.574126759271365
 74
     0
 49
3.574126759271365
 74
     0
 49
-3.574126759271365
 74
     0
  0
LTYPE
  5
144
330
5
100
AcDbSymbolTableRecord
100
AcDbLinetypeTableRecord
  2
AI-Linetype-19
 70
     0
  3
Adobe Illustrator Linetype No. 19
 72
    65
 73
     2
 40
7.148238715398067
 49
3.574119357699034
 74
     0
 49
-3.574119357699034
 74
     0
  0
LTYPE
  5
149
330
5
100
AcDbSymbolTableRecord
100
AcDbLinetypeTableRecord
  2
AI-Linetype-20
 70
     0
  3
Adobe Illustrator Linetype No. 20
 72
    65
 73
     4
 40
32.16723368953154
 49
21.44487561643444
 74
     0
 49
-3.574119357699034
 74
     0
 49
3.574119357699034
 74
     0
 49
-3.574119357699034
 74
     0
  0
ENDTAB
  0
TABLE
  2
LAYER
  5
2
330
0
100
AcDbSymbolTable
 70
     1
  0
LAYER
  5
10
330
2
100
AcDbSymbolTableRecord
100
AcDbLayerTableRecord
  2
0
 70
     0
 62
     7
  6
Continuous
370
    -3
390
F
347
3E
  0
ENDTAB
  0
TABLE
  2
STYLE
  5
3
330
0
100
AcDbSymbolTable
 70
     1
  0
STYLE
  5
11
330
3
100
AcDbSymbolTableRecord
100
AcDbTextStyleTableRecord
  2
Standard
 70
     0
 40
0.0
 41
1.0
 50
0.0
 71
     0
 42
0.2
  3
txt
  4

  0
ENDTAB
  0
TABLE
  2
VIEW
  5
6
330
0
100
AcDbSymbolTable
 70
     0
  0
ENDTAB
  0
TABLE
  2
UCS
  5
7
330
0
100
AcDbSymbolTable
 70
     0
  0
ENDTAB
  0
TABLE
  2
APPID
  5
9
330
0
100
AcDbSymbolTable
 70
     1
  0
APPID
  5
12
330
9
100
AcDbSymbolTableRecord
100
AcDbRegAppTableRecord
  2
ACAD
 70
     0
  0
ENDTAB
  0
TABLE
  2
DIMSTYLE
  5
A
330
0
100
AcDbSymbolTable
 70
     1
100
AcDbDimStyleTable
  0
DIMSTYLE
105
27
330
A
100
AcDbSymbolTableRecord
100
AcDbDimStyleTableRecord
  2
Standard
 70
     0
178
     0
340
11
  0
ENDTAB
  0
TABLE
  2
BLOCK_RECORD
  5
1
330
0
100
AcDbSymbolTable
 70
    46
  0
BLOCK_RECORD
  5
1F
330
1
100
AcDbSymbolTableRecord
100
AcDbBlockTableRecord
  2
*Model_Space
340
22
 70
     0
280
     1
281
     0
  0
BLOCK_RECORD
  5
1B
330
1
100
AcDbSymbolTableRecord
100
AcDbBlockTableRecord
  2
*Paper_Space
340
1E
 70
     0
280
     1
281
     0
  0
BLOCK_RECORD
  5
23
330
1
100
AcDbSymbolTableRecord
100
AcDbBlockTableRecord
  2
*Paper_Space0
340
26
 70
     0
280
     1
281
     0
  0
BLOCK_RECORD
  5
40
330
1
100
AcDbSymbolTableRecord
100
AcDbBlockTableRecord
  2
block 2
340
0
102
{BLKREFS
331
41
102
}
 70
     0
280
     1
281
     0
  0
BLOCK_RECORD
  5
45
330
1
100
AcDbSymbolTableRecord
100
AcDbBlockTableRecord
  2
block 3
340
0
102
{BLKREFS
331
46
102
}
 70
     0
280
     1
281
     0
  0
BLOCK_RECORD
  5
4A
330
1
100
AcDbSymbolTableRecord
100
AcDbBlockTableRecord
  2
block 4
340
0
102
{BLKREFS
331
4B
102
}
 70
     0
280
     1
281
     0
  0
BLOCK_RECORD
  5
4F
330
1
100
AcDbSymbolTableRecord
100
AcDbBlockTableRecord
  2
block 5
340
0
102
{BLKREFS
331
50
102
}
 70
     0
280
     1
281
     0
  0
BLOCK_RECORD
  5
54
330
1
100
AcDbSymbolTableRecord
100
AcDbBlockTableRecord
  2
block 6
340
0
102
{BLKREFS
331
55
102
}
 70
     0
280
     1
281
     0
  0
BLOCK_RECORD
  5
59
330
1
100
AcDbSymbolTableRecord
100
AcDbBlockTableRecord
  2
block 7
340
0
102
{BLKREFS
331
5A
102
}
 70
     0
280
     1
281
     0
  0
BLOCK_RECORD
  5
5E
330
1
100
AcDbSymbolTableRecord
100
AcDbBlockTableRecord
  2
block 8
340
0
102
{BLKREFS
331
5F
102
}
 70
     0
280
     1
281
     0
  0
BLOCK_RECORD
  5
63
330
1
100
AcDbSymbolTableRecord
100
AcDbBlockTableRecord
  2
block 9
340
0
102
{BLKREFS
331
64
102
}
 70
     0
280
     1
281
     0
  0
BLOCK_RECORD
  5
68
330
1
100
AcDbSymbolTableRecord
100
AcDbBlockTableRecord
  2
block 10
340
0
102
{BLKREFS
331
69
102
}
 70
     0
280
     1
281
     0
  0
BLOCK_RECORD
  5
6D
330
1
100
AcDbSymbolTableRecord
100
AcDbBlockTableRecord
  2
block 11
340
0
102
{BLKREFS
331
6E
102
}
 70
     0
280
     1
281
     0
  0
BLOCK_RECORD
  5
72
330
1
100
AcDbSymbolTableRecord
100
AcDbBlockTableRecord
  2
block 12
340
0
102
{BLKREFS
331
73
102
}
 70
     0
280
     1
281
     0
  0
BLOCK_RECORD
  5
77
330
1
100
AcDbSymbolTableRecord
100
AcDbBlockTableRecord
  2
block 13
340
0
102
{BLKREFS
331
78
102
}
 70
     0
280
     1
281
     0
  0
BLOCK_RECORD
  5
7C
330
1
100
AcDbSymbolTableRecord
100
AcDbBlockTableRecord
  2
block 14
340
0
102
{BLKREFS
331
7D
102
}
 70
     0
280
     1
281
     0
  0
BLOCK_RECORD
  5
81
330
1
100
AcDbSymbolTableRecord
100
AcDbBlockTableRecord
  2
block 15
340
0
102
{BLKREFS
331
82
102
}
 70
     0
280
     1
281
     0
  0
BLOCK_RECORD
  5
86
330
1
100
AcDbSymbolTableRecord
100
AcDbBlockTableRecord
  2
block 16
340
0
102
{BLKREFS
331
87
102
}
 70
     0
280
     1
281
     0
  0
BLOCK_RECORD
  5
8B
330
1
100
AcDbSymbolTableRecord
100
AcDbBlockTableRecord
  2
block 17
340
0
102
{BLKREFS
331
8C
102
}
 70
     0
280
     1
281
     0
  0
BLOCK_RECORD
  5
90
330
1
100
AcDbSymbolTableRecord
100
AcDbBlockTableRecord
  2
block 18
340
0
102
{BLKREFS
331
91
102
}
 70
     0
280
     1
281
     0
  0
BLOCK_RECORD
  5
95
330
1
100
AcDbSymbolTableRecord
100
AcDbBlockTableRecord
  2
block 19
340
0
102
{BLKREFS
331
96
102
}
 70
     0
280
     1
281
     0
  0
BLOCK_RECORD
  5
9A
330
1
100
AcDbSymbolTableRecord
100
AcDbBlockTableRecord
  2
block 20
340
0
102
{BLKREFS
331
9B
102
}
 70
     0
280
     1
281
     0
  0
BLOCK_RECORD
  5
9F
330
1
100
AcDbSymbolTableRecord
100
AcDbBlockTableRecord
  2
block 21
340
0
102
{BLKREFS
331
A0
102
}
 70
     0
280
     1
281
     0
  0
BLOCK_RECORD
  5
A5
330
1
100
AcDbSymbolTableRecord
100
AcDbBlockTableRecord
  2
block 22
340
0
102
{BLKREFS
331
A6
102
}
 70
     0
280
     1
281
     0
  0
BLOCK_RECORD
  5
AB
330
1
100
AcDbSymbolTableRecord
100
AcDbBlockTableRecord
  2
block 23
340
0
102
{BLKREFS
331
AC
102
}
 70
     0
280
     1
281
     0
  0
BLOCK_RECORD
  5
B1
330
1
100
AcDbSymbolTableRecord
100
AcDbBlockTableRecord
  2
block 24
340
0
102
{BLKREFS
331
B2
102
}
 70
     0
280
     1
281
     0
  0
BLOCK_RECORD
  5
B7
330
1
100
AcDbSymbolTableRecord
100
AcDbBlockTableRecord
  2
block 25
340
0
102
{BLKREFS
331
B8
102
}
 70
     0
280
     1
281
     0
  0
BLOCK_RECORD
  5
BD
330
1
100
AcDbSymbolTableRecord
100
AcDbBlockTableRecord
  2
block 26
340
0
102
{BLKREFS
331
BE
102
}
 70
     0
280
     1
281
     0
  0
BLOCK_RECORD
  5
C3
330
1
100
AcDbSymbolTableRecord
100
AcDbBlockTableRecord
  2
block 27
340
0
102
{BLKREFS
331
C4
102
}
 70
     0
280
     1
281
     0
  0
BLOCK_RECORD
  5
C9
330
1
100
AcDbSymbolTableRecord
100
AcDbBlockTableRecord
  2
block 28
340
0
102
{BLKREFS
331
CA
102
}
 70
     0
280
     1
281
     0
  0
BLOCK_RECORD
  5
CF
330
1
100
AcDbSymbolTableRecord
100
AcDbBlockTableRecord
  2
block 29
340
0
102
{BLKREFS
331
D0
102
}
 70
     0
280
     1
281
     0
  0
BLOCK_RECORD
  5
D5
330
1
100
AcDbSymbolTableRecord
100
AcDbBlockTableRecord
  2
block 30
340
0
102
{BLKREFS
331
D6
102
}
 70
     0
280
     1
281
     0
  0
BLOCK_RECORD
  5
DB
330
1
100
AcDbSymbolTableRecord
100
AcDbBlockTableRecord
  2
block 31
340
0
102
{BLKREFS
331
DC
102
}
 70
     0
280
     1
281
     0
  0
BLOCK_RECORD
  5
E1
330
1
100
AcDbSymbolTableRecord
100
AcDbBlockTableRecord
  2
block 32
340
0
102
{BLKREFS
331
E2
102
}
 70
     0
280
     1
281
     0
  0
BLOCK_RECORD
  5
E7
330
1
100
AcDbSymbolTableRecord
100
AcDbBlockTableRecord
  2
block 33
340
0
102
{BLKREFS
331
E8
102
}
 70
     0
280
     1
281
     0
  0
BLOCK_RECORD
  5
EC
330
1
100
AcDbSymbolTableRecord
100
AcDbBlockTableRecord
  2
block 34
340
0
102
{BLKREFS
331
ED
102
}
 70
     0
280
     1
281
     0
  0
BLOCK_RECORD
  5
F1
330
1
100
AcDbSymbolTableRecord
100
AcDbBlockTableRecord
  2
block 35
340
0
102
{BLKREFS
331
F2
102
}
 70
     0
280
     1
281
     0
  0
BLOCK_RECORD
  5
F6
330
1
100
AcDbSymbolTableRecord
100
AcDbBlockTableRecord
  2
block 36
340
0
102
{BLKREFS
331
F7
102
}
 70
     0
280
     1
281
     0
  0
BLOCK_RECORD
  5
FB
330
1
100
AcDbSymbolTableRecord
100
AcDbBlockTableRecord
  2
block 37
340
0
102
{BLKREFS
331
FC
102
}
 70
     0
280
     1
281
     0
  0
BLOCK_RECORD
  5
101
330
1
100
AcDbSymbolTableRecord
100
AcDbBlockTableRecord
  2
block 38
340
0
102
{BLKREFS
331
102
102
}
 70
     0
280
     1
281
     0
  0
BLOCK_RECORD
  5
107
330
1
100
AcDbSymbolTableRecord
100
AcDbBlockTableRecord
  2
block 39
340
0
102
{BLKREFS
331
108
102
}
 70
     0
280
     1
281
     0
  0
BLOCK_RECORD
  5
10D
330
1
100
AcDbSymbolTableRecord
100
AcDbBlockTableRecord
  2
block 40
340
0
102
{BLKREFS
331
10E
102
}
 70
     0
280
     1
281
     0
  0
BLOCK_RECORD
  5
113
330
1
100
AcDbSymbolTableRecord
100
AcDbBlockTableRecord
  2
block 41
340
0
102
{BLKREFS
331
114
102
}
 70
     0
280
     1
281
     0
  0
BLOCK_RECORD
  5
117
330
1
100
AcDbSymbolTableRecord
100
AcDbBlockTableRecord
  2
block 42
340
0
102
{BLKREFS
331
118
102
}
 70
     0
280
     1
281
     0
  0
BLOCK_RECORD
  5
11B
330
1
100
AcDbSymbolTableRecord
100
AcDbBlockTableRecord
  2
block 43
340
0
102
{BLKREFS
331
11C
102
}
 70
     0
280
     1
281
     0
  0
BLOCK_RECORD
  5
131
330
1
100
AcDbSymbolTableRecord
100
AcDbBlockTableRecord
  2
block 44
340
0
102
{BLKREFS
331
132
102
}
 70
     0
280
     1
281
     0
  0
BLOCK_RECORD
  5
135
330
1
100
AcDbSymbolTableRecord
100
AcDbBlockTableRecord
  2
block 45
340
0
102
{BLKREFS
331
136
102
}
 70
     0
280
     1
281
     0
  0
BLOCK_RECORD
  5
139
330
1
100
AcDbSymbolTableRecord
100
AcDbBlockTableRecord
  2
block 46
340
0
102
{BLKREFS
331
13A
102
}
 70
     0
280
     1
281
     0
  0
ENDTAB
  0
ENDSEC
  0
SECTION
  2
BLOCKS
  0
BLOCK
  5
20
330
1F
100
AcDbEntity
  8
0
100
AcDbBlockBegin
  2
*Model_Space
 70
     0
 10
0.0
 20
0.0
 30
0.0
  3
*Model_Space
  1

  0
ENDBLK
  5
21
330
1F
100
AcDbEntity
  8
0
100
AcDbBlockEnd
  0
BLOCK
  5
1C
330
1B
100
AcDbEntity
 67
     1
  8
0
100
AcDbBlockBegin
  2
*Paper_Space
 70
     0
 10
0.0
 20
0.0
 30
0.0
  3
*Paper_Space
  1

  0
ENDBLK
  5
1D
330
1B
100
AcDbEntity
 67
     1
  8
0
100
AcDbBlockEnd
  0
BLOCK
  5
24
330
23
100
AcDbEntity
  8
0
100
AcDbBlockBegin
  2
*Paper_Space0
 70
     0
 10
0.0
 20
0.0
 30
0.0
  3
*Paper_Space0
  1

  0
ENDBLK
  5
25
330
23
100
AcDbEntity
  8
0
100
AcDbBlockEnd
  0
BLOCK
  5
42
330
40
100
AcDbEntity
  8
0
100
AcDbBlockBegin
  2
block 2
 70
     0
 10
0.0
 20
0.0
 30
0.0
  3
block 2
  1

  0
SPLINE
  5
44
330
40
100
AcDbEntity
  8
0
 62
   250
370
    25
100
AcDbSpline
210
0.0
220
0.0
230
1.0
 70
     8
 71
     3
 72
    50
 73
    46
 74
     0
 42
0.0000000001
 43
0.0000000001
 12
1.0
 22
0.0
 32
0.0
 13
1.0
 23
0.0
 33
0.0
 40
0.0
 40
0.0
 40
0.0
 40
0.0
 40
1.0
 40
1.0
 40
1.0
 40
2.0
 40
2.0
 40
2.0
 40
3.0
 40
3.0
 40
3.0
 40
4.0
 40
4.0
 40
4.0
 40
5.0
 40
5.0
 40
5.0
 40
6.0
 40
6.0
 40
6.0
 40
7.0
 40
7.0
 40
7.0
 40
8.0
 40
8.0
 40
8.0
 40
9.0
 40
9.0
 40
9.0
 40
10.0
 40
10.0
 40
10.0
 40
11.0
 40
11.0
 40
11.0
 40
12.0
 40
12.0
 40
12.0
 40
13.0
 40
13.0
 40
13.0
 40
14.0
 40
14.0
 40
14.0
 40
15.0
 40
15.0
 40
15.0
 40
15.0
 10
-785.8418174561837
 20
148.6437804798317
 30
0.0
 10
-785.8413941240395
 20
195.8307236611734
 30
0.0
 10
-781.07586116719
 20
245.3810480449715
 30
0.0
 10
-771.5666323505893
 20
291.6360239368833
 30
0.0
 10
-761.7313286837481
 20
339.4771617371154
 30
0.0
 10
-745.871736593169
 20
382.9278427244003
 30
0.0
 10
-715.5754565529985
 20
422.4755387342162
 30
0.0
 10
-685.911429403392
 20
461.1979052047195
 30
0.0
 10
-646.9960558465018
 20
489.8072595919875
 30
0.0
 10
-604.0401128865742
 20
511.3362778452978
 30
0.0
 10
-561.4028716682908
 20
532.7055218954175
 30
0.0
 10
-514.4050540181656
 20
547.2635306333552
 30
0.0
 10
-468.1025663795992
 20
557.3476852920651
 30
0.0
 10
-421.1205532874391
 20
567.5798657798066
 30
0.0
 10
-373.882421682121
 20
573.5564935860925
 30
0.0
 10
-326.0491849537214
 20
577.4479074732155
 30
0.0
 10
-278.2027542413435
 20
581.3403797013093
 30
0.0
 10
-230.3010781305531
 20
583.040004734368
 30
0.0
 10
-182.3556572599853
 20
584.6139694172348
 30
0.0
 10
-86.58673639768071
 20
587.757841809238
 30
0.0
 10
9.167050188971812
 20
589.6382667609084
 30
0.0
 10
104.9943209166069
 20
589.6362559216792
 30
0.0
 10
200.9291543639921
 20
589.6342803605042
 30
0.0
 10
296.7903625586259
 20
587.7416845049622
 30
0.0
 10
392.6666697511013
 20
584.5973182377134
 30
0.0
 10
440.6401366574277
 20
583.0239885680495
 30
0.0
 10
488.5695765797585
 20
581.3216118571027
 30
0.0
 10
536.4437711040745
 20
577.4253648881735
 30
0.0
 10
584.2950349075368
 20
573.530987654943
 30
0.0
 10
631.5498883011317
 20
567.5494914887194
 30
0.0
 10
678.54805873383
 20
557.304399250786
 30
0.0
 10
724.8463835664019
 20
547.2118131509415
 30
0.0
 10
771.812803770619
 20
532.6524285782045
 30
0.0
 10
814.4427424401052
 20
511.273941691599
 30
0.0
 10
835.9729959655115
 20
500.4767827509473
 30
0.0
 10
856.146279987732
 20
488.1430891624653
 30
0.0
 10
875.166113473867
 20
473.2898385875565
 30
0.0
 10
894.2927688410614
 20
458.3531554689328
 30
0.0
 10
911.0448951482368
 20
441.8259270366573
 30
0.0
 10
925.8384556715658
 20
422.534065135325
 30
0.0
 10
956.1235173046359
 20
383.040062294377
 30
0.0
 10
972.0194457760547
 20
339.6389469437467
 30
0.0
 10
981.8691428885456
 20
291.8424711327438
 30
0.0
 10
991.4216931368356
 20
245.4878348071838
 30
0.0
 10
996.2038773337326
 20
195.937757370467
 30
0.0
 10
996.2015842658957
 20
148.6437806398465
 30
0.0
  0
ENDBLK
  5
43
330
40
100
AcDbEntity
  8
0
100
AcDbBlockEnd
  0
BLOCK
  5
47
330
45
100
AcDbEntity
  8
0
100
AcDbBlockBegin
  2
block 3
 70
     0
 10
0.0
 20
0.0
 30
0.0
  3
block 3
  1

  0
SPLINE
  5
49
330
45
100
AcDbEntity
  8
0
 62
   250
370
    25
100
AcDbSpline
210
0.0
220
0.0
230
1.0
 70
     8
 71
     3
 72
    50
 73
    46
 74
     0
 42
0.0000000001
 43
0.0000000001
 12
1.0
 22
0.0
 32
0.0
 13
1.0
 23
0.0
 33
0.0
 40
0.0
 40
0.0
 40
0.0
 40
0.0
 40
1.0
 40
1.0
 40
1.0
 40
2.0
 40
2.0
 40
2.0
 40
3.0
 40
3.0
 40
3.0
 40
4.0
 40
4.0
 40
4.0
 40
5.0
 40
5.0
 40
5.0
 40
6.0
 40
6.0
 40
6.0
 40
7.0
 40
7.0
 40
7.0
 40
8.0
 40
8.0
 40
8.0
 40
9.0
 40
9.0
 40
9.0
 40
10.0
 40
10.0
 40
10.0
 40
11.0
 40
11.0
 40
11.0
 40
12.0
 40
12.0
 40
12.0
 40
13.0
 40
13.0
 40
13.0
 40
14.0
 40
14.0
 40
14.0
 40
15.0
 40
15.0
 40
15.0
 40
15.0
 10
996.2015842658957
 20
148.6437806398465
 30
0.0
 10
996.2038773422287
 20
101.3646206827085
 30
0.0
 10
991.4253973475965
 20
51.8414603835868
 30
0.0
 10
981.8805729966499
 20
5.500554966358638
 30
0.0
 10
972.0397659568163
 20
-42.27733053095371
 30
0.0
 10
956.1624290160851
 20
-85.66733440074886
 30
0.0
 10
925.9064012104947
 20
-125.157810441633
 30
0.0
 10
911.1068081471589
 20
-144.4744027334459
 30
0.0
 10
894.344345379563
 20
-161.0208933917463
 30
0.0
 10
875.2015679543824
 20
-175.9745809025986
 30
0.0
 10
856.1657535224175
 20
-190.8446947554649
 30
0.0
 10
835.9743013158925
 20
-203.189959853677
 30
0.0
 10
814.4230926413702
 20
-213.9962560812599
 30
0.0
 10
771.7524078486977
 20
-235.3923472535897
 30
0.0
 10
724.7373745189191
 20
-249.9575530778556
 30
0.0
 10
678.3946346457651
 20
-260.0502452750713
 30
0.0
 10
631.4066242881559
 20
-270.2834851521022
 30
0.0
 10
584.1624954173817
 20
-276.25789044236
 30
0.0
 10
536.3232261455105
 20
-280.1476109839541
 30
0.0
 10
488.461661157371
 20
-284.0391307051774
 30
0.0
 10
440.5448860488607
 20
-285.7397788011706
 30
0.0
 10
392.5842603464868
 20
-287.3124381968393
 30
0.0
 10
296.8628942713968
 20
-290.4512305522219
 30
0.0
 10
201.1564508037612
 20
-292.3418508551619
 30
0.0
 10
105.3766643072974
 20
-292.3486595239588
 30
0.0
 10
9.482153650563284
 20
-292.3555034707846
 30
0.0
 10
-86.33876703145465
 20
-290.4770893841397
 30
0.0
 10
-182.1749278234364
 20
-287.3323350585279
 30
0.0
 10
-230.1815913579433
 20
-285.7570298190842
 30
0.0
 10
-278.1445806887688
 20
-284.0576164628297
 30
0.0
 10
-326.0521835094448
 20
-280.1600994847371
 30
0.0
 10
-373.9473684628428
 20
-276.2635702915566
 30
0.0
 10
-421.2450846653887
 20
-270.276711864469
 30
0.0
 10
-468.28590623884
 20
-260.0201884947276
 30
0.0
 10
-514.5441905050366
 20
-249.9342344099433
 30
0.0
 10
-561.4935714197642
 20
-235.3794003355497
 30
0.0
 10
-604.0890434519067
 20
-214.0241611319919
 30
0.0
 10
-647.0027586113176
 20
-192.509394667455
 30
0.0
 10
-685.8818663563884
 20
-163.9257572498256
 30
0.0
 10
-715.5287483893605
 20
-125.248863189778
 30
0.0
 10
-745.8452074709754
 20
-85.69852033391615
 30
0.0
 10
-761.7173232707481
 20
-42.24046514313459
 30
0.0
 10
-771.558835879811
 20
5.613691457737679
 30
0.0
 10
-781.0733564095412
 20
51.87772604141005
 30
0.0
 10
-785.8413941155627
 20
101.4471005616537
 30
0.0
 10
-785.8418174561837
 20
148.6437804798317
 30
0.0
  0
ENDBLK
  5
48
330
45
100
AcDbEntity
  8
0
100
AcDbBlockEnd
  0
BLOCK
  5
4C
330
4A
100
AcDbEntity
  8
0
100
AcDbBlockBegin
  2
block 4
 70
     0
 10
0.0
 20
0.0
 30
0.0
  3
block 4
  1

  0
SPLINE
  5
4E
330
4A
100
AcDbEntity
  8
0
 62
   250
370
    25
100
AcDbSpline
210
0.0
220
0.0
230
1.0
 70
     8
 71
     3
 72
    11
 73
     7
 74
     0
 42
0.0000000001
 43
0.0000000001
 12
1.0
 22
0.0
 32
0.0
 13
1.0
 23
0.0
 33
0.0
 40
0.0
 40
0.0
 40
0.0
 40
0.0
 40
1.0
 40
1.0
 40
1.0
 40
2.0
 40
2.0
 40
2.0
 40
2.0
 10
105.756961451003
 20
174.6375518131562
 30
0.0
 10
119.9987735511577
 20
174.3213900910771
 30
0.0
 10
131.3343108148684
 20
162.6038622982558
 30
0.0
 10
131.17848774853
 20
148.3594396237557
 30
0.0
 10
131.0226646821787
 20
134.1117008142284
 30
0.0
 10
119.428433611426
 20
122.6435887060349
 30
0.0
 10
105.179883407182
 20
122.6435887047515
 30
0.0
  0
ENDBLK
  5
4D
330
4A
100
AcDbEntity
  8
0
100
AcDbBlockEnd
  0
BLOCK
  5
51
330
4F
100
AcDbEntity
  8
0
100
AcDbBlockBegin
  2
block 5
 70
     0
 10
0.0
 20
0.0
 30
0.0
  3
block 5
  1

  0
SPLINE
  5
53
330
4F
100
AcDbEntity
  8
0
 62
   250
370
    25
100
AcDbSpline
210
0.0
220
0.0
230
1.0
 70
     8
 71
     3
 72
    11
 73
     7
 74
     0
 42
0.0000000001
 43
0.0000000001
 12
1.0
 22
0.0
 32
0.0
 13
1.0
 23
0.0
 33
0.0
 40
0.0
 40
0.0
 40
0.0
 40
0.0
 40
1.0
 40
1.0
 40
1.0
 40
2.0
 40
2.0
 40
2.0
 40
2.0
 10
104.6027700806607
 20
122.6500093065413
 30
0.0
 10
90.36099325854757
 20
122.9662063066558
 30
0.0
 10
79.02542071680848
 20
134.6836988214481
 30
0.0
 10
79.18124378314656
 20
148.9281567739772
 30
0.0
 10
79.33706684948496
 20
163.1758603054627
 30
0.0
 10
90.93129792023804
 20
174.6439724136626
 30
0.0
 10
105.1798834025104
 20
174.6439724149396
 30
0.0
  0
ENDBLK
  5
52
330
4F
100
AcDbEntity
  8
0
100
AcDbBlockEnd
  0
BLOCK
  5
56
330
54
100
AcDbEntity
  8
0
100
AcDbBlockBegin
  2
block 6
 70
     0
 10
0.0
 20
0.0
 30
0.0
  3
block 6
  1

  0
SPLINE
  5
58
330
54
100
AcDbEntity
  8
0
 62
   250
370
    25
100
AcDbSpline
210
0.0
220
0.0
230
1.0
 70
     8
 71
     3
 72
    47
 73
    43
 74
     0
 42
0.0000000001
 43
0.0000000001
 12
1.0
 22
0.0
 32
0.0
 13
1.0
 23
0.0
 33
0.0
 40
0.0
 40
0.0
 40
0.0
 40
0.0
 40
1.0
 40
1.0
 40
1.0
 40
2.0
 40
2.0
 40
2.0
 40
3.0
 40
3.0
 40
3.0
 40
4.0
 40
4.0
 40
4.0
 40
5.0
 40
5.0
 40
5.0
 40
6.0
 40
6.0
 40
6.0
 40
7.0
 40
7.0
 40
7.0
 40
8.0
 40
8.0
 40
8.0
 40
9.0
 40
9.0
 40
9.0
 40
10.0
 40
10.0
 40
10.0
 40
11.0
 40
11.0
 40
11.0
 40
12.0
 40
12.0
 40
12.0
 40
13.0
 40
13.0
 40
13.0
 40
14.0
 40
14.0
 40
14.0
 40
14.0
 10
-795.0255005970715
 20
148.6437804790104
 30
0.0
 10
-795.025712267446
 20
173.0032616188935
 30
0.0
 10
-793.8233311028007
 20
197.2134461271864
 30
0.0
 10
-791.4095023170929
 20
221.4530525143336
 30
0.0
 10
-788.9960263117002
 20
245.6893780444954
 30
0.0
 10
-785.4715745205476
 20
269.6633491661441
 30
0.0
 10
-780.5773120223909
 20
293.5308775464007
 30
0.0
 10
-770.6149368841368
 20
342.1139476202409
 30
0.0
 10
-754.5568000291703
 20
386.3050086477459
 30
0.0
 10
-724.5762230980181
 20
426.8978163310148
 30
0.0
 10
-717.5925485935379
 20
436.3535281388994
 30
0.0
 10
-710.08845256
 20
445.2870898074439
 30
0.0
 10
-702.0029392799881
 20
453.8180938623246
 30
0.0
 10
-697.9777863779962
 20
458.0650043673488
 30
0.0
 10
-693.8348754049451
 20
462.1828325563079
 30
0.0
 10
-689.5680679832898
 20
466.1867127045918
 30
0.0
 10
-687.4361812278336
 20
468.1872240184757
 30
0.0
 10
-685.2767070512971
 20
470.1560909383949
 30
0.0
 10
-683.0889046150268
 20
472.0952537560756
 30
0.0
 10
-681.9945447824672
 20
473.0652232232537
 30
0.0
 10
-680.8935174018452
 20
474.0274315235876
 30
0.0
 10
-679.7857519171084
 20
474.9820197691735
 30
0.0
 10
-679.2316398675293
 20
475.4595079211446
 30
0.0
 10
-678.6732211691422
 20
475.9319506519854
 30
0.0
 10
-678.1185121219089
 20
476.4087339060007
 30
0.0
 10
-672.3458487211839
 20
481.3704507812773
 30
0.0
 10
-628.5440051085842
 20
512.9174849620919
 30
0.0
 10
-598.0460224599831
 20
526.0946657966375
 30
0.0
 10
-592.7880191949109
 20
528.3664770390675
 30
0.0
 10
-587.3839219907231
 20
530.2845021786391
 30
0.0
 10
-582.0730114929698
 20
532.4297535238786
 30
0.0
 10
-547.5510210829905
 20
546.3743203544556
 30
0.0
 10
-498.7109736630445
 20
563.3380113062292
 30
0.0
 10
-475.8375580465334
 20
567.4817460193683
 30
0.0
 10
-427.7380919389374
 20
576.1954174156816
 30
0.0
 10
-380.8234803258152
 20
585.7569776382594
 30
0.0
 10
-332.1945475842185
 20
589.5431924338457
 30
0.0
 10
-283.6676741893791
 20
593.3214696722058
 30
0.0
 10
-235.1071808297752
 20
594.549251026479
 30
0.0
 10
-186.4893253899977
 20
595.6129895316541
 30
0.0
 10
-89.27224131139477
 20
597.7400432056114
 30
0.0
 10
7.938916057912872
 20
598.8441045058139
 30
0.0
 10
105.1798480863901
 20
598.8458331381124
 30
0.0
  0
ENDBLK
  5
57
330
54
100
AcDbEntity
  8
0
100
AcDbBlockEnd
  0
BLOCK
  5
5B
330
59
100
AcDbEntity
  8
0
100
AcDbBlockBegin
  2
block 7
 70
     0
 10
0.0
 20
0.0
 30
0.0
  3
block 7
  1

  0
SPLINE
  5
5D
330
59
100
AcDbEntity
  8
0
 62
   250
370
    25
100
AcDbSpline
210
0.0
220
0.0
230
1.0
 70
     8
 71
     3
 72
     8
 73
     4
 74
     0
 42
0.0000000001
 43
0.0000000001
 12
1.0
 22
0.0
 32
0.0
 13
1.0
 23
0.0
 33
0.0
 40
0.0
 40
0.0
 40
0.0
 40
0.0
 40
1.0
 40
1.0
 40
1.0
 40
1.0
 10
105.179883407182
 20
122.6435887047515
 30
0.0
 10
104.9874770203083
 20
122.6435887047386
 30
0.0
 10
104.7951411895053
 20
122.6457406646695
 30
0.0
 10
104.6027700806607
 20
122.6500093065413
 30
0.0
  0
ENDBLK
  5
5C
330
59
100
AcDbEntity
  8
0
100
AcDbBlockEnd
  0
BLOCK
  5
60
330
5E
100
AcDbEntity
  8
0
100
AcDbBlockBegin
  2
block 8
 70
     0
 10
0.0
 20
0.0
 30
0.0
  3
block 8
  1

  0
SPLINE
  5
62
330
5E
100
AcDbEntity
  8
0
 62
   250
370
    25
100
AcDbSpline
210
0.0
220
0.0
230
1.0
 70
     8
 71
     3
 72
     8
 73
     4
 74
     0
 42
0.0000000001
 43
0.0000000001
 12
1.0
 22
0.0
 32
0.0
 13
1.0
 23
0.0
 33
0.0
 40
0.0
 40
0.0
 40
0.0
 40
0.0
 40
1.0
 40
1.0
 40
1.0
 40
1.0
 10
105.1798834025104
 20
174.6439724149396
 30
0.0
 10
105.3722545113551
 20
174.6439724149588
 30
0.0
 10
105.5646256202003
 20
174.6418557330506
 30
0.0
 10
105.756961451003
 20
174.6375518131562
 30
0.0
  0
ENDBLK
  5
61
330
5E
100
AcDbEntity
  8
0
100
AcDbBlockEnd
  0
BLOCK
  5
65
330
63
100
AcDbEntity
  8
0
100
AcDbBlockBegin
  2
block 9
 70
     0
 10
0.0
 20
0.0
 30
0.0
  3
block 9
  1

  0
SPLINE
  5
67
330
63
100
AcDbEntity
  8
0
 62
   250
370
    25
100
AcDbSpline
210
0.0
220
0.0
230
1.0
 70
     8
 71
     3
 72
     8
 73
     4
 74
     0
 42
0.0000000001
 43
0.0000000001
 12
1.0
 22
0.0
 32
0.0
 13
1.0
 23
0.0
 33
0.0
 40
0.0
 40
0.0
 40
0.0
 40
0.0
 40
1.0
 40
1.0
 40
1.0
 40
1.0
 10
151.1802146643046
 20
542.8227674071863
 30
0.0
 10
120.5125627770312
 20
543.0371872778954
 30
0.0
 10
89.84716868382684
 20
543.0371872751425
 30
0.0
 10
59.17955207460817
 20
542.8228026769498
 30
0.0
  0
ENDBLK
  5
66
330
63
100
AcDbEntity
  8
0
100
AcDbBlockEnd
  0
BLOCK
  5
6A
330
68
100
AcDbEntity
  8
0
100
AcDbBlockBegin
  2
block 10
 70
     0
 10
0.0
 20
0.0
 30
0.0
  3
block 10
  1

  0
SPLINE
  5
6C
330
68
100
AcDbEntity
  8
0
 62
   250
370
    25
100
AcDbSpline
210
0.0
220
0.0
230
1.0
 70
     8
 71
     3
 72
    17
 73
    13
 74
     0
 42
0.0000000001
 43
0.0000000001
 12
1.0
 22
0.0
 32
0.0
 13
1.0
 23
0.0
 33
0.0
 40
0.0
 40
0.0
 40
0.0
 40
0.0
 40
1.0
 40
1.0
 40
1.0
 40
2.0
 40
2.0
 40
2.0
 40
3.0
 40
3.0
 40
3.0
 40
4.0
 40
4.0
 40
4.0
 40
4.0
 10
55.17951713110823
 20
542.3274285628718
 30
0.0
 10
55.17951713109539
 20
542.4556642061783
 30
0.0
 10
55.54789034188904
 20
542.5265377708389
 30
0.0
 10
55.62045725383706
 20
542.5435770599113
 30
0.0
 10
55.786581506828
 20
542.5826298404245
 30
0.0
 10
55.95411688109161
 20
542.6107817093134
 30
0.0
 10
56.12278115238318
 20
542.635370497057
 30
0.0
 10
56.46018025103695
 20
542.6845127945156
 30
0.0
 10
56.79867296869025
 20
542.7171096953505
 30
0.0
 10
57.13840041745807
 20
542.7430743263245
 30
0.0
 10
57.81824337333811
 20
542.7950388662894
 30
0.0
 10
58.49794521711538
 20
542.818110698751
 30
0.0
 10
59.17955207460817
 20
542.8228026769498
 30
0.0
  0
ENDBLK
  5
6B
330
68
100
AcDbEntity
  8
0
100
AcDbBlockEnd
  0
BLOCK
  5
6F
330
6D
100
AcDbEntity
  8
0
100
AcDbBlockBegin
  2
block 11
 70
     0
 10
0.0
 20
0.0
 30
0.0
  3
block 11
  1

  0
SPLINE
  5
71
330
6D
100
AcDbEntity
  8
0
 62
   250
370
    25
100
AcDbSpline
210
0.0
220
0.0
230
1.0
 70
     8
 71
     3
 72
    17
 73
    13
 74
     0
 42
0.0000000001
 43
0.0000000001
 12
1.0
 22
0.0
 32
0.0
 13
1.0
 23
0.0
 33
0.0
 40
0.0
 40
0.0
 40
0.0
 40
0.0
 40
1.0
 40
1.0
 40
1.0
 40
2.0
 40
2.0
 40
2.0
 40
3.0
 40
3.0
 40
3.0
 40
4.0
 40
4.0
 40
4.0
 40
4.0
 10
151.1802146643046
 20
542.8227674071863
 30
0.0
 10
151.8617862437689
 20
542.8180754290954
 30
0.0
 10
152.541452809504
 20
542.7950035967756
 30
0.0
 10
153.2212957654094
 20
542.7430390569077
 30
0.0
 10
153.5610937702485
 20
542.7170744260036
 30
0.0
 10
153.8995864879011
 20
542.684406969169
 30
0.0
 10
154.2370208645843
 20
542.6352646717745
 30
0.0
 10
154.4056145798309
 20
542.6107111620986
 30
0.0
 10
154.5731499540939
 20
542.5825592932474
 30
0.0
 10
154.7392389290567
 20
542.5435065127477
 30
0.0
 10
154.8115941728181
 20
542.5265025017223
 30
0.0
 10
155.1802143298659
 20
542.4552408787889
 30
0.0
 10
155.1802143298788
 20
542.3273227377625
 30
0.0
  0
ENDBLK
  5
70
330
6D
100
AcDbEntity
  8
0
100
AcDbBlockEnd
  0
BLOCK
  5
74
330
72
100
AcDbEntity
  8
0
100
AcDbBlockBegin
  2
block 12
 70
     0
 10
0.0
 20
0.0
 30
0.0
  3
block 12
  1

  0
SPLINE
  5
76
330
72
100
AcDbEntity
  8
0
 62
   250
370
    25
100
AcDbSpline
210
0.0
220
0.0
230
1.0
 70
     8
 71
     3
 72
    17
 73
    13
 74
     0
 42
0.0000000001
 43
0.0000000001
 12
1.0
 22
0.0
 32
0.0
 13
1.0
 23
0.0
 33
0.0
 40
0.0
 40
0.0
 40
0.0
 40
0.0
 40
1.0
 40
1.0
 40
1.0
 40
2.0
 40
2.0
 40
2.0
 40
3.0
 40
3.0
 40
3.0
 40
4.0
 40
4.0
 40
4.0
 40
4.0
 10
155.1802143298788
 20
542.3273227377625
 30
0.0
 10
155.1802143298916
 20
542.2002159914515
 30
0.0
 10
154.8091599886426
 20
542.1337874587176
 30
0.0
 10
154.7373691933949
 20
542.1181592908919
 30
0.0
 10
154.5709274381183
 20
542.0818934748437
 30
0.0
 10
154.4032156737165
 20
542.0565285704118
 30
0.0
 10
154.2344455683059
 20
542.0347620251559
 30
0.0
 10
153.8969759135944
 20
541.9912289346685
 30
0.0
 10
153.5586948641405
 20
541.9641001286557
 30
0.0
 10
153.2192496396164
 20
541.943568314489
 30
0.0
 10
152.5397241860227
 20
541.9024341300837
 30
0.0
 10
151.8607279029008
 20
541.8898398728918
 30
0.0
 10
151.1802146643944
 20
541.8952021335703
 30
0.0
  0
ENDBLK
  5
75
330
72
100
AcDbEntity
  8
0
100
AcDbBlockEnd
  0
BLOCK
  5
79
330
77
100
AcDbEntity
  8
0
100
AcDbBlockBegin
  2
block 13
 70
     0
 10
0.0
 20
0.0
 30
0.0
  3
block 13
  1

  0
SPLINE
  5
7B
330
77
100
AcDbEntity
  8
0
 62
   250
370
    25
100
AcDbSpline
210
0.0
220
0.0
230
1.0
 70
     8
 71
     3
 72
    17
 73
    13
 74
     0
 42
0.0000000001
 43
0.0000000001
 12
1.0
 22
0.0
 32
0.0
 13
1.0
 23
0.0
 33
0.0
 40
0.0
 40
0.0
 40
0.0
 40
0.0
 40
1.0
 40
1.0
 40
1.0
 40
2.0
 40
2.0
 40
2.0
 40
3.0
 40
3.0
 40
3.0
 40
4.0
 40
4.0
 40
4.0
 40
4.0
 10
59.17955207469801
 20
541.8952021253116
 30
0.0
 10
58.49910939226224
 20
541.8898751425409
 30
0.0
 10
57.82025422125634
 20
541.9024693996032
 30
0.0
 10
57.1408346017363
 20
541.9435683058645
 30
0.0
 10
56.80128354312569
 20
541.9641353980032
 30
0.0
 10
56.4628613815302
 20
541.9912642039441
 30
0.0
 10
56.12525061468984
 20
542.0348325724093
 30
0.0
 10
55.9565157873148
 20
542.0565991176275
 30
0.0
 10
55.78883930092305
 20
542.0819640220265
 30
0.0
 10
55.6224328236813
 20
542.1181945600334
 30
0.0
 10
55.55043036022817
 20
542.133893283898
 30
0.0
 10
55.17951713110823
 20
542.1999337582045
 30
0.0
 10
55.17951713110823
 20
542.3274285628718
 30
0.0
  0
ENDBLK
  5
7A
330
77
100
AcDbEntity
  8
0
100
AcDbBlockEnd
  0
BLOCK
  5
7E
330
7C
100
AcDbEntity
  8
0
100
AcDbBlockBegin
  2
block 14
 70
     0
 10
0.0
 20
0.0
 30
0.0
  3
block 14
  1

  0
SPLINE
  5
80
330
7C
100
AcDbEntity
  8
0
 62
   250
370
    25
100
AcDbSpline
210
0.0
220
0.0
230
1.0
 70
     8
 71
     3
 72
     8
 73
     4
 74
     0
 42
0.0000000001
 43
0.0000000001
 12
1.0
 22
0.0
 32
0.0
 13
1.0
 23
0.0
 33
0.0
 40
0.0
 40
0.0
 40
0.0
 40
0.0
 40
1.0
 40
1.0
 40
1.0
 40
1.0
 10
59.17955207469801
 20
541.8952021253116
 30
0.0
 10
89.84738035209043
 20
542.1389027674122
 30
0.0
 10
120.5123511089094
 20
542.1389027701593
 30
0.0
 10
151.1802146643944
 20
541.8952021335703
 30
0.0
  0
ENDBLK
  5
7F
330
7C
100
AcDbEntity
  8
0
100
AcDbBlockEnd
  0
BLOCK
  5
83
330
81
100
AcDbEntity
  8
0
100
AcDbBlockBegin
  2
block 15
 70
     0
 10
0.0
 20
0.0
 30
0.0
  3
block 15
  1

  0
SPLINE
  5
85
330
81
100
AcDbEntity
  8
0
 62
   250
370
    25
100
AcDbSpline
210
0.0
220
0.0
230
1.0
 70
     8
 71
     3
 72
   152
 73
   148
 74
     0
 42
0.0000000001
 43
0.0000000001
 12
1.0
 22
0.0
 32
0.0
 13
1.0
 23
0.0
 33
0.0
 40
0.0
 40
0.0
 40
0.0
 40
0.0
 40
1.0
 40
1.0
 40
1.0
 40
2.0
 40
2.0
 40
2.0
 40
3.0
 40
3.0
 40
3.0
 40
4.0
 40
4.0
 40
4.0
 40
5.0
 40
5.0
 40
5.0
 40
6.0
 40
6.0
 40
6.0
 40
7.0
 40
7.0
 40
7.0
 40
8.0
 40
8.0
 40
8.0
 40
9.0
 40
9.0
 40
9.0
 40
10.0
 40
10.0
 40
10.0
 40
11.0
 40
11.0
 40
11.0
 40
12.0
 40
12.0
 40
12.0
 40
13.0
 40
13.0
 40
13.0
 40
14.0
 40
14.0
 40
14.0
 40
15.0
 40
15.0
 40
15.0
 40
16.0
 40
16.0
 40
16.0
 40
17.0
 40
17.0
 40
17.0
 40
18.0
 40
18.0
 40
18.0
 40
19.0
 40
19.0
 40
19.0
 40
20.0
 40
20.0
 40
20.0
 40
21.0
 40
21.0
 40
21.0
 40
22.0
 40
22.0
 40
22.0
 40
23.0
 40
23.0
 40
23.0
 40
24.0
 40
24.0
 40
24.0
 40
25.0
 40
25.0
 40
25.0
 40
26.0
 40
26.0
 40
26.0
 40
27.0
 40
27.0
 40
27.0
 40
28.0
 40
28.0
 40
28.0
 40
29.0
 40
29.0
 40
29.0
 40
30.0
 40
30.0
 40
30.0
 40
31.0
 40
31.0
 40
31.0
 40
32.0
 40
32.0
 40
32.0
 40
33.0
 40
33.0
 40
33.0
 40
34.0
 40
34.0
 40
34.0
 40
35.0
 40
35.0
 40
35.0
 40
36.0
 40
36.0
 40
36.0
 40
37.0
 40
37.0
 40
37.0
 40
38.0
 40
38.0
 40
38.0
 40
39.0
 40
39.0
 40
39.0
 40
40.0
 40
40.0
 40
40.0
 40
41.0
 40
41.0
 40
41.0
 40
42.0
 40
42.0
 40
42.0
 40
43.0
 40
43.0
 40
43.0
 40
44.0
 40
44.0
 40
44.0
 40
45.0
 40
45.0
 40
45.0
 40
46.0
 40
46.0
 40
46.0
 40
47.0
 40
47.0
 40
47.0
 40
48.0
 40
48.0
 40
48.0
 40
49.0
 40
49.0
 40
49.0
 40
49.0
 10
685.1840329918267
 20
148.6437806119197
 30
0.0
 10
685.184809105832
 20
178.6956544495084
 30
0.0
 10
683.2945063110682
 20
208.7473518967785
 30
0.0
 10
679.5298463947729
 20
238.5624395828165
 30
0.0
 10
679.08128621677
 20
242.1148668555116
 30
0.0
 10
678.606126402573
 20
245.6639427151515
 30
0.0
 10
678.1039436158345
 20
249.2091821018771
 30
0.0
 10
677.6824064104374
 20
252.1852368115341
 30
0.0
 10
677.2418543457696
 20
255.1585751127912
 30
0.0
 10
676.7603797638951
 20
258.1255633684373
 30
0.0
 10
675.9839102777497
 20
262.9108871847693
 30
0.0
 10
675.1010775249335
 20
267.6797008825071
 30
0.0
 10
674.040619880671
 20
272.410061526249
 30
0.0
 10
673.1075512102548
 20
276.5721636438734
 30
0.0
 10
672.0370040488734
 20
280.7045263812169
 30
0.0
 10
670.787420874799
 20
284.7828784528154
 30
0.0
 10
669.5378377006989
 20
288.8611599683571
 30
0.0
 10
668.1092890699637
 20
292.8854308181467
 30
0.0
 10
666.4743639516442
 20
296.8249991150787
 30
0.0
 10
664.8394035553208
 20
300.7646026900341
 30
0.0
 10
662.9980666714132
 20
304.6194684341149
 30
0.0
 10
660.9407223972048
 20
308.355835271456
 30
0.0
 10
659.0703869709822
 20
311.7525452246859
 30
0.0
 10
657.0215094244966
 20
315.0513233633662
 30
0.0
 10
654.8018509247928
 20
318.2307912005946
 30
0.0
 10
652.5822277031432
 20
321.4102237598145
 30
0.0
 10
650.1917882502445
 20
324.4703812956128
 30
0.0
 10
647.648630196539
 20
327.3975053758507
 30
0.0
 10
645.1054015867895
 20
330.3247352901745
 30
0.0
 10
642.4094190982024
 20
333.1189317489449
 30
0.0
 10
639.5849187388445
 20
335.7757908323362
 30
0.0
 10
636.4779118986729
 20
338.6985051586252
 30
0.0
 10
633.2153642151628
 20
341.4550599580777
 30
0.0
 10
629.8301195361397
 20
344.0504647111221
 30
0.0
 10
626.445121803358
 20
346.6456930740089
 30
0.0
 10
622.9374270750511
 20
349.0797713905004
 30
0.0
 10
619.3357516693542
 20
351.3646941911673
 30
0.0
 10
615.4064491798488
 20
353.8574398734585
 30
0.0
 10
611.3653153287535
 20
356.1725959468114
 30
0.0
 10
607.2424422773427
 20
358.3302708890075
 30
0.0
 10
603.1196750600446
 20
360.4878752751459
 30
0.0
 10
598.9152039204995
 20
362.4879985301018
 30
0.0
 10
594.6511129067757
 20
364.3505374634969
 30
0.0
 10
590.031242939687
 20
366.368476124182
 30
0.0
 10
585.3413813569922
 20
368.2249472361658
 30
0.0
 10
580.6017777491029
 20
369.9429167977722
 30
0.0
 10
575.862632755628
 20
371.6607099692223
 30
0.0
 10
571.073781014975
 20
373.2400015902937
 30
0.0
 10
566.2493337399949
 20
374.7007943046388
 30
0.0
 10
561.0537615676955
 20
376.2739475482357
 30
0.0
 10
555.816878819858
 20
377.7096928604222
 30
0.0
 10
550.5508564175514
 20
379.0284914992627
 30
0.0
 10
544.9086996373695
 20
380.4415177593347
 30
0.0
 10
539.2330992828043
 20
381.720346388821
 30
0.0
 10
533.535097377898
 20
382.886990879181
 30
0.0
 10
521.3796633718341
 20
385.3757148651738
 30
0.0
 10
509.1223816872383
 20
387.353789349936
 30
0.0
 10
496.8204732921278
 20
388.9736859841969
 30
0.0
 10
482.5961943737591
 20
390.8467377699916
 30
0.0
 10
468.3122603032341
 20
392.2409255606369
 30
0.0
 10
454.0064538528655
 20
393.3239963943782
 30
0.0
 10
436.2224098311632
 20
394.6703824524716
 30
0.0
 10
418.4046047328051
 20
395.5359642237269
 30
0.0
 10
400.5823193244014
 20
396.2074109894208
 30
0.0
 10
394.2917875930256
 20
396.4444088022727
 30
0.0
 10
388.0007266911778
 20
396.6572058857431
 30
0.0
 10
381.7091013408149
 20
396.8580437166396
 30
0.0
 10
373.6730125829614
 20
397.114585558598
 30
0.0
 10
365.636041874269
 20
397.3516186493307
 30
0.0
 10
357.5988242193745
 20
397.5782094428158
 30
0.0
 10
340.1626568719296
 20
398.0697382495862
 30
0.0
 10
322.7252547933577
 20
398.5120189248172
 30
0.0
 10
305.2867238177569
 20
398.9031111768357
 30
0.0
 10
238.6071156877824
 20
400.3985469122387
 30
0.0
 10
171.9105388244207
 20
401.1452769920886
 30
0.0
 10
105.2140677952483
 20
401.1454533762526
 30
0.0
 10
38.51844343883439
 20
401.1456297604161
 30
0.0
 10
-28.17711036145111
 20
400.3992877269426
 30
0.0
 10
-94.85601293053249
 20
398.9049103204971
 30
0.0
 10
-112.2038440855997
 20
398.5161464154162
 30
0.0
 10
-129.5505463436642
 20
398.0767232575819
 30
0.0
 10
-146.8958374804307
 20
397.5878050220073
 30
0.0
 10
-154.9375001673289
 20
397.361108392972
 30
0.0
 10
-162.9788100739057
 20
397.1237930765578
 30
0.0
 10
-171.0195202539331
 20
396.8678862377019
 30
0.0
 10
-177.2676125126913
 20
396.6689886973952
 30
0.0
 10
-183.5153167130996
 20
396.4588727431661
 30
0.0
 10
-189.7623153528585
 20
396.2249793959293
 30
0.0
 10
-207.7259598356206
 20
395.5523331739598
 30
0.0
 10
-225.6838892771644
 20
394.6828708160646
 30
0.0
 10
-243.6087632026373
 20
393.3265010719551
 30
0.0
 10
-258.3005466016181
 20
392.2147844742952
 30
0.0
 10
-272.9701753964338
 20
390.7760052496583
 30
0.0
 10
-287.5745045538688
 20
388.8262237434687
 30
0.0
 10
-299.8734143159752
 20
387.184207781448
 30
0.0
 10
-312.1260040219424
 20
385.1798158832285
 30
0.0
 10
-324.2757229863773
 20
382.6603647298987
 30
0.0
 10
-334.9070048947478
 20
380.455770004924
 30
0.0
 10
-345.4595109574898
 20
377.8568021694765
 30
0.0
 10
-355.8511844720091
 20
374.7117304115046
 30
0.0
 10
-360.676125639176
 20
373.2514315887245
 30
0.0
 10
-365.4663532227906
 20
371.6734099759172
 30
0.0
 10
-370.2060979425003
 20
369.9563576422734
 30
0.0
 10
-374.9465835008814
 20
368.2390583624075
 30
0.0
 10
-379.6365861953642
 20
366.3826578056342
 30
0.0
 10
-384.2571970007716
 20
364.3652130365648
 30
0.0
 10
-388.5216055164413
 20
362.5032738289432
 30
0.0
 10
-392.7269233283982
 20
360.5041736361198
 30
0.0
 10
-396.8502549938253
 20
358.3474159219949
 30
0.0
 10
-400.9735513812236
 20
356.190693485906
 30
0.0
 10
-405.0148263440501
 20
353.8763135285091
 30
0.0
 10
-408.9446227255431
 20
351.3845203523641
 30
0.0
 10
-412.5468625793563
 20
349.1004442237877
 30
0.0
 10
-416.0554039799786
 20
346.667283135477
 30
0.0
 10
-419.4411425509893
 20
344.0729720007837
 30
0.0
 10
-422.8269164000158
 20
341.4786961441452
 30
0.0
 10
-426.0898521413952
 20
338.7233055191276
 30
0.0
 10
-429.1975645416765
 20
335.801790645341
 30
0.0
 10
-432.0226999051513
 20
333.1458840682809
 30
0.0
 10
-434.719529066002
 20
330.3527106719324
 30
0.0
 10
-437.2637101820902
 20
327.4265038200485
 30
0.0
 10
-439.8077501860631
 20
324.5004733583228
 30
0.0
 10
-442.1991421452737
 20
321.4414447190971
 30
0.0
 10
-444.419717873223
 20
318.2629999443664
 30
0.0
 10
-446.6401877670793
 20
315.0846962817449
 30
0.0
 10
-448.6899119857387
 20
311.7870117616736
 30
0.0
 10
-450.5612704742801
 20
308.3913954270708
 30
0.0
 10
-452.6199553130492
 20
304.6559105401386
 30
0.0
 10
-454.4628091516355
 20
300.8019267465104
 30
0.0
 10
-456.0989690003581
 20
296.8629934538551
 30
0.0
 10
-457.7351641271094
 20
292.9240248831509
 30
0.0
 10
-459.1646652640095
 20
288.9000715353835
 30
0.0
 10
-460.4153773343868
 20
284.8222486340323
 30
0.0
 10
-461.6661599608287
 20
280.7443198985818
 30
0.0
 10
-462.7381182427443
 20
276.6124863315184
 30
0.0
 10
-463.6721041412515
 20
272.4506664379717
 30
0.0
 10
-464.7336554036534
 20
267.7202705160019
 30
0.0
 10
-465.6169467700373
 20
262.9511040378014
 30
0.0
 10
-466.3940159818524
 20
258.165568553136
 30
0.0
 10
-466.8762314018663
 20
255.1960050011274
 30
0.0
 10
-467.317524304692
 20
252.2201619595801
 30
0.0
 10
-467.7396965141286
 20
249.2415672315969
 30
0.0
 10
-468.2436784798668
 20
245.6854974897608
 30
0.0
 10
-468.7203905268232
 20
242.1255207181321
 30
0.0
 10
-469.170291269399
 20
238.5621572554116
 30
0.0
 10
-472.9348453462624
 20
208.7471048467225
 30
0.0
 10
-474.8249717454592
 20
178.69554851126
 30
0.0
 10
-474.824301460163
 20
148.6437805077585
 30
0.0
  0
ENDBLK
  5
84
330
81
100
AcDbEntity
  8
0
100
AcDbBlockEnd
  0
BLOCK
  5
88
330
86
100
AcDbEntity
  8
0
100
AcDbBlockBegin
  2
block 16
 70
     0
 10
0.0
 20
0.0
 30
0.0
  3
block 16
  1

  0
SPLINE
  5
8A
330
86
100
AcDbEntity
  8
0
 62
   250
370
    25
100
AcDbSpline
210
0.0
220
0.0
230
1.0
 70
     8
 71
     3
 72
   152
 73
   148
 74
     0
 42
0.0000000001
 43
0.0000000001
 12
1.0
 22
0.0
 32
0.0
 13
1.0
 23
0.0
 33
0.0
 40
0.0
 40
0.0
 40
0.0
 40
0.0
 40
1.0
 40
1.0
 40
1.0
 40
2.0
 40
2.0
 40
2.0
 40
3.0
 40
3.0
 40
3.0
 40
4.0
 40
4.0
 40
4.0
 40
5.0
 40
5.0
 40
5.0
 40
6.0
 40
6.0
 40
6.0
 40
7.0
 40
7.0
 40
7.0
 40
8.0
 40
8.0
 40
8.0
 40
9.0
 40
9.0
 40
9.0
 40
10.0
 40
10.0
 40
10.0
 40
11.0
 40
11.0
 40
11.0
 40
12.0
 40
12.0
 40
12.0
 40
13.0
 40
13.0
 40
13.0
 40
14.0
 40
14.0
 40
14.0
 40
15.0
 40
15.0
 40
15.0
 40
16.0
 40
16.0
 40
16.0
 40
17.0
 40
17.0
 40
17.0
 40
18.0
 40
18.0
 40
18.0
 40
19.0
 40
19.0
 40
19.0
 40
20.0
 40
20.0
 40
20.0
 40
21.0
 40
21.0
 40
21.0
 40
22.0
 40
22.0
 40
22.0
 40
23.0
 40
23.0
 40
23.0
 40
24.0
 40
24.0
 40
24.0
 40
25.0
 40
25.0
 40
25.0
 40
26.0
 40
26.0
 40
26.0
 40
27.0
 40
27.0
 40
27.0
 40
28.0
 40
28.0
 40
28.0
 40
29.0
 40
29.0
 40
29.0
 40
30.0
 40
30.0
 40
30.0
 40
31.0
 40
31.0
 40
31.0
 40
32.0
 40
32.0
 40
32.0
 40
33.0
 40
33.0
 40
33.0
 40
34.0
 40
34.0
 40
34.0
 40
35.0
 40
35.0
 40
35.0
 40
36.0
 40
36.0
 40
36.0
 40
37.0
 40
37.0
 40
37.0
 40
38.0
 40
38.0
 40
38.0
 40
39.0
 40
39.0
 40
39.0
 40
40.0
 40
40.0
 40
40.0
 40
41.0
 40
41.0
 40
41.0
 40
42.0
 40
42.0
 40
42.0
 40
43.0
 40
43.0
 40
43.0
 40
44.0
 40
44.0
 40
44.0
 40
45.0
 40
45.0
 40
45.0
 40
46.0
 40
46.0
 40
46.0
 40
47.0
 40
47.0
 40
47.0
 40
48.0
 40
48.0
 40
48.0
 40
49.0
 40
49.0
 40
49.0
 40
49.0
 10
685.1840329918267
 20
148.6437806119197
 30
0.0
 10
685.1848091112223
 20
118.5919067743445
 30
0.0
 10
683.2945063218622
 20
88.54020932673367
 30
0.0
 10
679.529846410918
 20
58.72512164002256
 30
0.0
 10
679.0812862335569
 20
55.17269436725626
 30
0.0
 10
678.6061264199888
 20
51.62361850752006
 30
0.0
 10
678.1039436339047
 20
48.07838795328311
 30
0.0
 10
677.6824064290338
 20
45.1023331683549
 30
0.0
 10
677.2418543648922
 20
42.12899479190923
 30
0.0
 10
676.7603797835567
 20
39.16200646123501
 30
0.0
 10
675.9839102982584
 20
34.37671780190065
 30
0.0
 10
675.1010775463157
 20
29.60786870549368
 30
0.0
 10
674.0406199028995
 20
24.87754322009632
 30
0.0
 10
673.1075512332276
 20
20.71540571912071
 30
0.0
 10
672.0370040725907
 20
16.5830428771989
 30
0.0
 10
670.7874208992349
 20
12.50472598038522
 30
0.0
 10
669.5378377258792
 20
8.426444361587777
 30
0.0
 10
668.1092890958627
 20
4.402138131840335
 30
0.0
 10
666.474363978262
 20
0.4626050131390519
 30
0.0
 10
664.8394035826316
 20
-3.476998661645388
 30
0.0
 10
662.9980666994176
 20
-7.331899781455276
 30
0.0
 10
660.9407224258888
 20
-11.06826671356317
 30
0.0
 10
659.0703870002694
 20
-14.46497675292256
 30
0.0
 10
657.0215094543747
 20
-17.76371969728982
 30
0.0
 10
654.8018509552606
 20
-20.9431876152324
 30
0.0
 10
652.5822277341757
 20
-24.12265553320066
 30
0.0
 10
650.1917882818288
 20
-27.18281314672866
 30
0.0
 10
647.6486302286503
 20
-30.10993730137156
 30
0.0
 10
645.1054016194264
 20
-33.03716729011384
 30
0.0
 10
642.4094191313404
 20
-35.83132854190474
 30
0.0
 10
639.5849187724439
 20
-38.48822297095434
 30
0.0
 10
636.4779119328114
 20
-41.4109373716355
 30
0.0
 10
633.2153642497889
 20
-44.16745696328075
 30
0.0
 10
629.8301195712413
 20
-46.76289706053323
 30
0.0
 10
626.4451218389081
 20
-49.35809021155723
 30
0.0
 10
622.9374271110382
 20
-51.79220386821348
 30
0.0
 10
619.3357517057514
 20
-54.07712672723716
 30
0.0
 10
615.4064492167086
 20
-56.5698371951694
 30
0.0
 10
611.3653153660105
 20
-58.88502860578021
 30
0.0
 10
607.2424423149981
 20
-61.04266832517238
 30
0.0
 10
603.1196750980853
 20
-63.20027276656116
 30
0.0
 10
598.9152039588994
 20
-65.20039607281511
 30
0.0
 10
594.6511129455092
 20
-67.06297033204648
 30
0.0
 10
590.0312429787792
 20
-69.08090904453591
 30
0.0
 10
585.3413813964188
 20
-70.93738020426215
 30
0.0
 10
580.6017777888376
 20
-72.65534981012073
 30
0.0
 10
575.8626327956707
 20
-74.37314302582243
 30
0.0
 10
571.0737810553
 20
-75.95243468764232
 30
0.0
 10
566.2493337806017
 20
-77.41322743976427
 30
0.0
 10
561.0537616085845
 20
-78.98638072402561
 30
0.0
 10
555.8168788610043
 20
-80.4220907954016
 30
0.0
 10
550.5508564589288
 20
-81.74092474653857
 30
0.0
 10
544.908699679003
 20
-83.1539510433164
 30
0.0
 10
539.2330993246694
 20
-84.43277970612613
 30
0.0
 10
533.5350974199683
 20
-85.59942422697964
 30
0.0
 10
521.3796634143409
 20
-88.08814827802853
 30
0.0
 10
509.1223817301038
 20
-90.06618753693243
 30
0.0
 10
496.8204733352756
 20
-91.68611949237024
 30
0.0
 10
482.5961944172662
 20
-93.55913604999661
 30
0.0
 10
468.3122603469729
 20
-94.95335915646051
 30
0.0
 10
454.0064538967962
 20
-96.03643002013715
 30
0.0
 10
436.2224098753377
 20
-97.38281611542982
 30
0.0
 10
418.4046047771336
 20
-98.24836263370226
 30
0.0
 10
400.582319368859
 20
-98.91980941957176
 30
0.0
 10
394.2917876375338
 20
-99.15680723954584
 30
0.0
 10
388.0007267357117
 20
-99.3696396075393
 30
0.0
 10
381.7091013854001
 20
-99.57047744463468
 30
0.0
 10
373.673012627573
 20
-99.82701929453088
 30
0.0
 10
365.6360419189319
 20
-100.064052392688
 30
0.0
 10
357.5988242640887
 20
-100.2906079153188
 30
0.0
 10
340.1626569167208
 20
-100.7821367376306
 30
0.0
 10
322.7252548382253
 20
-101.2244527052076
 30
0.0
 10
305.2867238627015
 20
-101.6155449702334
 30
0.0
 10
238.6071157329843
 20
-103.1109807553809
 30
0.0
 10
171.9105388697766
 20
-103.857710866058
 30
0.0
 10
105.2140678406042
 20
-103.857887262209
 30
0.0
 10
38.51844348418999
 20
-103.85806365836
 30
0.0
 10
-28.17711031623668
 20
-103.1116863399848
 30
0.0
 10
-94.85601288558115
 20
-101.6173441857978
 30
0.0
 10
-112.2038440407317
 20
-101.2285449959885
 30
0.0
 10
-129.5505462988733
 20
-100.7891571081877
 30
0.0
 10
-146.89583743573
 20
-100.30020358535
 30
0.0
 10
-154.9375001226664
 20
-100.0735422300572
 30
0.0
 10
-162.9788100292816
 20
-99.8362269090799
 30
0.0
 10
-171.0195202093604
 20
-99.58028478718964
 30
0.0
 10
-177.2676124681445
 20
-99.38142252101046
 30
0.0
 10
-183.515316668591
 20
-99.17130656259107
 30
0.0
 10
-189.7623153084013
 20
-98.93737793254523
 30
0.0
 10
-207.7259597912788
 20
-98.26473169679845
 30
0.0
 10
-225.6838892329767
 20
-97.39526932019061
 30
0.0
 10
-243.6087631586934
 20
-96.03893482303917
 30
0.0
 10
-258.3005465578796
 20
-94.92721819994232
 30
0.0
 10
-272.970175352952
 20
-93.48840366353517
 30
0.0
 10
-287.5745045107338
 20
-91.53862211073894
 30
0.0
 10
-299.8734142731351
 20
-89.89664138746889
 30
0.0
 10
-312.1260039794615
 20
-87.89224944081906
 30
0.0
 10
-324.2757229443458
 20
-85.3727982260274
 30
0.0
 10
-334.9070048531141
 20
-83.16820344726483
 30
0.0
 10
-345.4595109163309
 20
-80.56923554805743
 30
0.0
 10
-355.8511844314149
 20
-77.42412843446861
 30
0.0
 10
-360.6761255988384
 20
-75.96386485369194
 30
0.0
 10
-365.4663531827354
 20
-74.38584320188865
 30
0.0
 10
-370.2060979027532
 20
-72.66879082571882
 30
0.0
 10
-374.9465834614361
 20
-70.95145622529206
 30
0.0
 10
-379.6365861562652
 20
-69.09509090048658
 30
0.0
 10
-384.2571969620255
 20
-67.07764608128704
 30
0.0
 10
-388.5216054780353
 20
-65.21570682738547
 30
0.0
 10
-392.7269232903519
 20
-63.21660658481761
 30
0.0
 10
-396.8502549561704
 20
-61.05984881695677
 30
0.0
 10
-400.9735513439534
 20
-58.90309104907025
 30
0.0
 10
-405.0148263071906
 20
-56.58874631200084
 30
0.0
 10
-408.9446226891328
 20
-54.09695307359051
 30
0.0
 10
-412.5468625433567
 20
-51.81284160992516
 30
0.0
 10
-416.0554039444218
 20
-49.37968046079418
 30
0.0
 10
-419.441142515888
 20
-46.78540453920224
 30
0.0
 10
-422.8269163653894
 20
-44.19112861763597
 30
0.0
 10
-426.0898521072565
 20
-41.43570264555463
 30
0.0
 10
-429.197564508064
 20
-38.51418769852457
 30
0.0
 10
-432.0226998720137
 20
-35.85831633291657
 30
0.0
 10
-434.7195290333584
 20
-33.06514286650035
 30
0.0
 10
-437.2637101499796
 20
-30.1389359411355
 30
0.0
 10
-439.8077501544784
 20
-27.21290540596667
 30
0.0
 10
-442.1991421142408
 20
-24.15387668987763
 30
0.0
 10
-444.4197178427615
 20
-20.97543183524831
 30
0.0
 10
-446.6401877371886
 20
-17.79712809274809
 30
0.0
 10
-448.6899119564447
 20
-14.4994082116941
 30
0.0
 10
-450.5612704455959
 20
-11.103827069671
 30
0.0
 10
-452.6199552850322
 20
-7.368342088761387
 30
0.0
 10
-454.4628091243119
 20
-3.514358198101205
 30
0.0
 10
-456.0989689737401
 20
0.4246104718032717
 30
0.0
 10
-457.7351641011973
 20
4.36357914170839
 30
0.0
 10
-459.1646652388225
 20
8.387497312854405
 30
0.0
 10
-460.4153773099252
 20
12.46535559502264
 30
0.0
 10
-461.6661599371112
 20
16.54328443326185
 30
0.0
 10
-462.7381182197587
 20
20.67508282648953
 30
0.0
 10
-463.672104119023
 20
24.83693810302919
 30
0.0
 10
-464.733655382272
 20
29.5672988662753
 30
0.0
 10
-465.6169467495026
 20
34.33650074284331
 30
0.0
 10
-466.3940159621844
 20
39.12200107022242
 30
0.0
 10
-466.8762313827306
 20
42.09156469714997
 30
0.0
 10
-467.3175242860953
 20
45.0674078138024
 30
0.0
 10
-467.7396964960583
 20
48.04600261695487
 30
0.0
 10
-468.2436784624383
 20
51.60209880498525
 30
0.0
 10
-468.7203905100364
 20
55.16204029850206
 30
0.0
 10
-469.1702912532538
 20
58.72540376113212
 30
0.0
 10
-472.934845335469
 20
88.54045616913461
 30
0.0
 10
-474.8249717400689
 20
118.5920125042698
 30
0.0
 10
-474.824301460163
 20
148.6437805077585
 30
0.0
  0
ENDBLK
  5
89
330
86
100
AcDbEntity
  8
0
100
AcDbBlockEnd
  0
BLOCK
  5
8D
330
8B
100
AcDbEntity
  8
0
100
AcDbBlockBegin
  2
block 17
 70
     0
 10
0.0
 20
0.0
 30
0.0
  3
block 17
  1

  0
SPLINE
  5
8F
330
8B
100
AcDbEntity
  8
0
 62
   250
370
    25
100
AcDbSpline
210
0.0
220
0.0
230
1.0
 70
     8
 71
     3
 72
     8
 73
     4
 74
     0
 42
0.0000000001
 43
0.0000000001
 12
1.0
 22
0.0
 32
0.0
 13
1.0
 23
0.0
 33
0.0
 40
0.0
 40
0.0
 40
0.0
 40
0.0
 40
1.0
 40
1.0
 40
1.0
 40
1.0
 10
-755.022752255321
 20
148.6437804826039
 30
0.0
 10
-755.0227169778435
 20
154.9332891510252
 30
0.0
 10
-754.9372030286908
 20
161.2198697427902
 30
0.0
 10
-754.766210407837
 20
167.5070147830684
 30
0.0
  0
ENDBLK
  5
8E
330
8B
100
AcDbEntity
  8
0
100
AcDbBlockEnd
  0
BLOCK
  5
92
330
90
100
AcDbEntity
  8
0
100
AcDbBlockBegin
  2
block 18
 70
     0
 10
0.0
 20
0.0
 30
0.0
  3
block 18
  1

  0
SPLINE
  5
94
330
90
100
AcDbEntity
  8
0
 62
   250
370
    25
100
AcDbSpline
210
0.0
220
0.0
230
1.0
 70
     8
 71
     3
 72
   230
 73
   226
 74
     0
 42
0.0000000001
 43
0.0000000001
 12
1.0
 22
0.0
 32
0.0
 13
1.0
 23
0.0
 33
0.0
 40
0.0
 40
0.0
 40
0.0
 40
0.0
 40
1.0
 40
1.0
 40
1.0
 40
2.0
 40
2.0
 40
2.0
 40
3.0
 40
3.0
 40
3.0
 40
4.0
 40
4.0
 40
4.0
 40
5.0
 40
5.0
 40
5.0
 40
6.0
 40
6.0
 40
6.0
 40
7.0
 40
7.0
 40
7.0
 40
8.0
 40
8.0
 40
8.0
 40
9.0
 40
9.0
 40
9.0
 40
10.0
 40
10.0
 40
10.0
 40
11.0
 40
11.0
 40
11.0
 40
12.0
 40
12.0
 40
12.0
 40
13.0
 40
13.0
 40
13.0
 40
14.0
 40
14.0
 40
14.0
 40
15.0
 40
15.0
 40
15.0
 40
16.0
 40
16.0
 40
16.0
 40
17.0
 40
17.0
 40
17.0
 40
18.0
 40
18.0
 40
18.0
 40
19.0
 40
19.0
 40
19.0
 40
20.0
 40
20.0
 40
20.0
 40
21.0
 40
21.0
 40
21.0
 40
22.0
 40
22.0
 40
22.0
 40
23.0
 40
23.0
 40
23.0
 40
24.0
 40
24.0
 40
24.0
 40
25.0
 40
25.0
 40
25.0
 40
26.0
 40
26.0
 40
26.0
 40
27.0
 40
27.0
 40
27.0
 40
28.0
 40
28.0
 40
28.0
 40
29.0
 40
29.0
 40
29.0
 40
30.0
 40
30.0
 40
30.0
 40
31.0
 40
31.0
 40
31.0
 40
32.0
 40
32.0
 40
32.0
 40
33.0
 40
33.0
 40
33.0
 40
34.0
 40
34.0
 40
34.0
 40
35.0
 40
35.0
 40
35.0
 40
36.0
 40
36.0
 40
36.0
 40
37.0
 40
37.0
 40
37.0
 40
38.0
 40
38.0
 40
38.0
 40
39.0
 40
39.0
 40
39.0
 40
40.0
 40
40.0
 40
40.0
 40
41.0
 40
41.0
 40
41.0
 40
42.0
 40
42.0
 40
42.0
 40
43.0
 40
43.0
 40
43.0
 40
44.0
 40
44.0
 40
44.0
 40
45.0
 40
45.0
 40
45.0
 40
46.0
 40
46.0
 40
46.0
 40
47.0
 40
47.0
 40
47.0
 40
48.0
 40
48.0
 40
48.0
 40
49.0
 40
49.0
 40
49.0
 40
50.0
 40
50.0
 40
50.0
 40
51.0
 40
51.0
 40
51.0
 40
52.0
 40
52.0
 40
52.0
 40
53.0
 40
53.0
 40
53.0
 40
54.0
 40
54.0
 40
54.0
 40
55.0
 40
55.0
 40
55.0
 40
56.0
 40
56.0
 40
56.0
 40
57.0
 40
57.0
 40
57.0
 40
58.0
 40
58.0
 40
58.0
 40
59.0
 40
59.0
 40
59.0
 40
60.0
 40
60.0
 40
60.0
 40
61.0
 40
61.0
 40
61.0
 40
62.0
 40
62.0
 40
62.0
 40
63.0
 40
63.0
 40
63.0
 40
64.0
 40
64.0
 40
64.0
 40
65.0
 40
65.0
 40
65.0
 40
66.0
 40
66.0
 40
66.0
 40
67.0
 40
67.0
 40
67.0
 40
68.0
 40
68.0
 40
68.0
 40
69.0
 40
69.0
 40
69.0
 40
70.0
 40
70.0
 40
70.0
 40
71.0
 40
71.0
 40
71.0
 40
72.0
 40
72.0
 40
72.0
 40
73.0
 40
73.0
 40
73.0
 40
74.0
 40
74.0
 40
74.0
 40
75.0
 40
75.0
 40
75.0
 40
75.0
 10
-755.022752255321
 20
148.6437804826039
 30
0.0
 10
-755.0198594547222
 20
126.8489064396529
 30
0.0
 10
-753.9943270606776
 20
105.0538560066342
 30
0.0
 10
-751.9463667413787
 20
83.35536154745076
 30
0.0
 10
-750.6556846590736
 20
69.68036158862786
 30
0.0
 10
-748.9589171496941
 20
56.04374412869895
 30
0.0
 10
-746.8609325816625
 20
42.46907489312681
 30
0.0
 10
-745.7669960847635
 20
35.39081998393008
 30
0.0
 10
-744.5639799127227
 20
28.32939269604398
 30
0.0
 10
-743.2462748584601
 20
21.28937917362563
 30
0.0
 10
-742.668173746763
 20
18.20064635438692
 30
0.0
 10
-742.0679533089553
 20
15.11600578686184
 30
0.0
 10
-741.43848738256
 20
12.03729192873504
 30
0.0
 10
-740.1777563501524
 20
5.870938870368747
 30
0.0
 10
-738.7995847490047
 20
-0.271707350457662
 30
0.0
 10
-737.2809713022243
 20
-6.379639987693312
 30
0.0
 10
-736.3119895951766
 20
-10.2769805798379
 30
0.0
 10
-735.2857869201413
 20
-14.16020995914349
 30
0.0
 10
-734.1931557107168
 20
-18.02470670341041
 30
0.0
 10
-733.0991133800198
 20
-21.89407181610483
 30
0.0
 10
-731.9384308467477
 20
-25.74470429377278
 30
0.0
 10
-730.7064866887126
 20
-29.57244132861748
 30
0.0
 10
-729.6504387985915
 20
-32.85358053469199
 30
0.0
 10
-728.5420383088978
 20
-36.11792739748495
 30
0.0
 10
-727.3775810262483
 20
-39.36220106005004
 30
0.0
 10
-726.0195884596585
 20
-43.14566416464436
 30
0.0
 10
-724.5853600657856
 20
-46.90185735045709
 30
0.0
 10
-723.0701685883174
 20
-50.62517141036244
 30
0.0
 10
-721.7720428421792
 20
-53.81494051336647
 30
0.0
 10
-720.414508890068
 20
-56.98057944243114
 30
0.0
 10
-718.9955911621526
 20
-60.11848983829978
 30
0.0
 10
-717.3409809019812
 20
-63.77763315787222
 30
0.0
 10
-715.60286753992
 20
-67.39906426117736
 30
0.0
 10
-713.7796635645213
 20
-70.97720921911909
 30
0.0
 10
-710.3954419480617
 20
-77.61882792525617
 30
0.0
 10
-706.7178834950242
 20
-84.1113616678729
 30
0.0
 10
-702.745718196227
 20
-90.41879157621904
 30
0.0
 10
-699.0797309377537
 20
-96.23998436867053
 30
0.0
 10
-695.1628110372278
 20
-101.903519635804
 30
0.0
 10
-691.0102691605746
 20
-107.3883011144371
 30
0.0
 10
-686.5091450490465
 20
-113.3334961895224
 30
0.0
 10
-681.7311942199458
 20
-119.0686811396846
 30
0.0
 10
-676.7038982602412
 20
-124.5760758368076
 30
0.0
 10
-671.6695466941106
 20
-130.0912317009732
 30
0.0
 10
-666.3851797147753
 20
-135.3779623075148
 30
0.0
 10
-660.8869925831241
 20
-140.4308348394649
 30
0.0
 10
-658.3465156599184
 20
-142.7655350012245
 30
0.0
 10
-655.7604242412615
 20
-145.0503167475807
 30
0.0
 10
-653.1319991841373
 20
-147.2855328588871
 30
0.0
 10
-650.063762901242
 20
-149.8947666661023
 30
0.0
 10
-646.9378823139546
 20
-152.4364783199281
 30
0.0
 10
-643.7601430195382
 20
-154.9113028249642
 30
0.0
 10
-637.4048760989108
 20
-159.8608460009478
 30
0.0
 10
-630.842244905838
 20
-164.542805303701
 30
0.0
 10
-624.1132777916196
 20
-168.9708686096888
 30
0.0
 10
-617.3989157826585
 20
-173.3892657348798
 30
0.0
 10
-610.5189234131883
 20
-177.55482520425
 30
0.0
 10
-603.5078378765782
 20
-181.4857857604092
 30
0.0
 10
-596.0154894265489
 20
-185.6865879837657
 30
0.0
 10
-588.3734210084723
 20
-189.6194888316179
 30
0.0
 10
-580.6170517665181
 20
-193.3091123703602
 30
0.0
 10
-565.0803947768762
 20
-200.6996836961053
 30
0.0
 10
-549.0851939265465
 20
-207.1141118746289
 30
0.0
 10
-532.8253020017287
 20
-212.7397232561791
 30
0.0
 10
-524.1208356481453
 20
-215.7513030185683
 30
0.0
 10
-515.3405568036586
 20
-218.5368211514889
 30
0.0
 10
-506.4998466902697
 20
-221.1203372728093
 30
0.0
 10
-497.6526806970112
 20
-223.7057584078455
 30
0.0
 10
-488.7450128787866
 20
-226.0888600290077
 30
0.0
 10
-479.7943411394945
 20
-228.2917614623822
 30
0.0
 10
-469.7481101144353
 20
-230.764328172745
 30
0.0
 10
-459.6477273101936
 20
-233.0099160248104
 30
0.0
 10
-449.5067042130148
 20
-235.056853278332
 30
0.0
 10
-439.3981721833737
 20
-237.0972640959245
 30
0.0
 10
-429.2492820850584
 20
-238.94032960212
 30
0.0
 10
-419.0725223414502
 20
-240.6091216299503
 30
0.0
 10
-408.881863053202
 20
-242.280171451811
 30
0.0
 10
-398.6632282855415
 20
-243.7765244589083
 30
0.0
 10
-388.4245555956822
 20
-245.1210760940278
 30
0.0
 10
-377.0216372916422
 20
-246.6185579980251
 30
0.0
 10
-365.5938832530528
 20
-247.9277963229468
 30
0.0
 10
-354.1505010462778
 20
-249.0770487724614
 30
0.0
 10
-342.715479733102
 20
-250.2254545491919
 30
0.0
 10
-331.2647949736985
 20
-251.2141213967438
 30
0.0
 10
-319.8043029213819
 20
-252.0708836824267
 30
0.0
 10
-308.3423997478122
 20
-252.9277518021705
 30
0.0
 10
-296.870654003275
 20
-253.6526448039871
 30
0.0
 10
-285.3936518319921
 20
-254.2752667908466
 30
0.0
 10
-279.6451317852419
 20
-254.5871245937756
 30
0.0
 10
-273.8952711732767
 20
-254.8732999893529
 30
0.0
 10
-268.1443522203414
 20
-255.1376735611306
 30
0.0
 10
-261.2403002333368
 20
-255.4550700149861
 30
0.0
 10
-254.3347312909793
 20
-255.7410337422613
 30
0.0
 10
-247.4282803978089
 20
-256.0017383985951
 30
0.0
 10
-239.3756109648604
 20
-256.3056939221215
 30
0.0
 10
-231.3217420788259
 20
-256.575253364408
 30
0.0
 10
-223.2671323541201
 20
-256.8224112563268
 30
0.0
 10
-216.587378095003
 20
-257.0273766220104
 30
0.0
 10
-209.9071299434229
 20
-257.2168902096652
 30
0.0
 10
-203.2266348456343
 20
-257.3981134597665
 30
0.0
 10
-196.241584497038
 20
-257.5875564913253
 30
0.0
 10
-189.2562519241779
 20
-257.7679330686295
 30
0.0
 10
-182.2708135172375
 20
-257.9421712683622
 30
0.0
 10
-165.8640944234246
 20
-258.3513964388293
 30
0.0
 10
-149.4565286568724
 20
-258.7268605326155
 30
0.0
 10
-133.0482573296716
 20
-259.0673288185791
 30
0.0
 10
-53.66785209614469
 20
-260.7144601285144
 30
0.0
 10
25.72962770483017
 20
-261.5429999824219
 30
0.0
 10
105.1271075057155
 20
-261.5425060828433
 30
0.0
 10
179.1950997247452
 20
-261.5420474617674
 30
0.0
 10
253.2630566656559
 20
-260.8200825289465
 30
0.0
 10
327.317114061888
 20
-259.3833141104394
 30
0.0
 10
341.1092018092392
 20
-259.1157302360019
 30
0.0
 10
354.9008309421637
 20
-258.8233459050239
 30
0.0
 10
368.6919309046157
 20
-258.5071136243655
 30
0.0
 10
383.1767028115167
 20
-258.1750062292152
 30
0.0
 10
397.6608749918754
 20
-257.8166167001831
 30
0.0
 10
412.144235777504
 20
-257.426829722612
 30
0.0
 10
415.5984137309308
 20
-257.3338721078043
 30
0.0
 10
419.0525564063292
 20
-257.2391505914214
 30
0.0
 10
422.5065932476275
 20
-257.1408307157427
 30
0.0
 10
425.9586192410977
 20
-257.0425813961471
 30
0.0
 10
429.4105394004814
 20
-256.9408042733126
 30
0.0
 10
432.8623537257523
 20
-256.8351465669889
 30
0.0
 10
440.9200679172478
 20
-256.5885178441052
 30
0.0
 10
448.9771823821736
 20
-256.320828136081
 30
0.0
 10
457.032991559927
 20
-256.0186717907201
 30
0.0
 10
462.7832755082266
 20
-255.8029819021779
 30
0.0
 10
468.5329244519669
 20
-255.5697588316963
 30
0.0
 10
474.2816208888231
 20
-255.3157570003061
 30
0.0
 10
481.1724436137372
 20
-255.0112723049589
 30
0.0
 10
488.0619610514655
 20
-254.6769423944748
 30
0.0
 10
494.949502919382
 20
-254.3058527745814
 30
0.0
 10
506.4205783811834
 20
-253.6877816517971
 30
0.0
 10
517.8862563040592
 20
-252.9677217383261
 30
0.0
 10
529.3424091582665
 20
-252.1167803258752
 30
0.0
 10
540.8212457870861
 20
-251.2641102898795
 30
0.0
 10
552.2904867911785
 20
-250.2799943064022
 30
0.0
 10
563.7440290709885
 20
-249.1368096763608
 30
0.0
 10
569.468948114221
 20
-248.5654113905119
 30
0.0
 10
575.1899160178426
 20
-247.9542900405547
 30
0.0
 10
580.9059097189368
 20
-247.2994592088873
 30
0.0
 10
586.6117786248445
 20
-246.6458278302928
 30
0.0
 10
592.3126380501836
 20
-245.9486633601334
 30
0.0
 10
598.0074649320378
 20
-245.2048260535771
 30
0.0
 10
608.2336844763333
 20
-243.8690939246357
 30
0.0
 10
618.4403952688776
 20
-242.382865710915
 30
0.0
 10
628.6188836357811
 20
-240.7223287407617
 30
0.0
 10
638.7922919660577
 20
-239.0626384433791
 30
0.0
 10
648.9375131486975
 20
-237.2288510577897
 30
0.0
 10
659.0436815498167
 20
-235.1993058722573
 30
0.0
 10
669.1889380104599
 20
-233.161893685583
 30
0.0
 10
679.2948241873228
 20
-230.927242021636
 30
0.0
 10
689.3455708000256
 20
-228.4655762213752
 30
0.0
 10
698.2997703421465
 20
-226.2724820793103
 30
0.0
 10
707.2101898464337
 20
-223.8992230274982
 30
0.0
 10
716.0621183735717
 20
-221.3248086368566
 30
0.0
 10
725.4572933164242
 20
-218.5923839405692
 30
0.0
 10
734.7865688953719
 20
-215.6333684443412
 30
0.0
 10
744.028108008537
 20
-212.4177758209195
 30
0.0
 10
760.2745942801631
 20
-206.7647886835615
 30
0.0
 10
776.2498630411941
 20
-200.3187513854509
 30
0.0
 10
791.7666937754955
 20
-192.8951598188856
 30
0.0
 10
799.5152312936684
 20
-189.1880736528875
 30
0.0
 10
807.1494679879193
 20
-185.2372162853495
 30
0.0
 10
814.6311624715062
 20
-181.0170464210342
 30
0.0
 10
821.6332521092274
 20
-177.0674237846758
 30
0.0
 10
828.5017438394984
 20
-172.8819322259351
 30
0.0
 10
835.2042877069093
 20
-168.4434266212558
 30
0.0
 10
841.9191083294894
 20
-163.9968070692054
 30
0.0
 10
848.467346084638
 20
-159.2962562423748
 30
0.0
 10
854.8058559391596
 20
-154.3275923718783
 30
0.0
 10
860.6879386148565
 20
-149.716753580643
 30
0.0
 10
866.3893624883244
 20
-144.8750200695785
 30
0.0
 10
871.8750259176937
 20
-139.7991462597176
 30
0.0
 10
877.3520815072485
 20
-134.7312100070688
 30
0.0
 10
882.6140469352661
 20
-129.4299095723369
 30
0.0
 10
887.6259263939769
 20
-123.9014538891756
 30
0.0
 10
892.6323377577045
 20
-118.3789954714701
 30
0.0
 10
897.3892276006379
 20
-112.6299109758072
 30
0.0
 10
901.8668918197694
 20
-106.6706752431709
 30
0.0
 10
903.9335494938706
 20
-103.9202234731672
 30
0.0
 10
905.9406931278668
 20
-101.1250038804582
 30
0.0
 10
907.8874760490132
 20
-98.2884031561529
 30
0.0
 10
909.834717584574
 20
-95.45116742724936
 30
0.0
 10
911.7215631292308
 20
-92.57251528873466
 30
0.0
 10
913.5455432207528
 20
-89.65449286642615
 30
0.0
 10
915.3701230388169
 20
-86.73555321530162
 30
0.0
 10
917.1318021257063
 20
-83.77724328038327
 30
0.0
 10
918.8303688132321
 20
-80.78316142096884
 30
0.0
 10
920.8128178247367
 20
-77.28869595473972
 30
0.0
 10
922.709294272085
 20
-73.7455820823019
 30
0.0
 10
924.5209976083871
 20
-70.15971123501237
 30
0.0
 10
927.888321046279
 20
-63.49466791496344
 30
0.0
 10
930.9626957059239
 20
-56.682021308801
 30
0.0
 10
933.7559044499842
 20
-49.75666139022264
 30
0.0
 10
935.0459868042378
 20
-46.55800222290397
 30
0.0
 10
936.2761317820018
 20
-43.33535399378721
 30
0.0
 10
937.4505727471447
 20
-40.09249145230196
 30
0.0
 10
938.8211595704963
 20
-36.30797000650584
 30
0.0
 10
940.1159339029564
 20
-32.49596697372871
 30
0.0
 10
941.3387763280147
 20
-28.66113905421085
 30
0.0
 10
942.5608779144272
 20
-24.82849837269141
 30
0.0
 10
943.7111181495219
 20
-20.97306808244811
 30
0.0
 10
944.7964468055995
 20
-17.09950488376036
 30
0.0
 10
945.8793059994462
 20
-13.23465535896022
 30
0.0
 10
946.8975005605171
 20
-9.351743481773768
 30
0.0
 10
947.8575216467109
 20
-5.45461455764892
 30
0.0
 10
949.3033917903147
 20
0.4149444172164111
 30
0.0
 10
950.6172868159514
 20
6.316818069435518
 30
0.0
 10
951.8283111001024
 20
12.23925881433881
 30
0.0
 10
952.1192490303921
 20
13.66209240354144
 30
0.0
 10
952.4042602513099
 20
15.08605488979865
 30
0.0
 10
952.6836622651155
 20
16.51118155108626
 30
0.0
 10
953.0205674711721
 20
18.22936282473356
 30
0.0
 10
953.3493940078866
 20
19.94916688786547
 30
0.0
 10
953.6710238260597
 20
21.67031151621095
 30
0.0
 10
954.5845484658986
 20
26.55889425343135
 30
0.0
 10
955.4401465771017
 20
31.45823679043499
 30
0.0
 10
956.2437448690409
 20
36.36608133315314
 30
0.0
 10
957.3171848280882
 20
42.92200969981306
 30
0.0
 10
958.2978082847642
 20
49.49317817631524
 30
0.0
 10
959.1837455033809
 20
56.07708202237463
 30
0.0
 10
963.3109224717401
 20
86.74829699124909
 30
0.0
 10
965.3829071261541
 20
117.6960564532917
 30
0.0
 10
965.3803671050571
 20
148.6437806370743
 30
0.0
  0
ENDBLK
  5
93
330
90
100
AcDbEntity
  8
0
100
AcDbBlockEnd
  0
BLOCK
  5
97
330
95
100
AcDbEntity
  8
0
100
AcDbBlockBegin
  2
block 19
 70
     0
 10
0.0
 20
0.0
 30
0.0
  3
block 19
  1

  0
SPLINE
  5
99
330
95
100
AcDbEntity
  8
0
 62
   250
370
    25
100
AcDbSpline
210
0.0
220
0.0
230
1.0
 70
     8
 71
     3
 72
    53
 73
    49
 74
     0
 42
0.0000000001
 43
0.0000000001
 12
1.0
 22
0.0
 32
0.0
 13
1.0
 23
0.0
 33
0.0
 40
0.0
 40
0.0
 40
0.0
 40
0.0
 40
1.0
 40
1.0
 40
1.0
 40
2.0
 40
2.0
 40
2.0
 40
3.0
 40
3.0
 40
3.0
 40
4.0
 40
4.0
 40
4.0
 40
5.0
 40
5.0
 40
5.0
 40
6.0
 40
6.0
 40
6.0
 40
7.0
 40
7.0
 40
7.0
 40
8.0
 40
8.0
 40
8.0
 40
9.0
 40
9.0
 40
9.0
 40
10.0
 40
10.0
 40
10.0
 40
11.0
 40
11.0
 40
11.0
 40
12.0
 40
12.0
 40
12.0
 40
13.0
 40
13.0
 40
13.0
 40
14.0
 40
14.0
 40
14.0
 40
15.0
 40
15.0
 40
15.0
 40
16.0
 40
16.0
 40
16.0
 40
16.0
 10
105.1798834089788
 20
102.6354411517262
 30
0.0
 10
102.1214896972695
 20
102.6351942052288
 30
0.0
 10
99.06309598552139
 20
102.947122564447
 30
0.0
 10
96.06756772688222
 20
103.5639589548201
 30
0.0
 10
93.07366225772734
 20
104.1804425648654
 30
0.0
 10
90.14255168561074
 20
105.1015519817696
 30
0.0
 10
87.33382060670148
 20
106.3075667856341
 30
0.0
 10
84.48734203348302
 20
107.5297742062359
 30
0.0
 10
81.76659436650135
 20
109.0445776247696
 30
0.0
 10
79.22735217448775
 20
110.8190273592958
 30
0.0
 10
76.86947434529418
 20
112.4667584026915
 30
0.0
 10
74.66812514435858
 20
114.3384343936156
 30
0.0
 10
72.661404846311
 20
116.399482860682
 30
0.0
 10
70.6572598445931
 20
118.4579560314188
 30
0.0
 10
68.84724985329436
 20
120.7053783418991
 30
0.0
 10
67.26227842854851
 20
123.1015681136015
 30
0.0
 10
65.41540289368966
 20
125.8937537952078
 30
0.0
 10
63.87407039454459
 20
128.8879414884271
 30
0.0
 10
62.67324146084239
 20
132.0129048465262
 30
0.0
 10
61.64012429162517
 20
134.7014789480374
 30
0.0
 10
60.85906866148923
 20
137.4868559695483
 30
0.0
 10
60.34252771576023
 20
140.3203875048372
 30
0.0
 10
59.82619843821782
 20
143.1526490309822
 30
0.0
 10
59.57413689886702
 20
146.0330297928884
 30
0.0
 10
59.59071757367965
 20
148.9118935994363
 30
0.0
 10
59.60733352653386
 20
151.7907926840126
 30
0.0
 10
59.89262697156741
 20
154.6682100912713
 30
0.0
 10
60.44172954037846
 20
157.4943332399347
 30
0.0
 10
61.00758917442886
 20
160.4065347868288
 30
0.0
 10
61.853556383056
 20
163.2643023302713
 30
0.0
 10
62.96509661704772
 20
166.0148599343102
 30
0.0
 10
64.09374669661982
 20
168.8078570109154
 30
0.0
 10
65.49622486105565
 20
171.4903632911123
 30
0.0
 10
67.14674286896732
 20
174.0104495117272
 30
0.0
 10
68.79920116862392
 20
176.5334990870346
 30
0.0
 10
70.70033431631546
 20
178.8938111004361
 30
0.0
 10
72.81465261177681
 20
181.0446774375117
 30
0.0
 10
74.92607810862248
 20
183.1926862539878
 30
0.0
 10
77.25008902670788
 20
185.1318843986977
 30
0.0
 10
79.74241143578264
 20
186.8231838121116
 30
0.0
 10
82.22415043523137
 20
188.5072865069839
 30
0.0
 10
84.87275452636803
 20
189.9456424305103
 30
0.0
 10
87.63717639679987
 20
191.1088649819997
 30
0.0
 10
90.40392661734576
 20
192.2731105964051
 30
0.0
 10
93.2867062853731
 20
193.1617995023759
 30
0.0
 10
96.22896471547587
 20
193.756481289142
 30
0.0
 10
99.17291649112106
 20
194.3515511342521
 30
0.0
 10
102.1763823069028
 20
194.6522963578529
 30
0.0
 10
105.1798834007137
 20
194.6520846899358
 30
0.0
  0
ENDBLK
  5
98
330
95
100
AcDbEntity
  8
0
100
AcDbBlockEnd
  0
BLOCK
  5
9C
330
9A
100
AcDbEntity
  8
0
100
AcDbBlockBegin
  2
block 20
 70
     0
 10
0.0
 20
0.0
 30
0.0
  3
block 20
  1

  0
SPLINE
  5
9E
330
9A
100
AcDbEntity
  8
0
 62
   250
370
    25
100
AcDbSpline
210
0.0
220
0.0
230
1.0
 70
     8
 71
     3
 72
   149
 73
   145
 74
     0
 42
0.0000000001
 43
0.0000000001
 12
1.0
 22
0.0
 32
0.0
 13
1.0
 23
0.0
 33
0.0
 40
0.0
 40
0.0
 40
0.0
 40
0.0
 40
1.0
 40
1.0
 40
1.0
 40
2.0
 40
2.0
 40
2.0
 40
3.0
 40
3.0
 40
3.0
 40
4.0
 40
4.0
 40
4.0
 40
5.0
 40
5.0
 40
5.0
 40
6.0
 40
6.0
 40
6.0
 40
7.0
 40
7.0
 40
7.0
 40
8.0
 40
8.0
 40
8.0
 40
9.0
 40
9.0
 40
9.0
 40
10.0
 40
10.0
 40
10.0
 40
11.0
 40
11.0
 40
11.0
 40
12.0
 40
12.0
 40
12.0
 40
13.0
 40
13.0
 40
13.0
 40
14.0
 40
14.0
 40
14.0
 40
15.0
 40
15.0
 40
15.0
 40
16.0
 40
16.0
 40
16.0
 40
17.0
 40
17.0
 40
17.0
 40
18.0
 40
18.0
 40
18.0
 40
19.0
 40
19.0
 40
19.0
 40
20.0
 40
20.0
 40
20.0
 40
21.0
 40
21.0
 40
21.0
 40
22.0
 40
22.0
 40
22.0
 40
23.0
 40
23.0
 40
23.0
 40
24.0
 40
24.0
 40
24.0
 40
25.0
 40
25.0
 40
25.0
 40
26.0
 40
26.0
 40
26.0
 40
27.0
 40
27.0
 40
27.0
 40
28.0
 40
28.0
 40
28.0
 40
29.0
 40
29.0
 40
29.0
 40
30.0
 40
30.0
 40
30.0
 40
31.0
 40
31.0
 40
31.0
 40
32.0
 40
32.0
 40
32.0
 40
33.0
 40
33.0
 40
33.0
 40
34.0
 40
34.0
 40
34.0
 40
35.0
 40
35.0
 40
35.0
 40
36.0
 40
36.0
 40
36.0
 40
37.0
 40
37.0
 40
37.0
 40
38.0
 40
38.0
 40
38.0
 40
39.0
 40
39.0
 40
39.0
 40
40.0
 40
40.0
 40
40.0
 40
41.0
 40
41.0
 40
41.0
 40
42.0
 40
42.0
 40
42.0
 40
43.0
 40
43.0
 40
43.0
 40
44.0
 40
44.0
 40
44.0
 40
45.0
 40
45.0
 40
45.0
 40
46.0
 40
46.0
 40
46.0
 40
47.0
 40
47.0
 40
47.0
 40
48.0
 40
48.0
 40
48.0
 40
48.0
 10
-754.766210407837
 20
167.5070147830684
 30
0.0
 10
-754.1777375569269
 20
189.0900089655057
 30
0.0
 10
-752.585675249869
 20
210.6458743413733
 30
0.0
 10
-749.992669339064
 20
232.0806302332541
 30
0.0
 10
-748.6291028447455
 20
243.3524906481642
 30
0.0
 10
-746.9887096328345
 20
254.590916185312
 30
0.0
 10
-745.0762522376469
 20
265.7828010188492
 30
0.0
 10
-744.2160327042635
 20
270.8169055111622
 30
0.0
 10
-743.3007794408537
 20
275.8416260471778
 30
0.0
 10
-742.3182156922663
 20
280.8532584336363
 30
0.0
 10
-741.3373452892213
 20
285.8562477024699
 30
0.0
 10
-740.2894113472216
 20
290.8462193778032
 30
0.0
 10
-739.1544112220844
 20
295.8165764677915
 30
0.0
 10
-737.2551125325963
 20
304.1336898191438
 30
0.0
 10
-735.1119368074554
 20
312.3960163880821
 30
0.0
 10
-732.6611719207309
 20
320.5674667487485
 30
0.0
 10
-730.3705692995318
 20
328.2048077174567
 30
0.0
 10
-727.8112539080992
 20
335.7627731160531
 30
0.0
 10
-724.9387754260184
 20
343.2008284867138
 30
0.0
 10
-722.273872884551
 20
350.1014230524563
 30
0.0
 10
-719.3394109000913
 20
356.8987940990088
 30
0.0
 10
-716.1175035103652
 20
363.5575224830804
 30
0.0
 10
-712.8981361389266
 20
370.2110297185392
 30
0.0
 10
-709.3918172546847
 20
376.7260706816739
 30
0.0
 10
-705.5945251619697
 20
383.0674378973641
 30
0.0
 10
-701.798538356434
 20
389.4065473190613
 30
0.0
 10
-697.7118605666889
 20
395.5720888274121
 30
0.0
 10
-693.3486382835704
 20
401.5350286027803
 30
0.0
 10
-688.647664121522
 20
407.9595461380287
 30
0.0
 10
-683.6257304237344
 20
414.1489355955422
 30
0.0
 10
-678.3160690964106
 20
420.0802309770285
 30
0.0
 10
-673.3790496217396
 20
425.5953514247376
 30
0.0
 10
-668.1932494649405
 20
430.8873383253013
 30
0.0
 10
-662.7928530390798
 20
435.949629964936
 30
0.0
 10
-656.9682382776883
 20
441.4096461280287
 30
0.0
 10
-650.8939256053137
 20
446.6023959269917
 30
0.0
 10
-644.6137303378042
 20
451.5316541111365
 30
0.0
 10
-638.3310303300234
 20
456.4628878650296
 30
0.0
 10
-631.8422360588893
 20
461.1304183359379
 30
0.0
 10
-625.1880936514711
 20
465.5476864537207
 30
0.0
 10
-618.0748076567577
 20
470.269721482836
 30
0.0
 10
-610.772607800322
 20
474.70575751327
 30
0.0
 10
-603.3230516039314
 20
478.877102475813
 30
0.0
 10
-595.3969597504592
 20
483.3152551881552
 30
0.0
 10
-587.3040733613569
 20
487.4537915817793
 30
0.0
 10
-579.0844330030124
 20
491.3219218664675
 30
0.0
 10
-570.8602417785515
 20
495.1922041110622
 30
0.0
 10
-562.5091201946968
 20
498.7917627444535
 30
0.0
 10
-554.063206538672
 20
502.1489965817281
 30
0.0
 10
-537.1073848764456
 20
508.8888997167473
 30
0.0
 10
-519.7693257367181
 20
514.652095280783
 30
0.0
 10
-502.2169878301706
 20
519.6412555628755
 30
0.0
 10
-484.1135717847753
 20
524.7870503034243
 30
0.0
 10
-465.7821890961125
 20
529.1094557964502
 30
0.0
 10
-447.3240524381877
 20
532.7811580044737
 30
0.0
 10
-426.6927184491213
 20
536.8851924847407
 30
0.0
 10
-405.902986096014
 20
540.1763152927039
 30
0.0
 10
-385.0374412519449
 20
542.8476736490436
 30
0.0
 10
-361.298571252402
 20
545.8868760366756
 30
0.0
 10
-337.461522489552
 20
548.1239265515125
 30
0.0
 10
-313.588701802141
 20
549.8104633899138
 30
0.0
 10
-284.565112043333
 20
551.8609283983537
 30
0.0
 10
-255.4886052363417
 20
553.0977056178017
 30
0.0
 10
-226.406983114682
 20
554.013664421763
 30
0.0
 10
-214.8809797569399
 20
554.376710641603
 30
0.0
 10
-203.3541297264267
 20
554.6893445548867
 30
0.0
 10
-191.8264330231489
 20
554.9861033541412
 30
0.0
 10
-177.5406644951071
 20
555.3539121084254
 30
0.0
 10
-163.2535906798926
 20
555.6973084651423
 30
0.0
 10
-148.9660935282797
 20
556.0138935181594
 30
0.0
 10
-122.6780682096204
 20
556.5964043712476
 30
0.0
 10
-96.38859649166008
 20
557.0880742940602
 30
0.0
 10
-70.09767837437235
 20
557.4896794032854
 30
0.0
 10
30.19547371006614
 20
559.021627915936
 30
0.0
 10
130.5097573358245
 20
559.2425742341882
 30
0.0
 10
230.8089419639984
 20
558.1387952038677
 30
0.0
 10
275.1779112221602
 20
557.6505472564314
 30
0.0
 10
319.5439524036908
 20
556.9030410579047
 30
0.0
 10
363.9044549342184
 20
555.9034027705914
 30
0.0
 10
375.9623451814573
 20
555.6316913755868
 30
0.0
 10
388.0198473703142
 20
555.3413531801178
 30
0.0
 10
400.0768203886985
 20
555.0324587402554
 30
0.0
 10
409.7968001730202
 20
554.783395841057
 30
0.0
 10
419.5164624550674
 20
554.5223031332201
 30
0.0
 10
429.2352780643452
 20
554.2322471617898
 30
0.0
 10
444.071101668389
 20
553.7894373158424
 30
0.0
 10
458.9049497026467
 20
553.2791405962674
 30
0.0
 10
473.7332943639178
 20
552.6281903664038
 30
0.0
 10
496.4994079077101
 20
551.6287990233748
 30
0.0
 10
519.2524685796328
 20
550.2979705774674
 30
0.0
 10
541.9621019941799
 20
548.4122539792502
 30
0.0
 10
562.4172222136115
 20
546.7137226142296
 30
0.0
 10
582.8370996790566
 20
544.5649730153848
 30
0.0
 10
603.1762257291509
 20
541.8038673514592
 30
0.0
 10
623.4339653592846
 20
539.0538389892889
 30
0.0
 10
643.6116238566805
 20
535.69632293033
 30
0.0
 10
663.6307428780606
 20
531.5517892739388
 30
0.0
 10
682.6343837464815
 20
527.6174774052151
 30
0.0
 10
701.4951485850886
 20
522.9740065538507
 30
0.0
 10
720.0916104075648
 20
517.4249486422735
 30
0.0
 10
737.0166343488609
 20
512.374616257209
 30
0.0
 10
753.7226875452069
 20
506.5741670953318
 30
0.0
 10
770.049219672684
 20
499.8363453671313
 30
0.0
 10
777.3974573616433
 20
496.80381053018
 30
0.0
 10
784.6688242187282
 20
493.58137405142
 30
0.0
 10
791.8392253480802
 20
490.1494566235618
 30
0.0
 10
799.0083211902598
 20
486.7181389222202
 30
0.0
 10
806.0765218607256
 20
483.0773755498094
 30
0.0
 10
813.0190269029898
 20
479.2077283111407
 30
0.0
 10
825.9572098849117
 20
471.9961579020224
 30
0.0
 10
838.4588624981562
 20
463.9895617823537
 30
0.0
 10
850.2926314084414
 20
455.0817178002808
 30
0.0
 10
856.2145429831545
 20
450.6240210598966
 30
0.0
 10
861.9692014078878
 20
445.9405801980409
 30
0.0
 10
867.519776417134
 20
441.027937967629
 30
0.0
 10
872.6361846857557
 20
436.4995087746814
 30
0.0
 10
877.5792014268
 20
431.7763448496415
 30
0.0
 10
882.3228620086567
 20
426.8592575872459
 30
0.0
 10
887.060384212955
 20
421.9485909264984
 30
0.0
 10
891.5990794285391
 20
416.8445300988683
 30
0.0
 10
895.9134416382635
 20
411.5579407379228
 30
0.0
 10
900.2264280047319
 20
406.2730094444337
 30
0.0
 10
904.3152577554861
 20
400.8056201737194
 30
0.0
 10
908.1637382738006
 20
395.1736236095251
 30
0.0
 10
912.0140532497865
 20
389.5388400808595
 30
0.0
 10
915.6238073251455
 20
383.7392728685956
 30
0.0
 10
918.9844632161106
 20
377.7992990922127
 30
0.0
 10
922.3475885693183
 20
371.8549508399799
 30
0.0
 10
925.461227679787
 20
365.7699490774202
 30
0.0
 10
928.3325772660709
 20
359.5731512340699
 30
0.0
 10
931.4463927667608
 20
352.8531449104237
 30
0.0
 10
934.2753028805174
 20
346.0016220865373
 30
0.0
 10
936.8402980364231
 20
339.0535080132829
 30
0.0
 10
939.4067748696843
 20
332.1013369664401
 30
0.0
 10
941.7090192427823
 20
325.0524335581001
 30
0.0
 10
943.7820269635398
 20
317.9373838412959
 30
0.0
 10
946.0097288549421
 20
310.2913997553549
 30
0.0
 10
947.9727396717674
 20
302.568968175837
 30
0.0
 10
949.7300090056177
 20
294.8015923845978
 30
0.0
 10
951.7008162676302
 20
286.0903528693541
 30
0.0
 10
953.4128238864342
 20
277.3225626701162
 30
0.0
 10
954.9548972247768
 20
268.5250683686206
 30
0.0
 10
961.8889708205803
 20
228.9658623800228
 30
0.0
 10
965.3863996449348
 20
188.8061620739367
 30
0.0
 10
965.3803671050571
 20
148.6437806370743
 30
0.0
  0
ENDBLK
  5
9D
330
9A
100
AcDbEntity
  8
0
100
AcDbBlockEnd
  0
BLOCK
  5
A1
330
9F
100
AcDbEntity
  8
0
100
AcDbBlockBegin
  2
block 21
 70
     0
 10
0.0
 20
0.0
 30
0.0
  3
block 21
  1

  0
SPLINE
  5
A3
330
9F
100
AcDbEntity
  8
0
  6
AI-Linetype-1
 62
     6
370
    25
100
AcDbSpline
210
0.0
220
0.0
230
1.0
 70
     8
 71
     3
 72
    11
 73
     7
 74
     0
 42
0.0000000001
 43
0.0000000001
 12
1.0
 22
0.0
 32
0.0
 13
1.0
 23
0.0
 33
0.0
 40
0.0
 40
0.0
 40
0.0
 40
0.0
 40
1.0
 40
1.0
 40
1.0
 40
2.0
 40
2.0
 40
2.0
 40
2.0
 10
559.7688298085257
 20
346.474347670613
 30
0.0
 10
562.8933345534809
 20
333.6063330204784
 30
0.0
 10
575.142678681442
 20
325.1042216749427
 30
0.0
 10
588.2908012313812
 20
326.6775865883817
 30
0.0
 10
601.4389237813211
 20
328.2509867798485
 30
0.0
 10
611.3362815098462
 20
339.4033249411555
 30
0.0
 10
611.3362815086655
 20
352.6452514439751
 30
0.0
  0
ENDBLK
  5
A2
330
9F
100
AcDbEntity
  8
0
100
AcDbBlockEnd
  0
BLOCK
  5
A7
330
A5
100
AcDbEntity
  8
0
100
AcDbBlockBegin
  2
block 22
 70
     0
 10
0.0
 20
0.0
 30
0.0
  3
block 22
  1

  0
SPLINE
  5
A9
330
A5
100
AcDbEntity
  8
0
  6
AI-Linetype-2
 62
     6
370
    25
100
AcDbSpline
210
0.0
220
0.0
230
1.0
 70
     8
 71
     3
 72
    11
 73
     7
 74
     0
 42
0.0000000001
 43
0.0000000001
 12
1.0
 22
0.0
 32
0.0
 13
1.0
 23
0.0
 33
0.0
 40
0.0
 40
0.0
 40
0.0
 40
0.0
 40
1.0
 40
1.0
 40
1.0
 40
2.0
 40
2.0
 40
2.0
 40
2.0
 10
610.7881314459684
 20
357.9716344244184
 30
0.0
 10
608.0575764850597
 20
371.0979195408275
 30
0.0
 10
595.8429106625711
 20
380.033280387179
 30
0.0
 10
582.5060859191026
 20
378.6607885832232
 30
0.0
 10
569.1692258975924
 20
377.2882967792681
 30
0.0
 10
559.0303900396117
 20
366.0525260742096
 30
0.0
 10
559.030390040818
 20
352.6452514392836
 30
0.0
  0
ENDBLK
  5
A8
330
A5
100
AcDbEntity
  8
0
100
AcDbBlockEnd
  0
BLOCK
  5
AD
330
AB
100
AcDbEntity
  8
0
100
AcDbBlockBegin
  2
block 23
 70
     0
 10
0.0
 20
0.0
 30
0.0
  3
block 23
  1

  0
SPLINE
  5
AF
330
AB
100
AcDbEntity
  8
0
  6
AI-Linetype-3
 62
     6
370
    25
100
AcDbSpline
210
0.0
220
0.0
230
1.0
 70
     8
 71
     3
 72
    11
 73
     7
 74
     0
 42
0.0000000001
 43
0.0000000001
 12
1.0
 22
0.0
 32
0.0
 13
1.0
 23
0.0
 33
0.0
 40
0.0
 40
0.0
 40
0.0
 40
0.0
 40
1.0
 40
1.0
 40
1.0
 40
2.0
 40
2.0
 40
2.0
 40
2.0
 10
-349.4090983134843
 20
358.8161551264456
 30
0.0
 10
-352.5336030584521
 20
371.6841697765924
 30
0.0
 10
-364.7829471864065
 20
380.1863164001451
 30
0.0
 10
-377.9310697363525
 20
378.6129162086834
 30
0.0
 10
-391.0791570082696
 20
377.039551295245
 30
0.0
 10
-400.9765147367951
 20
365.8871778559032
 30
0.0
 10
-400.976514735608
 20
352.6452513530836
 30
0.0
  0
ENDBLK
  5
AE
330
AB
100
AcDbEntity
  8
0
100
AcDbBlockEnd
  0
BLOCK
  5
B3
330
B1
100
AcDbEntity
  8
0
100
AcDbBlockBegin
  2
block 24
 70
     0
 10
0.0
 20
0.0
 30
0.0
  3
block 24
  1

  0
SPLINE
  5
B5
330
B1
100
AcDbEntity
  8
0
  6
AI-Linetype-4
 62
     6
370
    25
100
AcDbSpline
210
0.0
220
0.0
230
1.0
 70
     8
 71
     3
 72
    11
 73
     7
 74
     0
 42
0.0000000001
 43
0.0000000001
 12
1.0
 22
0.0
 32
0.0
 13
1.0
 23
0.0
 33
0.0
 40
0.0
 40
0.0
 40
0.0
 40
0.0
 40
1.0
 40
1.0
 40
1.0
 40
2.0
 40
2.0
 40
2.0
 40
2.0
 10
-400.428399950946
 20
347.3189036506687
 30
0.0
 10
-397.697844990012
 20
334.192618534273
 30
0.0
 10
-385.4831791675294
 20
325.2572224098797
 30
0.0
 10
-372.1463544240546
 20
326.6297142138412
 30
0.0
 10
-358.80949440257
 20
328.0022060177963
 30
0.0
 10
-348.6706585445704
 20
339.2379767228548
 30
0.0
 10
-348.6706585457767
 20
352.6452513577808
 30
0.0
  0
ENDBLK
  5
B4
330
B1
100
AcDbEntity
  8
0
100
AcDbBlockEnd
  0
BLOCK
  5
B9
330
B7
100
AcDbEntity
  8
0
100
AcDbBlockBegin
  2
block 25
 70
     0
 10
0.0
 20
0.0
 30
0.0
  3
block 25
  1

  0
SPLINE
  5
BB
330
B7
100
AcDbEntity
  8
0
  6
AI-Linetype-5
 62
     6
370
    25
100
AcDbSpline
210
0.0
220
0.0
230
1.0
 70
     8
 71
     3
 72
    11
 73
     7
 74
     0
 42
0.0000000001
 43
0.0000000001
 12
1.0
 22
0.0
 32
0.0
 13
1.0
 23
0.0
 33
0.0
 40
0.0
 40
0.0
 40
0.0
 40
0.0
 40
1.0
 40
1.0
 40
1.0
 40
2.0
 40
2.0
 40
2.0
 40
2.0
 10
550.1235688963272
 20
344.1323802923598
 30
0.0
 10
554.4338741334838
 20
326.3807219530245
 30
0.0
 10
571.3320514929856
 20
314.6518702087066
 30
0.0
 10
589.470145844148
 20
316.8223863562411
 30
0.0
 10
607.6082049173075
 20
318.9929025037756
 30
0.0
 10
621.261791109405
 20
334.3777930113986
 30
0.0
 10
621.2617911077622
 20
352.6452514448735
 30
0.0
  0
ENDBLK
  5
BA
330
B7
100
AcDbEntity
  8
0
100
AcDbBlockEnd
  0
BLOCK
  5
BF
330
BD
100
AcDbEntity
  8
0
100
AcDbBlockBegin
  2
block 26
 70
     0
 10
0.0
 20
0.0
 30
0.0
  3
block 26
  1

  0
SPLINE
  5
C1
330
BD
100
AcDbEntity
  8
0
  6
AI-Linetype-6
 62
     6
370
    25
100
AcDbSpline
210
0.0
220
0.0
230
1.0
 70
     8
 71
     3
 72
    11
 73
     7
 74
     0
 42
0.0000000001
 43
0.0000000001
 12
1.0
 22
0.0
 32
0.0
 13
1.0
 23
0.0
 33
0.0
 40
0.0
 40
0.0
 40
0.0
 40
0.0
 40
1.0
 40
1.0
 40
1.0
 40
2.0
 40
2.0
 40
2.0
 40
2.0
 10
620.5056417678544
 20
359.9931008895039
 30
0.0
 10
616.7387593365968
 20
378.1010320656759
 30
0.0
 10
599.8884542665506
 20
390.4275642141453
 30
0.0
 10
581.4900080387272
 20
388.5341922794615
 30
0.0
 10
563.0915618108914
 20
386.6408203447847
 30
0.0
 10
549.1048451619988
 20
371.1408528994718
 30
0.0
 10
549.1048451636673
 20
352.6452514383917
 30
0.0
  0
ENDBLK
  5
C0
330
BD
100
AcDbEntity
  8
0
100
AcDbBlockEnd
  0
BLOCK
  5
C5
330
C3
100
AcDbEntity
  8
0
100
AcDbBlockBegin
  2
block 27
 70
     0
 10
0.0
 20
0.0
 30
0.0
  3
block 27
  1

  0
SPLINE
  5
C7
330
C3
100
AcDbEntity
  8
0
  6
AI-Linetype-7
 62
     6
370
    25
100
AcDbSpline
210
0.0
220
0.0
230
1.0
 70
     8
 71
     3
 72
    11
 73
     7
 74
     0
 42
0.0000000001
 43
0.0000000001
 12
1.0
 22
0.0
 32
0.0
 13
1.0
 23
0.0
 33
0.0
 40
0.0
 40
0.0
 40
0.0
 40
0.0
 40
1.0
 40
1.0
 40
1.0
 40
2.0
 40
2.0
 40
2.0
 40
2.0
 10
-339.7638374013049
 20
361.1581225047175
 30
0.0
 10
-344.0741073604192
 20
378.9098161220691
 30
0.0
 10
-360.9723199979379
 20
390.638667866394
 30
0.0
 10
-379.110379071084
 20
388.468151718846
 30
0.0
 10
-397.2484734222659
 20
386.2976355713115
 30
0.0
 10
-410.9020596143822
 20
370.912745063702
 30
0.0
 10
-410.9020596127459
 20
352.645251352198
 30
0.0
  0
ENDBLK
  5
C6
330
C3
100
AcDbEntity
  8
0
100
AcDbBlockEnd
  0
BLOCK
  5
CB
330
C9
100
AcDbEntity
  8
0
100
AcDbBlockBegin
  2
block 28
 70
     0
 10
0.0
 20
0.0
 30
0.0
  3
block 28
  1

  0
SPLINE
  5
CD
330
C9
100
AcDbEntity
  8
0
  6
AI-Linetype-8
 62
     6
370
    25
100
AcDbSpline
210
0.0
220
0.0
230
1.0
 70
     8
 71
     3
 72
    11
 73
     7
 74
     0
 42
0.0000000001
 43
0.0000000001
 12
1.0
 22
0.0
 32
0.0
 13
1.0
 23
0.0
 33
0.0
 40
0.0
 40
0.0
 40
0.0
 40
0.0
 40
1.0
 40
1.0
 40
1.0
 40
2.0
 40
2.0
 40
2.0
 40
2.0
 10
-410.1459102728256
 20
345.2974371855839
 30
0.0
 10
-406.3790278415484
 20
327.1894707313757
 30
0.0
 10
-389.5286874934864
 20
314.8629385829326
 30
0.0
 10
-371.1302765436794
 20
316.756345795632
 30
0.0
 10
-352.7318303158434
 20
318.6497177303152
 30
0.0
 10
-338.7451136669768
 20
334.1496498975997
 30
0.0
 10
-338.7451136686388
 20
352.6452513586664
 30
0.0
  0
ENDBLK
  5
CC
330
C9
100
AcDbEntity
  8
0
100
AcDbBlockEnd
  0
BLOCK
  5
D1
330
CF
100
AcDbEntity
  8
0
100
AcDbBlockBegin
  2
block 29
 70
     0
 10
0.0
 20
0.0
 30
0.0
  3
block 29
  1

  0
SPLINE
  5
D3
330
CF
100
AcDbEntity
  8
0
  6
AI-Linetype-9
 62
     6
370
    25
100
AcDbSpline
210
0.0
220
0.0
230
1.0
 70
     8
 71
     3
 72
    11
 73
     7
 74
     0
 42
0.0000000001
 43
0.0000000001
 12
1.0
 22
0.0
 32
0.0
 13
1.0
 23
0.0
 33
0.0
 40
0.0
 40
0.0
 40
0.0
 40
0.0
 40
1.0
 40
1.0
 40
1.0
 40
2.0
 40
2.0
 40
2.0
 40
2.0
 10
610.7881314826094
 20
-50.03130089882097
 30
0.0
 10
608.0575765216885
 20
-36.90501545085036
 30
0.0
 10
595.8429106992127
 20
-27.96965437875434
 30
0.0
 10
582.5060859557308
 20
-29.34214621739972
 30
0.0
 10
569.1692259342334
 20
-30.71463805602007
 30
0.0
 10
559.0303900762533
 20
-41.95040904489112
 30
0.0
 10
559.0303900774469
 20
-55.35768401853345
 30
0.0
  0
ENDBLK
  5
D2
330
CF
100
AcDbEntity
  8
0
100
AcDbBlockEnd
  0
BLOCK
  5
D7
330
D5
100
AcDbEntity
  8
0
100
AcDbBlockBegin
  2
block 30
 70
     0
 10
0.0
 20
0.0
 30
0.0
  3
block 30
  1

  0
SPLINE
  5
D9
330
D5
100
AcDbEntity
  8
0
  6
AI-Linetype-10
 62
     6
370
    25
100
AcDbSpline
210
0.0
220
0.0
230
1.0
 70
     8
 71
     3
 72
    11
 73
     7
 74
     0
 42
0.0000000001
 43
0.0000000001
 12
1.0
 22
0.0
 32
0.0
 13
1.0
 23
0.0
 33
0.0
 40
0.0
 40
0.0
 40
0.0
 40
0.0
 40
1.0
 40
1.0
 40
1.0
 40
2.0
 40
2.0
 40
2.0
 40
2.0
 10
559.7688298451544
 20
-61.52858794309326
 30
0.0
 10
562.8933345901097
 20
-74.39660291830236
 30
0.0
 10
575.1426787180831
 20
-82.89874975665798
 30
0.0
 10
588.2908012680223
 20
-81.32534952543662
 30
0.0
 10
601.4389238179627
 20
-79.75194929422874
 30
0.0
 10
611.336281546488
 20
-68.5996108511755
 30
0.0
 10
611.3362815452944
 20
-55.35768401383622
 30
0.0
  0
ENDBLK
  5
D8
330
D5
100
AcDbEntity
  8
0
100
AcDbBlockEnd
  0
BLOCK
  5
DD
330
DB
100
AcDbEntity
  8
0
100
AcDbBlockBegin
  2
block 31
 70
     0
 10
0.0
 20
0.0
 30
0.0
  3
block 31
  1

  0
SPLINE
  5
DF
330
DB
100
AcDbEntity
  8
0
  6
AI-Linetype-11
 62
     6
370
    25
100
AcDbSpline
210
0.0
220
0.0
230
1.0
 70
     8
 71
     3
 72
    11
 73
     7
 74
     0
 42
0.0000000001
 43
0.0000000001
 12
1.0
 22
0.0
 32
0.0
 13
1.0
 23
0.0
 33
0.0
 40
0.0
 40
0.0
 40
0.0
 40
0.0
 40
1.0
 40
1.0
 40
1.0
 40
2.0
 40
2.0
 40
2.0
 40
2.0
 10
620.5056418044953
 20
-48.00983438269474
 30
0.0
 10
616.738759373225
 20
-29.90190274907147
 30
0.0
 10
599.8884543031917
 20
-17.5753702892221
 30
0.0
 10
581.490008075356
 20
-19.46874227173173
 30
0.0
 10
563.0915618475202
 20
-21.36214953225696
 30
0.0
 10
549.1048451986405
 20
-36.86208209111528
 30
0.0
 10
549.1048452002962
 20
-55.35768401943184
 30
0.0
  0
ENDBLK
  5
DE
330
DB
100
AcDbEntity
  8
0
100
AcDbBlockEnd
  0
BLOCK
  5
E3
330
E1
100
AcDbEntity
  8
0
100
AcDbBlockBegin
  2
block 32
 70
     0
 10
0.0
 20
0.0
 30
0.0
  3
block 32
  1

  0
SPLINE
  5
E5
330
E1
100
AcDbEntity
  8
0
  6
AI-Linetype-12
 62
     6
370
    25
100
AcDbSpline
210
0.0
220
0.0
230
1.0
 70
     8
 71
     3
 72
    11
 73
     7
 74
     0
 42
0.0000000001
 43
0.0000000001
 12
1.0
 22
0.0
 32
0.0
 13
1.0
 23
0.0
 33
0.0
 40
0.0
 40
0.0
 40
0.0
 40
0.0
 40
1.0
 40
1.0
 40
1.0
 40
2.0
 40
2.0
 40
2.0
 40
2.0
 10
550.1235689329683
 20
-63.87055538053113
 30
0.0
 10
554.4338741701248
 20
-81.62224944632375
 30
0.0
 10
571.3320515296138
 20
-93.35110148694164
 30
0.0
 10
589.4701458807896
 20
-91.18058528456756
 30
0.0
 10
607.6082049539485
 20
-89.01003380417724
 30
0.0
 10
621.261791146046
 20
-73.62517818592929
 30
0.0
 10
621.2617911444032
 20
-55.35768401295068
 30
0.0
  0
ENDBLK
  5
E4
330
E1
100
AcDbEntity
  8
0
100
AcDbBlockEnd
  0
BLOCK
  5
E9
330
E7
100
AcDbEntity
  8
0
100
AcDbBlockBegin
  2
block 33
 70
     0
 10
0.0
 20
0.0
 30
0.0
  3
block 33
  1

  0
SPLINE
  5
EB
330
E7
100
AcDbEntity
  8
0
 62
   250
370
    25
100
AcDbSpline
210
0.0
220
0.0
230
1.0
 70
     8
 71
     3
 72
    98
 73
    94
 74
     0
 42
0.0000000001
 43
0.0000000001
 12
1.0
 22
0.0
 32
0.0
 13
1.0
 23
0.0
 33
0.0
 40
0.0
 40
0.0
 40
0.0
 40
0.0
 40
1.0
 40
1.0
 40
1.0
 40
2.0
 40
2.0
 40
2.0
 40
3.0
 40
3.0
 40
3.0
 40
4.0
 40
4.0
 40
4.0
 40
5.0
 40
5.0
 40
5.0
 40
6.0
 40
6.0
 40
6.0
 40
7.0
 40
7.0
 40
7.0
 40
8.0
 40
8.0
 40
8.0
 40
9.0
 40
9.0
 40
9.0
 40
10.0
 40
10.0
 40
10.0
 40
11.0
 40
11.0
 40
11.0
 40
12.0
 40
12.0
 40
12.0
 40
13.0
 40
13.0
 40
13.0
 40
14.0
 40
14.0
 40
14.0
 40
15.0
 40
15.0
 40
15.0
 40
16.0
 40
16.0
 40
16.0
 40
17.0
 40
17.0
 40
17.0
 40
18.0
 40
18.0
 40
18.0
 40
19.0
 40
19.0
 40
19.0
 40
20.0
 40
20.0
 40
20.0
 40
21.0
 40
21.0
 40
21.0
 40
22.0
 40
22.0
 40
22.0
 40
23.0
 40
23.0
 40
23.0
 40
24.0
 40
24.0
 40
24.0
 40
25.0
 40
25.0
 40
25.0
 40
26.0
 40
26.0
 40
26.0
 40
27.0
 40
27.0
 40
27.0
 40
28.0
 40
28.0
 40
28.0
 40
29.0
 40
29.0
 40
29.0
 40
30.0
 40
30.0
 40
30.0
 40
31.0
 40
31.0
 40
31.0
 40
31.0
 10
1005.281056100063
 20
148.6437806406678
 30
0.0
 10
1005.281126654054
 20
171.6176112371566
 30
0.0
 10
1004.201830539049
 20
194.5914771115774
 30
0.0
 10
1002.047189450665
 20
217.4640597558518
 30
0.0
 10
1000.47805786102
 20
234.1213234331817
 30
0.0
 10
998.3385510489808
 20
250.724867461913
 30
0.0
 10
995.6353012845632
 20
267.2360443912659
 30
0.0
 10
994.7919093715465
 20
272.3875188931299
 30
0.0
 10
993.8936248406515
 20
277.5299974970483
 30
0.0
 10
992.9377312834047
 20
282.6617868574965
 30
0.0
 10
992.5054695563168
 20
284.9825521381413
 30
0.0
 10
992.0613896885006
 20
287.3010949028094
 30
0.0
 10
991.6031280517873
 20
289.6168859810488
 30
0.0
 10
989.9346535245872
 20
298.048476543208
 30
0.0
 10
988.0778648622279
 20
306.443483787033
 30
0.0
 10
985.9756822088441
 20
314.7774953149506
 30
0.0
 10
983.9983837890094
 20
322.6163443973221
 30
0.0
 10
981.8039843598606
 20
330.4012180919981
 30
0.0
 10
979.3514555701058
 20
338.1046700906852
 30
0.0
 10
976.9140610561182
 20
345.7605673033634
 30
0.0
 10
974.2217122044202
 20
353.3360306049525
 30
0.0
 10
971.2484091053748
 20
360.8002269961935
 30
0.0
 10
968.287241649357
 20
368.2339431685071
 30
0.0
 10
965.047413018064
 20
375.5573096592758
 30
0.0
 10
961.5146003305208
 20
382.7370240070975
 30
0.0
 10
957.9785420640097
 20
389.9232647906806
 30
0.0
 10
954.1489352927204
 20
396.9656064850889
 30
0.0
 10
950.0261680750117
 20
403.8320519160374
 30
0.0
 10
945.7837024944674
 20
410.8978182231062
 30
0.0
 10
941.2307902317909
 20
417.7773518035933
 30
0.0
 10
936.3815424997969
 20
424.4412660575128
 30
0.0
 10
931.584012362822
 20
431.0342009127237
 30
0.0
 10
926.4964615242834
 20
437.4160673074059
 30
0.0
 10
921.1438315528238
 20
443.5668978759134
 30
0.0
 10
915.8834183571804
 20
449.611753238781
 30
0.0
 10
910.366992482895
 20
455.4334750544987
 30
0.0
 10
904.6241874768427
 20
461.022114918209
 30
0.0
 10
898.9366984251067
 20
466.5569205063446
 30
0.0
 10
893.0271694395722
 20
471.8631597305224
 30
0.0
 10
886.9269274127184
 20
476.9393509133856
 30
0.0
 10
879.8590795223495
 20
482.8206573235901
 30
0.0
 10
872.5352189533256
 20
488.3932104049505
 30
0.0
 10
865.0022302102567
 20
493.6656885531276
 30
0.0
 10
857.4992277944402
 20
498.9171762727858
 30
0.0
 10
849.7887905501343
 20
503.8709879653681
 30
0.0
 10
841.9123348869493
 20
508.5437395835943
 30
0.0
 10
833.7624039191891
 20
513.3786995891289
 30
0.0
 10
825.4347069478929
 20
517.9127379887456
 30
0.0
 10
816.9678734181693
 20
522.1685385565
 30
0.0
 10
809.4027111099892
 20
525.9710869798082
 30
0.0
 10
801.7264230008367
 20
529.5515249188799
 30
0.0
 10
793.9612695289236
 20
532.927138608928
 30
0.0
 10
784.5189984126606
 20
537.031772813017
 30
0.0
 10
774.9453166269715
 20
540.8335451194765
 30
0.0
 10
765.2740205265924
 20
544.363676585918
 30
0.0
 10
746.4525554155028
 20
551.2337556527353
 30
0.0
 10
727.2614823625555
 20
557.0749509404169
 30
0.0
 10
707.8626569788834
 20
562.0916280835032
 30
0.0
 10
687.1920232612475
 20
567.4371662396271
 30
0.0
 10
666.2854500652622
 20
571.8464969093058
 30
0.0
 10
645.2534987433735
 20
575.519186991445
 30
0.0
 10
622.003652823663
 20
579.5791240313656
 30
0.0
 10
598.6005944107799
 20
582.7388715271048
 30
0.0
 10
575.130648849143
 20
585.2286186378801
 30
0.0
 10
563.7608213392157
 20
586.4347745531088
 30
0.0
 10
552.3753303830744
 20
587.4836962794373
 30
0.0
 10
540.9785151786347
 20
588.3997962150347
 30
0.0
 10
529.2583768103381
 20
589.34186078221
 30
0.0
 10
517.5262791891723
 20
590.1434835037336
 30
0.0
 10
505.7886781950201
 20
590.8338745901649
 30
0.0
 10
500.30820063589
 20
591.1562099686402
 30
0.0
 10
494.8264883456445
 20
591.4543093390838
 30
0.0
 10
489.343541324259
 20
591.7311713342295
 30
0.0
 10
482.4409357365936
 20
592.0796830123534
 30
0.0
 10
475.5363193010752
 20
592.3945747259368
 30
0.0
 10
468.63078563674
 20
592.6820554086097
 30
0.0
 10
461.6312360169472
 20
592.9734166747846
 30
0.0
 10
454.6307338902971
 20
593.2366613494191
 30
0.0
 10
447.6294203689176
 20
593.4787744828425
 30
0.0
 10
439.0548830076549
 20
593.7752863415674
 30
0.0
 10
430.4791461933065
 20
594.040118527497
 30
0.0
 10
421.9029507645429
 20
594.2870647511779
 30
0.0
 10
413.7875217125468
 20
594.5207111568003
 30
0.0
 10
405.6717046022065
 20
594.7384118919446
 30
0.0
 10
397.5556405456513
 20
594.9484220160911
 30
0.0
 10
390.8016613070796
 20
595.123154108293
 30
0.0
 10
384.047505678337
 20
595.2925944956821
 30
0.0
 10
377.2932089374665
 20
595.4559317835282
 30
0.0
 10
339.2226384117455
 20
596.3764414707456
 30
0.0
 10
301.1473759077808
 20
597.1024986452256
 30
0.0
 10
263.0694322734134
 20
597.6358672085748
 30
0.0
 10
210.4430398841894
 20
598.3729664057864
 30
0.0
 10
157.8114616242918
 20
598.7419393384132
 30
0.0
 10
105.1798833644314
 20
598.7417629435263
 30
0.0
  0
ENDBLK
  5
EA
330
E7
100
AcDbEntity
  8
0
100
AcDbBlockEnd
  0
BLOCK
  5
EE
330
EC
100
AcDbEntity
  8
0
100
AcDbBlockBegin
  2
block 34
 70
     0
 10
0.0
 20
0.0
 30
0.0
  3
block 34
  1

  0
SPLINE
  5
F0
330
EC
100
AcDbEntity
  8
0
 62
   250
370
    25
100
AcDbSpline
210
0.0
220
0.0
230
1.0
 70
     8
 71
     3
 72
    98
 73
    94
 74
     0
 42
0.0000000001
 43
0.0000000001
 12
1.0
 22
0.0
 32
0.0
 13
1.0
 23
0.0
 33
0.0
 40
0.0
 40
0.0
 40
0.0
 40
0.0
 40
1.0
 40
1.0
 40
1.0
 40
2.0
 40
2.0
 40
2.0
 40
3.0
 40
3.0
 40
3.0
 40
4.0
 40
4.0
 40
4.0
 40
5.0
 40
5.0
 40
5.0
 40
6.0
 40
6.0
 40
6.0
 40
7.0
 40
7.0
 40
7.0
 40
8.0
 40
8.0
 40
8.0
 40
9.0
 40
9.0
 40
9.0
 40
10.0
 40
10.0
 40
10.0
 40
11.0
 40
11.0
 40
11.0
 40
12.0
 40
12.0
 40
12.0
 40
13.0
 40
13.0
 40
13.0
 40
14.0
 40
14.0
 40
14.0
 40
15.0
 40
15.0
 40
15.0
 40
16.0
 40
16.0
 40
16.0
 40
17.0
 40
17.0
 40
17.0
 40
18.0
 40
18.0
 40
18.0
 40
19.0
 40
19.0
 40
19.0
 40
20.0
 40
20.0
 40
20.0
 40
21.0
 40
21.0
 40
21.0
 40
22.0
 40
22.0
 40
22.0
 40
23.0
 40
23.0
 40
23.0
 40
24.0
 40
24.0
 40
24.0
 40
25.0
 40
25.0
 40
25.0
 40
26.0
 40
26.0
 40
26.0
 40
27.0
 40
27.0
 40
27.0
 40
28.0
 40
28.0
 40
28.0
 40
29.0
 40
29.0
 40
29.0
 40
30.0
 40
30.0
 40
30.0
 40
31.0
 40
31.0
 40
31.0
 40
31.0
 10
1005.281056100063
 20
148.6437806406678
 30
0.0
 10
1005.281126658186
 20
125.6699500441798
 30
0.0
 10
1004.201830547288
 20
102.69608416956
 30
0.0
 10
1002.047189463037
 20
79.82350152490703
 30
0.0
 10
1000.47805787637
 20
63.16623784728192
 30
0.0
 10
998.3385510673078
 20
46.56270261246677
 30
0.0
 10
995.6353013058676
 20
30.05152526550578
 30
0.0
 10
994.7919093937749
 20
24.90005063335053
 30
0.0
 10
993.8936248638039
 20
19.75757189937831
 30
0.0
 10
992.9377313074812
 20
14.62578240910681
 30
0.0
 10
992.5054695808041
 20
12.30505234778834
 30
0.0
 10
992.0613897133985
 20
9.986474246439224
 30
0.0
 10
991.6031280770959
 20
7.670683109619221
 30
0.0
 10
989.9346535514103
 20
-0.7609076658491418
 30
0.0
 10
988.0778648905654
 20
-9.155915122090661
 30
0.0
 10
985.9756822386702
 20
-17.48992686089752
 30
0.0
 10
983.9983838202472
 20
-25.32874086362947
 30
0.0
 10
981.8039843924987
 20
-33.11365003338175
 30
0.0
 10
979.3514556041415
 20
-40.81706694909897
 30
0.0
 10
976.9140610915143
 20
-48.47299963365134
 30
0.0
 10
974.2217122411768
 20
-56.04846312708472
 30
0.0
 10
971.2484091434673
 20
-63.5126597074286
 30
0.0
 10
968.2872416887831
 20
-70.94637606806359
 30
0.0
 10
965.0474130588248
 20
-78.26974274442512
 30
0.0
 10
961.5146003725656
 20
-85.44945727424674
 30
0.0
 10
957.9785421073371
 20
-92.63569824000953
 30
0.0
 10
954.1489353373191
 20
-99.67804011300396
 30
0.0
 10
950.0261681208297
 20
-106.5444857181622
 30
0.0
 10
945.7837025415681
 20
-113.6102522044781
 30
0.0
 10
941.2307902801243
 20
-120.4897859595728
 30
0.0
 10
936.381542549336
 20
-127.1537003827096
 30
0.0
 10
931.5840124135425
 20
-133.7466001273113
 30
0.0
 10
926.4964615761334
 20
-140.1284666841393
 30
0.0
 10
921.1438316057775
 20
-146.2792974089846
 30
0.0
 10
915.8834184112371
 20
-152.3241882035316
 30
0.0
 10
910.3669925379791
 20
-158.1459101673027
 30
0.0
 10
904.6241875329536
 20
-163.7345501732206
 30
0.0
 10
898.9366984821928
 20
-169.269355902204
 30
0.0
 10
893.0271694976075
 20
-174.5755599834567
 30
0.0
 10
886.9269274716777
 20
-179.6517512956556
 30
0.0
 10
879.8590795823611
 20
-185.5330931337336
 30
0.0
 10
872.535219014339
 20
-191.1056463571796
 30
0.0
 10
865.0022302722198
 20
-196.3781246399217
 30
0.0
 10
857.4992278573537
 20
-201.6296124935679
 30
0.0
 10
849.7887906139192
 20
-206.5834243126946
 30
0.0
 10
841.9123349515812
 20
-211.2561407723318
 30
0.0
 10
833.7624039846814
 20
-216.0911361795124
 30
0.0
 10
825.4347070142196
 20
-220.6251746951623
 30
0.0
 10
816.9678734852404
 20
-224.8809753719485
 30
0.0
 10
809.402711177754
 20
-228.6835238926794
 30
0.0
 10
801.7264230692424
 20
-232.2639619235667
 30
0.0
 10
793.9612695979447
 20
-235.6395757002961
 30
0.0
 10
784.5189984824011
 20
-239.7442100097657
 30
0.0
 10
774.9453166974043
 20
-243.5459824139887
 30
0.0
 10
765.2740205976677
 20
-247.0761139713338
 30
0.0
 10
746.4525554878102
 20
-253.9461579370841
 30
0.0
 10
727.2614824359152
 20
-259.787388653775
 30
0.0
 10
707.8626570531408
 20
-264.8040306490599
 30
0.0
 10
687.1920233364547
 20
-270.1496050154026
 30
0.0
 10
666.2854501412522
 20
-274.5589356888416
 30
0.0
 10
645.2534988200443
 20
-278.2315904967508
 30
0.0
 10
622.0036529010532
 20
-282.2915628188585
 30
0.0
 10
598.6005944887335
 20
-285.4513103188006
 30
0.0
 10
575.1306489275598
 20
-287.9410574337922
 30
0.0
 10
563.760821417838
 20
-289.1472133510679
 30
0.0
 10
552.375330461875
 20
-290.1960998013947
 30
0.0
 10
540.978515257615
 20
-291.1121997390526
 30
0.0
 10
529.2583768894737
 20
-292.0542995863611
 30
0.0
 10
517.5262792684613
 20
-292.8559223099901
 30
0.0
 10
505.7886782744374
 20
-293.5463133985324
 30
0.0
 10
500.308200715358
 20
-293.8686487779894
 30
0.0
 10
494.8264884251644
 20
-294.1667481494084
 30
0.0
 10
489.3435414038298
 20
-294.4436101455427
 30
0.0
 10
482.4409358162292
 20
-294.7921218249111
 30
0.0
 10
475.5363193807748
 20
-295.1069782617103
 30
0.0
 10
468.6307857164911
 20
-295.3944589456028
 30
0.0
 10
461.6312360967502
 20
-295.6858554910899
 30
0.0
 10
454.6307339701508
 20
-295.9491001669692
 30
0.0
 10
447.6294204487969
 20
-296.1912133016506
 30
0.0
 10
439.0548830875849
 20
-296.4877251619221
 30
0.0
 10
430.4791462732878
 20
-296.7525220713563
 30
0.0
 10
421.9029508445763
 20
-296.9994682965644
 30
0.0
 10
413.7875217926309
 20
-297.2331499816915
 30
0.0
 10
405.6717046823297
 20
-297.4508507182799
 30
0.0
 10
397.5556406258129
 20
-297.6608255658543
 30
0.0
 10
390.8016613872663
 20
-297.8355929373039
 30
0.0
 10
384.04750575855
 20
-298.0050333259122
 30
0.0
 10
377.2932090177046
 20
-298.1683353369363
 30
0.0
 10
339.2226384921645
 20
-299.0888803090228
 30
0.0
 10
301.1473759883153
 20
-299.8149374903368
 30
0.0
 10
263.0694323540365
 20
-300.3482707824916
 30
0.0
 10
210.4430399649678
 20
-301.0853699891554
 30
0.0
 10
157.8114617051202
 20
-301.4543782092696
 30
0.0
 10
105.1798834452611
 20
-301.4541665457937
 30
0.0
  0
ENDBLK
  5
EF
330
EC
100
AcDbEntity
  8
0
100
AcDbBlockEnd
  0
BLOCK
  5
F3
330
F1
100
AcDbEntity
  8
0
100
AcDbBlockBegin
  2
block 35
 70
     0
 10
0.0
 20
0.0
 30
0.0
  3
block 35
  1

  0
SPLINE
  5
F5
330
F1
100
AcDbEntity
  8
0
 62
   250
370
    25
100
AcDbSpline
210
0.0
220
0.0
230
1.0
 70
     8
 71
     3
 72
    98
 73
    94
 74
     0
 42
0.0000000001
 43
0.0000000001
 12
1.0
 22
0.0
 32
0.0
 13
1.0
 23
0.0
 33
0.0
 40
0.0
 40
0.0
 40
0.0
 40
0.0
 40
1.0
 40
1.0
 40
1.0
 40
2.0
 40
2.0
 40
2.0
 40
3.0
 40
3.0
 40
3.0
 40
4.0
 40
4.0
 40
4.0
 40
5.0
 40
5.0
 40
5.0
 40
6.0
 40
6.0
 40
6.0
 40
7.0
 40
7.0
 40
7.0
 40
8.0
 40
8.0
 40
8.0
 40
9.0
 40
9.0
 40
9.0
 40
10.0
 40
10.0
 40
10.0
 40
11.0
 40
11.0
 40
11.0
 40
12.0
 40
12.0
 40
12.0
 40
13.0
 40
13.0
 40
13.0
 40
14.0
 40
14.0
 40
14.0
 40
15.0
 40
15.0
 40
15.0
 40
16.0
 40
16.0
 40
16.0
 40
17.0
 40
17.0
 40
17.0
 40
18.0
 40
18.0
 40
18.0
 40
19.0
 40
19.0
 40
19.0
 40
20.0
 40
20.0
 40
20.0
 40
21.0
 40
21.0
 40
21.0
 40
22.0
 40
22.0
 40
22.0
 40
23.0
 40
23.0
 40
23.0
 40
24.0
 40
24.0
 40
24.0
 40
25.0
 40
25.0
 40
25.0
 40
26.0
 40
26.0
 40
26.0
 40
27.0
 40
27.0
 40
27.0
 40
28.0
 40
28.0
 40
28.0
 40
29.0
 40
29.0
 40
29.0
 40
30.0
 40
30.0
 40
30.0
 40
31.0
 40
31.0
 40
31.0
 40
31.0
 10
-794.921324568386
 20
148.6437804790232
 30
0.0
 10
-794.9213598443488
 20
125.6699498825345
 30
0.0
 10
-793.842099007366
 20
102.6960840081072
 30
0.0
 10
-791.6874579190076
 20
79.8235013638393
 30
0.0
 10
-790.1183263293564
 20
63.16623768649717
 30
0.0
 10
-787.9788195173049
 20
46.56270245205356
 30
0.0
 10
-785.2755697528867
 20
30.05152510559374
 30
0.0
 10
-784.4321778398834
 20
24.90005047359186
 30
0.0
 10
-783.5338933089873
 20
19.75757173976145
 30
0.0
 10
-782.5779997517345
 20
14.62578224966898
 30
0.0
 10
-782.145738024653
 20
12.30505218844035
 30
0.0
 10
-781.701658156824
 20
9.986474087168881
 30
0.0
 10
-781.2433965200976
 20
7.67068295042524
 30
0.0
 10
-779.5749219928979
 20
-0.7609078247216318
 30
0.0
 10
-777.7181333305642
 20
-9.155915280642944
 30
0.0
 10
-775.6159506771739
 20
-17.48992701907761
 30
0.0
 10
-773.6386522573456
 20
-25.32874102143738
 30
0.0
 10
-771.4442528281911
 20
-33.11365019081747
 30
0.0
 10
-768.9917240384357
 20
-40.81706710608486
 30
0.0
 10
-766.5543295244538
 20
-48.47299979020153
 30
0.0
 10
-763.8619806727439
 20
-56.04846328314721
 30
0.0
 10
-760.8886775736927
 20
-63.51265986295206
 30
0.0
 10
-757.9275101176747
 20
-70.94637622306085
 30
0.0
 10
-754.6876814864067
 20
-78.26974289884485
 30
0.0
 10
-751.1548335208158
 20
-85.44945742803762
 30
0.0
 10
-747.6188105323456
 20
-92.63569839315872
 30
0.0
 10
-743.7892037610505
 20
-99.67804026547293
 30
0.0
 10
-739.6664365433288
 20
-106.5444858698862
 30
0.0
 10
-735.4239709627911
 20
-113.6102523554455
 30
0.0
 10
-730.871023422086
 20
-120.4897861097188
 30
0.0
 10
-726.0218109681396
 20
-127.1537005319822
 30
0.0
 10
-721.2242808311582
 20
-133.7466002757248
 30
0.0
 10
-716.1366947145717
 20
-140.1284668316287
 30
0.0
 10
-710.7841000211345
 20
-146.2792975555243
 30
0.0
 10
-705.52368682551
 20
-152.3241883491344
 30
0.0
 10
-700.0072609512184
 20
-158.145910311891
 30
0.0
 10
-694.2644559451854
 20
-163.7345503167828
 30
0.0
 10
-688.5769668934237
 20
-169.2693560447651
 30
0.0
 10
-682.6674379078889
 20
-174.5755601249526
 30
0.0
 10
-676.5671958810418
 20
-179.6517514360478
 30
0.0
 10
-669.4993479906723
 20
-185.5330932728546
 30
0.0
 10
-662.175487421662
 20
-191.1056464949794
 30
0.0
 10
-654.6424986785929
 20
-196.3781247763732
 30
0.0
 10
-647.1394962627836
 20
-201.6296126286719
 30
0.0
 10
-639.4290590184642
 20
-206.5834244463996
 30
0.0
 10
-631.552603355285
 20
-211.256140904638
 30
0.0
 10
-623.4026723875253
 20
-216.0911363103555
 30
0.0
 10
-615.0749754162227
 20
-220.6251748245173
 30
0.0
 10
-606.6081418864992
 20
-224.8809754997628
 30
0.0
 10
-599.0429795783263
 20
-228.6835240191467
 30
0.0
 10
-591.3666914691665
 20
-232.2639620486601
 30
0.0
 10
-583.6015379972534
 20
-235.6395758239907
 30
0.0
 10
-574.1592668809841
 20
-239.7442101317661
 30
0.0
 10
-564.585585095295
 20
-243.5459825342694
 30
0.0
 10
-554.9142889949223
 20
-247.0761140898691
 30
0.0
 10
-536.0928238838327
 20
-253.9461580522319
 30
0.0
 10
-516.9017508308985
 20
-259.7873887655089
 30
0.0
 10
-497.5029254472132
 20
-264.8040307572895
 30
0.0
 10
-476.8322917295835
 20
-270.149605119936
 30
0.0
 10
-455.9257185335854
 20
-274.5589357896018
 30
0.0
 10
-434.8937672117034
 20
-278.231590593725
 30
0.0
 10
-411.6439212919867
 20
-282.2915629116745
 30
0.0
 10
-388.2408276010743
 20
-285.451310407407
 30
0.0
 10
-364.770917317486
 20
-287.9410575181891
 30
0.0
 10
-353.4010898075524
 20
-289.1472134334242
 30
0.0
 10
-342.0155988513911
 20
-290.1960998817104
 30
0.0
 10
-330.6187836469578
 20
-291.1121998173149
 30
0.0
 10
-318.8986452786554
 20
-292.0542996625186
 30
0.0
 10
-307.1665476574897
 20
-292.8559223840422
 30
0.0
 10
-295.4289466633563
 20
-293.5463134704675
 30
0.0
 10
-289.9484691042259
 20
-293.8686488489363
 30
0.0
 10
-284.4667568139679
 20
-294.1667482193799
 30
0.0
 10
-278.9837745145659
 20
-294.4436102145382
 30
0.0
 10
-272.0812042049107
 20
-294.7921218926752
 30
0.0
 10
-265.176587769405
 20
-295.1069783282166
 30
0.0
 10
-258.2710188270411
 20
-295.3944590108764
 30
0.0
 10
-251.2715044852838
 20
-295.6858555551064
 30
0.0
 10
-244.2710023586401
 20
-295.9491002297281
 30
0.0
 10
-237.2696535592184
 20
-296.1912133631511
 30
0.0
 10
-228.6951514759848
 20
-296.4877252218824
 30
0.0
 10
-220.1194146616424
 20
-296.7525221297765
 30
0.0
 10
-211.5432192328664
 20
-296.9994683534453
 30
0.0
 10
-203.4277901808892
 20
-297.2331500371093
 30
0.0
 10
-195.3119730705556
 20
-297.4508507722468
 30
0.0
 10
-187.195909013994
 20
-297.6608256183581
 30
0.0
 10
-180.4419297754027
 20
-297.8355929885891
 30
0.0
 10
-173.6877741466732
 20
-298.005033375991
 30
0.0
 10
-166.9334421277606
 20
-298.1683353858081
 30
0.0
 10
-128.8628716020469
 20
-299.0888803510542
 30
0.0
 10
-90.78764437612384
 20
-299.814937525541
 30
0.0
 10
-52.70970074173008
 20
-300.3482708108419
 30
0.0
 10
-0.0832730744908698
 20
-301.0853700080598
 30
0.0
 10
52.54826990737224
 20
-301.4543782187154
 30
0.0
 10
105.1798834452611
 20
-301.4541665457937
 30
0.0
  0
ENDBLK
  5
F4
330
F1
100
AcDbEntity
  8
0
100
AcDbBlockEnd
  0
BLOCK
  5
F8
330
F6
100
AcDbEntity
  8
0
100
AcDbBlockBegin
  2
block 36
 70
     0
 10
0.0
 20
0.0
 30
0.0
  3
block 36
  1

  0
SPLINE
  5
FA
330
F6
100
AcDbEntity
  8
0
 62
   250
370
    25
100
AcDbSpline
210
0.0
220
0.0
230
1.0
 70
     8
 71
     3
 72
    29
 73
    25
 74
     0
 42
0.0000000001
 43
0.0000000001
 12
1.0
 22
0.0
 32
0.0
 13
1.0
 23
0.0
 33
0.0
 40
0.0
 40
0.0
 40
0.0
 40
0.0
 40
1.0
 40
1.0
 40
1.0
 40
2.0
 40
2.0
 40
2.0
 40
3.0
 40
3.0
 40
3.0
 40
4.0
 40
4.0
 40
4.0
 40
5.0
 40
5.0
 40
5.0
 40
6.0
 40
6.0
 40
6.0
 40
7.0
 40
7.0
 40
7.0
 40
8.0
 40
8.0
 40
8.0
 40
8.0
 10
105.1798834089788
 20
102.6354411517262
 30
0.0
 10
111.2005381950385
 20
102.6305022277796
 30
0.0
 10
117.2199229718382
 20
103.8540149363507
 30
0.0
 10
122.7662998946291
 20
106.1952415347444
 30
0.0
 10
128.2977542098631
 20
108.5301533653964
 30
0.0
 10
133.3587759674187
 20
111.9767465423867
 30
0.0
 10
137.5654343443848
 20
116.2606285322996
 30
0.0
 10
141.7584754009805
 20
120.5306815336683
 30
0.0
 10
145.1026564499874
 20
125.6325552529629
 30
0.0
 10
147.3574165907919
 20
131.1764627139085
 30
0.0
 10
149.6062500222249
 20
136.7058003476264
 30
0.0
 10
150.771377586653
 20
142.6748080948522
 30
0.0
 10
150.771377586114
 20
148.6438158419747
 30
0.0
 10
150.771377585575
 20
154.614869714955
 30
0.0
 10
149.6054033472968
 20
160.5859235878326
 30
0.0
 10
147.3550882375463
 20
166.1168487325818
 30
0.0
 10
145.1001869836118
 20
171.658957013501
 30
0.0
 10
141.756535104154
 20
176.7591021086276
 30
0.0
 10
137.5644818316997
 20
181.0278498220341
 30
0.0
 10
133.3566240008649
 20
185.3127195960896
 30
0.0
 10
128.2939441751803
 20
188.759841942667
 30
0.0
 10
122.7607612359644
 20
191.0946479382313
 30
0.0
 10
117.2159012681474
 20
193.4343223022232
 30
0.0
 10
111.1984920609157
 20
194.6569883369314
 30
0.0
 10
105.1798834007137
 20
194.6520846899358
 30
0.0
  0
ENDBLK
  5
F9
330
F6
100
AcDbEntity
  8
0
100
AcDbBlockEnd
  0
BLOCK
  5
FD
330
FB
100
AcDbEntity
  8
0
100
AcDbBlockBegin
  2
block 37
 70
     0
 10
0.0
 20
0.0
 30
0.0
  3
block 37
  1

  0
SPLINE
  5
FF
330
FB
100
AcDbEntity
  8
0
  6
AI-Linetype-13
 62
     6
370
    25
100
AcDbSpline
210
0.0
220
0.0
230
1.0
 70
     8
 71
     3
 72
    11
 73
     7
 74
     0
 42
0.0000000001
 43
0.0000000001
 12
1.0
 22
0.0
 32
0.0
 13
1.0
 23
0.0
 33
0.0
 40
0.0
 40
0.0
 40
0.0
 40
0.0
 40
1.0
 40
1.0
 40
1.0
 40
2.0
 40
2.0
 40
2.0
 40
2.0
 10
-410.145910236197
 20
-62.70553373588142
 30
0.0
 10
-406.3790278049135
 20
-80.81346536950534
 30
0.0
 10
-389.5286874568515
 20
-93.13999782935471
 30
0.0
 10
-371.1302765070445
 20
-91.24662584684508
 30
0.0
 10
-352.7318302792149
 20
-89.35325386434828
 30
0.0
 10
-338.7451136303419
 20
-73.85328602746154
 30
0.0
 10
-338.7451136319975
 20
-55.35768409915717
 30
0.0
  0
ENDBLK
  5
FE
330
FB
100
AcDbEntity
  8
0
100
AcDbBlockEnd
  0
BLOCK
  5
103
330
101
100
AcDbEntity
  8
0
100
AcDbBlockBegin
  2
block 38
 70
     0
 10
0.0
 20
0.0
 30
0.0
  3
block 38
  1

  0
SPLINE
  5
105
330
101
100
AcDbEntity
  8
0
  6
AI-Linetype-14
 62
     6
370
    25
100
AcDbSpline
210
0.0
220
0.0
230
1.0
 70
     8
 71
     3
 72
    11
 73
     7
 74
     0
 42
0.0000000001
 43
0.0000000001
 12
1.0
 22
0.0
 32
0.0
 13
1.0
 23
0.0
 33
0.0
 40
0.0
 40
0.0
 40
0.0
 40
0.0
 40
1.0
 40
1.0
 40
1.0
 40
2.0
 40
2.0
 40
2.0
 40
2.0
 10
-339.7638373646703
 20
-46.84481273805851
 30
0.0
 10
-344.0741073237843
 20
-29.09311867225306
 30
0.0
 10
-360.972319961303
 20
-17.36426663163452
 30
0.0
 10
-379.1103790344494
 20
-19.53478283400925
 30
0.0
 10
-397.248473385631
 20
-21.70533431439956
 30
0.0
 10
-410.9020595777473
 20
-37.09018993264752
 30
0.0
 10
-410.9020595761046
 20
-55.35768410562549
 30
0.0
  0
ENDBLK
  5
104
330
101
100
AcDbEntity
  8
0
100
AcDbBlockEnd
  0
BLOCK
  5
109
330
107
100
AcDbEntity
  8
0
100
AcDbBlockBegin
  2
block 39
 70
     0
 10
0.0
 20
0.0
 30
0.0
  3
block 39
  1

  0
SPLINE
  5
10B
330
107
100
AcDbEntity
  8
0
  6
AI-Linetype-15
 62
     6
370
    25
100
AcDbSpline
210
0.0
220
0.0
230
1.0
 70
     8
 71
     3
 72
    11
 73
     7
 74
     0
 42
0.0000000001
 43
0.0000000001
 12
1.0
 22
0.0
 32
0.0
 13
1.0
 23
0.0
 33
0.0
 40
0.0
 40
0.0
 40
0.0
 40
0.0
 40
1.0
 40
1.0
 40
1.0
 40
2.0
 40
2.0
 40
2.0
 40
2.0
 10
-348.6706585091418
 20
-55.35768410004271
 30
0.0
 10
-348.670658507929
 20
-68.76495907364718
 30
0.0
 10
-358.8094943659351
 20
-80.00073006255674
 30
0.0
 10
-372.1463543874196
 20
-81.37322190118992
 30
0.0
 10
-385.4831791308945
 20
-82.74571373982246
 30
0.0
 10
-397.697844953377
 20
-73.81035266773928
 30
0.0
 10
-400.4283999143111
 20
-60.68406721971733
 30
0.0
  0
ENDBLK
  5
10A
330
107
100
AcDbEntity
  8
0
100
AcDbBlockEnd
  0
BLOCK
  5
10F
330
10D
100
AcDbEntity
  8
0
100
AcDbBlockBegin
  2
block 40
 70
     0
 10
0.0
 20
0.0
 30
0.0
  3
block 40
  1

  0
SPLINE
  5
111
330
10D
100
AcDbEntity
  8
0
  6
AI-Linetype-16
 62
     6
370
    25
100
AcDbSpline
210
0.0
220
0.0
230
1.0
 70
     8
 71
     3
 72
    11
 73
     7
 74
     0
 42
0.0000000001
 43
0.0000000001
 12
1.0
 22
0.0
 32
0.0
 13
1.0
 23
0.0
 33
0.0
 40
0.0
 40
0.0
 40
0.0
 40
0.0
 40
1.0
 40
1.0
 40
1.0
 40
2.0
 40
2.0
 40
2.0
 40
2.0
 10
-400.976514698967
 20
-55.35768410473995
 30
0.0
 10
-400.9765147001605
 20
-42.11575726740066
 30
0.0
 10
-391.0791569716347
 20
-30.96341882434808
 30
0.0
 10
-377.9310696997243
 20
-29.39001859314019
 30
0.0
 10
-364.7829471497716
 20
-27.81661836193167
 30
0.0
 10
-352.5336030218172
 20
-36.31876520026162
 30
0.0
 10
-349.4090982768494
 20
-49.18678017549639
 30
0.0
  0
ENDBLK
  5
110
330
10D
100
AcDbEntity
  8
0
100
AcDbBlockEnd
  0
BLOCK
  5
115
330
113
100
AcDbEntity
  8
0
100
AcDbBlockBegin
  2
block 41
 70
     0
 10
0.0
 20
0.0
 30
0.0
  3
block 41
  1

  0
INSERT
  5
118
330
113
100
AcDbEntity
  8
0
100
AcDbBlockReference
  2
block 42
 10
0.0
 20
0.0
 30
0.0
  0
ENDBLK
  5
116
330
113
100
AcDbEntity
  8
0
100
AcDbBlockEnd
  0
BLOCK
  5
119
330
117
100
AcDbEntity
  8
0
100
AcDbBlockBegin
  2
block 42
 70
     0
 10
0.0
 20
0.0
 30
0.0
  3
block 42
  1

  0
INSERT
  5
11C
330
117
100
AcDbEntity
  8
0
100
AcDbBlockReference
  2
block 43
 10
0.0
 20
0.0
 30
0.0
  0
ENDBLK
  5
11A
330
117
100
AcDbEntity
  8
0
100
AcDbBlockEnd
  0
BLOCK
  5
11D
330
11B
100
AcDbEntity
  8
0
100
AcDbBlockBegin
  2
block 43
 70
     0
 10
0.0
 20
0.0
 30
0.0
  3
block 43
  1

  0
POLYLINE
  5
11F
330
11B
100
AcDbEntity
  8
0
 62
     4
370
    25
100
AcDb2dPolyline
 66
     1
 10
0.0
 20
0.0
 30
0.0
  0
VERTEX
  5
120
330
11F
100
AcDbEntity
  8
0
 62
     4
370
    25
100
AcDbVertex
100
AcDb2dVertex
 10
171.4572884872735
 20
147.8453684119319
 30
0.0
  0
VERTEX
  5
121
330
11F
100
AcDbEntity
  8
0
 62
     4
370
    25
100
AcDbVertex
100
AcDb2dVertex
 10
160.2072107550328
 20
147.8453684119319
 30
0.0
  0
SEQEND
  5
122
330
11F
100
AcDbEntity
  8
0
 62
     4
370
    25
  0
POLYLINE
  5
123
330
11B
100
AcDbEntity
  8
0
  6
AI-Linetype-17
 62
     4
370
    25
100
AcDb2dPolyline
 66
     1
 10
0.0
 20
0.0
 30
0.0
  0
VERTEX
  5
124
330
123
100
AcDbEntity
  8
0
  6
AI-Linetype-17
 62
     4
370
    25
100
AcDbVertex
100
AcDb2dVertex
 10
156.6330749120136
 20
147.8453684119319
 30
0.0
  0
VERTEX
  5
125
330
123
100
AcDbEntity
  8
0
  6
AI-Linetype-17
 62
     4
370
    25
100
AcDbVertex
100
AcDb2dVertex
 10
151.2718926793316
 20
147.8453684119319
 30
0.0
  0
SEQEND
  5
127
330
123
100
AcDbEntity
  8
0
  6
AI-Linetype-17
 62
     4
370
    25
  0
POLYLINE
  5
128
330
11B
100
AcDbEntity
  8
0
  6
AI-Linetype-18
 62
     4
370
    25
100
AcDb2dPolyline
 66
     1
 10
0.0
 20
0.0
 30
0.0
  0
VERTEX
  5
129
330
128
100
AcDbEntity
  8
0
  6
AI-Linetype-18
 62
     4
370
    25
100
AcDbVertex
100
AcDb2dVertex
 10
149.4848247578219
 20
147.8453684119319
 30
0.0
  0
VERTEX
  5
12A
330
128
100
AcDbEntity
  8
0
  6
AI-Linetype-18
 62
     4
370
    25
100
AcDbVertex
100
AcDb2dVertex
 10
54.76999345045952
 20
147.8453684119319
 30
0.0
  0
SEQEND
  5
12C
330
128
100
AcDbEntity
  8
0
  6
AI-Linetype-18
 62
     4
370
    25
  0
POLYLINE
  5
12D
330
11B
100
AcDbEntity
  8
0
 62
     4
370
    25
100
AcDb2dPolyline
 66
     1
 10
0.0
 20
0.0
 30
0.0
  0
VERTEX
  5
12E
330
12D
100
AcDbEntity
  8
0
 62
     4
370
    25
100
AcDbVertex
100
AcDb2dVertex
 10
52.9829309119116
 20
147.8453684119319
 30
0.0
  0
VERTEX
  5
12F
330
12D
100
AcDbEntity
  8
0
 62
     4
370
    25
100
AcDbVertex
100
AcDb2dVertex
 10
41.73284779670926
 20
147.8453684119319
 30
0.0
  0
SEQEND
  5
130
330
12D
100
AcDbEntity
  8
0
 62
     4
370
    25
  0
ENDBLK
  5
11E
330
11B
100
AcDbEntity
  8
0
100
AcDbBlockEnd
  0
BLOCK
  5
133
330
131
100
AcDbEntity
  8
0
100
AcDbBlockBegin
  2
block 44
 70
     0
 10
0.0
 20
0.0
 30
0.0
  3
block 44
  1

  0
INSERT
  5
136
330
131
100
AcDbEntity
  8
0
100
AcDbBlockReference
  2
block 45
 10
0.0
 20
0.0
 30
0.0
  0
ENDBLK
  5
134
330
131
100
AcDbEntity
  8
0
100
AcDbBlockEnd
  0
BLOCK
  5
137
330
135
100
AcDbEntity
  8
0
100
AcDbBlockBegin
  2
block 45
 70
     0
 10
0.0
 20
0.0
 30
0.0
  3
block 45
  1

  0
INSERT
  5
13A
330
135
100
AcDbEntity
  8
0
100
AcDbBlockReference
  2
block 46
 10
0.0
 20
0.0
 30
0.0
  0
ENDBLK
  5
138
330
135
100
AcDbEntity
  8
0
100
AcDbBlockEnd
  0
BLOCK
  5
13B
330
139
100
AcDbEntity
  8
0
100
AcDbBlockBegin
  2
block 46
 70
     0
 10
0.0
 20
0.0
 30
0.0
  3
block 46
  1

  0
POLYLINE
  5
13D
330
139
100
AcDbEntity
  8
0
 62
     4
370
    25
100
AcDb2dPolyline
 66
     1
 10
0.0
 20
0.0
 30
0.0
  0
VERTEX
  5
13E
330
13D
100
AcDbEntity
  8
0
 62
     4
370
    25
100
AcDbVertex
100
AcDb2dVertex
 10
105.3657046584459
 20
212.6489064002883
 30
0.0
  0
VERTEX
  5
13F
330
13D
100
AcDbEntity
  8
0
 62
     4
370
    25
100
AcDbVertex
100
AcDb2dVertex
 10
105.3657046584459
 20
201.398839433971
 30
0.0
  0
SEQEND
  5
140
330
13D
100
AcDbEntity
  8
0
 62
     4
370
    25
  0
POLYLINE
  5
141
330
139
100
AcDbEntity
  8
0
  6
AI-Linetype-19
 62
     4
370
    25
100
AcDb2dPolyline
 66
     1
 10
0.0
 20
0.0
 30
0.0
  0
VERTEX
  5
142
330
141
100
AcDbEntity
  8
0
  6
AI-Linetype-19
 62
     4
370
    25
100
AcDbVertex
100
AcDb2dVertex
 10
105.3657046584459
 20
197.8247035909518
 30
0.0
  0
VERTEX
  5
143
330
141
100
AcDbEntity
  8
0
  6
AI-Linetype-19
 62
     4
370
    25
100
AcDbVertex
100
AcDb2dVertex
 10
105.3657046584459
 20
192.4635321241932
 30
0.0
  0
SEQEND
  5
145
330
141
100
AcDbEntity
  8
0
  6
AI-Linetype-19
 62
     4
370
    25
  0
POLYLINE
  5
146
330
139
100
AcDbEntity
  8
0
  6
AI-Linetype-20
 62
     4
370
    25
100
AcDb2dPolyline
 66
     1
 10
0.0
 20
0.0
 30
0.0
  0
VERTEX
  5
147
330
146
100
AcDbEntity
  8
0
  6
AI-Linetype-20
 62
     4
370
    25
100
AcDbVertex
100
AcDb2dVertex
 10
105.3657046584459
 20
190.6764749686069
 30
0.0
  0
VERTEX
  5
148
330
146
100
AcDbEntity
  8
0
  6
AI-Linetype-20
 62
     4
370
    25
100
AcDbVertex
100
AcDb2dVertex
 10
105.3657046584459
 20
95.96183206490386
 30
0.0
  0
SEQEND
  5
14A
330
146
100
AcDbEntity
  8
0
  6
AI-Linetype-20
 62
     4
370
    25
  0
POLYLINE
  5
14B
330
139
100
AcDbEntity
  8
0
 62
     4
370
    25
100
AcDb2dPolyline
 66
     1
 10
0.0
 20
0.0
 30
0.0
  0
VERTEX
  5
14C
330
14B
100
AcDbEntity
  8
0
 62
     4
370
    25
100
AcDbVertex
100
AcDb2dVertex
 10
105.3657046584459
 20
94.17476414339424
 30
0.0
  0
VERTEX
  5
14D
330
14B
100
AcDbEntity
  8
0
 62
     4
370
    25
100
AcDbVertex
100
AcDb2dVertex
 10
105.3657046584459
 20
82.9246864111536
 30
0.0
  0
SEQEND
  5
14E
330
14B
100
AcDbEntity
  8
0
 62
     4
370
    25
  0
ENDBLK
  5
13C
330
139
100
AcDbEntity
  8
0
100
AcDbBlockEnd
  0
ENDSEC
  0
SECTION
  2
ENTITIES
  0
INSERT
  5
41
330
1F
100
AcDbEntity
  8
0
100
AcDbBlockReference
  2
block 2
 10
0.0
 20
0.0
 30
0.0
  0
INSERT
  5
46
330
1F
100
AcDbEntity
  8
0
100
AcDbBlockReference
  2
block 3
 10
0.0
 20
0.0
 30
0.0
  0
INSERT
  5
4B
330
1F
100
AcDbEntity
  8
0
100
AcDbBlockReference
  2
block 4
 10
0.0
 20
0.0
 30
0.0
  0
INSERT
  5
50
330
1F
100
AcDbEntity
  8
0
100
AcDbBlockReference
  2
block 5
 10
0.0
 20
0.0
 30
0.0
  0
INSERT
  5
55
330
1F
100
AcDbEntity
  8
0
100
AcDbBlockReference
  2
block 6
 10
0.0
 20
0.0
 30
0.0
  0
INSERT
  5
5A
330
1F
100
AcDbEntity
  8
0
100
AcDbBlockReference
  2
block 7
 10
0.0
 20
0.0
 30
0.0
  0
INSERT
  5
5F
330
1F
100
AcDbEntity
  8
0
100
AcDbBlockReference
  2
block 8
 10
0.0
 20
0.0
 30
0.0
  0
INSERT
  5
64
330
1F
100
AcDbEntity
  8
0
100
AcDbBlockReference
  2
block 9
 10
0.0
 20
0.0
 30
0.0
  0
INSERT
  5
69
330
1F
100
AcDbEntity
  8
0
100
AcDbBlockReference
  2
block 10
 10
0.0
 20
0.0
 30
0.0
  0
INSERT
  5
6E
330
1F
100
AcDbEntity
  8
0
100
AcDbBlockReference
  2
block 11
 10
0.0
 20
0.0
 30
0.0
  0
INSERT
  5
73
330
1F
100
AcDbEntity
  8
0
100
AcDbBlockReference
  2
block 12
 10
0.0
 20
0.0
 30
0.0
  0
INSERT
  5
78
330
1F
100
AcDbEntity
  8
0
100
AcDbBlockReference
  2
block 13
 10
0.0
 20
0.0
 30
0.0
  0
INSERT
  5
7D
330
1F
100
AcDbEntity
  8
0
100
AcDbBlockReference
  2
block 14
 10
0.0
 20
0.0
 30
0.0
  0
INSERT
  5
82
330
1F
100
AcDbEntity
  8
0
100
AcDbBlockReference
  2
block 15
 10
0.0
 20
0.0
 30
0.0
  0
INSERT
  5
87
330
1F
100
AcDbEntity
  8
0
100
AcDbBlockReference
  2
block 16
 10
0.0
 20
0.0
 30
0.0
  0
INSERT
  5
8C
330
1F
100
AcDbEntity
  8
0
100
AcDbBlockReference
  2
block 17
 10
0.0
 20
0.0
 30
0.0
  0
INSERT
  5
91
330
1F
100
AcDbEntity
  8
0
100
AcDbBlockReference
  2
block 18
 10
0.0
 20
0.0
 30
0.0
  0
INSERT
  5
96
330
1F
100
AcDbEntity
  8
0
100
AcDbBlockReference
  2
block 19
 10
0.0
 20
0.0
 30
0.0
  0
INSERT
  5
9B
330
1F
100
AcDbEntity
  8
0
100
AcDbBlockReference
  2
block 20
 10
0.0
 20
0.0
 30
0.0
  0
INSERT
  5
A0
330
1F
100
AcDbEntity
  8
0
100
AcDbBlockReference
  2
block 21
 10
0.0
 20
0.0
 30
0.0
  0
INSERT
  5
A6
330
1F
100
AcDbEntity
  8
0
100
AcDbBlockReference
  2
block 22
 10
0.0
 20
0.0
 30
0.0
  0
INSERT
  5
AC
330
1F
100
AcDbEntity
  8
0
100
AcDbBlockReference
  2
block 23
 10
0.0
 20
0.0
 30
0.0
  0
INSERT
  5
B2
330
1F
100
AcDbEntity
  8
0
100
AcDbBlockReference
  2
block 24
 10
0.0
 20
0.0
 30
0.0
  0
INSERT
  5
B8
330
1F
100
AcDbEntity
  8
0
100
AcDbBlockReference
  2
block 25
 10
0.0
 20
0.0
 30
0.0
  0
INSERT
  5
BE
330
1F
100
AcDbEntity
  8
0
100
AcDbBlockReference
  2
block 26
 10
0.0
 20
0.0
 30
0.0
  0
INSERT
  5
C4
330
1F
100
AcDbEntity
  8
0
100
AcDbBlockReference
  2
block 27
 10
0.0
 20
0.0
 30
0.0
  0
INSERT
  5
CA
330
1F
100
AcDbEntity
  8
0
100
AcDbBlockReference
  2
block 28
 10
0.0
 20
0.0
 30
0.0
  0
INSERT
  5
D0
330
1F
100
AcDbEntity
  8
0
100
AcDbBlockReference
  2
block 29
 10
0.0
 20
0.0
 30
0.0
  0
INSERT
  5
D6
330
1F
100
AcDbEntity
  8
0
100
AcDbBlockReference
  2
block 30
 10
0.0
 20
0.0
 30
0.0
  0
INSERT
  5
DC
330
1F
100
AcDbEntity
  8
0
100
AcDbBlockReference
  2
block 31
 10
0.0
 20
0.0
 30
0.0
  0
INSERT
  5
E2
330
1F
100
AcDbEntity
  8
0
100
AcDbBlockReference
  2
block 32
 10
0.0
 20
0.0
 30
0.0
  0
INSERT
  5
E8
330
1F
100
AcDbEntity
  8
0
100
AcDbBlockReference
  2
block 33
 10
0.0
 20
0.0
 30
0.0
  0
INSERT
  5
ED
330
1F
100
AcDbEntity
  8
0
100
AcDbBlockReference
  2
block 34
 10
0.0
 20
0.0
 30
0.0
  0
INSERT
  5
F2
330
1F
100
AcDbEntity
  8
0
100
AcDbBlockReference
  2
block 35
 10
0.0
 20
0.0
 30
0.0
  0
INSERT
  5
F7
330
1F
100
AcDbEntity
  8
0
100
AcDbBlockReference
  2
block 36
 10
0.0
 20
0.0
 30
0.0
  0
INSERT
  5
FC
330
1F
100
AcDbEntity
  8
0
100
AcDbBlockReference
  2
block 37
 10
0.0
 20
0.0
 30
0.0
  0
INSERT
  5
102
330
1F
100
AcDbEntity
  8
0
100
AcDbBlockReference
  2
block 38
 10
0.0
 20
0.0
 30
0.0
  0
INSERT
  5
108
330
1F
100
AcDbEntity
  8
0
100
AcDbBlockReference
  2
block 39
 10
0.0
 20
0.0
 30
0.0
  0
INSERT
  5
10E
330
1F
100
AcDbEntity
  8
0
100
AcDbBlockReference
  2
block 40
 10
0.0
 20
0.0
 30
0.0
  0
INSERT
  5
114
330
1F
100
AcDbEntity
  8
0
100
AcDbBlockReference
  2
block 41
 10
0.0
 20
0.0
 30
0.0
  0
INSERT
  5
132
330
1F
100
AcDbEntity
  8
0
100
AcDbBlockReference
  2
block 44
 10
0.0
 20
0.0
 30
0.0
  0
ENDSEC
  0
SECTION
  2
OBJECTS
  0
DICTIONARY
  5
C
330
0
100
AcDbDictionary
281
     1
  3
ACAD_GROUP
350
D
  3
ACAD_LAYOUT
350
1A
  3
ACAD_MATERIAL
350
3B
  3
ACAD_MLEADERSTYLE
350
170
  3
ACAD_MLINESTYLE
350
17
  3
ACAD_PLOTSETTINGS
350
19
  3
ACAD_PLOTSTYLENAME
350
E
  3
ACAD_TABLESTYLE
350
16F
  3
ACAD_VISUALSTYLE
350
2A
  0
SUN
  5
3F
330
29
100
AcDbSun
 90
        1
290
     0
 63
     7
421
 16777215
 40
1.0
291
     1
 91
  2455826
 92
 54000000
292
     0
 70
     2
 71
   256
280
     1
  0
DICTIONARY
  5
D
102
{ACAD_REACTORS
330
C
102
}
330
C
100
AcDbDictionary
281
     1
  0
DICTIONARY
  5
1A
102
{ACAD_REACTORS
330
C
102
}
330
C
100
AcDbDictionary
281
     1
  3
Layout1
350
1E
  3
Layout2
350
26
  3
Model
350
22
  0
DICTIONARY
  5
3B
102
{ACAD_REACTORS
330
C
102
}
330
C
100
AcDbDictionary
281
     1
  3
ByBlock
350
3D
  3
ByLayer
350
3C
  3
Global
350
3E
  0
DICTIONARY
  5
170
102
{ACAD_REACTORS
330
C
102
}
330
C
100
AcDbDictionary
281
     1
  0
DICTIONARY
  5
17
102
{ACAD_REACTORS
330
C
102
}
330
C
100
AcDbDictionary
281
     1
  3
Standard
350
18
  0
DICTIONARY
  5
19
102
{ACAD_REACTORS
330
C
102
}
330
C
100
AcDbDictionary
281
     1
  0
ACDBDICTIONARYWDFLT
  5
E
102
{ACAD_REACTORS
330
C
102
}
330
C
100
AcDbDictionary
281
     1
  3
Normal
350
F
100
AcDbDictionaryWithDefault
340
F
  0
DICTIONARY
  5
16F
102
{ACAD_REACTORS
330
C
102
}
330
C
100
AcDbDictionary
281
     1
  0
DICTIONARY
  5
2A
102
{ACAD_REACTORS
330
C
102
}
330
C
100
AcDbDictionary
281
     1
  3
2dWireframe
350
2F
  3
3D Hidden
350
31
  3
3dWireframe
350
30
  3
Basic
350
32
  3
Brighten
350
36
  3
ColorChange
350
3A
  3
Conceptual
350
34
  3
Dim
350
35
  3
Facepattern
350
39
  3
Flat
350
2B
  3
FlatWithEdges
350
2C
  3
Gouraud
350
2D
  3
GouraudWithEdges
350
2E
  3
Linepattern
350
38
  3
Realistic
350
33
  3
Thicken
350
37
  0
LAYOUT
  5
1E
102
{ACAD_REACTORS
330
1A
102
}
330
1A
100
AcDbPlotSettings
  1

  2
none_device
  4

  6

 40
0.0
 41
0.0
 42
0.0
 43
0.0
 44
0.0
 45
0.0
 46
0.0
 47
0.0
 48
0.0
 49
0.0
140
0.0
141
0.0
142
1.0
143
1.0
 70
   688
 72
     0
 73
     0
 74
     5
  7

 75
    16
 76
     0
 77
     2
 78
   300
147
1.0
148
0.0
149
0.0
100
AcDbLayout
  1
Layout1
 70
     1
 71
     1
 10
0.0
 20
0.0
 11
12.0
 21
9.0
 12
0.0
 22
0.0
 32
0.0
 14
1.000000000000000E+20
 24
1.000000000000000E+20
 34
1.000000000000000E+20
 15
-1.000000000000000E+20
 25
-1.000000000000000E+20
 35
-1.000000000000000E+20
146
0.0
 13
0.0
 23
0.0
 33
0.0
 16
1.0
 26
0.0
 36
0.0
 17
0.0
 27
1.0
 37
0.0
 76
     0
330
1B
  0
LAYOUT
  5
26
102
{ACAD_REACTORS
330
1A
102
}
330
1A
100
AcDbPlotSettings
  1

  2
none_device
  4

  6

 40
0.0
 41
0.0
 42
0.0
 43
0.0
 44
0.0
 45
0.0
 46
0.0
 47
0.0
 48
0.0
 49
0.0
140
0.0
141
0.0
142
1.0
143
1.0
 70
   688
 72
     0
 73
     0
 74
     5
  7

 75
    16
 76
     0
 77
     2
 78
   300
147
1.0
148
0.0
149
0.0
100
AcDbLayout
  1
Layout2
 70
     1
 71
     2
 10
0.0
 20
0.0
 11
0.0
 21
0.0
 12
0.0
 22
0.0
 32
0.0
 14
0.0
 24
0.0
 34
0.0
 15
0.0
 25
0.0
 35
0.0
146
0.0
 13
0.0
 23
0.0
 33
0.0
 16
1.0
 26
0.0
 36
0.0
 17
0.0
 27
1.0
 37
0.0
 76
     0
330
23
  0
LAYOUT
  5
22
102
{ACAD_REACTORS
330
1A
102
}
330
1A
100
AcDbPlotSettings
  1

  2
none_device
  4

  6

 40
0.0
 41
0.0
 42
0.0
 43
0.0
 44
0.0
 45
0.0
 46
0.0
 47
0.0
 48
0.0
 49
0.0
140
0.0
141
0.0
142
1.0
143
1.0
 70
  1712
 72
     0
 73
     0
 74
     0
  7

 75
     0
 76
     0
 77
     2
 78
   300
147
1.0
148
0.0
149
0.0
100
AcDbLayout
  1
Model
 70
     1
 71
     0
 10
0.0
 20
0.0
 11
12.0
 21
9.0
 12
0.0
 22
0.0
 32
0.0
 14
1.000000000000000E+20
 24
1.000000000000000E+20
 34
1.000000000000000E+20
 15
-1.000000000000000E+20
 25
-1.000000000000000E+20
 35
-1.000000000000000E+20
146
0.0
 13
0.0
 23
0.0
 33
0.0
 16
1.0
 26
0.0
 36
0.0
 17
0.0
 27
1.0
 37
0.0
 76
     0
330
1F
331
29
  0
MATERIAL
  5
3D
102
{ACAD_REACTORS
330
3B
102
}
330
3B
100
AcDbMaterial
  1
ByBlock
 72
     1
 94
      127
  0
MATERIAL
  5
3C
102
{ACAD_REACTORS
330
3B
102
}
330
3B
100
AcDbMaterial
  1
ByLayer
 72
     1
 94
      127
  0
MATERIAL
  5
3E
102
{ACAD_REACTORS
330
3B
102
}
330
3B
100
AcDbMaterial
  1
Global
 72
     1
 94
      127
  0
MLINESTYLE
  5
18
102
{ACAD_REACTORS
330
17
102
}
330
17
100
AcDbMlineStyle
  2
Standard
 70
     0
  3

 62
   256
 51
90.0
 52
90.0
 71
     2
 49
0.5
 62
   256
  6
BYLAYER
 49
-0.5
 62
   256
  6
BYLAYER
  0
ACDBPLACEHOLDER
  5
F
102
{ACAD_REACTORS
330
E
102
}
330
E
  0
VISUALSTYLE
  5
2F
102
{ACAD_REACTORS
330
2A
102
}
102
{ACAD_XDICTIONARY
360
157
102
}
330
2A
100
AcDbVisualStyle
  2
2dWireframe
 70
     4
 71
     0
 72
     2
 73
     0
 90
        0
 40
-0.6
 41
-30.0
 62
     5
 63
     7
421
 16777215
 74
     1
 91
        4
 64
     7
 65
   257
 75
     1
175
     1
 42
1.0
 92
        0
 66
   257
 43
1.0
 76
     1
 77
     6
 78
     2
 67
     7
 79
     5
170
     0
171
     0
290
     0
174
     0
 93
        1
 44
0.0
173
     0
291
     0
 45
0.0
  0
VISUALSTYLE
  5
31
102
{ACAD_REACTORS
330
2A
102
}
102
{ACAD_XDICTIONARY
360
15B
102
}
330
2A
100
AcDbVisualStyle
  2
3D Hidden
 70
     6
 71
     1
 72
     2
 73
     2
 90
        0
 40
-0.6
 41
-30.0
 62
     5
 63
     7
421
 16777215
 74
     2
 91
        2
 64
     7
 65
   257
 75
     2
175
     1
 42
40.0
 92
        0
 66
   257
 43
1.0
 76
     1
 77
     6
 78
     2
 67
     7
 79
     3
170
     0
171
     0
290
     0
174
     0
 93
        1
 44
0.0
173
     0
291
     0
 45
0.0
  0
VISUALSTYLE
  5
30
102
{ACAD_REACTORS
330
2A
102
}
102
{ACAD_XDICTIONARY
360
159
102
}
330
2A
100
AcDbVisualStyle
  2
3dWireframe
 70
     5
 71
     0
 72
     2
 73
     0
 90
        0
 40
-0.6
 41
-30.0
 62
     5
 63
     7
421
 16777215
 74
     1
 91
        4
 64
     7
 65
   257
 75
     1
175
     1
 42
1.0
 92
        0
 66
   257
 43
1.0
 76
     1
 77
     6
 78
     2
 67
     7
 79
     5
170
     0
171
     0
290
     0
174
     0
 93
        1
 44
0.0
173
     0
291
     0
 45
0.0
  0
VISUALSTYLE
  5
32
102
{ACAD_REACTORS
330
2A
102
}
102
{ACAD_XDICTIONARY
360
15D
102
}
330
2A
100
AcDbVisualStyle
  2
Basic
 70
     7
 71
     1
 72
     0
 73
     1
 90
        0
 40
-0.6
 41
-30.0
 62
     5
 63
     7
421
 16777215
 74
     0
 91
        4
 64
     7
 65
   257
 75
     1
175
     1
 42
1.0
 92
        8
 66
     7
 43
1.0
 76
     1
 77
     6
 78
     2
 67
     7
 79
     5
170
     0
171
     0
290
     0
174
     0
 93
        1
 44
0.0
173
     0
291
     1
 45
0.0
  0
VISUALSTYLE
  5
36
102
{ACAD_REACTORS
330
2A
102
}
102
{ACAD_XDICTIONARY
360
165
102
}
330
2A
100
AcDbVisualStyle
  2
Brighten
 70
    12
 71
     2
 72
     2
 73
     0
 90
        0
 40
-0.6
 41
-30.0
 62
     5
 63
     7
421
 16777215
 74
     1
 91
        4
 64
     7
 65
   257
 75
     1
175
     1
 42
1.0
 92
        8
 66
     7
 43
1.0
 76
     1
 77
     6
 78
     2
 67
     7
 79
     5
170
     0
171
     0
290
     0
174
     0
 93
        1
 44
50.0
173
     0
291
     1
 45
0.0
  0
VISUALSTYLE
  5
3A
102
{ACAD_REACTORS
330
2A
102
}
102
{ACAD_XDICTIONARY
360
16D
102
}
330
2A
100
AcDbVisualStyle
  2
ColorChange
 70
    16
 71
     2
 72
     2
 73
     3
 90
        0
 40
-0.6
 41
-30.0
 62
     5
 63
     8
421
  8421504
 74
     1
 91
        4
 64
     7
 65
   257
 75
     1
175
     1
 42
1.0
 92
        8
 66
     8
424
  8421504
 43
1.0
 76
     1
 77
     6
 78
     2
 67
     7
 79
     5
170
     0
171
     0
290
     0
174
     0
 93
        1
 44
0.0
173
     0
291
     1
 45
0.0
  0
VISUALSTYLE
  5
34
102
{ACAD_REACTORS
330
2A
102
}
102
{ACAD_XDICTIONARY
360
161
102
}
330
2A
100
AcDbVisualStyle
  2
Conceptual
 70
     9
 71
     3
 72
     2
 73
     0
 90
        0
 40
-0.6
 41
-30.0
 62
     5
 63
     7
421
 16777215
 74
     2
 91
        2
 64
     7
 65
   257
 75
     1
175
     1
 42
40.0
 92
        8
 66
     7
 43
1.0
 76
     1
 77
     6
 78
     2
 67
     7
 79
     3
170
     0
171
     0
290
     0
174
     0
 93
        1
 44
0.0
173
     0
291
     0
 45
0.0
  0
VISUALSTYLE
  5
35
102
{ACAD_REACTORS
330
2A
102
}
102
{ACAD_XDICTIONARY
360
163
102
}
330
2A
100
AcDbVisualStyle
  2
Dim
 70
    11
 71
     2
 72
     2
 73
     0
 90
        0
 40
-0.6
 41
-30.0
 62
     5
 63
     7
421
 16777215
 74
     1
 91
        4
 64
     7
 65
   257
 75
     1
175
     1
 42
1.0
 92
        8
 66
     7
 43
1.0
 76
     1
 77
     6
 78
     2
 67
     7
 79
     5
170
     0
171
     0
290
     0
174
     0
 93
        1
 44
-50.0
173
     0
291
     1
 45
0.0
  0
VISUALSTYLE
  5
39
102
{ACAD_REACTORS
330
2A
102
}
102
{ACAD_XDICTIONARY
360
16B
102
}
330
2A
100
AcDbVisualStyle
  2
Facepattern
 70
    15
 71
     2
 72
     2
 73
     0
 90
        0
 40
-0.6
 41
-30.0
 62
     5
 63
     7
421
 16777215
 74
     1
 91
        4
 64
     7
 65
   257
 75
     1
175
     1
 42
1.0
 92
        8
 66
     7
 43
1.0
 76
     1
 77
     6
 78
     2
 67
     7
 79
     5
170
     0
171
     0
290
     0
174
     0
 93
        1
 44
0.0
173
     0
291
     1
 45
0.0
  0
VISUALSTYLE
  5
2B
102
{ACAD_REACTORS
330
2A
102
}
102
{ACAD_XDICTIONARY
360
14F
102
}
330
2A
100
AcDbVisualStyle
  2
Flat
 70
     0
 71
     2
 72
     1
 73
     1
 90
        2
 40
-0.6
 41
30.0
 62
     5
 63
     7
421
 16777215
 74
     0
 91
        4
 64
     7
 65
   257
 75
     1
175
     1
 42
1.0
 92
        8
 66
     7
 43
1.0
 76
     1
 77
     6
 78
     2
 67
     7
 79
     5
170
     0
171
     0
290
     0
174
     0
 93
       13
 44
0.0
173
     0
291
     1
 45
0.0
  0
VISUALSTYLE
  5
2C
102
{ACAD_REACTORS
330
2A
102
}
102
{ACAD_XDICTIONARY
360
151
102
}
330
2A
100
AcDbVisualStyle
  2
FlatWithEdges
 70
     1
 71
     2
 72
     1
 73
     1
 90
        2
 40
-0.6
 41
30.0
 62
     5
 63
     7
421
 16777215
 74
     1
 91
        4
 64
     7
 65
   257
 75
     1
175
     1
 42
1.0
 92
        0
 66
   257
 43
1.0
 76
     1
 77
     6
 78
     2
 67
     7
 79
     5
170
     0
171
     0
290
     0
174
     0
 93
       13
 44
0.0
173
     0
291
     1
 45
0.0
  0
VISUALSTYLE
  5
2D
102
{ACAD_REACTORS
330
2A
102
}
102
{ACAD_XDICTIONARY
360
153
102
}
330
2A
100
AcDbVisualStyle
  2
Gouraud
 70
     2
 71
     2
 72
     2
 73
     1
 90
        2
 40
-0.6
 41
30.0
 62
     5
 63
     7
421
 16777215
 74
     0
 91
        4
 64
     7
 65
   257
 75
     1
175
     1
 42
1.0
 92
        0
 66
     7
 43
1.0
 76
     1
 77
     6
 78
     2
 67
     7
 79
     5
170
     0
171
     0
290
     0
174
     0
 93
       13
 44
0.0
173
     0
291
     1
 45
0.0
  0
VISUALSTYLE
  5
2E
102
{ACAD_REACTORS
330
2A
102
}
102
{ACAD_XDICTIONARY
360
155
102
}
330
2A
100
AcDbVisualStyle
  2
GouraudWithEdges
 70
     3
 71
     2
 72
     2
 73
     1
 90
        2
 40
-0.6
 41
30.0
 62
     5
 63
     7
421
 16777215
 74
     1
 91
        4
 64
     7
 65
   257
 75
     1
175
     1
 42
1.0
 92
        0
 66
   257
 43
1.0
 76
     1
 77
     6
 78
     2
 67
     7
 79
     5
170
     0
171
     0
290
     0
174
     0
 93
       13
 44
0.0
173
     0
291
     1
 45
0.0
  0
VISUALSTYLE
  5
38
102
{ACAD_REACTORS
330
2A
102
}
102
{ACAD_XDICTIONARY
360
169
102
}
330
2A
100
AcDbVisualStyle
  2
Linepattern
 70
    14
 71
     2
 72
     2
 73
     0
 90
        0
 40
-0.6
 41
-30.0
 62
     5
 63
     7
421
 16777215
 74
     1
 91
        4
 64
     7
 65
   257
 75
     7
175
     7
 42
1.0
 92
        8
 66
     7
 43
1.0
 76
     1
 77
     6
 78
     2
 67
     7
 79
     5
170
     0
171
     0
290
     0
174
     0
 93
        1
 44
0.0
173
     0
291
     1
 45
0.0
  0
VISUALSTYLE
  5
33
102
{ACAD_REACTORS
330
2A
102
}
102
{ACAD_XDICTIONARY
360
15F
102
}
330
2A
100
AcDbVisualStyle
  2
Realistic
 70
     8
 71
     2
 72
     2
 73
     0
 90
        0
 40
-0.6
 41
-30.0
 62
     5
 63
     7
421
 16777215
 74
     1
 91
        0
 64
     7
 65
   257
 75
     1
175
     1
 42
1.0
 92
        8
 66
     8
424
  7895160
 43
1.0
 76
     1
 77
     6
 78
     2
 67
     7
 79
     5
170
     0
171
     0
290
     0
174
     0
 93
       13
 44
0.0
173
     0
291
     0
 45
0.0
  0
VISUALSTYLE
  5
37
102
{ACAD_REACTORS
330
2A
102
}
102
{ACAD_XDICTIONARY
360
167
102
}
330
2A
100
AcDbVisualStyle
  2
Thicken
 70
    13
 71
     2
 72
     2
 73
     0
 90
        0
 40
-0.6
 41
-30.0
 62
     5
 63
     7
421
 16777215
 74
     1
 91
        4
 64
     7
 65
   257
 75
     1
175
     1
 42
1.0
 92
       12
 66
     7
 43
1.0
 76
     1
 77
     6
 78
     2
 67
     7
 79
     5
170
     0
171
     0
290
     0
174
     0
 93
        1
 44
0.0
173
     0
291
     1
 45
0.0
  0
DICTIONARY
  5
157
330
2F
100
AcDbDictionary
280
     1
281
     1
  3
ACAD_XREC_ROUNDTRIP
360
158
  0
DICTIONARY
  5
15B
330
31
100
AcDbDictionary
280
     1
281
     1
  3
ACAD_XREC_ROUNDTRIP
360
15C
  0
DICTIONARY
  5
159
330
30
100
AcDbDictionary
280
     1
281
     1
  3
ACAD_XREC_ROUNDTRIP
360
15A
  0
DICTIONARY
  5
15D
330
32
100
AcDbDictionary
280
     1
281
     1
  3
ACAD_XREC_ROUNDTRIP
360
15E
  0
DICTIONARY
  5
165
330
36
100
AcDbDictionary
280
     1
281
     1
  3
ACAD_XREC_ROUNDTRIP
360
166
  0
DICTIONARY
  5
16D
330
3A
100
AcDbDictionary
280
     1
281
     1
  3
ACAD_XREC_ROUNDTRIP
360
16E
  0
DICTIONARY
  5
161
330
34
100
AcDbDictionary
280
     1
281
     1
  3
ACAD_XREC_ROUNDTRIP
360
162
  0
DICTIONARY
  5
163
330
35
100
AcDbDictionary
280
     1
281
     1
  3
ACAD_XREC_ROUNDTRIP
360
164
  0
DICTIONARY
  5
16B
330
39
100
AcDbDictionary
280
     1
281
     1
  3
ACAD_XREC_ROUNDTRIP
360
16C
  0
DICTIONARY
  5
14F
330
2B
100
AcDbDictionary
280
     1
281
     1
  3
ACAD_XREC_ROUNDTRIP
360
150
  0
DICTIONARY
  5
151
330
2C
100
AcDbDictionary
280
     1
281
     1
  3
ACAD_XREC_ROUNDTRIP
360
152
  0
DICTIONARY
  5
153
330
2D
100
AcDbDictionary
280
     1
281
     1
  3
ACAD_XREC_ROUNDTRIP
360
154
  0
DICTIONARY
  5
155
330
2E
100
AcDbDictionary
280
     1
281
     1
  3
ACAD_XREC_ROUNDTRIP
360
156
  0
DICTIONARY
  5
169
330
38
100
AcDbDictionary
280
     1
281
     1
  3
ACAD_XREC_ROUNDTRIP
360
16A
  0
DICTIONARY
  5
15F
330
33
100
AcDbDictionary
280
     1
281
     1
  3
ACAD_XREC_ROUNDTRIP
360
160
  0
DICTIONARY
  5
167
330
37
100
AcDbDictionary
280
     1
281
     1
  3
ACAD_XREC_ROUNDTRIP
360
168
  0
XRECORD
  5
158
102
{ACAD_REACTORS
330
157
102
}
330
157
100
AcDbXrecord
280
     1
102
RTVSPropertyOp0
 70
     1
102
RTVSPropertyOp1
 70
     1
102
RTVSPropertyOp2
 70
     1
102
RTVSPropertyOp3
 70
     1
102
RTVSPropertyOp4
 70
     1
102
RTVSPropertyOp5
 70
     1
102
RTVSPropertyOp6
 70
     1
102
RTVSPropertyOp7
 70
     1
102
RTVSPropertyOp8
 70
     1
102
RTVSPropertyOp9
 70
     1
102
RTVSPropertyOp10
 70
     1
102
RTVSPropertyOp11
 70
     1
102
RTVSPropertyOp12
 70
     1
102
RTVSPropertyOp13
 70
     1
102
RTVSPropertyOp14
 70
     1
102
RTVSPropertyOp15
 70
     1
102
RTVSPropertyOp16
 70
     1
102
RTVSPropertyOp17
 70
     1
102
RTVSPropertyOp18
 70
     1
102
RTVSPropertyOp19
 70
     1
102
RTVSPropertyOp20
 70
     1
102
RTVSPropertyOp21
 70
     1
102
RTVSPropertyOp22
 70
     1
102
RTVSPropertyOp23
 70
     1
102
RTVSPropertyOp24
 70
     1
102
RTVSPropertyOp25
 70
     1
102
RTVSPropertyOp26
 70
     1
102
RTVSPropertyOp27
 70
     1
102
RTVSPropertyOp28
 70
     1
102
RTVSPropertyOp29
 70
     1
102
RTVSPropertyOp30
 70
     1
102
RTVSPropertyOp31
 70
     1
102
RTVSPropertyOp32
 70
     1
  0
XRECORD
  5
15C
102
{ACAD_REACTORS
330
15B
102
}
330
15B
100
AcDbXrecord
280
     1
102
RTVSPropertyOp0
 70
     1
102
RTVSPropertyOp1
 70
     1
102
RTVSPropertyOp2
 70
     1
102
RTVSPropertyOp3
 70
     1
102
RTVSPropertyOp4
 70
     1
102
RTVSPropertyOp5
 70
     1
102
RTVSPropertyOp6
 70
     1
102
RTVSPropertyOp7
 70
     1
102
RTVSPropertyOp8
 70
     1
102
RTVSPropertyOp9
 70
     1
102
RTVSPropertyOp10
 70
     1
102
RTVSPropertyOp11
 70
     1
102
RTVSPropertyOp12
 70
     1
102
RTVSPropertyOp13
 70
     1
102
RTVSPropertyOp14
 70
     1
102
RTVSPropertyOp15
 70
     1
102
RTVSPropertyOp16
 70
     1
102
RTVSPropertyOp17
 70
     1
102
RTVSPropertyOp18
 70
     1
102
RTVSPropertyOp19
 70
     1
102
RTVSPropertyOp20
 70
     1
102
RTVSPropertyOp21
 70
     1
102
RTVSPropertyOp22
 70
     1
102
RTVSPropertyOp23
 70
     1
102
RTVSPropertyOp24
 70
     1
102
RTVSPropertyOp25
 70
     1
102
RTVSPropertyOp26
 70
     1
102
RTVSPropertyOp27
 70
     1
102
RTVSPropertyOp28
 70
     1
102
RTVSPropertyOp29
 70
     1
102
RTVSPropertyOp30
 70
     1
102
RTVSPropertyOp31
 70
     1
102
RTVSPropertyOp32
 70
     1
  0
XRECORD
  5
15A
102
{ACAD_REACTORS
330
159
102
}
330
159
100
AcDbXrecord
280
     1
102
RTVSPropertyOp0
 70
     1
102
RTVSPropertyOp1
 70
     1
102
RTVSPropertyOp2
 70
     1
102
RTVSPropertyOp3
 70
     1
102
RTVSPropertyOp4
 70
     1
102
RTVSPropertyOp5
 70
     1
102
RTVSPropertyOp6
 70
     1
102
RTVSPropertyOp7
 70
     1
102
RTVSPropertyOp8
 70
     1
102
RTVSPropertyOp9
 70
     1
102
RTVSPropertyOp10
 70
     1
102
RTVSPropertyOp11
 70
     1
102
RTVSPropertyOp12
 70
     1
102
RTVSPropertyOp13
 70
     1
102
RTVSPropertyOp14
 70
     1
102
RTVSPropertyOp15
 70
     1
102
RTVSPropertyOp16
 70
     1
102
RTVSPropertyOp17
 70
     1
102
RTVSPropertyOp18
 70
     1
102
RTVSPropertyOp19
 70
     1
102
RTVSPropertyOp20
 70
     1
102
RTVSPropertyOp21
 70
     1
102
RTVSPropertyOp22
 70
     1
102
RTVSPropertyOp23
 70
     1
102
RTVSPropertyOp24
 70
     1
102
RTVSPropertyOp25
 70
     1
102
RTVSPropertyOp26
 70
     1
102
RTVSPropertyOp27
 70
     1
102
RTVSPropertyOp28
 70
     1
102
RTVSPropertyOp29
 70
     1
102
RTVSPropertyOp30
 70
     1
102
RTVSPropertyOp31
 70
     1
102
RTVSPropertyOp32
 70
     1
  0
XRECORD
  5
15E
102
{ACAD_REACTORS
330
15D
102
}
330
15D
100
AcDbXrecord
280
     1
102
RTVSPropertyOp0
 70
     1
102
RTVSPropertyOp1
 70
     1
102
RTVSPropertyOp2
 70
     1
102
RTVSPropertyOp3
 70
     1
102
RTVSPropertyOp4
 70
     1
102
RTVSPropertyOp5
 70
     1
102
RTVSPropertyOp6
 70
     1
102
RTVSPropertyOp7
 70
     1
102
RTVSPropertyOp8
 70
     1
102
RTVSPropertyOp9
 70
     1
102
RTVSPropertyOp10
 70
     1
102
RTVSPropertyOp11
 70
     1
102
RTVSPropertyOp12
 70
     1
102
RTVSPropertyOp13
 70
     1
102
RTVSPropertyOp14
 70
     1
102
RTVSPropertyOp15
 70
     1
102
RTVSPropertyOp16
 70
     1
102
RTVSPropertyOp17
 70
     1
102
RTVSPropertyOp18
 70
     1
102
RTVSPropertyOp19
 70
     1
102
RTVSPropertyOp20
 70
     1
102
RTVSPropertyOp21
 70
     1
102
RTVSPropertyOp22
 70
     1
102
RTVSPropertyOp23
 70
     1
102
RTVSPropertyOp24
 70
     1
102
RTVSPropertyOp25
 70
     1
102
RTVSPropertyOp26
 70
     1
102
RTVSPropertyOp27
 70
     1
102
RTVSPropertyOp28
 70
     1
102
RTVSPropertyOp29
 70
     1
102
RTVSPropertyOp30
 70
     1
102
RTVSPropertyOp31
 70
     1
102
RTVSPropertyOp32
 70
     1
  0
XRECORD
  5
166
102
{ACAD_REACTORS
330
165
102
}
330
165
100
AcDbXrecord
280
     1
102
RTVSPropertyOp0
 70
     1
102
RTVSPropertyOp1
 70
     1
102
RTVSPropertyOp2
 70
     1
102
RTVSPropertyOp3
 70
     1
102
RTVSPropertyOp4
 70
     1
102
RTVSPropertyOp5
 70
     1
102
RTVSPropertyOp6
 70
     1
102
RTVSPropertyOp7
 70
     1
102
RTVSPropertyOp8
 70
     1
102
RTVSPropertyOp9
 70
     1
102
RTVSPropertyOp10
 70
     1
102
RTVSPropertyOp11
 70
     1
102
RTVSPropertyOp12
 70
     1
102
RTVSPropertyOp13
 70
     1
102
RTVSPropertyOp14
 70
     1
102
RTVSPropertyOp15
 70
     1
102
RTVSPropertyOp16
 70
     1
102
RTVSPropertyOp17
 70
     1
102
RTVSPropertyOp18
 70
     1
102
RTVSPropertyOp19
 70
     1
102
RTVSPropertyOp20
 70
     1
102
RTVSPropertyOp21
 70
     1
102
RTVSPropertyOp22
 70
     1
102
RTVSPropertyOp23
 70
     1
102
RTVSPropertyOp24
 70
     1
102
RTVSPropertyOp25
 70
     1
102
RTVSPropertyOp26
 70
     1
102
RTVSPropertyOp27
 70
     1
102
RTVSPropertyOp28
 70
     1
102
RTVSPropertyOp29
 70
     1
102
RTVSPropertyOp30
 70
     1
102
RTVSPropertyOp31
 70
     1
102
RTVSPropertyOp32
 70
     1
  0
XRECORD
  5
16E
102
{ACAD_REACTORS
330
16D
102
}
330
16D
100
AcDbXrecord
280
     1
102
RTVSPropertyOp0
 70
     1
102
RTVSPropertyOp1
 70
     1
102
RTVSPropertyOp2
 70
     1
102
RTVSPropertyOp3
 70
     1
102
RTVSPropertyOp4
 70
     1
102
RTVSPropertyOp5
 70
     1
102
RTVSPropertyOp6
 70
     1
102
RTVSPropertyOp7
 70
     1
102
RTVSPropertyOp8
 70
     1
102
RTVSPropertyOp9
 70
     1
102
RTVSPropertyOp10
 70
     1
102
RTVSPropertyOp11
 70
     1
102
RTVSPropertyOp12
 70
     1
102
RTVSPropertyOp13
 70
     1
102
RTVSPropertyOp14
 70
     1
102
RTVSPropertyOp15
 70
     1
102
RTVSPropertyOp16
 70
     1
102
RTVSPropertyOp17
 70
     1
102
RTVSPropertyOp18
 70
     1
102
RTVSPropertyOp19
 70
     1
102
RTVSPropertyOp20
 70
     1
102
RTVSPropertyOp21
 70
     1
102
RTVSPropertyOp22
 70
     1
102
RTVSPropertyOp23
 70
     1
102
RTVSPropertyOp24
 70
     1
102
RTVSPropertyOp25
 70
     1
102
RTVSPropertyOp26
 70
     1
102
RTVSPropertyOp27
 70
     1
102
RTVSPropertyOp28
 70
     1
102
RTVSPropertyOp29
 70
     1
102
RTVSPropertyOp30
 70
     1
102
RTVSPropertyOp31
 70
     1
102
RTVSPropertyOp32
 70
     1
  0
XRECORD
  5
162
102
{ACAD_REACTORS
330
161
102
}
330
161
100
AcDbXrecord
280
     1
102
RTVSPropertyOp0
 70
     1
102
RTVSPropertyOp1
 70
     1
102
RTVSPropertyOp2
 70
     1
102
RTVSPropertyOp3
 70
     1
102
RTVSPropertyOp4
 70
     1
102
RTVSPropertyOp5
 70
     1
102
RTVSPropertyOp6
 70
     1
102
RTVSPropertyOp7
 70
     1
102
RTVSPropertyOp8
 70
     1
102
RTVSPropertyOp9
 70
     1
102
RTVSPropertyOp10
 70
     1
102
RTVSPropertyOp11
 70
     1
102
RTVSPropertyOp12
 70
     1
102
RTVSPropertyOp13
 70
     1
102
RTVSPropertyOp14
 70
     1
102
RTVSPropertyOp15
 70
     1
102
RTVSPropertyOp16
 70
     1
102
RTVSPropertyOp17
 70
     1
102
RTVSPropertyOp18
 70
     1
102
RTVSPropertyOp19
 70
     1
102
RTVSPropertyOp20
 70
     1
102
RTVSPropertyOp21
 70
     1
102
RTVSPropertyOp22
 70
     1
102
RTVSPropertyOp23
 70
     1
102
RTVSPropertyOp24
 70
     1
102
RTVSPropertyOp25
 70
     1
102
RTVSPropertyOp26
 70
     1
102
RTVSPropertyOp27
 70
     1
102
RTVSPropertyOp28
 70
     1
102
RTVSPropertyOp29
 70
     1
102
RTVSPropertyOp30
 70
     1
102
RTVSPropertyOp31
 70
     1
102
RTVSPropertyOp32
 70
     1
  0
XRECORD
  5
164
102
{ACAD_REACTORS
330
163
102
}
330
163
100
AcDbXrecord
280
     1
102
RTVSPropertyOp0
 70
     1
102
RTVSPropertyOp1
 70
     1
102
RTVSPropertyOp2
 70
     1
102
RTVSPropertyOp3
 70
     1
102
RTVSPropertyOp4
 70
     1
102
RTVSPropertyOp5
 70
     1
102
RTVSPropertyOp6
 70
     1
102
RTVSPropertyOp7
 70
     1
102
RTVSPropertyOp8
 70
     1
102
RTVSPropertyOp9
 70
     1
102
RTVSPropertyOp10
 70
     1
102
RTVSPropertyOp11
 70
     1
102
RTVSPropertyOp12
 70
     1
102
RTVSPropertyOp13
 70
     1
102
RTVSPropertyOp14
 70
     1
102
RTVSPropertyOp15
 70
     1
102
RTVSPropertyOp16
 70
     1
102
RTVSPropertyOp17
 70
     1
102
RTVSPropertyOp18
 70
     1
102
RTVSPropertyOp19
 70
     1
102
RTVSPropertyOp20
 70
     1
102
RTVSPropertyOp21
 70
     1
102
RTVSPropertyOp22
 70
     1
102
RTVSPropertyOp23
 70
     1
102
RTVSPropertyOp24
 70
     1
102
RTVSPropertyOp25
 70
     1
102
RTVSPropertyOp26
 70
     1
102
RTVSPropertyOp27
 70
     1
102
RTVSPropertyOp28
 70
     1
102
RTVSPropertyOp29
 70
     1
102
RTVSPropertyOp30
 70
     1
102
RTVSPropertyOp31
 70
     1
102
RTVSPropertyOp32
 70
     1
  0
XRECORD
  5
16C
102
{ACAD_REACTORS
330
16B
102
}
330
16B
100
AcDbXrecord
280
     1
102
RTVSPropertyOp0
 70
     1
102
RTVSPropertyOp1
 70
     1
102
RTVSPropertyOp2
 70
     1
102
RTVSPropertyOp3
 70
     1
102
RTVSPropertyOp4
 70
     1
102
RTVSPropertyOp5
 70
     1
102
RTVSPropertyOp6
 70
     1
102
RTVSPropertyOp7
 70
     1
102
RTVSPropertyOp8
 70
     1
102
RTVSPropertyOp9
 70
     1
102
RTVSPropertyOp10
 70
     1
102
RTVSPropertyOp11
 70
     1
102
RTVSPropertyOp12
 70
     1
102
RTVSPropertyOp13
 70
     1
102
RTVSPropertyOp14
 70
     1
102
RTVSPropertyOp15
 70
     1
102
RTVSPropertyOp16
 70
     1
102
RTVSPropertyOp17
 70
     1
102
RTVSPropertyOp18
 70
     1
102
RTVSPropertyOp19
 70
     1
102
RTVSPropertyOp20
 70
     1
102
RTVSPropertyOp21
 70
     1
102
RTVSPropertyOp22
 70
     1
102
RTVSPropertyOp23
 70
     1
102
RTVSPropertyOp24
 70
     1
102
RTVSPropertyOp25
 70
     1
102
RTVSPropertyOp26
 70
     1
102
RTVSPropertyOp27
 70
     1
102
RTVSPropertyOp28
 70
     1
102
RTVSPropertyOp29
 70
     1
102
RTVSPropertyOp30
 70
     1
102
RTVSPropertyOp31
 70
     1
102
RTVSPropertyOp32
 70
     1
  0
XRECORD
  5
150
102
{ACAD_REACTORS
330
14F
102
}
330
14F
100
AcDbXrecord
280
     1
102
RTVSPropertyOp0
 70
     1
102
RTVSPropertyOp1
 70
     1
102
RTVSPropertyOp2
 70
     1
102
RTVSPropertyOp3
 70
     1
102
RTVSPropertyOp4
 70
     1
102
RTVSPropertyOp5
 70
     1
102
RTVSPropertyOp6
 70
     1
102
RTVSPropertyOp7
 70
     1
102
RTVSPropertyOp8
 70
     1
102
RTVSPropertyOp9
 70
     1
102
RTVSPropertyOp10
 70
     1
102
RTVSPropertyOp11
 70
     1
102
RTVSPropertyOp12
 70
     1
102
RTVSPropertyOp13
 70
     1
102
RTVSPropertyOp14
 70
     1
102
RTVSPropertyOp15
 70
     1
102
RTVSPropertyOp16
 70
     1
102
RTVSPropertyOp17
 70
     1
102
RTVSPropertyOp18
 70
     1
102
RTVSPropertyOp19
 70
     1
102
RTVSPropertyOp20
 70
     1
102
RTVSPropertyOp21
 70
     1
102
RTVSPropertyOp22
 70
     1
102
RTVSPropertyOp23
 70
     1
102
RTVSPropertyOp24
 70
     1
102
RTVSPropertyOp25
 70
     1
102
RTVSPropertyOp26
 70
     1
102
RTVSPropertyOp27
 70
     1
102
RTVSPropertyOp28
 70
     1
102
RTVSPropertyOp29
 70
     1
102
RTVSPropertyOp30
 70
     1
102
RTVSPropertyOp31
 70
     1
102
RTVSPropertyOp32
 70
     1
  0
XRECORD
  5
152
102
{ACAD_REACTORS
330
151
102
}
330
151
100
AcDbXrecord
280
     1
102
RTVSPropertyOp0
 70
     1
102
RTVSPropertyOp1
 70
     1
102
RTVSPropertyOp2
 70
     1
102
RTVSPropertyOp3
 70
     1
102
RTVSPropertyOp4
 70
     1
102
RTVSPropertyOp5
 70
     1
102
RTVSPropertyOp6
 70
     1
102
RTVSPropertyOp7
 70
     1
102
RTVSPropertyOp8
 70
     1
102
RTVSPropertyOp9
 70
     1
102
RTVSPropertyOp10
 70
     1
102
RTVSPropertyOp11
 70
     1
102
RTVSPropertyOp12
 70
     1
102
RTVSPropertyOp13
 70
     1
102
RTVSPropertyOp14
 70
     1
102
RTVSPropertyOp15
 70
     1
102
RTVSPropertyOp16
 70
     1
102
RTVSPropertyOp17
 70
     1
102
RTVSPropertyOp18
 70
     1
102
RTVSPropertyOp19
 70
     1
102
RTVSPropertyOp20
 70
     1
102
RTVSPropertyOp21
 70
     1
102
RTVSPropertyOp22
 70
     1
102
RTVSPropertyOp23
 70
     1
102
RTVSPropertyOp24
 70
     1
102
RTVSPropertyOp25
 70
     1
102
RTVSPropertyOp26
 70
     1
102
RTVSPropertyOp27
 70
     1
102
RTVSPropertyOp28
 70
     1
102
RTVSPropertyOp29
 70
     1
102
RTVSPropertyOp30
 70
     1
102
RTVSPropertyOp31
 70
     1
102
RTVSPropertyOp32
 70
     1
  0
XRECORD
  5
154
102
{ACAD_REACTORS
330
153
102
}
330
153
100
AcDbXrecord
280
     1
102
RTVSPropertyOp0
 70
     1
102
RTVSPropertyOp1
 70
     1
102
RTVSPropertyOp2
 70
     1
102
RTVSPropertyOp3
 70
     1
102
RTVSPropertyOp4
 70
     1
102
RTVSPropertyOp5
 70
     1
102
RTVSPropertyOp6
 70
     1
102
RTVSPropertyOp7
 70
     1
102
RTVSPropertyOp8
 70
     1
102
RTVSPropertyOp9
 70
     1
102
RTVSPropertyOp10
 70
     1
102
RTVSPropertyOp11
 70
     1
102
RTVSPropertyOp12
 70
     1
102
RTVSPropertyOp13
 70
     1
102
RTVSPropertyOp14
 70
     1
102
RTVSPropertyOp15
 70
     1
102
RTVSPropertyOp16
 70
     1
102
RTVSPropertyOp17
 70
     1
102
RTVSPropertyOp18
 70
     1
102
RTVSPropertyOp19
 70
     1
102
RTVSPropertyOp20
 70
     1
102
RTVSPropertyOp21
 70
     1
102
RTVSPropertyOp22
 70
     1
102
RTVSPropertyOp23
 70
     1
102
RTVSPropertyOp24
 70
     1
102
RTVSPropertyOp25
 70
     1
102
RTVSPropertyOp26
 70
     1
102
RTVSPropertyOp27
 70
     1
102
RTVSPropertyOp28
 70
     1
102
RTVSPropertyOp29
 70
     1
102
RTVSPropertyOp30
 70
     1
102
RTVSPropertyOp31
 70
     1
102
RTVSPropertyOp32
 70
     1
  0
XRECORD
  5
156
102
{ACAD_REACTORS
330
155
102
}
330
155
100
AcDbXrecord
280
     1
102
RTVSPropertyOp0
 70
     1
102
RTVSPropertyOp1
 70
     1
102
RTVSPropertyOp2
 70
     1
102
RTVSPropertyOp3
 70
     1
102
RTVSPropertyOp4
 70
     1
102
RTVSPropertyOp5
 70
     1
102
RTVSPropertyOp6
 70
     1
102
RTVSPropertyOp7
 70
     1
102
RTVSPropertyOp8
 70
     1
102
RTVSPropertyOp9
 70
     1
102
RTVSPropertyOp10
 70
     1
102
RTVSPropertyOp11
 70
     1
102
RTVSPropertyOp12
 70
     1
102
RTVSPropertyOp13
 70
     1
102
RTVSPropertyOp14
 70
     1
102
RTVSPropertyOp15
 70
     1
102
RTVSPropertyOp16
 70
     1
102
RTVSPropertyOp17
 70
     1
102
RTVSPropertyOp18
 70
     1
102
RTVSPropertyOp19
 70
     1
102
RTVSPropertyOp20
 70
     1
102
RTVSPropertyOp21
 70
     1
102
RTVSPropertyOp22
 70
     1
102
RTVSPropertyOp23
 70
     1
102
RTVSPropertyOp24
 70
     1
102
RTVSPropertyOp25
 70
     1
102
RTVSPropertyOp26
 70
     1
102
RTVSPropertyOp27
 70
     1
102
RTVSPropertyOp28
 70
     1
102
RTVSPropertyOp29
 70
     1
102
RTVSPropertyOp30
 70
     1
102
RTVSPropertyOp31
 70
     1
102
RTVSPropertyOp32
 70
     1
  0
XRECORD
  5
16A
102
{ACAD_REACTORS
330
169
102
}
330
169
100
AcDbXrecord
280
     1
102
RTVSPropertyOp0
 70
     1
102
RTVSPropertyOp1
 70
     1
102
RTVSPropertyOp2
 70
     1
102
RTVSPropertyOp3
 70
     1
102
RTVSPropertyOp4
 70
     1
102
RTVSPropertyOp5
 70
     1
102
RTVSPropertyOp6
 70
     1
102
RTVSPropertyOp7
 70
     1
102
RTVSPropertyOp8
 70
     1
102
RTVSPropertyOp9
 70
     1
102
RTVSPropertyOp10
 70
     1
102
RTVSPropertyOp11
 70
     1
102
RTVSPropertyOp12
 70
     1
102
RTVSPropertyOp13
 70
     1
102
RTVSPropertyOp14
 70
     1
102
RTVSPropertyOp15
 70
     1
102
RTVSPropertyOp16
 70
     1
102
RTVSPropertyOp17
 70
     1
102
RTVSPropertyOp18
 70
     1
102
RTVSPropertyOp19
 70
     1
102
RTVSPropertyOp20
 70
     1
102
RTVSPropertyOp21
 70
     1
102
RTVSPropertyOp22
 70
     1
102
RTVSPropertyOp23
 70
     1
102
RTVSPropertyOp24
 70
     1
102
RTVSPropertyOp25
 70
     1
102
RTVSPropertyOp26
 70
     1
102
RTVSPropertyOp27
 70
     1
102
RTVSPropertyOp28
 70
     1
102
RTVSPropertyOp29
 70
     1
102
RTVSPropertyOp30
 70
     1
102
RTVSPropertyOp31
 70
     1
102
RTVSPropertyOp32
 70
     1
  0
XRECORD
  5
160
102
{ACAD_REACTORS
330
15F
102
}
330
15F
100
AcDbXrecord
280
     1
102
RTVSPropertyOp0
 70
     1
102
RTVSPropertyOp1
 70
     1
102
RTVSPropertyOp2
 70
     1
102
RTVSPropertyOp3
 70
     1
102
RTVSPropertyOp4
 70
     1
102
RTVSPropertyOp5
 70
     1
102
RTVSPropertyOp6
 70
     1
102
RTVSPropertyOp7
 70
     1
102
RTVSPropertyOp8
 70
     1
102
RTVSPropertyOp9
 70
     1
102
RTVSPropertyOp10
 70
     1
102
RTVSPropertyOp11
 70
     1
102
RTVSPropertyOp12
 70
     1
102
RTVSPropertyOp13
 70
     1
102
RTVSPropertyOp14
 70
     1
102
RTVSPropertyOp15
 70
     1
102
RTVSPropertyOp16
 70
     1
102
RTVSPropertyOp17
 70
     1
102
RTVSPropertyOp18
 70
     1
102
RTVSPropertyOp19
 70
     1
102
RTVSPropertyOp20
 70
     1
102
RTVSPropertyOp21
 70
     1
102
RTVSPropertyOp22
 70
     1
102
RTVSPropertyOp23
 70
     1
102
RTVSPropertyOp24
 70
     1
102
RTVSPropertyOp25
 70
     1
102
RTVSPropertyOp26
 70
     1
102
RTVSPropertyOp27
 70
     1
102
RTVSPropertyOp28
 70
     1
102
RTVSPropertyOp29
 70
     1
102
RTVSPropertyOp30
 70
     1
102
RTVSPropertyOp31
 70
     1
102
RTVSPropertyOp32
 70
     1
  0
XRECORD
  5
168
102
{ACAD_REACTORS
330
167
102
}
330
167
100
AcDbXrecord
280
     1
102
RTVSPropertyOp0
 70
     1
102
RTVSPropertyOp1
 70
     1
102
RTVSPropertyOp2
 70
     1
102
RTVSPropertyOp3
 70
     1
102
RTVSPropertyOp4
 70
     1
102
RTVSPropertyOp5
 70
     1
102
RTVSPropertyOp6
 70
     1
102
RTVSPropertyOp7
 70
     1
102
RTVSPropertyOp8
 70
     1
102
RTVSPropertyOp9
 70
     1
102
RTVSPropertyOp10
 70
     1
102
RTVSPropertyOp11
 70
     1
102
RTVSPropertyOp12
 70
     1
102
RTVSPropertyOp13
 70
     1
102
RTVSPropertyOp14
 70
     1
102
RTVSPropertyOp15
 70
     1
102
RTVSPropertyOp16
 70
     1
102
RTVSPropertyOp17
 70
     1
102
RTVSPropertyOp18
 70
     1
102
RTVSPropertyOp19
 70
     1
102
RTVSPropertyOp20
 70
     1
102
RTVSPropertyOp21
 70
     1
102
RTVSPropertyOp22
 70
     1
102
RTVSPropertyOp23
 70
     1
102
RTVSPropertyOp24
 70
     1
102
RTVSPropertyOp25
 70
     1
102
RTVSPropertyOp26
 70
     1
102
RTVSPropertyOp27
 70
     1
102
RTVSPropertyOp28
 70
     1
102
RTVSPropertyOp29
 70
     1
102
RTVSPropertyOp30
 70
     1
102
RTVSPropertyOp31
 70
     1
102
RTVSPropertyOp32
 70
     1
  0
ENDSEC
  0
EOF
