  0
SECTION
  2
HEADER
  9
$ACADVER
  1
AC1015
  9
$ACADMAINTVER
 70
     6
  9
$DWGCODEPAGE
  3
ANSI_1252
  9
$INSBASE
 10
0.0
 20
0.0
 30
0.0
  9
$EXTMIN
 10
0.0
 20
0.0
 30
0.0
  9
$EXTMAX
 10
1682.0
 20
2378.0
 30
0.0
  9
$LIMMIN
 10
0.0
 20
0.0
  9
$LIMMAX
 10
1682.0
 20
2378.0
  9
$ORTHOMODE
 70
     0
  9
$REGENMODE
 70
     1
  9
$FILLMODE
 70
     1
  9
$QTEXTMODE
 70
     0
  9
$MIRRTEXT
 70
     1
  9
$LTSCALE
 40
1.0
  9
$ATTMODE
 70
     1
  9
$TEXTSIZE
 40
2.5
  9
$TRACEWID
 40
1.0
  9
$TEXTSTYLE
  7
Standard
  9
$CLAYER
  8
0
  9
$CELTYPE
  6
ByLayer
  9
$CECOLOR
 62
   256
  9
$CELTSCALE
 40
1.0
  9
$DISPSILH
 70
     0
  9
$DIMSCALE
 40
1.0
  9
$DIMASZ
 40
2.5
  9
$DIMEXO
 40
0.625
  9
$DIMDLI
 40
3.75
  9
$DIMRND
 40
0.0
  9
$DIMDLE
 40
0.0
  9
$DIMEXE
 40
1.25
  9
$DIMTP
 40
0.0
  9
$DIMTM
 40
0.0
  9
$DIMTXT
 40
2.5
  9
$DIMCEN
 40
2.5
  9
$DIMTSZ
 40
0.0
  9
$DIMTOL
 70
     0
  9
$DIMLIM
 70
     0
  9
$DIMTIH
 70
     0
  9
$DIMTOH
 70
     0
  9
$DIMSE1
 70
     0
  9
$DIMSE2
 70
     0
  9
$DIMTAD
 70
     1
  9
$DIMZIN
 70
     8
  9
$DIMBLK
  1

  9
$DIMASO
 70
     1
  9
$DIMSHO
 70
     1
  9
$DIMPOST
  1

  9
$DIMAPOST
  1

  9
$DIMALT
 70
     0
  9
$DIMALTD
 70
     3
  9
$DIMALTF
 40
0.0393700787
  9
$DIMLFAC
 40
1.0
  9
$DIMTOFL
 70
     1
  9
$DIMTVP
 40
0.0
  9
$DIMTIX
 70
     0
  9
$DIMSOXD
 70
     0
  9
$DIMSAH
 70
     0
  9
$DIMBLK1
  1

  9
$DIMBLK2
  1

  9
$DIMSTYLE
  2
ISO-25
  9
$DIMCLRD
 70
     0
  9
$DIMCLRE
 70
     0
  9
$DIMCLRT
 70
     0
  9
$DIMTFAC
 40
1.0
  9
$DIMGAP
 40
0.625
  9
$DIMJUST
 70
     0
  9
$DIMSD1
 70
     0
  9
$DIMSD2
 70
     0
  9
$DIMTOLJ
 70
     0
  9
$DIMTZIN
 70
     8
  9
$DIMALTZ
 70
     0
  9
$DIMALTTZ
 70
     0
  9
$DIMUPT
 70
     0
  9
$DIMDEC
 70
     2
  9
$DIMTDEC
 70
     2
  9
$DIMALTU
 70
     2
  9
$DIMALTTD
 70
     3
  9
$DIMTXSTY
  7
Standard
  9
$DIMAUNIT
 70
     0
  9
$DIMADEC
 70
     0
  9
$DIMALTRND
 40
0.0
  9
$DIMAZIN
 70
     0
  9
$DIMDSEP
 70
    44
  9
$DIMATFIT
 70
     3
  9
$DIMFRAC
 70
     0
  9
$DIMLDRBLK
  1

  9
$DIMLUNIT
 70
     2
  9
$DIMLWD
 70
    -2
  9
$DIMLWE
 70
    -2
  9
$DIMTMOVE
 70
     0
  9
$LUNITS
 70
     2
  9
$LUPREC
 70
     4
  9
$SKETCHINC
 40
1.0
  9
$FILLETRAD
 40
10.0
  9
$AUNITS
 70
     0
  9
$AUPREC
 70
     0
  9
$MENU
  1
.
  9
$ELEVATION
 40
0.0
  9
$PELEVATION
 40
0.0
  9
$THICKNESS
 40
0.0
  9
$LIMCHECK
 70
     0
  9
$CHAMFERA
 40
10.0
  9
$CHAMFERB
 40
10.0
  9
$CHAMFERC
 40
20.0
  9
$CHAMFERD
 40
0.0
  9
$SKPOLY
 70
     0
  9
$TDCREATE
 40
2455569.546539757
  9
$TDUCREATE
 40
2455569.50487309
  9
$TDUPDATE
 40
2455569.546539769
  9
$TDUUPDATE
 40
2455569.504873102
  9
$TDINDWG
 40
0.0000000116
  9
$TDUSRTIMER
 40
0.0000000116
  9
$USRTIMER
 70
     1
  9
$ANGBASE
 50
0.0
  9
$ANGDIR
 70
     0
  9
$PDMODE
 70
     0
  9
$PDSIZE
 40
0.0
  9
$PLINEWID
 40
0.0
  9
$SPLFRAME
 70
     0
  9
$SPLINETYPE
 70
     6
  9
$SPLINESEGS
 70
     8
  9
$HANDSEED
  5
1D9
  9
$SURFTAB1
 70
     6
  9
$SURFTAB2
 70
     6
  9
$SURFTYPE
 70
     6
  9
$SURFU
 70
     6
  9
$SURFV
 70
     6
  9
$UCSBASE
  2

  9
$UCSNAME
  2

  9
$UCSORG
 10
0.0
 20
0.0
 30
0.0
  9
$UCSXDIR
 10
1.0
 20
0.0
 30
0.0
  9
$UCSYDIR
 10
0.0
 20
1.0
 30
0.0
  9
$UCSORTHOREF
  2

  9
$UCSORTHOVIEW
 70
     0
  9
$UCSORGTOP
 10
0.0
 20
0.0
 30
0.0
  9
$UCSORGBOTTOM
 10
0.0
 20
0.0
 30
0.0
  9
$UCSORGLEFT
 10
0.0
 20
0.0
 30
0.0
  9
$UCSORGRIGHT
 10
0.0
 20
0.0
 30
0.0
  9
$UCSORGFRONT
 10
0.0
 20
0.0
 30
0.0
  9
$UCSORGBACK
 10
0.0
 20
0.0
 30
0.0
  9
$PUCSBASE
  2

  9
$PUCSNAME
  2

  9
$PUCSORG
 10
0.0
 20
0.0
 30
0.0
  9
$PUCSXDIR
 10
1.0
 20
0.0
 30
0.0
  9
$PUCSYDIR
 10
0.0
 20
1.0
 30
0.0
  9
$PUCSORTHOREF
  2

  9
$PUCSORTHOVIEW
 70
     0
  9
$PUCSORGTOP
 10
0.0
 20
0.0
 30
0.0
  9
$PUCSORGBOTTOM
 10
0.0
 20
0.0
 30
0.0
  9
$PUCSORGLEFT
 10
0.0
 20
0.0
 30
0.0
  9
$PUCSORGRIGHT
 10
0.0
 20
0.0
 30
0.0
  9
$PUCSORGFRONT
 10
0.0
 20
0.0
 30
0.0
  9
$PUCSORGBACK
 10
0.0
 20
0.0
 30
0.0
  9
$USERI1
 70
     0
  9
$USERI2
 70
     0
  9
$USERI3
 70
     0
  9
$USERI4
 70
     0
  9
$USERI5
 70
     0
  9
$USERR1
 40
0.0
  9
$USERR2
 40
0.0
  9
$USERR3
 40
0.0
  9
$USERR4
 40
0.0
  9
$USERR5
 40
0.0
  9
$WORLDVIEW
 70
     1
  9
$SHADEDGE
 70
     3
  9
$SHADEDIF
 70
    70
  9
$TILEMODE
 70
     1
  9
$MAXACTVP
 70
    64
  9
$PINSBASE
 10
0.0
 20
0.0
 30
0.0
  9
$PLIMCHECK
 70
     0
  9
$PEXTMIN
 10
0.0
 20
0.0
 30
0.0
  9
$PEXTMAX
 10
1682.0
 20
2378.0
 30
0.0
  9
$PLIMMIN
 10
0.0
 20
0.0
  9
$PLIMMAX
 10
1682.0
 20
2378.0
  9
$UNITMODE
 70
     0
  9
$VISRETAIN
 70
     1
  9
$PLINEGEN
 70
     0
  9
$PSLTSCALE
 70
     1
  9
$TREEDEPTH
 70
  3020
  9
$CMLSTYLE
  2
Standard
  9
$CMLJUST
 70
     0
  9
$CMLSCALE
 40
20.0
  9
$PROXYGRAPHICS
 70
     1
  9
$MEASUREMENT
 70
     1
  9
$CELWEIGHT
370
    -1
  9
$ENDCAPS
280
     0
  9
$JOINSTYLE
280
     0
  9
$LWDISPLAY
290
     0
  9
$INSUNITS
 70
     4
  9
$HYPERLINKBASE
  1

  9
$STYLESHEET
  1

  9
$XEDIT
290
     1
  9
$CEPSNTYPE
380
     0
  9
$PSTYLEMODE
290
     1
  9
$FINGERPRINTGUID
  2
{061440D2-C9E2-4124-A818-6CBD4184231F}
  9
$VERSIONGUID
  2
{FAEB1C32-E019-11D5-929B-00C0DF256EC4}
  9
$EXTNAMES
290
     1
  9
$PSVPSCALE
 40
0.0
  9
$OLESTARTUP
290
     0
  0
ENDSEC
  0
SECTION
  2
CLASSES
  0
CLASS
  1
ACDBDICTIONARYWDFLT
  2
AcDbDictionaryWithDefault
  3
ObjectDBX Classes
 90
        0
280
     0
281
     0
  0
CLASS
  1
VISUALSTYLE
  2
AcDbVisualStyle
  3
ObjectDBX Classes
 90
     4095
280
     0
281
     0
  0
CLASS
  1
SCALE
  2
AcDbScale
  3
ObjectDBX Classes
 90
     1153
280
     0
281
     0
  0
CLASS
  1
DICTIONARYVAR
  2
AcDbDictionaryVar
  3
ObjectDBX Classes
 90
        0
280
     0
281
     0
  0
CLASS
  1
ACDBPLACEHOLDER
  2
AcDbPlaceHolder
  3
ObjectDBX Classes
 90
        0
280
     0
281
     0
  0
CLASS
  1
LAYOUT
  2
AcDbLayout
  3
ObjectDBX Classes
 90
        0
280
     0
281
     0
  0
ENDSEC
  0
SECTION
  2
TABLES
  0
TABLE
  2
VPORT
  5
8
330
0
100
AcDbSymbolTable
 70
     1
  0
VPORT
  5
29
330
8
100
AcDbSymbolTableRecord
100
AcDbViewportTableRecord
  2
*Active
 70
     0
 10
0.0
 20
0.0
 11
1.0
 21
1.0
 12
344.1869158879
 22
148.5
 13
0.0
 23
0.0
 14
10.0
 24
10.0
 15
10.0
 25
10.0
 16
0.0
 26
0.0
 36
1.0
 17
0.0
 27
0.0
 37
0.0
 40
297.0
 41
1.9729729729
 42
50.0
 43
0.0
 44
0.0
 50
0.0
 51
0.0
 71
     0
 72
   100
 73
     1
 74
     3
 75
     0
 76
     0
 77
     0
 78
     0
281
     0
 65
     1
110
0.0
120
0.0
130
0.0
111
1.0
121
0.0
131
0.0
112
0.0
122
1.0
132
0.0
 79
     0
146
0.0
  0
ENDTAB
  0
TABLE
  2
LTYPE
  5
5
330
0
100
AcDbSymbolTable
 70
     2
  0
LTYPE
  5
14
330
5
100
AcDbSymbolTableRecord
100
AcDbLinetypeTableRecord
  2
ByBlock
 70
     0
  3

 72
    65
 73
     0
 40
0.0
  0
LTYPE
  5
15
330
5
100
AcDbSymbolTableRecord
100
AcDbLinetypeTableRecord
  2
ByLayer
 70
     0
  3

 72
    65
 73
     0
 40
0.0
  0
LTYPE
  5
16
330
5
100
AcDbSymbolTableRecord
100
AcDbLinetypeTableRecord
  2
Continuous
 70
     0
  3
Solid line
 72
    65
 73
     0
 40
0.0
  0
LTYPE
  5
61
330
5
100
AcDbSymbolTableRecord
100
AcDbLinetypeTableRecord
  2
CENTER2
 70
     0
  3
Center (.5x) ___ _ ___ _ ___ _ ___ _ ___ _ ___
 72
    65
 73
     4
 40
28.575
 49
19.05
 74
     4
 75
     0
340
0
 46
0.0
 50
0.0
 44
0.0
 45
0.0
 49
-3.175
 74
     4
 75
     0
340
0
 46
0.0
 50
0.0
 44
0.0
 45
0.0
 49
3.175
 74
     4
 75
     0
340
0
 46
0.0
 50
0.0
 44
0.0
 45
0.0
 49
-3.175
 74
     4
 75
     0
340
0
 46
0.0
 50
0.0
 44
0.0
 45
0.0
  0
ENDTAB
  0
TABLE
  2
LAYER
  5
2
330
0
100
AcDbSymbolTable
 70
     6
  0
LAYER
  5
10
330
2
100
AcDbSymbolTableRecord
100
AcDbLayerTableRecord
  2
0
 70
     0
 62
     7
  6
Continuous
370
    -3
390
F
  0
LAYER
  5
5D
330
2
100
AcDbSymbolTableRecord
100
AcDbLayerTableRecord
  2
Default
 70
     0
 62
     7
  6
Continuous
370
    -3
390
F
  0
LAYER
  5
76
330
2
100
AcDbSymbolTableRecord
100
AcDbLayerTableRecord
  2
$DDT_AUDIT_GENERATED_(76)
 70
     0
 62
     7
  6
Continuous
370
    -3
390
F
  0
LAYER
  5
86
330
2
100
AcDbSymbolTableRecord
100
AcDbLayerTableRecord
  2
$DDT_AUDIT_GENERATED_(86)
 70
     0
 62
     7
  6
Continuous
370
    -3
390
F
  0
LAYER
  5
9C
330
2
100
AcDbSymbolTableRecord
100
AcDbLayerTableRecord
  2
$DDT_AUDIT_GENERATED_(9C)
 70
     0
 62
     7
  6
Continuous
370
    -3
390
F
  0
LAYER
  5
A5
330
2
100
AcDbSymbolTableRecord
100
AcDbLayerTableRecord
  2
06828131_MOUSSEU
 70
     0
 62
     7
  6
Continuous
370
    -3
390
F
  0
ENDTAB
  0
TABLE
  2
STYLE
  5
3
330
0
100
AcDbSymbolTable
 70
     2
  0
STYLE
  5
11
330
3
100
AcDbSymbolTableRecord
100
AcDbTextStyleTableRecord
  2
Standard
 70
     0
 40
0.0
 41
1.0
 50
0.0
 71
     0
 42
2.5
  3
txt
  4

  0
STYLE
  5
1C8
330
3
100
AcDbSymbolTableRecord
100
AcDbTextStyleTableRecord
  2
SEACAD_seiso_ttf
 70
     0
 40
0.0
 41
1.0
 50
0.0
 71
     0
 42
0.2
  3
seiso.ttf
  4

  0
ENDTAB
  0
TABLE
  2
VIEW
  5
6
330
0
100
AcDbSymbolTable
 70
     0
  0
ENDTAB
  0
TABLE
  2
UCS
  5
7
330
0
100
AcDbSymbolTable
 70
     0
  0
ENDTAB
  0
TABLE
  2
APPID
  5
9
330
0
100
AcDbSymbolTable
 70
     1
  0
APPID
  5
12
330
9
100
AcDbSymbolTableRecord
100
AcDbRegAppTableRecord
  2
ACAD
 70
     0
  0
ENDTAB
  0
TABLE
  2
DIMSTYLE
  5
A
330
0
100
AcDbSymbolTable
 70
     1
100
AcDbDimStyleTable
  0
DIMSTYLE
105
27
330
A
100
AcDbSymbolTableRecord
100
AcDbDimStyleTableRecord
  2
ISO-25
 70
     0
 41
2.5
 42
0.625
 43
3.75
 44
1.25
 73
     0
 74
     0
 77
     1
 78
     8
140
2.5
141
2.5
143
0.0393700787
147
0.625
171
     3
172
     1
271
     2
272
     2
274
     3
278
    44
283
     0
284
     8
340
11
  0
ENDTAB
  0
TABLE
  2
BLOCK_RECORD
  5
1
330
0
100
AcDbSymbolTable
 70
     7
  0
BLOCK_RECORD
  5
1F
330
1
100
AcDbSymbolTableRecord
100
AcDbBlockTableRecord
  2
*Model_Space
340
22
  0
BLOCK_RECORD
  5
1B
330
1
100
AcDbSymbolTableRecord
100
AcDbBlockTableRecord
  2
*Paper_Space
340
1E
  0
BLOCK_RECORD
  5
5F
330
1
100
AcDbSymbolTableRecord
100
AcDbBlockTableRecord
  2
SEANNOT_GROUP
340
0
102
{BLKREFS
331
60
102
}
  0
BLOCK_RECORD
  5
66
330
1
100
AcDbSymbolTableRecord
100
AcDbBlockTableRecord
  2
SEANNOT_GROUP1
340
0
102
{BLKREFS
331
67
102
}
  0
BLOCK_RECORD
  5
6E
330
1
100
AcDbSymbolTableRecord
100
AcDbBlockTableRecord
  2
SEANNOT_GROUP2
340
0
102
{BLKREFS
331
6F
102
}
  0
BLOCK_RECORD
  5
74
330
1
100
AcDbSymbolTableRecord
100
AcDbBlockTableRecord
  2
SE
340
0
102
{BLKREFS
331
75
102
}
  0
BLOCK_RECORD
  5
162
330
1
100
AcDbSymbolTableRecord
100
AcDbBlockTableRecord
  2
SE1
340
0
102
{BLKREFS
331
163
102
}
  0
BLOCK_RECORD
  5
1A1
330
1
100
AcDbSymbolTableRecord
100
AcDbBlockTableRecord
  2
SE2
340
0
102
{BLKREFS
331
1A2
102
}
  0
ENDTAB
  0
ENDSEC
  0
SECTION
  2
BLOCKS
  0
BLOCK
  5
20
330
1F
100
AcDbEntity
  8
0
100
AcDbBlockBegin
  2
*Model_Space
 70
     0
 10
0.0
 20
0.0
 30
0.0
  3
*Model_Space
  1

  0
ENDBLK
  5
21
330
1F
100
AcDbEntity
  8
0
100
AcDbBlockEnd
  0
BLOCK
  5
1C
330
1B
100
AcDbEntity
 67
     1
  8
0
100
AcDbBlockBegin
  2
*Paper_Space
 70
     0
 10
0.0
 20
0.0
 30
0.0
  3
*Paper_Space
  1

  0
ENDBLK
  5
1D
330
1B
100
AcDbEntity
 67
     1
  8
0
100
AcDbBlockEnd
  0
BLOCK
  5
64
330
5F
100
AcDbEntity
  8
0
100
AcDbBlockBegin
  2
SEANNOT_GROUP
 70
     0
 10
0.0
 20
0.0
 30
0.0
  3
SEANNOT_GROUP
  1

  0
LINE
  5
62
330
5F
100
AcDbEntity
  8
Default
  6
CENTER2
 62
     7
100
AcDbLine
 10
51.6209810754
 20
290.7650870235
 30
0.0
 11
11.6209819694
 21
290.7650870235
 31
0.0
  0
LINE
  5
63
330
5F
100
AcDbEntity
  8
Default
  6
CENTER2
 62
     7
100
AcDbLine
 10
31.6209815224
 20
310.7650865764
 30
0.0
 11
31.6209815224
 21
270.7650874705
 31
0.0
  0
ENDBLK
  5
65
330
5F
100
AcDbEntity
  8
0
100
AcDbBlockEnd
  0
BLOCK
  5
6A
330
66
100
AcDbEntity
  8
0
100
AcDbBlockBegin
  2
SEANNOT_GROUP1
 70
     0
 10
0.0
 20
0.0
 30
0.0
  3
SEANNOT_GROUP1
  1

  0
LINE
  5
68
330
66
100
AcDbEntity
  8
Default
  6
CENTER2
 62
     7
100
AcDbLine
 10
160.9209463897
 20
290.7650870235
 30
0.0
 11
120.9209472838
 21
290.7650870235
 31
0.0
  0
LINE
  5
69
330
66
100
AcDbEntity
  8
Default
  6
CENTER2
 62
     7
100
AcDbLine
 10
140.9209468367
 20
310.7650865764
 30
0.0
 11
140.9209468367
 21
270.7650874705
 31
0.0
  0
ENDBLK
  5
6B
330
66
100
AcDbEntity
  8
0
100
AcDbBlockEnd
  0
BLOCK
  5
72
330
6E
100
AcDbEntity
  8
0
100
AcDbBlockBegin
  2
SEANNOT_GROUP2
 70
     0
 10
0.0
 20
0.0
 30
0.0
  3
SEANNOT_GROUP2
  1

  0
LINE
  5
70
330
6E
100
AcDbEntity
  8
Default
  6
CENTER2
 62
     7
100
AcDbLine
 10
51.6209810754
 20
224.1104194671
 30
0.0
 11
11.6209819695
 21
224.1104194671
 31
0.0
  0
LINE
  5
71
330
6E
100
AcDbEntity
  8
Default
  6
CENTER2
 62
     7
100
AcDbLine
 10
31.6209815224
 20
244.1104190201
 30
0.0
 11
31.6209815224
 21
204.1104199141
 31
0.0
  0
ENDBLK
  5
73
330
6E
100
AcDbEntity
  8
0
100
AcDbBlockEnd
  0
BLOCK
  5
160
330
74
100
AcDbEntity
  8
0
100
AcDbBlockBegin
  2
SE
 70
     0
 10
0.0
 20
0.0
 30
0.0
  3
SE
  1

  0
LINE
  5
77
330
74
100
AcDbEntity
  8
$DDT_AUDIT_GENERATED_(76)
  6
Continuous
 62
     7
100
AcDbLine
 10
54.1209815224
 20
290.7650870235
 30
0.0
 11
9.1209815224
 21
290.7650870235
 31
0.0
  0
LINE
  5
78
330
74
100
AcDbEntity
  8
$DDT_AUDIT_GENERATED_(76)
  6
Continuous
 62
     7
100
AcDbLine
 10
9.1209815224
 20
395.8900375226
 30
0.0
 11
9.1209815224
 21
290.7650903317
 31
0.0
  0
LINE
  5
79
330
74
100
AcDbEntity
  8
$DDT_AUDIT_GENERATED_(76)
  6
Continuous
 62
     7
100
AcDbLine
 10
54.1209815224
 20
395.8900375226
 30
0.0
 11
54.1209815224
 21
290.7650870235
 31
0.0
  0
ARC
  5
7A
330
74
100
AcDbEntity
  8
$DDT_AUDIT_GENERATED_(76)
  6
Continuous
 62
     7
100
AcDbCircle
 10
31.629498023
 20
368.7301667853
 30
0.0
 40
13.43363884815739
100
AcDbArc
 50
264.0412508156
 51
270.0085104366
  0
ARC
  5
7B
330
74
100
AcDbEntity
  8
$DDT_AUDIT_GENERATED_(76)
  6
Continuous
 62
     7
100
AcDbCircle
 10
31.6307119014
 20
368.8365319782
 30
0.0
 40
13.62990324573354
100
AcDbArc
 50
84.1200129127
 51
90.0859760299
  0
ARC
  5
7C
330
74
100
AcDbEntity
  8
$DDT_AUDIT_GENERATED_(76)
  6
Continuous
 62
     7
100
AcDbCircle
 10
31.6343432605
 20
369.0981267824
 30
0.0
 40
14.53854732496401
100
AcDbArc
 50
264.1137687776
 51
269.9887475368
  0
ARC
  5
7D
330
74
100
AcDbEntity
  8
$DDT_AUDIT_GENERATED_(76)
  6
Continuous
 62
     7
100
AcDbCircle
 10
31.6314657546
 20
369.0596256272
 30
0.0
 40
14.5000458894074
100
AcDbArc
 50
270.0000878945
 51
84.1110604151
  0
ARC
  5
7E
330
74
100
AcDbEntity
  8
$DDT_AUDIT_GENERATED_(76)
  6
Continuous
 62
     7
100
AcDbCircle
 10
31.6365829302
 20
369.1284575571
 30
0.0
 40
14.4310523201163
100
AcDbArc
 50
84.1032308756
 51
90.020181529
  0
ARC
  5
7F
330
74
100
AcDbEntity
  8
$DDT_AUDIT_GENERATED_(76)
  6
Continuous
 62
     7
100
AcDbCircle
 10
31.6314279099
 20
369.0595921032
 30
0.0
 40
14.49991687899302
100
AcDbArc
 50
89.9997158459
 51
264.1096122941
  0
ARC
  5
80
330
74
100
AcDbEntity
  8
$DDT_AUDIT_GENERATED_(76)
  6
Continuous
 62
     7
100
AcDbCircle
 10
31.6169433163
 20
368.8823096673
 30
0.0
 40
13.58578937341919
100
AcDbArc
 50
270.0613624996
 51
84.0424736897
  0
ARC
  5
81
330
74
100
AcDbEntity
  8
$DDT_AUDIT_GENERATED_(76)
  6
Continuous
 62
     7
100
AcDbCircle
 10
31.6446462561
 20
368.8811171742
 30
0.0
 40
13.58534622428741
100
AcDbArc
 50
90.1450258474
 51
264.0437987539
  0
SPLINE
  5
82
330
74
100
AcDbEntity
  8
$DDT_AUDIT_GENERATED_(76)
  6
Continuous
 62
     7
100
AcDbSpline
210
0.0
220
0.0
230
1.0
 70
     8
 71
     3
 72
     8
 73
     4
 74
     0
 42
0.0000000006886314
 43
0.0000000001
 40
0.0
 40
0.0
 40
0.0
 40
0.0
 40
0.0572222455995113
 40
0.0572222455995113
 40
0.0572222455995113
 40
0.0572222455995113
 10
54.12098152238236
 20
395.8900375226077
 30
0.0
 10
54.12098152238223
 20
396.1263427097289
 30
0.0
 10
53.99873777198224
 20
396.3590328116109
 30
0.0
 10
53.75882761926845
 20
396.5882431930755
 30
0.0
  0
SPLINE
  5
83
330
74
100
AcDbEntity
  8
$DDT_AUDIT_GENERATED_(76)
  6
Continuous
 62
     7
100
AcDbSpline
210
0.0
220
0.0
230
1.0
 70
     8
 71
     3
 72
     8
 73
     4
 74
     0
 42
0.0000000006836088
 43
0.0000000001
 40
0.9429706640898221
 40
0.9429706640898221
 40
0.9429706640898221
 40
0.9429706640898221
 40
1.0
 40
1.0
 40
1.0
 40
1.0
 10
9.485660368263753
 20
396.5905941362022
 30
0.0
 10
9.24494792452334
 20
396.3610381624495
 30
0.0
 10
9.120981522382312
 20
396.1253647770811
 30
0.0
 10
9.120981522382353
 20
395.8900375226072
 30
0.0
  0
ELLIPSE
  5
84
330
74
100
AcDbEntity
  8
$DDT_AUDIT_GENERATED_(76)
  6
Continuous
 62
     7
100
AcDbEllipse
 10
31.6209815224
 20
395.8900375226
 30
0.0
 11
-22.50000000000009
 21
-1.387778780781446E-14
 31
0.0
210
0.0
220
0.0
230
1.0
 40
0.1736480341
 41
0.0000000000000255
 42
3.141592653589793
  0
ELLIPSE
  5
85
330
74
100
AcDbEntity
  8
$DDT_AUDIT_GENERATED_(76)
  6
Continuous
 62
     7
100
AcDbEllipse
 10
31.6209742163
 20
395.8900371552
 30
0.0
 11
20.25000083183963
 21
0.0
 31
0.0
210
0.0
220
0.0
230
1.0
 40
0.1736480341
 41
3.26675150533665
 42
6.158090071048643
  0
LINE
  5
87
330
74
100
AcDbEntity
  8
$DDT_AUDIT_GENERATED_(86)
  6
Continuous
 62
     7
100
AcDbLine
 10
31.6204401711
 20
393.2626181
 30
0.0
 11
31.6204401665
 21
393.2615023189
 31
0.0
  0
ARC
  5
88
330
74
100
AcDbEntity
  8
$DDT_AUDIT_GENERATED_(86)
  6
Continuous
 62
     7
100
AcDbCircle
 10
26.1111924541
 20
-880.3219067439
 30
0.0
 40
1309.248208522595
100
AcDbArc
 50
90.6703033924
 51
90.6703281972
  0
SPLINE
  5
89
330
74
100
AcDbEntity
  8
$DDT_AUDIT_GENERATED_(86)
  6
Continuous
 62
     7
100
AcDbSpline
210
0.0
220
0.0
230
1.0
 70
    12
 71
     3
 72
    10
 73
     6
 74
     0
 42
0.00000001860656
 43
0.0000000001
 40
0.9812673991425841
 40
0.9812673991425841
 40
0.9812673991425841
 40
0.9812673991425841
 40
0.9998108123516084
 40
0.9998108123516084
 40
1.0
 40
1.0
 40
1.0
 40
1.0
 10
52.44630980326347
 20
428.8390704176972
 30
0.0
 41
1.0
 10
52.45234617935741
 20
428.8382717641431
 30
0.0
 41
1.0
 10
52.45540207017267
 20
428.8374728855987
 30
0.0
 41
1.0
 10
52.45542389138242
 20
428.8366692516642
 30
0.0
 41
1.0
 10
52.45542380105869
 20
428.8366611353762
 30
0.0
 41
1.0
 10
52.4554233839106
 20
428.836653021157
 30
0.0
 41
1.0
  0
SPLINE
  5
8A
330
74
100
AcDbEntity
  8
$DDT_AUDIT_GENERATED_(86)
  6
Continuous
 62
     7
100
AcDbSpline
210
0.0
220
0.0
230
1.0
 70
    12
 71
     3
 72
   140
 73
   136
 74
     0
 42
0.0000000002367562
 43
0.0000000001
 40
0.0
 40
0.0
 40
0.0
 40
0.0
 40
0.0156249999999999
 40
0.0156249999999999
 40
0.0312499999999998
 40
0.0312499999999998
 40
0.0468749999999998
 40
0.0468749999999998
 40
0.0546874999999991
 40
0.0546874999999991
 40
0.0585937499999996
 40
0.0585937499999996
 40
0.0605468750000005
 40
0.0605468750000005
 40
0.0615234374999994
 40
0.0615234374999994
 40
0.0624999999999998
 40
0.0624999999999998
 40
0.0781249999999998
 40
0.0781249999999998
 40
0.0820312500000003
 40
0.0820312500000003
 40
0.0859374999999991
 40
0.0859374999999991
 40
0.0937499999999998
 40
0.0937499999999998
 40
0.1093749999999999
 40
0.1093749999999999
 40
0.117187499999999
 40
0.117187499999999
 40
0.1210937499999994
 40
0.1210937499999994
 40
0.1230468750000003
 40
0.1230468750000003
 40
0.1240234374999993
 40
0.1240234374999993
 40
0.1249999999999998
 40
0.1249999999999998
 40
0.1406249999999998
 40
0.1406249999999998
 40
0.15625
 40
0.15625
 40
0.1718750000000003
 40
0.1718750000000003
 40
0.1796874999999983
 40
0.1796874999999983
 40
0.1835937499999994
 40
0.1835937499999994
 40
0.1855468750000001
 40
0.1855468750000001
 40
0.1874999999999992
 40
0.1874999999999992
 40
0.1914062500000004
 40
0.1914062500000004
 40
0.1953125000000001
 40
0.1953125000000001
 40
0.2031249999999995
 40
0.2031249999999995
 40
0.2187499999999997
 40
0.2187499999999997
 40
0.2500000000000004
 40
0.2500000000000004
 40
0.2519531249999994
 40
0.2519531249999994
 40
0.2539062500000001
 40
0.2539062500000001
 40
0.2578124999999998
 40
0.2578124999999998
 40
0.2656249999999992
 40
0.2656249999999992
 40
0.2812499999999996
 40
0.2812499999999996
 40
0.2890625000000003
 40
0.2890625000000003
 40
0.2929687499999986
 40
0.2929687499999986
 40
0.2968749999999998
 40
0.2968749999999998
 40
0.3046875000000007
 40
0.3046875000000007
 40
0.3125000000000001
 40
0.3125000000000001
 40
0.3144531250000007
 40
0.3144531250000007
 40
0.3164062499999997
 40
0.3164062499999997
 40
0.3203125000000009
 40
0.3203125000000009
 40
0.3281249999999988
 40
0.3281249999999988
 40
0.3437499999999992
 40
0.3437499999999992
 40
0.3749999999999998
 40
0.3749999999999998
 40
0.3769531250000003
 40
0.3769531250000003
 40
0.3789062499999995
 40
0.3789062499999995
 40
0.3828124999999992
 40
0.3828124999999992
 40
0.3906250000000002
 40
0.3906250000000002
 40
0.3984374999999994
 40
0.3984374999999994
 40
0.4023437499999992
 40
0.4023437499999992
 40
0.4062500000000004
 40
0.4062500000000004
 40
0.4140624999999998
 40
0.4140624999999998
 40
0.4179687499999995
 40
0.4179687499999995
 40
0.4218749999999992
 40
0.4218749999999992
 40
0.4374999999999994
 40
0.4374999999999994
 40
0.4394531250000001
 40
0.4394531250000001
 40
0.4414062499999991
 40
0.4414062499999991
 40
0.4453125000000003
 40
0.4453125000000003
 40
0.4531249999999998
 40
0.4531249999999998
 40
0.4687500000000001
 40
0.4687500000000001
 40
0.4843750000000004
 40
0.4843750000000004
 40
0.4921874999999998
 40
0.4921874999999998
 40
0.4960937499999996
 40
0.4960937499999996
 40
0.4999999999999993
 40
0.4999999999999993
 40
0.5009297121535956
 40
0.5009297121535956
 40
0.5009297121535956
 40
0.5009297121535956
 10
31.62044123686564
 20
428.6077831262722
 30
0.0
 41
1.0
 10
31.96906623742552
 20
428.6077864498349
 30
0.0
 41
1.0
 10
32.31654201333549
 20
428.6078128762985
 30
0.0
 41
1.0
 10
33.00934657443576
 20
428.6078566867095
 30
0.0
 41
1.0
 10
33.35467645510561
 20
428.6078740790336
 30
0.0
 41
1.0
 10
34.04329042841572
 20
428.6079334632984
 30
0.0
 41
1.0
 10
34.38652159840557
 20
428.6079837570151
 30
0.0
 41
1.0
 10
34.89972196952566
 20
428.6080785160607
 30
0.0
 41
1.0
 10
35.07051453702569
 20
428.6081125379147
 30
0.0
 41
1.0
 10
35.32629018096576
 20
428.6081587091726
 30
0.0
 41
1.0
 10
35.41147987981548
 20
428.6081732403042
 30
0.0
 41
1.0
 10
35.53916110785575
 20
428.6081922444833
 30
0.0
 41
1.0
 10
35.58170429859569
 20
428.6081981107779
 30
0.0
 41
1.0
 10
35.64549326407563
 20
428.6082059923762
 30
0.0
 41
1.0
 10
35.66675194923572
 20
428.6082084664254
 30
0.0
 41
1.0
 10
35.7092607152358
 20
428.6082130700763
 30
0.0
 41
1.0
 10
35.73049965116569
 20
428.6082151483785
 30
0.0
 41
1.0
 10
36.09209894352579
 20
428.6082479574522
 30
0.0
 41
1.0
 10
36.4311343112356
 20
428.6083656431867
 30
0.0
 41
1.0
 10
36.85348285108557
 20
428.6085254130218
 30
0.0
 41
1.0
 10
36.93791842828567
 20
428.6085582772849
 30
0.0
 41
1.0
 10
37.10626170332579
 20
428.6086242650382
 30
0.0
 41
1.0
 10
37.19020858437579
 20
428.6086574032554
 30
0.0
 41
1.0
 10
37.44138643957557
 20
428.6087557826084
 30
0.0
 41
1.0
 10
37.60795522386569
 20
428.6088197998772
 30
0.0
 41
1.0
 10
38.1050815114056
 20
428.6090024102338
 30
0.0
 41
1.0
 10
38.43306766116574
 20
428.6091086189275
 30
0.0
 41
1.0
 10
38.92001167076568
 20
428.6092793940266
 30
0.0
 41
1.0
 10
39.08148493212548
 20
428.6093389604872
 30
0.0
 41
1.0
 10
39.32242689290569
 20
428.6094434724384
 30
0.0
 41
1.0
 10
39.40252942039568
 20
428.6094808859187
 30
0.0
 41
1.0
 10
39.52236403134565
 20
428.6095427326002
 30
0.0
 41
1.0
 10
39.56225569600564
 20
428.6095643058397
 30
0.0
 41
1.0
 10
39.62201305397546
 20
428.6095983657063
 30
0.0
 41
1.0
 10
39.64191881623559
 20
428.6096100025195
 30
0.0
 41
1.0
 10
39.68170356452559
 20
428.609633889812
 30
0.0
 41
1.0
 10
39.70159516224566
 20
428.6096459513895
 30
0.0
 41
1.0
 10
40.0390118837256
 20
428.6098645550546
 30
0.0
 41
1.0
 10
40.35322049495561
 20
428.6100473699823
 30
0.0
 41
1.0
 10
40.97487723186575
 20
428.6104215722838
 30
0.0
 41
1.0
 10
41.28232519529569
 20
428.6106130049276
 30
0.0
 41
1.0
 10
41.8903765570258
 20
428.6110358320302
 30
0.0
 41
1.0
 10
42.19097984037579
 20
428.6112673078444
 30
0.0
 41
1.0
 10
42.63665890803579
 20
428.6116492961779
 30
0.0
 41
1.0
 10
42.78434732542559
 20
428.6117822183016
 30
0.0
 41
1.0
 10
43.0045589288457
 20
428.6119886445616
 30
0.0
 41
1.0
 10
43.07774260862559
 20
428.6120586131651
 30
0.0
 41
1.0
 10
43.18718592607589
 20
428.6121650079022
 30
0.0
 41
1.0
 10
43.22361166375589
 20
428.6122007121843
 30
0.0
 41
1.0
 10
43.29635207002589
 20
428.6122725386044
 30
0.0
 41
1.0
 10
43.33267636994559
 20
428.6123084515926
 30
0.0
 41
1.0
 10
43.44142040488578
 20
428.6124180657778
 30
0.0
 41
1.0
 10
43.51357930352559
 20
428.61248900508
 30
0.0
 41
1.0
 10
43.65713629137549
 20
428.6126283795757
 30
0.0
 41
1.0
 10
43.72854844085579
 20
428.6126968289868
 30
0.0
 41
1.0
 10
43.94168612365589
 20
428.6129009343647
 30
0.0
 41
1.0
 10
44.08231284562589
 20
428.6130354543636
 30
0.0
 41
1.0
 10
44.49980147320589
 20
428.6134503093525
 30
0.0
 41
1.0
 10
44.77227093604599
 20
428.613743692217
 30
0.0
 41
1.0
 10
45.57216882399599
 20
428.6147395758608
 30
0.0
 41
1.0
 10
46.08206807736589
 20
428.6155861121429
 30
0.0
 41
1.0
 10
46.59938328131559
 20
428.6165051967428
 30
0.0
 41
1.0
 10
46.62970197547569
 20
428.6165594638226
 30
0.0
 41
1.0
 10
46.69019058163579
 20
428.6166651265704
 30
0.0
 41
1.0
 10
46.72034926221569
 20
428.6167170807289
 30
0.0
 41
1.0
 10
46.81056630891589
 20
428.61687093931
 30
0.0
 41
1.0
 10
46.87036565830569
 20
428.6169708508742
 30
0.0
 41
1.0
 10
47.04871139707569
 20
428.6172672328068
 30
0.0
 41
1.0
 10
47.1662050772857
 20
428.6174605532491
 30
0.0
 41
1.0
 10
47.51435896336579
 20
428.6180578919481
 30
0.0
 41
1.0
 10
47.74068419423569
 20
428.6184831589776
 30
0.0
 41
1.0
 10
48.0711656060157
 20
428.6192188515022
 30
0.0
 41
1.0
 10
48.17982688158549
 20
428.6194794435978
 30
0.0
 41
1.0
 10
48.3405457696058
 20
428.6198915843359
 30
0.0
 41
1.0
 10
48.3937400294958
 20
428.6200324419304
 30
0.0
 41
1.0
 10
48.49936876375569
 20
428.6203200276715
 30
0.0
 41
1.0
 10
48.55183638991589
 20
428.6204668531809
 30
0.0
 41
1.0
 10
48.7077166278259
 20
428.6209126110562
 30
0.0
 41
1.0
 10
48.80968231694579
 20
428.6212172338811
 30
0.0
 41
1.0
 10
49.00980675110579
 20
428.6218223942175
 30
0.0
 41
1.0
 10
49.10795681524589
 20
428.6221232339742
 30
0.0
 41
1.0
 10
49.22836105733589
 20
428.6224797656673
 30
0.0
 41
1.0
 10
49.25234210786579
 20
428.6225505500641
 30
0.0
 41
1.0
 10
49.30005121024579
 20
428.6226933362676
 30
0.0
 41
1.0
 10
49.32378809500599
 20
428.6227649846995
 30
0.0
 41
1.0
 10
49.39464563957559
 20
428.622980875153
 30
0.0
 41
1.0
 10
49.4414131832259
 20
428.6231260669866
 30
0.0
 41
1.0
 10
49.58030270594549
 20
428.623566701557
 30
0.0
 41
1.0
 10
49.67101147092579
 20
428.6238672801334
 30
0.0
 41
1.0
 10
49.9374835879057
 20
428.6247968635387
 30
0.0
 41
1.0
 10
50.10759102209569
 20
428.6254549782126
 30
0.0
 41
1.0
 10
50.5953416848456
 20
428.627558765295
 30
0.0
 41
1.0
 10
50.8903849326557
 20
428.6291540533497
 30
0.0
 41
1.0
 10
51.1723624073957
 20
428.6308366266869
 30
0.0
 41
1.0
 10
51.1888476558056
 20
428.6309356053566
 30
0.0
 41
1.0
 10
51.2215617518259
 20
428.6311371744598
 30
0.0
 41
1.0
 10
51.23779818708589
 20
428.6312391998492
 30
0.0
 41
1.0
 10
51.28614614242589
 20
428.6315486836405
 30
0.0
 41
1.0
 10
51.31789634764569
 20
428.6317595430198
 30
0.0
 41
1.0
 10
51.4117042844159
 20
428.6324034577852
 30
0.0
 41
1.0
 10
51.4723199139758
 20
428.632847741232
 30
0.0
 41
1.0
 10
51.58970536695599
 20
428.6337567978229
 30
0.0
 41
1.0
 10
51.64647520812559
 20
428.6342215687625
 30
0.0
 41
1.0
 10
51.7287317639957
 20
428.6349295737414
 30
0.0
 41
1.0
 10
51.75566743415579
 20
428.6351674110005
 30
0.0
 41
1.0
 10
51.8085682919159
 20
428.6356463401115
 30
0.0
 41
1.0
 10
51.8345089224258
 20
428.6358872110463
 30
0.0
 41
1.0
 10
51.9107701749658
 20
428.6366134235457
 30
0.0
 41
1.0
 10
51.9595453884758
 20
428.6371023783352
 30
0.0
 41
1.0
 10
52.0296091827358
 20
428.6378438966771
 30
0.0
 41
1.0
 10
52.0524471171757
 20
428.6380924465969
 30
0.0
 41
1.0
 10
52.09708763771599
 20
428.6385928030437
 30
0.0
 41
1.0
 10
52.1188947045657
 20
428.6388446669348
 30
0.0
 41
1.0
 10
52.225208496056
 20
428.6401124622982
 30
0.0
 41
1.0
 10
52.3016570183559
 20
428.6411523826428
 30
0.0
 41
1.0
 10
52.3779611729356
 20
428.6423990109441
 30
0.0
 41
1.0
 10
52.3863015223255
 20
428.6425383806539
 30
0.0
 41
1.0
 10
52.40272291702559
 20
428.6428180382184
 30
0.0
 41
1.0
 10
52.41080132776599
 20
428.6429584470616
 30
0.0
 41
1.0
 10
52.43464000541599
 20
428.6433813462037
 30
0.0
 41
1.0
 10
52.4500037294956
 20
428.6436655074634
 30
0.0
 41
1.0
 10
52.49451073594579
 20
428.6445241983772
 30
0.0
 41
1.0
 10
52.52207004022559
 20
428.6451049073987
 30
0.0
 41
1.0
 10
52.59842121604559
 20
428.646868950061
 30
0.0
 41
1.0
 10
52.6408893533057
 20
428.6480737496705
 30
0.0
 41
1.0
 10
52.708938186986
 20
428.6505365364666
 30
0.0
 41
1.0
 10
52.73451891873579
 20
428.6517945264141
 30
0.0
 41
1.0
 10
52.76013545394559
 20
428.6537288938985
 30
0.0
 41
1.0
 10
52.76654778139569
 20
428.654381692018
 30
0.0
 41
1.0
 10
52.77295848225589
 20
428.655374834062
 30
0.0
 41
1.0
 10
52.7745607026559
 20
428.6557082123757
 30
0.0
 41
1.0
 10
52.77669219895599
 20
428.6563800342374
 30
0.0
 41
1.0
 10
52.7772223319657
 20
428.6567183109585
 30
0.0
 41
1.0
 10
52.77720983153866
 20
428.6571409560033
 30
0.0
 41
1.0
 10
52.77717634044804
 20
428.6572223819165
 30
0.0
 41
1.0
 10
52.7771118185832
 20
428.6573039752057
 30
0.0
 41
1.0
  0
SPLINE
  5
8B
330
74
100
AcDbEntity
  8
$DDT_AUDIT_GENERATED_(86)
  6
Continuous
 62
     7
100
AcDbSpline
210
0.0
220
0.0
230
1.0
 70
     8
 71
     3
 72
    55
 73
    51
 74
     0
 42
0.0000000002222039
 43
0.0000000001
 40
0.0
 40
0.0
 40
0.0
 40
0.0
 40
0.0054865532511212
 40
0.0111729526736369
 40
0.0170595390482463
 40
0.0231471318095713
 40
0.0294369617970676
 40
0.0359306979179674
 40
0.0426304933258674
 40
0.049539026188445
 40
0.0566595503397466
 40
0.063995964105657
 40
0.07155289825327
 40
0.0793357614980578
 40
0.0873508266783287
 40
0.0956053333666947
 40
0.1041052331467099
 40
0.1128029184190867
 40
0.1216801340591093
 40
0.1307420876753118
 40
0.139994863446437
 40
0.1494454264897611
 40
0.1591016962418446
 40
0.1689726672641505
 40
0.17906856222974
 40
0.189401019205711
 40
0.199983271691329
 40
0.210829620260846
 40
0.2218778218803253
 40
0.2330870628064093
 40
0.2444693067714041
 40
0.256037625609372
 40
0.2678064466757
 40
0.2797916747280634
 40
0.2920109415863213
 40
0.3044839492140756
 40
0.3172328893673149
 40
0.3302127123995111
 40
0.3433357485893042
 40
0.3566205097118474
 40
0.370088103500037
 40
0.3837612905182325
 40
0.3976648810690701
 40
0.4118262334626631
 40
0.4262759252857734
 40
0.4409831046102128
 40
0.4558764554441511
 40
0.4709854055945956
 40
0.4863406020609226
 40
0.4999580225682874
 40
0.4999580225682874
 40
0.4999580225682874
 40
0.4999580225682874
 10
31.6204413045259
 20
426.6658202429186
 30
0.0
 10
31.75062230721015
 20
426.6658322583068
 30
0.0
 10
32.01572611928048
 20
426.6658567274166
 30
0.0
 10
32.42037543275103
 20
426.6659761581722
 30
0.0
 10
32.83900281620055
 20
426.6661409356166
 30
0.0
 10
33.27147840845139
 20
426.6663606335631
 30
0.0
 10
33.71767108963088
 20
426.6666281207806
 30
0.0
 10
34.1774446658656
 20
426.6669624039338
 30
0.0
 10
34.65065794485456
 20
426.6674129800515
 30
0.0
 10
35.13716561780767
 20
426.6680375763337
 30
0.0
 10
35.6368118011689
 20
426.6688247899373
 30
0.0
 10
36.1494377402236
 20
426.6697992904839
 30
0.0
 10
36.674864314435
 20
426.670693398666
 30
0.0
 10
37.21291694743527
 20
426.6716259557671
 30
0.0
 10
37.76340822850376
 20
426.6727070625297
 30
0.0
 10
38.32608838620146
 20
426.6740333931473
 30
0.0
 10
38.89940207570835
 20
426.675637972226
 30
0.0
 10
39.48118342205832
 20
426.6775026767911
 30
0.0
 10
40.06923410634745
 20
426.6795180956788
 30
0.0
 10
40.66251151283949
 20
426.6814570926684
 30
0.0
 10
41.26047458539421
 20
426.6834576984172
 30
0.0
 10
41.86255619858274
 20
426.6856767244791
 30
0.0
 10
42.46815770808247
 20
426.6882114135409
 30
0.0
 10
43.07662923309567
 20
426.6910784129651
 30
0.0
 10
43.68728133972554
 20
426.6942417063658
 30
0.0
 10
44.29935522643175
 20
426.6975000131492
 30
0.0
 10
44.91202724103918
 20
426.7007063868672
 30
0.0
 10
45.5229468948843
 20
426.7041425030715
 30
0.0
 10
46.12875551062752
 20
426.7079344183663
 30
0.0
 10
46.726176348344
 20
426.7120923306911
 30
0.0
 10
47.31334259451864
 20
426.7165314005737
 30
0.0
 10
47.88922611549265
 20
426.7208809211295
 30
0.0
 10
48.4527624754062
 20
426.7253261321343
 30
0.0
 10
49.00277959635671
 20
426.7300644812041
 30
0.0
 10
49.53797714901096
 20
426.7351440011523
 30
0.0
 10
50.05690774961829
 20
426.7405368835614
 30
0.0
 10
50.55700808353068
 20
426.7458587775342
 30
0.0
 10
51.03442412420688
 20
426.751437447148
 30
0.0
 10
51.48558540492025
 20
426.7572081360923
 30
0.0
 10
51.90798639452262
 20
426.7631009619428
 30
0.0
 10
52.30025452455266
 20
426.7690654565422
 30
0.0
 10
52.66084302844212
 20
426.775147538754
 30
0.0
 10
52.98799287658084
 20
426.7815550666658
 30
0.0
 10
53.27964935821121
 20
426.7879529626312
 30
0.0
 10
53.53310097637222
 20
426.7942982358201
 30
0.0
 10
53.74507278095197
 20
426.8006857153169
 30
0.0
 10
53.91267619198523
 20
426.8075673246307
 30
0.0
 10
54.03346054005324
 20
426.8143198314596
 30
0.0
 10
54.10201645641885
 20
426.8204512793064
 30
0.0
 10
54.11648233177876
 20
426.8246528220348
 30
0.0
 10
54.11651655110862
 20
426.8266089173921
 30
0.0
  0
SPLINE
  5
8C
330
74
100
AcDbEntity
  8
$DDT_AUDIT_GENERATED_(86)
  6
Continuous
 62
     7
100
AcDbSpline
210
0.0
220
0.0
230
1.0
 70
     8
 71
     3
 72
   126
 73
   122
 74
     0
 42
0.0000000002223863
 43
0.0000000001
 40
0.4996644200308246
 40
0.4996644200308246
 40
0.4996644200308246
 40
0.4996644200308246
 40
0.5000000000000007
 40
0.5000000000000007
 40
0.5019531250000003
 40
0.5019531250000003
 40
0.50390625
 40
0.50390625
 40
0.5078125000000008
 40
0.5078125000000008
 40
0.5156250000000008
 40
0.5156250000000008
 40
0.5195312500000013
 40
0.5195312500000013
 40
0.5234375000000008
 40
0.5234375000000008
 40
0.5312500000000008
 40
0.5312500000000008
 40
0.5468750000000008
 40
0.5468750000000008
 40
0.5625000000000008
 40
0.5625000000000008
 40
0.5703124999999994
 40
0.5703124999999994
 40
0.5742187500000001
 40
0.5742187500000001
 40
0.5781250000000008
 40
0.5781250000000008
 40
0.5937499999999996
 40
0.5937499999999996
 40
0.6093750000000009
 40
0.6093750000000009
 40
0.6250000000000009
 40
0.6250000000000009
 40
0.6406249999999994
 40
0.6406249999999994
 40
0.6562500000000009
 40
0.6562500000000009
 40
0.671875000000001
 40
0.671875000000001
 40
0.6757812500000003
 40
0.6757812500000003
 40
0.679687500000001
 40
0.679687500000001
 40
0.6835937500000002
 40
0.6835937500000002
 40
0.6874999999999996
 40
0.6874999999999996
 40
0.7031250000000009
 40
0.7031250000000009
 40
0.7187500000000009
 40
0.7187500000000009
 40
0.734375000000001
 40
0.734375000000001
 40
0.742187500000001
 40
0.742187500000001
 40
0.7460937500000018
 40
0.7460937500000018
 40
0.7480468750000001
 40
0.7480468750000001
 40
0.7499999999999997
 40
0.7499999999999997
 40
0.765625000000001
 40
0.765625000000001
 40
0.781250000000001
 40
0.781250000000001
 40
0.7851562500000004
 40
0.7851562500000004
 40
0.7890625000000011
 40
0.7890625000000011
 40
0.7968750000000011
 40
0.7968750000000011
 40
0.8046875000000011
 40
0.8046875000000011
 40
0.8085937500000004
 40
0.8085937500000004
 40
0.8105468750000001
 40
0.8105468750000001
 40
0.8125000000000011
 40
0.8125000000000011
 40
0.8281250000000011
 40
0.8281250000000011
 40
0.8437500000000012
 40
0.8437500000000012
 40
0.8593750000000012
 40
0.8593750000000012
 40
0.8750000000000012
 40
0.8750000000000012
 40
0.8759765625000004
 40
0.8759765625000004
 40
0.8769531250000009
 40
0.8769531250000009
 40
0.878906250000002
 40
0.878906250000002
 40
0.8828125000000012
 40
0.8828125000000012
 40
0.8906250000000012
 40
0.8906250000000012
 40
0.8945312500000006
 40
0.8945312500000006
 40
0.8984375000000013
 40
0.8984375000000013
 40
0.9062499999999998
 40
0.9062499999999998
 40
0.9218750000000013
 40
0.9218750000000013
 40
0.9296875000000014
 40
0.9296875000000014
 40
0.9335937500000006
 40
0.9335937500000006
 40
0.9355468750000017
 40
0.9355468750000017
 40
0.9375000000000012
 40
0.9375000000000012
 40
0.9531249999999999
 40
0.9531249999999999
 40
0.9687500000000014
 40
0.9687500000000014
 40
0.9843750000000014
 40
0.9843750000000014
 40
1.0
 40
1.0
 40
1.0
 40
1.0
 10
9.124366859960283
 20
426.8265595214994
 30
0.0
 10
9.124368002376984
 20
426.8265136585982
 30
0.0
 10
9.124373311336052
 20
426.8264678586013
 30
0.0
 10
9.124437935735592
 20
426.8261559367822
 30
0.0
 10
9.124634293213592
 20
426.8258880449139
 30
0.0
 10
9.125309424419793
 20
426.8253484905339
 30
0.0
 10
9.125788194924594
 20
426.825076960737
 30
0.0
 10
9.127648137766789
 20
426.8242577348208
 30
0.0
 10
9.129452764341695
 20
426.8237054901243
 30
0.0
 10
9.13655965944169
 20
426.8220350439441
 30
0.0
 10
9.143554733142492
 20
426.8209033118955
 30
0.0
 10
9.157433995027494
 20
426.8191930447683
 30
0.0
 10
9.162625684016792
 20
426.818620741184
 30
0.0
 10
9.174128627199494
 20
426.817474566785
 30
0.0
 10
9.180440659492694
 20
426.8169005850883
 30
0.0
 10
9.20105428254259
 20
426.815178091785
 30
0.0
 10
9.217033141881492
 20
426.8140292258731
 30
0.0
 10
9.271655099982596
 20
426.8105909998077
 30
0.0
 10
9.316979430831696
 20
426.8083129873292
 30
0.0
 10
9.425418899431596
 20
426.8037653283483
 30
0.0
 10
9.488533773779594
 20
426.8014974428913
 30
0.0
 10
9.596628980636495
 20
426.7980103446145
 30
0.0
 10
9.634899422845594
 20
426.7968245797469
 30
0.0
 10
9.695680879243797
 20
426.7950308378102
 30
0.0
 10
9.716480607878594
 20
426.7944310458461
 30
0.0
 10
9.759130813987694
 20
426.7932309622402
 30
0.0
 10
9.780984764648597
 20
426.7926305673237
 30
0.0
 10
9.892884644167696
 20
426.7896320844089
 30
0.0
 10
9.990815755983498
 20
426.7872491513398
 30
0.0
 10
10.20322331558169
 20
426.7825724444593
 30
0.0
 10
10.3176999206246
 20
426.7802782624249
 30
0.0
 10
10.56305156669579
 20
426.775723539609
 30
0.0
 10
10.69392664356769
 20
426.7734624807529
 30
0.0
 10
10.97205527306549
 20
426.7688172195145
 30
0.0
 10
11.1193085204527
 20
426.7664407618161
 30
0.0
 10
11.43026561821169
 20
426.7617233873027
 30
0.0
 10
11.59396922345379
 20
426.7593823376018
 30
0.0
 10
11.93802242610469
 20
426.7547980105454
 30
0.0
 10
12.11837161764149
 20
426.7525547014192
 30
0.0
 10
12.35441680203959
 20
426.7498017672491
 30
0.0
 10
12.40215661624279
 20
426.7492535501257
 30
0.0
 10
12.49870433955269
 20
426.7481608444891
 30
0.0
 10
12.54752275579179
 20
426.7476162405688
 30
0.0
 10
12.64619088388459
 20
426.7465299257539
 30
0.0
 10
12.69595887652759
 20
426.7459891098256
 30
0.0
 10
12.79635803846579
 20
426.7449105098804
 30
0.0
 10
12.84698901290769
 20
426.7443750781729
 30
0.0
 10
13.10229339751549
 20
426.7416752198129
 30
0.0
 10
13.31342238733669
 20
426.7393134456836
 30
0.0
 10
13.74919578004869
 20
426.7347039241035
 30
0.0
 10
13.97384033944349
 20
426.7324539698209
 30
0.0
 10
14.43651429239659
 20
426.7282402304421
 30
0.0
 10
14.67454365668569
 20
426.7262754704305
 30
0.0
 10
15.04162021329879
 20
426.7234527900334
 30
0.0
 10
15.16565211043279
 20
426.7225304375313
 30
0.0
 10
15.35421758221259
 20
426.7211439884351
 30
0.0
 10
15.41749240606169
 20
426.7206812164821
 30
0.0
 10
15.51303571875359
 20
426.719981049613
 30
0.0
 10
15.54498867313759
 20
426.7197466505578
 30
0.0
 10
15.60910526035969
 20
426.7192748813936
 30
0.0
 10
15.64126886720349
 20
426.7190377734057
 30
0.0
 10
15.93169141990369
 20
426.7168809043239
 30
0.0
 10
16.19660811273369
 20
426.7146924643829
 30
0.0
 10
16.74007722894479
 20
426.7104779089173
 30
0.0
 10
17.01862925707559
 20
426.7084499798495
 30
0.0
 10
17.37549927642749
 20
426.7061718113508
 30
0.0
 10
17.44730765032569
 20
426.7057279644567
 30
0.0
 10
17.59179861659779
 20
426.7048635883115
 30
0.0
 10
17.66449978944269
 20
426.7044429559867
 30
0.0
 10
17.88380624959469
 20
426.703213772337
 30
0.0
 10
18.03114300243759
 20
426.7024413450853
 30
0.0
 10
18.32805966023579
 20
426.7009528543665
 30
0.0
 10
18.47763956898279
 20
426.7002367889864
 30
0.0
 10
18.70368034220559
 20
426.6991573691755
 30
0.0
 10
18.77930580165549
 20
426.6987964752152
 30
0.0
 10
18.89316081180549
 20
426.6982457162741
 30
0.0
 10
18.93118195514579
 20
426.6980605474066
 30
0.0
 10
19.00736306254569
 20
426.697685588515
 30
0.0
 10
19.04552297086549
 20
426.6974965661688
 30
0.0
 10
19.38958752332559
 20
426.6957518769945
 30
0.0
 10
19.69987234191559
 20
426.6938242951382
 30
0.0
 10
20.32919229478559
 20
426.6902466843927
 30
0.0
 10
20.64822774687559
 20
426.6885904749168
 30
0.0
 10
21.29501467019549
 20
426.6858372313239
 30
0.0
 10
21.62276602406563
 20
426.6847391462797
 30
0.0
 10
22.2870608953558
 20
426.6827605700807
 30
0.0
 10
22.62360382131554
 20
426.6818837950476
 30
0.0
 10
22.98595603897569
 20
426.6805354117468
 30
0.0
 10
23.00728838346548
 20
426.6804553248529
 30
0.0
 10
23.04998801444571
 20
426.6802950239013
 30
0.0
 10
23.07135531690573
 20
426.6802146083065
 30
0.0
 10
23.13550972674556
 20
426.6799727730092
 30
0.0
 10
23.17834933593575
 20
426.6798107674201
 30
0.0
 10
23.30707853001558
 20
426.6793239601909
 30
0.0
 10
23.39317846985567
 20
426.6789984100395
 30
0.0
 10
23.65232301065565
 20
426.6780296275496
 30
0.0
 10
23.82621213984566
 20
426.6773949070825
 30
0.0
 10
24.08875156728572
 20
426.6764912540107
 30
0.0
 10
24.17654904660548
 20
426.676197945069
 30
0.0
 10
24.35271602948568
 20
426.6756305109815
 30
0.0
 10
24.44114247856577
 20
426.6753562261592
 30
0.0
 10
24.70660149506556
 20
426.674567277695
 30
0.0
 10
24.8839549429956
 20
426.6740866220306
 30
0.0
 10
25.41714517086574
 20
426.6727797678278
 30
0.0
 10
25.77411086256551
 20
426.6720978641374
 30
0.0
 10
26.31178612851567
 20
426.6711842847548
 30
0.0
 10
26.49138258432548
 20
426.6708956586808
 30
0.0
 10
26.76133254848559
 20
426.6704438345789
 30
0.0
 10
26.85140843150565
 20
426.6702899333234
 30
0.0
 10
26.98666101191565
 20
426.6700474595997
 30
0.0
 10
27.03176833229553
 20
426.6699646886424
 30
0.0
 10
27.12202922367577
 20
426.6697940249334
 30
0.0
 10
27.16718280743566
 20
426.669705667547
 30
0.0
 10
27.57377296795561
 20
426.6688902993312
 30
0.0
 10
27.93665777330579
 20
426.6682498045474
 30
0.0
 10
28.66536112701578
 20
426.6672971984079
 30
0.0
 10
29.03117966475564
 20
426.6669846570683
 30
0.0
 10
29.76577371641564
 20
426.6664565603635
 30
0.0
 10
30.13454967835559
 20
426.6662241117387
 30
0.0
 10
30.87509622976562
 20
426.6658994691533
 30
0.0
 10
31.24686713993559
 20
426.6658073364916
 30
0.0
 10
31.62016470255547
 20
426.6658202328802
 30
0.0
  0
SPLINE
  5
8D
330
74
100
AcDbEntity
  8
$DDT_AUDIT_GENERATED_(86)
  6
Continuous
 62
     7
100
AcDbSpline
210
0.0
220
0.0
230
1.0
 70
    12
 71
     3
 72
   142
 73
   138
 74
     0
 42
0.0000000002367354
 43
0.0000000001
 40
0.4991147634890968
 40
0.4991147634890968
 40
0.4991147634890968
 40
0.4991147634890968
 40
0.5000000000000007
 40
0.5000000000000007
 40
0.5019531250000002
 40
0.5019531250000002
 40
0.5039062499999997
 40
0.5039062499999997
 40
0.5078125000000001
 40
0.5078125000000001
 40
0.5156249999999996
 40
0.5156249999999996
 40
0.5312499999999999
 40
0.5312499999999999
 40
0.5468750000000003
 40
0.5468750000000003
 40
0.5546874999999999
 40
0.5546874999999999
 40
0.5585937500000003
 40
0.5585937500000003
 40
0.5605468749999997
 40
0.5605468749999997
 40
0.5625000000000008
 40
0.5625000000000008
 40
0.5781250000000011
 40
0.5781250000000011
 40
0.5820312500000001
 40
0.5820312500000001
 40
0.5859375000000007
 40
0.5859375000000007
 40
0.59375
 40
0.59375
 40
0.609374999999999
 40
0.609374999999999
 40
0.6171874999999999
 40
0.6171874999999999
 40
0.6210937500000003
 40
0.6210937500000003
 40
0.6230468749999999
 40
0.6230468749999999
 40
0.6240234374999997
 40
0.6240234374999997
 40
0.6249999999999994
 40
0.6249999999999994
 40
0.6406249999999999
 40
0.6406249999999999
 40
0.6562500000000002
 40
0.6562500000000002
 40
0.6718750000000006
 40
0.6718750000000006
 40
0.6796874999999999
 40
0.6796874999999999
 40
0.6835937500000004
 40
0.6835937500000004
 40
0.6874999999999994
 40
0.6874999999999994
 40
0.6894531250000004
 40
0.6894531250000004
 40
0.69140625
 40
0.69140625
 40
0.6953125000000003
 40
0.6953125000000003
 40
0.7031249999999998
 40
0.7031249999999998
 40
0.7187500000000002
 40
0.7187500000000002
 40
0.7343750000000007
 40
0.7343750000000007
 40
0.750000000000001
 40
0.750000000000001
 40
0.751953124999999
 40
0.751953124999999
 40
0.75390625
 40
0.75390625
 40
0.7578125000000006
 40
0.7578125000000006
 40
0.7656249999999999
 40
0.7656249999999999
 40
0.7812500000000003
 40
0.7812500000000003
 40
0.7890624999999998
 40
0.7890624999999998
 40
0.7929687500000001
 40
0.7929687500000001
 40
0.7949218749999997
 40
0.7949218749999997
 40
0.7968749999999992
 40
0.7968749999999992
 40
0.8046874999999987
 40
0.8046874999999987
 40
0.8085937500000007
 40
0.8085937500000007
 40
0.8105468750000001
 40
0.8105468750000001
 40
0.8124999999999997
 40
0.8124999999999997
 40
0.828125
 40
0.828125
 40
0.8437500000000003
 40
0.8437500000000003
 40
0.8593749999999993
 40
0.8593749999999993
 40
0.8749999999999997
 40
0.8749999999999997
 40
0.8769531250000007
 40
0.8769531250000007
 40
0.8789062499999987
 40
0.8789062499999987
 40
0.8828125000000006
 40
0.8828125000000006
 40
0.8906250000000001
 40
0.8906250000000001
 40
0.8984374999999996
 40
0.8984374999999996
 40
0.90234375
 40
0.90234375
 40
0.9042968749999994
 40
0.9042968749999994
 40
0.9062500000000006
 40
0.9062500000000006
 40
0.9218750000000009
 40
0.9218750000000009
 40
0.9375000000000013
 40
0.9375000000000013
 40
0.9394531249999993
 40
0.9394531249999993
 40
0.9414062500000003
 40
0.9414062500000003
 40
0.9453125000000007
 40
0.9453125000000007
 40
0.9531250000000002
 40
0.9531250000000002
 40
0.9687500000000004
 40
0.9687500000000004
 40
0.984375000000001
 40
0.984375000000001
 40
1.0
 40
1.0
 40
1.0
 40
1.0
 10
10.46373686132367
 20
428.6572359927621
 30
0.0
 41
1.0
 10
10.46367288132917
 20
428.6571577961494
 30
0.0
 41
1.0
 10
10.46363652977002
 20
428.6570797069598
 30
0.0
 41
1.0
 10
10.4636086436867
 20
428.6568296785921
 30
0.0
 41
1.0
 10
10.46372692124849
 20
428.6566584292257
 30
0.0
 41
1.0
 10
10.4642373304378
 20
428.6563177913492
 30
0.0
 41
1.0
 10
10.4646294206318
 20
428.6561483395743
 30
0.0
 41
1.0
 10
10.46621447001169
 20
428.6556424135651
 30
0.0
 41
1.0
 10
10.46781617093569
 20
428.6553083654069
 30
0.0
 41
1.0
 10
10.4742426093585
 20
428.6543146726419
 30
0.0
 41
1.0
 10
10.4806881127877
 20
428.6536634281476
 30
0.0
 41
1.0
 10
10.5064199162466
 20
428.6517351983076
 30
0.0
 41
1.0
 10
10.5320928649967
 20
428.6504829094397
 30
0.0
 41
1.0
 10
10.60021821061349
 20
428.6480209436874
 30
0.0
 41
1.0
 10
10.6426706985947
 20
428.6468112523964
 30
0.0
 41
1.0
 10
10.7189484040687
 20
428.6450303691752
 30
0.0
 41
1.0
 10
10.7464762789905
 20
428.6444425547833
 30
0.0
 41
1.0
 10
10.7909425439957
 20
428.6435716652582
 30
0.0
 41
1.0
 10
10.80629384698659
 20
428.6432831875596
 30
0.0
 41
1.0
 10
10.8301185879668
 20
428.6428535875995
 30
0.0
 41
1.0
 10
10.8381931417075
 20
428.64271090791
 30
0.0
 41
1.0
 10
10.8546089661945
 20
428.6424266645699
 30
0.0
 41
1.0
 10
10.8629452266405
 20
428.6422847566936
 30
0.0
 41
1.0
 10
10.9392785051316
 20
428.6410198545066
 30
0.0
 41
1.0
 10
11.0159795840416
 20
428.6400076836447
 30
0.0
 41
1.0
 10
11.12255851140369
 20
428.6387681560831
 30
0.0
 41
1.0
 10
11.1444220870057
 20
428.6385217532061
 30
0.0
 41
1.0
 10
11.18911796480669
 20
428.6380317084598
 30
0.0
 41
1.0
 10
11.2119593435846
 20
428.6377879546532
 30
0.0
 41
1.0
 10
11.2819490543186
 20
428.6370588461432
 30
0.0
 41
1.0
 10
11.3305616811008
 20
428.6365754083657
 30
0.0
 41
1.0
 10
11.4821876538476
 20
428.6351285581425
 30
0.0
 41
1.0
 10
11.59096944835869
 20
428.6341649305929
 30
0.0
 41
1.0
 10
11.7657689801135
 20
428.6327702743316
 30
0.0
 41
1.0
 10
11.8259782027897
 20
428.6323147666205
 30
0.0
 41
1.0
 10
11.91926148271479
 20
428.6316603245803
 30
0.0
 41
1.0
 10
11.95085113914869
 20
428.6314470420779
 30
0.0
 41
1.0
 10
11.99898839360549
 20
428.6311368396873
 30
0.0
 41
1.0
 10
12.0151596281016
 20
428.6310350632288
 30
0.0
 41
1.0
 10
12.03960614225569
 20
428.6308851766419
 30
0.0
 41
1.0
 10
12.04778659207159
 20
428.6308356777036
 30
0.0
 41
1.0
 10
12.0642109718706
 20
428.6307376666621
 30
0.0
 41
1.0
 10
12.0724606638946
 20
428.6306894422311
 30
0.0
 41
1.0
 10
12.2130052263806
 20
428.6298668405873
 30
0.0
 41
1.0
 10
12.35286464860159
 20
428.6290926913038
 30
0.0
 41
1.0
 10
12.64784044484169
 20
428.6275833747064
 30
0.0
 41
1.0
 10
12.8029567846665
 20
428.6268482198812
 30
0.0
 41
1.0
 10
13.1286222327317
 20
428.6254401417104
 30
0.0
 41
1.0
 10
13.29917121498759
 20
428.6247672396065
 30
0.0
 41
1.0
 10
13.56676527107059
 20
428.6238099019465
 30
0.0
 41
1.0
 10
13.65792573393169
 20
428.6234993305034
 30
0.0
 41
1.0
 10
13.79764093679569
 20
428.6230457701855
 30
0.0
 41
1.0
 10
13.84470846743759
 20
428.6228966245368
 30
0.0
 41
1.0
 10
13.93984081162079
 20
428.6226022285379
 30
0.0
 41
1.0
 10
13.98791869181259
 20
428.6224577349053
 30
0.0
 41
1.0
 10
14.06074672294559
 20
428.6222413518438
 30
0.0
 41
1.0
 10
14.08514117977849
 20
428.622168658164
 30
0.0
 41
1.0
 10
14.13410991783259
 20
428.622022611602
 30
0.0
 41
1.0
 10
14.15869210438059
 20
428.621949235239
 30
0.0
 41
1.0
 10
14.23273198130069
 20
428.6217284724627
 30
0.0
 41
1.0
 10
14.28248299497769
 20
428.6215804621183
 30
0.0
 41
1.0
 10
14.43290802219169
 20
428.6211369751986
 30
0.0
 41
1.0
 10
14.53475411492349
 20
428.6208421963718
 30
0.0
 41
1.0
 10
14.84496679016569
 20
428.6199792983379
 30
0.0
 41
1.0
 10
15.05800910023659
 20
428.6194349724737
 30
0.0
 41
1.0
 10
15.49645363863369
 20
428.6184505287404
 30
0.0
 41
1.0
 10
15.72185560337169
 20
428.6180102236567
 30
0.0
 41
1.0
 10
16.18487183383379
 20
428.617202711127
 30
0.0
 41
1.0
 10
16.42248578164159
 20
428.6168352677497
 30
0.0
 41
1.0
 10
16.69657059751079
 20
428.6164079705681
 30
0.0
 41
1.0
 10
16.72709149075259
 20
428.616358510535
 30
0.0
 41
1.0
 10
16.78834276476159
 20
428.6162579300543
 30
0.0
 41
1.0
 10
16.81906143609149
 20
428.6162065373261
 30
0.0
 41
1.0
 10
16.91149834703859
 20
428.6160498481515
 30
0.0
 41
1.0
 10
16.97349751367869
 20
428.6159420571861
 30
0.0
 41
1.0
 10
17.16063197712169
 20
428.6156144734162
 30
0.0
 41
1.0
 10
17.28690474900169
 20
428.6153907579971
 30
0.0
 41
1.0
 10
17.67036088815669
 20
428.6147399420805
 30
0.0
 41
1.0
 10
17.93219079020759
 20
428.614338301157
 30
0.0
 41
1.0
 10
18.33442649111659
 20
428.6138421577302
 30
0.0
 41
1.0
 10
18.47008470732769
 20
428.6136932338689
 30
0.0
 41
1.0
 10
18.67594723209549
 20
428.6134901878588
 30
0.0
 41
1.0
 10
18.74496380432559
 20
428.6134258142225
 30
0.0
 41
1.0
 10
18.84908176016549
 20
428.6133329441298
 30
0.0
 41
1.0
 10
18.88388658666549
 20
428.6133025974728
 30
0.0
 41
1.0
 10
18.95369373932569
 20
428.6132428523101
 30
0.0
 41
1.0
 10
18.98870187923559
 20
428.6132134492732
 30
0.0
 41
1.0
 10
19.16399210451569
 20
428.6130682250961
 30
0.0
 41
1.0
 10
19.30520575115569
 20
428.6129579401413
 30
0.0
 41
1.0
 10
19.51844360385579
 20
428.6127821605601
 30
0.0
 41
1.0
 10
19.58975905910569
 20
428.6127217772785
 30
0.0
 41
1.0
 10
19.69707917889559
 20
428.6126255773699
 30
0.0
 41
1.0
 10
19.73291037211559
 20
428.6125925697825
 30
0.0
 41
1.0
 10
19.80468714673569
 20
428.612524142147
 30
0.0
 41
1.0
 10
19.84061813954579
 20
428.6124882573993
 30
0.0
 41
1.0
 10
20.16479773228549
 20
428.6121611536626
 30
0.0
 41
1.0
 10
20.45682834832559
 20
428.6118276813239
 30
0.0
 41
1.0
 10
21.04862800270579
 20
428.6112329248656
 30
0.0
 41
1.0
 10
21.34839638846549
 20
428.6109714662947
 30
0.0
 41
1.0
 10
21.95561019078558
 20
428.610556211766
 30
0.0
 41
1.0
 10
22.26305490288563
 20
428.6104021970842
 30
0.0
 41
1.0
 10
22.88552367102556
 20
428.6101211287782
 30
0.0
 41
1.0
 10
23.20054692971552
 20
428.6099938430065
 30
0.0
 41
1.0
 10
23.55914864698569
 20
428.60975908263
 30
0.0
 41
1.0
 10
23.5990882968158
 20
428.6097338827423
 30
0.0
 41
1.0
 10
23.67905632426572
 20
428.6096838653593
 30
0.0
 41
1.0
 10
23.71910077830579
 20
428.6096592619053
 30
0.0
 41
1.0
 10
23.83941550978578
 20
428.6095866422878
 30
0.0
 41
1.0
 10
23.91986714101562
 20
428.6095398172821
 30
0.0
 41
1.0
 10
24.16194840768548
 20
428.6094038910318
 30
0.0
 41
1.0
 10
24.32430415815565
 20
428.6093193423412
 30
0.0
 41
1.0
 10
24.65096322880571
 20
428.609161110254
 30
0.0
 41
1.0
 10
24.81526653244554
 20
428.6090874242867
 30
0.0
 41
1.0
 10
25.06319680331579
 20
428.6089840187808
 30
0.0
 41
1.0
 10
25.14608618049578
 20
428.6089507370547
 30
0.0
 41
1.0
 10
25.27079163816551
 20
428.6089024647702
 30
0.0
 41
1.0
 10
25.31242665339549
 20
428.608886647535
 30
0.0
 41
1.0
 10
25.39571055304576
 20
428.6088555818192
 30
0.0
 41
1.0
 10
25.43737283944573
 20
428.6088403280796
 30
0.0
 41
1.0
 10
25.81251639977562
 20
428.6087054454179
 30
0.0
 41
1.0
 10
26.14727664675569
 20
428.6086025516619
 30
0.0
 41
1.0
 10
26.81941625316562
 20
428.6084191146512
 30
0.0
 41
1.0
 10
27.15679539899564
 20
428.6083385924574
 30
0.0
 41
1.0
 10
27.5378594822855
 20
428.6082549542588
 30
0.0
 41
1.0
 10
27.58017759276571
 20
428.6082449441999
 30
0.0
 41
1.0
 10
27.66489697523547
 20
428.6082247262797
 30
0.0
 41
1.0
 10
27.70727734450565
 20
428.6082143674299
 30
0.0
 41
1.0
 10
27.83448042970575
 20
428.6081829598762
 30
0.0
 41
1.0
 10
27.91936513224572
 20
428.6081615966823
 30
0.0
 41
1.0
 10
28.17426638433561
 20
428.6080989885772
 30
0.0
 41
1.0
 10
28.34453020323553
 20
428.6080594983601
 30
0.0
 41
1.0
 10
28.85629935558562
 20
428.6079601206304
 30
0.0
 41
1.0
 10
29.19878361917562
 20
428.6079237288747
 30
0.0
 41
1.0
 10
29.88626180986556
 20
428.6078711327878
 30
0.0
 41
1.0
 10
30.23125728796548
 20
428.6078470136334
 30
0.0
 41
1.0
 10
30.92385638237555
 20
428.6078013548628
 30
0.0
 41
1.0
 10
31.27146077175574
 20
428.6077797997017
 30
0.0
 41
1.0
 10
31.62044123686564
 20
428.6077831262722
 30
0.0
 41
1.0
  0
ELLIPSE
  5
8E
330
74
100
AcDbEntity
  8
$DDT_AUDIT_GENERATED_(86)
  6
Continuous
 62
     7
100
AcDbEllipse
 10
31.6206831651
 20
393.5615023131
 30
0.0
 11
0.0
 21
0.2999999962343893
 31
0.0
210
0.0
220
0.0
230
1.0
 40
1.0
 41
3.141718487228004
 42
3.141726723574856
  0
SPLINE
  5
8F
330
74
100
AcDbEntity
  8
$DDT_AUDIT_GENERATED_(86)
  6
Continuous
 62
     7
100
AcDbSpline
210
0.0
220
0.0
230
1.0
 70
     8
 71
     3
 72
    53
 73
    49
 74
     0
 42
0.000000000424367
 43
0.0000000001
 40
0.0
 40
0.0
 40
0.0
 40
0.0
 40
0.0225824026490089
 40
0.04218301703375
 40
0.0587776584119875
 40
0.0716564745595269
 40
0.0818994160687676
 40
0.0895151552039744
 40
0.0950176356351519
 40
0.100574409721172
 40
0.1064307949438748
 40
0.1125873251845071
 40
0.131071297724596
 40
0.1520284534104412
 40
0.1660164121079734
 40
0.1811615233272616
 40
0.197461517908913
 40
0.2149177279849626
 40
0.2333804222421346
 40
0.250263279362991
 40
0.2675125349030484
 40
0.2810583571712442
 40
0.2918888534629108
 40
0.304255256595593
 40
0.3193950087724059
 40
0.3367938213464975
 40
0.3561537816038972
 40
0.3907582046786466
 40
0.424652446995016
 40
0.4579433947023951
 40
0.502591742102689
 40
0.5466940910574561
 40
0.5903636779541657
 40
0.6324293457108532
 40
0.6719908394496663
 40
0.6877778917363165
 40
0.7031688191502179
 40
0.7187279002197328
 40
0.7371509070564526
 40
0.7588281686599193
 40
0.7838226292908557
 40
0.8078286807741313
 40
0.8340608198164605
 40
0.8625315925479472
 40
0.8932773051475666
 40
0.9263626563129566
 40
0.9618881287089656
 40
1.0
 40
1.0
 40
1.0
 40
1.0
 10
9.120498385180076
 20
397.4168825621304
 30
0.0
 10
9.123714939486334
 20
397.3488966057169
 30
0.0
 10
9.130183921743363
 20
397.2421736075941
 30
0.0
 10
9.176622653062408
 20
397.0776460275542
 30
0.0
 10
9.234827328787228
 20
396.9450194337975
 30
0.0
 10
9.29574016642961
 20
396.839025960138
 30
0.0
 10
9.350381880835263
 20
396.7590944980703
 30
0.0
 10
9.395922496716558
 20
396.6998845547252
 30
0.0
 10
9.433193671530553
 20
396.6550097238061
 30
0.0
 10
9.468497344336667
 20
396.614929555573
 30
0.0
 10
9.506799646913773
 20
396.573898004888
 30
0.0
 10
9.576303993783737
 20
396.5036115574174
 30
0.0
 10
9.6895399236007
 20
396.4010505974533
 30
0.0
 10
9.839804737788826
 20
396.284498303538
 30
0.0
 10
9.994795485666685
 20
396.1779899768239
 30
0.0
 10
10.14629764832759
 20
396.0830565329588
 30
0.0
 10
10.32207284636614
 20
395.9826180113564
 30
0.0
 10
10.52437905450138
 20
395.8771666003342
 30
0.0
 10
10.74458194530047
 20
395.7723680387005
 30
0.0
 10
10.97937505556898
 20
395.6696178443669
 30
0.0
 10
11.20529436707445
 20
395.5780344412079
 30
0.0
 10
11.41237825695607
 20
395.4994214092204
 30
0.0
 10
11.60078176525317
 20
395.4313577596538
 30
0.0
 10
11.80438204086604
 20
395.3610960378153
 30
0.0
 10
12.05259197705109
 20
395.2798500371995
 30
0.0
 10
12.35277994785079
 20
395.1873650767975
 30
0.0
 10
12.78603962420554
 20
395.0624434013768
 30
0.0
 10
13.35610625065443
 20
394.912797974822
 30
0.0
 10
14.06842174243893
 20
394.7460526073287
 30
0.0
 10
14.90467714570991
 20
394.5704856319891
 30
0.0
 10
15.88259966122924
 20
394.3890743847566
 30
0.0
 10
17.01953019614647
 20
394.2056673664417
 30
0.0
 10
18.20247096014661
 20
394.039727786669
 30
0.0
 10
19.40310953363074
 20
393.8933901642612
 30
0.0
 10
20.3765138066992
 20
393.7902801903193
 30
0.0
 10
21.10091965517581
 20
393.7208796257469
 30
0.0
 10
21.58584034350944
 20
393.6770828272346
 30
0.0
 10
22.10440822043632
 20
393.6330034942209
 30
0.0
 10
22.69642474817562
 20
393.5860490895187
 30
0.0
 10
23.39843233461849
 20
393.5349595781951
 30
0.0
 10
24.17189495587351
 20
393.4843870153558
 30
0.0
 10
25.00646249916024
 20
393.436112701812
 30
0.0
 10
25.89052792859502
 20
393.3916374404889
 30
0.0
 10
26.86098087031237
 20
393.3505834179849
 30
0.0
 10
27.92179502020664
 20
393.3147187410871
 30
0.0
 10
29.06622651216291
 20
393.2863140223963
 30
0.0
 10
30.33331359866584
 20
393.2665654993721
 30
0.0
 10
31.13049172489648
 20
393.2638938862466
 30
0.0
 10
31.62044118274947
 20
393.2626089004016
 30
0.0
  0
ARC
  5
90
330
74
100
AcDbEntity
  8
$DDT_AUDIT_GENERATED_(86)
  6
Continuous
 62
     7
100
AcDbCircle
 10
31.6206240187
 20
271.5391233469
 30
0.0
 40
158.6725637772026
100
AcDbArc
 50
82.4626232929
 51
90.0
  0
ARC
  5
91
330
74
100
AcDbEntity
  8
$DDT_AUDIT_GENERATED_(86)
  6
Continuous
 62
     7
100
AcDbCircle
 10
31.6206240187
 20
271.5391233469
 30
0.0
 40
158.6725637772026
100
AcDbArc
 50
90.0
 51
97.5385355456
  0
LINE
  5
92
330
74
100
AcDbEntity
  8
$DDT_AUDIT_GENERATED_(86)
  6
Continuous
 62
     7
100
AcDbLine
 10
54.003559454
 20
427.1538529953
 30
0.0
 11
52.7761524895
 21
428.6584798488
 31
0.0
  0
ARC
  5
93
330
74
100
AcDbEntity
  8
$DDT_AUDIT_GENERATED_(86)
  6
Continuous
 62
     7
100
AcDbCircle
 10
785.730353195
 20
412.2089819708
 30
0.0
 40
731.7595120485661
100
AcDbArc
 50
178.8554095946
 51
181.1582917036
  0
ARC
  5
94
330
74
100
AcDbEntity
  8
$DDT_AUDIT_GENERATED_(86)
  6
Continuous
 62
     7
100
AcDbCircle
 10
-745.3767786827
 20
412.216244421
 30
0.0
 40
754.6424344844966
100
AcDbArc
 50
358.8763036592
 51
1.1093486247
  0
LINE
  5
95
330
74
100
AcDbEntity
  8
$DDT_AUDIT_GENERATED_(86)
  6
Continuous
 62
     7
100
AcDbLine
 10
10.4646415525
 20
428.658344983
 30
0.0
 11
9.2377721143
 21
427.1543662508
 31
0.0
  0
ARC
  5
96
330
74
100
AcDbEntity
  8
$DDT_AUDIT_GENERATED_(86)
  6
Continuous
 62
     7
100
AcDbCircle
 10
53.6140336784
 20
426.8362848503
 30
0.0
 40
0.5025760838607475
100
AcDbArc
 50
358.8933526245
 51
39.3985294748
  0
ARC
  5
97
330
74
100
AcDbEntity
  8
$DDT_AUDIT_GENERATED_(86)
  6
Continuous
 62
     7
100
AcDbCircle
 10
9.6267034589
 20
426.8362956316
 30
0.0
 40
0.5024309413387736
100
AcDbArc
 50
140.8900993978
 51
181.1103405301
  0
ARC
  5
98
330
74
100
AcDbEntity
  8
$DDT_AUDIT_GENERATED_(86)
  6
Continuous
 62
     7
100
AcDbCircle
 10
10.8597623144
 20
428.3284436429
 30
0.0
 40
0.5147237756124696
100
AcDbArc
 50
97.2616585466
 51
140.2995660373
  0
ARC
  5
99
330
74
100
AcDbEntity
  8
$DDT_AUDIT_GENERATED_(86)
  6
Continuous
 62
     7
100
AcDbCircle
 10
52.3851459088
 20
428.3358550155
 30
0.0
 40
0.506918941219972
100
AcDbArc
 50
39.3566299617
 51
83.0704391664
  0
SPLINE
  5
9A
330
74
100
AcDbEntity
  8
$DDT_AUDIT_GENERATED_(86)
  6
Continuous
 62
     7
100
AcDbSpline
210
0.0
220
0.0
230
1.0
 70
     8
 71
     3
 72
    47
 73
    43
 74
     0
 42
0.0000000004243312
 43
0.0000000001
 40
0.0
 40
0.0
 40
0.0
 40
0.0
 40
0.0340383784423335
 40
0.0656076839684913
 40
0.0948192602325885
 40
0.1217490639523577
 40
0.1464454479167837
 40
0.1689351260650903
 40
0.1892279608641391
 40
0.2101215897517117
 40
0.2281761523236134
 40
0.2456788374568163
 40
0.2632842762549266
 40
0.2810050604235574
 40
0.2988542342029257
 40
0.3349889941008799
 40
0.3716061599650073
 40
0.4084058830488277
 40
0.4454279772652464
 40
0.482400699298714
 40
0.5206437652096999
 40
0.5472949163000758
 40
0.5747632364915329
 40
0.6031004682061222
 40
0.6302665410436149
 40
0.6545019404480732
 40
0.6713467258371816
 40
0.6862636984607376
 40
0.7012844659225065
 40
0.7185249997063137
 40
0.7379889627184685
 40
0.7671543939210888
 40
0.7943883509259242
 40
0.8199796007953511
 40
0.8465654646415801
 40
0.8624781260938702
 40
0.8788613048176804
 40
0.8970241911583987
 40
0.9181911888130437
 40
0.9423921525768345
 40
0.9696713482773027
 40
1.0
 40
1.0
 40
1.0
 40
1.0
 10
31.62071510448688
 20
393.2626089006933
 30
0.0
 10
32.05830580265934
 20
393.2636333783283
 30
0.0
 10
32.768445491372
 20
393.2657567192587
 30
0.0
 10
33.89493269425038
 20
393.2814031661099
 30
0.0
 10
34.90727877617535
 20
393.3037195560468
 30
0.0
 10
35.83993258738559
 20
393.3316097816885
 30
0.0
 10
36.68695027521376
 20
393.3631487291675
 30
0.0
 10
37.45175156116115
 20
393.3968262515982
 30
0.0
 10
38.16679040807061
 20
393.4328058205439
 30
0.0
 10
38.82548075362858
 20
393.4700097515924
 30
0.0
 10
39.44658482801892
 20
393.5087877932875
 30
0.0
 10
40.02542037294376
 20
393.5481396465306
 30
0.0
 10
40.59420805136163
 20
393.5899921462934
 30
0.0
 10
41.1597937129734
 20
393.6348720229885
 30
0.0
 10
41.91243271095734
 20
393.6990764418
 30
0.0
 10
42.84324288630135
 20
393.7871952727837
 30
0.0
 10
43.93190007175624
 20
393.9047730112647
 30
0.0
 10
44.98839861960892
 20
394.0341527065739
 30
0.0
 10
46.00339569048924
 20
394.1744602851524
 30
0.0
 10
46.98252223899904
 20
394.3267862476683
 30
0.0
 10
47.82317012269682
 20
394.4740509405561
 30
0.0
 10
48.54534435622966
 20
394.6141957691079
 30
0.0
 10
49.15921360895555
 20
394.7440396462691
 30
0.0
 10
49.74367856185778
 20
394.8793479623404
 30
0.0
 10
50.27257809043725
 20
395.0136057510494
 30
0.0
 10
50.69859992105066
 20
395.1317055031798
 30
0.0
 10
51.03039622463218
 20
395.230635633946
 30
0.0
 10
51.29594289303319
 20
395.3145510307233
 30
0.0
 10
51.55299487106263
 20
395.4004999271373
 30
0.0
 10
51.82202614736263
 20
395.4963047278163
 30
0.0
 10
52.14522354387037
 20
395.6203316968976
 30
0.0
 10
52.48777620161349
 20
395.7662974955003
 30
0.0
 10
52.82246095683436
 20
395.9290896970084
 30
0.0
 10
53.11426772089127
 20
396.0921188002423
 30
0.0
 10
53.33674546676606
 20
396.2373381266266
 30
0.0
 10
53.50839968300507
 20
396.3670412484374
 30
0.0
 10
53.64099055220893
 20
396.4803621644735
 30
0.0
 10
53.7727211808302
 20
396.611091032489
 30
0.0
 10
53.90233104029204
 20
396.7690361556872
 30
0.0
 10
54.01662863217697
 20
396.9567870866663
 30
0.0
 10
54.10275348732378
 20
397.1811126440083
 30
0.0
 10
54.11454267798774
 20
397.3260159412326
 30
0.0
 10
54.12038410132961
 20
397.4168793264973
 30
0.0
  0
LINE
  5
9B
330
74
100
AcDbEntity
  8
$DDT_AUDIT_GENERATED_(86)
  6
Continuous
 62
     7
100
AcDbLine
 10
31.6204401665
 20
393.2615023189
 30
0.0
 11
31.6207209163
 21
393.2615023192
 31
0.0
  0
ELLIPSE
  5
9D
330
74
100
AcDbEntity
  8
$DDT_AUDIT_GENERATED_(9C)
  6
Continuous
 62
     7
100
AcDbEllipse
 10
31.6209742163
 20
347.5106425578
 30
0.0
 11
10.05
 21
0.0
 31
0.0
210
0.0
220
0.0
230
1.0
 40
0.3420201433
 41
0.0
 42
4.189559985272953
  0
ELLIPSE
  5
9E
330
74
100
AcDbEntity
  8
$DDT_AUDIT_GENERATED_(9C)
  6
Continuous
 62
     7
100
AcDbEllipse
 10
31.6209742163
 20
347.5106425578
 30
0.0
 11
10.05
 21
0.0
 31
0.0
210
0.0
220
0.0
230
1.0
 40
0.3420201433
 41
5.235217975496423
 42
6.283185307179586
  0
ELLIPSE
  5
9F
330
74
100
AcDbEntity
  8
$DDT_AUDIT_GENERATED_(9C)
  6
Continuous
 62
     7
100
AcDbEllipse
 10
31.6209742163
 20
348.4503351786
 30
0.0
 11
-11.4
 21
0.0
 31
0.0
210
0.0
220
0.0
230
1.0
 40
0.3420201433
 41
3.14115018914976
 42
6.283185307179586
  0
ELLIPSE
  5
A0
330
74
100
AcDbEntity
  8
$DDT_AUDIT_GENERATED_(9C)
  6
Continuous
 62
     7
100
AcDbEllipse
 10
31.6209742163
 20
348.4503351786
 30
0.0
 11
-11.4
 21
0.0
 31
0.0
210
0.0
220
0.0
230
1.0
 40
0.3420201433
 41
0.0
 42
0.0001039846089007
  0
LINE
  5
A1
330
74
100
AcDbEntity
  8
$DDT_AUDIT_GENERATED_(9C)
  6
Continuous
 62
     7
100
AcDbLine
 10
43.0209742163
 20
348.4503351786
 30
0.0
 11
43.0209742163
 21
360.092116956
 31
0.0
  0
LINE
  5
A2
330
74
100
AcDbEntity
  8
$DDT_AUDIT_GENERATED_(9C)
  6
Continuous
 62
     7
100
AcDbLine
 10
20.2209742163
 20
360.1239676624
 30
0.0
 11
20.2209742163
 21
348.4503351786
 31
0.0
  0
SPLINE
  5
A3
330
74
100
AcDbEntity
  8
$DDT_AUDIT_GENERATED_(9C)
  6
Continuous
 62
     7
100
AcDbSpline
210
0.0
220
0.0
230
1.0
 70
     8
 71
     3
 72
    36
 73
    32
 74
     0
 42
0.0000000007572126
 43
0.0000000001
 40
0.0
 40
0.0
 40
0.0
 40
0.0
 40
0.0176079661530175
 40
0.046602587021863
 40
0.0756949041192765
 40
0.1052738605834723
 40
0.1357108143922873
 40
0.1673402739090148
 40
0.200414428165632
 40
0.235030948525964
 40
0.2710634739476288
 40
0.3081621166302267
 40
0.3458672361451626
 40
0.3837576736059521
 40
0.4215181241506206
 40
0.4590494054287496
 40
0.4963257876873855
 40
0.5333577412933883
 40
0.5701703855764448
 40
0.6067927612681145
 40
0.6432530523116209
 40
0.679576760758098
 40
0.7157862532848351
 40
0.7519009003077738
 40
0.7879374395411045
 40
0.823910397134854
 40
0.8598324958346655
 40
0.8957150247856887
 40
0.9315681662021565
 40
0.9674012830539565
 40
1.0
 40
1.0
 40
1.0
 40
1.0
 10
20.22516198946017
 20
348.4496932947215
 30
0.0
 10
20.22453793324538
 20
348.3879901385812
 30
0.0
 10
20.22390643389004
 20
348.2495864015483
 30
0.0
 10
20.26084048680497
 20
348.004924173436
 30
0.0
 10
20.33129181614756
 20
347.7375433800573
 30
0.0
 10
20.43541056959491
 20
347.4745229706381
 30
0.0
 10
20.57125822399297
 20
347.2183093916037
 30
0.0
 10
20.74012599455817
 20
346.9674048167603
 30
0.0
 10
20.94330828184959
 20
346.7215140561908
 30
0.0
 10
21.18233498966354
 20
346.4806666908283
 30
0.0
 10
21.45788366779029
 20
346.245842161873
 30
0.0
 10
21.76917625893681
 20
346.0187071958296
 30
0.0
 10
22.11391169499883
 20
345.8011400832171
 30
0.0
 10
22.48881817616371
 20
345.5947104498116
 30
0.0
 10
22.89073152338421
 20
345.4002508058967
 30
0.0
 10
23.31712434251154
 20
345.217972953591
 30
0.0
 10
23.76628864453804
 20
345.0476980506152
 30
0.0
 10
24.23682398984418
 20
344.8892081226891
 30
0.0
 10
24.72746527537196
 20
344.7423321099731
 30
0.0
 10
25.23697356722846
 20
344.6069712512239
 30
0.0
 10
25.76407670896056
 20
344.4830956328418
 30
0.0
 10
26.30744222917079
 20
344.370730199571
 30
0.0
 10
26.86566365483782
 20
344.2699389913269
 30
0.0
 10
27.43727193189232
 20
344.1808099521073
 30
0.0
 10
28.02069386784736
 20
344.103444935377
 30
0.0
 10
28.61442883121479
 20
344.0379414381541
 30
0.0
 10
29.21642393487655
 20
343.9844160977744
 30
0.0
 10
29.82643950252537
 20
343.9428822943399
 30
0.0
 10
30.43727569367539
 20
343.9136794097564
 30
0.0
 10
31.04862445844288
 20
343.8963869685256
 30
0.0
 10
31.41446287369257
 20
343.8942516274506
 30
0.0
 10
31.62097421631307
 20
343.8933256880297
 30
0.0
  0
SPLINE
  5
A4
330
74
100
AcDbEntity
  8
$DDT_AUDIT_GENERATED_(9C)
  6
Continuous
 62
     7
100
AcDbSpline
210
0.0
220
0.0
230
1.0
 70
     8
 71
     3
 72
    36
 73
    32
 74
     0
 42
0.000000000757318
 43
0.0000000001
 40
0.0
 40
0.0
 40
0.0
 40
0.0
 40
0.0188835458601235
 40
0.0547087767560891
 40
0.0905440174818887
 40
0.1263942636305702
 40
0.1622683736708192
 40
0.1981757898228357
 40
0.2341267951943309
 40
0.2701328042029473
 40
0.3062066949299724
 40
0.3423631908680427
 40
0.3786192940475348
 40
0.4149947580321358
 40
0.451512558808446
 40
0.488199255813639
 40
0.5250849969252726
 40
0.5622026356745246
 40
0.5995848546901681
 40
0.6372570901505329
 40
0.6752221755364046
 40
0.7134303306414819
 40
0.7516851230228176
 40
0.7895644268978643
 40
0.8265308058432584
 40
0.858272623401825
 40
0.8886308502497801
 40
0.9210400021352279
 40
0.9520694284920379
 40
0.9820193211673488
 40
1.0
 40
1.0
 40
1.0
 40
1.0
 10
31.62097421631307
 20
343.8933256880297
 30
0.0
 10
31.74057946543919
 20
343.8936362455152
 30
0.0
 10
32.03493099573525
 20
343.8946812588752
 30
0.0
 10
32.56882822176645
 20
343.9056078403683
 30
0.0
 10
33.18005921855087
 20
343.9301839145081
 30
0.0
 10
33.79197496005813
 20
343.9670271104894
 30
0.0
 10
34.39608403096467
 20
344.0158703019658
 30
0.0
 10
34.99245773543768
 20
344.0766708350924
 30
0.0
 10
35.57892371308731
 20
344.1493051167395
 30
0.0
 10
36.153970358277
 20
344.2336558297064
 30
0.0
 10
36.71597918020034
 20
344.3295959660349
 30
0.0
 10
37.26344239358019
 20
344.4370029555485
 30
0.0
 10
37.79491569537294
 20
344.5557677973943
 30
0.0
 10
38.30904126889794
 20
344.6858094965754
 30
0.0
 10
38.80454993166322
 20
344.8270931319651
 30
0.0
 10
39.28026481368567
 20
344.9796532198924
 30
0.0
 10
39.73509660895828
 20
345.1436229012812
 30
0.0
 10
40.16802580883888
 20
345.3192685299721
 30
0.0
 10
40.57806012724178
 20
345.5070256693359
 30
0.0
 10
40.96414848139906
 20
345.7075239757997
 30
0.0
 10
41.32502520959356
 20
345.9215700298705
 30
0.0
 10
41.65883759367637
 20
346.1499407675514
 30
0.0
 10
41.9627486690494
 20
346.3929137196753
 30
0.0
 10
42.23310862711249
 20
346.6498080407383
 30
0.0
 10
42.45811972742531
 20
346.909429780788
 30
0.0
 10
42.63934009052286
 20
347.1674602886573
 30
0.0
 10
42.78521670092623
 20
347.4285621737984
 30
0.0
 10
42.90000053239422
 20
347.7032563381094
 30
0.0
 10
42.97798774482617
 20
347.9871851083847
 30
0.0
 10
43.017622774937
 20
348.242187019332
 30
0.0
 10
43.01730116510024
 20
348.3845263166724
 30
0.0
 10
43.01679807938389
 20
348.4475248201084
 30
0.0
  0
ELLIPSE
  5
A6
330
74
100
AcDbEntity
  8
06828131_MOUSSEU
  6
Continuous
 62
     7
100
AcDbEllipse
 10
31.6209742163
 20
347.0877808785
 30
0.0
 11
9.000000000000007
 21
0.0
 31
0.0
210
0.0
220
0.0
230
1.0
 40
0.3420201433
 41
0.0
 42
6.283185307179586
  0
ELLIPSE
  5
A7
330
74
100
AcDbEntity
  8
06828131_MOUSSEU
  6
Continuous
 62
     7
100
AcDbEllipse
 10
31.6209742163
 20
347.0877808785
 30
0.0
 11
5.250000000000001
 21
0.0
 31
0.0
210
0.0
220
0.0
230
1.0
 40
0.3420201433
 41
0.0
 42
6.283185307179586
  0
ELLIPSE
  5
A8
330
74
100
AcDbEntity
  8
06828131_MOUSSEU
  6
Continuous
 62
     7
100
AcDbEllipse
 10
31.6209742163
 20
347.0877808785
 30
0.0
 11
-6.25
 21
0.0
 31
0.0
210
0.0
220
0.0
230
1.0
 40
0.3420201433
 41
0.0
 42
6.283185307179586
  0
ELLIPSE
  5
A9
330
74
100
AcDbEntity
  8
06828131_MOUSSEU
  6
Continuous
 62
     7
100
AcDbEllipse
 10
31.6209742163
 20
347.0877808785
 30
0.0
 11
-2.750000000000002
 21
0.0
 31
0.0
210
0.0
220
0.0
230
1.0
 40
0.3420201433
 41
0.0
 42
6.283185307179586
  0
ELLIPSE
  5
AA
330
74
100
AcDbEntity
  8
06828131_MOUSSEU
  6
Continuous
 62
     7
100
AcDbEllipse
 10
31.6209742163
 20
347.0877808785
 30
0.0
 11
-2.15
 21
0.0
 31
0.0
210
0.0
220
0.0
230
1.0
 40
0.3420201433
 41
0.0
 42
6.283185307179586
  0
ELLIPSE
  5
AB
330
74
100
AcDbEntity
  8
06828131_MOUSSEU
  6
Continuous
 62
     7
100
AcDbEllipse
 10
31.6209742163
 20
347.2757194026
 30
0.0
 11
0.5196299438963562
 21
0.0
 31
0.0
210
0.0
220
0.0
230
1.0
 40
0.3420201433
 41
0.0
 42
6.283185307179586
  0
ELLIPSE
  5
AC
330
74
100
AcDbEntity
  8
06828131_MOUSSEU
  6
Continuous
 62
     7
100
AcDbEllipse
 10
31.6209742163
 20
347.0877808785
 30
0.0
 11
8.700000000000003
 21
0.0
 31
0.0
210
0.0
220
0.0
230
1.0
 40
0.3420201433
 41
0.0
 42
6.283185307179586
  0
ARC
  5
AD
330
74
100
AcDbEntity
  8
06828131_MOUSSEU
  6
Continuous
 62
     7
100
AcDbCircle
 10
31.6209742163
 20
369.2193668366
 30
0.0
 40
24.85081865839969
100
AcDbArc
 50
269.7694404561
 51
270.2305595439
  0
ELLIPSE
  5
AE
330
74
100
AcDbEntity
  8
06828131_MOUSSEU
  6
Continuous
 62
     7
100
AcDbEllipse
 10
31.6209742163
 20
347.2757194026
 30
0.0
 11
8.500000000022174
 21
-2.269018306577663E-12
 31
0.0
210
0.0
220
0.0
230
1.0
 40
0.3420201433
 41
4.724153957673515
 42
4.962423390895871
  0
LINE
  5
AF
330
74
100
AcDbEntity
  8
06828131_MOUSSEU
  6
Continuous
 62
     7
100
AcDbLine
 10
31.5209742163
 20
344.9504286163
 30
0.0
 11
31.5209742163
 21
344.3687493796
 31
0.0
  0
LINE
  5
B0
330
74
100
AcDbEntity
  8
06828131_MOUSSEU
  6
Continuous
 62
     7
100
AcDbLine
 10
31.7209742163
 20
344.9504286163
 30
0.0
 11
31.7209742163
 21
344.3687493796
 31
0.0
  0
LINE
  5
B1
330
74
100
AcDbEntity
  8
06828131_MOUSSEU
  6
Continuous
 62
     7
100
AcDbLine
 10
31.8709742163
 20
346.7777483728
 30
0.0
 11
31.8709742163
 21
347.119916077
 31
0.0
  0
LINE
  5
B2
330
74
100
AcDbEntity
  8
06828131_MOUSSEU
  6
Continuous
 62
     7
100
AcDbLine
 10
31.3709742163
 20
346.7777483728
 30
0.0
 11
31.3709742163
 21
347.119916077
 31
0.0
  0
ELLIPSE
  5
B3
330
74
100
AcDbEntity
  8
06828131_MOUSSEU
  6
Continuous
 62
     7
100
AcDbEllipse
 10
31.6209742163
 20
347.5081035396
 30
0.0
 11
-2.149999999999147
 21
-4.857225732735060E-14
 31
0.0
210
0.0
220
0.0
230
1.0
 40
0.3420201433
 41
1.4542536183455
 42
1.687339035244264
  0
LINE
  5
B4
330
74
100
AcDbEntity
  8
06828131_MOUSSEU
  6
Continuous
 62
     7
100
AcDbLine
 10
31.351466347
 20
347.6600547356
 30
0.0
 11
31.351466347
 21
347.8173239953
 31
0.0
  0
ELLIPSE
  5
B5
330
74
100
AcDbEntity
  8
06828131_MOUSSEU
  6
Continuous
 62
     7
100
AcDbEllipse
 10
31.6209742163
 20
347.5081035396
 30
0.0
 11
-0.5196299438963516
 21
-1.387778780781446E-14
 31
0.0
210
0.0
220
0.0
230
1.0
 40
0.3420201433
 41
5.257664250556986
 42
6.261508812605542
  0
LINE
  5
B6
330
74
100
AcDbEntity
  8
06828131_MOUSSEU
  6
Continuous
 62
     7
100
AcDbLine
 10
30.3048777734
 20
347.6692543679
 30
0.0
 11
31.101466347
 21
347.5119556692
 31
0.0
  0
LINE
  5
B7
330
74
100
AcDbEntity
  8
06828131_MOUSSEU
  6
Continuous
 62
     7
100
AcDbLine
 10
30.8045719996
 20
347.7680474586
 30
0.0
 11
31.351466347
 21
347.6600547356
 31
0.0
  0
ELLIPSE
  5
B8
330
74
100
AcDbEntity
  8
06828131_MOUSSEU
  6
Continuous
 62
     7
100
AcDbEllipse
 10
31.6209742163
 20
347.5081035396
 30
0.0
 11
0.5196299438963558
 21
6.938893903907228E-15
 31
0.0
210
0.0
220
0.0
230
1.0
 40
0.3420201433
 41
0.021676494574095
 42
1.025521056622583
  0
LINE
  5
B9
330
74
100
AcDbEntity
  8
06828131_MOUSSEU
  6
Continuous
 62
     7
100
AcDbLine
 10
32.437376433
 20
347.7680474586
 30
0.0
 11
31.8904820856
 21
347.6600547356
 31
0.0
  0
LINE
  5
BA
330
74
100
AcDbEntity
  8
06828131_MOUSSEU
  6
Continuous
 62
     7
100
AcDbLine
 10
31.8904820856
 20
347.6600547356
 30
0.0
 11
31.8904820856
 21
347.8173239953
 31
0.0
  0
LINE
  5
BB
330
74
100
AcDbEntity
  8
06828131_MOUSSEU
  6
Continuous
 62
     7
100
AcDbLine
 10
32.9370706592
 20
347.6692543679
 30
0.0
 11
32.1404820856
 21
347.5119556692
 31
0.0
  0
ELLIPSE
  5
BC
330
74
100
AcDbEntity
  8
06828131_MOUSSEU
  6
Continuous
 62
     7
100
AcDbEllipse
 10
31.6209740964
 20
347.2757192495
 30
0.0
 11
-8.499999752732128
 21
4.488535931823634E-8
 31
0.0
210
0.0
220
0.0
230
1.0
 40
0.3420201352
 41
1.297231970008656
 42
1.320761925226368
  0
ELLIPSE
  5
BD
330
74
100
AcDbEntity
  8
06828131_MOUSSEU
  6
Continuous
 62
     7
100
AcDbEllipse
 10
31.6209742163
 20
347.2757194026
 30
0.0
 11
-8.499999999994438
 21
4.926614671774132E-13
 31
0.0
210
0.0
220
0.0
230
1.0
 40
0.3420201433
 41
1.320761916283878
 42
1.559031349507002
  0
LINE
  5
BE
330
74
100
AcDbEntity
  8
06828131_MOUSSEU
  6
Continuous
 62
     7
100
AcDbLine
 10
29.3245720021
 20
344.4766541139
 30
0.0
 11
29.3245720021
 21
345.0996746266
 31
0.0
  0
LINE
  5
BF
330
74
100
AcDbEntity
  8
06828131_MOUSSEU
  6
Continuous
 62
     7
100
AcDbLine
 10
29.7706039903
 20
345.045985647
 30
0.0
 11
29.3245720021
 21
344.4766541139
 31
0.0
  0
LINE
  5
C0
330
74
100
AcDbEntity
  8
06828131_MOUSSEU
  6
Continuous
 62
     7
100
AcDbLine
 10
29.9626108045
 20
345.0267772913
 30
0.0
 11
29.5177571673
 21
344.4589498485
 31
0.0
  0
ELLIPSE
  5
C1
330
74
100
AcDbEntity
  8
06828131_MOUSSEU
  6
Continuous
 62
     7
100
AcDbEllipse
 10
31.6209739804
 20
347.2757192629
 30
0.0
 11
-8.499999705136572
 21
7.911989119424591E-8
 31
0.0
210
0.0
220
0.0
230
1.0
 40
0.3420201386
 41
1.035432588784161
 42
1.058962544013385
  0
ELLIPSE
  5
C2
330
74
100
AcDbEntity
  8
06828131_MOUSSEU
  6
Continuous
 62
     7
100
AcDbEllipse
 10
31.6209742163
 20
347.2757194026
 30
0.0
 11
-8.500000000008445
 21
-2.102484852883890E-12
 31
0.0
210
0.0
220
0.0
230
1.0
 40
0.3420201433
 41
1.058962528484381
 42
1.297231961707148
  0
LINE
  5
C3
330
74
100
AcDbEntity
  8
06828131_MOUSSEU
  6
Continuous
 62
     7
100
AcDbLine
 10
27.2846658038
 20
344.7753105219
 30
0.0
 11
27.2846658038
 21
345.5483509356
 31
0.0
  0
LINE
  5
C4
330
74
100
AcDbEntity
  8
06828131_MOUSSEU
  6
Continuous
 62
     7
100
AcDbLine
 10
28.1770556446
 20
345.3039589309
 30
0.0
 11
27.2846658038
 21
344.7753105219
 31
0.0
  0
LINE
  5
C5
330
74
100
AcDbEntity
  8
06828131_MOUSSEU
  6
Continuous
 62
     7
100
AcDbLine
 10
28.3458599423
 20
345.2671499091
 30
0.0
 11
27.4578708845
 21
344.7411085075
 31
0.0
  0
ELLIPSE
  5
C6
330
74
100
AcDbEntity
  8
06828131_MOUSSEU
  6
Continuous
 62
     7
100
AcDbEllipse
 10
31.6209738827
 20
347.2757192885
 30
0.0
 11
-8.499999646152764
 21
9.139612677788733E-8
 31
0.0
210
0.0
220
0.0
230
1.0
 40
0.3420201433
 41
0.7736332033383241
 42
0.7971631585674898
  0
ELLIPSE
  5
C7
330
74
100
AcDbEntity
  8
06828131_MOUSSEU
  6
Continuous
 62
     7
100
AcDbEllipse
 10
31.6209742163
 20
347.2757194026
 30
0.0
 11
-8.500000000035923
 21
-9.839351555740450E-12
 31
0.0
210
0.0
220
0.0
230
1.0
 40
0.3420201433
 41
0.7971631406839894
 42
1.035432573906225
  0
LINE
  5
C8
330
74
100
AcDbEntity
  8
06828131_MOUSSEU
  6
Continuous
 62
     7
100
AcDbLine
 10
25.5402718577
 20
345.2443656629
 30
0.0
 11
25.5402718577
 21
346.0354978621
 31
0.0
  0
LINE
  5
C9
330
74
100
AcDbEntity
  8
06828131_MOUSSEU
  6
Continuous
 62
     7
100
AcDbLine
 10
26.869621054
 20
345.6990298656
 30
0.0
 11
25.5402718577
 21
345.2443656629
 31
0.0
  0
LINE
  5
CA
330
74
100
AcDbEntity
  8
06828131_MOUSSEU
  6
Continuous
 62
     7
100
AcDbLine
 10
27.0022323066
 20
345.6476476801
 30
0.0
 11
25.6816932139
 21
345.1959967104
 31
0.0
  0
ELLIPSE
  5
CB
330
74
100
AcDbEntity
  8
06828131_MOUSSEU
  6
Continuous
 62
     7
100
AcDbEllipse
 10
31.6209738371
 20
347.2757193277
 30
0.0
 11
-8.499999616874952
 21
7.346814823172565E-8
 31
0.0
210
0.0
220
0.0
230
1.0
 40
0.3420201477
 41
0.5118338121154791
 42
0.5353637672977555
  0
ELLIPSE
  5
CC
330
74
100
AcDbEntity
  8
06828131_MOUSSEU
  6
Continuous
 62
     7
100
AcDbEllipse
 10
31.6209742163
 20
347.2757194026
 30
0.0
 11
-8.500000000027322
 21
-6.543376951384516E-12
 31
0.0
210
0.0
220
0.0
230
1.0
 40
0.3420201433
 41
0.5353637528853972
 42
0.7736331861079009
  0
LINE
  5
CD
330
74
100
AcDbEntity
  8
06828131_MOUSSEU
  6
Continuous
 62
     7
100
AcDbLine
 10
24.2102677285
 20
345.8518542044
 30
0.0
 11
24.2102677285
 21
346.5611639294
 31
0.0
  0
LINE
  5
CE
330
74
100
AcDbEntity
  8
06828131_MOUSSEU
  6
Continuous
 62
     7
100
AcDbLine
 10
25.9434021964
 20
346.1940883332
 30
0.0
 11
24.2102677285
 21
345.8518542044
 31
0.0
  0
LINE
  5
CF
330
74
100
AcDbEntity
  8
06828131_MOUSSEU
  6
Continuous
 62
     7
100
AcDbLine
 10
26.0301741972
 20
346.1322366342
 30
0.0
 11
24.3102677285
 21
345.7926145779
 31
0.0
  0
ELLIPSE
  5
D0
330
74
100
AcDbEntity
  8
06828131_MOUSSEU
  6
Continuous
 62
     7
100
AcDbEllipse
 10
31.6209737603
 20
347.2757193609
 30
0.0
 11
-8.49999954375007
 21
4.570545331095133E-8
 31
0.0
210
0.0
220
0.0
230
1.0
 40
0.3420201516
 41
0.2500344189661161
 42
0.2735643741956624
  0
ELLIPSE
  5
D1
330
74
100
AcDbEntity
  8
06828131_MOUSSEU
  6
Continuous
 62
     7
100
AcDbEllipse
 10
31.6209742163
 20
347.2757194026
 30
0.0
 11
-8.50000000002882
 21
-4.281297538710760E-12
 31
0.0
210
0.0
220
0.0
230
1.0
 40
0.3420201433
 41
0.2735643650866371
 42
0.5118337983091721
  0
LINE
  5
D2
330
74
100
AcDbEntity
  8
06828131_MOUSSEU
  6
Continuous
 62
     7
100
AcDbLine
 10
23.3852909997
 20
346.5563768061
 30
0.0
 11
23.3852909997
 21
347.2415173883
 31
0.0
  0
LINE
  5
D3
330
74
100
AcDbEntity
  8
06828131_MOUSSEU
  6
Continuous
 62
     7
100
AcDbLine
 10
25.4515059944
 20
346.7457330569
 30
0.0
 11
23.3852909997
 21
346.5563768061
 31
0.0
  0
LINE
  5
D4
330
74
100
AcDbEntity
  8
06828131_MOUSSEU
  6
Continuous
 62
     7
100
AcDbLine
 10
25.4868022223
 20
346.6781506836
 30
0.0
 11
23.4370548087
 21
346.4903035882
 31
0.0
  0
ARC
  5
D5
330
74
100
AcDbEntity
  8
06828131_MOUSSEU
  6
Continuous
 62
     7
100
AcDbCircle
 10
24.1158047759
 20
347.2757194026
 30
0.0
 40
0.9948304059787126
100
AcDbArc
 50
178.0297975391
 51
181.9702024609
  0
ELLIPSE
  5
D6
330
74
100
AcDbEntity
  8
06828131_MOUSSEU
  6
Continuous
 62
     7
100
AcDbEllipse
 10
31.6209742163
 20
347.2757194026
 30
0.0
 11
-8.500000000031131
 21
-1.582067810090848E-12
 31
0.0
210
0.0
220
0.0
230
1.0
 40
0.3420201433
 41
0.0117649772880648
 42
0.2500344105105404
  0
ARC
  5
D7
330
74
100
AcDbEntity
  8
06828131_MOUSSEU
  6
Continuous
 62
     7
100
AcDbCircle
 10
26.1027917946
 20
347.2757194026
 30
0.0
 40
0.7318171920803669
100
AcDbArc
 50
177.3212638677
 51
180.0
  0
LINE
  5
D8
330
74
100
AcDbEntity
  8
06828131_MOUSSEU
  6
Continuous
 62
     7
100
AcDbLine
 10
25.3717742675
 20
347.309921417
 30
0.0
 11
25.3717742675
 21
347.8130126845
 31
0.0
  0
LINE
  5
D9
330
74
100
AcDbEntity
  8
06828131_MOUSSEU
  6
Continuous
 62
     7
100
AcDbLine
 10
25.3717742675
 20
347.309921417
 30
0.0
 11
23.121562472
 21
347.309921417
 31
0.0
  0
LINE
  5
DA
330
74
100
AcDbEntity
  8
06828131_MOUSSEU
  6
Continuous
 62
     7
100
AcDbLine
 10
25.3709742163
 20
347.2415173883
 30
0.0
 11
23.121562472
 21
347.2415173883
 31
0.0
  0
ELLIPSE
  5
DB
330
74
100
AcDbEntity
  8
06828131_MOUSSEU
  6
Continuous
 62
     7
100
AcDbEllipse
 10
31.6209737603
 20
347.2757194444
 30
0.0
 11
-8.499999543756424
 21
-4.570477329934874E-8
 31
0.0
210
0.0
220
0.0
230
1.0
 40
0.3420201516
 41
-0.2735643741954448
 42
-0.2500344189658916
  0
ELLIPSE
  5
DC
330
74
100
AcDbEntity
  8
06828131_MOUSSEU
  6
Continuous
 62
     7
100
AcDbEllipse
 10
31.6209742163
 20
347.2757194026
 30
0.0
 11
-8.500000000029587
 21
1.804112415015879E-12
 31
0.0
210
0.0
220
0.0
230
1.0
 40
0.3420201433
 41
6.033150896669039
 42
6.271420329891654
  0
ELLIPSE
  5
DD
330
74
100
AcDbEntity
  8
06828131_MOUSSEU
  6
Continuous
 62
     7
100
AcDbEllipse
 10
31.6209742721
 20
347.2757193975
 30
0.0
 11
-6.250000055844684
 21
5.585330808965949E-9
 31
0.0
210
0.0
220
0.0
230
1.0
 40
0.342020142
 41
-0.2778000690090598
 42
-0.2457987036663267
  0
LINE
  5
DE
330
74
100
AcDbEntity
  8
06828131_MOUSSEU
  6
Continuous
 62
     7
100
AcDbLine
 10
25.6105924966
 20
347.8619434831
 30
0.0
 11
25.6105924966
 21
348.4230688798
 31
0.0
  0
LINE
  5
DF
330
74
100
AcDbEntity
  8
06828131_MOUSSEU
  6
Continuous
 62
     7
100
AcDbLine
 10
25.6105924966
 20
347.8619434831
 30
0.0
 11
23.4370548087
 21
348.0611352171
 31
0.0
  0
LINE
  5
E0
330
74
100
AcDbEntity
  8
06828131_MOUSSEU
  6
Continuous
 62
     7
100
AcDbLine
 10
25.5588286876
 20
347.7958702652
 30
0.0
 11
23.3852909997
 21
347.9950619992
 31
0.0
  0
ELLIPSE
  5
E1
330
74
100
AcDbEntity
  8
06828131_MOUSSEU
  6
Continuous
 62
     7
100
AcDbEllipse
 10
31.6209742163
 20
347.2757194026
 30
0.0
 11
-8.500000000029697
 21
4.420075416788904E-12
 31
0.0
210
0.0
220
0.0
230
1.0
 40
0.3420201433
 41
-0.3425913459458778
 42
-0.2735643650866173
  0
ELLIPSE
  5
E2
330
74
100
AcDbEntity
  8
06828131_MOUSSEU
  6
Continuous
 62
     7
100
AcDbEllipse
 10
31.6209742663
 20
347.2757193928
 30
0.0
 11
-6.250000050458452
 21
9.656539456948110E-9
 31
0.0
210
0.0
220
0.0
230
1.0
 40
0.3420201425
 41
-0.5395994557432742
 42
-0.507598090400255
  0
LINE
  5
E3
330
74
100
AcDbEntity
  8
06828131_MOUSSEU
  6
Continuous
 62
     7
100
AcDbLine
 10
26.2590083073
 20
348.374015347
 30
0.0
 11
26.2590083073
 21
349.0612507988
 31
0.0
  0
LINE
  5
E4
330
74
100
AcDbEntity
  8
06828131_MOUSSEU
  6
Continuous
 62
     7
100
AcDbLine
 10
26.2590083073
 20
348.374015347
 30
0.0
 11
24.3910158125
 21
348.7428792729
 31
0.0
  0
LINE
  5
E5
330
74
100
AcDbEntity
  8
06828131_MOUSSEU
  6
Continuous
 62
     7
100
AcDbLine
 10
26.1590083073
 20
348.3147757204
 30
0.0
 11
24.2815269171
 21
348.6855133751
 31
0.0
  0
ELLIPSE
  5
E6
330
74
100
AcDbEntity
  8
06828131_MOUSSEU
  6
Continuous
 62
     7
100
AcDbEllipse
 10
31.6209742571
 20
347.2757193887
 30
0.0
 11
-6.250000043261897
 21
1.116325087924253E-8
 31
0.0
210
0.0
220
0.0
230
1.0
 40
0.3420201433
 41
-0.8013988431501087
 42
-0.7693974778071206
  0
LINE
  5
E7
330
74
100
AcDbEntity
  8
06828131_MOUSSEU
  6
Continuous
 62
     7
100
AcDbLine
 10
27.2728332336
 20
348.8112401573
 30
0.0
 11
27.2728332336
 21
349.6650716203
 31
0.0
  0
LINE
  5
E8
330
74
100
AcDbEntity
  8
06828131_MOUSSEU
  6
Continuous
 62
     7
100
AcDbLine
 10
27.2728332336
 20
348.8112401573
 30
0.0
 11
25.8243109769
 21
349.3066639471
 31
0.0
  0
LINE
  5
E9
330
74
100
AcDbEntity
  8
06828131_MOUSSEU
  6
Continuous
 62
     7
100
AcDbLine
 10
27.1314118774
 20
348.7628712047
 30
0.0
 11
25.6765668528
 21
349.2604575086
 31
0.0
  0
ELLIPSE
  5
EA
330
74
100
AcDbEntity
  8
06828131_MOUSSEU
  6
Continuous
 62
     7
100
AcDbEllipse
 10
31.6209742486
 20
347.2757193835
 30
0.0
 11
-6.25000004033162
 21
1.082971212706951E-8
 31
0.0
210
0.0
220
0.0
230
1.0
 40
0.3420201442
 41
-1.063198231027965
 42
-1.031196865702488
  0
LINE
  5
EB
330
74
100
AcDbEntity
  8
06828131_MOUSSEU
  6
Continuous
 62
     7
100
AcDbLine
 10
28.5829767823
 20
349.1438217657
 30
0.0
 11
28.5829767823
 21
349.8760437819
 31
0.0
  0
LINE
  5
EC
330
74
100
AcDbEntity
  8
06828131_MOUSSEU
  6
Continuous
 62
     7
100
AcDbLine
 10
28.5829767823
 20
349.1438217657
 30
0.0
 11
27.599552668
 21
349.7263985383
 31
0.0
  0
LINE
  5
ED
330
74
100
AcDbEntity
  8
06828131_MOUSSEU
  6
Continuous
 62
     7
100
AcDbLine
 10
28.4097717015
 20
349.1096197513
 30
0.0
 11
27.4231877821
 21
349.6940683808
 31
0.0
  0
ELLIPSE
  5
EE
330
74
100
AcDbEntity
  8
06828131_MOUSSEU
  6
Continuous
 62
     7
100
AcDbEllipse
 10
31.6209742302
 20
347.2757193849
 30
0.0
 11
-6.250000028678642
 21
5.203511233009550E-9
 31
0.0
210
0.0
220
0.0
230
1.0
 40
0.3420201446
 41
-1.324997620313417
 42
-1.292996254960416
  0
LINE
  5
EF
330
74
100
AcDbEntity
  8
06828131_MOUSSEU
  6
Continuous
 62
     7
100
AcDbLine
 10
30.1001548355
 20
349.3490952852
 30
0.0
 11
30.1001548355
 21
350.0175404472
 31
0.0
  0
LINE
  5
F0
330
74
100
AcDbEntity
  8
06828131_MOUSSEU
  6
Continuous
 62
     7
100
AcDbLine
 10
30.1001548355
 20
349.3490952852
 30
0.0
 11
29.60408785
 21
349.9822933179
 31
0.0
  0
LINE
  5
F1
330
74
100
AcDbEntity
  8
06828131_MOUSSEU
  6
Continuous
 62
     7
100
AcDbLine
 10
29.9069696703
 20
349.3313910198
 30
0.0
 11
29.4100563268
 21
349.9656693747
 31
0.0
  0
ARC
  5
F2
330
74
100
AcDbEntity
  8
06828131_MOUSSEU
  6
Continuous
 62
     7
100
AcDbCircle
 10
31.6209742163
 20
331.141633357
 30
0.0
 40
18.27171195693318
100
AcDbArc
 50
89.6864220185
 51
90.3135779815
  0
LINE
  5
F3
330
74
100
AcDbEntity
  8
06828131_MOUSSEU
  6
Continuous
 62
     7
100
AcDbLine
 10
31.7209742163
 20
349.4130716648
 30
0.0
 11
31.7209742163
 21
350.0631595556
 31
0.0
  0
LINE
  5
F4
330
74
100
AcDbEntity
  8
06828131_MOUSSEU
  6
Continuous
 62
     7
100
AcDbLine
 10
31.5209742163
 20
349.4130716648
 30
0.0
 11
31.5209742163
 21
350.0631595556
 31
0.0
  0
ELLIPSE
  5
F5
330
74
100
AcDbEntity
  8
06828131_MOUSSEU
  6
Continuous
 62
     7
100
AcDbEllipse
 10
31.6209742005
 20
347.2757193825
 30
0.0
 11
6.250000032557538
 21
5.909966960260249E-9
 31
0.0
210
0.0
220
0.0
230
1.0
 40
0.3420201448
 41
1.292996254786943
 42
1.324997620121342
  0
LINE
  5
F6
330
74
100
AcDbEntity
  8
06828131_MOUSSEU
  6
Continuous
 62
     7
100
AcDbLine
 10
33.3349787623
 20
349.3313910198
 30
0.0
 11
33.8318921058
 21
349.9656693747
 31
0.0
  0
LINE
  5
F7
330
74
100
AcDbEntity
  8
06828131_MOUSSEU
  6
Continuous
 62
     7
100
AcDbLine
 10
33.1417935971
 20
349.3490952852
 30
0.0
 11
33.6378605826
 21
349.9822933179
 31
0.0
  0
LINE
  5
F8
330
74
100
AcDbEntity
  8
06828131_MOUSSEU
  6
Continuous
 62
     7
100
AcDbLine
 10
33.1417935971
 20
349.3490952852
 30
0.0
 11
33.1417935971
 21
350.0175404472
 31
0.0
  0
ELLIPSE
  5
F9
330
74
100
AcDbEntity
  8
06828131_MOUSSEU
  6
Continuous
 62
     7
100
AcDbEllipse
 10
31.6209741805
 20
347.2757193814
 30
0.0
 11
6.250000044742472
 21
1.201112820314876E-8
 31
0.0
210
0.0
220
0.0
230
1.0
 40
0.3420201443
 41
1.031196865411022
 42
1.063198230718253
  0
LINE
  5
FA
330
74
100
AcDbEntity
  8
06828131_MOUSSEU
  6
Continuous
 62
     7
100
AcDbLine
 10
34.8321767311
 20
349.1096197513
 30
0.0
 11
35.8187606505
 21
349.6940683808
 31
0.0
  0
LINE
  5
FB
330
74
100
AcDbEntity
  8
06828131_MOUSSEU
  6
Continuous
 62
     7
100
AcDbLine
 10
34.6589716503
 20
349.1438217657
 30
0.0
 11
35.6423957646
 21
349.7263985383
 31
0.0
  0
LINE
  5
FC
330
74
100
AcDbEntity
  8
06828131_MOUSSEU
  6
Continuous
 62
     7
100
AcDbLine
 10
34.6589716503
 20
349.1438217657
 30
0.0
 11
34.6589716503
 21
349.8760437819
 31
0.0
  0
ELLIPSE
  5
FD
330
74
100
AcDbEntity
  8
06828131_MOUSSEU
  6
Continuous
 62
     7
100
AcDbEllipse
 10
31.6209741938
 20
347.2757193949
 30
0.0
 11
6.250000023921231
 21
6.178432765402420E-9
 31
0.0
210
0.0
220
0.0
230
1.0
 40
0.3420201433
 41
0.7693974790791648
 42
0.8013988444881417
  0
LINE
  5
FE
330
74
100
AcDbEntity
  8
06828131_MOUSSEU
  6
Continuous
 62
     7
100
AcDbLine
 10
36.1105365552
 20
348.7628712047
 30
0.0
 11
37.5653815799
 21
349.2604575086
 31
0.0
  0
LINE
  5
FF
330
74
100
AcDbEntity
  8
06828131_MOUSSEU
  6
Continuous
 62
     7
100
AcDbLine
 10
35.969115199
 20
348.8112401573
 30
0.0
 11
37.4176374557
 21
349.3066639471
 31
0.0
  0
LINE
  5
100
330
74
100
AcDbEntity
  8
06828131_MOUSSEU
  6
Continuous
 62
     7
100
AcDbLine
 10
35.969115199
 20
348.8112401573
 30
0.0
 11
35.969115199
 21
349.6650716203
 31
0.0
  0
ELLIPSE
  5
101
330
74
100
AcDbEntity
  8
06828131_MOUSSEU
  6
Continuous
 62
     7
100
AcDbEllipse
 10
31.6209742696
 20
347.2757194132
 30
0.0
 11
6.249999946120169
 21
-1.033131219463357E-8
 31
0.0
210
0.0
220
0.0
230
1.0
 40
0.3420201442
 41
0.5075980954715853
 42
0.5395994611199456
  0
LINE
  5
102
330
74
100
AcDbEntity
  8
06828131_MOUSSEU
  6
Continuous
 62
     7
100
AcDbLine
 10
37.0829401253
 20
348.3147757204
 30
0.0
 11
38.9604215155
 21
348.6855133751
 31
0.0
  0
LINE
  5
103
330
74
100
AcDbEntity
  8
06828131_MOUSSEU
  6
Continuous
 62
     7
100
AcDbLine
 10
36.9829401253
 20
348.374015347
 30
0.0
 11
38.8509326201
 21
348.7428792729
 31
0.0
  0
LINE
  5
104
330
74
100
AcDbEntity
  8
06828131_MOUSSEU
  6
Continuous
 62
     7
100
AcDbLine
 10
36.9829401253
 20
348.374015347
 30
0.0
 11
36.9829401253
 21
349.0612507988
 31
0.0
  0
ELLIPSE
  5
105
330
74
100
AcDbEntity
  8
06828131_MOUSSEU
  6
Continuous
 62
     7
100
AcDbEllipse
 10
31.6209747048
 20
347.2757194474
 30
0.0
 11
8.499999511217672
 21
-4.893798560834384E-8
 31
0.0
210
0.0
220
0.0
230
1.0
 40
0.3420201521
 41
0.2500344195681772
 42
0.2735643748442909
  0
ELLIPSE
  5
106
330
74
100
AcDbEntity
  8
06828131_MOUSSEU
  6
Continuous
 62
     7
100
AcDbEllipse
 10
31.6209742163
 20
347.2757194026
 30
0.0
 11
8.499999999997357
 21
-3.885780586188048E-13
 31
0.0
210
0.0
220
0.0
230
1.0
 40
0.3420201433
 41
0.2735643650872925
 42
0.3425913459466871
  0
ELLIPSE
  5
107
330
74
100
AcDbEntity
  8
06828131_MOUSSEU
  6
Continuous
 62
     7
100
AcDbEllipse
 10
31.6209741604
 20
347.2757193975
 30
0.0
 11
6.250000055946395
 21
5.595537921898597E-9
 31
0.0
210
0.0
220
0.0
230
1.0
 40
0.342020142
 41
0.2457987036638713
 42
0.277800069006328
  0
LINE
  5
108
330
74
100
AcDbEntity
  8
06828131_MOUSSEU
  6
Continuous
 62
     7
100
AcDbLine
 10
37.683119745
 20
347.7958702652
 30
0.0
 11
39.856657433
 21
347.9950619992
 31
0.0
  0
LINE
  5
109
330
74
100
AcDbEntity
  8
06828131_MOUSSEU
  6
Continuous
 62
     7
100
AcDbLine
 10
37.631355936
 20
347.8619434831
 30
0.0
 11
39.8048936239
 21
348.0611352171
 31
0.0
  0
LINE
  5
10A
330
74
100
AcDbEntity
  8
06828131_MOUSSEU
  6
Continuous
 62
     7
100
AcDbLine
 10
37.631355936
 20
347.8619434831
 30
0.0
 11
37.631355936
 21
348.4230688798
 31
0.0
  0
ARC
  5
10B
330
74
100
AcDbEntity
  8
06828131_MOUSSEU
  6
Continuous
 62
     7
100
AcDbCircle
 10
39.1261436568
 20
347.2757194026
 30
0.0
 40
0.9948304059787126
100
AcDbArc
 50
358.0297975391
 51
1.9702024609
  0
ELLIPSE
  5
10C
330
74
100
AcDbEntity
  8
06828131_MOUSSEU
  6
Continuous
 62
     7
100
AcDbEllipse
 10
31.6209742163
 20
347.2757194026
 30
0.0
 11
8.499999999997172
 21
-1.387778780781446E-13
 31
0.0
210
0.0
220
0.0
230
1.0
 40
0.3420201433
 41
0.0117649772880553
 42
0.2500344105110973
  0
ARC
  5
10D
330
74
100
AcDbEntity
  8
06828131_MOUSSEU
  6
Continuous
 62
     7
100
AcDbCircle
 10
37.1391566381
 20
347.2757194026
 30
0.0
 40
0.7318171920804168
100
AcDbArc
 50
0.0
 51
2.6787361323
  0
LINE
  5
10E
330
74
100
AcDbEntity
  8
06828131_MOUSSEU
  6
Continuous
 62
     7
100
AcDbLine
 10
37.8709742163
 20
347.2415173883
 30
0.0
 11
40.1203859607
 21
347.2415173883
 31
0.0
  0
LINE
  5
10F
330
74
100
AcDbEntity
  8
06828131_MOUSSEU
  6
Continuous
 62
     7
100
AcDbLine
 10
37.8701741651
 20
347.309921417
 30
0.0
 11
40.1203859607
 21
347.309921417
 31
0.0
  0
LINE
  5
110
330
74
100
AcDbEntity
  8
06828131_MOUSSEU
  6
Continuous
 62
     7
100
AcDbLine
 10
37.8701741651
 20
347.309921417
 30
0.0
 11
37.8701741651
 21
347.8130126845
 31
0.0
  0
ELLIPSE
  5
111
330
74
100
AcDbEntity
  8
06828131_MOUSSEU
  6
Continuous
 62
     7
100
AcDbEllipse
 10
31.620974639
 20
347.275719364
 30
0.0
 11
8.499999577068767
 21
4.231242439756144E-8
 31
0.0
210
0.0
220
0.0
230
1.0
 40
0.342020151
 41
-0.2735643735285489
 42
-0.250034418346754
  0
ELLIPSE
  5
112
330
74
100
AcDbEntity
  8
06828131_MOUSSEU
  6
Continuous
 62
     7
100
AcDbEllipse
 10
31.6209742163
 20
347.2757194026
 30
0.0
 11
8.49999999999755
 21
-1.595945597898663E-13
 31
0.0
210
0.0
220
0.0
230
1.0
 40
0.3420201433
 41
6.033150896668497
 42
6.27142032989155
  0
LINE
  5
113
330
74
100
AcDbEntity
  8
06828131_MOUSSEU
  6
Continuous
 62
     7
100
AcDbLine
 10
39.856657433
 20
346.5563768061
 30
0.0
 11
39.856657433
 21
347.2415173883
 31
0.0
  0
LINE
  5
114
330
74
100
AcDbEntity
  8
06828131_MOUSSEU
  6
Continuous
 62
     7
100
AcDbLine
 10
37.7551462103
 20
346.6781506836
 30
0.0
 11
39.8048936239
 21
346.4903035882
 31
0.0
  0
LINE
  5
115
330
74
100
AcDbEntity
  8
06828131_MOUSSEU
  6
Continuous
 62
     7
100
AcDbLine
 10
37.7904424383
 20
346.7457330569
 30
0.0
 11
39.856657433
 21
346.5563768061
 31
0.0
  0
ELLIPSE
  5
116
330
74
100
AcDbEntity
  8
06828131_MOUSSEU
  6
Continuous
 62
     7
100
AcDbEllipse
 10
31.6209745957
 20
347.2757193278
 30
0.0
 11
8.499999616737121
 21
7.344792829488966E-8
 31
0.0
210
0.0
220
0.0
230
1.0
 40
0.3420201477
 41
-0.5353637673040508
 42
-0.5118338121216821
  0
ELLIPSE
  5
117
330
74
100
AcDbEntity
  8
06828131_MOUSSEU
  6
Continuous
 62
     7
100
AcDbEllipse
 10
31.6209742163
 20
347.2757194026
 30
0.0
 11
8.499999999997573
 21
8.326672684688674E-14
 31
0.0
210
0.0
220
0.0
230
1.0
 40
0.3420201433
 41
-0.5118337983102847
 42
-0.2735643650872808
  0
LINE
  5
118
330
74
100
AcDbEntity
  8
06828131_MOUSSEU
  6
Continuous
 62
     7
100
AcDbLine
 10
39.0316807041
 20
345.8518542044
 30
0.0
 11
39.0316807041
 21
346.5611639294
 31
0.0
  0
LINE
  5
119
330
74
100
AcDbEntity
  8
06828131_MOUSSEU
  6
Continuous
 62
     7
100
AcDbLine
 10
37.2117742354
 20
346.1322366342
 30
0.0
 11
38.9316807041
 21
345.7926145779
 31
0.0
  0
LINE
  5
11A
330
74
100
AcDbEntity
  8
06828131_MOUSSEU
  6
Continuous
 62
     7
100
AcDbLine
 10
37.2985462363
 20
346.1940883332
 30
0.0
 11
39.0316807041
 21
345.8518542044
 31
0.0
  0
ELLIPSE
  5
11B
330
74
100
AcDbEntity
  8
06828131_MOUSSEU
  6
Continuous
 62
     7
100
AcDbEllipse
 10
31.6209745501
 20
347.2757192884
 30
0.0
 11
8.49999964593021
 21
9.145029178370123E-8
 31
0.0
210
0.0
220
0.0
230
1.0
 40
0.3420201433
 41
-0.7971631585782735
 42
-0.773633203348643
  0
ELLIPSE
  5
11C
330
74
100
AcDbEntity
  8
06828131_MOUSSEU
  6
Continuous
 62
     7
100
AcDbEllipse
 10
31.6209742163
 20
347.2757194026
 30
0.0
 11
8.50000000002534
 21
-5.898059818321144E-12
 31
0.0
210
0.0
220
0.0
230
1.0
 40
0.3420201433
 41
-0.7736331861080137
 42
-0.5353637528854831
  0
LINE
  5
11D
330
74
100
AcDbEntity
  8
06828131_MOUSSEU
  6
Continuous
 62
     7
100
AcDbLine
 10
37.701676575
 20
345.2443656629
 30
0.0
 11
37.701676575
 21
346.0354978621
 31
0.0
  0
LINE
  5
11E
330
74
100
AcDbEntity
  8
06828131_MOUSSEU
  6
Continuous
 62
     7
100
AcDbLine
 10
36.2397161261
 20
345.6476476801
 30
0.0
 11
37.5602552187
 21
345.1959967104
 31
0.0
  0
LINE
  5
11F
330
74
100
AcDbEntity
  8
06828131_MOUSSEU
  6
Continuous
 62
     7
100
AcDbLine
 10
36.3723273787
 20
345.6990298656
 30
0.0
 11
37.701676575
 21
345.2443656629
 31
0.0
  0
ELLIPSE
  5
120
330
74
100
AcDbEntity
  8
06828131_MOUSSEU
  6
Continuous
 62
     7
100
AcDbEllipse
 10
31.6209744439
 20
347.2757192679
 30
0.0
 11
8.49999971558632
 21
7.632065812668286E-8
 31
0.0
210
0.0
220
0.0
230
1.0
 40
0.3420201388
 41
-1.058962543465409
 42
-1.035432588259363
  0
ELLIPSE
  5
121
330
74
100
AcDbEntity
  8
06828131_MOUSSEU
  6
Continuous
 62
     7
100
AcDbEllipse
 10
31.6209742163
 20
347.2757194026
 30
0.0
 11
8.499999999997586
 21
6.591949208711867E-13
 31
0.0
210
0.0
220
0.0
230
1.0
 40
0.3420201433
 41
-1.035432573908663
 42
-0.7971631406856501
  0
LINE
  5
122
330
74
100
AcDbEntity
  8
06828131_MOUSSEU
  6
Continuous
 62
     7
100
AcDbLine
 10
35.9572826289
 20
344.7753105219
 30
0.0
 11
35.9572826289
 21
345.5483509356
 31
0.0
  0
LINE
  5
123
330
74
100
AcDbEntity
  8
06828131_MOUSSEU
  6
Continuous
 62
     7
100
AcDbLine
 10
34.8960884903
 20
345.2671499091
 30
0.0
 11
35.7840775481
 21
344.7411085075
 31
0.0
  0
LINE
  5
124
330
74
100
AcDbEntity
  8
06828131_MOUSSEU
  6
Continuous
 62
     7
100
AcDbLine
 10
35.0648927881
 20
345.3039589309
 30
0.0
 11
35.9572826289
 21
344.7753105219
 31
0.0
  0
ELLIPSE
  5
125
330
74
100
AcDbEntity
  8
06828131_MOUSSEU
  6
Continuous
 62
     7
100
AcDbEllipse
 10
31.6209743343
 20
347.2757192521
 30
0.0
 11
8.499999756927686
 21
4.414637405636412E-8
 31
0.0
210
0.0
220
0.0
230
1.0
 40
0.3420201354
 41
-1.320761925080452
 42
-1.297231969873666
  0
ELLIPSE
  5
126
330
74
100
AcDbEntity
  8
06828131_MOUSSEU
  6
Continuous
 62
     7
100
AcDbEllipse
 10
31.6209742163
 20
347.2757194026
 30
0.0
 11
8.500000000017467
 21
-4.239664175287317E-12
 31
0.0
210
0.0
220
0.0
230
1.0
 40
0.3420201433
 41
-1.29723196170664
 42
-1.058962528484098
  0
LINE
  5
127
330
74
100
AcDbEntity
  8
06828131_MOUSSEU
  6
Continuous
 62
     7
100
AcDbLine
 10
33.9173764305
 20
344.4766541139
 30
0.0
 11
33.9173764305
 21
345.0996746266
 31
0.0
  0
LINE
  5
128
330
74
100
AcDbEntity
  8
06828131_MOUSSEU
  6
Continuous
 62
     7
100
AcDbLine
 10
33.2793376281
 20
345.0267772913
 30
0.0
 11
33.7241912653
 21
344.4589498485
 31
0.0
  0
LINE
  5
129
330
74
100
AcDbEntity
  8
06828131_MOUSSEU
  6
Continuous
 62
     7
100
AcDbLine
 10
33.4713444423
 20
345.045985647
 30
0.0
 11
33.9173764305
 21
344.4766541139
 31
0.0
  0
ARC
  5
12A
330
74
100
AcDbEntity
  8
06828131_MOUSSEU
  6
Continuous
 62
     7
100
AcDbCircle
 10
31.6209742163
 20
360.8225544541
 30
0.0
 40
15.34244104882527
100
AcDbArc
 50
269.3464547907
 51
270.6535452093
  0
LINE
  5
12B
330
74
100
AcDbEntity
  8
06828131_MOUSSEU
  6
Continuous
 62
     7
100
AcDbLine
 10
31.4459742163
 20
346.1491318466
 30
0.0
 11
31.4459742163
 21
345.4811114862
 31
0.0
  0
LINE
  5
12C
330
74
100
AcDbEntity
  8
06828131_MOUSSEU
  6
Continuous
 62
     7
100
AcDbLine
 10
31.7959742163
 20
346.1491318466
 30
0.0
 11
31.7959742163
 21
345.4811114862
 31
0.0
  0
ELLIPSE
  5
12D
330
74
100
AcDbEntity
  8
06828131_MOUSSEU
  6
Continuous
 62
     7
100
AcDbEllipse
 10
31.6209742145
 20
347.2757194015
 30
0.0
 11
-5.24999999770604
 21
6.163888843779830E-10
 31
0.0
210
0.0
220
0.0
230
1.0
 40
0.3420201433
 41
1.013858042115606
 42
1.080537060661498
  0
LINE
  5
12E
330
74
100
AcDbEntity
  8
06828131_MOUSSEU
  6
Continuous
 62
     7
100
AcDbLine
 10
29.8749943346
 20
346.3611144913
 30
0.0
 11
28.8458785093
 21
345.7514701197
 31
0.0
  0
LINE
  5
12F
330
74
100
AcDbEntity
  8
06828131_MOUSSEU
  6
Continuous
 62
     7
100
AcDbLine
 10
30.1604949457
 20
346.2908298868
 30
0.0
 11
29.1489874006
 21
345.6916165946
 31
0.0
  0
LINE
  5
130
330
74
100
AcDbEntity
  8
06828131_MOUSSEU
  6
Continuous
 62
     7
100
AcDbLine
 10
28.8458785093
 20
346.6586210606
 30
0.0
 11
28.8458785093
 21
345.7514701197
 31
0.0
  0
ELLIPSE
  5
131
330
74
100
AcDbEntity
  8
06828131_MOUSSEU
  6
Continuous
 62
     7
100
AcDbEllipse
 10
31.6209742132
 20
347.275719402
 30
0.0
 11
-5.249999996855387
 21
6.060221768855456E-10
 31
0.0
210
0.0
220
0.0
230
1.0
 40
0.3420201434
 41
0.4902592665134469
 42
0.5569382850588628
  0
LINE
  5
132
330
74
100
AcDbEntity
  8
06828131_MOUSSEU
  6
Continuous
 62
     7
100
AcDbLine
 10
28.9816332956
 20
346.823653732
 30
0.0
 11
26.9893674559
 21
346.4302501176
 31
0.0
  0
LINE
  5
133
330
74
100
AcDbEntity
  8
06828131_MOUSSEU
  6
Continuous
 62
     7
100
AcDbLine
 10
29.1032630523
 20
346.709445608
 30
0.0
 11
27.1643674559
 21
346.3265807712
 31
0.0
  0
LINE
  5
134
330
74
100
AcDbEntity
  8
06828131_MOUSSEU
  6
Continuous
 62
     7
100
AcDbLine
 10
26.9893674559
 20
347.2158658776
 30
0.0
 11
26.9893674559
 21
346.4302501176
 31
0.0
  0
LINE
  5
135
330
74
100
AcDbEntity
  8
06828131_MOUSSEU
  6
Continuous
 62
     7
100
AcDbLine
 10
28.8765480468
 20
347.7485357762
 30
0.0
 11
28.8765480468
 21
347.3355729277
 31
0.0
  0
ELLIPSE
  5
136
330
74
100
AcDbEntity
  8
06828131_MOUSSEU
  6
Continuous
 62
     7
100
AcDbEllipse
 10
31.6209742163
 20
347.2757194026
 30
0.0
 11
2.749999999996347
 21
9.645062526431047E-13
 31
0.0
210
0.0
220
0.0
230
1.0
 40
0.3420201433
 41
3.07791326133262
 42
3.141592653589793
  0
LINE
  5
137
330
74
100
AcDbEntity
  8
06828131_MOUSSEU
  6
Continuous
 62
     7
100
AcDbLine
 10
28.8765480468
 20
347.3355729277
 30
0.0
 11
26.4212043855
 21
347.3355729277
 31
0.0
  0
LINE
  5
138
330
74
100
AcDbEntity
  8
06828131_MOUSSEU
  6
Continuous
 62
     7
100
AcDbLine
 10
28.8709742163
 20
347.2158658776
 30
0.0
 11
26.3843480952
 21
347.2158658776
 31
0.0
  0
LINE
  5
139
330
74
100
AcDbEntity
  8
06828131_MOUSSEU
  6
Continuous
 62
     7
100
AcDbLine
 10
29.3317314347
 20
348.512151227
 30
0.0
 11
29.3317314347
 21
347.7968785918
 31
0.0
  0
ELLIPSE
  5
13A
330
74
100
AcDbEntity
  8
06828131_MOUSSEU
  6
Continuous
 62
     7
100
AcDbEllipse
 10
31.6209742162
 20
347.2757194026
 30
0.0
 11
-2.749999999922925
 21
-1.412064909445121E-11
 31
0.0
210
0.0
220
0.0
230
1.0
 40
0.3420201433
 41
-0.5872781678650068
 42
-0.4599193833489217
  0
LINE
  5
13B
330
74
100
AcDbEntity
  8
06828131_MOUSSEU
  6
Continuous
 62
     7
100
AcDbLine
 10
29.3317314347
 20
347.7968785918
 30
0.0
 11
27.4348559913
 21
348.1714459013
 31
0.0
  0
LINE
  5
13C
330
74
100
AcDbEntity
  8
06828131_MOUSSEU
  6
Continuous
 62
     7
100
AcDbLine
 10
29.1567314347
 20
347.6932092453
 30
0.0
 11
27.2322520525
 21
348.0732273783
 31
0.0
  0
LINE
  5
13D
330
74
100
AcDbEntity
  8
06828131_MOUSSEU
  6
Continuous
 62
     7
100
AcDbLine
 10
30.4003155772
 20
348.834177812
 30
0.0
 11
30.4003155772
 21
348.118540072
 31
0.0
  0
ELLIPSE
  5
13E
330
74
100
AcDbEntity
  8
06828131_MOUSSEU
  6
Continuous
 62
     7
100
AcDbEllipse
 10
31.6209742163
 20
347.2757194026
 30
0.0
 11
-2.750000000032721
 21
9.207912210484892E-12
 31
0.0
210
0.0
220
0.0
230
1.0
 40
0.3420201433
 41
-1.110876943447704
 42
-0.9835181589348911
  0
LINE
  5
13F
330
74
100
AcDbEntity
  8
06828131_MOUSSEU
  6
Continuous
 62
     7
100
AcDbLine
 10
30.4003155772
 20
348.118540072
 30
0.0
 11
29.3951169721
 21
348.7140159717
 31
0.0
  0
LINE
  5
140
330
74
100
AcDbEntity
  8
06828131_MOUSSEU
  6
Continuous
 62
     7
100
AcDbLine
 10
30.0972066859
 20
348.0586865469
 30
0.0
 11
29.0828321286
 21
348.6595982464
 31
0.0
  0
ARC
  5
141
330
74
100
AcDbEntity
  8
06828131_MOUSSEU
  6
Continuous
 62
     7
100
AcDbCircle
 10
31.6209742163
 20
340.1902031241
 30
0.0
 40
8.026073381709718
100
AcDbArc
 50
88.7506274138
 51
91.2493725862
  0
LINE
  5
142
330
74
100
AcDbEntity
  8
06828131_MOUSSEU
  6
Continuous
 62
     7
100
AcDbLine
 10
31.7959742163
 20
348.2143684345
 30
0.0
 11
31.7959742163
 21
348.8823887949
 31
0.0
  0
LINE
  5
143
330
74
100
AcDbEntity
  8
06828131_MOUSSEU
  6
Continuous
 62
     7
100
AcDbLine
 10
31.4459742163
 20
348.2143684345
 30
0.0
 11
31.4459742163
 21
348.8823887949
 31
0.0
  0
ELLIPSE
  5
144
330
74
100
AcDbEntity
  8
06828131_MOUSSEU
  6
Continuous
 62
     7
100
AcDbEllipse
 10
31.6209742163
 20
347.2757194026
 30
0.0
 11
2.749999999993208
 21
-1.415534356397074E-12
 31
0.0
210
0.0
220
0.0
230
1.0
 40
0.3420201433
 41
0.9835181589405503
 42
1.11087694345484
  0
LINE
  5
145
330
74
100
AcDbEntity
  8
06828131_MOUSSEU
  6
Continuous
 62
     7
100
AcDbLine
 10
32.8416328554
 20
348.834177812
 30
0.0
 11
32.8416328554
 21
348.118540072
 31
0.0
  0
LINE
  5
146
330
74
100
AcDbEntity
  8
06828131_MOUSSEU
  6
Continuous
 62
     7
100
AcDbLine
 10
33.1447417467
 20
348.0586865469
 30
0.0
 11
34.159116304
 21
348.6595982464
 31
0.0
  0
LINE
  5
147
330
74
100
AcDbEntity
  8
06828131_MOUSSEU
  6
Continuous
 62
     7
100
AcDbLine
 10
32.8416328554
 20
348.118540072
 30
0.0
 11
33.8468314605
 21
348.7140159717
 31
0.0
  0
ELLIPSE
  5
148
330
74
100
AcDbEntity
  8
06828131_MOUSSEU
  6
Continuous
 62
     7
100
AcDbEllipse
 10
31.6209742163
 20
347.2757194026
 30
0.0
 11
2.749999999983166
 21
-3.469446951953614E-12
 31
0.0
210
0.0
220
0.0
230
1.0
 40
0.3420201433
 41
0.4599193833430197
 42
0.5872781678575039
  0
LINE
  5
149
330
74
100
AcDbEntity
  8
06828131_MOUSSEU
  6
Continuous
 62
     7
100
AcDbLine
 10
33.9102169979
 20
348.512151227
 30
0.0
 11
33.9102169979
 21
347.7968785918
 31
0.0
  0
LINE
  5
14A
330
74
100
AcDbEntity
  8
06828131_MOUSSEU
  6
Continuous
 62
     7
100
AcDbLine
 10
34.0852169979
 20
347.6932092453
 30
0.0
 11
36.0096963801
 21
348.0732273783
 31
0.0
  0
LINE
  5
14B
330
74
100
AcDbEntity
  8
06828131_MOUSSEU
  6
Continuous
 62
     7
100
AcDbLine
 10
33.9102169979
 20
347.7968785918
 30
0.0
 11
35.8070924413
 21
348.1714459013
 31
0.0
  0
ELLIPSE
  5
14C
330
74
100
AcDbEntity
  8
06828131_MOUSSEU
  6
Continuous
 62
     7
100
AcDbEllipse
 10
31.6209742163
 20
347.2757194026
 30
0.0
 11
-2.749999999999134
 21
-6.938893903907228E-15
 31
0.0
210
0.0
220
0.0
230
1.0
 40
0.3420201433
 41
3.141592653589786
 42
3.205272045846824
  0
LINE
  5
14D
330
74
100
AcDbEntity
  8
06828131_MOUSSEU
  6
Continuous
 62
     7
100
AcDbLine
 10
34.3654003858
 20
347.7485357762
 30
0.0
 11
34.3654003858
 21
347.3355729277
 31
0.0
  0
LINE
  5
14E
330
74
100
AcDbEntity
  8
06828131_MOUSSEU
  6
Continuous
 62
     7
100
AcDbLine
 10
34.3709742163
 20
347.2158658776
 30
0.0
 11
36.8576003374
 21
347.2158658776
 31
0.0
  0
LINE
  5
14F
330
74
100
AcDbEntity
  8
06828131_MOUSSEU
  6
Continuous
 62
     7
100
AcDbLine
 10
34.3654003858
 20
347.3355729277
 30
0.0
 11
36.8207440472
 21
347.3355729277
 31
0.0
  0
ELLIPSE
  5
150
330
74
100
AcDbEntity
  8
06828131_MOUSSEU
  6
Continuous
 62
     7
100
AcDbEllipse
 10
31.6209742183
 20
347.2757194022
 30
0.0
 11
5.249999998005546
 21
3.853722896351996E-10
 31
0.0
210
0.0
220
0.0
230
1.0
 40
0.3420201434
 41
-0.5569382849859448
 42
-0.4902592664488576
  0
LINE
  5
151
330
74
100
AcDbEntity
  8
06828131_MOUSSEU
  6
Continuous
 62
     7
100
AcDbLine
 10
34.1386853803
 20
346.709445608
 30
0.0
 11
36.0775809767
 21
346.3265807712
 31
0.0
  0
LINE
  5
152
330
74
100
AcDbEntity
  8
06828131_MOUSSEU
  6
Continuous
 62
     7
100
AcDbLine
 10
34.2603151371
 20
346.823653732
 30
0.0
 11
36.2525809767
 21
346.4302501176
 31
0.0
  0
LINE
  5
153
330
74
100
AcDbEntity
  8
06828131_MOUSSEU
  6
Continuous
 62
     7
100
AcDbLine
 10
36.2525809767
 20
347.2158658776
 30
0.0
 11
36.2525809767
 21
346.4302501176
 31
0.0
  0
ELLIPSE
  5
154
330
74
100
AcDbEntity
  8
06828131_MOUSSEU
  6
Continuous
 62
     7
100
AcDbEllipse
 10
31.6209742171
 20
347.2757194022
 30
0.0
 11
5.249999999018395
 21
2.636224571972434E-10
 31
0.0
210
0.0
220
0.0
230
1.0
 40
0.3420201433
 41
-1.080537060545268
 42
-1.013858042012703
  0
LINE
  5
155
330
74
100
AcDbEntity
  8
06828131_MOUSSEU
  6
Continuous
 62
     7
100
AcDbLine
 10
33.0814534869
 20
346.2908298868
 30
0.0
 11
34.092961032
 21
345.6916165946
 31
0.0
  0
LINE
  5
156
330
74
100
AcDbEntity
  8
06828131_MOUSSEU
  6
Continuous
 62
     7
100
AcDbLine
 10
33.366954098
 20
346.3611144913
 30
0.0
 11
34.3960699233
 21
345.7514701197
 31
0.0
  0
LINE
  5
157
330
74
100
AcDbEntity
  8
06828131_MOUSSEU
  6
Continuous
 62
     7
100
AcDbLine
 10
34.3960699233
 20
346.6586210606
 30
0.0
 11
34.3960699233
 21
345.7514701197
 31
0.0
  0
LINE
  5
158
330
74
100
AcDbEntity
  8
06828131_MOUSSEU
  6
Continuous
 62
     7
100
AcDbLine
 10
22.6209742163
 20
349.0402987327
 30
0.0
 11
22.6209742163
 21
347.0877808785
 31
0.0
  0
LINE
  5
159
330
74
100
AcDbEntity
  8
06828131_MOUSSEU
  6
Continuous
 62
     7
100
AcDbLine
 10
40.6209742163
 20
347.0877808785
 30
0.0
 11
40.6209742163
 21
349.0402987327
 31
0.0
  0
LINE
  5
15A
330
74
100
AcDbEntity
  8
06828131_MOUSSEU
  6
Continuous
 62
     7
100
AcDbLine
 10
25.3709742163
 20
347.2757194026
 30
0.0
 11
25.3709742163
 21
347.0877808785
 31
0.0
  0
LINE
  5
15B
330
74
100
AcDbEntity
  8
06828131_MOUSSEU
  6
Continuous
 62
     7
100
AcDbLine
 10
37.8709742163
 20
347.0877808785
 30
0.0
 11
37.8709742163
 21
347.2757194026
 31
0.0
  0
LINE
  5
15C
330
74
100
AcDbEntity
  8
06828131_MOUSSEU
  6
Continuous
 62
     7
100
AcDbLine
 10
28.8709742163
 20
347.2757194026
 30
0.0
 11
28.8709742163
 21
347.0877808785
 31
0.0
  0
LINE
  5
15D
330
74
100
AcDbEntity
  8
06828131_MOUSSEU
  6
Continuous
 62
     7
100
AcDbLine
 10
34.3709742163
 20
347.0877808785
 30
0.0
 11
34.3709742163
 21
347.2757194026
 31
0.0
  0
LINE
  5
15E
330
74
100
AcDbEntity
  8
06828131_MOUSSEU
  6
Continuous
 62
     7
100
AcDbLine
 10
31.1013442724
 20
347.5119797747
 30
0.0
 11
31.1013442724
 21
347.2757194026
 31
0.0
  0
LINE
  5
15F
330
74
100
AcDbEntity
  8
06828131_MOUSSEU
  6
Continuous
 62
     7
100
AcDbLine
 10
32.1406041602
 20
347.2757194026
 30
0.0
 11
32.1406041602
 21
347.5119797747
 31
0.0
  0
ENDBLK
  5
161
330
74
100
AcDbEntity
  8
0
100
AcDbBlockEnd
  0
BLOCK
  5
19F
330
162
100
AcDbEntity
  8
0
100
AcDbBlockBegin
  2
SE1
 70
     0
 10
0.0
 20
0.0
 30
0.0
  3
SE1
  1

  0
LINE
  5
164
330
162
100
AcDbEntity
  8
$DDT_AUDIT_GENERATED_(76)
  6
Continuous
 62
     7
100
AcDbLine
 10
140.9209635016
 20
290.7650870235
 30
0.0
 11
163.7680456042
 21
290.7650870235
 31
0.0
  0
LINE
  5
165
330
162
100
AcDbEntity
  8
$DDT_AUDIT_GENERATED_(76)
  6
Continuous
 62
     7
100
AcDbLine
 10
140.9209468191
 20
290.7650874961
 30
0.0
 11
118.0738481122
 21
290.7650870235
 31
0.0
  0
SPLINE
  5
166
330
162
100
AcDbEntity
  8
$DDT_AUDIT_GENERATED_(76)
  6
Continuous
 62
     7
100
AcDbSpline
210
0.0
220
0.0
230
1.0
 70
     8
 71
     3
 72
     9
 73
     5
 74
     0
 42
0.0000000026483954
 43
0.0000000001
 40
0.0
 40
0.0
 40
0.0
 40
0.0
 40
0.0205186577850685
 40
0.030897742968649
 40
0.030897742968649
 40
0.030897742968649
 40
0.030897742968649
 10
174.2353323349345
 20
350.1280331260576
 30
0.0
 10
174.2301004152363
 20
350.1365051399941
 30
0.0
 10
174.2222219998074
 20
350.1492626074605
 30
0.0
 10
174.1875926989232
 20
350.2043052424976
 30
0.0
 10
174.1733921902087
 20
350.2268976580008
 30
0.0
  0
ARC
  5
167
330
162
100
AcDbEntity
  8
$DDT_AUDIT_GENERATED_(76)
  6
Continuous
 62
     7
100
AcDbCircle
 10
285.7456867935
 20
350.2071747712
 30
0.0
 40
32.2840548343422
100
AcDbArc
 50
170.799418376
 51
170.9298895912
  0
SPLINE
  5
168
330
162
100
AcDbEntity
  8
$DDT_AUDIT_GENERATED_(76)
  6
Continuous
 62
     7
100
AcDbSpline
210
0.0
220
0.0
230
1.0
 70
     8
 71
     3
 72
     9
 73
     5
 74
     0
 42
0.0000000029069141
 43
0.0000000001
 40
0.0
 40
0.0
 40
0.0
 40
0.0
 40
0.0000474605019969
 40
0.0312271495212599
 40
0.0312271495212599
 40
0.0312271495212599
 40
0.0312271495212599
 10
179.5167500372433
 20
354.5596624345231
 30
0.0
 10
179.516749894673
 20
354.559656177938
 30
0.0
 10
179.5169469082811
 20
354.5597269387599
 30
0.0
 10
179.5032577733178
 20
354.5931235044832
 30
0.0
 10
179.4761955323361
 20
354.6588879226294
 30
0.0
  0
SPLINE
  5
169
330
162
100
AcDbEntity
  8
$DDT_AUDIT_GENERATED_(76)
  6
Continuous
 62
     7
100
AcDbSpline
210
0.0
220
0.0
230
1.0
 70
     8
 71
     3
 72
     9
 73
     5
 74
     0
 42
0.0000000021983553
 43
0.0000000001
 40
0.9688174430963857
 40
0.9688174430963857
 40
0.9688174430963857
 40
0.9688174430963857
 40
0.9909452792238588
 40
1.0
 40
1.0
 40
1.0
 40
1.0
 10
184.5526654504054
 20
383.4411853577685
 30
0.0
 10
184.5892177198371
 20
383.4967692498233
 30
0.0
 10
184.6229730264873
 20
383.5482239510941
 30
0.0
 10
184.6303548267082
 20
383.5597578596168
 30
0.0
 10
184.6302831932653
 20
383.559708595503
 30
0.0
  0
ARC
  5
16A
330
162
100
AcDbEntity
  8
$DDT_AUDIT_GENERATED_(76)
  6
Continuous
 62
     7
100
AcDbCircle
 10
185.1293824489
 20
387.7544320996
 30
0.0
 40
4.224313655097251
100
AcDbArc
 50
176.784936322
 51
263.2146819808
  0
ARC
  5
16B
330
162
100
AcDbEntity
  8
$DDT_AUDIT_GENERATED_(76)
  6
Continuous
 62
     7
100
AcDbCircle
 10
3665.1546415771
 20
-194.0911602101
 30
0.0
 40
3456.081895823018
100
AcDbArc
 50
170.3784067659
 51
170.8644016417
  0
ARC
  5
16C
330
162
100
AcDbEntity
  8
$DDT_AUDIT_GENERATED_(76)
  6
Continuous
 62
     7
100
AcDbCircle
 10
3207.7923214842
 20
-154.7509765222
 30
0.0
 40
2997.638797650797
100
AcDbArc
 50
169.6760471515
 51
169.6762714583
  0
LINE
  5
16D
330
162
100
AcDbEntity
  8
$DDT_AUDIT_GENERATED_(76)
  6
Continuous
 62
     7
100
AcDbLine
 10
137.2991417066
 20
399.7971174509
 30
0.0
 11
159.4573119554
 21
395.8900375226
 31
0.0
  0
LINE
  5
16E
330
162
100
AcDbEntity
  8
$DDT_AUDIT_GENERATED_(76)
  6
Continuous
 62
     7
100
AcDbLine
 10
181.6154869676
 20
391.9829567544
 30
0.0
 11
159.4573119554
 21
395.8900375226
 31
0.0
  0
LINE
  5
16F
330
162
100
AcDbEntity
  8
$DDT_AUDIT_GENERATED_(76)
  6
Continuous
 62
     7
100
AcDbLine
 10
180.9114940658
 20
387.9904146096
 30
0.0
 11
181.6154869676
 21
391.9829567544
 31
0.0
  0
LINE
  5
170
330
162
100
AcDbEntity
  8
$DDT_AUDIT_GENERATED_(76)
  6
Continuous
 62
     7
100
AcDbLine
 10
163.7680456042
 20
290.7650870235
 30
0.0
 11
174.2354155036
 21
350.1284916336
 31
0.0
  0
ARC
  5
171
330
162
100
AcDbEntity
  8
$DDT_AUDIT_GENERATED_(76)
  6
Continuous
 62
     7
100
AcDbCircle
 10
53.153713651
 20
404.9154804279
 30
0.0
 40
206.7503192738455
100
AcDbArc
 50
346.1139977297
 51
353.7666118163
  0
ARC
  5
172
330
162
100
AcDbEntity
  8
$DDT_AUDIT_GENERATED_(76)
  6
Continuous
 62
     7
100
AcDbCircle
 10
252.9034048096
 20
355.571035006
 30
0.0
 40
0.9990001960530364
100
AcDbArc
 50
269.9404514586
 51
344.7225635997
  0
LINE
  5
173
330
162
100
AcDbEntity
  8
$DDT_AUDIT_GENERATED_(76)
  6
Continuous
 62
     7
100
AcDbLine
 10
257.6940474709
 20
383.5596687217
 30
0.0
 11
184.6871059681
 21
383.5596687217
 31
0.0
  0
LINE
  5
174
330
162
100
AcDbEntity
  8
$DDT_AUDIT_GENERATED_(76)
  6
Continuous
 62
     7
100
AcDbLine
 10
251.4082036401
 20
354.5596687217
 30
0.0
 11
252.900548537
 21
354.5596687217
 31
0.0
  0
LINE
  5
175
330
162
100
AcDbEntity
  8
$DDT_AUDIT_GENERATED_(76)
  6
Continuous
 62
     7
100
AcDbLine
 10
179.516749837
 20
354.5596687217
 30
0.0
 11
225.3659607881
 21
354.5596687217
 31
0.0
  0
ARC
  5
176
330
162
100
AcDbEntity
  8
$DDT_AUDIT_GENERATED_(76)
  6
Continuous
 62
     7
100
AcDbCircle
 10
179.9529700132
 20
348.6988335264
 30
0.0
 40
5.979099155878774
100
AcDbArc
 50
94.573580381
 51
165.1809895108
  0
LINE
  5
177
330
162
100
AcDbEntity
  8
$DDT_AUDIT_GENERATED_(76)
  6
Continuous
 62
     7
100
AcDbLine
 10
137.2991369437
 20
399.7971182935
 30
0.0
 11
118.0738501489
 21
290.7650988173
 31
0.0
  0
ARC
  5
178
330
162
100
AcDbEntity
  8
$DDT_AUDIT_GENERATED_(76)
  6
Continuous
 62
     7
100
AcDbCircle
 10
257.6870726127
 20
382.5471727051
 30
0.0
 40
0.9995652185153041
100
AcDbArc
 50
354.689713801
 51
90.0242235381
  0
LINE
  5
179
330
162
100
AcDbEntity
  8
$DDT_AUDIT_GENERATED_(76)
  6
Continuous
 62
     7
100
AcDbLine
 10
179.3996706965
 20
392.3736643738
 30
0.0
 11
179.6167306134
 21
393.6046733835
 31
0.0
  0
LINE
  5
17A
330
162
100
AcDbEntity
  8
$DDT_AUDIT_GENERATED_(76)
  6
Continuous
 62
     7
100
AcDbLine
 10
139.7320145194
 20
400.6374186577
 30
0.0
 11
139.5149546533
 21
399.4064099367
 31
0.0
  0
SPLINE
  5
17B
330
162
100
AcDbEntity
  8
$DDT_AUDIT_GENERATED_(76)
  6
Continuous
 62
     7
100
AcDbSpline
210
0.0
220
0.0
230
1.0
 70
     8
 71
     3
 72
    49
 73
    45
 74
     0
 42
0.0000000003262177
 43
0.0000000001
 40
0.0175150704523445
 40
0.0175150704523445
 40
0.0175150704523445
 40
0.0175150704523445
 40
0.0255057424383962
 40
0.042287628866698
 40
0.0648951693615038
 40
0.0889512502768816
 40
0.1136629700548131
 40
0.1389543407519165
 40
0.1647888275592554
 40
0.1910939972239362
 40
0.2177531352304591
 40
0.2446113689279132
 40
0.2714584403063831
 40
0.2983730383846097
 40
0.3227034334674023
 40
0.3454412599645049
 40
0.3668714820918468
 40
0.3852123835917618
 40
0.4023724031420938
 40
0.4204640206742216
 40
0.438969716425598
 40
0.4578386520975945
 40
0.4769433837776527
 40
0.4961028505183006
 40
0.5156105922166799
 40
0.539605559242959
 40
0.5654596356083434
 40
0.5939330645405244
 40
0.6256873199069828
 40
0.6614485670120772
 40
0.6971684057591204
 40
0.7320688550220755
 40
0.7622876725016837
 40
0.7907001279416503
 40
0.8174521860250828
 40
0.8427525066911752
 40
0.8666717012364475
 40
0.8889773152500511
 40
0.9126562312400943
 40
0.9356198893142651
 40
0.9577125052782665
 40
0.9766988254233963
 40
0.9868139557731958
 40
0.9882253031487443
 40
0.9882253031487443
 40
0.9882253031487443
 40
0.9882253031487443
 10
225.7685892530133
 20
354.7634568163139
 30
0.0
 10
225.7686503512245
 20
354.7635566804284
 30
0.0
 10
225.7767657843511
 20
354.7741272239741
 30
0.0
 10
225.8174209577544
 20
354.8257646990765
 30
0.0
 10
225.9190133113638
 20
354.9517034154231
 30
0.0
 10
226.0937946732637
 20
355.1631671784316
 30
0.0
 10
226.3380834881254
 20
355.4514756384376
 30
0.0
 10
226.6514148253048
 20
355.8117792941455
 30
0.0
 10
227.0342625111222
 20
356.2400011472188
 30
0.0
 10
227.4862979261358
 20
356.7307386937665
 30
0.0
 10
228.0058228342616
 20
357.2770281713458
 30
0.0
 10
228.5893352942969
 20
357.8691352783865
 30
0.0
 10
229.2334733578468
 20
358.5004888916578
 30
0.0
 10
229.9092267192534
 20
359.1300065132406
 30
0.0
 10
230.609462870242
 20
359.7221202390647
 30
0.0
 10
231.3154650808634
 20
360.2506885239787
 30
0.0
 10
232.0146584025558
 20
360.6993015895583
 30
0.0
 10
232.692749358064
 20
361.0732993671497
 30
0.0
 10
233.3801889218163
 20
361.3586396898378
 30
0.0
 10
234.107889120747
 20
361.5744183429227
 30
0.0
 10
234.8856629383853
 20
361.7197671970686
 30
0.0
 10
235.6928889790972
 20
361.7856803788781
 30
0.0
 10
236.5128873207925
 20
361.7681577177596
 30
0.0
 10
237.3319019071911
 20
361.6580015540628
 30
0.0
 10
238.1991126573751
 20
361.4564453182317
 30
0.0
 10
239.1357537393947
 20
361.1743393527431
 30
0.0
 10
240.159408344196
 20
360.7900898591597
 30
0.0
 10
241.2466147397852
 20
360.3148505818815
 30
0.0
 10
242.4213141934849
 20
359.7496085945003
 30
0.0
 10
243.6419658619817
 20
359.1202204028327
 30
0.0
 10
244.8485589556097
 20
358.4583136173637
 30
0.0
 10
245.9411865202719
 20
357.8328873694713
 30
0.0
 10
246.9063309164202
 20
357.2663720298673
 30
0.0
 10
247.7402076723546
 20
356.7671367609632
 30
0.0
 10
248.4758264075899
 20
356.3199635850168
 30
0.0
 10
249.116382636144
 20
355.9259246569979
 30
0.0
 10
249.6633471788509
 20
355.5864026070146
 30
0.0
 10
250.1346341806494
 20
355.2920532231436
 30
0.0
 10
250.5261494867592
 20
355.0461998755654
 30
0.0
 10
250.8348707282382
 20
354.8513015205788
 30
0.0
 10
251.0384800740483
 20
354.7221357526016
 30
0.0
 10
251.1349505070505
 20
354.660415552743
 30
0.0
 10
251.1571406074835
 20
354.6462640715433
 30
0.0
 10
251.1611100859277
 20
354.6435504480561
 30
0.0
 10
251.1612706024729
 20
354.643437360424
 30
0.0
  0
ARC
  5
17C
330
162
100
AcDbEntity
  8
$DDT_AUDIT_GENERATED_(76)
  6
Continuous
 62
     7
100
AcDbCircle
 10
225.3812975519
 20
355.027449151
 30
0.0
 40
0.4648580874629397
100
AcDbArc
 50
269.2193407803
 51
305.9853274306
  0
SPLINE
  5
17D
330
162
100
AcDbEntity
  8
$DDT_AUDIT_GENERATED_(76)
  6
Continuous
 62
     7
100
AcDbSpline
210
0.0
220
0.0
230
1.0
 70
     8
 71
     3
 72
    17
 73
    13
 74
     0
 42
0.0000000011135333
 43
0.0000000001
 40
0.0
 40
0.0
 40
0.0
 40
0.0
 40
0.0015367246721732
 40
0.0023385898491449
 40
0.0029829707677108
 40
0.0038656251469001
 40
0.0055557493959064
 40
0.0103922625901699
 40
0.0223516777099593
 40
0.0458971540779403
 40
0.0706243980845297
 40
0.0908379320501315
 40
0.0908379320501315
 40
0.0908379320501315
 40
0.0908379320501315
 10
225.6544379633123
 20
354.6513010988659
 30
0.0
 10
225.6730283021083
 20
354.6655500271185
 30
0.0
 10
225.6972604155656
 20
354.6841209234268
 30
0.0
 10
225.721283568135
 20
354.7077581326436
 30
0.0
 10
225.7327416124081
 20
354.7197582446105
 30
0.0
 10
225.7418295208265
 20
354.729827451708
 30
0.0
 10
225.7512049650651
 20
354.7407282343634
 30
0.0
 10
225.7600057786586
 20
354.7514218818995
 30
0.0
 10
225.7841306935624
 20
354.780958910031
 30
0.0
 10
225.8563462635682
 20
354.8696659997373
 30
0.0
 10
225.9973947873327
 20
355.0399488651467
 30
0.0
 10
226.1247414278143
 20
355.1907114219208
 30
0.0
 10
226.1888353938686
 20
355.2658225307602
 30
0.0
  0
SPLINE
  5
17E
330
162
100
AcDbEntity
  8
$DDT_AUDIT_GENERATED_(76)
  6
Continuous
 62
     7
100
AcDbSpline
210
0.0
220
0.0
230
1.0
 70
     8
 71
     3
 72
    18
 73
    14
 74
     0
 42
0.0000000008542703
 43
0.0000000001
 40
0.9162920590827562
 40
0.9162920590827562
 40
0.9162920590827562
 40
0.9162920590827562
 40
0.9320679048643304
 40
0.9545697036116071
 40
0.9762721893941427
 40
0.9868668304069007
 40
0.9923009623364525
 40
0.9940958949333609
 40
0.9947319308644937
 40
0.995272299452829
 40
0.9964770833594009
 40
0.9983393967561408
 40
1.0
 40
1.0
 40
1.0
 40
1.0
 10
250.5535222685094
 20
355.0248700091446
 30
0.0
 10
250.6309119729071
 20
354.9763908404243
 30
0.0
 10
250.8033298138735
 20
354.8682280857159
 30
0.0
 10
251.010150055111
 20
354.7381053595306
 30
0.0
 10
251.1244033613914
 20
354.6661792255524
 30
0.0
 10
251.1632765665074
 20
354.6417145763218
 30
0.0
 10
251.1739199836063
 20
354.6352427721802
 30
0.0
 10
251.1835985368398
 20
354.6292536819852
 30
0.0
 10
251.1989762695781
 20
354.6205524292844
 30
0.0
 10
251.222217530969
 20
354.6083345600479
 30
0.0
 10
251.2691413271492
 20
354.5877143864457
 30
0.0
 10
251.3343148189889
 20
354.5675809249134
 30
0.0
 10
251.38087822681
 20
354.5647661561252
 30
0.0
 10
251.4066975497882
 20
354.5634668057734
 30
0.0
  0
SPLINE
  5
17F
330
162
100
AcDbEntity
  8
$DDT_AUDIT_GENERATED_(86)
  6
Continuous
 62
     7
100
AcDbSpline
210
0.0
220
0.0
230
1.0
 70
     8
 71
     3
 72
    10
 73
     6
 74
     0
 42
0.0000000061713815
 43
0.0000000001
 40
0.0
 40
0.0
 40
0.0
 40
0.0
 40
0.0078124999999996
 40
0.0078124999999996
 40
0.0147839641763298
 40
0.0147839641763298
 40
0.0147839641763298
 40
0.0147839641763298
 10
137.5683024683255
 20
401.3235671050161
 30
0.0
 10
137.5681165753089
 20
401.3235998802128
 30
0.0
 10
137.5701916714061
 20
401.3232340147603
 30
0.0
 10
137.5783929274411
 20
401.3217880311882
 30
0.0
 10
137.5840584978544
 20
401.3207891204914
 30
0.0
 10
137.59152248047
 20
401.319473127247
 30
0.0
  0
ARC
  5
180
330
162
100
AcDbEntity
  8
$DDT_AUDIT_GENERATED_(86)
  6
Continuous
 62
     7
100
AcDbCircle
 10
181.5891987499
 20
393.5615023189
 30
0.0
 40
0.3000000000016632
100
AcDbArc
 50
260.000008765
 51
350.0000087646
  0
LINE
  5
181
330
162
100
AcDbEntity
  8
$DDT_AUDIT_GENERATED_(86)
  6
Continuous
 62
     7
100
AcDbLine
 10
181.5371043418
 20
393.266059985
 30
0.0
 11
137.8116389876
 21
400.9760323741
 31
0.0
  0
ARC
  5
182
330
162
100
AcDbEntity
  8
$DDT_AUDIT_GENERATED_(86)
  6
Continuous
 62
     7
100
AcDbCircle
 10
137.8637446493
 20
401.2714727237
 30
0.0
 40
0.3000000000002523
100
AcDbArc
 50
216.6073532943
 51
260.0000087649
  0
LINE
  5
183
330
162
100
AcDbEntity
  8
$DDT_AUDIT_GENERATED_(86)
  6
Continuous
 62
     7
100
AcDbLine
 10
143.8002374967
 20
428.7737350121
 30
0.0
 11
142.2260548116
 21
427.2118551634
 31
0.0
  0
LINE
  5
184
330
162
100
AcDbEntity
  8
$DDT_AUDIT_GENERATED_(86)
  6
Continuous
 62
     7
100
AcDbLine
 10
187.5935397
 20
427.1048079401
 30
0.0
 11
186.1023108349
 21
428.6077831263
 31
0.0
  0
LINE
  5
185
330
162
100
AcDbEntity
  8
$DDT_AUDIT_GENERATED_(86)
  6
Continuous
 62
     7
100
AcDbLine
 10
182.0654007587
 20
394.5345478856
 30
0.0
 11
187.7310059299
 21
426.6658202329
 31
0.0
  0
ARC
  5
186
330
162
100
AcDbEntity
  8
$DDT_AUDIT_GENERATED_(86)
  6
Continuous
 62
     7
100
AcDbCircle
 10
92.3989200137
 20
-11481.9975432081
 30
0.0
 40
11909.04493696305
100
AcDbArc
 50
89.7606461404
 51
89.7609499644
  0
SPLINE
  5
187
330
162
100
AcDbEntity
  8
$DDT_AUDIT_GENERATED_(86)
  6
Continuous
 62
     7
100
AcDbSpline
210
0.0
220
0.0
230
1.0
 70
     8
 71
     3
 72
   236
 73
   232
 74
     0
 42
0.0000000002190768
 43
0.0000000001
 40
0.0
 40
0.0
 40
0.0
 40
0.0
 40
0.0156250000000004
 40
0.0156250000000004
 40
0.0312499999999995
 40
0.0312499999999995
 40
0.0468749999999999
 40
0.0468749999999999
 40
0.0546874999999995
 40
0.0546874999999995
 40
0.0585937499999999
 40
0.0585937499999999
 40
0.0605468750000002
 40
0.0605468750000002
 40
0.0625000000000004
 40
0.0625000000000004
 40
0.0703124999999998
 40
0.0703124999999998
 40
0.0742187500000004
 40
0.0742187500000004
 40
0.0761718750000006
 40
0.0761718750000006
 40
0.0781249999999994
 40
0.0781249999999994
 40
0.0937499999999999
 40
0.0937499999999999
 40
0.1093750000000003
 40
0.1093750000000003
 40
0.1250000000000007
 40
0.1250000000000007
 40
0.1328125000000004
 40
0.1328125000000004
 40
0.1406250000000002
 40
0.1406250000000002
 40
0.1562500000000002
 40
0.1562500000000002
 40
0.1718750000000002
 40
0.1718750000000002
 40
0.1796875000000002
 40
0.1796875000000002
 40
0.1816406249999999
 40
0.1816406249999999
 40
0.183593750000001
 40
0.183593750000001
 40
0.1875000000000002
 40
0.1875000000000002
 40
0.2031250000000003
 40
0.2031250000000003
 40
0.2187500000000003
 40
0.2187500000000003
 40
0.2343750000000003
 40
0.2343750000000003
 40
0.2500000000000003
 40
0.2500000000000003
 40
0.2578125000000004
 40
0.2578125000000004
 40
0.2656250000000004
 40
0.2656250000000004
 40
0.2812499999999989
 40
0.2812499999999989
 40
0.2851562499999997
 40
0.2851562499999997
 40
0.2871093750000008
 40
0.2871093750000008
 40
0.2890625000000004
 40
0.2890625000000004
 40
0.2968750000000004
 40
0.2968750000000004
 40
0.3125000000000004
 40
0.3125000000000004
 40
0.3164062500000012
 40
0.3164062500000012
 40
0.3203125000000004
 40
0.3203125000000004
 40
0.3281250000000004
 40
0.3281250000000004
 40
0.3437500000000004
 40
0.3437500000000004
 40
0.3593750000000005
 40
0.3593750000000005
 40
0.3750000000000005
 40
0.3750000000000005
 40
0.3828125000000005
 40
0.3828125000000005
 40
0.3906250000000005
 40
0.3906250000000005
 40
0.3925781250000002
 40
0.3925781250000002
 40
0.3945312499999998
 40
0.3945312499999998
 40
0.3984375000000006
 40
0.3984375000000006
 40
0.4062500000000006
 40
0.4062500000000006
 40
0.4218750000000006
 40
0.4218750000000006
 40
0.4374999999999992
 40
0.4374999999999992
 40
0.4453125000000006
 40
0.4453125000000006
 40
0.4492187500000014
 40
0.4492187500000014
 40
0.4531250000000007
 40
0.4531250000000007
 40
0.4687500000000007
 40
0.4687500000000007
 40
0.4765625000000007
 40
0.4765625000000007
 40
0.4843750000000007
 40
0.4843750000000007
 40
0.4921875000000007
 40
0.4921875000000007
 40
0.5000000000000007
 40
0.5000000000000007
 40
0.5019531250000003
 40
0.5019531250000003
 40
0.50390625
 40
0.50390625
 40
0.5078125000000008
 40
0.5078125000000008
 40
0.5156250000000008
 40
0.5156250000000008
 40
0.5195312500000013
 40
0.5195312500000013
 40
0.5234375000000008
 40
0.5234375000000008
 40
0.5312500000000008
 40
0.5312500000000008
 40
0.5468750000000008
 40
0.5468750000000008
 40
0.5625000000000008
 40
0.5625000000000008
 40
0.5703124999999994
 40
0.5703124999999994
 40
0.5742187500000001
 40
0.5742187500000001
 40
0.5781250000000008
 40
0.5781250000000008
 40
0.5937499999999996
 40
0.5937499999999996
 40
0.6093750000000009
 40
0.6093750000000009
 40
0.6250000000000009
 40
0.6250000000000009
 40
0.6406249999999994
 40
0.6406249999999994
 40
0.6562500000000009
 40
0.6562500000000009
 40
0.671875000000001
 40
0.671875000000001
 40
0.6757812500000003
 40
0.6757812500000003
 40
0.679687500000001
 40
0.679687500000001
 40
0.6835937500000002
 40
0.6835937500000002
 40
0.6874999999999996
 40
0.6874999999999996
 40
0.7031250000000009
 40
0.7031250000000009
 40
0.7187500000000009
 40
0.7187500000000009
 40
0.734375000000001
 40
0.734375000000001
 40
0.742187500000001
 40
0.742187500000001
 40
0.7460937500000018
 40
0.7460937500000018
 40
0.7480468750000001
 40
0.7480468750000001
 40
0.7499999999999997
 40
0.7499999999999997
 40
0.765625000000001
 40
0.765625000000001
 40
0.781250000000001
 40
0.781250000000001
 40
0.7851562500000004
 40
0.7851562500000004
 40
0.7890625000000011
 40
0.7890625000000011
 40
0.7968750000000011
 40
0.7968750000000011
 40
0.8046875000000011
 40
0.8046875000000011
 40
0.8085937500000004
 40
0.8085937500000004
 40
0.8105468750000001
 40
0.8105468750000001
 40
0.8125000000000011
 40
0.8125000000000011
 40
0.8281250000000011
 40
0.8281250000000011
 40
0.8437500000000012
 40
0.8437500000000012
 40
0.8593750000000012
 40
0.8593750000000012
 40
0.8750000000000012
 40
0.8750000000000012
 40
0.8759765625000004
 40
0.8759765625000004
 40
0.8769531250000009
 40
0.8769531250000009
 40
0.878906250000002
 40
0.878906250000002
 40
0.8828125000000012
 40
0.8828125000000012
 40
0.8906250000000012
 40
0.8906250000000012
 40
0.8945312500000006
 40
0.8945312500000006
 40
0.8984375000000013
 40
0.8984375000000013
 40
0.9062499999999998
 40
0.9062499999999998
 40
0.9218750000000013
 40
0.9218750000000013
 40
0.9296875000000014
 40
0.9296875000000014
 40
0.9335937500000006
 40
0.9335937500000006
 40
0.9355468750000017
 40
0.9355468750000017
 40
0.9375000000000012
 40
0.9375000000000012
 40
0.9531249999999999
 40
0.9531249999999999
 40
0.9687500000000014
 40
0.9687500000000014
 40
0.9843750000000014
 40
0.9843750000000014
 40
1.0
 40
1.0
 40
1.0
 40
1.0
 10
142.085814605232
 20
426.9437415204558
 30
0.0
 10
142.0858181599822
 20
426.9437609308225
 30
0.0
 10
142.0952799592415
 20
426.9437732839222
 30
0.0
 10
142.132816444017
 20
426.9436215297656
 30
0.0
 10
142.1608914541083
 20
426.9434576041586
 30
0.0
 10
142.2355286857106
 20
426.9429912886715
 30
0.0
 10
142.2820962490662
 20
426.9427189095551
 30
0.0
 10
142.3658500416568
 20
426.942404789187
 30
0.0
 10
142.3960854360923
 20
426.9423120174785
 30
0.0
 10
142.444921994605
 20
426.9421755311425
 30
0.0
 10
142.4617814513082
 20
426.9421302410579
 30
0.0
 10
142.4879426872607
 20
426.942058510073
 30
0.0
 10
142.4968084427138
 20
426.9420339516125
 30
0.0
 10
142.514830851158
 20
426.9419826656456
 30
0.0
 10
142.5239875585953
 20
426.941956256666
 30
0.0
 10
142.5704983301201
 20
426.9418129581809
 30
0.0
 10
142.6100271716328
 20
426.9416237892179
 30
0.0
 10
142.6728335545184
 20
426.9412839630547
 30
0.0
 10
142.6943545767084
 20
426.9411611828882
 30
0.0
 10
142.7275189338002
 20
426.940968297763
 30
0.0
 10
142.7387220393212
 20
426.9409025332926
 30
0.0
 10
142.7613952983114
 20
426.9407690510532
 30
0.0
 10
142.7728687050227
 20
426.9407013144497
 30
0.0
 10
142.8773569180962
 20
426.9400860216247
 30
0.0
 10
142.9789610382338
 20
426.9395125015397
 30
0.0
 10
143.1992780480892
 20
426.9384967155885
 30
0.0
 10
143.3179910473104
 20
426.9380540560508
 30
0.0
 10
143.5722680739649
 20
426.9371613984812
 30
0.0
 10
143.7078321857046
 20
426.9367120391818
 30
0.0
 10
143.9236845586197
 20
426.9356853770908
 30
0.0
 10
143.997722284381
 20
426.9352948309241
 30
0.0
 10
144.1499771672239
 20
426.9344700321133
 30
0.0
 10
144.2281943058388
 20
426.9340356892889
 30
0.0
 10
144.4691305603307
 20
426.9327226144175
 30
0.0
 10
144.6381317334022
 20
426.9318412701072
 30
0.0
 10
144.9930359658665
 20
426.9301848236647
 30
0.0
 10
145.1789386691505
 20
426.9294101217527
 30
0.0
 10
145.4706495087078
 20
426.9282343029224
 30
0.0
 10
145.5700300136635
 20
426.9278381357461
 30
0.0
 10
145.6969600071912
 20
426.9273126312918
 30
0.0
 10
145.722488521379
 20
426.9272059425081
 30
0.0
 10
145.7737500080795
 20
426.9269889428609
 30
0.0
 10
145.7994890817113
 20
426.9268786073385
 30
0.0
 10
145.8770301050413
 20
426.9265408446446
 30
0.0
 10
145.9291558448522
 20
426.9263066915202
 30
0.0
 10
146.1919280614987
 20
426.9250725915563
 30
0.0
 10
146.409003128237
 20
426.9239019177708
 30
0.0
 10
146.8566315958205
 20
426.9215546873866
 30
0.0
 10
147.087184971316
 20
426.9203773100675
 30
0.0
 10
147.5616088264536
 20
426.9181272226268
 30
0.0
 10
147.8054792381217
 20
426.9170544078411
 30
0.0
 10
148.3064520988962
 20
426.9148885274668
 30
0.0
 10
148.5635544022389
 20
426.9137958601513
 30
0.0
 10
148.9591275527538
 20
426.9118680362976
 30
0.0
 10
149.0926402582311
 20
426.9111881592124
 30
0.0
 10
149.3629912957781
 20
426.9097998783279
 30
0.0
 10
149.4998294657753
 20
426.9090895616457
 30
0.0
 10
149.9153614362085
 20
426.9069457446408
 30
0.0
 10
150.199069864079
 20
426.9055047068022
 30
0.0
 10
150.5622028849941
 20
426.9037287726019
 30
0.0
 10
150.6352545844262
 20
426.9033744368642
 30
0.0
 10
150.745473057699
 20
426.9028436962136
 30
0.0
 10
150.7823319970463
 20
426.9026668442048
 30
0.0
 10
150.8561924186392
 20
426.9023135754975
 30
0.0
 10
150.8931915256273
 20
426.90213716965
 30
0.0
 10
151.0785303879761
 20
426.9012557959133
 30
0.0
 10
151.2278999603791
 20
426.9005531988838
 30
0.0
 10
151.679263816424
 20
426.8984244423195
 30
0.0
 10
151.9845112234087
 20
426.8969822843586
 30
0.0
 10
152.3713897755841
 20
426.8949801322569
 30
0.0
 10
152.4490318421428
 20
426.8945757829021
 30
0.0
 10
152.6048473129958
 20
426.893771869816
 30
0.0
 10
152.6830206421358
 20
426.8933702031582
 30
0.0
 10
152.9183350010733
 20
426.8921648641266
 30
0.0
 10
153.0762702810408
 20
426.8913608296368
 30
0.0
 10
153.5532383933723
 20
426.88893847664
 30
0.0
 10
153.8754316078817
 20
426.887309529087
 30
0.0
 10
154.5282138558499
 20
426.8839854885527
 30
0.0
 10
154.8588028985207
 20
426.882290357055
 30
0.0
 10
155.5284041677472
 20
426.8788084868197
 30
0.0
 10
155.8674163323424
 20
426.8770216861528
 30
0.0
 10
156.3823183304468
 20
426.8742642956861
 30
0.0
 10
156.5550171393324
 20
426.8733509617334
 30
0.0
 10
156.9025612070205
 20
426.8715370568129
 30
0.0
 10
157.0774063735683
 20
426.8706320415317
 30
0.0
 10
157.2973171947026
 20
426.8694903673301
 30
0.0
 10
157.3413670880988
 20
426.8692615281409
 30
0.0
 10
157.4296027013087
 20
426.8688025842829
 30
0.0
 10
157.4737995759197
 20
426.8685724213476
 30
0.0
 10
157.6064891735021
 20
426.8678802383208
 30
0.0
 10
157.6950867108071
 20
426.8674164803103
 30
0.0
 10
157.9612914687888
 20
426.8660161030517
 30
0.0
 10
158.1393107705229
 20
426.8650701617242
 30
0.0
 10
158.6750092864454
 20
426.8621856775749
 30
0.0
 10
159.034328126472
 20
426.8601971222579
 30
0.0
 10
159.7573216863935
 20
426.8561201515122
 30
0.0
 10
160.1209964448292
 20
426.8540319251599
 30
0.0
 10
160.6697860458846
 20
426.850927256299
 30
0.0
 10
160.8532623989437
 20
426.8499134040624
 30
0.0
 10
161.1293000939575
 20
426.8484037084455
 30
0.0
 10
161.2214646491232
 20
426.8479017343396
 30
0.0
 10
161.4058919913679
 20
426.8468972822932
 30
0.0
 10
161.4981740307017
 20
426.8463946984624
 30
0.0
 10
161.9599256678972
 20
426.8438716439719
 30
0.0
 10
162.3304189677493
 20
426.8418127574621
 30
0.0
 10
162.8877967652913
 20
426.8386000049348
 30
0.0
 10
163.0739080784772
 20
426.8375096824235
 30
0.0
 10
163.4463801861099
 20
426.8353009285413
 30
0.0
 10
163.6327511558564
 20
426.8341824638735
 30
0.0
 10
164.0057628719123
 20
426.8319381011418
 30
0.0
 10
164.1924020388768
 20
426.830812234786
 30
0.0
 10
164.5657653861927
 20
426.8285866547589
 30
0.0
 10
164.752507249332
 20
426.8274868691457
 30
0.0
 10
164.9859280501321
 20
426.8261559367822
 30
0.0
 10
165.0326119570566
 20
426.8258880449139
 30
0.0
 10
165.1259767620601
 20
426.8253484905339
 30
0.0
 10
165.1726579589342
 20
426.825076960737
 30
0.0
 10
165.3126979318924
 20
426.8242577348208
 30
0.0
 10
165.4060402088786
 20
426.8237054901243
 30
0.0
 10
165.686006897177
 20
426.8220350439441
 30
0.0
 10
165.8725742644559
 20
426.8209033118955
 30
0.0
 10
166.1523096426453
 20
426.8191930447683
 30
0.0
 10
166.24554398572
 20
426.818620741184
 30
0.0
 10
166.4318218779803
 20
426.817474566785
 30
0.0
 10
166.5248835835045
 20
426.8169005850883
 30
0.0
 10
166.8038375531228
 20
426.815178091785
 30
0.0
 10
166.9894987053245
 20
426.8140292258731
 30
0.0
 10
167.5455610108764
 20
426.8105909998077
 30
0.0
 10
167.9150415792276
 20
426.8083129873292
 30
0.0
 10
168.651551685424
 20
426.8037653283483
 30
0.0
 10
169.018581258267
 20
426.8014974428913
 30
0.0
 10
169.5672767087342
 20
426.7980103446145
 30
0.0
 10
169.7498668354652
 20
426.7968245797469
 30
0.0
 10
170.023287066742
 20
426.7950308378102
 30
0.0
 10
170.1142432177226
 20
426.7944310458461
 30
0.0
 10
170.295693071387
 20
426.7932309622402
 30
0.0
 10
170.3862024268612
 20
426.7926305673237
 30
0.0
 10
170.8376771141882
 20
426.7896320844089
 30
0.0
 10
171.1954282915717
 20
426.7872491513398
 30
0.0
 10
171.9041868538206
 20
426.7825724444593
 30
0.0
 10
172.25519417507
 20
426.7802782624249
 30
0.0
 10
172.9505253605761
 20
426.775723539609
 30
0.0
 10
173.2948492104014
 20
426.7734624807529
 30
0.0
 10
173.9768220792255
 20
426.7688172195145
 30
0.0
 10
174.3144712227697
 20
426.7664407618161
 30
0.0
 10
174.9830658004059
 20
426.7617233873027
 30
0.0
 10
175.3140113346323
 20
426.7593823376018
 30
0.0
 10
175.9691195919296
 20
426.7547980105454
 30
0.0
 10
176.2932824805773
 20
426.7525547014192
 30
0.0
 10
176.6941636398825
 20
426.7498017672491
 30
0.0
 10
176.7741236095566
 20
426.7492535501257
 30
0.0
 10
176.9336083674284
 20
426.7481608444891
 30
0.0
 10
177.0131500295902
 20
426.7476162405688
 30
0.0
 10
177.1717247225531
 20
426.7465299257539
 30
0.0
 10
177.2506268908562
 20
426.7459891098256
 30
0.0
 10
177.4076650340758
 20
426.7449105098804
 30
0.0
 10
177.4858011847978
 20
426.7443750781729
 30
0.0
 10
177.8745739262242
 20
426.7416752198129
 30
0.0
 10
178.1794800776621
 20
426.7393134456836
 30
0.0
 10
178.7772963776175
 20
426.7347039241035
 30
0.0
 10
179.0702063843388
 20
426.7324539698209
 30
0.0
 10
179.6441470581459
 20
426.7282402304421
 30
0.0
 10
179.9251777493356
 20
426.7262754704305
 30
0.0
 10
180.337819969668
 20
426.7234527900334
 30
0.0
 10
180.4738825519808
 20
426.7225304375313
 30
0.0
 10
180.6757420421814
 20
426.7211439884351
 30
0.0
 10
180.7426560863153
 20
426.7206812164821
 30
0.0
 10
180.8424670730458
 20
426.719981049613
 30
0.0
 10
180.875644051805
 20
426.7197466505578
 30
0.0
 10
180.9418110323342
 20
426.7192748813936
 30
0.0
 10
180.9748010574696
 20
426.7190377734057
 30
0.0
 10
181.2708680708932
 20
426.7168809043239
 30
0.0
 10
181.528036145137
 20
426.7146924643829
 30
0.0
 10
182.0302713983737
 20
426.7104779089173
 30
0.0
 10
182.275338924868
 20
426.7084499798495
 30
0.0
 10
182.5739706625444
 20
426.7061718113508
 30
0.0
 10
182.633311546001
 20
426.7057279644567
 30
0.0
 10
182.7512175246112
 20
426.7048635883115
 30
0.0
 10
182.8097973896262
 20
426.7044429559867
 30
0.0
 10
182.9842716816618
 20
426.703213772337
 30
0.0
 10
183.0985278000962
 20
426.7024413450853
 30
0.0
 10
183.3229594134601
 20
426.7009528543665
 30
0.0
 10
183.4331349014742
 20
426.7002367889864
 30
0.0
 10
183.5953584442711
 20
426.6991573691755
 30
0.0
 10
183.6489262521474
 20
426.6987964752152
 30
0.0
 10
183.7285196789965
 20
426.6982457162741
 30
0.0
 10
183.7549244347392
 20
426.6980605474066
 30
0.0
 10
183.8074813998927
 20
426.697685588515
 30
0.0
 10
183.8336337122418
 20
426.6974965661688
 30
0.0
 10
184.0678667784215
 20
426.6957518769945
 30
0.0
 10
184.2679786019498
 20
426.6938242951382
 30
0.0
 10
184.6522848283287
 20
426.6902466843927
 30
0.0
 10
184.8364786349675
 20
426.6885904749168
 30
0.0
 10
185.1890116532862
 20
426.6858372313239
 30
0.0
 10
185.3573510693938
 20
426.6847391462797
 30
0.0
 10
185.6780359136556
 20
426.6827605700807
 30
0.0
 10
185.8303824162324
 20
426.6818837950476
 30
0.0
 10
185.9835625545315
 20
426.6805354117468
 30
0.0
 10
185.9925412988244
 20
426.6804553248529
 30
0.0
 10
186.0104352207683
 20
426.6802950239013
 30
0.0
 10
186.0193503690293
 20
426.6802146083065
 30
0.0
 10
186.046000300212
 20
426.6799727730092
 30
0.0
 10
186.063639570863
 20
426.6798107674201
 30
0.0
 10
186.1161746809545
 20
426.6793239601909
 30
0.0
 10
186.1506878399997
 20
426.6789984100395
 30
0.0
 10
186.2526905954792
 20
426.6780296275496
 30
0.0
 10
186.3186438231953
 20
426.6773949070825
 30
0.0
 10
186.4144705847911
 20
426.6764912540107
 30
0.0
 10
186.4458955711559
 20
426.676197945069
 30
0.0
 10
186.5077049086187
 20
426.6756305109815
 30
0.0
 10
186.5381079083758
 20
426.6753562261592
 30
0.0
 10
186.6275185110925
 20
426.674567277695
 30
0.0
 10
186.6847810073744
 20
426.6740866220306
 30
0.0
 10
186.8496110370061
 20
426.6727797678278
 30
0.0
 10
186.9502271251329
 20
426.6720978641374
 30
0.0
 10
187.0874381088117
 20
426.6711842847548
 30
0.0
 10
187.1308880569358
 20
426.6708956586808
 30
0.0
 10
187.1926430368682
 20
426.6704438345789
 30
0.0
 10
187.2126579474439
 20
426.6702899333234
 30
0.0
 10
187.2418256858853
 20
426.6700474595997
 30
0.0
 10
187.2514058216884
 20
426.6699646886424
 30
0.0
 10
187.2702812191537
 20
426.6697940249334
 30
0.0
 10
187.2795764011276
 20
426.669705667547
 30
0.0
 10
187.3619524610223
 20
426.6688902993312
 30
0.0
 10
187.4261136860094
 20
426.6682498045474
 30
0.0
 10
187.5363652265837
 20
426.6672971984079
 30
0.0
 10
187.5824555892465
 20
426.6669846570683
 30
0.0
 10
187.6564192881887
 20
426.6664565603635
 30
0.0
 10
187.6842898449318
 20
426.6662241117387
 30
0.0
 10
187.7215794949013
 20
426.6658994691533
 30
0.0
 10
187.7309989930694
 20
426.6658073364916
 30
0.0
 10
187.7310059298715
 20
426.6658202328802
 30
0.0
  0
ARC
  5
188
330
162
100
AcDbEntity
  8
$DDT_AUDIT_GENERATED_(86)
  6
Continuous
 62
     7
100
AcDbCircle
 10
190.9003704204
 20
7043.2620101234
 30
0.0
 40
6614.655967176684
100
AcDbArc
 50
269.5920178389
 51
269.9582747797
  0
ARC
  5
189
330
162
100
AcDbEntity
  8
$DDT_AUDIT_GENERATED_(86)
  6
Continuous
 62
     7
100
AcDbCircle
 10
187.2386020921
 20
426.7526442714
 30
0.0
 40
0.4999999551092832
100
AcDbArc
 50
16.3008712258
 51
44.7752313594
  0
ARC
  5
18A
330
162
100
AcDbEntity
  8
$DDT_AUDIT_GENERATED_(86)
  6
Continuous
 62
     7
100
AcDbCircle
 10
142.578218495
 20
426.8569175069
 30
0.0
 40
0.4999999999675886
100
AcDbArc
 50
134.775228638
 51
170.0000087631
  0
ARC
  5
18B
330
162
100
AcDbEntity
  8
$DDT_AUDIT_GENERATED_(86)
  6
Continuous
 62
     7
100
AcDbCircle
 10
185.7473731786
 20
428.2556194428
 30
0.0
 40
0.4999999999119292
100
AcDbArc
 50
44.7752286505
 51
75.5775898717
  0
ARC
  5
18C
330
162
100
AcDbEntity
  8
$DDT_AUDIT_GENERATED_(86)
  6
Continuous
 62
     7
100
AcDbCircle
 10
144.1524011803
 20
428.4187973557
 30
0.0
 40
0.4999999999520645
100
AcDbArc
 50
97.3307611712
 51
134.7752286598
  0
ARC
  5
18D
330
162
100
AcDbEntity
  8
$DDT_AUDIT_GENERATED_(86)
  6
Continuous
 62
     7
100
AcDbCircle
 10
137.8003122781
 20
401.2295780812
 30
0.0
 40
0.2241396116634594
100
AcDbArc
 50
156.5133903353
 51
217.7223044331
  0
ARC
  5
18E
330
162
100
AcDbEntity
  8
$DDT_AUDIT_GENERATED_(86)
  6
Continuous
 62
     7
100
AcDbCircle
 10
164.3347651334
 20
271.5391233469
 30
0.0
 40
158.6725637772026
100
AcDbArc
 50
82.2197754858
 51
97.3308063694
  0
LINE
  5
18F
330
162
100
AcDbEntity
  8
$DDT_AUDIT_GENERATED_(86)
  6
Continuous
 62
     7
100
AcDbLine
 10
181.7949857598
 20
393.5250769455
 30
0.0
 11
182.0654013256
 21
394.534551101
 31
0.0
  0
LINE
  5
190
330
162
100
AcDbEntity
  8
$DDT_AUDIT_GENERATED_(86)
  6
Continuous
 62
     7
100
AcDbLine
 10
142.0858145789
 20
426.9437413711
 30
0.0
 11
137.5682910065
 21
401.3235691469
 31
0.0
  0
ARC
  5
191
330
162
100
AcDbEntity
  8
$DDT_AUDIT_GENERATED_(86)
  6
Continuous
 62
     7
100
AcDbCircle
 10
181.981383521
 20
423.8885139677
 30
0.0
 40
6.24926673088004
100
AcDbArc
 50
44.8863029423
 51
49.1742290369
  0
ARC
  5
192
330
162
100
AcDbEntity
  8
$DDT_AUDIT_GENERATED_(86)
  6
Continuous
 62
     7
100
AcDbCircle
 10
94.0817435703
 20
476.3912237526
 30
0.0
 40
68.82969139508947
100
AcDbArc
 50
314.3856915446
 51
315.6787127221
  0
SPLINE
  5
193
330
162
100
AcDbEntity
  8
$DDT_AUDIT_GENERATED_(86)
  6
Continuous
 62
     7
100
AcDbSpline
210
0.0
220
0.0
230
1.0
 70
     8
 71
     3
 72
     8
 73
     4
 74
     0
 42
0.0000000406930496
 43
0.0000000001
 40
0.0
 40
0.0
 40
0.0
 40
0.0
 40
1.0
 40
1.0
 40
1.0
 40
1.0
 10
142.3000598145723
 20
427.2117176221697
 30
0.0
 10
142.1909989575673
 20
427.1562797216975
 30
0.0
 10
142.1337821378492
 20
427.1053242643979
 30
0.0
 10
142.1284093554182
 20
427.0588512502708
 30
0.0
  0
ARC
  5
194
330
162
100
AcDbEntity
  8
$DDT_AUDIT_GENERATED_(86)
  6
Continuous
 62
     7
100
AcDbCircle
 10
185.8320753474
 20
428.4559939951
 30
0.0
 40
0.2832038867159112
100
AcDbArc
 50
37.3161404279
 51
73.3941397562
  0
LINE
  5
195
330
162
100
AcDbEntity
  8
$DDT_AUDIT_GENERATED_(86)
  6
Continuous
 62
     7
100
AcDbLine
 10
186.0765468468
 20
428.6078241905
 30
0.0
 11
186.0573081745
 21
428.6276757211
 31
0.0
  0
LINE
  5
196
330
162
100
AcDbEntity
  8
$DDT_AUDIT_GENERATED_(9C)
  6
Continuous
 62
     7
100
AcDbLine
 10
250.9225182661
 20
351.0676520484
 30
0.0
 11
231.3769117537
 21
343.9536330672
 31
0.0
  0
LINE
  5
197
330
162
100
AcDbEntity
  8
$DDT_AUDIT_GENERATED_(9C)
  6
Continuous
 62
     7
100
AcDbLine
 10
230.0951989896
 20
344.5513055447
 30
0.0
 11
251.5201907435
 21
352.3493648125
 31
0.0
  0
LINE
  5
198
330
162
100
AcDbEntity
  8
$DDT_AUDIT_GENERATED_(9C)
  6
Continuous
 62
     7
100
AcDbLine
 10
251.5201907435
 20
352.3493648125
 30
0.0
 11
250.542441915
 21
355.0357076409
 31
0.0
  0
LINE
  5
199
330
162
100
AcDbEntity
  8
$DDT_AUDIT_GENERATED_(9C)
  6
Continuous
 62
     7
100
AcDbLine
 10
226.1913185644
 20
355.2771288613
 30
0.0
 11
230.0951989896
 21
344.5513055447
 31
0.0
  0
ARC
  5
19A
330
162
100
AcDbEntity
  8
$DDT_AUDIT_GENERATED_(9C)
  6
Continuous
 62
     7
100
AcDbCircle
 10
250.5804981227
 20
352.0073446692
 30
0.0
 40
0.9999999999999993
100
AcDbArc
 50
290.0
 51
20.0
  0
ARC
  5
19B
330
162
100
AcDbEntity
  8
$DDT_AUDIT_GENERATED_(9C)
  6
Continuous
 62
     7
100
AcDbCircle
 10
231.0348916104
 20
344.893325688
 30
0.0
 40
1.000000000000006
100
AcDbArc
 50
200.0
 51
290.0
  0
LINE
  5
19C
330
162
100
AcDbEntity
  8
06828131_MOUSSEU
  6
Continuous
 62
     7
100
AcDbLine
 10
232.8463904873
 20
344.0095995885
 30
0.0
 11
249.7608576615
 21
350.1659621684
 31
0.0
  0
LINE
  5
19D
330
162
100
AcDbEntity
  8
06828131_MOUSSEU
  6
Continuous
 62
     7
100
AcDbLine
 10
232.6924814228
 20
344.4324612679
 30
0.0
 11
232.8463904873
 21
344.0095995885
 31
0.0
  0
LINE
  5
19E
330
162
100
AcDbEntity
  8
06828131_MOUSSEU
  6
Continuous
 62
     7
100
AcDbLine
 10
249.7608576615
 20
350.1659621684
 30
0.0
 11
249.606948597
 21
350.5888238478
 31
0.0
  0
ENDBLK
  5
1A0
330
162
100
AcDbEntity
  8
0
100
AcDbBlockEnd
  0
BLOCK
  5
1C6
330
1A1
100
AcDbEntity
  8
0
100
AcDbBlockBegin
  2
SE2
 70
     0
 10
0.0
 20
0.0
 30
0.0
  3
SE2
  1

  0
SPLINE
  5
1A3
330
1A1
100
AcDbEntity
  8
$DDT_AUDIT_GENERATED_(76)
  6
Continuous
 62
     7
100
AcDbSpline
210
0.0
220
0.0
230
1.0
 70
     8
 71
     2
 72
    36
 73
    33
 74
     0
 42
0.0000000001399347
 43
0.0000000001
 40
0.0
 40
0.0
 40
0.0
 40
0.0625
 40
0.0625
 40
0.125
 40
0.125
 40
0.1875
 40
0.1875
 40
0.25
 40
0.25
 40
0.3125
 40
0.3125
 40
0.375
 40
0.375
 40
0.4375
 40
0.4375
 40
0.5
 40
0.5
 40
0.5625
 40
0.5625
 40
0.625
 40
0.625
 40
0.6875
 40
0.6875
 40
0.75
 40
0.75
 40
0.8125
 40
0.8125
 40
0.875
 40
0.875
 40
0.9375
 40
0.9375
 40
1.0
 40
1.0
 40
1.0
 10
9.12098152246283
 20
224.1104111346859
 30
0.0
 10
9.121081745643265
 20
226.3451768995597
 30
0.0
 10
9.547336448244238
 20
228.5370583313365
 30
0.0
 10
9.974020205010925
 20
230.7311460399082
 30
0.0
 10
10.8120876327439
 20
232.8004827487658
 30
0.0
 10
11.65087986141389
 20
234.8716091193332
 30
0.0
 10
12.87040743199587
 20
236.7387579880701
 30
0.0
 10
14.09308756404637
 20
238.6107335632477
 30
0.0
 10
15.65219284944235
 20
240.2057496195396
 30
0.0
 10
17.21477449452184
 20
241.8043221062821
 30
0.0
 10
19.055575573346
 20
243.0627764737284
 30
0.0
 10
20.90066111839212
 20
244.3241598948846
 30
0.0
 10
22.95424515653153
 20
245.1945985775209
 30
0.0
 10
25.01133203589552
 20
246.066521985615
 30
0.0
 10
27.19794023323782
 20
246.511729995195
 30
0.0
 10
29.38786550886832
 20
246.9576133840332
 30
0.0
 10
31.622360390281
 20
246.9575265240571
 30
0.0
 10
33.85625081347006
 20
246.9574396875777
 30
0.0
 10
36.04751872372547
 20
246.5110190062134
 30
0.0
 10
38.23503128453635
 20
246.0653633913432
 30
0.0
 10
40.2946908896139
 20
245.1916421594353
 30
0.0
 10
42.34715000981294
 20
244.3209754208538
 30
0.0
 10
44.19281031380228
 20
243.0583841775156
 30
0.0
 10
46.0331492079337
 20
241.7994332386658
 30
0.0
 10
47.59651943390271
 20
240.1988423094827
 30
0.0
 10
49.15236502049726
 20
238.6059551662155
 30
0.0
 10
50.37384115535391
 20
236.7352582859467
 30
0.0
 10
51.59256483839414
 20
234.86877679956
 30
0.0
 10
52.43147764677169
 20
232.7965256589444
 30
0.0
 10
53.26839271925711
 20
230.7292092510445
 30
0.0
 10
53.69496094852814
 20
228.5353387253408
 30
0.0
 10
54.12088132718019
 20
226.3448001411192
 30
0.0
 10
54.12098152238237
 20
224.1104277995314
 30
0.0
  0
LINE
  5
1A4
330
1A1
100
AcDbEntity
  8
$DDT_AUDIT_GENERATED_(76)
  6
Continuous
 62
     7
100
AcDbLine
 10
9.1209815224
 20
205.5740626809
 30
0.0
 11
9.1209815224
 21
224.1104272162
 31
0.0
  0
LINE
  5
1A5
330
1A1
100
AcDbEntity
  8
$DDT_AUDIT_GENERATED_(76)
  6
Continuous
 62
     7
100
AcDbLine
 10
54.1209815224
 20
205.5740626809
 30
0.0
 11
54.1209815224
 21
224.1104277995
 31
0.0
  0
ELLIPSE
  5
1A6
330
1A1
100
AcDbEntity
  8
$DDT_AUDIT_GENERATED_(76)
  6
Continuous
 62
     7
100
AcDbEllipse
 10
33.0165791464
 20
107.3563282747
 30
0.0
 11
-0.0202001216419198
 21
0.9997959567257104
 31
0.0
210
0.0
220
0.0
230
0.9999999999999999
 40
0.1025780956
 41
3.047252789334935
 42
3.279076268628545
  0
SPLINE
  5
1A7
330
1A1
100
AcDbEntity
  8
$DDT_AUDIT_GENERATED_(76)
  6
Continuous
 62
     7
100
AcDbSpline
210
0.0
220
0.0
230
1.0
 70
     8
 71
     3
 72
    18
 73
    14
 74
     0
 42
0.0000000003553078
 43
0.0000000001
 40
0.0
 40
0.0
 40
0.0
 40
0.0
 40
0.0242026680738581
 40
0.0488451137360671
 40
0.0739311301806986
 40
0.0994643121918117
 40
0.125448068240905
 40
0.1860611891931171
 40
0.2505850343256284
 40
0.3094962308864205
 40
0.3756587684448723
 40
0.4380637188431795
 40
0.482432686712433
 40
0.482432686712433
 40
0.482432686712433
 40
0.482432686712433
 10
33.11917795630979
 20
107.3563282746882
 30
0.0
 10
33.4736410283752
 20
107.3643764771004
 30
0.0
 10
34.1890079878127
 20
107.3806191227871
 30
0.0
 10
35.25477179614101
 20
107.4228604873731
 30
0.0
 10
36.31876610888243
 20
107.4783142203492
 30
0.0
 10
37.37280662721417
 20
107.5484034313938
 30
0.0
 10
38.86300147091718
 20
107.6692721783331
 30
0.0
 10
40.73480336545295
 20
107.8756870055478
 30
0.0
 10
42.68739151575159
 20
108.1915136183033
 30
0.0
 10
44.29611811239534
 20
108.5714404510757
 30
0.0
 10
45.4350451345212
 20
108.9866878317899
 30
0.0
 10
46.0176136600171
 20
109.3948640427062
 30
0.0
 10
46.12887824203884
 20
109.651601954314
 30
0.0
 10
46.13157464230049
 20
109.7583424169129
 30
0.0
  0
SPLINE
  5
1A8
330
1A1
100
AcDbEntity
  8
$DDT_AUDIT_GENERATED_(76)
  6
Continuous
 62
     7
100
AcDbSpline
210
0.0
220
0.0
230
1.0
 70
     8
 71
     3
 72
     8
 73
     4
 74
     0
 42
0.0000000013853699
 43
0.0000000001
 40
0.482432686712433
 40
0.482432686712433
 40
0.482432686712433
 40
0.482432686712433
 40
0.4838432596162124
 40
0.4838432596162124
 40
0.4838432596162124
 40
0.4838432596162124
 10
46.13157464230049
 20
109.7583424169129
 30
0.0
 10
46.13166036593414
 20
109.7617358968947
 30
0.0
 10
46.13170208405177
 20
109.7651294327381
 30
0.0
 10
46.13169977601547
 20
109.7685230000137
 30
0.0
  0
ARC
  5
1A9
330
1A1
100
AcDbEntity
  8
$DDT_AUDIT_GENERATED_(76)
  6
Continuous
 62
     7
100
AcDbCircle
 10
31.6299866381
 20
186.5462127231
 30
0.0
 40
79.20388557219893
100
AcDbArc
 50
270.0010946306
 51
271.0773386286
  0
SPLINE
  5
1AA
330
1A1
100
AcDbEntity
  8
$DDT_AUDIT_GENERATED_(76)
  6
Continuous
 62
     7
100
AcDbSpline
210
0.0
220
0.0
230
1.0
 70
     8
 71
     3
 72
    17
 73
    13
 74
     0
 42
0.0000000003427399
 43
0.0000000001
 40
0.4832979024570311
 40
0.4832979024570311
 40
0.4832979024570311
 40
0.4832979024570311
 40
0.4999280874718118
 40
0.5623277636621815
 40
0.6247366267597932
 40
0.6900494386731522
 40
0.749637566602475
 40
0.8027449945642644
 40
0.8543097598563849
 40
0.9043558882158172
 40
0.9529096885751234
 40
1.0
 40
1.0
 40
1.0
 40
1.0
 10
17.13152706722335
 20
109.7674845338741
 30
0.0
 10
17.13161559638336
 20
109.7274434812755
 30
0.0
 10
17.16099189012514
 20
109.5371159885342
 30
0.0
 10
17.46035134987431
 20
109.1980625531113
 30
0.0
 10
18.37345338611947
 20
108.7608327207317
 30
0.0
 10
19.7591474445574
 20
108.3653391548952
 30
0.0
 10
21.48106478167159
 20
108.0337174458704
 30
0.0
 10
23.36028607132391
 20
107.7772731983885
 30
0.0
 10
25.34038936693123
 20
107.5833827228455
 30
0.0
 10
27.41360230302207
 20
107.4457491585868
 30
0.0
 10
29.52109773380278
 20
107.3589160833278
 30
0.0
 10
30.93524526862148
 20
107.3478001077007
 30
0.0
 10
31.63149982111216
 20
107.3423271653491
 30
0.0
  0
ARC
  5
1AB
330
1A1
100
AcDbEntity
  8
$DDT_AUDIT_GENERATED_(76)
  6
Continuous
 62
     7
100
AcDbCircle
 10
31.6209815224
 20
205.2232178468
 30
0.0
 40
22.50273521369289
100
AcDbArc
 50
0.893346634
 51
179.106653366
  0
ELLIPSE
  5
1AC
330
1A1
100
AcDbEntity
  8
$DDT_AUDIT_GENERATED_(76)
  6
Continuous
 62
     7
100
AcDbEllipse
 10
31.6209815224
 20
205.5740626809
 30
0.0
 11
-22.50000000000015
 21
-2.775557561562891E-13
 31
0.0
210
0.0
220
0.0
230
1.0
 40
0.9848077783
 41
0.0000000000000131
 42
0.0055396632189037
  0
ELLIPSE
  5
1AD
330
1A1
100
AcDbEntity
  8
$DDT_AUDIT_GENERATED_(76)
  6
Continuous
 62
     7
100
AcDbEllipse
 10
31.6209815224
 20
205.5740626809
 30
0.0
 11
-22.50000000000015
 21
-2.775557561562891E-13
 31
0.0
210
0.0
220
0.0
230
1.0
 40
0.9848077783
 41
3.014863851805399
 42
3.018497747279321
  0
ELLIPSE
  5
1AE
330
1A1
100
AcDbEntity
  8
$DDT_AUDIT_GENERATED_(76)
  6
Continuous
 62
     7
100
AcDbEllipse
 10
31.6209815224
 20
205.5740626809
 30
0.0
 11
-22.50000000000015
 21
-2.775557561562891E-13
 31
0.0
210
0.0
220
0.0
230
1.0
 40
0.9848077783
 41
3.120807048161598
 42
3.141592653589793
  0
SPLINE
  5
1AF
330
1A1
100
AcDbEntity
  8
$DDT_AUDIT_GENERATED_(76)
  6
Continuous
 62
     7
100
AcDbSpline
210
0.0
220
0.0
230
1.0
 70
     8
 71
     3
 72
    32
 73
    28
 74
     0
 42
0.0000000007032305
 43
0.0000000001
 40
0.0
 40
0.0
 40
0.0
 40
0.0
 40
0.0515875588495512
 40
0.1009235280654412
 40
0.1477500634121357
 40
0.1921889055124168
 40
0.2481324325358077
 40
0.3006225368368904
 40
0.3491385778359121
 40
0.3934262947187569
 40
0.4337632450728878
 40
0.4702881627925025
 40
0.5036275505838054
 40
0.5364419417374315
 40
0.5687758926957643
 40
0.6319272293406298
 40
0.6935817498349922
 40
0.7539229394313023
 40
0.7980782142058767
 40
0.8418277966750297
 40
0.8564589173800891
 40
0.8730016803231999
 40
0.8954768875307055
 40
0.9163764764342504
 40
0.9407732532189655
 40
0.9686841651587462
 40
1.0
 40
1.0
 40
1.0
 40
1.0
 10
33.05067843866286
 20
106.3662985996202
 30
0.0
 10
33.44047139561957
 20
106.375838894862
 30
0.0
 10
34.08272815936048
 20
106.3922023432524
 30
0.0
 10
35.10108883060629
 20
106.4361923955898
 30
0.0
 10
36.0293736057006
 20
106.4888419290329
 30
0.0
 10
36.98493318739128
 20
106.555488239618
 30
0.0
 10
37.94470229943777
 20
106.6371524113395
 30
0.0
 10
38.88906758337738
 20
106.7342255504905
 30
0.0
 10
39.72286113671147
 20
106.8357984151988
 30
0.0
 10
40.44957014515372
 20
106.9382162139169
 30
0.0
 10
41.07747305909282
 20
107.0385260047835
 30
0.0
 10
41.6193080663044
 20
107.1353977921617
 30
0.0
 10
42.09803063649378
 20
107.2302613003246
 30
0.0
 10
42.53356283647633
 20
107.3255393423339
 30
0.0
 10
43.0695057786086
 20
107.4548571327812
 30
0.0
 10
43.66894418562786
 20
107.6232017452195
 30
0.0
 10
44.27557568305279
 20
107.8328468980197
 30
0.0
 10
44.75180141139558
 20
108.0399137962707
 30
0.0
 10
45.13921602598907
 20
108.2523284740965
 30
0.0
 10
45.38778675965263
 20
108.4257815902137
 30
0.0
 10
45.55370005256133
 20
108.5676229052385
 30
0.0
 10
45.67200566088993
 20
108.6813042546031
 30
0.0
 10
45.80337294740671
 20
108.8329901328127
 30
0.0
 10
45.92947679036254
 20
109.0204121209643
 30
0.0
 10
46.0355956019178
 20
109.235391986962
 30
0.0
 10
46.11512015520481
 20
109.4965257355621
 30
0.0
 10
46.12589126521938
 20
109.6635082115214
 30
0.0
 10
46.13110382293841
 20
109.768567617043
 30
0.0
  0
LINE
  5
1B0
330
1A1
100
AcDbEntity
  8
$DDT_AUDIT_GENERATED_(76)
  6
Continuous
 62
     7
100
AcDbLine
 10
46.1314952124
 20
109.7686520433
 30
0.0
 11
46.1314952124
 21
182.6857900195
 31
0.0
  0
LINE
  5
1B1
330
1A1
100
AcDbEntity
  8
$DDT_AUDIT_GENERATED_(76)
  6
Continuous
 62
     7
100
AcDbLine
 10
17.1314952124
 20
182.6660206347
 30
0.0
 11
17.1314952124
 21
109.7683934913
 31
0.0
  0
SPLINE
  5
1B2
330
1A1
100
AcDbEntity
  8
$DDT_AUDIT_GENERATED_(76)
  6
Continuous
 62
     7
100
AcDbSpline
210
0.0
220
0.0
230
1.0
 70
     8
 71
     3
 72
    39
 73
    35
 74
     0
 42
0.0000000005862165
 43
0.0000000001
 40
0.0
 40
0.0
 40
0.0
 40
0.0
 40
0.031550495506598
 40
0.0607299645284862
 40
0.0874480388397344
 40
0.1116954739923291
 40
0.1335008398204661
 40
0.1563548252533222
 40
0.1755407186530424
 40
0.1925892184126171
 40
0.2098057699536779
 40
0.2272521755615173
 40
0.245901375415266
 40
0.2666697605274026
 40
0.2987347655463568
 40
0.3350074891621308
 40
0.3747736898699515
 40
0.4138733155785431
 40
0.4467860455815899
 40
0.4789389139469561
 40
0.5104331459992578
 40
0.5413547819559323
 40
0.5716211033750949
 40
0.6019347834461348
 40
0.6360888756992572
 40
0.6695373343160684
 40
0.7064324164045255
 40
0.7469787921784584
 40
0.7908562419561412
 40
0.8281842956693347
 40
0.8676251064496963
 40
0.9093897696674363
 40
0.9535950768116832
 40
1.0
 40
1.0
 40
1.0
 40
1.0
 10
17.13133039331849
 20
109.7678217367903
 30
0.0
 10
17.13919863168664
 20
109.6422267098268
 30
0.0
 10
17.15483011007408
 20
109.4396630109851
 30
0.0
 10
17.26980539150579
 20
109.1300772095094
 30
0.0
 10
17.42157657751635
 20
108.8796514656114
 30
0.0
 10
17.59056579473878
 20
108.6795760112336
 30
0.0
 10
17.76262427860917
 20
108.517979800467
 30
0.0
 10
17.94047480608196
 20
108.3796806294658
 30
0.0
 10
18.11306066542142
 20
108.265337298525
 30
0.0
 10
18.26987147680903
 20
108.1728503570386
 30
0.0
 10
18.4252393414811
 20
108.0896968885696
 30
0.0
 10
18.58722229320819
 20
108.010434805079
 30
0.0
 10
18.76614253636224
 20
107.9301565987624
 30
0.0
 10
19.00507932707956
 20
107.8321897241369
 30
0.0
 10
19.3258550223372
 20
107.7148619466333
 30
0.0
 10
19.75267150263388
 20
107.5787099214642
 30
0.0
 10
20.25208071100125
 20
107.4405702046521
 30
0.0
 10
20.78388539979302
 20
107.3125388512445
 30
0.0
 10
21.316863713043
 20
107.1990257405067
 30
0.0
 10
21.84106038536203
 20
107.0988657835038
 30
0.0
 10
22.38203975017604
 20
107.0059770547345
 30
0.0
 10
22.93704216006855
 20
106.9201327345369
 30
0.0
 10
23.50769635325757
 20
106.8406729779741
 30
0.0
 10
24.12026449868936
 20
106.7641218399196
 30
0.0
 10
24.77639159562539
 20
106.6915785875959
 30
0.0
 10
25.5005564555958
 20
106.6213654112008
 30
0.0
 10
26.29272110612024
 20
106.5548015934334
 30
0.0
 10
27.18443601457778
 20
106.4917281343783
 30
0.0
 10
28.10206097192316
 20
106.4393915006719
 30
0.0
 10
29.02760485423727
 20
106.3989912570124
 30
0.0
 10
29.95044321432426
 20
106.37044306192
 30
0.0
 10
30.92909191583193
 20
106.353449520213
 30
0.0
 10
31.99179846885592
 20
106.35
 30
0.0
 10
32.65055984957723
 20
106.3598627617314
 30
0.0
 10
33.05067843866286
 20
106.3662985996202
 30
0.0
  0
ARC
  5
1B3
330
1A1
100
AcDbEntity
  8
$DDT_AUDIT_GENERATED_(86)
  6
Continuous
 62
     7
100
AcDbCircle
 10
31.243999955
 20
205.3051031988
 30
0.0
 40
22.16156703348872
100
AcDbArc
 50
173.8260208257
 51
180.1265738555
  0
ELLIPSE
  5
1B4
330
1A1
100
AcDbEntity
  8
$DDT_AUDIT_GENERATED_(86)
  6
Continuous
 62
     7
100
AcDbEllipse
 10
31.6430248838
 20
227.167629987
 30
0.0
 11
-0.0003005502012275217
 21
-0.2999998494495077
 31
0.0
210
0.0
220
0.0
230
1.0
 40
0.0001766502
 41
2.96705996923208
 42
3.227871160396272
  0
ARC
  5
1B5
330
1A1
100
AcDbEntity
  8
$DDT_AUDIT_GENERATED_(86)
  6
Continuous
 62
     7
100
AcDbCircle
 10
31.6333302352
 20
200.0948536425
 30
0.0
 40
20.84792235670509
100
AcDbArc
 50
90.0354131553
 51
180.0421181194
  0
ARC
  5
1B6
330
1A1
100
AcDbEntity
  8
$DDT_AUDIT_GENERATED_(86)
  6
Continuous
 62
     7
100
AcDbCircle
 10
31.6077533585
 20
200.0951000391
 30
0.0
 40
20.84767584099236
100
AcDbArc
 50
359.9572036222
 51
89.965120502
  0
ARC
  5
1B7
330
1A1
100
AcDbEntity
  8
$DDT_AUDIT_GENERATED_(86)
  6
Continuous
 62
     7
100
AcDbCircle
 10
31.9995569531
 20
205.3047153289
 30
0.0
 40
22.1612200792322
100
AcDbArc
 50
359.8718957463
 51
6.1308550757
  0
ARC
  5
1B8
330
1A1
100
AcDbEntity
  8
$DDT_AUDIT_GENERATED_(86)
  6
Continuous
 62
     7
100
AcDbCircle
 10
31.2686944565
 20
200.1229642858
 30
0.0
 40
22.82530602199374
100
AcDbArc
 50
6.6247512344
 51
6.9937859542
  0
ARC
  5
1B9
330
1A1
100
AcDbEntity
  8
$DDT_AUDIT_GENERATED_(86)
  6
Continuous
 62
     7
100
AcDbCircle
 10
31.2686944565
 20
200.1229642858
 30
0.0
 40
22.82530602199374
100
AcDbArc
 50
6.9937859542
 51
89.1170411907
  0
ARC
  5
1BA
330
1A1
100
AcDbEntity
  8
$DDT_AUDIT_GENERATED_(86)
  6
Continuous
 62
     7
100
AcDbCircle
 10
31.9969389003
 20
200.1229621731
 30
0.0
 40
22.82570330445132
100
AcDbArc
 50
90.9451320654
 51
175.769540307
  0
LINE
  5
1BB
330
1A1
100
AcDbEntity
  8
$DDT_AUDIT_GENERATED_(86)
  6
Continuous
 62
     7
100
AcDbLine
 10
31.6204414382
 20
177.2983040992
 30
0.0
 11
31.620441446
 21
177.2929420933
 31
0.0
  0
LINE
  5
1BC
330
1A1
100
AcDbEntity
  8
$DDT_AUDIT_GENERATED_(86)
  6
Continuous
 62
     7
100
AcDbLine
 10
31.6201611345
 20
177.2980580581
 30
0.0
 11
31.6201614893
 21
177.2927725968
 31
0.0
  0
ARC
  5
1BD
330
1A1
100
AcDbEntity
  8
$DDT_AUDIT_GENERATED_(86)
  6
Continuous
 62
     7
100
AcDbCircle
 10
31.6329526869
 20
200.0638552413
 30
0.0
 40
20.84754503188401
100
AcDbArc
 50
179.956925267
 51
269.9656019893
  0
ARC
  5
1BE
330
1A1
100
AcDbEntity
  8
$DDT_AUDIT_GENERATED_(86)
  6
Continuous
 62
     7
100
AcDbCircle
 10
31.6077129313
 20
200.0640262997
 30
0.0
 40
20.84771621597318
100
AcDbArc
 50
270.0349686973
 51
0.0426036724
  0
ARC
  5
1BF
330
1A1
100
AcDbEntity
  8
$DDT_AUDIT_GENERATED_(86)
  6
Continuous
 62
     7
100
AcDbCircle
 10
31.4903603152
 20
205.0764727889
 30
0.0
 40
22.39057294143285
100
AcDbArc
 50
89.6085852812
 51
173.2960129482
  0
SPLINE
  5
1C0
330
1A1
100
AcDbEntity
  8
$DDT_AUDIT_GENERATED_(86)
  6
Continuous
 62
     7
100
AcDbSpline
210
0.0
220
0.0
230
1.0
 70
     8
 71
     3
 72
    28
 73
    24
 74
     0
 42
0.0000000015431361
 43
0.0000000001
 40
0.0
 40
0.0
 40
0.0
 40
0.0
 40
0.028678901026732
 40
0.0539122226269572
 40
0.0756853121767499
 40
0.093986794957544
 40
0.1091590786034747
 40
0.1237055023754289
 40
0.1574688348498426
 40
0.1904424626029713
 40
0.2127724733658338
 40
0.2337414870956291
 40
0.2533476760872576
 40
0.2738559978984575
 40
0.2978287229870526
 40
0.3252700217508947
 40
0.3550552565298659
 40
0.3829081500777888
 40
0.4084128588625761
 40
0.4315711791901586
 40
0.459383822332537
 40
0.4869916710283402
 40
0.4935633867343062
 40
0.4935633867343062
 40
0.4935633867343062
 40
0.4935633867343062
 10
9.120528718431151
 20
205.2674105192633
 30
0.0
 10
9.120907111443751
 20
205.1643137735851
 30
0.0
 10
9.121559456218419
 20
205.0016747640871
 30
0.0
 10
9.124295394824559
 20
204.7551440293237
 30
0.0
 10
9.127434212190733
 20
204.5525420044108
 30
0.0
 10
9.1306379354672
 20
204.3855299456065
 30
0.0
 10
9.133621136071614
 20
204.2495777385692
 30
0.0
 10
9.137872140815874
 20
204.0738016053674
 30
0.0
 10
9.143889192418591
 20
203.8566615719257
 30
0.0
 10
9.150999916859522
 20
203.6326692076311
 30
0.0
 10
9.15733647976516
 20
203.4488152602519
 30
0.0
 10
9.162624635621903
 20
203.303157821382
 30
0.0
 10
9.167739582560255
 20
203.1676436664933
 30
0.0
 10
9.17284820290686
 20
203.0363051611608
 30
0.0
 10
9.178271917467121
 20
202.9001370472712
 30
0.0
 10
9.184146481944513
 20
202.7550613111226
 30
0.0
 10
9.190052290572595
 20
202.6099328810935
 30
0.0
 10
9.195434919222311
 20
202.4763924987371
 30
0.0
 10
9.199917087780427
 20
202.3627037430512
 30
0.0
 10
9.20383102552664
 20
202.2601531027744
 30
0.0
 10
9.207095600624084
 20
202.1707101981089
 30
0.0
 10
9.209237655705971
 20
202.1080881315601
 30
0.0
 10
9.210265206323102
 20
202.0764278748659
 30
0.0
 10
9.210457002184382
 20
202.0704547421468
 30
0.0
  0
SPLINE
  5
1C1
330
1A1
100
AcDbEntity
  8
$DDT_AUDIT_GENERATED_(86)
  6
Continuous
 62
     7
100
AcDbSpline
210
0.0
220
0.0
230
1.0
 70
     8
 71
     3
 72
    27
 73
    23
 74
     0
 42
0.0000000015341377
 43
0.0000000001
 40
0.5116749044450138
 40
0.5116749044450138
 40
0.5116749044450138
 40
0.5116749044450138
 40
0.5122741847669312
 40
0.5390908643810444
 40
0.5660219984306245
 40
0.5955588868487873
 40
0.6289111979689349
 40
0.6528175063736188
 40
0.6776891049660999
 40
0.7005126834341194
 40
0.7209239984914394
 40
0.7389238703313469
 40
0.7550403297508319
 40
0.7894766068177899
 40
0.8276139506363239
 40
0.8675106213070787
 40
0.8834614975531766
 40
0.8995978711122394
 40
0.918386810589082
 40
0.9413935981266542
 40
0.9686042980446408
 40
1.0
 40
1.0
 40
1.0
 40
1.0
 10
54.0308919715589
 20
202.0848351021856
 30
0.0
 10
54.0309102999616
 20
202.0853957839212
 30
0.0
 10
54.03175094010592
 20
202.1110866695006
 30
0.0
 10
54.03361180566876
 20
202.1656806943017
 30
0.0
 10
54.03702315057014
 20
202.2595315155903
 30
0.0
 10
54.04164917656275
 20
202.3805984035495
 30
0.0
 10
54.04692338542623
 20
202.5132307193323
 30
0.0
 10
54.05238464222987
 20
202.6481240207577
 30
0.0
 10
54.05739608552673
 20
202.771323853069
 30
0.0
 10
54.0623266273285
 20
202.8931799703661
 30
0.0
 10
54.06692550894175
 20
203.0083716965021
 30
0.0
 10
54.07117979906776
 20
203.1169246923943
 30
0.0
 10
54.07683149054535
 20
203.2644654204713
 30
0.0
 10
54.08433340677971
 20
203.4686603160427
 30
0.0
 10
54.0935779065712
 20
203.7436634877535
 30
0.0
 10
54.10077770006362
 20
203.9893990421324
 30
0.0
 10
54.10578352564892
 20
204.1867520083685
 30
0.0
 10
54.10904146058086
 20
204.3283015688206
 30
0.0
 10
54.11251697557533
 20
204.4999248188944
 30
0.0
 10
54.11602783708016
 20
204.7126028217805
 30
0.0
 10
54.11917360257961
 20
204.9772563407035
 30
0.0
 10
54.11991737537134
 20
205.1537169766409
 30
0.0
 10
54.12035175731743
 20
205.2664130639832
 30
0.0
  0
LINE
  5
1C2
330
1A1
100
AcDbEntity
  8
$DDT_AUDIT_GENERATED_(86)
  6
Continuous
 62
     7
100
AcDbLine
 10
53.9633027867
 20
202.7588942056
 30
0.0
 11
53.9500718933
 21
202.8908065669
 31
0.0
  0
ARC
  5
1C3
330
1A1
100
AcDbEntity
  8
$DDT_AUDIT_GENERATED_(86)
  6
Continuous
 62
     7
100
AcDbCircle
 10
31.4383819922
 20
199.9917068657
 30
0.0
 40
22.69425880206716
100
AcDbArc
 50
270.4596324439
 51
7.0036957238
  0
ARC
  5
1C4
330
1A1
100
AcDbEntity
  8
$DDT_AUDIT_GENERATED_(86)
  6
Continuous
 62
     7
100
AcDbCircle
 10
31.8007222786
 20
199.993022231
 30
0.0
 40
22.6956663013924
100
AcDbArc
 50
172.6645660322
 51
269.5441587107
  0
ARC
  5
1C5
330
1A1
100
AcDbEntity
  8
$DDT_AUDIT_GENERATED_(86)
  6
Continuous
 62
     7
100
AcDbCircle
 10
31.7509717092
 20
205.0776979333
 30
0.0
 40
22.38908413489783
100
AcDbArc
 50
6.6567774082
 51
90.2754925148
  0
ENDBLK
  5
1C7
330
1A1
100
AcDbEntity
  8
0
100
AcDbBlockEnd
  0
ENDSEC
  0
SECTION
  2
ENTITIES
  0
ARC
  5
5E
330
1F
100
AcDbEntity
  8
Default
  6
Continuous
 62
     7
100
AcDbCircle
 10
196.5171764492
 20
345.8192107301
 30
0.0
 40
24.23846120837261
100
AcDbArc
 50
133.4183574053
 51
207.0382452545
  0
INSERT
  5
60
330
1F
100
AcDbEntity
  8
Default
100
AcDbBlockReference
  2
SEANNOT_GROUP
 10
0.0
 20
0.0
 30
0.0
  0
INSERT
  5
67
330
1F
100
AcDbEntity
  8
Default
100
AcDbBlockReference
  2
SEANNOT_GROUP1
 10
0.0
 20
0.0
 30
0.0
  0
LINE
  5
6C
330
1F
100
AcDbEntity
  8
Default
  6
Continuous
 62
     7
100
AcDbLine
 10
31.1819677736
 20
224.1104193045
 30
0.0
 11
31.8210592895
 21
224.1104195412
 31
0.0
  0
LINE
  5
6D
330
1F
100
AcDbEntity
  8
Default
  6
Continuous
 62
     7
100
AcDbLine
 10
31.6209815224
 20
224.1104194671
 30
0.0
 11
31.6209815224
 21
224.8561932722
 31
0.0
  0
INSERT
  5
6F
330
1F
100
AcDbEntity
  8
Default
100
AcDbBlockReference
  2
SEANNOT_GROUP2
 10
0.0
 20
0.0
 30
0.0
  0
INSERT
  5
75
330
1F
100
AcDbEntity
  8
Default
100
AcDbBlockReference
  2
SE
 10
0.0
 20
0.0
 30
0.0
  0
INSERT
  5
163
330
1F
100
AcDbEntity
  8
Default
100
AcDbBlockReference
  2
SE1
 10
0.0
 20
0.0
 30
0.0
  0
INSERT
  5
1A2
330
1F
100
AcDbEntity
  8
Default
100
AcDbBlockReference
  2
SE2
 10
0.0
 20
0.0
 30
0.0
  0
TEXT
  5
1C9
330
1F
100
AcDbEntity
  8
Default
  6
Continuous
 62
     7
100
AcDbText
 10
5.9362635081
 20
53.4225120485
 30
0.0
 40
10.0
  1
Grohe AG^J
  7
SEACAD_seiso_ttf
 11
5.9362635081
 21
63.4225120485
 31
0.0
100
AcDbText
 73
     3
  0
TEXT
  5
1CA
330
1F
100
AcDbEntity
  8
Default
  6
Continuous
 62
     7
100
AcDbText
 10
5.9362635081
 20
37.0588756849
 30
0.0
 40
10.0
  1
 
  7
SEACAD_seiso_ttf
 11
5.9362635081
 21
47.0588756849
 31
0.0
100
AcDbText
 73
     3
  0
TEXT
  5
1CB
330
1F
100
AcDbEntity
  8
Default
  6
Continuous
 62
     7
100
AcDbText
 10
5.9362635081
 20
20.6952393213
 30
0.0
 40
10.0
  1
ecn: 
  7
SEACAD_seiso_ttf
 11
5.9362635081
 21
30.6952393213
 31
0.0
100
AcDbText
 73
     3
  0
TEXT
  5
1CC
330
1F
100
AcDbEntity
  8
Default
  6
Continuous
 62
     7
100
AcDbText
 10
5.9362635081
 20
4.3316029576
 30
0.0
 40
10.0
  1
unit: mm
  7
SEACAD_seiso_ttf
 11
5.9362635081
 21
14.3316029576
 31
0.0
100
AcDbText
 73
     3
  0
LINE
  5
1CD
330
1F
100
AcDbEntity
  8
Default
  6
Continuous
 62
     7
100
AcDbLine
 10
0.0
 20
0.0
 30
0.0
 11
100.0
 21
0.0
 31
0.0
  0
LINE
  5
1CE
330
1F
100
AcDbEntity
  8
Default
  6
Continuous
 62
     7
100
AcDbLine
 10
0.0
 20
0.0
 30
0.0
 11
0.0
 21
100.0
 31
0.0
  0
TEXT
  5
1CF
330
1F
100
AcDbEntity
  8
Default
  6
Continuous
 62
     7
100
AcDbText
 10
24.3923665681
 20
-18.2375342018
 30
0.0
 40
10.0
  1
100 mm
  7
SEACAD_seiso_ttf
 11
24.3923665681
 21
-8.2375342018
 31
0.0
100
AcDbText
 73
     3
  0
TEXT
  5
1D0
330
1F
100
AcDbEntity
  8
Default
  6
Continuous
 62
     7
100
AcDbText
 10
-7.6150308803
 20
24.6231930421
 30
0.0
 40
10.0
  1
100 mm
 50
90.0
  7
SEACAD_seiso_ttf
 11
-17.6150308803
 21
24.6231930421
 31
0.0
100
AcDbText
 73
     3
  0
TEXT
  5
1D1
330
1F
100
AcDbEntity
  8
Default
  6
Continuous
 62
     7
100
AcDbText
 10
28.4878128572
 20
20.0907663715
 30
0.0
 40
10.0
  1
218555
  7
SEACAD_seiso_ttf
 11
28.4878128572
 21
30.0907663715
 31
0.0
100
AcDbText
 73
     3
  0
TEXT
  5
1D2
330
1F
100
AcDbEntity
  8
Default
  6
Continuous
 62
     7
100
AcDbText
 10
5.9012241913
 20
36.7242780188
 30
0.0
 40
10.0
  1
32207001
  7
SEACAD_seiso_ttf
 11
5.9012241913
 21
46.7242780188
 31
0.0
100
AcDbText
 73
     3
  0
ENDSEC
  0
SECTION
  2
OBJECTS
  0
DICTIONARY
  5
C
330
0
100
AcDbDictionary
281
     1
  3
ACAD_GROUP
350
D
  3
ACAD_LAYOUT
350
1A
  3
ACAD_MLEADERSTYLE
350
1D6
  3
ACAD_MLINESTYLE
350
17
  3
ACAD_PLOTSETTINGS
350
19
  3
ACAD_PLOTSTYLENAME
350
E
  3
ACAD_SCALELIST
350
3B
  3
ACAD_TABLESTYLE
350
1D5
  3
ACAD_VISUALSTYLE
350
2A
  3
AcDbVariableDictionary
350
1D3
  0
DICTIONARY
  5
D
102
{ACAD_REACTORS
330
C
102
}
330
C
100
AcDbDictionary
281
     1
  0
DICTIONARY
  5
1A
102
{ACAD_REACTORS
330
C
102
}
330
C
100
AcDbDictionary
281
     1
  3
Layout1
350
1E
  3
Model
350
22
  0
DICTIONARY
  5
1D6
102
{ACAD_REACTORS
330
C
102
}
330
C
100
AcDbDictionary
281
     1
  0
DICTIONARY
  5
17
102
{ACAD_REACTORS
330
C
102
}
330
C
100
AcDbDictionary
281
     1
  3
Standard
350
18
  0
DICTIONARY
  5
19
102
{ACAD_REACTORS
330
C
102
}
330
C
100
AcDbDictionary
281
     1
  0
ACDBDICTIONARYWDFLT
  5
E
102
{ACAD_REACTORS
330
C
102
}
330
C
100
AcDbDictionary
281
     1
  3
Normal
350
F
100
AcDbDictionaryWithDefault
340
F
  0
DICTIONARY
  5
3B
102
{ACAD_REACTORS
330
C
102
}
330
C
100
AcDbDictionary
281
     1
  3
A0
350
3C
  3
A1
350
3D
  3
A2
350
3E
  3
A3
350
3F
  3
A4
350
40
  3
A5
350
41
  3
A6
350
42
  3
A7
350
43
  3
A8
350
44
  3
A9
350
45
  3
B0
350
46
  3
B1
350
47
  3
B2
350
48
  3
B3
350
49
  3
B4
350
4A
  3
B5
350
4B
  3
B6
350
4C
  3
B7
350
4D
  3
B8
350
4E
  3
B9
350
4F
  3
C0
350
50
  3
C1
350
51
  3
C2
350
52
  3
C3
350
53
  3
C4
350
54
  3
C5
350
55
  3
C6
350
56
  3
C7
350
57
  3
C8
350
58
  3
C9
350
59
  3
D0
350
5A
  3
D1
350
5B
  3
D2
350
5C
  0
DICTIONARY
  5
1D5
102
{ACAD_REACTORS
330
C
102
}
330
C
100
AcDbDictionary
281
     1
  0
DICTIONARY
  5
2A
102
{ACAD_REACTORS
330
C
102
}
330
C
100
AcDbDictionary
281
     1
  3
2dWireframe
350
2F
  3
3D Hidden
350
31
  3
3dWireframe
350
30
  3
Basic
350
32
  3
Brighten
350
36
  3
ColorChange
350
3A
  3
Conceptual
350
34
  3
Dim
350
35
  3
Facepattern
350
39
  3
Flat
350
2B
  3
FlatWithEdges
350
2C
  3
Gouraud
350
2D
  3
GouraudWithEdges
350
2E
  3
Linepattern
350
38
  3
Realistic
350
33
  3
Thicken
350
37
  0
DICTIONARY
  5
1D3
102
{ACAD_REACTORS
330
C
102
}
330
C
100
AcDbDictionary
281
     1
  3
CANNOSCALE
350
1D4
  3
PSOLHEIGHT
350
1D8
  3
PSOLWIDTH
350
1D7
  0
LAYOUT
  5
1E
102
{ACAD_REACTORS
330
1A
102
}
330
1A
100
AcDbPlotSettings
  1

  2
none_device
  4

  6

 40
0.0
 41
0.0
 42
0.0
 43
0.0
 44
0.0
 45
0.0
 46
0.0
 47
0.0
 48
0.0
 49
0.0
140
0.0
141
0.0
142
1.0
143
1.0
 70
   688
 72
     0
 73
     0
 74
     5
  7

 75
    16
147
1.0
148
0.0
149
0.0
100
AcDbLayout
  1
Layout1
 70
     1
 71
     1
 10
0.0
 20
0.0
 11
1682.0
 21
2378.0
 12
0.0
 22
0.0
 32
0.0
 14
0.0
 24
0.0
 34
0.0
 15
1682.0
 25
2378.0
 35
0.0
146
0.0
 13
0.0
 23
0.0
 33
0.0
 16
1.0
 26
0.0
 36
0.0
 17
0.0
 27
1.0
 37
0.0
 76
     0
330
1B
  0
LAYOUT
  5
22
102
{ACAD_REACTORS
330
1A
102
}
330
1A
100
AcDbPlotSettings
  1

  2
none_device
  4

  6

 40
0.0
 41
0.0
 42
0.0
 43
0.0
 44
0.0
 45
0.0
 46
0.0
 47
0.0
 48
0.0
 49
0.0
140
0.0
141
0.0
142
1.0
143
1.0
 70
  1712
 72
     0
 73
     0
 74
     0
  7

 75
     0
147
1.0
148
0.0
149
0.0
100
AcDbLayout
  1
Model
 70
     1
 71
     0
 10
0.0
 20
0.0
 11
1682.0
 21
2378.0
 12
0.0
 22
0.0
 32
0.0
 14
0.0
 24
0.0
 34
0.0
 15
1682.0
 25
2378.0
 35
0.0
146
0.0
 13
0.0
 23
0.0
 33
0.0
 16
1.0
 26
0.0
 36
0.0
 17
0.0
 27
1.0
 37
0.0
 76
     0
330
1F
331
29
  0
MLINESTYLE
  5
18
102
{ACAD_REACTORS
330
17
102
}
330
17
100
AcDbMlineStyle
  2
Standard
 70
     0
  3

 62
   256
 51
90.0
 52
90.0
 71
     2
 49
0.5
 62
   256
  6
BYLAYER
 49
-0.5
 62
   256
  6
BYLAYER
  0
ACDBPLACEHOLDER
  5
F
102
{ACAD_REACTORS
330
E
102
}
330
E
  0
SCALE
  5
3C
102
{ACAD_REACTORS
330
3B
102
}
330
3B
100
AcDbScale
 70
     0
300
1:1
140
1.0
141
1.0
290
     1
  0
SCALE
  5
3D
102
{ACAD_REACTORS
330
3B
102
}
330
3B
100
AcDbScale
 70
     0
300
1:2
140
1.0
141
2.0
290
     0
  0
SCALE
  5
3E
102
{ACAD_REACTORS
330
3B
102
}
330
3B
100
AcDbScale
 70
     0
300
1:4
140
1.0
141
4.0
290
     0
  0
SCALE
  5
3F
102
{ACAD_REACTORS
330
3B
102
}
330
3B
100
AcDbScale
 70
     0
300
1:5
140
1.0
141
5.0
290
     0
  0
SCALE
  5
40
102
{ACAD_REACTORS
330
3B
102
}
330
3B
100
AcDbScale
 70
     0
300
1:8
140
1.0
141
8.0
290
     0
  0
SCALE
  5
41
102
{ACAD_REACTORS
330
3B
102
}
330
3B
100
AcDbScale
 70
     0
300
1:10
140
1.0
141
10.0
290
     0
  0
SCALE
  5
42
102
{ACAD_REACTORS
330
3B
102
}
330
3B
100
AcDbScale
 70
     0
300
1:16
140
1.0
141
16.0
290
     0
  0
SCALE
  5
43
102
{ACAD_REACTORS
330
3B
102
}
330
3B
100
AcDbScale
 70
     0
300
1:20
140
1.0
141
20.0
290
     0
  0
SCALE
  5
44
102
{ACAD_REACTORS
330
3B
102
}
330
3B
100
AcDbScale
 70
     0
300
1:30
140
1.0
141
30.0
290
     0
  0
SCALE
  5
45
102
{ACAD_REACTORS
330
3B
102
}
330
3B
100
AcDbScale
 70
     0
300
1:40
140
1.0
141
40.0
290
     0
  0
SCALE
  5
46
102
{ACAD_REACTORS
330
3B
102
}
330
3B
100
AcDbScale
 70
     0
300
1:50
140
1.0
141
50.0
290
     0
  0
SCALE
  5
47
102
{ACAD_REACTORS
330
3B
102
}
330
3B
100
AcDbScale
 70
     0
300
1:100
140
1.0
141
100.0
290
     0
  0
SCALE
  5
48
102
{ACAD_REACTORS
330
3B
102
}
330
3B
100
AcDbScale
 70
     0
300
2:1
140
2.0
141
1.0
290
     0
  0
SCALE
  5
49
102
{ACAD_REACTORS
330
3B
102
}
330
3B
100
AcDbScale
 70
     0
300
4:1
140
4.0
141
1.0
290
     0
  0
SCALE
  5
4A
102
{ACAD_REACTORS
330
3B
102
}
330
3B
100
AcDbScale
 70
     0
300
8:1
140
8.0
141
1.0
290
     0
  0
SCALE
  5
4B
102
{ACAD_REACTORS
330
3B
102
}
330
3B
100
AcDbScale
 70
     0
300
10:1
140
10.0
141
1.0
290
     0
  0
SCALE
  5
4C
102
{ACAD_REACTORS
330
3B
102
}
330
3B
100
AcDbScale
 70
     0
300
100:1
140
100.0
141
1.0
290
     0
  0
SCALE
  5
4D
102
{ACAD_REACTORS
330
3B
102
}
330
3B
100
AcDbScale
 70
     0
300
1/128" = 1'-0"
140
0.0078125
141
12.0
290
     0
  0
SCALE
  5
4E
102
{ACAD_REACTORS
330
3B
102
}
330
3B
100
AcDbScale
 70
     0
300
1/64" = 1'-0"
140
0.015625
141
12.0
290
     0
  0
SCALE
  5
4F
102
{ACAD_REACTORS
330
3B
102
}
330
3B
100
AcDbScale
 70
     0
300
1/32" = 1'-0"
140
0.03125
141
12.0
290
     0
  0
SCALE
  5
50
102
{ACAD_REACTORS
330
3B
102
}
330
3B
100
AcDbScale
 70
     0
300
1/16" = 1'-0"
140
0.0625
141
12.0
290
     0
  0
SCALE
  5
51
102
{ACAD_REACTORS
330
3B
102
}
330
3B
100
AcDbScale
 70
     0
300
3/32" = 1'-0"
140
0.09375
141
12.0
290
     0
  0
SCALE
  5
52
102
{ACAD_REACTORS
330
3B
102
}
330
3B
100
AcDbScale
 70
     0
300
1/8" = 1'-0"
140
0.125
141
12.0
290
     0
  0
SCALE
  5
53
102
{ACAD_REACTORS
330
3B
102
}
330
3B
100
AcDbScale
 70
     0
300
3/16" = 1'-0"
140
0.1875
141
12.0
290
     0
  0
SCALE
  5
54
102
{ACAD_REACTORS
330
3B
102
}
330
3B
100
AcDbScale
 70
     0
300
1/4" = 1'-0"
140
0.25
141
12.0
290
     0
  0
SCALE
  5
55
102
{ACAD_REACTORS
330
3B
102
}
330
3B
100
AcDbScale
 70
     0
300
3/8" = 1'-0"
140
0.375
141
12.0
290
     0
  0
SCALE
  5
56
102
{ACAD_REACTORS
330
3B
102
}
330
3B
100
AcDbScale
 70
     0
300
1/2" = 1'-0"
140
0.5
141
12.0
290
     0
  0
SCALE
  5
57
102
{ACAD_REACTORS
330
3B
102
}
330
3B
100
AcDbScale
 70
     0
300
3/4" = 1'-0"
140
0.75
141
12.0
290
     0
  0
SCALE
  5
58
102
{ACAD_REACTORS
330
3B
102
}
330
3B
100
AcDbScale
 70
     0
300
1" = 1'-0"
140
1.0
141
12.0
290
     0
  0
SCALE
  5
59
102
{ACAD_REACTORS
330
3B
102
}
330
3B
100
AcDbScale
 70
     0
300
1-1/2" = 1'-0"
140
1.5
141
12.0
290
     0
  0
SCALE
  5
5A
102
{ACAD_REACTORS
330
3B
102
}
330
3B
100
AcDbScale
 70
     0
300
3" = 1'-0"
140
3.0
141
12.0
290
     0
  0
SCALE
  5
5B
102
{ACAD_REACTORS
330
3B
102
}
330
3B
100
AcDbScale
 70
     0
300
6" = 1'-0"
140
6.0
141
12.0
290
     0
  0
SCALE
  5
5C
102
{ACAD_REACTORS
330
3B
102
}
330
3B
100
AcDbScale
 70
     0
300
1'-0" = 1'-0"
140
12.0
141
12.0
290
     0
  0
VISUALSTYLE
  5
2F
102
{ACAD_REACTORS
330
2A
102
}
330
2A
100
AcDbVisualStyle
  2
2dWireframe
 70
     4
 71
     0
 72
     2
 73
     0
 90
        0
 40
-0.6
 41
-30.0
 62
     5
 63
     7
 74
     1
 91
        4
 64
     7
 65
   257
 75
     1
175
     1
 42
1.0
 92
        0
 66
   257
 43
1.0
 76
     1
 77
     6
 78
     2
 67
     7
 79
     5
170
     0
171
     0
290
     0
174
     0
 93
        1
 44
0.0
173
     0
291
     0
 45
0.0
1001
ACAD
1000
AcDbSavedByObjectVersion
1070
     0
  0
VISUALSTYLE
  5
31
102
{ACAD_REACTORS
330
2A
102
}
330
2A
100
AcDbVisualStyle
  2
3D Hidden
 70
     6
 71
     1
 72
     2
 73
     2
 90
        0
 40
-0.6
 41
-30.0
 62
     5
 63
     7
 74
     2
 91
        2
 64
     7
 65
   257
 75
     2
175
     1
 42
40.0
 92
        0
 66
   257
 43
1.0
 76
     1
 77
     6
 78
     2
 67
     7
 79
     3
170
     0
171
     0
290
     0
174
     0
 93
        1
 44
0.0
173
     0
291
     0
 45
0.0
1001
ACAD
1000
AcDbSavedByObjectVersion
1070
     0
  0
VISUALSTYLE
  5
30
102
{ACAD_REACTORS
330
2A
102
}
330
2A
100
AcDbVisualStyle
  2
3dWireframe
 70
     5
 71
     0
 72
     2
 73
     0
 90
        0
 40
-0.6
 41
-30.0
 62
     5
 63
     7
 74
     1
 91
        4
 64
     7
 65
   257
 75
     1
175
     1
 42
1.0
 92
        0
 66
   257
 43
1.0
 76
     1
 77
     6
 78
     2
 67
     7
 79
     5
170
     0
171
     0
290
     0
174
     0
 93
        1
 44
0.0
173
     0
291
     0
 45
0.0
1001
ACAD
1000
AcDbSavedByObjectVersion
1070
     0
  0
VISUALSTYLE
  5
32
102
{ACAD_REACTORS
330
2A
102
}
330
2A
100
AcDbVisualStyle
  2
Basic
 70
     7
 71
     1
 72
     0
 73
     1
 90
        0
 40
-0.6
 41
-30.0
 62
     5
 63
     7
 74
     0
 91
        4
 64
     7
 65
   257
 75
     1
175
     1
 42
1.0
 92
        8
 66
     7
 43
1.0
 76
     1
 77
     6
 78
     2
 67
     7
 79
     5
170
     0
171
     0
290
     0
174
     0
 93
        1
 44
0.0
173
     0
291
     1
 45
0.0
1001
ACAD
1000
AcDbSavedByObjectVersion
1070
     0
  0
VISUALSTYLE
  5
36
102
{ACAD_REACTORS
330
2A
102
}
330
2A
100
AcDbVisualStyle
  2
Brighten
 70
    12
 71
     2
 72
     2
 73
     0
 90
        0
 40
-0.6
 41
-30.0
 62
     5
 63
     7
 74
     1
 91
        4
 64
     7
 65
   257
 75
     1
175
     1
 42
1.0
 92
        8
 66
     7
 43
1.0
 76
     1
 77
     6
 78
     2
 67
     7
 79
     5
170
     0
171
     0
290
     0
174
     0
 93
        1
 44
50.0
173
     0
291
     1
 45
0.0
1001
ACAD
1000
AcDbSavedByObjectVersion
1070
     0
  0
VISUALSTYLE
  5
3A
102
{ACAD_REACTORS
330
2A
102
}
330
2A
100
AcDbVisualStyle
  2
ColorChange
 70
    16
 71
     2
 72
     2
 73
     3
 90
        0
 40
-0.6
 41
-30.0
 62
     5
 63
     8
 74
     1
 91
        4
 64
     7
 65
   257
 75
     1
175
     1
 42
1.0
 92
        8
 66
     8
 43
1.0
 76
     1
 77
     6
 78
     2
 67
     7
 79
     5
170
     0
171
     0
290
     0
174
     0
 93
        1
 44
0.0
173
     0
291
     1
 45
0.0
1001
ACAD
1000
AcDbSavedByObjectVersion
1070
     0
  0
VISUALSTYLE
  5
34
102
{ACAD_REACTORS
330
2A
102
}
330
2A
100
AcDbVisualStyle
  2
Conceptual
 70
     9
 71
     3
 72
     2
 73
     0
 90
        0
 40
-0.6
 41
-30.0
 62
     5
 63
     7
 74
     2
 91
        2
 64
     7
 65
   257
 75
     1
175
     1
 42
40.0
 92
        8
 66
     7
 43
1.0
 76
     1
 77
     6
 78
     2
 67
     7
 79
     3
170
     0
171
     0
290
     0
174
     0
 93
        1
 44
0.0
173
     0
291
     0
 45
0.0
1001
ACAD
1000
AcDbSavedByObjectVersion
1070
     0
  0
VISUALSTYLE
  5
35
102
{ACAD_REACTORS
330
2A
102
}
330
2A
100
AcDbVisualStyle
  2
Dim
 70
    11
 71
     2
 72
     2
 73
     0
 90
        0
 40
-0.6
 41
-30.0
 62
     5
 63
     7
 74
     1
 91
        4
 64
     7
 65
   257
 75
     1
175
     1
 42
1.0
 92
        8
 66
     7
 43
1.0
 76
     1
 77
     6
 78
     2
 67
     7
 79
     5
170
     0
171
     0
290
     0
174
     0
 93
        1
 44
-50.0
173
     0
291
     1
 45
0.0
1001
ACAD
1000
AcDbSavedByObjectVersion
1070
     0
  0
VISUALSTYLE
  5
39
102
{ACAD_REACTORS
330
2A
102
}
330
2A
100
AcDbVisualStyle
  2
Facepattern
 70
    15
 71
     2
 72
     2
 73
     0
 90
        0
 40
-0.6
 41
-30.0
 62
     5
 63
     7
 74
     1
 91
        4
 64
     7
 65
   257
 75
     1
175
     1
 42
1.0
 92
        8
 66
     7
 43
1.0
 76
     1
 77
     6
 78
     2
 67
     7
 79
     5
170
     0
171
     0
290
     0
174
     0
 93
        1
 44
0.0
173
     0
291
     1
 45
0.0
1001
ACAD
1000
AcDbSavedByObjectVersion
1070
     0
  0
VISUALSTYLE
  5
2B
102
{ACAD_REACTORS
330
2A
102
}
330
2A
100
AcDbVisualStyle
  2
Flat
 70
     0
 71
     2
 72
     1
 73
     1
 90
        2
 40
-0.6
 41
30.0
 62
     5
 63
     7
 74
     0
 91
        4
 64
     7
 65
   257
 75
     1
175
     1
 42
1.0
 92
        8
 66
     7
 43
1.0
 76
     1
 77
     6
 78
     2
 67
     7
 79
     5
170
     0
171
     0
290
     0
174
     0
 93
       13
 44
0.0
173
     0
291
     1
 45
0.0
1001
ACAD
1000
AcDbSavedByObjectVersion
1070
     0
  0
VISUALSTYLE
  5
2C
102
{ACAD_REACTORS
330
2A
102
}
330
2A
100
AcDbVisualStyle
  2
FlatWithEdges
 70
     1
 71
     2
 72
     1
 73
     1
 90
        2
 40
-0.6
 41
30.0
 62
     5
 63
     7
 74
     1
 91
        4
 64
     7
 65
   257
 75
     1
175
     1
 42
1.0
 92
        0
 66
   257
 43
1.0
 76
     1
 77
     6
 78
     2
 67
     7
 79
     5
170
     0
171
     0
290
     0
174
     0
 93
       13
 44
0.0
173
     0
291
     1
 45
0.0
1001
ACAD
1000
AcDbSavedByObjectVersion
1070
     0
  0
VISUALSTYLE
  5
2D
102
{ACAD_REACTORS
330
2A
102
}
330
2A
100
AcDbVisualStyle
  2
Gouraud
 70
     2
 71
     2
 72
     2
 73
     1
 90
        2
 40
-0.6
 41
30.0
 62
     5
 63
     7
 74
     0
 91
        4
 64
     7
 65
   257
 75
     1
175
     1
 42
1.0
 92
        0
 66
     7
 43
1.0
 76
     1
 77
     6
 78
     2
 67
     7
 79
     5
170
     0
171
     0
290
     0
174
     0
 93
       13
 44
0.0
173
     0
291
     1
 45
0.0
1001
ACAD
1000
AcDbSavedByObjectVersion
1070
     0
  0
VISUALSTYLE
  5
2E
102
{ACAD_REACTORS
330
2A
102
}
330
2A
100
AcDbVisualStyle
  2
GouraudWithEdges
 70
     3
 71
     2
 72
     2
 73
     1
 90
        2
 40
-0.6
 41
30.0
 62
     5
 63
     7
 74
     1
 91
        4
 64
     7
 65
   257
 75
     1
175
     1
 42
1.0
 92
        0
 66
   257
 43
1.0
 76
     1
 77
     6
 78
     2
 67
     7
 79
     5
170
     0
171
     0
290
     0
174
     0
 93
       13
 44
0.0
173
     0
291
     1
 45
0.0
1001
ACAD
1000
AcDbSavedByObjectVersion
1070
     0
  0
VISUALSTYLE
  5
38
102
{ACAD_REACTORS
330
2A
102
}
330
2A
100
AcDbVisualStyle
  2
Linepattern
 70
    14
 71
     2
 72
     2
 73
     0
 90
        0
 40
-0.6
 41
-30.0
 62
     5
 63
     7
 74
     1
 91
        4
 64
     7
 65
   257
 75
     7
175
     7
 42
1.0
 92
        8
 66
     7
 43
1.0
 76
     1
 77
     6
 78
     2
 67
     7
 79
     5
170
     0
171
     0
290
     0
174
     0
 93
        1
 44
0.0
173
     0
291
     1
 45
0.0
1001
ACAD
1000
AcDbSavedByObjectVersion
1070
     0
  0
VISUALSTYLE
  5
33
102
{ACAD_REACTORS
330
2A
102
}
330
2A
100
AcDbVisualStyle
  2
Realistic
 70
     8
 71
     2
 72
     2
 73
     0
 90
        0
 40
-0.6
 41
-30.0
 62
     5
 63
     7
 74
     1
 91
        0
 64
     7
 65
   257
 75
     1
175
     1
 42
1.0
 92
        8
 66
     8
 43
1.0
 76
     1
 77
     6
 78
     2
 67
     7
 79
     5
170
     0
171
     0
290
     0
174
     0
 93
       13
 44
0.0
173
     0
291
     0
 45
0.0
1001
ACAD
1000
AcDbSavedByObjectVersion
1070
     0
  0
VISUALSTYLE
  5
37
102
{ACAD_REACTORS
330
2A
102
}
330
2A
100
AcDbVisualStyle
  2
Thicken
 70
    13
 71
     2
 72
     2
 73
     0
 90
        0
 40
-0.6
 41
-30.0
 62
     5
 63
     7
 74
     1
 91
        4
 64
     7
 65
   257
 75
     1
175
     1
 42
1.0
 92
       12
 66
     7
 43
1.0
 76
     1
 77
     6
 78
     2
 67
     7
 79
     5
170
     0
171
     0
290
     0
174
     0
 93
        1
 44
0.0
173
     0
291
     1
 45
0.0
1001
ACAD
1000
AcDbSavedByObjectVersion
1070
     0
  0
DICTIONARYVAR
  5
1D4
102
{ACAD_REACTORS
330
1D3
102
}
330
1D3
100
DictionaryVariables
280
     0
  1
1:1
  0
DICTIONARYVAR
  5
1D8
102
{ACAD_REACTORS
330
1D3
102
}
330
1D3
100
DictionaryVariables
280
     0
  1
80.000000
  0
DICTIONARYVAR
  5
1D7
102
{ACAD_REACTORS
330
1D3
102
}
330
1D3
100
DictionaryVariables
280
     0
  1
5.000000
  0
ENDSEC
  0
EOF
