  0
SECTION
  2
HEADER
  9
$ACADVER
  1
AC1021
  9
$ACADMAINTVER
 70
    25
  9
$DWGCODEPAGE
  3
UNDEFINED
  9
$INSBASE
 10
0.0
 20
0.0
 30
0.0
  9
$EXTMIN
 10
1.000000000000000E+20
 20
1.000000000000000E+20
 30
1.000000000000000E+20
  9
$EXTMAX
 10
-1.000000000000000E+20
 20
-1.000000000000000E+20
 30
-1.000000000000000E+20
  9
$LIMMIN
 10
0.0
 20
0.0
  9
$LIMMAX
 10
12.0
 20
9.0
  9
$ORTHOMODE
 70
     0
  9
$REGENMODE
 70
     1
  9
$FILLMODE
 70
     1
  9
$QTEXTMODE
 70
     0
  9
$MIRRTEXT
 70
     1
  9
$LTSCALE
 40
1.0
  9
$ATTMODE
 70
     1
  9
$TEXTSIZE
 40
0.2
  9
$TRACEWID
 40
0.05
  9
$TEXTSTYLE
  7
Standard
  9
$CLAYER
  8
0
  9
$CELTYPE
  6
ByLayer
  9
$CECOLOR
 62
   256
  9
$CELTSCALE
 40
1.0
  9
$DISPSILH
 70
     0
  9
$DIMSCALE
 40
1.0
  9
$DIMASZ
 40
0.18
  9
$DIMEXO
 40
0.0625
  9
$DIMDLI
 40
0.38
  9
$DIMRND
 40
0.0
  9
$DIMDLE
 40
0.0
  9
$DIMEXE
 40
0.18
  9
$DIMTP
 40
0.0
  9
$DIMTM
 40
0.0
  9
$DIMTXT
 40
0.18
  9
$DIMCEN
 40
0.09
  9
$DIMTSZ
 40
0.0
  9
$DIMTOL
 70
     0
  9
$DIMLIM
 70
     0
  9
$DIMTIH
 70
     1
  9
$DIMTOH
 70
     1
  9
$DIMSE1
 70
     0
  9
$DIMSE2
 70
     0
  9
$DIMTAD
 70
     0
  9
$DIMZIN
 70
     0
  9
$DIMBLK
  1

  9
$DIMASO
 70
     1
  9
$DIMSHO
 70
     1
  9
$DIMPOST
  1

  9
$DIMAPOST
  1

  9
$DIMALT
 70
     0
  9
$DIMALTD
 70
     2
  9
$DIMALTF
 40
25.4
  9
$DIMLFAC
 40
1.0
  9
$DIMTOFL
 70
     0
  9
$DIMTVP
 40
0.0
  9
$DIMTIX
 70
     0
  9
$DIMSOXD
 70
     0
  9
$DIMSAH
 70
     0
  9
$DIMBLK1
  1

  9
$DIMBLK2
  1

  9
$DIMSTYLE
  2
Standard
  9
$DIMCLRD
 70
     0
  9
$DIMCLRE
 70
     0
  9
$DIMCLRT
 70
     0
  9
$DIMTFAC
 40
1.0
  9
$DIMGAP
 40
0.09
  9
$DIMJUST
 70
     0
  9
$DIMSD1
 70
     0
  9
$DIMSD2
 70
     0
  9
$DIMTOLJ
 70
     1
  9
$DIMTZIN
 70
     0
  9
$DIMALTZ
 70
     0
  9
$DIMALTTZ
 70
     0
  9
$DIMUPT
 70
     0
  9
$DIMDEC
 70
     4
  9
$DIMTDEC
 70
     4
  9
$DIMALTU
 70
     2
  9
$DIMALTTD
 70
     2
  9
$DIMTXSTY
  7
Standard
  9
$DIMAUNIT
 70
     0
  9
$DIMADEC
 70
     0
  9
$DIMALTRND
 40
0.0
  9
$DIMAZIN
 70
     0
  9
$DIMDSEP
 70
    46
  9
$DIMATFIT
 70
     3
  9
$DIMFRAC
 70
     0
  9
$DIMLDRBLK
  1

  9
$DIMLUNIT
 70
     2
  9
$DIMLWD
 70
    -2
  9
$DIMLWE
 70
    -2
  9
$DIMTMOVE
 70
     0
  9
$DIMFXL
 40
1.0
  9
$DIMFXLON
 70
     0
  9
$DIMJOGANG
 40
0.7853981633974483
  9
$DIMTFILL
 70
     0
  9
$DIMTFILLCLR
 70
     0
  9
$DIMARCSYM
 70
     0
  9
$DIMLTYPE
  6

  9
$DIMLTEX1
  6

  9
$DIMLTEX2
  6

  9
$LUNITS
 70
     2
  9
$LUPREC
 70
     4
  9
$SKETCHINC
 40
0.1
  9
$FILLETRAD
 40
0.5
  9
$AUNITS
 70
     0
  9
$AUPREC
 70
     0
  9
$MENU
  1
.
  9
$ELEVATION
 40
0.0
  9
$PELEVATION
 40
0.0
  9
$THICKNESS
 40
0.0
  9
$LIMCHECK
 70
     0
  9
$CHAMFERA
 40
0.5
  9
$CHAMFERB
 40
0.5
  9
$CHAMFERC
 40
1.0
  9
$CHAMFERD
 40
0.0
  9
$SKPOLY
 70
     0
  9
$TDCREATE
 40
2459380.407939803
  9
$TDUCREATE
 40
2459380.366273148
  9
$TDUPDATE
 40
2459380.407939803
  9
$TDUUPDATE
 40
2459380.366273148
  9
$TDINDWG
 40
0.0000000116
  9
$TDUSRTIMER
 40
0.0000000116
  9
$USRTIMER
 70
     1
  9
$ANGBASE
 50
0.0
  9
$ANGDIR
 70
     0
  9
$PDMODE
 70
     0
  9
$PDSIZE
 40
0.0
  9
$PLINEWID
 40
0.0
  9
$SPLFRAME
 70
     0
  9
$SPLINETYPE
 70
     6
  9
$SPLINESEGS
 70
     8
  9
$HANDSEED
  5
270
  9
$SURFTAB1
 70
     6
  9
$SURFTAB2
 70
     6
  9
$SURFTYPE
 70
     6
  9
$SURFU
 70
     6
  9
$SURFV
 70
     6
  9
$UCSBASE
  2

  9
$UCSNAME
  2

  9
$UCSORG
 10
0.0
 20
0.0
 30
0.0
  9
$UCSXDIR
 10
1.0
 20
0.0
 30
0.0
  9
$UCSYDIR
 10
0.0
 20
1.0
 30
0.0
  9
$UCSORTHOREF
  2

  9
$UCSORTHOVIEW
 70
     0
  9
$UCSORGTOP
 10
0.0
 20
0.0
 30
0.0
  9
$UCSORGBOTTOM
 10
0.0
 20
0.0
 30
0.0
  9
$UCSORGLEFT
 10
0.0
 20
0.0
 30
0.0
  9
$UCSORGRIGHT
 10
0.0
 20
0.0
 30
0.0
  9
$UCSORGFRONT
 10
0.0
 20
0.0
 30
0.0
  9
$UCSORGBACK
 10
0.0
 20
0.0
 30
0.0
  9
$PUCSBASE
  2

  9
$PUCSNAME
  2

  9
$PUCSORG
 10
0.0
 20
0.0
 30
0.0
  9
$PUCSXDIR
 10
1.0
 20
0.0
 30
0.0
  9
$PUCSYDIR
 10
0.0
 20
1.0
 30
0.0
  9
$PUCSORTHOREF
  2

  9
$PUCSORTHOVIEW
 70
     0
  9
$PUCSORGTOP
 10
0.0
 20
0.0
 30
0.0
  9
$PUCSORGBOTTOM
 10
0.0
 20
0.0
 30
0.0
  9
$PUCSORGLEFT
 10
0.0
 20
0.0
 30
0.0
  9
$PUCSORGRIGHT
 10
0.0
 20
0.0
 30
0.0
  9
$PUCSORGFRONT
 10
0.0
 20
0.0
 30
0.0
  9
$PUCSORGBACK
 10
0.0
 20
0.0
 30
0.0
  9
$USERI1
 70
     0
  9
$USERI2
 70
     0
  9
$USERI3
 70
     0
  9
$USERI4
 70
     0
  9
$USERI5
 70
     0
  9
$USERR1
 40
0.0
  9
$USERR2
 40
0.0
  9
$USERR3
 40
0.0
  9
$USERR4
 40
0.0
  9
$USERR5
 40
0.0
  9
$WORLDVIEW
 70
     1
  9
$SHADEDGE
 70
     3
  9
$SHADEDIF
 70
    70
  9
$TILEMODE
 70
     1
  9
$MAXACTVP
 70
    64
  9
$PINSBASE
 10
0.0
 20
0.0
 30
0.0
  9
$PLIMCHECK
 70
     0
  9
$PEXTMIN
 10
1.000000000000000E+20
 20
1.000000000000000E+20
 30
1.000000000000000E+20
  9
$PEXTMAX
 10
-1.000000000000000E+20
 20
-1.000000000000000E+20
 30
-1.000000000000000E+20
  9
$PLIMMIN
 10
0.0
 20
0.0
  9
$PLIMMAX
 10
12.0
 20
9.0
  9
$UNITMODE
 70
     0
  9
$VISRETAIN
 70
     1
  9
$PLINEGEN
 70
     0
  9
$PSLTSCALE
 70
     1
  9
$TREEDEPTH
 70
  3020
  9
$CMLSTYLE
  2
Standard
  9
$CMLJUST
 70
     0
  9
$CMLSCALE
 40
1.0
  9
$PROXYGRAPHICS
 70
     1
  9
$MEASUREMENT
 70
     0
  9
$CELWEIGHT
370
    -1
  9
$ENDCAPS
280
     0
  9
$JOINSTYLE
280
     0
  9
$LWDISPLAY
290
     1
  9
$INSUNITS
 70
     1
  9
$HYPERLINKBASE
  1

  9
$STYLESHEET
  1

  9
$XEDIT
290
     1
  9
$CEPSNTYPE
380
     0
  9
$PSTYLEMODE
290
     1
  9
$FINGERPRINTGUID
  2
{52D5836C-F2EF-4695-4808-0F5FD593E8B8}
  9
$VERSIONGUID
  2
{FAEB1C32-E019-11D5-929B-00C0DF256EC4}
  9
$EXTNAMES
290
     1
  9
$PSVPSCALE
 40
0.0
  9
$OLESTARTUP
290
     0
  9
$SORTENTS
280
   127
  9
$INDEXCTL
280
     0
  9
$HIDETEXT
280
     1
  9
$XCLIPFRAME
290
     0
  9
$HALOGAP
280
     0
  9
$OBSCOLOR
 70
   257
  9
$OBSLTYPE
280
     0
  9
$INTERSECTIONDISPLAY
280
     0
  9
$INTERSECTIONCOLOR
 70
   257
  9
$DIMASSOC
280
     2
  9
$PROJECTNAME
  1

  9
$CAMERADISPLAY
290
     0
  9
$LENSLENGTH
 40
50.0
  9
$CAMERAHEIGHT
 40
0.0
  9
$STEPSPERSEC
 40
2.0
  9
$STEPSIZE
 40
6.0
  9
$3DDWFPREC
 40
2.0
  9
$PSOLWIDTH
 40
0.25
  9
$PSOLHEIGHT
 40
4.0
  9
$LOFTANG1
 40
1.570796326794897
  9
$LOFTANG2
 40
1.570796326794897
  9
$LOFTMAG1
 40
0.0
  9
$LOFTMAG2
 40
0.0
  9
$LOFTPARAM
 70
     7
  9
$LOFTNORMALS
280
     1
  9
$LATITUDE
 40
37.795
  9
$LONGITUDE
 40
-122.394
  9
$NORTHDIRECTION
 40
0.0
  9
$TIMEZONE
 70
 -8000
  9
$LIGHTGLYPHDISPLAY
280
     1
  9
$TILEMODELIGHTSYNCH
280
     1
  9
$CMATERIAL
347
3C
  9
$SOLIDHIST
280
     1
  9
$SHOWHIST
280
     1
  9
$DWFFRAME
280
     2
  9
$DGNFRAME
280
     2
  9
$REALWORLDSCALE
290
     1
  9
$INTERFERECOLOR
 62
   256
  9
$CSHADOW
280
     0
  9
$SHADOWPLANELOCATION
 40
0.0
  0
ENDSEC
  0
SECTION
  2
CLASSES
  0
CLASS
  1
ACDBDICTIONARYWDFLT
  2
AcDbDictionaryWithDefault
  3
ObjectDBX Classes
 90
        0
 91
        4
280
     0
281
     0
  0
CLASS
  1
VISUALSTYLE
  2
AcDbVisualStyle
  3
ObjectDBX Classes
 90
     4095
 91
        4
280
     0
281
     0
  0
CLASS
  1
MATERIAL
  2
AcDbMaterial
  3
ObjectDBX Classes
 90
     1153
 91
        4
280
     0
281
     0
  0
CLASS
  1
SUN
  2
AcDbSun
  3
SCENEOE
 90
     1024
 91
        4
280
     0
281
     0
  0
ENDSEC
  0
SECTION
  2
TABLES
  0
TABLE
  2
VPORT
  5
8
330
0
100
AcDbSymbolTable
 70
     1
  0
VPORT
  5
29
330
8
100
AcDbSymbolTableRecord
100
AcDbViewportTableRecord
  2
*Active
 70
     0
 10
0.0
 20
0.0
 11
1.0
 21
1.0
 12
0.0
 22
0.0
 13
0.0
 23
0.0
 14
0.5
 24
0.5
 15
0.5
 25
0.5
 16
0.0
 26
0.0
 36
1.0
 17
105.0007777515277
 27
148.5000416295417
 37
0.0
 40
297.0000832590835
 41
0.7070757462376325
 42
50.0
 43
0.0
 44
0.0
 50
0.0
 51
0.0
 71
     0
 72
   100
 73
     1
 74
     3
 75
     0
 76
     0
 77
     0
 78
     0
281
     0
 65
     1
110
0.0
120
0.0
130
0.0
111
1.0
121
0.0
131
0.0
112
0.0
122
1.0
132
0.0
 79
     0
146
0.0
 60
     3
 61
     5
292
     1
282
     1
141
0.0
142
0.0
 63
   250
361
3F
  0
ENDTAB
  0
TABLE
  2
LTYPE
  5
5
330
0
100
AcDbSymbolTable
 70
    39
  0
LTYPE
  5
14
330
5
100
AcDbSymbolTableRecord
100
AcDbLinetypeTableRecord
  2
ByBlock
 70
     0
  3

 72
    65
 73
     0
 40
0.0
  0
LTYPE
  5
15
330
5
100
AcDbSymbolTableRecord
100
AcDbLinetypeTableRecord
  2
ByLayer
 70
     0
  3

 72
    65
 73
     0
 40
0.0
  0
LTYPE
  5
16
330
5
100
AcDbSymbolTableRecord
100
AcDbLinetypeTableRecord
  2
Continuous
 70
     0
  3
Solid line
 72
    65
 73
     0
 40
0.0
  0
LTYPE
  5
4A
330
5
100
AcDbSymbolTableRecord
100
AcDbLinetypeTableRecord
  2
AI-Linetype-1
 70
     0
  3
Adobe Illustrator Linetype No. 1
 72
    65
 73
     2
 40
7.270862246391072
 49
3.635375106750391
 74
     0
 49
-3.635487139640682
 74
     0
  0
LTYPE
  5
55
330
5
100
AcDbSymbolTableRecord
100
AcDbLinetypeTableRecord
  2
AI-Linetype-2
 70
     0
  3
Adobe Illustrator Linetype No. 2
 72
    65
 73
     2
 40
7.270862246391072
 49
3.635375106750391
 74
     0
 49
-3.635487139640682
 74
     0
  0
LTYPE
  5
65
330
5
100
AcDbSymbolTableRecord
100
AcDbLinetypeTableRecord
  2
AI-Linetype-3
 70
     0
  3
Adobe Illustrator Linetype No. 3
 72
    65
 73
     2
 40
7.270862246391072
 49
3.635375106750391
 74
     0
 49
-3.635487139640682
 74
     0
  0
LTYPE
  5
74
330
5
100
AcDbSymbolTableRecord
100
AcDbLinetypeTableRecord
  2
AI-Linetype-4
 70
     0
  3
Adobe Illustrator Linetype No. 4
 72
    65
 73
     2
 40
7.177289550364457
 49
3.588589431607295
 74
     0
 49
-3.588700118757163
 74
     0
  0
LTYPE
  5
84
330
5
100
AcDbSymbolTableRecord
100
AcDbLinetypeTableRecord
  2
AI-Linetype-5
 70
     0
  3
Adobe Illustrator Linetype No. 5
 72
    65
 73
     2
 40
7.177243122319832
 49
3.588566217584982
 74
     0
 49
-3.58867690473485
 74
     0
  0
LTYPE
  5
8B
330
5
100
AcDbSymbolTableRecord
100
AcDbLinetypeTableRecord
  2
AI-Linetype-6
 70
     0
  3
Adobe Illustrator Linetype No. 6
 72
    65
 73
     2
 40
7.270862246391072
 49
3.635375106750391
 74
     0
 49
-3.635487139640682
 74
     0
  0
LTYPE
  5
96
330
5
100
AcDbSymbolTableRecord
100
AcDbLinetypeTableRecord
  2
AI-Linetype-7
 70
     0
  3
Adobe Illustrator Linetype No. 7
 72
    65
 73
     2
 40
7.270862246391072
 49
3.635375106750391
 74
     0
 49
-3.635487139640682
 74
     0
  0
LTYPE
  5
9C
330
5
100
AcDbSymbolTableRecord
100
AcDbLinetypeTableRecord
  2
AI-Linetype-8
 70
     0
  3
Adobe Illustrator Linetype No. 8
 72
    65
 73
     2
 40
7.270862246391072
 49
3.635375106750391
 74
     0
 49
-3.635487139640682
 74
     0
  0
LTYPE
  5
AC
330
5
100
AcDbSymbolTableRecord
100
AcDbLinetypeTableRecord
  2
AI-Linetype-9
 70
     0
  3
Adobe Illustrator Linetype No. 9
 72
    65
 73
     2
 40
7.270862246391072
 49
3.635375106750391
 74
     0
 49
-3.635487139640682
 74
     0
  0
LTYPE
  5
B2
330
5
100
AcDbSymbolTableRecord
100
AcDbLinetypeTableRecord
  2
AI-Linetype-10
 70
     0
  3
Adobe Illustrator Linetype No. 10
 72
    65
 73
     2
 40
7.270862246391072
 49
3.635375106750391
 74
     0
 49
-3.635487139640682
 74
     0
  0
LTYPE
  5
B8
330
5
100
AcDbSymbolTableRecord
100
AcDbLinetypeTableRecord
  2
AI-Linetype-11
 70
     0
  3
Adobe Illustrator Linetype No. 11
 72
    65
 73
     2
 40
7.270862246391072
 49
3.635375106750391
 74
     0
 49
-3.635487139640682
 74
     0
  0
LTYPE
  5
BE
330
5
100
AcDbSymbolTableRecord
100
AcDbLinetypeTableRecord
  2
AI-Linetype-12
 70
     0
  3
Adobe Illustrator Linetype No. 12
 72
    65
 73
     2
 40
7.270862246391072
 49
3.635375106750391
 74
     0
 49
-3.635487139640682
 74
     0
  0
LTYPE
  5
CE
330
5
100
AcDbSymbolTableRecord
100
AcDbLinetypeTableRecord
  2
AI-Linetype-13
 70
     0
  3
Adobe Illustrator Linetype No. 13
 72
    65
 73
     2
 40
7.270862246391072
 49
3.635375106750391
 74
     0
 49
-3.635487139640682
 74
     0
  0
LTYPE
  5
D4
330
5
100
AcDbSymbolTableRecord
100
AcDbLinetypeTableRecord
  2
AI-Linetype-14
 70
     0
  3
Adobe Illustrator Linetype No. 14
 72
    65
 73
     2
 40
7.270862246391072
 49
3.635375106750391
 74
     0
 49
-3.635487139640682
 74
     0
  0
LTYPE
  5
FD
330
5
100
AcDbSymbolTableRecord
100
AcDbLinetypeTableRecord
  2
AI-Linetype-15
 70
     0
  3
Adobe Illustrator Linetype No. 15
 72
    65
 73
     2
 40
7.270862246391072
 49
3.635375106750391
 74
     0
 49
-3.635487139640682
 74
     0
  0
LTYPE
  5
103
330
5
100
AcDbSymbolTableRecord
100
AcDbLinetypeTableRecord
  2
AI-Linetype-16
 70
     0
  3
Adobe Illustrator Linetype No. 16
 72
    65
 73
     2
 40
7.270862246391072
 49
3.635375106750391
 74
     0
 49
-3.635487139640682
 74
     0
  0
LTYPE
  5
116
330
5
100
AcDbSymbolTableRecord
100
AcDbLinetypeTableRecord
  2
AI-Linetype-17
 70
     0
  3
Adobe Illustrator Linetype No. 17
 72
    65
 73
     2
 40
7.270862246391072
 49
3.635375106750391
 74
     0
 49
-3.635487139640682
 74
     0
  0
LTYPE
  5
121
330
5
100
AcDbSymbolTableRecord
100
AcDbLinetypeTableRecord
  2
AI-Linetype-18
 70
     0
  3
Adobe Illustrator Linetype No. 18
 72
    65
 73
     2
 40
7.270862246391072
 49
3.635375106750391
 74
     0
 49
-3.635487139640682
 74
     0
  0
LTYPE
  5
140
330
5
100
AcDbSymbolTableRecord
100
AcDbLinetypeTableRecord
  2
AI-Linetype-19
 70
     0
  3
Adobe Illustrator Linetype No. 19
 72
    65
 73
     2
 40
7.270862246391072
 49
3.635375106750391
 74
     0
 49
-3.635487139640682
 74
     0
  0
LTYPE
  5
14B
330
5
100
AcDbSymbolTableRecord
100
AcDbLinetypeTableRecord
  2
AI-Linetype-20
 70
     0
  3
Adobe Illustrator Linetype No. 20
 72
    65
 73
     2
 40
7.270862246391072
 49
3.635375106750391
 74
     0
 49
-3.635487139640682
 74
     0
  0
LTYPE
  5
16A
330
5
100
AcDbSymbolTableRecord
100
AcDbLinetypeTableRecord
  2
AI-Linetype-21
 70
     0
  3
Adobe Illustrator Linetype No. 21
 72
    65
 73
     2
 40
7.270862246391072
 49
3.635375106750391
 74
     0
 49
-3.635487139640682
 74
     0
  0
LTYPE
  5
17F
330
5
100
AcDbSymbolTableRecord
100
AcDbLinetypeTableRecord
  2
AI-Linetype-22
 70
     0
  3
Adobe Illustrator Linetype No. 22
 72
    65
 73
     2
 40
7.270862246391072
 49
3.635375106750391
 74
     0
 49
-3.635487139640682
 74
     0
  0
LTYPE
  5
18F
330
5
100
AcDbSymbolTableRecord
100
AcDbLinetypeTableRecord
  2
AI-Linetype-23
 70
     0
  3
Adobe Illustrator Linetype No. 23
 72
    65
 73
     2
 40
7.270862246391072
 49
3.635375106750391
 74
     0
 49
-3.635487139640682
 74
     0
  0
LTYPE
  5
195
330
5
100
AcDbSymbolTableRecord
100
AcDbLinetypeTableRecord
  2
AI-Linetype-24
 70
     0
  3
Adobe Illustrator Linetype No. 24
 72
    65
 73
     2
 40
7.270862246391072
 49
3.635375106750391
 74
     0
 49
-3.635487139640682
 74
     0
  0
LTYPE
  5
19B
330
5
100
AcDbSymbolTableRecord
100
AcDbLinetypeTableRecord
  2
AI-Linetype-25
 70
     0
  3
Adobe Illustrator Linetype No. 25
 72
    65
 73
     2
 40
7.270862246391072
 49
3.635375106750391
 74
     0
 49
-3.635487139640682
 74
     0
  0
LTYPE
  5
1A1
330
5
100
AcDbSymbolTableRecord
100
AcDbLinetypeTableRecord
  2
AI-Linetype-26
 70
     0
  3
Adobe Illustrator Linetype No. 26
 72
    65
 73
     2
 40
7.270862246391072
 49
3.635375106750391
 74
     0
 49
-3.635487139640682
 74
     0
  0
LTYPE
  5
1BF
330
5
100
AcDbSymbolTableRecord
100
AcDbLinetypeTableRecord
  2
AI-Linetype-27
 70
     0
  3
Adobe Illustrator Linetype No. 27
 72
    65
 73
     2
 40
6.249936796321292
 49
3.124968398160646
 74
     0
 49
-3.124968398160646
 74
     0
  0
LTYPE
  5
1C4
330
5
100
AcDbSymbolTableRecord
100
AcDbLinetypeTableRecord
  2
AI-Linetype-28
 70
     0
  3
Adobe Illustrator Linetype No. 28
 72
    65
 73
     4
 40
28.12485486757969
 49
18.74994967309775
 74
     0
 49
-3.124968398160646
 74
     0
 49
3.124968398160646
 74
     0
 49
-3.124968398160646
 74
     0
  0
LTYPE
  5
1DD
330
5
100
AcDbSymbolTableRecord
100
AcDbLinetypeTableRecord
  2
AI-Linetype-29
 70
     0
  3
Adobe Illustrator Linetype No. 29
 72
    65
 73
     2
 40
6.249865472078824
 49
3.124932736039412
 74
     0
 49
-3.124932736039412
 74
     0
  0
LTYPE
  5
1E2
330
5
100
AcDbSymbolTableRecord
100
AcDbLinetypeTableRecord
  2
AI-Linetype-30
 70
     0
  3
Adobe Illustrator Linetype No. 30
 72
    65
 73
     4
 40
28.12453256274816
 49
18.74973435462992
 74
     0
 49
-3.124932736039412
 74
     0
 49
3.124932736039412
 74
     0
 49
-3.124932736039412
 74
     0
  0
LTYPE
  5
1FB
330
5
100
AcDbSymbolTableRecord
100
AcDbLinetypeTableRecord
  2
AI-Linetype-31
 70
     0
  3
Adobe Illustrator Linetype No. 31
 72
    65
 73
     2
 40
8.011377110067876
 49
4.005688555033938
 74
     0
 49
-4.005688555033938
 74
     0
  0
LTYPE
  5
200
330
5
100
AcDbSymbolTableRecord
100
AcDbLinetypeTableRecord
  2
AI-Linetype-32
 70
     0
  3
Adobe Illustrator Linetype No. 32
 72
    65
 73
     4
 40
36.05137328730098
 49
24.03430762219916
 74
     0
 49
-4.005688555033938
 74
     0
 49
4.005688555033938
 74
     0
 49
-4.005688555033938
 74
     0
  0
LTYPE
  5
20B
330
5
100
AcDbSymbolTableRecord
100
AcDbLinetypeTableRecord
  2
AI-Linetype-33
 70
     0
  3
Adobe Illustrator Linetype No. 33
 72
    65
 73
     2
 40
7.270862246391072
 49
3.635375106750391
 74
     0
 49
-3.635487139640682
 74
     0
  0
LTYPE
  5
21F
330
5
100
AcDbSymbolTableRecord
100
AcDbLinetypeTableRecord
  2
AI-Linetype-34
 70
     0
  3
Adobe Illustrator Linetype No. 34
 72
    65
 73
     2
 40
6.249793474966143
 49
3.124896737483072
 74
     0
 49
-3.124896737483072
 74
     0
  0
LTYPE
  5
224
330
5
100
AcDbSymbolTableRecord
100
AcDbLinetypeTableRecord
  2
AI-Linetype-35
 70
     0
  3
Adobe Illustrator Linetype No. 35
 72
    65
 73
     4
 40
28.12420924861131
 49
18.74951903616209
 74
     0
 49
-3.124896737483072
 74
     0
 49
3.124896737483072
 74
     0
 49
-3.124896737483072
 74
     0
  0
LTYPE
  5
23D
330
5
100
AcDbSymbolTableRecord
100
AcDbLinetypeTableRecord
  2
AI-Linetype-36
 70
     0
  3
Adobe Illustrator Linetype No. 36
 72
    65
 73
     2
 40
6.249865472078824
 49
3.124932736039412
 74
     0
 49
-3.124932736039412
 74
     0
  0
LTYPE
  5
242
330
5
100
AcDbSymbolTableRecord
100
AcDbLinetypeTableRecord
  2
AI-Linetype-37
 70
     0
  3
Adobe Illustrator Linetype No. 37
 72
    65
 73
     4
 40
28.12453256274816
 49
18.74973435462992
 74
     0
 49
-3.124932736039412
 74
     0
 49
3.124932736039412
 74
     0
 49
-3.124932736039412
 74
     0
  0
LTYPE
  5
24D
330
5
100
AcDbSymbolTableRecord
100
AcDbLinetypeTableRecord
  2
AI-Linetype-38
 70
     0
  3
Adobe Illustrator Linetype No. 38
 72
    65
 73
     2
 40
7.270862246391072
 49
3.635375106750391
 74
     0
 49
-3.635487139640682
 74
     0
  0
ENDTAB
  0
TABLE
  2
LAYER
  5
2
330
0
100
AcDbSymbolTable
 70
     1
  0
LAYER
  5
10
330
2
100
AcDbSymbolTableRecord
100
AcDbLayerTableRecord
  2
0
 70
     0
 62
     7
  6
Continuous
370
    -3
390
F
347
3E
  0
ENDTAB
  0
TABLE
  2
STYLE
  5
3
330
0
100
AcDbSymbolTable
 70
     1
  0
STYLE
  5
11
330
3
100
AcDbSymbolTableRecord
100
AcDbTextStyleTableRecord
  2
Standard
 70
     0
 40
0.0
 41
1.0
 50
0.0
 71
     0
 42
0.2
  3
txt
  4

  0
ENDTAB
  0
TABLE
  2
VIEW
  5
6
330
0
100
AcDbSymbolTable
 70
     0
  0
ENDTAB
  0
TABLE
  2
UCS
  5
7
330
0
100
AcDbSymbolTable
 70
     0
  0
ENDTAB
  0
TABLE
  2
APPID
  5
9
330
0
100
AcDbSymbolTable
 70
     1
  0
APPID
  5
12
330
9
100
AcDbSymbolTableRecord
100
AcDbRegAppTableRecord
  2
ACAD
 70
     0
  0
ENDTAB
  0
TABLE
  2
DIMSTYLE
  5
A
330
0
100
AcDbSymbolTable
 70
     1
100
AcDbDimStyleTable
  0
DIMSTYLE
105
27
330
A
100
AcDbSymbolTableRecord
100
AcDbDimStyleTableRecord
  2
Standard
 70
     0
178
     0
340
11
  0
ENDTAB
  0
TABLE
  2
BLOCK_RECORD
  5
1
330
0
100
AcDbSymbolTable
 70
    85
  0
BLOCK_RECORD
  5
1F
330
1
100
AcDbSymbolTableRecord
100
AcDbBlockTableRecord
  2
*Model_Space
340
22
 70
     0
280
     1
281
     0
  0
BLOCK_RECORD
  5
1B
330
1
100
AcDbSymbolTableRecord
100
AcDbBlockTableRecord
  2
*Paper_Space
340
1E
 70
     0
280
     1
281
     0
  0
BLOCK_RECORD
  5
23
330
1
100
AcDbSymbolTableRecord
100
AcDbBlockTableRecord
  2
*Paper_Space0
340
26
 70
     0
280
     1
281
     0
  0
BLOCK_RECORD
  5
40
330
1
100
AcDbSymbolTableRecord
100
AcDbBlockTableRecord
  2
block 2
340
0
102
{BLKREFS
331
41
102
}
 70
     0
280
     1
281
     0
  0
BLOCK_RECORD
  5
45
330
1
100
AcDbSymbolTableRecord
100
AcDbBlockTableRecord
  2
block 3
340
0
102
{BLKREFS
331
46
102
}
 70
     0
280
     1
281
     0
  0
BLOCK_RECORD
  5
4B
330
1
100
AcDbSymbolTableRecord
100
AcDbBlockTableRecord
  2
block 4
340
0
102
{BLKREFS
331
4C
102
}
 70
     0
280
     1
281
     0
  0
BLOCK_RECORD
  5
50
330
1
100
AcDbSymbolTableRecord
100
AcDbBlockTableRecord
  2
block 5
340
0
102
{BLKREFS
331
51
102
}
 70
     0
280
     1
281
     0
  0
BLOCK_RECORD
  5
56
330
1
100
AcDbSymbolTableRecord
100
AcDbBlockTableRecord
  2
block 6
340
0
102
{BLKREFS
331
57
102
}
 70
     0
280
     1
281
     0
  0
BLOCK_RECORD
  5
5B
330
1
100
AcDbSymbolTableRecord
100
AcDbBlockTableRecord
  2
block 7
340
0
102
{BLKREFS
331
5C
102
}
 70
     0
280
     1
281
     0
  0
BLOCK_RECORD
  5
60
330
1
100
AcDbSymbolTableRecord
100
AcDbBlockTableRecord
  2
block 8
340
0
102
{BLKREFS
331
61
102
}
 70
     0
280
     1
281
     0
  0
BLOCK_RECORD
  5
66
330
1
100
AcDbSymbolTableRecord
100
AcDbBlockTableRecord
  2
block 9
340
0
102
{BLKREFS
331
67
102
}
 70
     0
280
     1
281
     0
  0
BLOCK_RECORD
  5
6A
330
1
100
AcDbSymbolTableRecord
100
AcDbBlockTableRecord
  2
block 10
340
0
102
{BLKREFS
331
6B
102
}
 70
     0
280
     1
281
     0
  0
BLOCK_RECORD
  5
6E
330
1
100
AcDbSymbolTableRecord
100
AcDbBlockTableRecord
  2
block 11
340
0
102
{BLKREFS
331
6F
102
}
 70
     0
280
     1
281
     0
  0
BLOCK_RECORD
  5
76
330
1
100
AcDbSymbolTableRecord
100
AcDbBlockTableRecord
  2
block 12
340
0
102
{BLKREFS
331
77
102
}
 70
     0
280
     1
281
     0
  0
BLOCK_RECORD
  5
7A
330
1
100
AcDbSymbolTableRecord
100
AcDbBlockTableRecord
  2
block 13
340
0
102
{BLKREFS
331
7B
102
}
 70
     0
280
     1
281
     0
  0
BLOCK_RECORD
  5
7E
330
1
100
AcDbSymbolTableRecord
100
AcDbBlockTableRecord
  2
block 14
340
0
102
{BLKREFS
331
7F
102
}
 70
     0
280
     1
281
     0
  0
BLOCK_RECORD
  5
86
330
1
100
AcDbSymbolTableRecord
100
AcDbBlockTableRecord
  2
block 15
340
0
102
{BLKREFS
331
87
102
}
 70
     0
280
     1
281
     0
  0
BLOCK_RECORD
  5
8C
330
1
100
AcDbSymbolTableRecord
100
AcDbBlockTableRecord
  2
block 16
340
0
102
{BLKREFS
331
8D
102
}
 70
     0
280
     1
281
     0
  0
BLOCK_RECORD
  5
91
330
1
100
AcDbSymbolTableRecord
100
AcDbBlockTableRecord
  2
block 17
340
0
102
{BLKREFS
331
92
102
}
 70
     0
280
     1
281
     0
  0
BLOCK_RECORD
  5
97
330
1
100
AcDbSymbolTableRecord
100
AcDbBlockTableRecord
  2
block 18
340
0
102
{BLKREFS
331
98
102
}
 70
     0
280
     1
281
     0
  0
BLOCK_RECORD
  5
9D
330
1
100
AcDbSymbolTableRecord
100
AcDbBlockTableRecord
  2
block 19
340
0
102
{BLKREFS
331
9E
102
}
 70
     0
280
     1
281
     0
  0
BLOCK_RECORD
  5
A2
330
1
100
AcDbSymbolTableRecord
100
AcDbBlockTableRecord
  2
block 20
340
0
102
{BLKREFS
331
A3
102
}
 70
     0
280
     1
281
     0
  0
BLOCK_RECORD
  5
A7
330
1
100
AcDbSymbolTableRecord
100
AcDbBlockTableRecord
  2
block 21
340
0
102
{BLKREFS
331
A8
102
}
 70
     0
280
     1
281
     0
  0
BLOCK_RECORD
  5
AD
330
1
100
AcDbSymbolTableRecord
100
AcDbBlockTableRecord
  2
block 22
340
0
102
{BLKREFS
331
AE
102
}
 70
     0
280
     1
281
     0
  0
BLOCK_RECORD
  5
B3
330
1
100
AcDbSymbolTableRecord
100
AcDbBlockTableRecord
  2
block 23
340
0
102
{BLKREFS
331
B4
102
}
 70
     0
280
     1
281
     0
  0
BLOCK_RECORD
  5
B9
330
1
100
AcDbSymbolTableRecord
100
AcDbBlockTableRecord
  2
block 24
340
0
102
{BLKREFS
331
BA
102
}
 70
     0
280
     1
281
     0
  0
BLOCK_RECORD
  5
BF
330
1
100
AcDbSymbolTableRecord
100
AcDbBlockTableRecord
  2
block 25
340
0
102
{BLKREFS
331
C0
102
}
 70
     0
280
     1
281
     0
  0
BLOCK_RECORD
  5
C4
330
1
100
AcDbSymbolTableRecord
100
AcDbBlockTableRecord
  2
block 26
340
0
102
{BLKREFS
331
C5
102
}
 70
     0
280
     1
281
     0
  0
BLOCK_RECORD
  5
C9
330
1
100
AcDbSymbolTableRecord
100
AcDbBlockTableRecord
  2
block 27
340
0
102
{BLKREFS
331
CA
102
}
 70
     0
280
     1
281
     0
  0
BLOCK_RECORD
  5
CF
330
1
100
AcDbSymbolTableRecord
100
AcDbBlockTableRecord
  2
block 28
340
0
102
{BLKREFS
331
D0
102
}
 70
     0
280
     1
281
     0
  0
BLOCK_RECORD
  5
D5
330
1
100
AcDbSymbolTableRecord
100
AcDbBlockTableRecord
  2
block 29
340
0
102
{BLKREFS
331
D6
102
}
 70
     0
280
     1
281
     0
  0
BLOCK_RECORD
  5
DA
330
1
100
AcDbSymbolTableRecord
100
AcDbBlockTableRecord
  2
block 30
340
0
102
{BLKREFS
331
DB
102
}
 70
     0
280
     1
281
     0
  0
BLOCK_RECORD
  5
DF
330
1
100
AcDbSymbolTableRecord
100
AcDbBlockTableRecord
  2
block 31
340
0
102
{BLKREFS
331
E0
102
}
 70
     0
280
     1
281
     0
  0
BLOCK_RECORD
  5
E4
330
1
100
AcDbSymbolTableRecord
100
AcDbBlockTableRecord
  2
block 32
340
0
102
{BLKREFS
331
E5
102
}
 70
     0
280
     1
281
     0
  0
BLOCK_RECORD
  5
E9
330
1
100
AcDbSymbolTableRecord
100
AcDbBlockTableRecord
  2
block 33
340
0
102
{BLKREFS
331
EA
102
}
 70
     0
280
     1
281
     0
  0
BLOCK_RECORD
  5
EE
330
1
100
AcDbSymbolTableRecord
100
AcDbBlockTableRecord
  2
block 34
340
0
102
{BLKREFS
331
EF
102
}
 70
     0
280
     1
281
     0
  0
BLOCK_RECORD
  5
F3
330
1
100
AcDbSymbolTableRecord
100
AcDbBlockTableRecord
  2
block 35
340
0
102
{BLKREFS
331
F4
102
}
 70
     0
280
     1
281
     0
  0
BLOCK_RECORD
  5
F8
330
1
100
AcDbSymbolTableRecord
100
AcDbBlockTableRecord
  2
block 36
340
0
102
{BLKREFS
331
F9
102
}
 70
     0
280
     1
281
     0
  0
BLOCK_RECORD
  5
FE
330
1
100
AcDbSymbolTableRecord
100
AcDbBlockTableRecord
  2
block 37
340
0
102
{BLKREFS
331
FF
102
}
 70
     0
280
     1
281
     0
  0
BLOCK_RECORD
  5
104
330
1
100
AcDbSymbolTableRecord
100
AcDbBlockTableRecord
  2
block 38
340
0
102
{BLKREFS
331
105
102
}
 70
     0
280
     1
281
     0
  0
BLOCK_RECORD
  5
109
330
1
100
AcDbSymbolTableRecord
100
AcDbBlockTableRecord
  2
block 39
340
0
102
{BLKREFS
331
10A
102
}
 70
     0
280
     1
281
     0
  0
BLOCK_RECORD
  5
111
330
1
100
AcDbSymbolTableRecord
100
AcDbBlockTableRecord
  2
block 40
340
0
102
{BLKREFS
331
112
102
}
 70
     0
280
     1
281
     0
  0
BLOCK_RECORD
  5
117
330
1
100
AcDbSymbolTableRecord
100
AcDbBlockTableRecord
  2
block 41
340
0
102
{BLKREFS
331
118
102
}
 70
     0
280
     1
281
     0
  0
BLOCK_RECORD
  5
11C
330
1
100
AcDbSymbolTableRecord
100
AcDbBlockTableRecord
  2
block 42
340
0
102
{BLKREFS
331
11D
102
}
 70
     0
280
     1
281
     0
  0
BLOCK_RECORD
  5
122
330
1
100
AcDbSymbolTableRecord
100
AcDbBlockTableRecord
  2
block 43
340
0
102
{BLKREFS
331
123
102
}
 70
     0
280
     1
281
     0
  0
BLOCK_RECORD
  5
127
330
1
100
AcDbSymbolTableRecord
100
AcDbBlockTableRecord
  2
block 44
340
0
102
{BLKREFS
331
128
102
}
 70
     0
280
     1
281
     0
  0
BLOCK_RECORD
  5
12C
330
1
100
AcDbSymbolTableRecord
100
AcDbBlockTableRecord
  2
block 45
340
0
102
{BLKREFS
331
12D
102
}
 70
     0
280
     1
281
     0
  0
BLOCK_RECORD
  5
131
330
1
100
AcDbSymbolTableRecord
100
AcDbBlockTableRecord
  2
block 46
340
0
102
{BLKREFS
331
132
102
}
 70
     0
280
     1
281
     0
  0
BLOCK_RECORD
  5
136
330
1
100
AcDbSymbolTableRecord
100
AcDbBlockTableRecord
  2
block 47
340
0
102
{BLKREFS
331
137
102
}
 70
     0
280
     1
281
     0
  0
BLOCK_RECORD
  5
13B
330
1
100
AcDbSymbolTableRecord
100
AcDbBlockTableRecord
  2
block 48
340
0
102
{BLKREFS
331
13C
102
}
 70
     0
280
     1
281
     0
  0
BLOCK_RECORD
  5
141
330
1
100
AcDbSymbolTableRecord
100
AcDbBlockTableRecord
  2
block 49
340
0
102
{BLKREFS
331
142
102
}
 70
     0
280
     1
281
     0
  0
BLOCK_RECORD
  5
146
330
1
100
AcDbSymbolTableRecord
100
AcDbBlockTableRecord
  2
block 50
340
0
102
{BLKREFS
331
147
102
}
 70
     0
280
     1
281
     0
  0
BLOCK_RECORD
  5
14C
330
1
100
AcDbSymbolTableRecord
100
AcDbBlockTableRecord
  2
block 51
340
0
102
{BLKREFS
331
14D
102
}
 70
     0
280
     1
281
     0
  0
BLOCK_RECORD
  5
151
330
1
100
AcDbSymbolTableRecord
100
AcDbBlockTableRecord
  2
block 52
340
0
102
{BLKREFS
331
152
102
}
 70
     0
280
     1
281
     0
  0
BLOCK_RECORD
  5
156
330
1
100
AcDbSymbolTableRecord
100
AcDbBlockTableRecord
  2
block 53
340
0
102
{BLKREFS
331
157
102
}
 70
     0
280
     1
281
     0
  0
BLOCK_RECORD
  5
15B
330
1
100
AcDbSymbolTableRecord
100
AcDbBlockTableRecord
  2
block 54
340
0
102
{BLKREFS
331
15C
102
}
 70
     0
280
     1
281
     0
  0
BLOCK_RECORD
  5
160
330
1
100
AcDbSymbolTableRecord
100
AcDbBlockTableRecord
  2
block 55
340
0
102
{BLKREFS
331
161
102
}
 70
     0
280
     1
281
     0
  0
BLOCK_RECORD
  5
165
330
1
100
AcDbSymbolTableRecord
100
AcDbBlockTableRecord
  2
block 56
340
0
102
{BLKREFS
331
166
102
}
 70
     0
280
     1
281
     0
  0
BLOCK_RECORD
  5
16B
330
1
100
AcDbSymbolTableRecord
100
AcDbBlockTableRecord
  2
block 57
340
0
102
{BLKREFS
331
16C
102
}
 70
     0
280
     1
281
     0
  0
BLOCK_RECORD
  5
170
330
1
100
AcDbSymbolTableRecord
100
AcDbBlockTableRecord
  2
block 58
340
0
102
{BLKREFS
331
171
102
}
 70
     0
280
     1
281
     0
  0
BLOCK_RECORD
  5
175
330
1
100
AcDbSymbolTableRecord
100
AcDbBlockTableRecord
  2
block 59
340
0
102
{BLKREFS
331
176
102
}
 70
     0
280
     1
281
     0
  0
BLOCK_RECORD
  5
17A
330
1
100
AcDbSymbolTableRecord
100
AcDbBlockTableRecord
  2
block 60
340
0
102
{BLKREFS
331
17B
102
}
 70
     0
280
     1
281
     0
  0
BLOCK_RECORD
  5
180
330
1
100
AcDbSymbolTableRecord
100
AcDbBlockTableRecord
  2
block 61
340
0
102
{BLKREFS
331
181
102
}
 70
     0
280
     1
281
     0
  0
BLOCK_RECORD
  5
185
330
1
100
AcDbSymbolTableRecord
100
AcDbBlockTableRecord
  2
block 62
340
0
102
{BLKREFS
331
186
102
}
 70
     0
280
     1
281
     0
  0
BLOCK_RECORD
  5
18A
330
1
100
AcDbSymbolTableRecord
100
AcDbBlockTableRecord
  2
block 63
340
0
102
{BLKREFS
331
18B
102
}
 70
     0
280
     1
281
     0
  0
BLOCK_RECORD
  5
190
330
1
100
AcDbSymbolTableRecord
100
AcDbBlockTableRecord
  2
block 64
340
0
102
{BLKREFS
331
191
102
}
 70
     0
280
     1
281
     0
  0
BLOCK_RECORD
  5
196
330
1
100
AcDbSymbolTableRecord
100
AcDbBlockTableRecord
  2
block 65
340
0
102
{BLKREFS
331
197
102
}
 70
     0
280
     1
281
     0
  0
BLOCK_RECORD
  5
19C
330
1
100
AcDbSymbolTableRecord
100
AcDbBlockTableRecord
  2
block 66
340
0
102
{BLKREFS
331
19D
102
}
 70
     0
280
     1
281
     0
  0
BLOCK_RECORD
  5
1A2
330
1
100
AcDbSymbolTableRecord
100
AcDbBlockTableRecord
  2
block 67
340
0
102
{BLKREFS
331
1A3
102
}
 70
     0
280
     1
281
     0
  0
BLOCK_RECORD
  5
1A7
330
1
100
AcDbSymbolTableRecord
100
AcDbBlockTableRecord
  2
block 68
340
0
102
{BLKREFS
331
1A8
102
}
 70
     0
280
     1
281
     0
  0
BLOCK_RECORD
  5
1AC
330
1
100
AcDbSymbolTableRecord
100
AcDbBlockTableRecord
  2
block 69
340
0
102
{BLKREFS
331
1AD
102
}
 70
     0
280
     1
281
     0
  0
BLOCK_RECORD
  5
1B0
330
1
100
AcDbSymbolTableRecord
100
AcDbBlockTableRecord
  2
block 70
340
0
102
{BLKREFS
331
1B1
102
}
 70
     0
280
     1
281
     0
  0
BLOCK_RECORD
  5
1B4
330
1
100
AcDbSymbolTableRecord
100
AcDbBlockTableRecord
  2
block 71
340
0
102
{BLKREFS
331
1B5
102
}
 70
     0
280
     1
281
     0
  0
BLOCK_RECORD
  5
1CA
330
1
100
AcDbSymbolTableRecord
100
AcDbBlockTableRecord
  2
block 72
340
0
102
{BLKREFS
331
1CB
102
}
 70
     0
280
     1
281
     0
  0
BLOCK_RECORD
  5
1CE
330
1
100
AcDbSymbolTableRecord
100
AcDbBlockTableRecord
  2
block 73
340
0
102
{BLKREFS
331
1CF
102
}
 70
     0
280
     1
281
     0
  0
BLOCK_RECORD
  5
1D2
330
1
100
AcDbSymbolTableRecord
100
AcDbBlockTableRecord
  2
block 74
340
0
102
{BLKREFS
331
1D3
102
}
 70
     0
280
     1
281
     0
  0
BLOCK_RECORD
  5
1E8
330
1
100
AcDbSymbolTableRecord
100
AcDbBlockTableRecord
  2
block 75
340
0
102
{BLKREFS
331
1E9
102
}
 70
     0
280
     1
281
     0
  0
BLOCK_RECORD
  5
1EC
330
1
100
AcDbSymbolTableRecord
100
AcDbBlockTableRecord
  2
block 76
340
0
102
{BLKREFS
331
1ED
102
}
 70
     0
280
     1
281
     0
  0
BLOCK_RECORD
  5
1F0
330
1
100
AcDbSymbolTableRecord
100
AcDbBlockTableRecord
  2
block 77
340
0
102
{BLKREFS
331
1F1
102
}
 70
     0
280
     1
281
     0
  0
BLOCK_RECORD
  5
206
330
1
100
AcDbSymbolTableRecord
100
AcDbBlockTableRecord
  2
block 78
340
0
102
{BLKREFS
331
207
102
}
 70
     0
280
     1
281
     0
  0
BLOCK_RECORD
  5
20C
330
1
100
AcDbSymbolTableRecord
100
AcDbBlockTableRecord
  2
block 79
340
0
102
{BLKREFS
331
20D
102
}
 70
     0
280
     1
281
     0
  0
BLOCK_RECORD
  5
210
330
1
100
AcDbSymbolTableRecord
100
AcDbBlockTableRecord
  2
block 80
340
0
102
{BLKREFS
331
211
102
}
 70
     0
280
     1
281
     0
  0
BLOCK_RECORD
  5
214
330
1
100
AcDbSymbolTableRecord
100
AcDbBlockTableRecord
  2
block 81
340
0
102
{BLKREFS
331
215
102
}
 70
     0
280
     1
281
     0
  0
BLOCK_RECORD
  5
22A
330
1
100
AcDbSymbolTableRecord
100
AcDbBlockTableRecord
  2
block 82
340
0
102
{BLKREFS
331
22B
102
}
 70
     0
280
     1
281
     0
  0
BLOCK_RECORD
  5
22E
330
1
100
AcDbSymbolTableRecord
100
AcDbBlockTableRecord
  2
block 83
340
0
102
{BLKREFS
331
22F
102
}
 70
     0
280
     1
281
     0
  0
BLOCK_RECORD
  5
232
330
1
100
AcDbSymbolTableRecord
100
AcDbBlockTableRecord
  2
block 84
340
0
102
{BLKREFS
331
233
102
}
 70
     0
280
     1
281
     0
  0
BLOCK_RECORD
  5
248
330
1
100
AcDbSymbolTableRecord
100
AcDbBlockTableRecord
  2
block 85
340
0
102
{BLKREFS
331
249
102
}
 70
     0
280
     1
281
     0
  0
ENDTAB
  0
ENDSEC
  0
SECTION
  2
BLOCKS
  0
BLOCK
  5
20
330
1F
100
AcDbEntity
  8
0
100
AcDbBlockBegin
  2
*Model_Space
 70
     0
 10
0.0
 20
0.0
 30
0.0
  3
*Model_Space
  1

  0
ENDBLK
  5
21
330
1F
100
AcDbEntity
  8
0
100
AcDbBlockEnd
  0
BLOCK
  5
1C
330
1B
100
AcDbEntity
 67
     1
  8
0
100
AcDbBlockBegin
  2
*Paper_Space
 70
     0
 10
0.0
 20
0.0
 30
0.0
  3
*Paper_Space
  1

  0
ENDBLK
  5
1D
330
1B
100
AcDbEntity
 67
     1
  8
0
100
AcDbBlockEnd
  0
BLOCK
  5
24
330
23
100
AcDbEntity
  8
0
100
AcDbBlockBegin
  2
*Paper_Space0
 70
     0
 10
0.0
 20
0.0
 30
0.0
  3
*Paper_Space0
  1

  0
ENDBLK
  5
25
330
23
100
AcDbEntity
  8
0
100
AcDbBlockEnd
  0
BLOCK
  5
42
330
40
100
AcDbEntity
  8
0
100
AcDbBlockBegin
  2
block 2
 70
     0
 10
0.0
 20
0.0
 30
0.0
  3
block 2
  1

  0
SPLINE
  5
44
330
40
100
AcDbEntity
  8
0
 62
   250
370
    25
100
AcDbSpline
210
0.0
220
0.0
230
1.0
 70
     8
 71
     3
 72
    11
 73
     7
 74
     0
 42
0.0000000001
 43
0.0000000001
 12
1.0
 22
0.0
 32
0.0
 13
1.0
 23
0.0
 33
0.0
 40
0.0
 40
0.0
 40
0.0
 40
0.0
 40
1.0
 40
1.0
 40
1.0
 40
2.0
 40
2.0
 40
2.0
 40
2.0
 10
-294.5483335943853
 20
227.0060042614342
 30
0.0
 10
-294.5237452607716
 20
227.0952913093061
 30
0.0
 10
-294.4970755617543
 20
227.1838728095847
 30
0.0
 10
-294.4683950520948
 20
227.2719251491683
 30
0.0
 10
-294.3431603543556
 20
227.6554255432537
 30
0.0
 10
-294.1838124304968
 20
228.0175125678863
 30
0.0
 10
-293.9850243961989
 20
228.3686283274606
 30
0.0
  0
ENDBLK
  5
43
330
40
100
AcDbEntity
  8
0
100
AcDbBlockEnd
  0
BLOCK
  5
47
330
45
100
AcDbEntity
  8
0
100
AcDbBlockBegin
  2
block 3
 70
     0
 10
0.0
 20
0.0
 30
0.0
  3
block 3
  1

  0
SPLINE
  5
49
330
45
100
AcDbEntity
  8
0
  6
AI-Linetype-1
 62
     6
370
    25
100
AcDbSpline
210
0.0
220
0.0
230
1.0
 70
     8
 71
     3
 72
     8
 73
     4
 74
     0
 42
0.0000000001
 43
0.0000000001
 12
1.0
 22
0.0
 32
0.0
 13
1.0
 23
0.0
 33
0.0
 40
0.0
 40
0.0
 40
0.0
 40
0.0
 40
1.0
 40
1.0
 40
1.0
 40
1.0
 10
118.7980624341012
 20
113.5997796682926
 30
0.0
 10
124.7004972088785
 20
113.291032041402
 30
0.0
 10
134.7753305554187
 20
112.769699886714
 30
0.0
 10
140.6778006075827
 20
112.4609522598234
 30
0.0
  0
ENDBLK
  5
48
330
45
100
AcDbEntity
  8
0
100
AcDbBlockEnd
  0
BLOCK
  5
4D
330
4B
100
AcDbEntity
  8
0
100
AcDbBlockBegin
  2
block 4
 70
     0
 10
0.0
 20
0.0
 30
0.0
  3
block 4
  1

  0
SPLINE
  5
4F
330
4B
100
AcDbEntity
  8
0
 62
   250
370
    25
100
AcDbSpline
210
0.0
220
0.0
230
1.0
 70
     8
 71
     3
 72
    11
 73
     7
 74
     0
 42
0.0000000001
 43
0.0000000001
 12
1.0
 22
0.0
 32
0.0
 13
1.0
 23
0.0
 33
0.0
 40
0.0
 40
0.0
 40
0.0
 40
0.0
 40
1.0
 40
1.0
 40
1.0
 40
2.0
 40
2.0
 40
2.0
 40
2.0
 10
-293.0804771047416
 20
229.5617798616733
 30
0.0
 10
-293.0804771047416
 20
229.5617798616733
 30
0.0
 10
-293.0815354261331
 20
229.56523704488
 30
0.0
 10
-293.0815354261331
 20
229.56523704488
 30
0.0
 10
-292.4288333479717
 20
230.2416807994832
 30
0.0
 10
-291.7141136363967
 20
230.7076597071448
 30
0.0
 10
-290.8316852620171
 20
231.0317177164973
 30
0.0
  0
ENDBLK
  5
4E
330
4B
100
AcDbEntity
  8
0
100
AcDbBlockEnd
  0
BLOCK
  5
52
330
50
100
AcDbEntity
  8
0
100
AcDbBlockBegin
  2
block 5
 70
     0
 10
0.0
 20
0.0
 30
0.0
  3
block 5
  1

  0
SPLINE
  5
54
330
50
100
AcDbEntity
  8
0
  6
AI-Linetype-2
 62
     6
370
    25
100
AcDbSpline
210
0.0
220
0.0
230
1.0
 70
     8
 71
     3
 72
     8
 73
     4
 74
     0
 42
0.0000000001
 43
0.0000000001
 12
1.0
 22
0.0
 32
0.0
 13
1.0
 23
0.0
 33
0.0
 40
0.0
 40
0.0
 40
0.0
 40
0.0
 40
1.0
 40
1.0
 40
1.0
 40
1.0
 10
498.2234623427733
 20
186.3963428188306
 30
0.0
 10
496.2723057521579
 20
186.4675325710349
 30
0.0
 10
494.4776748950675
 20
187.4835211048133
 30
0.0
 10
493.4123333073304
 20
189.1196154178897
 30
0.0
  0
ENDBLK
  5
53
330
50
100
AcDbEntity
  8
0
100
AcDbBlockEnd
  0
BLOCK
  5
58
330
56
100
AcDbEntity
  8
0
100
AcDbBlockBegin
  2
block 6
 70
     0
 10
0.0
 20
0.0
 30
0.0
  3
block 6
  1

  0
SPLINE
  5
5A
330
56
100
AcDbEntity
  8
0
 62
   250
370
    25
100
AcDbSpline
210
0.0
220
0.0
230
1.0
 70
     8
 71
     3
 72
    29
 73
    25
 74
     0
 42
0.0000000001
 43
0.0000000001
 12
1.0
 22
0.0
 32
0.0
 13
1.0
 23
0.0
 33
0.0
 40
0.0
 40
0.0
 40
0.0
 40
0.0
 40
1.0
 40
1.0
 40
1.0
 40
2.0
 40
2.0
 40
2.0
 40
3.0
 40
3.0
 40
3.0
 40
4.0
 40
4.0
 40
4.0
 40
5.0
 40
5.0
 40
5.0
 40
6.0
 40
6.0
 40
6.0
 40
7.0
 40
7.0
 40
7.0
 40
8.0
 40
8.0
 40
8.0
 40
8.0
 10
210.1127853048253
 20
65.03189114586661
 30
0.0
 10
211.4981632807498
 20
65.03189114580886
 30
0.0
 10
212.8835412566673
 20
65.03189114574468
 30
0.0
 10
214.268919232586
 20
65.03189114568052
 30
0.0
 10
214.3504099795588
 20
65.03785302283318
 30
0.0
 10
214.4324651646146
 20
65.04000494298894
 30
0.0
 10
214.5138148020629
 20
65.04861262361848
 30
0.0
 10
214.5621448121695
 20
65.05372784366685
 30
0.0
 10
214.6102631580032
 20
65.06113609338774
 30
0.0
 10
214.6579934526586
 20
65.07037876685575
 30
0.0
 10
214.7812878945152
 20
65.0942615528608
 30
0.0
 10
214.902148197169
 20
65.13049142174384
 30
0.0
 10
215.0185635499861
 20
65.17765727832914
 30
0.0
 10
215.2501948247208
 20
65.271530385548
 30
0.0
 10
215.4641521322561
 20
65.4088652244789
 30
0.0
 10
215.6454425862458
 20
65.58080717284486
 30
0.0
 10
215.8308604936423
 20
65.75662963297025
 30
0.0
 10
215.9820946201873
 20
65.9686819619915
 30
0.0
 10
216.0882442555402
 20
66.20115989382978
 30
0.0
 10
216.1942880587509
 20
66.43335560663394
 30
0.0
 10
216.2553884803069
 20
66.6859416448684
 30
0.0
 10
216.2668183513174
 20
66.94106765443624
 30
0.0
 10
216.5570806312983
 20
73.33276440747487
 30
0.0
 10
216.8275413887728
 20
79.2891656466732
 30
0.0
 10
217.1178036687537
 20
85.68082712233664
 30
0.0
  0
ENDBLK
  5
59
330
56
100
AcDbEntity
  8
0
100
AcDbBlockEnd
  0
BLOCK
  5
5D
330
5B
100
AcDbEntity
  8
0
100
AcDbBlockBegin
  2
block 7
 70
     0
 10
0.0
 20
0.0
 30
0.0
  3
block 7
  1

  0
SPLINE
  5
5F
330
5B
100
AcDbEntity
  8
0
 62
   250
370
    25
100
AcDbSpline
210
0.0
220
0.0
230
1.0
 70
     8
 71
     3
 72
    17
 73
    13
 74
     0
 42
0.0000000001
 43
0.0000000001
 12
1.0
 22
0.0
 32
0.0
 13
1.0
 23
0.0
 33
0.0
 40
0.0
 40
0.0
 40
0.0
 40
0.0
 40
1.0
 40
1.0
 40
1.0
 40
2.0
 40
2.0
 40
2.0
 40
3.0
 40
3.0
 40
3.0
 40
4.0
 40
4.0
 40
4.0
 40
4.0
 10
505.3585240414301
 20
226.1177198061291
 30
0.0
 10
504.9631351698923
 20
214.7958681386167
 30
0.0
 10
504.6080330658683
 20
202.5396597939001
 30
0.0
 10
504.2126441943342
 20
191.2178081263745
 30
0.0
 10
504.1673480388187
 20
189.9227402423386
 30
0.0
 10
503.6210778150061
 20
188.6958282557952
 30
0.0
 10
502.6889083353017
 20
187.7956553595127
 30
0.0
 10
501.7566330234603
 20
186.8953413537068
 30
0.0
 10
500.5112004125619
 20
186.3923564748327
 30
0.0
 10
499.2152505940325
 20
186.3923564748841
 30
0.0
 10
498.8855129265203
 20
186.3923564749033
 30
0.0
 10
498.5539408352649
 20
186.3923564749161
 30
0.0
 10
498.2234623427733
 20
186.3923564749354
 30
0.0
  0
ENDBLK
  5
5E
330
5B
100
AcDbEntity
  8
0
100
AcDbBlockEnd
  0
BLOCK
  5
62
330
60
100
AcDbEntity
  8
0
100
AcDbBlockBegin
  2
block 8
 70
     0
 10
0.0
 20
0.0
 30
0.0
  3
block 8
  1

  0
SPLINE
  5
64
330
60
100
AcDbEntity
  8
0
  6
AI-Linetype-3
 62
     6
370
    25
100
AcDbSpline
210
0.0
220
0.0
230
1.0
 70
     8
 71
     3
 72
     8
 73
     4
 74
     0
 42
0.0000000001
 43
0.0000000001
 12
1.0
 22
0.0
 32
0.0
 13
1.0
 23
0.0
 33
0.0
 40
0.0
 40
0.0
 40
0.0
 40
0.0
 40
1.0
 40
1.0
 40
1.0
 40
1.0
 10
466.9529580369244
 20
222.8868409933488
 30
0.0
 10
456.5127586413964
 20
222.7259408652771
 30
0.0
 10
447.0248015543652
 20
218.7185716478826
 30
0.0
 10
438.5757280203422
 20
213.1490847825264
 30
0.0
  0
ENDBLK
  5
63
330
60
100
AcDbEntity
  8
0
100
AcDbBlockEnd
  0
BLOCK
  5
68
330
66
100
AcDbEntity
  8
0
100
AcDbBlockBegin
  2
block 9
 70
     0
 10
0.0
 20
0.0
 30
0.0
  3
block 9
  1

  0
INSERT
  5
6B
330
66
100
AcDbEntity
  8
0
100
AcDbBlockReference
  2
block 10
 10
0.0
 20
0.0
 30
0.0
  0
ENDBLK
  5
69
330
66
100
AcDbEntity
  8
0
100
AcDbBlockEnd
  0
BLOCK
  5
6C
330
6A
100
AcDbEntity
  8
0
100
AcDbBlockBegin
  2
block 10
 70
     0
 10
0.0
 20
0.0
 30
0.0
  3
block 10
  1

  0
INSERT
  5
6F
330
6A
100
AcDbEntity
  8
0
100
AcDbBlockReference
  2
block 11
 10
0.0
 20
0.0
 30
0.0
  0
ENDBLK
  5
6D
330
6A
100
AcDbEntity
  8
0
100
AcDbBlockEnd
  0
BLOCK
  5
70
330
6E
100
AcDbEntity
  8
0
100
AcDbBlockBegin
  2
block 11
 70
     0
 10
0.0
 20
0.0
 30
0.0
  3
block 11
  1

  0
SPLINE
  5
72
330
6E
100
AcDbEntity
  8
0
 62
     6
370
    25
100
AcDbSpline
210
0.0
220
0.0
230
1.0
 70
     8
 71
     3
 72
     8
 73
     4
 74
     0
 42
0.0000000001
 43
0.0000000001
 12
1.0
 22
0.0
 32
0.0
 13
1.0
 23
0.0
 33
0.0
 40
0.0
 40
0.0
 40
0.0
 40
0.0
 40
1.0
 40
1.0
 40
1.0
 40
1.0
 10
145.4486047169202
 20
110.4036077435308
 30
0.0
 10
145.877002340511
 20
109.9751347584763
 30
0.0
 10
146.3053999641018
 20
109.5466617734217
 30
0.0
 10
146.7337975876926
 20
109.1181995542906
 30
0.0
  0
SPLINE
  5
73
330
6E
100
AcDbEntity
  8
0
  6
AI-Linetype-4
 62
     6
370
    25
100
AcDbSpline
210
0.0
220
0.0
230
1.0
 70
     8
 71
     3
 72
    11
 73
     7
 74
     0
 42
0.0000000001
 43
0.0000000001
 12
1.0
 22
0.0
 32
0.0
 13
1.0
 23
0.0
 33
0.0
 40
0.0
 40
0.0
 40
0.0
 40
0.0
 40
1.0
 40
1.0
 40
1.0
 40
2.0
 40
2.0
 40
2.0
 40
2.0
 10
149.2711750081195
 20
106.5803699650813
 30
0.0
 10
151.9536555440157
 20
103.8974157285558
 30
0.0
 10
154.6361360799119
 20
101.2144722579538
 30
0.0
 10
157.3185950839614
 20
98.53150725550493
 30
0.0
 10
157.3185950839614
 20
88.56898551422115
 30
0.0
 10
157.3185950839614
 20
78.60643685812889
 30
0.0
 10
157.3185950839614
 20
68.64391511684511
 30
0.0
  0
SPLINE
  5
75
330
6E
100
AcDbEntity
  8
0
 62
     6
370
    25
100
AcDbSpline
210
0.0
220
0.0
230
1.0
 70
    24
 71
     3
 72
     8
 73
     4
 74
     0
 42
0.0000000001
 43
0.0000000001
 12
1.0
 22
0.0
 32
0.0
 13
1.0
 23
0.0
 33
0.0
 40
0.0
 40
0.0
 40
0.0
 40
0.0
 40
1.0
 40
1.0
 40
1.0
 40
1.0
 10
157.3185950839614
 20
66.84957481408459
 30
0.0
 10
157.3185950839614
 20
66.24367941153967
 30
0.0
 10
157.3185950839614
 20
65.63778400899474
 30
0.0
 10
157.3185950839614
 20
65.03188860644983
 30
0.0
  0
ENDBLK
  5
71
330
6E
100
AcDbEntity
  8
0
100
AcDbBlockEnd
  0
BLOCK
  5
78
330
76
100
AcDbEntity
  8
0
100
AcDbBlockBegin
  2
block 12
 70
     0
 10
0.0
 20
0.0
 30
0.0
  3
block 12
  1

  0
INSERT
  5
7B
330
76
100
AcDbEntity
  8
0
100
AcDbBlockReference
  2
block 13
 10
0.0
 20
0.0
 30
0.0
  0
ENDBLK
  5
79
330
76
100
AcDbEntity
  8
0
100
AcDbBlockEnd
  0
BLOCK
  5
7C
330
7A
100
AcDbEntity
  8
0
100
AcDbBlockBegin
  2
block 13
 70
     0
 10
0.0
 20
0.0
 30
0.0
  3
block 13
  1

  0
INSERT
  5
7F
330
7A
100
AcDbEntity
  8
0
100
AcDbBlockReference
  2
block 14
 10
0.0
 20
0.0
 30
0.0
  0
ENDBLK
  5
7D
330
7A
100
AcDbEntity
  8
0
100
AcDbBlockEnd
  0
BLOCK
  5
80
330
7E
100
AcDbEntity
  8
0
100
AcDbBlockBegin
  2
block 14
 70
     0
 10
0.0
 20
0.0
 30
0.0
  3
block 14
  1

  0
SPLINE
  5
82
330
7E
100
AcDbEntity
  8
0
 62
     6
370
    25
100
AcDbSpline
210
0.0
220
0.0
230
1.0
 70
     8
 71
     3
 72
     8
 73
     4
 74
     0
 42
0.0000000001
 43
0.0000000001
 12
1.0
 22
0.0
 32
0.0
 13
1.0
 23
0.0
 33
0.0
 40
0.0
 40
0.0
 40
0.0
 40
0.0
 40
1.0
 40
1.0
 40
1.0
 40
1.0
 10
215.1878556455303
 20
110.4034031909864
 30
0.0
 10
214.7594580219395
 20
109.9749302059318
 30
0.0
 10
214.3310603983487
 20
109.5464572208773
 30
0.0
 10
213.9026627747579
 20
109.1179950017461
 30
0.0
  0
SPLINE
  5
83
330
7E
100
AcDbEntity
  8
0
  6
AI-Linetype-5
 62
     6
370
    25
100
AcDbSpline
210
0.0
220
0.0
230
1.0
 70
     8
 71
     3
 72
    11
 73
     7
 74
     0
 42
0.0000000001
 43
0.0000000001
 12
1.0
 22
0.0
 32
0.0
 13
1.0
 23
0.0
 33
0.0
 40
0.0
 40
0.0
 40
0.0
 40
0.0
 40
1.0
 40
1.0
 40
1.0
 40
2.0
 40
2.0
 40
2.0
 40
2.0
 10
211.3653284180246
 20
106.580197710307
 30
0.0
 10
208.6829124776687
 20
103.8973080693219
 30
0.0
 10
206.0004965373128
 20
101.2144076624134
 30
0.0
 10
203.3180805969569
 20
98.53150725550493
 30
0.0
 10
203.3180805969569
 20
88.56898551422115
 30
0.0
 10
203.3180805969569
 20
78.60644224109058
 30
0.0
 10
203.3180805969569
 20
68.6439204998068
 30
0.0
  0
SPLINE
  5
85
330
7E
100
AcDbEntity
  8
0
 62
     6
370
    25
100
AcDbSpline
210
0.0
220
0.0
230
1.0
 70
    24
 71
     3
 72
     8
 73
     4
 74
     0
 42
0.0000000001
 43
0.0000000001
 12
1.0
 22
0.0
 32
0.0
 13
1.0
 23
0.0
 33
0.0
 40
0.0
 40
0.0
 40
0.0
 40
0.0
 40
1.0
 40
1.0
 40
1.0
 40
1.0
 10
203.3180805969569
 20
66.84957481408459
 30
0.0
 10
203.3180805969569
 20
66.24367941153967
 30
0.0
 10
203.3180805969569
 20
65.63778400899474
 30
0.0
 10
203.3180805969569
 20
65.03188860644983
 30
0.0
  0
ENDBLK
  5
81
330
7E
100
AcDbEntity
  8
0
100
AcDbBlockEnd
  0
BLOCK
  5
88
330
86
100
AcDbEntity
  8
0
100
AcDbBlockBegin
  2
block 15
 70
     0
 10
0.0
 20
0.0
 30
0.0
  3
block 15
  1

  0
SPLINE
  5
8A
330
86
100
AcDbEntity
  8
0
  6
AI-Linetype-6
 62
     6
370
    25
100
AcDbSpline
210
0.0
220
0.0
230
1.0
 70
    24
 71
     3
 72
    11
 73
     7
 74
     0
 42
0.0000000001
 43
0.0000000001
 12
1.0
 22
0.0
 32
0.0
 13
1.0
 23
0.0
 33
0.0
 40
0.0
 40
0.0
 40
0.0
 40
0.0
 40
1.0
 40
1.0
 40
1.0
 40
2.0
 40
2.0
 40
2.0
 40
2.0
 10
158.2701760252073
 20
98.5315025204982
 30
0.0
 10
164.9982073157646
 20
98.5315025201966
 30
0.0
 10
173.5902905498877
 20
98.53150251981158
 30
0.0
 10
180.3183571178196
 20
98.53150251950356
 30
0.0
 10
187.0464236857643
 20
98.53150251920839
 30
0.0
 10
196.0644381614379
 20
98.5315025187977
 30
0.0
 10
202.7925047293769
 20
98.53150251850252
 30
0.0
  0
ENDBLK
  5
89
330
86
100
AcDbEntity
  8
0
100
AcDbBlockEnd
  0
BLOCK
  5
8E
330
8C
100
AcDbEntity
  8
0
100
AcDbBlockBegin
  2
block 16
 70
     0
 10
0.0
 20
0.0
 30
0.0
  3
block 16
  1

  0
SPLINE
  5
90
330
8C
100
AcDbEntity
  8
0
 62
   250
370
    25
100
AcDbSpline
210
0.0
220
0.0
230
1.0
 70
    24
 71
     3
 72
     8
 73
     4
 74
     0
 42
0.0000000001
 43
0.0000000001
 12
1.0
 22
0.0
 32
0.0
 13
1.0
 23
0.0
 33
0.0
 40
0.0
 40
0.0
 40
0.0
 40
0.0
 40
1.0
 40
1.0
 40
1.0
 40
1.0
 10
499.2146861579843
 20
231.4240374200251
 30
0.0
 10
499.1844534436291
 20
231.4241785295361
 30
0.0
 10
499.1542207292739
 20
231.4243196390599
 30
0.0
 10
499.1239880149251
 20
231.4244607485837
 30
0.0
  0
ENDBLK
  5
8F
330
8C
100
AcDbEntity
  8
0
100
AcDbBlockEnd
  0
BLOCK
  5
93
330
91
100
AcDbEntity
  8
0
100
AcDbBlockBegin
  2
block 17
 70
     0
 10
0.0
 20
0.0
 30
0.0
  3
block 17
  1

  0
SPLINE
  5
95
330
91
100
AcDbEntity
  8
0
  6
AI-Linetype-7
 62
     6
370
    25
100
AcDbSpline
210
0.0
220
0.0
230
1.0
 70
     8
 71
     3
 72
     8
 73
     4
 74
     0
 42
0.0000000001
 43
0.0000000001
 12
1.0
 22
0.0
 32
0.0
 13
1.0
 23
0.0
 33
0.0
 40
0.0
 40
0.0
 40
0.0
 40
0.0
 40
1.0
 40
1.0
 40
1.0
 40
1.0
 10
438.5757280203422
 20
213.1490847825264
 30
0.0
 10
429.9239859402462
 20
207.0865612593058
 30
0.0
 10
416.1512383214939
 20
193.8756059125454
 30
0.0
 10
408.6441061012118
 20
186.6175672705872
 30
0.0
  0
ENDBLK
  5
94
330
91
100
AcDbEntity
  8
0
100
AcDbBlockEnd
  0
BLOCK
  5
99
330
97
100
AcDbEntity
  8
0
100
AcDbBlockBegin
  2
block 18
 70
     0
 10
0.0
 20
0.0
 30
0.0
  3
block 18
  1

  0
SPLINE
  5
9B
330
97
100
AcDbEntity
  8
0
  6
AI-Linetype-8
 62
     6
370
    25
100
AcDbSpline
210
0.0
220
0.0
230
1.0
 70
     8
 71
     3
 72
     8
 73
     4
 74
     0
 42
0.0000000001
 43
0.0000000001
 12
1.0
 22
0.0
 32
0.0
 13
1.0
 23
0.0
 33
0.0
 40
0.0
 40
0.0
 40
0.0
 40
0.0
 40
1.0
 40
1.0
 40
1.0
 40
1.0
 10
494.1965168086705
 20
228.7703494527474
 30
0.0
 10
495.1916211336952
 20
230.6456596770879
 30
0.0
 10
496.9636718403999
 20
231.2903008738952
 30
0.0
 10
499.0844773497209
 20
231.3865728428467
 30
0.0
  0
ENDBLK
  5
9A
330
97
100
AcDbEntity
  8
0
100
AcDbBlockEnd
  0
BLOCK
  5
9F
330
9D
100
AcDbEntity
  8
0
100
AcDbBlockBegin
  2
block 19
 70
     0
 10
0.0
 20
0.0
 30
0.0
  3
block 19
  1

  0
SPLINE
  5
A1
330
9D
100
AcDbEntity
  8
0
 62
   250
370
    25
100
AcDbSpline
210
0.0
220
0.0
230
1.0
 70
     8
 71
     3
 72
    14
 73
    10
 74
     0
 42
0.0000000001
 43
0.0000000001
 12
1.0
 22
0.0
 32
0.0
 13
1.0
 23
0.0
 33
0.0
 40
0.0
 40
0.0
 40
0.0
 40
0.0
 40
1.0
 40
1.0
 40
1.0
 40
2.0
 40
2.0
 40
2.0
 40
3.0
 40
3.0
 40
3.0
 40
3.0
 10
-288.7438993800236
 20
231.4866900816363
 30
0.0
 10
-136.9491800149143
 20
232.190650185586
 30
0.0
 10
28.5220855540527
 20
232.4733630985962
 30
0.0
 10
180.3183571238259
 20
232.334899376698
 30
0.0
 10
282.1145168770799
 20
232.2409909875164
 30
0.0
 10
383.909618308933
 20
231.9582780624943
 30
0.0
 10
485.7047550181504
 20
231.486690046869
 30
0.0
 10
489.7213316320484
 20
231.4680988676243
 30
0.0
 10
495.0190062876468
 20
231.4140186443944
 30
0.0
 10
499.0355829015378
 20
231.3944044211332
 30
0.0
  0
ENDBLK
  5
A0
330
9D
100
AcDbEntity
  8
0
100
AcDbBlockEnd
  0
BLOCK
  5
A4
330
A2
100
AcDbEntity
  8
0
100
AcDbBlockBegin
  2
block 20
 70
     0
 10
0.0
 20
0.0
 30
0.0
  3
block 20
  1

  0
SPLINE
  5
A6
330
A2
100
AcDbEntity
  8
0
 62
   250
370
    25
100
AcDbSpline
210
0.0
220
0.0
230
1.0
 70
     8
 71
     3
 72
     8
 73
     4
 74
     0
 42
0.0000000001
 43
0.0000000001
 12
1.0
 22
0.0
 32
0.0
 13
1.0
 23
0.0
 33
0.0
 40
0.0
 40
0.0
 40
0.0
 40
0.0
 40
1.0
 40
1.0
 40
1.0
 40
1.0
 10
-288.7746259776967
 20
231.4037176847265
 30
0.0
 10
-288.7809406286531
 20
231.4101734451999
 30
0.0
 10
-288.7882077688566
 20
231.4155356069085
 30
0.0
 10
-288.7936404853203
 20
231.4229791340107
 30
0.0
  0
ENDBLK
  5
A5
330
A2
100
AcDbEntity
  8
0
100
AcDbBlockEnd
  0
BLOCK
  5
A9
330
A7
100
AcDbEntity
  8
0
100
AcDbBlockBegin
  2
block 21
 70
     0
 10
0.0
 20
0.0
 30
0.0
  3
block 21
  1

  0
SPLINE
  5
AB
330
A7
100
AcDbEntity
  8
0
  6
AI-Linetype-9
 62
     6
370
    25
100
AcDbSpline
210
0.0
220
0.0
230
1.0
 70
     8
 71
     3
 72
    41
 73
    37
 74
     0
 42
0.0000000001
 43
0.0000000001
 12
1.0
 22
0.0
 32
0.0
 13
1.0
 23
0.0
 33
0.0
 40
0.0
 40
0.0
 40
0.0
 40
0.0
 40
1.0
 40
1.0
 40
1.0
 40
2.0
 40
2.0
 40
2.0
 40
3.0
 40
3.0
 40
3.0
 40
4.0
 40
4.0
 40
4.0
 40
5.0
 40
5.0
 40
5.0
 40
6.0
 40
6.0
 40
6.0
 40
7.0
 40
7.0
 40
7.0
 40
8.0
 40
8.0
 40
8.0
 40
9.0
 40
9.0
 40
9.0
 40
10.0
 40
10.0
 40
10.0
 40
11.0
 40
11.0
 40
11.0
 40
12.0
 40
12.0
 40
12.0
 40
12.0
 10
52.95301149184028
 20
127.3930204091063
 30
0.0
 10
45.09271742440372
 20
129.9878480690272
 30
0.0
 10
37.38393970255493
 20
132.9144242070819
 30
0.0
 10
29.78201716364565
 20
136.1897172429144
 30
0.0
 10
29.77189255568598
 20
136.1940916379878
 30
0.0
 10
29.76180322511368
 20
136.1984307556803
 30
0.0
 10
29.75171389453496
 20
136.2027698733793
 30
0.0
 10
29.71975258858254
 20
136.2165280514375
 30
0.0
 10
29.68782656000464
 20
136.230321506883
 30
0.0
 10
29.65590053142675
 20
136.2440796849483
 30
0.0
 10
29.64581120084803
 20
136.2484188026408
 30
0.0
 10
29.63572187027573
 20
136.2527931977207
 30
0.0
 10
29.62563253969701
 20
136.2571323154132
 30
0.0
 10
29.59370651111912
 20
136.2709257708524
 30
0.0
 10
29.56178048254123
 20
136.2847192262986
 30
0.0
 10
29.52985445397007
 20
136.2985126817313
 30
0.0
 10
29.51976512339135
 20
136.3028517994367
 30
0.0
 10
29.50967579281231
 20
136.3072261945101
 30
0.0
 10
29.49958646223359
 20
136.3115653122091
 30
0.0
 10
29.46766043366244
 20
136.3253587676482
 30
0.0
 10
29.43573440508455
 20
136.3391522230944
 30
0.0
 10
29.40384365389434
 20
136.3529809559082
 30
0.0
 10
29.39375432331562
 20
136.3573200736006
 30
0.0
 10
29.38366499273658
 20
136.3616944686869
 30
0.0
 10
29.37357566216428
 20
136.3660688637604
 30
0.0
 10
29.34168491096124
 20
136.3798623191996
 30
0.0
 10
29.30975888238977
 20
136.3936910520203
 30
0.0
 10
29.27783285381188
 20
136.4074845074659
 30
0.0
 10
21.59752397734621
 20
139.7329419771379
 30
0.0
 10
14.39619727449203
 20
143.9740181697521
 30
0.0
 10
6.755624814714391
 20
147.3897913969595
 30
0.0
 10
0.1307991423539878
 20
150.3514676700088
 30
0.0
 10
-31.08107533961467
 20
171.3835400130213
 30
0.0
 10
-37.7520621061328
 20
176.9305694293089
 30
0.0
 10
-44.42304887264451
 20
182.4775988456034
 30
0.0
 10
-50.55080328456933
 20
189.1068804166453
 30
0.0
 10
-52.87246000649385
 20
191.2464181062695
 30
0.0
  0
ENDBLK
  5
AA
330
A7
100
AcDbEntity
  8
0
100
AcDbBlockEnd
  0
BLOCK
  5
AF
330
AD
100
AcDbEntity
  8
0
100
AcDbBlockBegin
  2
block 22
 70
     0
 10
0.0
 20
0.0
 30
0.0
  3
block 22
  1

  0
SPLINE
  5
B1
330
AD
100
AcDbEntity
  8
0
  6
AI-Linetype-10
 62
     6
370
    25
100
AcDbSpline
210
0.0
220
0.0
230
1.0
 70
     8
 71
     3
 72
    20
 73
    16
 74
     0
 42
0.0000000001
 43
0.0000000001
 12
1.0
 22
0.0
 32
0.0
 13
1.0
 23
0.0
 33
0.0
 40
0.0
 40
0.0
 40
0.0
 40
0.0
 40
1.0
 40
1.0
 40
1.0
 40
2.0
 40
2.0
 40
2.0
 40
3.0
 40
3.0
 40
3.0
 40
4.0
 40
4.0
 40
4.0
 40
5.0
 40
5.0
 40
5.0
 40
5.0
 10
-288.4950527440341
 20
231.3887600757468
 30
0.0
 10
-286.353609967635
 20
231.3112556725794
 30
0.0
 10
-284.4166348836886
 20
230.0973963163853
 30
0.0
 10
-283.4131345424727
 20
228.204059350953
 30
0.0
 10
-281.679604107014
 20
224.9368448353378
 30
0.0
 10
-278.2845090903618
 20
222.8936848384577
 30
0.0
 10
-274.5858522217961
 20
222.8919562466878
 30
0.0
 10
-122.9538321316265
 20
222.8919562398858
 30
0.0
 10
28.68450260949879
 20
222.891956233071
 30
0.0
 10
180.3183571234024
 20
222.891956226269
 30
0.0
 10
281.953687302873
 20
222.8919562217001
 30
0.0
 10
383.5890527597124
 20
222.891956217144
 30
0.0
 10
485.2244182165563
 20
222.8919562125751
 30
0.0
 10
488.9239217422333
 20
222.8935436945006
 30
0.0
 10
491.5406213953788
 20
223.8725086181376
 30
0.0
 10
493.2748573787285
 20
227.1403581264312
 30
0.0
  0
ENDBLK
  5
B0
330
AD
100
AcDbEntity
  8
0
100
AcDbBlockEnd
  0
BLOCK
  5
B5
330
B3
100
AcDbEntity
  8
0
100
AcDbBlockBegin
  2
block 23
 70
     0
 10
0.0
 20
0.0
 30
0.0
  3
block 23
  1

  0
SPLINE
  5
B7
330
B3
100
AcDbEntity
  8
0
  6
AI-Linetype-11
 62
     6
370
    25
100
AcDbSpline
210
0.0
220
0.0
230
1.0
 70
    24
 71
     3
 72
    17
 73
    13
 74
     0
 42
0.0000000001
 43
0.0000000001
 12
1.0
 22
0.0
 32
0.0
 13
1.0
 23
0.0
 33
0.0
 40
0.0
 40
0.0
 40
0.0
 40
0.0
 40
1.0
 40
1.0
 40
1.0
 40
2.0
 40
2.0
 40
2.0
 40
3.0
 40
3.0
 40
3.0
 40
4.0
 40
4.0
 40
4.0
 40
4.0
 10
489.1680868492572
 20
191.3922900467605
 30
0.0
 10
489.1529528533914
 20
191.3922900467605
 30
0.0
 10
480.0667242019668
 20
191.3922900471712
 30
0.0
 10
480.0515902061049
 20
191.3922900471712
 30
0.0
 10
479.9906308940862
 20
191.3922900471712
 30
0.0
 10
479.9296715820605
 20
191.3922900471712
 30
0.0
 10
479.8686769926557
 20
191.3922900471776
 30
0.0
 10
478.2547368740377
 20
191.3922900472482
 30
0.0
 10
476.6407967554198
 20
191.3922900473252
 30
0.0
 10
475.0268213594152
 20
191.3922900473894
 30
0.0
 10
474.9544321763924
 20
191.3922900473958
 30
0.0
 10
466.8129068383385
 20
191.3922900477615
 30
0.0
 10
466.7404823779264
 20
191.3922900477615
 30
0.0
  0
ENDBLK
  5
B6
330
B3
100
AcDbEntity
  8
0
100
AcDbBlockEnd
  0
BLOCK
  5
BB
330
B9
100
AcDbEntity
  8
0
100
AcDbBlockBegin
  2
block 24
 70
     0
 10
0.0
 20
0.0
 30
0.0
  3
block 24
  1

  0
SPLINE
  5
BD
330
B9
100
AcDbEntity
  8
0
  6
AI-Linetype-12
 62
     6
370
    25
100
AcDbSpline
210
0.0
220
0.0
230
1.0
 70
     8
 71
     3
 72
     8
 73
     4
 74
     0
 42
0.0000000001
 43
0.0000000001
 12
1.0
 22
0.0
 32
0.0
 13
1.0
 23
0.0
 33
0.0
 40
0.0
 40
0.0
 40
0.0
 40
0.0
 40
1.0
 40
1.0
 40
1.0
 40
1.0
 10
493.4135680156103
 20
189.1212381773563
 30
0.0
 10
492.4907823190049
 20
190.5377660795349
 30
0.0
 10
490.914730106151
 20
191.3920431050169
 30
0.0
 10
489.2241675189586
 20
191.3922900467605
 30
0.0
  0
ENDBLK
  5
BC
330
B9
100
AcDbEntity
  8
0
100
AcDbBlockEnd
  0
BLOCK
  5
C1
330
BF
100
AcDbEntity
  8
0
100
AcDbBlockBegin
  2
block 25
 70
     0
 10
0.0
 20
0.0
 30
0.0
  3
block 25
  1

  0
SPLINE
  5
C3
330
BF
100
AcDbEntity
  8
0
 62
   250
370
    25
100
AcDbSpline
210
0.0
220
0.0
230
1.0
 70
     8
 71
     3
 72
    14
 73
    10
 74
     0
 42
0.0000000001
 43
0.0000000001
 12
1.0
 22
0.0
 32
0.0
 13
1.0
 23
0.0
 33
0.0
 40
0.0
 40
0.0
 40
0.0
 40
0.0
 40
1.0
 40
1.0
 40
1.0
 40
2.0
 40
2.0
 40
2.0
 40
3.0
 40
3.0
 40
3.0
 40
3.0
 10
505.3585240414301
 20
226.1177198061291
 30
0.0
 10
505.3476938858887
 20
226.2073243504299
 30
0.0
 10
505.33340654714
 20
226.296435011398
 30
0.0
 10
505.3224000046893
 20
226.3860395556988
 30
0.0
 10
505.1154981731494
 20
227.6648092903488
 30
0.0
 10
504.6266595234986
 20
228.6461554372461
 30
0.0
 10
503.7288502116422
 20
229.5804415597262
 30
0.0
 10
502.6046306772726
 20
230.7503100234681
 30
0.0
 10
501.05450733845
 20
231.4150064107536
 30
0.0
 10
499.4320300939586
 20
231.4229790986217
 30
0.0
  0
ENDBLK
  5
C2
330
BF
100
AcDbEntity
  8
0
100
AcDbBlockEnd
  0
BLOCK
  5
C6
330
C4
100
AcDbEntity
  8
0
100
AcDbBlockBegin
  2
block 26
 70
     0
 10
0.0
 20
0.0
 30
0.0
  3
block 26
  1

  0
SPLINE
  5
C8
330
C4
100
AcDbEntity
  8
0
 62
   250
370
    25
100
AcDbSpline
210
0.0
220
0.0
230
1.0
 70
     8
 71
     3
 72
     8
 73
     4
 74
     0
 42
0.0000000001
 43
0.0000000001
 12
1.0
 22
0.0
 32
0.0
 13
1.0
 23
0.0
 33
0.0
 40
0.0
 40
0.0
 40
0.0
 40
0.0
 40
1.0
 40
1.0
 40
1.0
 40
1.0
 10
-54.37263057953604
 20
107.453716279583
 30
0.0
 10
-57.85972900234992
 20
108.1948940260134
 30
0.0
 10
-61.34682742517052
 20
108.9361070498247
 30
0.0
 10
-64.8339258479847
 20
109.6773200736424
 30
0.0
  0
ENDBLK
  5
C7
330
C4
100
AcDbEntity
  8
0
100
AcDbBlockEnd
  0
BLOCK
  5
CB
330
C9
100
AcDbEntity
  8
0
100
AcDbBlockBegin
  2
block 27
 70
     0
 10
0.0
 20
0.0
 30
0.0
  3
block 27
  1

  0
SPLINE
  5
CD
330
C9
100
AcDbEntity
  8
0
  6
AI-Linetype-13
 62
     6
370
    25
100
AcDbSpline
210
0.0
220
0.0
230
1.0
 70
     8
 71
     3
 72
     8
 73
     4
 74
     0
 42
0.0000000001
 43
0.0000000001
 12
1.0
 22
0.0
 32
0.0
 13
1.0
 23
0.0
 33
0.0
 40
0.0
 40
0.0
 40
0.0
 40
0.0
 40
1.0
 40
1.0
 40
1.0
 40
1.0
 10
-88.56396080685703
 20
218.9351395055577
 30
0.0
 10
-93.68383746895576
 20
221.1990653443143
 30
0.0
 10
-98.78558155796131
 20
222.5017531425814
 30
0.0
 10
-104.3907338544961
 20
222.8192142822251
 30
0.0
  0
ENDBLK
  5
CC
330
C9
100
AcDbEntity
  8
0
100
AcDbBlockEnd
  0
BLOCK
  5
D1
330
CF
100
AcDbEntity
  8
0
100
AcDbBlockBegin
  2
block 28
 70
     0
 10
0.0
 20
0.0
 30
0.0
  3
block 28
  1

  0
SPLINE
  5
D3
330
CF
100
AcDbEntity
  8
0
  6
AI-Linetype-14
 62
     6
370
    25
100
AcDbSpline
210
0.0
220
0.0
230
1.0
 70
     8
 71
     3
 72
     8
 73
     4
 74
     0
 42
0.0000000001
 43
0.0000000001
 12
1.0
 22
0.0
 32
0.0
 13
1.0
 23
0.0
 33
0.0
 40
0.0
 40
0.0
 40
0.0
 40
0.0
 40
1.0
 40
1.0
 40
1.0
 40
1.0
 10
219.7553631487789
 20
112.4440896688066
 30
0.0
 10
219.7782228907878
 20
112.4453596544701
 30
0.0
 10
219.8010826327966
 20
112.4465238080035
 30
0.0
 10
219.8239776521794
 20
112.4476526841432
 30
0.0
  0
ENDBLK
  5
D2
330
CF
100
AcDbEntity
  8
0
100
AcDbBlockEnd
  0
BLOCK
  5
D7
330
D5
100
AcDbEntity
  8
0
100
AcDbBlockBegin
  2
block 29
 70
     0
 10
0.0
 20
0.0
 30
0.0
  3
block 29
  1

  0
SPLINE
  5
D9
330
D5
100
AcDbEntity
  8
0
 62
   250
370
    25
100
AcDbSpline
210
0.0
220
0.0
230
1.0
 70
     8
 71
     3
 72
    14
 73
    10
 74
     0
 42
0.0000000001
 43
0.0000000001
 12
1.0
 22
0.0
 32
0.0
 13
1.0
 23
0.0
 33
0.0
 40
0.0
 40
0.0
 40
0.0
 40
0.0
 40
1.0
 40
1.0
 40
1.0
 40
2.0
 40
2.0
 40
2.0
 40
3.0
 40
3.0
 40
3.0
 40
3.0
 10
498.8129826359989
 20
231.3954274651493
 30
0.0
 10
499.0060557347791
 20
231.4132778192398
 30
0.0
 10
499.1988466145187
 20
231.421744390352
 30
0.0
 10
499.3927310930331
 20
231.4208271784595
 30
0.0
 10
499.3839470254989
 20
231.4124664394901
 30
0.0
 10
499.3739988044395
 20
231.4055873504578
 30
0.0
 10
499.3650383500139
 20
231.3975088305239
 30
0.0
 10
499.3457063459678
 20
231.4017773934546
 30
0.0
 10
499.3267271157248
 20
231.3999782471018
 30
0.0
 10
499.3074656664444
 20
231.3998018602035
 30
0.0
  0
ENDBLK
  5
D8
330
D5
100
AcDbEntity
  8
0
100
AcDbBlockEnd
  0
BLOCK
  5
DC
330
DA
100
AcDbEntity
  8
0
100
AcDbBlockBegin
  2
block 30
 70
     0
 10
0.0
 20
0.0
 30
0.0
  3
block 30
  1

  0
SPLINE
  5
DE
330
DA
100
AcDbEntity
  8
0
 62
   250
370
    25
100
AcDbSpline
210
0.0
220
0.0
230
1.0
 70
     8
 71
     3
 72
     8
 73
     4
 74
     0
 42
0.0000000001
 43
0.0000000001
 12
1.0
 22
0.0
 32
0.0
 13
1.0
 23
0.0
 33
0.0
 40
0.0
 40
0.0
 40
0.0
 40
0.0
 40
1.0
 40
1.0
 40
1.0
 40
1.0
 10
328.1861749674546
 20
85.21764304908564
 30
0.0
 10
331.9877006750521
 20
85.11234007068298
 30
0.0
 10
361.8844332644826
 20
84.27012790777309
 30
0.0
 10
365.7269160097986
 20
83.05270553615249
 30
0.0
  0
ENDBLK
  5
DD
330
DA
100
AcDbEntity
  8
0
100
AcDbBlockEnd
  0
BLOCK
  5
E1
330
DF
100
AcDbEntity
  8
0
100
AcDbBlockBegin
  2
block 31
 70
     0
 10
0.0
 20
0.0
 30
0.0
  3
block 31
  1

  0
SPLINE
  5
E3
330
DF
100
AcDbEntity
  8
0
 62
   250
370
    25
100
AcDbSpline
210
0.0
220
0.0
230
1.0
 70
     8
 71
     3
 72
    11
 73
     7
 74
     0
 42
0.0000000001
 43
0.0000000001
 12
1.0
 22
0.0
 32
0.0
 13
1.0
 23
0.0
 33
0.0
 40
0.0
 40
0.0
 40
0.0
 40
0.0
 40
1.0
 40
1.0
 40
1.0
 40
2.0
 40
2.0
 40
2.0
 40
2.0
 10
-83.35621660742589
 20
185.6141306753515
 30
0.0
 10
-72.97715291213451
 20
156.125063484558
 30
0.0
 10
-59.80040821036135
 20
127.2903279620294
 30
0.0
 10
-44.15757142120847
 20
100.2231587155582
 30
0.0
 10
-44.38503996513545
 20
100.2450659683321
 30
0.0
 10
-44.61250850906949
 20
100.2668321115822
 30
0.0
 10
-44.84001233037741
 20
100.2884218679269
 30
0.0
  0
ENDBLK
  5
E2
330
DF
100
AcDbEntity
  8
0
100
AcDbBlockEnd
  0
BLOCK
  5
E6
330
E4
100
AcDbEntity
  8
0
100
AcDbBlockBegin
  2
block 32
 70
     0
 10
0.0
 20
0.0
 30
0.0
  3
block 32
  1

  0
SPLINE
  5
E8
330
E4
100
AcDbEntity
  8
0
 62
   250
370
    25
100
AcDbSpline
210
0.0
220
0.0
230
1.0
 70
     8
 71
     3
 72
     8
 73
     4
 74
     0
 42
0.0000000001
 43
0.0000000001
 12
1.0
 22
0.0
 32
0.0
 13
1.0
 23
0.0
 33
0.0
 40
0.0
 40
0.0
 40
0.0
 40
0.0
 40
1.0
 40
1.0
 40
1.0
 40
1.0
 10
-288.7350447577373
 20
231.4083037440725
 30
0.0
 10
-288.6067056506008
 20
231.4085506857267
 30
0.0
 10
-288.4786840398799
 20
231.4046701739614
 30
0.0
 10
-288.3505565970194
 20
231.3966974861576
 30
0.0
  0
ENDBLK
  5
E7
330
E4
100
AcDbEntity
  8
0
100
AcDbBlockEnd
  0
BLOCK
  5
EB
330
E9
100
AcDbEntity
  8
0
100
AcDbBlockBegin
  2
block 33
 70
     0
 10
0.0
 20
0.0
 30
0.0
  3
block 33
  1

  0
SPLINE
  5
ED
330
E9
100
AcDbEntity
  8
0
 62
   250
370
    25
100
AcDbSpline
210
0.0
220
0.0
230
1.0
 70
     8
 71
     3
 72
     8
 73
     4
 74
     0
 42
0.0000000001
 43
0.0000000001
 12
1.0
 22
0.0
 32
0.0
 13
1.0
 23
0.0
 33
0.0
 40
0.0
 40
0.0
 40
0.0
 40
0.0
 40
1.0
 40
1.0
 40
1.0
 40
1.0
 10
-294.7407717003796
 20
225.9378052058806
 30
0.0
 10
-294.7361503636395
 20
225.9903332241687
 30
0.0
 10
-294.730858756696
 20
226.0427554103133
 30
0.0
 10
-294.7248616021557
 20
226.0951423190899
 30
0.0
  0
ENDBLK
  5
EC
330
E9
100
AcDbEntity
  8
0
100
AcDbBlockEnd
  0
BLOCK
  5
F0
330
EE
100
AcDbEntity
  8
0
100
AcDbBlockBegin
  2
block 34
 70
     0
 10
0.0
 20
0.0
 30
0.0
  3
block 34
  1

  0
SPLINE
  5
F2
330
EE
100
AcDbEntity
  8
0
 62
   250
370
    25
100
AcDbSpline
210
0.0
220
0.0
230
1.0
 70
     8
 71
     3
 72
     8
 73
     4
 74
     0
 42
0.0000000001
 43
0.0000000001
 12
1.0
 22
0.0
 32
0.0
 13
1.0
 23
0.0
 33
0.0
 40
0.0
 40
0.0
 40
0.0
 40
0.0
 40
1.0
 40
1.0
 40
1.0
 40
1.0
 10
-294.6250618951115
 20
226.6952811015492
 30
0.0
 10
-294.6041424089875
 20
226.7909886325271
 30
0.0
 10
-294.580859338423
 20
226.8860611706607
 30
0.0
 10
-294.5552479607899
 20
226.9806751028474
 30
0.0
  0
ENDBLK
  5
F1
330
EE
100
AcDbEntity
  8
0
100
AcDbBlockEnd
  0
BLOCK
  5
F5
330
F3
100
AcDbEntity
  8
0
100
AcDbBlockBegin
  2
block 35
 70
     0
 10
0.0
 20
0.0
 30
0.0
  3
block 35
  1

  0
SPLINE
  5
F7
330
F3
100
AcDbEntity
  8
0
 62
   250
370
    25
100
AcDbSpline
210
0.0
220
0.0
230
1.0
 70
     8
 71
     3
 72
     8
 73
     4
 74
     0
 42
0.0000000001
 43
0.0000000001
 12
1.0
 22
0.0
 32
0.0
 13
1.0
 23
0.0
 33
0.0
 40
0.0
 40
0.0
 40
0.0
 40
0.0
 40
1.0
 40
1.0
 40
1.0
 40
1.0
 10
-291.1155623360044
 20
230.9235572705243
 30
0.0
 10
-290.6484898295312
 20
231.1225569690614
 30
0.0
 10
-290.1751026721128
 20
231.2574223914144
 30
0.0
 10
-289.6732466693235
 20
231.3343976337706
 30
0.0
  0
ENDBLK
  5
F6
330
F3
100
AcDbEntity
  8
0
100
AcDbBlockEnd
  0
BLOCK
  5
FA
330
F8
100
AcDbEntity
  8
0
100
AcDbBlockBegin
  2
block 36
 70
     0
 10
0.0
 20
0.0
 30
0.0
  3
block 36
  1

  0
SPLINE
  5
FC
330
F8
100
AcDbEntity
  8
0
  6
AI-Linetype-15
 62
     6
370
    25
100
AcDbSpline
210
0.0
220
0.0
230
1.0
 70
     8
 71
     3
 72
     8
 73
     4
 74
     0
 42
0.0000000001
 43
0.0000000001
 12
1.0
 22
0.0
 32
0.0
 13
1.0
 23
0.0
 33
0.0
 40
0.0
 40
0.0
 40
0.0
 40
0.0
 40
1.0
 40
1.0
 40
1.0
 40
1.0
 10
140.8088207955771
 20
112.4478290745901
 30
0.0
 10
140.8324213625603
 20
112.446700198444
 30
0.0
 10
140.8559866521624
 20
112.4454654901551
 30
0.0
 10
140.8795872191334
 20
112.4441955044916
 30
0.0
  0
ENDBLK
  5
FB
330
F8
100
AcDbEntity
  8
0
100
AcDbBlockEnd
  0
BLOCK
  5
100
330
FE
100
AcDbEntity
  8
0
100
AcDbBlockBegin
  2
block 37
 70
     0
 10
0.0
 20
0.0
 30
0.0
  3
block 37
  1

  0
SPLINE
  5
102
330
FE
100
AcDbEntity
  8
0
  6
AI-Linetype-16
 62
     6
370
    25
100
AcDbSpline
210
0.0
220
0.0
230
1.0
 70
     8
 71
     3
 72
     8
 73
     4
 74
     0
 42
0.0000000001
 43
0.0000000001
 12
1.0
 22
0.0
 32
0.0
 13
1.0
 23
0.0
 33
0.0
 40
0.0
 40
0.0
 40
0.0
 40
0.0
 40
1.0
 40
1.0
 40
1.0
 40
1.0
 10
56.8569402251952
 20
125.8843988906383
 30
0.0
 10
74.12885112982393
 20
120.8920499550666
 30
0.0
 10
98.04840338408073
 20
115.8362566685106
 30
0.0
 10
115.9318829423279
 20
114.0261390408914
 30
0.0
  0
ENDBLK
  5
101
330
FE
100
AcDbEntity
  8
0
100
AcDbBlockEnd
  0
BLOCK
  5
106
330
104
100
AcDbEntity
  8
0
100
AcDbBlockBegin
  2
block 38
 70
     0
 10
0.0
 20
0.0
 30
0.0
  3
block 38
  1

  0
SPLINE
  5
108
330
104
100
AcDbEntity
  8
0
 62
   250
370
    25
100
AcDbSpline
210
0.0
220
0.0
230
1.0
 70
     8
 71
     3
 72
    17
 73
    13
 74
     0
 42
0.0000000001
 43
0.0000000001
 12
1.0
 22
0.0
 32
0.0
 13
1.0
 23
0.0
 33
0.0
 40
0.0
 40
0.0
 40
0.0
 40
0.0
 40
1.0
 40
1.0
 40
1.0
 40
2.0
 40
2.0
 40
2.0
 40
3.0
 40
3.0
 40
3.0
 40
4.0
 40
4.0
 40
4.0
 40
4.0
 10
-2.782038102925729
 20
83.42555217813839
 30
0.0
 10
-1.987309294345482
 20
83.52097749002985
 30
0.0
 10
-1.191239945339849
 20
83.60073964536113
 30
0.0
 10
-0.3941475523245414
 20
83.67305827359634
 30
0.0
 10
1.180423010618481
 20
83.81596693845094
 30
0.0
 10
2.756475223511007
 20
83.93379338638607
 30
0.0
 10
4.334220750625899
 20
84.0348630789888
 30
0.0
 10
7.489394308432915
 20
84.23700246420069
 30
0.0
 10
10.64580257452311
 20
84.40940301836564
 30
0.0
 10
13.80422165125748
 20
84.55210001887036
 30
0.0
 10
20.12109508210139
 20
84.83749401989266
 30
0.0
 10
26.43976765931019
 20
85.05067522478986
 30
0.0
 10
32.76041576977003
 20
85.22632129774098
 30
0.0
  0
ENDBLK
  5
107
330
104
100
AcDbEntity
  8
0
100
AcDbBlockEnd
  0
BLOCK
  5
10B
330
109
100
AcDbEntity
  8
0
100
AcDbBlockBegin
  2
block 39
 70
     0
 10
0.0
 20
0.0
 30
0.0
  3
block 39
  1

  0
POLYLINE
  5
10D
330
109
100
AcDbEntity
  8
0
 62
   250
370
    25
100
AcDb2dPolyline
 66
     1
 10
0.0
 20
0.0
 30
0.0
  0
VERTEX
  5
10E
330
10D
100
AcDbEntity
  8
0
 62
   250
370
    25
100
AcDbVertex
100
AcDb2dVertex
 10
-64.8339258479847
 20
109.6773200736424
 30
0.0
  0
VERTEX
  5
10F
330
10D
100
AcDbEntity
  8
0
 62
   250
370
    25
100
AcDbVertex
100
AcDb2dVertex
 10
-212.7153607653463
 20
141.1104883852933
 30
0.0
  0
SEQEND
  5
110
330
10D
100
AcDbEntity
  8
0
 62
   250
370
    25
  0
ENDBLK
  5
10C
330
109
100
AcDbEntity
  8
0
100
AcDbBlockEnd
  0
BLOCK
  5
113
330
111
100
AcDbEntity
  8
0
100
AcDbBlockBegin
  2
block 40
 70
     0
 10
0.0
 20
0.0
 30
0.0
  3
block 40
  1

  0
SPLINE
  5
115
330
111
100
AcDbEntity
  8
0
  6
AI-Linetype-17
 62
     6
370
    25
100
AcDbSpline
210
0.0
220
0.0
230
1.0
 70
     8
 71
     3
 72
    74
 73
    70
 74
     0
 42
0.0000000001
 43
0.0000000001
 12
1.0
 22
0.0
 32
0.0
 13
1.0
 23
0.0
 33
0.0
 40
0.0
 40
0.0
 40
0.0
 40
0.0
 40
1.0
 40
1.0
 40
1.0
 40
2.0
 40
2.0
 40
2.0
 40
3.0
 40
3.0
 40
3.0
 40
4.0
 40
4.0
 40
4.0
 40
5.0
 40
5.0
 40
5.0
 40
6.0
 40
6.0
 40
6.0
 40
7.0
 40
7.0
 40
7.0
 40
8.0
 40
8.0
 40
8.0
 40
9.0
 40
9.0
 40
9.0
 40
10.0
 40
10.0
 40
10.0
 40
11.0
 40
11.0
 40
11.0
 40
12.0
 40
12.0
 40
12.0
 40
13.0
 40
13.0
 40
13.0
 40
14.0
 40
14.0
 40
14.0
 40
15.0
 40
15.0
 40
15.0
 40
16.0
 40
16.0
 40
16.0
 40
17.0
 40
17.0
 40
17.0
 40
18.0
 40
18.0
 40
18.0
 40
19.0
 40
19.0
 40
19.0
 40
20.0
 40
20.0
 40
20.0
 40
21.0
 40
21.0
 40
21.0
 40
22.0
 40
22.0
 40
22.0
 40
23.0
 40
23.0
 40
23.0
 40
23.0
 10
167.8184879159757
 20
189.3035516899601
 30
0.0
 10
167.8184879159886
 20
189.5354299063485
 30
0.0
 10
167.8184879160014
 20
189.7672728453554
 30
0.0
 10
167.8184879160078
 20
189.9991510617432
 30
0.0
 10
167.8184879160206
 20
190.2974565839953
 30
0.0
 10
167.8293180715871
 20
190.5947743396181
 30
0.0
 10
167.8510489374563
 20
190.8923037595208
 30
0.0
 10
167.9615024131849
 20
192.4285983655425
 30
0.0
 10
168.3674744981721
 20
193.9425623902382
 30
0.0
 10
169.0364747257627
 20
195.3297042351082
 30
0.0
 10
169.7158465029732
 20
196.7383300041864
 30
0.0
 10
170.6664307748646
 20
198.0161472495316
 30
0.0
 10
171.8198952570646
 20
199.0719992221687
 30
0.0
 10
172.970466994141
 20
200.1252053913296
 30
0.0
 10
174.3228958975037
 20
200.9575398865347
 30
0.0
 10
175.7795694577115
 20
201.5158044193099
 30
0.0
 10
176.5015915868529
 20
201.792520185191
 30
0.0
 10
177.2492250936158
 20
202.0018914333291
 30
0.0
 10
178.0096642891893
 20
202.1422954042694
 30
0.0
 10
178.7706679228334
 20
202.282769929972
 30
0.0
 10
179.5445125226556
 20
202.354171346334
 30
0.0
 10
180.3183571224783
 20
202.3537832951178
 30
0.0
 10
181.0922017223133
 20
202.3541713462698
 30
0.0
 10
181.866046322136
 20
202.2827699298308
 30
0.0
 10
182.6270499557667
 20
202.1422954040577
 30
0.0
 10
183.3874891513215
 20
202.0018914330528
 30
0.0
 10
184.1351226580652
 20
201.7925201848445
 30
0.0
 10
184.8571447871803
 20
201.5158044189056
 30
0.0
 10
186.3138183473368
 20
200.9575398859953
 30
0.0
 10
187.6662472506353
 20
200.1252053906686
 30
0.0
 10
188.816818987609
 20
199.0719992214051
 30
0.0
 10
189.9702481923383
 20
198.0161472486653
 30
0.0
 10
190.9208677414892
 20
196.7383300032303
 30
0.0
 10
191.6002395185778
 20
195.3297042341007
 30
0.0
 10
192.2692397460401
 20
193.9425623891663
 30
0.0
 10
192.6752118308983
 20
192.4285983644324
 30
0.0
 10
192.7856300291055
 20
190.8923037583979
 30
0.0
 10
192.8073608949484
 20
190.5947743385016
 30
0.0
 10
192.8182263278637
 20
190.2974565828724
 30
0.0
 10
192.8182263278509
 20
189.9991510606202
 30
0.0
 10
192.8182968825743
 20
189.1878418836133
 30
0.0
 10
192.7367355808011
 20
188.3769913125459
 30
0.0
 10
192.5768232188512
 20
187.5817333432831
 30
0.0
 10
192.4168403021401
 20
186.7861226002302
 30
0.0
 10
192.17840049311
 20
186.0061397363503
 30
0.0
 10
191.8648904201986
 20
185.2576948498823
 30
0.0
 10
191.2374469458187
 20
183.7597820329315
 30
0.0
 10
190.3092285326087
 20
182.3882680672536
 30
0.0
 10
189.1543882325959
 20
181.2464803978142
 30
0.0
 10
187.9963024136615
 20
180.1014472094477
 30
0.0
 10
186.6102541674861
 20
179.187480857745
 30
0.0
 10
185.1031692317779
 20
178.5701267140721
 30
0.0
 10
183.5896285355965
 20
177.9500914895607
 30
0.0
 10
181.9539928284788
 20
177.6292437217866
 30
0.0
 10
180.3183571213746
 20
177.6293848313807
 30
0.0
 10
178.682403917854
 20
177.6292437219345
 30
0.0
 10
177.0464507143591
 20
177.9502325993668
 30
0.0
 10
175.5326630765688
 20
178.5704794882987
 30
0.0
 10
174.0258956373212
 20
179.1878336321064
 30
0.0
 10
172.6401648876513
 20
180.1016941517878
 30
0.0
 10
171.4822907330932
 20
181.2464803986099
 30
0.0
 10
170.3274504331824
 20
182.388268068152
 30
0.0
 10
169.3992320201007
 20
183.7598173112943
 30
0.0
 10
168.771788545862
 20
185.2577301282964
 30
0.0
 10
168.4582784730155
 20
186.0061750147962
 30
0.0
 10
168.2198386640489
 20
186.7861578786892
 30
0.0
 10
168.0598557474083
 20
187.5817686217614
 30
0.0
 10
167.8999433855297
 20
188.376991313656
 30
0.0
 10
167.8184173612138
 20
189.1878418847363
 30
0.0
 10
167.8184879160078
 20
189.9991510617432
 30
0.0
  0
ENDBLK
  5
114
330
111
100
AcDbEntity
  8
0
100
AcDbBlockEnd
  0
BLOCK
  5
119
330
117
100
AcDbEntity
  8
0
100
AcDbBlockBegin
  2
block 41
 70
     0
 10
0.0
 20
0.0
 30
0.0
  3
block 41
  1

  0
SPLINE
  5
11B
330
117
100
AcDbEntity
  8
0
 62
   250
370
    25
100
AcDbSpline
210
0.0
220
0.0
230
1.0
 70
     8
 71
     3
 72
    14
 73
    10
 74
     0
 42
0.0000000001
 43
0.0000000001
 12
1.0
 22
0.0
 32
0.0
 13
1.0
 23
0.0
 33
0.0
 40
0.0
 40
0.0
 40
0.0
 40
0.0
 40
1.0
 40
1.0
 40
1.0
 40
2.0
 40
2.0
 40
2.0
 40
3.0
 40
3.0
 40
3.0
 40
3.0
 10
502.5516793304118
 20
230.5053791766151
 30
0.0
 10
501.5558341805277
 20
231.1196641883684
 30
0.0
 10
500.5783685454206
 20
231.3974382757107
 30
0.0
 10
499.4082884174588
 20
231.3987082614255
 30
0.0
 10
499.4158377767054
 20
231.4071748325438
 30
0.0
 10
499.4251862823015
 20
231.413701147773
 30
0.0
 10
499.4320300939586
 20
231.4229790986217
 30
0.0
 10
499.3824300981822
 20
231.4232260402755
 30
0.0
 10
499.3328301023986
 20
231.4234377045612
 30
0.0
 10
499.2832301066293
 20
231.4236846462214
 30
0.0
  0
ENDBLK
  5
11A
330
117
100
AcDbEntity
  8
0
100
AcDbBlockEnd
  0
BLOCK
  5
11E
330
11C
100
AcDbEntity
  8
0
100
AcDbBlockBegin
  2
block 42
 70
     0
 10
0.0
 20
0.0
 30
0.0
  3
block 42
  1

  0
SPLINE
  5
120
330
11C
100
AcDbEntity
  8
0
  6
AI-Linetype-18
 62
     6
370
    25
100
AcDbSpline
210
0.0
220
0.0
230
1.0
 70
     8
 71
     3
 72
     8
 73
     4
 74
     0
 42
0.0000000001
 43
0.0000000001
 12
1.0
 22
0.0
 32
0.0
 13
1.0
 23
0.0
 33
0.0
 40
0.0
 40
0.0
 40
0.0
 40
0.0
 40
1.0
 40
1.0
 40
1.0
 40
1.0
 10
-89.32810412726583
 20
219.256975040069
 30
0.0
 10
-89.28495989196313
 20
219.2388071895435
 30
0.0
 10
-89.24181565666682
 20
219.220568784269
 30
0.0
 10
-89.19874197611959
 20
219.2022598242255
 30
0.0
  0
ENDBLK
  5
11F
330
11C
100
AcDbEntity
  8
0
100
AcDbBlockEnd
  0
BLOCK
  5
124
330
122
100
AcDbEntity
  8
0
100
AcDbBlockBegin
  2
block 43
 70
     0
 10
0.0
 20
0.0
 30
0.0
  3
block 43
  1

  0
SPLINE
  5
126
330
122
100
AcDbEntity
  8
0
 62
   250
370
    25
100
AcDbSpline
210
0.0
220
0.0
230
1.0
 70
     8
 71
     3
 72
    11
 73
     7
 74
     0
 42
0.0000000001
 43
0.0000000001
 12
1.0
 22
0.0
 32
0.0
 13
1.0
 23
0.0
 33
0.0
 40
0.0
 40
0.0
 40
0.0
 40
0.0
 40
1.0
 40
1.0
 40
1.0
 40
2.0
 40
2.0
 40
2.0
 40
2.0
 10
-288.7218510177548
 20
231.3927464196558
 30
0.0
 10
-288.7317286840539
 20
231.4027299180978
 30
0.0
 10
-288.7436524383727
 20
231.4116903725176
 30
0.0
 10
-288.7543414844025
 20
231.4208272138421
 30
0.0
 10
-288.5607039475483
 20
231.4217444257153
 30
0.0
 10
-288.3681247320848
 20
231.4133131319719
 30
0.0
 10
-288.1752985749578
 20
231.3954980552425
 30
0.0
  0
ENDBLK
  5
125
330
122
100
AcDbEntity
  8
0
100
AcDbBlockEnd
  0
BLOCK
  5
129
330
127
100
AcDbEntity
  8
0
100
AcDbBlockBegin
  2
block 44
 70
     0
 10
0.0
 20
0.0
 30
0.0
  3
block 44
  1

  0
SPLINE
  5
12B
330
127
100
AcDbEntity
  8
0
 62
   250
370
    25
100
AcDbSpline
210
0.0
220
0.0
230
1.0
 70
     8
 71
     3
 72
    11
 73
     7
 74
     0
 42
0.0000000001
 43
0.0000000001
 12
1.0
 22
0.0
 32
0.0
 13
1.0
 23
0.0
 33
0.0
 40
0.0
 40
0.0
 40
0.0
 40
0.0
 40
1.0
 40
1.0
 40
1.0
 40
2.0
 40
2.0
 40
2.0
 40
2.0
 10
-288.7543414844025
 20
231.423155520909
 30
0.0
 10
-288.767464669629
 20
231.4231202435281
 30
0.0
 10
-288.7805525774748
 20
231.4230496887726
 30
0.0
 10
-288.7936404853203
 20
231.4229791340107
 30
0.0
 10
-291.0542855275453
 20
231.4119373142869
 30
0.0
 10
-293.1168128057498
 20
230.131156769095
 30
0.0
 10
-294.1290619372859
 20
228.1097981930317
 30
0.0
  0
ENDBLK
  5
12A
330
127
100
AcDbEntity
  8
0
100
AcDbBlockEnd
  0
BLOCK
  5
12E
330
12C
100
AcDbEntity
  8
0
100
AcDbBlockBegin
  2
block 45
 70
     0
 10
0.0
 20
0.0
 30
0.0
  3
block 45
  1

  0
SPLINE
  5
130
330
12C
100
AcDbEntity
  8
0
 62
   250
370
    25
100
AcDbSpline
210
0.0
220
0.0
230
1.0
 70
     8
 71
     3
 72
   758
 73
   754
 74
     0
 42
0.0000000001
 43
0.0000000001
 12
1.0
 22
0.0
 32
0.0
 13
1.0
 23
0.0
 33
0.0
 40
0.0
 40
0.0
 40
0.0
 40
0.0
 40
1.0
 40
1.0
 40
1.0
 40
2.0
 40
2.0
 40
2.0
 40
3.0
 40
3.0
 40
3.0
 40
4.0
 40
4.0
 40
4.0
 40
5.0
 40
5.0
 40
5.0
 40
6.0
 40
6.0
 40
6.0
 40
7.0
 40
7.0
 40
7.0
 40
8.0
 40
8.0
 40
8.0
 40
9.0
 40
9.0
 40
9.0
 40
10.0
 40
10.0
 40
10.0
 40
11.0
 40
11.0
 40
11.0
 40
12.0
 40
12.0
 40
12.0
 40
13.0
 40
13.0
 40
13.0
 40
14.0
 40
14.0
 40
14.0
 40
15.0
 40
15.0
 40
15.0
 40
16.0
 40
16.0
 40
16.0
 40
17.0
 40
17.0
 40
17.0
 40
18.0
 40
18.0
 40
18.0
 40
19.0
 40
19.0
 40
19.0
 40
20.0
 40
20.0
 40
20.0
 40
21.0
 40
21.0
 40
21.0
 40
22.0
 40
22.0
 40
22.0
 40
23.0
 40
23.0
 40
23.0
 40
24.0
 40
24.0
 40
24.0
 40
25.0
 40
25.0
 40
25.0
 40
26.0
 40
26.0
 40
26.0
 40
27.0
 40
27.0
 40
27.0
 40
28.0
 40
28.0
 40
28.0
 40
29.0
 40
29.0
 40
29.0
 40
30.0
 40
30.0
 40
30.0
 40
31.0
 40
31.0
 40
31.0
 40
32.0
 40
32.0
 40
32.0
 40
33.0
 40
33.0
 40
33.0
 40
34.0
 40
34.0
 40
34.0
 40
35.0
 40
35.0
 40
35.0
 40
36.0
 40
36.0
 40
36.0
 40
37.0
 40
37.0
 40
37.0
 40
38.0
 40
38.0
 40
38.0
 40
39.0
 40
39.0
 40
39.0
 40
40.0
 40
40.0
 40
40.0
 40
41.0
 40
41.0
 40
41.0
 40
42.0
 40
42.0
 40
42.0
 40
43.0
 40
43.0
 40
43.0
 40
44.0
 40
44.0
 40
44.0
 40
45.0
 40
45.0
 40
45.0
 40
46.0
 40
46.0
 40
46.0
 40
47.0
 40
47.0
 40
47.0
 40
48.0
 40
48.0
 40
48.0
 40
49.0
 40
49.0
 40
49.0
 40
50.0
 40
50.0
 40
50.0
 40
51.0
 40
51.0
 40
51.0
 40
52.0
 40
52.0
 40
52.0
 40
53.0
 40
53.0
 40
53.0
 40
54.0
 40
54.0
 40
54.0
 40
55.0
 40
55.0
 40
55.0
 40
56.0
 40
56.0
 40
56.0
 40
57.0
 40
57.0
 40
57.0
 40
58.0
 40
58.0
 40
58.0
 40
59.0
 40
59.0
 40
59.0
 40
60.0
 40
60.0
 40
60.0
 40
61.0
 40
61.0
 40
61.0
 40
62.0
 40
62.0
 40
62.0
 40
63.0
 40
63.0
 40
63.0
 40
64.0
 40
64.0
 40
64.0
 40
65.0
 40
65.0
 40
65.0
 40
66.0
 40
66.0
 40
66.0
 40
67.0
 40
67.0
 40
67.0
 40
68.0
 40
68.0
 40
68.0
 40
69.0
 40
69.0
 40
69.0
 40
70.0
 40
70.0
 40
70.0
 40
71.0
 40
71.0
 40
71.0
 40
72.0
 40
72.0
 40
72.0
 40
73.0
 40
73.0
 40
73.0
 40
74.0
 40
74.0
 40
74.0
 40
75.0
 40
75.0
 40
75.0
 40
76.0
 40
76.0
 40
76.0
 40
77.0
 40
77.0
 40
77.0
 40
78.0
 40
78.0
 40
78.0
 40
79.0
 40
79.0
 40
79.0
 40
80.0
 40
80.0
 40
80.0
 40
81.0
 40
81.0
 40
81.0
 40
82.0
 40
82.0
 40
82.0
 40
83.0
 40
83.0
 40
83.0
 40
84.0
 40
84.0
 40
84.0
 40
85.0
 40
85.0
 40
85.0
 40
86.0
 40
86.0
 40
86.0
 40
87.0
 40
87.0
 40
87.0
 40
88.0
 40
88.0
 40
88.0
 40
89.0
 40
89.0
 40
89.0
 40
90.0
 40
90.0
 40
90.0
 40
91.0
 40
91.0
 40
91.0
 40
92.0
 40
92.0
 40
92.0
 40
93.0
 40
93.0
 40
93.0
 40
94.0
 40
94.0
 40
94.0
 40
95.0
 40
95.0
 40
95.0
 40
96.0
 40
96.0
 40
96.0
 40
97.0
 40
97.0
 40
97.0
 40
98.0
 40
98.0
 40
98.0
 40
99.0
 40
99.0
 40
99.0
 40
100.0
 40
100.0
 40
100.0
 40
101.0
 40
101.0
 40
101.0
 40
102.0
 40
102.0
 40
102.0
 40
103.0
 40
103.0
 40
103.0
 40
104.0
 40
104.0
 40
104.0
 40
105.0
 40
105.0
 40
105.0
 40
106.0
 40
106.0
 40
106.0
 40
107.0
 40
107.0
 40
107.0
 40
108.0
 40
108.0
 40
108.0
 40
109.0
 40
109.0
 40
109.0
 40
110.0
 40
110.0
 40
110.0
 40
111.0
 40
111.0
 40
111.0
 40
112.0
 40
112.0
 40
112.0
 40
113.0
 40
113.0
 40
113.0
 40
114.0
 40
114.0
 40
114.0
 40
115.0
 40
115.0
 40
115.0
 40
116.0
 40
116.0
 40
116.0
 40
117.0
 40
117.0
 40
117.0
 40
118.0
 40
118.0
 40
118.0
 40
119.0
 40
119.0
 40
119.0
 40
120.0
 40
120.0
 40
120.0
 40
121.0
 40
121.0
 40
121.0
 40
122.0
 40
122.0
 40
122.0
 40
123.0
 40
123.0
 40
123.0
 40
124.0
 40
124.0
 40
124.0
 40
125.0
 40
125.0
 40
125.0
 40
126.0
 40
126.0
 40
126.0
 40
127.0
 40
127.0
 40
127.0
 40
128.0
 40
128.0
 40
128.0
 40
129.0
 40
129.0
 40
129.0
 40
130.0
 40
130.0
 40
130.0
 40
131.0
 40
131.0
 40
131.0
 40
132.0
 40
132.0
 40
132.0
 40
133.0
 40
133.0
 40
133.0
 40
134.0
 40
134.0
 40
134.0
 40
135.0
 40
135.0
 40
135.0
 40
136.0
 40
136.0
 40
136.0
 40
137.0
 40
137.0
 40
137.0
 40
138.0
 40
138.0
 40
138.0
 40
139.0
 40
139.0
 40
139.0
 40
140.0
 40
140.0
 40
140.0
 40
141.0
 40
141.0
 40
141.0
 40
142.0
 40
142.0
 40
142.0
 40
143.0
 40
143.0
 40
143.0
 40
144.0
 40
144.0
 40
144.0
 40
145.0
 40
145.0
 40
145.0
 40
146.0
 40
146.0
 40
146.0
 40
147.0
 40
147.0
 40
147.0
 40
148.0
 40
148.0
 40
148.0
 40
149.0
 40
149.0
 40
149.0
 40
150.0
 40
150.0
 40
150.0
 40
151.0
 40
151.0
 40
151.0
 40
152.0
 40
152.0
 40
152.0
 40
153.0
 40
153.0
 40
153.0
 40
154.0
 40
154.0
 40
154.0
 40
155.0
 40
155.0
 40
155.0
 40
156.0
 40
156.0
 40
156.0
 40
157.0
 40
157.0
 40
157.0
 40
158.0
 40
158.0
 40
158.0
 40
159.0
 40
159.0
 40
159.0
 40
160.0
 40
160.0
 40
160.0
 40
161.0
 40
161.0
 40
161.0
 40
162.0
 40
162.0
 40
162.0
 40
163.0
 40
163.0
 40
163.0
 40
164.0
 40
164.0
 40
164.0
 40
165.0
 40
165.0
 40
165.0
 40
166.0
 40
166.0
 40
166.0
 40
167.0
 40
167.0
 40
167.0
 40
168.0
 40
168.0
 40
168.0
 40
169.0
 40
169.0
 40
169.0
 40
170.0
 40
170.0
 40
170.0
 40
171.0
 40
171.0
 40
171.0
 40
172.0
 40
172.0
 40
172.0
 40
173.0
 40
173.0
 40
173.0
 40
174.0
 40
174.0
 40
174.0
 40
175.0
 40
175.0
 40
175.0
 40
176.0
 40
176.0
 40
176.0
 40
177.0
 40
177.0
 40
177.0
 40
178.0
 40
178.0
 40
178.0
 40
179.0
 40
179.0
 40
179.0
 40
180.0
 40
180.0
 40
180.0
 40
181.0
 40
181.0
 40
181.0
 40
182.0
 40
182.0
 40
182.0
 40
183.0
 40
183.0
 40
183.0
 40
184.0
 40
184.0
 40
184.0
 40
185.0
 40
185.0
 40
185.0
 40
186.0
 40
186.0
 40
186.0
 40
187.0
 40
187.0
 40
187.0
 40
188.0
 40
188.0
 40
188.0
 40
189.0
 40
189.0
 40
189.0
 40
190.0
 40
190.0
 40
190.0
 40
191.0
 40
191.0
 40
191.0
 40
192.0
 40
192.0
 40
192.0
 40
193.0
 40
193.0
 40
193.0
 40
194.0
 40
194.0
 40
194.0
 40
195.0
 40
195.0
 40
195.0
 40
196.0
 40
196.0
 40
196.0
 40
197.0
 40
197.0
 40
197.0
 40
198.0
 40
198.0
 40
198.0
 40
199.0
 40
199.0
 40
199.0
 40
200.0
 40
200.0
 40
200.0
 40
201.0
 40
201.0
 40
201.0
 40
202.0
 40
202.0
 40
202.0
 40
203.0
 40
203.0
 40
203.0
 40
204.0
 40
204.0
 40
204.0
 40
205.0
 40
205.0
 40
205.0
 40
206.0
 40
206.0
 40
206.0
 40
207.0
 40
207.0
 40
207.0
 40
208.0
 40
208.0
 40
208.0
 40
209.0
 40
209.0
 40
209.0
 40
210.0
 40
210.0
 40
210.0
 40
211.0
 40
211.0
 40
211.0
 40
212.0
 40
212.0
 40
212.0
 40
213.0
 40
213.0
 40
213.0
 40
214.0
 40
214.0
 40
214.0
 40
215.0
 40
215.0
 40
215.0
 40
216.0
 40
216.0
 40
216.0
 40
217.0
 40
217.0
 40
217.0
 40
218.0
 40
218.0
 40
218.0
 40
219.0
 40
219.0
 40
219.0
 40
220.0
 40
220.0
 40
220.0
 40
221.0
 40
221.0
 40
221.0
 40
222.0
 40
222.0
 40
222.0
 40
223.0
 40
223.0
 40
223.0
 40
224.0
 40
224.0
 40
224.0
 40
225.0
 40
225.0
 40
225.0
 40
226.0
 40
226.0
 40
226.0
 40
227.0
 40
227.0
 40
227.0
 40
228.0
 40
228.0
 40
228.0
 40
229.0
 40
229.0
 40
229.0
 40
230.0
 40
230.0
 40
230.0
 40
231.0
 40
231.0
 40
231.0
 40
232.0
 40
232.0
 40
232.0
 40
233.0
 40
233.0
 40
233.0
 40
234.0
 40
234.0
 40
234.0
 40
235.0
 40
235.0
 40
235.0
 40
236.0
 40
236.0
 40
236.0
 40
237.0
 40
237.0
 40
237.0
 40
238.0
 40
238.0
 40
238.0
 40
239.0
 40
239.0
 40
239.0
 40
240.0
 40
240.0
 40
240.0
 40
241.0
 40
241.0
 40
241.0
 40
242.0
 40
242.0
 40
242.0
 40
243.0
 40
243.0
 40
243.0
 40
244.0
 40
244.0
 40
244.0
 40
245.0
 40
245.0
 40
245.0
 40
246.0
 40
246.0
 40
246.0
 40
247.0
 40
247.0
 40
247.0
 40
248.0
 40
248.0
 40
248.0
 40
249.0
 40
249.0
 40
249.0
 40
250.0
 40
250.0
 40
250.0
 40
251.0
 40
251.0
 40
251.0
 40
251.0
 10
143.4991443206492
 20
86.11608736210651
 30
0.0
 10
143.7893713226716
 20
79.72442588641097
 30
0.0
 10
144.0796336020885
 20
73.33276441072827
 30
0.0
 10
144.3698606041109
 20
66.94110293503851
 30
0.0
 10
144.37561081699
 20
66.81304604694377
 30
0.0
 10
144.3938844996333
 20
66.68551831953758
 30
0.0
 10
144.4240466592266
 20
66.56095389201693
 30
0.0
 10
144.4539971545413
 20
66.437412508513
 30
0.0
 10
144.4956244625068
 20
66.31679914750727
 30
0.0
 10
144.5484346998297
 20
66.20119517442564
 30
0.0
 10
144.6546196125385
 20
65.96871724257453
 30
0.0
 10
144.8058537390515
 20
65.75662963615949
 30
0.0
 10
144.9912716464479
 20
65.58080717602127
 30
0.0
 10
145.1725621004113
 20
65.40886522763606
 30
0.0
 10
145.3865194079467
 20
65.27156566606045
 30
0.0
 10
145.6181506826678
 20
65.1776572814478
 30
0.0
 10
145.7345660354799
 20
65.13049142484967
 30
0.0
 10
145.855426338133
 20
65.09426155596022
 30
0.0
 10
145.9787207799831
 20
65.07037876993591
 30
0.0
 10
146.0264510746386
 20
65.0611360964679
 30
0.0
 10
146.0745694204716
 20
65.05372784674701
 30
0.0
 10
146.1228994305782
 20
65.04861262669222
 30
0.0
 10
146.2042490680278
 20
65.04000494604985
 30
0.0
 10
146.2862689757027
 20
65.03785302589408
 30
0.0
 10
146.3677950000564
 20
65.03189114872859
 30
0.0
 10
146.3719930082251
 20
65.03189114872859
 30
0.0
 10
146.3761910164066
 20
65.03189114872859
 30
0.0
 10
146.3803890245882
 20
65.03189114872859
 30
0.0
 10
146.4044834748789
 20
65.03189114872859
 30
0.0
 10
146.4285426477894
 20
65.03189114872859
 30
0.0
 10
146.4526370980936
 20
65.03189114872217
 30
0.0
 10
146.4641375238532
 20
65.03189114872217
 30
0.0
 10
146.4756379496134
 20
65.03189114872217
 30
0.0
 10
146.4871383753858
 20
65.03189114872217
 30
0.0
 10
146.4916186025893
 20
65.03189114872217
 30
0.0
 10
146.4960988298056
 20
65.03189114872217
 30
0.0
 10
146.5006143344029
 20
65.03189114872217
 30
0.0
 10
146.5133141910775
 20
65.03189114872217
 30
0.0
 10
146.5260493251196
 20
65.03189114872217
 30
0.0
 10
146.5387491817943
 20
65.03189114872217
 30
0.0
 10
146.5456282708266
 20
65.03189114872217
 30
0.0
 10
146.5525073598589
 20
65.03189114872217
 30
0.0
 10
146.5593511715103
 20
65.03189114872217
 30
0.0
 10
146.5727565757654
 20
65.03189114872217
 30
0.0
 10
146.5861619800334
 20
65.03189114872217
 30
0.0
 10
146.5995673843013
 20
65.03189114872217
 30
0.0
 10
146.6093392184586
 20
65.03189114872217
 30
0.0
 10
146.6191463299955
 20
65.03189114872217
 30
0.0
 10
146.6289534415458
 20
65.03189114872217
 30
0.0
 10
146.6424646779438
 20
65.03189114872217
 30
0.0
 10
146.6559759143418
 20
65.03189114871574
 30
0.0
 10
146.6694871507533
 20
65.03189114871574
 30
0.0
 10
146.6827867228784
 20
65.03189114871574
 30
0.0
 10
146.6960510176226
 20
65.03189114871574
 30
0.0
 10
146.7093505897477
 20
65.03189114871574
 30
0.0
 10
146.7224032202055
 20
65.03189114870933
 30
0.0
 10
146.7354558506768
 20
65.03189114870933
 30
0.0
 10
146.7485084811481
 20
65.03189114870933
 30
0.0
 10
146.765864951931
 20
65.03189114870933
 30
0.0
 10
146.7832214227132
 20
65.03189114870933
 30
0.0
 10
146.8006131708771
 20
65.03189114870933
 30
0.0
 10
146.8125722025768
 20
65.03189114870933
 30
0.0
 10
146.8245665116575
 20
65.03189114870933
 30
0.0
 10
146.8365608207375
 20
65.03189114870933
 30
0.0
 10
146.8636185709151
 20
65.03189114870933
 30
0.0
 10
146.8907115984858
 20
65.03189114870933
 30
0.0
 10
146.9178046260443
 20
65.03189114870933
 30
0.0
 10
146.9230609556158
 20
65.03189114870933
 30
0.0
 10
146.928282007807
 20
65.03189114870933
 30
0.0
 10
146.9335383373664
 20
65.03189114870933
 30
0.0
 10
147.0070563965481
 20
65.03189114870291
 30
0.0
 10
147.0806097330986
 20
65.0318911486965
 30
0.0
 10
147.1541277922674
 20
65.0318911486965
 30
0.0
 10
147.2392521093522
 20
65.03189114869008
 30
0.0
 10
147.3243764264242
 20
65.03189114868367
 30
0.0
 10
147.4095007434962
 20
65.03189114868367
 30
0.0
 10
147.4095007434962
 20
65.03189114868367
 30
0.0
 10
147.4157801170774
 20
65.03189114868367
 30
0.0
 10
147.4188845264873
 20
65.03189114868367
 30
0.0
 10
147.4625931998666
 20
65.03189114868367
 30
0.0
 10
147.5063371506134
 20
65.03189114868367
 30
0.0
 10
147.5500458239927
 20
65.03189114867725
 30
0.0
 10
147.5582654534504
 20
65.03189114867725
 30
0.0
 10
147.5664850829081
 20
65.03189114867725
 30
0.0
 10
147.5747047123664
 20
65.03189114867725
 30
0.0
 10
147.6161203560591
 20
65.03189114867084
 30
0.0
 10
147.6575359997652
 20
65.03189114867084
 30
0.0
 10
147.6989869208388
 20
65.03189114867084
 30
0.0
 10
147.7991394016389
 20
65.03189114866441
 30
0.0
 10
147.8992918824525
 20
65.03189114865799
 30
0.0
 10
147.9994090858716
 20
65.03189114865799
 30
0.0
 10
148.0330637060467
 20
65.03189114865799
 30
0.0
 10
148.066718326234
 20
65.03189114865799
 30
0.0
 10
148.1003376690276
 20
65.03189114865158
 30
0.0
 10
148.1203399432802
 20
65.03189114865158
 30
0.0
 10
148.1403069401648
 20
65.03189114865158
 30
0.0
 10
148.1603092144175
 20
65.03189114864516
 30
0.0
 10
148.1719154723206
 20
65.03189114864516
 30
0.0
 10
148.183521730223
 20
65.03189114864516
 30
0.0
 10
148.1950927107451
 20
65.03189114864516
 30
0.0
 10
148.3763478873404
 20
65.03189114863875
 30
0.0
 10
148.5576030639491
 20
65.03189114863233
 30
0.0
 10
148.738858240545
 20
65.0318911486195
 30
0.0
 10
148.7635876836806
 20
65.0318911486195
 30
0.0
 10
148.7882818494225
 20
65.0318911486195
 30
0.0
 10
148.8130112925581
 20
65.0318911486195
 30
0.0
 10
148.8489236650254
 20
65.0318911486195
 30
0.0
 10
148.8848713148866
 20
65.0318911486195
 30
0.0
 10
148.9207836873661
 20
65.0318911486195
 30
0.0
 10
148.9495347517657
 20
65.03189114861308
 30
0.0
 10
148.9782858161781
 20
65.03189114861308
 30
0.0
 10
149.0070368805906
 20
65.03189114861308
 30
0.0
 10
149.0478175314518
 20
65.03189114860666
 30
0.0
 10
149.0885981823124
 20
65.03189114860666
 30
0.0
 10
149.1293788331865
 20
65.03189114860666
 30
0.0
 10
149.1457828147216
 20
65.03189114860666
 30
0.0
 10
149.1622220736376
 20
65.03189114860666
 30
0.0
 10
149.1786260551599
 20
65.03189114860666
 30
0.0
 10
149.3216052748534
 20
65.03189114859383
 30
0.0
 10
149.4645844945469
 20
65.03189114859383
 30
0.0
 10
149.6075637142275
 20
65.031891148581
 30
0.0
 10
149.6128905985616
 20
65.031891148581
 30
0.0
 10
149.6182174828828
 20
65.031891148581
 30
0.0
 10
149.6235796445844
 20
65.031891148581
 30
0.0
 10
149.6813639924447
 20
65.031891148581
 30
0.0
 10
149.7391483402915
 20
65.031891148581
 30
0.0
 10
149.796967965532
 20
65.03189114857457
 30
0.0
 10
149.8167938528928
 20
65.03189114857457
 30
0.0
 10
149.8366197402536
 20
65.03189114857457
 30
0.0
 10
149.8564809049825
 20
65.03189114857457
 30
0.0
 10
149.9152882968518
 20
65.03189114856816
 30
0.0
 10
149.9740956887083
 20
65.03189114856816
 30
0.0
 10
150.0329030805776
 20
65.03189114856816
 30
0.0
 10
150.0539636762209
 20
65.03189114856816
 30
0.0
 10
150.0750242718642
 20
65.03189114856816
 30
0.0
 10
150.0960848675075
 20
65.03189114856174
 30
0.0
 10
150.1558094712437
 20
65.03189114855533
 30
0.0
 10
150.2155693523608
 20
65.03189114855533
 30
0.0
 10
150.2752939560969
 20
65.03189114855533
 30
0.0
 10
150.2976245374037
 20
65.03189114855533
 30
0.0
 10
150.3199551187233
 20
65.03189114855533
 30
0.0
 10
150.3422857000301
 20
65.03189114855533
 30
0.0
 10
150.4984586597059
 20
65.03189114854248
 30
0.0
 10
150.6545963420007
 20
65.03189114853608
 30
0.0
 10
150.8107693016765
 20
65.03189114852965
 30
0.0
 10
150.8250919178113
 20
65.03189114852965
 30
0.0
 10
150.8394145339461
 20
65.03189114852965
 30
0.0
 10
150.8537371500809
 20
65.03189114852965
 30
0.0
 10
150.9225985951416
 20
65.03189114852965
 30
0.0
 10
150.9914953175832
 20
65.03189114852324
 30
0.0
 10
151.0603567626445
 20
65.03189114851682
 30
0.0
 10
151.079794598827
 20
65.03189114851682
 30
0.0
 10
151.0991971576292
 20
65.03189114851682
 30
0.0
 10
151.1186349938118
 20
65.03189114851682
 30
0.0
 10
151.1619203386319
 20
65.03189114851682
 30
0.0
 10
151.2052409608329
 20
65.03189114851682
 30
0.0
 10
151.248526305653
 20
65.03189114851041
 30
0.0
 10
151.2958685491437
 20
65.03189114850399
 30
0.0
 10
151.3432107926215
 20
65.03189114850399
 30
0.0
 10
151.3905530360994
 20
65.03189114850399
 30
0.0
 10
151.4183516112512
 20
65.03189114850399
 30
0.0
 10
151.4461501864158
 20
65.03189114850399
 30
0.0
 10
151.4739487615677
 20
65.03189114850399
 30
0.0
 10
151.5394941329455
 20
65.03189114849758
 30
0.0
 10
151.6050042269424
 20
65.03189114849116
 30
0.0
 10
151.6705495983202
 20
65.03189114849116
 30
0.0
 10
151.7595544271574
 20
65.03189114849116
 30
0.0
 10
151.8485239786142
 20
65.03189114848473
 30
0.0
 10
151.9375288074514
 20
65.03189114847832
 30
0.0
 10
151.9445490059953
 20
65.03189114847832
 30
0.0
 10
151.9515692045386
 20
65.03189114847832
 30
0.0
 10
151.9585894030947
 20
65.03189114847832
 30
0.0
 10
152.0309080313626
 20
65.03189114847832
 30
0.0
 10
152.1032266596299
 20
65.0318911484719
 30
0.0
 10
152.1755452878844
 20
65.03189114846549
 30
0.0
 10
152.2018974904808
 20
65.03189114846549
 30
0.0
 10
152.2282849704582
 20
65.03189114846549
 30
0.0
 10
152.2546724504228
 20
65.03189114846549
 30
0.0
 10
152.3089643376948
 20
65.03189114846549
 30
0.0
 10
152.3632562249669
 20
65.03189114846549
 30
0.0
 10
152.4175481122389
 20
65.03189114845907
 30
0.0
 10
152.4646081366814
 20
65.03189114845266
 30
0.0
 10
152.5117034385054
 20
65.03189114845266
 30
0.0
 10
152.558763462935
 20
65.03189114845266
 30
0.0
 10
152.5936880687864
 20
65.03189114845266
 30
0.0
 10
152.6286126746372
 20
65.03189114845266
 30
0.0
 10
152.6635020030949
 20
65.03189114844623
 30
0.0
 10
152.735044529007
 20
65.03189114843983
 30
0.0
 10
152.8065517775503
 20
65.03189114843983
 30
0.0
 10
152.8780590260808
 20
65.03189114843983
 30
0.0
 10
152.9743309951285
 20
65.0318911484334
 30
0.0
 10
153.0706382415443
 20
65.03189114842698
 30
0.0
 10
153.1669102105921
 20
65.03189114842698
 30
0.0
 10
153.181656155286
 20
65.03189114842698
 30
0.0
 10
153.1963668225856
 20
65.03189114842698
 30
0.0
 10
153.211112767279
 20
65.03189114842698
 30
0.0
 10
153.2821261325018
 20
65.03189114842057
 30
0.0
 10
153.3531747750928
 20
65.03189114841415
 30
0.0
 10
153.4241881403163
 20
65.03189114841415
 30
0.0
 10
153.4670148792091
 20
65.03189114841415
 30
0.0
 10
153.5098416180897
 20
65.03189114841415
 30
0.0
 10
153.5526330795887
 20
65.03189114840774
 30
0.0
 10
153.5968003589075
 20
65.03189114840131
 30
0.0
 10
153.6409323608325
 20
65.03189114840131
 30
0.0
 10
153.6850643627704
 20
65.03189114840131
 30
0.0
 10
153.7415434475727
 20
65.03189114840131
 30
0.0
 10
153.7980578097689
 20
65.0318911483949
 30
0.0
 10
153.8545368945713
 20
65.0318911483949
 30
0.0
 10
153.886180704108
 20
65.03189114838848
 30
0.0
 10
153.9177892362631
 20
65.03189114838848
 30
0.0
 10
153.9494330458126
 20
65.03189114838848
 30
0.0
 10
154.0323348879733
 20
65.03189114838848
 30
0.0
 10
154.1152014527396
 20
65.03189114838207
 30
0.0
 10
154.1980680175194
 20
65.03189114837565
 30
0.0
 10
154.2948338698882
 20
65.03189114837565
 30
0.0
 10
154.3915997222429
 20
65.03189114836923
 30
0.0
 10
154.4883655745989
 20
65.03189114836282
 30
0.0
 10
154.534720051448
 20
65.03189114836282
 30
0.0
 10
154.5810745282971
 20
65.03189114836282
 30
0.0
 10
154.6274290051462
 20
65.03189114836282
 30
0.0
 10
154.6725134963312
 20
65.0318911483564
 30
0.0
 10
154.7176332648978
 20
65.0318911483564
 30
0.0
 10
154.7627177560706
 20
65.03189114834998
 30
0.0
 10
154.8112241530819
 20
65.03189114834998
 30
0.0
 10
154.8597305500926
 20
65.03189114834998
 30
0.0
 10
154.9082369470911
 20
65.03189114834998
 30
0.0
 10
154.9522278395051
 20
65.03189114834356
 30
0.0
 10
154.9962187319192
 20
65.03189114834356
 30
0.0
 10
155.0402096243326
 20
65.03189114833715
 30
0.0
 10
155.1183842976232
 20
65.03189114833715
 30
0.0
 10
155.1965236935328
 20
65.03189114833715
 30
0.0
 10
155.2746983668228
 20
65.03189114833073
 30
0.0
 10
155.3845521270175
 20
65.03189114832432
 30
0.0
 10
155.4944411646061
 20
65.03189114832432
 30
0.0
 10
155.6042949248143
 20
65.03189114831147
 30
0.0
 10
155.6614442798291
 20
65.03189114831147
 30
0.0
 10
155.7185936348573
 20
65.03189114831147
 30
0.0
 10
155.7757077124911
 20
65.03189114831147
 30
0.0
 10
155.8140542241682
 20
65.03189114830506
 30
0.0
 10
155.8523654584515
 20
65.03189114830506
 30
0.0
 10
155.8906766927471
 20
65.03189114829864
 30
0.0
 10
155.9371017243581
 20
65.03189114829864
 30
0.0
 10
155.9835267559691
 20
65.03189114829864
 30
0.0
 10
156.0299165101992
 20
65.03189114829864
 30
0.0
 10
156.0799045571468
 20
65.03189114829864
 30
0.0
 10
156.1298926040945
 20
65.03189114829223
 30
0.0
 10
156.1798453736741
 20
65.03189114828581
 30
0.0
 10
156.259395864771
 20
65.03189114828581
 30
0.0
 10
156.3389463558551
 20
65.03189114828581
 30
0.0
 10
156.418496846952
 20
65.0318911482794
 30
0.0
 10
156.4362413689124
 20
65.0318911482794
 30
0.0
 10
156.4539858908729
 20
65.03189114827298
 30
0.0
 10
156.4716951354524
 20
65.03189114827298
 30
0.0
 10
156.5858880133526
 20
65.03189114827298
 30
0.0
 10
156.7000808912527
 20
65.03189114826657
 30
0.0
 10
156.8142384917718
 20
65.03189114826014
 30
0.0
 10
156.8971756113135
 20
65.03189114826014
 30
0.0
 10
156.9801127308551
 20
65.03189114825372
 30
0.0
 10
157.0630851277649
 20
65.03189114824731
 30
0.0
 10
157.2509724517386
 20
65.03189114824089
 30
0.0
 10
157.438859775713
 20
65.03189114823448
 30
0.0
 10
157.6267823770677
 20
65.03189114822165
 30
0.0
 10
157.6520409808926
 20
65.03189114822165
 30
0.0
 10
157.6772995847174
 20
65.03189114822165
 30
0.0
 10
157.7025934659232
 20
65.03189114822165
 30
0.0
 10
157.8216546222044
 20
65.03189114821522
 30
0.0
 10
157.94075105588
 20
65.03189114820881
 30
0.0
 10
158.059847489555
 20
65.03189114820881
 30
0.0
 10
158.1335419356293
 20
65.03189114820239
 30
0.0
 10
158.207201104322
 20
65.03189114819597
 30
0.0
 10
158.2808955503834
 20
65.03189114819597
 30
0.0
 10
158.6480272403275
 20
65.03189114818313
 30
0.0
 10
159.0151589302594
 20
65.03189114815747
 30
0.0
 10
159.3822906201906
 20
65.03189114814464
 30
0.0
 10
159.4272692792334
 20
65.03189114814464
 30
0.0
 10
159.4722126608952
 20
65.03189114814464
 30
0.0
 10
159.5171560425692
 20
65.03189114813821
 30
0.0
 10
159.6408032582102
 20
65.0318911481318
 30
0.0
 10
159.7644151964696
 20
65.0318911481318
 30
0.0
 10
159.888062412117
 20
65.03189114811897
 30
0.0
 10
159.9793955480083
 20
65.03189114811897
 30
0.0
 10
160.0707639612812
 20
65.03189114811897
 30
0.0
 10
160.1621323745534
 20
65.03189114810614
 30
0.0
 10
160.3338273812784
 20
65.03189114810614
 30
0.0
 10
160.5055223879905
 20
65.03189114809331
 30
0.0
 10
160.6772526720836
 20
65.03189114808688
 30
0.0
 10
160.7138705921571
 20
65.03189114808688
 30
0.0
 10
160.7504885122177
 20
65.03189114808046
 30
0.0
 10
160.7871064322919
 20
65.03189114808046
 30
0.0
 10
160.9038040041508
 20
65.03189114808046
 30
0.0
 10
161.0205368533779
 20
65.03189114806763
 30
0.0
 10
161.1372344252375
 20
65.03189114806763
 30
0.0
 10
161.2349174894725
 20
65.03189114806122
 30
0.0
 10
161.3326005536947
 20
65.0318911480548
 30
0.0
 10
161.4302483405488
 20
65.0318911480548
 30
0.0
 10
161.5331877343431
 20
65.03189114804839
 30
0.0
 10
161.6361271281374
 20
65.03189114804196
 30
0.0
 10
161.7390665219318
 20
65.03189114804196
 30
0.0
 10
161.8574926853944
 20
65.03189114803556
 30
0.0
 10
161.9759541262251
 20
65.03189114802913
 30
0.0
 10
162.0943802896877
 20
65.03189114802271
 30
0.0
 10
162.2462141316581
 20
65.0318911480163
 30
0.0
 10
162.3980126962605
 20
65.03189114800988
 30
0.0
 10
162.5498112608628
 20
65.03189114800347
 30
0.0
 10
162.6097122515037
 20
65.03189114800347
 30
0.0
 10
162.6696132421317
 20
65.03189114799704
 30
0.0
 10
162.7295142327598
 20
65.03189114799704
 30
0.0
 10
162.8981401074557
 20
65.03189114799063
 30
0.0
 10
163.0667659821395
 20
65.0318911479778
 30
0.0
 10
163.2353565794545
 20
65.03189114797138
 30
0.0
 10
163.2849918526055
 20
65.03189114797138
 30
0.0
 10
163.3346271257559
 20
65.03189114796496
 30
0.0
 10
163.3842623989197
 20
65.03189114796496
 30
0.0
 10
163.4693867159917
 20
65.03189114796496
 30
0.0
 10
163.5544757556955
 20
65.03189114795855
 30
0.0
 10
163.6395647953865
 20
65.03189114795212
 30
0.0
 10
163.7780637878637
 20
65.03189114795212
 30
0.0
 10
163.9165627803409
 20
65.03189114793929
 30
0.0
 10
164.0550617728053
 20
65.03189114793929
 30
0.0
 10
164.2103527979952
 20
65.03189114792646
 30
0.0
 10
164.3656438231722
 20
65.03189114792646
 30
0.0
 10
164.5208995709812
 20
65.03189114791363
 30
0.0
 10
164.5829172043905
 20
65.03189114791363
 30
0.0
 10
164.6448995604188
 20
65.03189114791363
 30
0.0
 10
164.706917193841
 20
65.0318911479072
 30
0.0
 10
164.8172295599759
 20
65.0318911479008
 30
0.0
 10
164.9275772034911
 20
65.0318911479008
 30
0.0
 10
165.0378895696389
 20
65.03189114788796
 30
0.0
 10
165.1539168712727
 20
65.03189114788796
 30
0.0
 10
165.2699794503002
 20
65.03189114788154
 30
0.0
 10
165.3860067519468
 20
65.03189114787513
 30
0.0
 10
165.5944255108624
 20
65.0318911478623
 30
0.0
 10
165.8028442697909
 20
65.03189114785587
 30
0.0
 10
166.0112630287194
 20
65.03189114784945
 30
0.0
 10
166.0355338659155
 20
65.03189114784945
 30
0.0
 10
166.0598399804798
 20
65.03189114784945
 30
0.0
 10
166.0841460950569
 20
65.03189114784945
 30
0.0
 10
166.2604271611282
 20
65.03189114783662
 30
0.0
 10
166.4366729498185
 20
65.03189114783021
 30
0.0
 10
166.6129540158898
 20
65.03189114782379
 30
0.0
 10
166.6701739256671
 20
65.03189114781738
 30
0.0
 10
166.7273585580757
 20
65.03189114781738
 30
0.0
 10
166.784578467853
 20
65.03189114781095
 30
0.0
 10
166.9374353538331
 20
65.03189114781095
 30
0.0
 10
167.090292239826
 20
65.03189114779812
 30
0.0
 10
167.2431491258189
 20
65.0318911477917
 30
0.0
 10
167.329931479732
 20
65.03189114778529
 30
0.0
 10
167.4167138336585
 20
65.03189114778529
 30
0.0
 10
167.5034961875716
 20
65.03189114778529
 30
0.0
 10
167.6930062710061
 20
65.03189114777246
 30
0.0
 10
167.8825163544406
 20
65.03189114775962
 30
0.0
 10
168.072026437888
 20
65.03189114775962
 30
0.0
 10
168.1263888799091
 20
65.0318911477532
 30
0.0
 10
168.1807513219431
 20
65.03189114774679
 30
0.0
 10
168.2351137639642
 20
65.03189114774679
 30
0.0
 10
168.410124844372
 20
65.03189114774037
 30
0.0
 10
168.5851712021608
 20
65.03189114773394
 30
0.0
 10
168.7602175599367
 20
65.03189114772111
 30
0.0
 10
168.8331359036551
 20
65.03189114772111
 30
0.0
 10
168.9060542473736
 20
65.03189114772111
 30
0.0
 10
168.9790078684729
 20
65.0318911477147
 30
0.0
 10
169.2015023018824
 20
65.03189114770828
 30
0.0
 10
169.423996735279
 20
65.03189114769545
 30
0.0
 10
169.6465264460695
 20
65.03189114768261
 30
0.0
 10
169.6825799280599
 20
65.03189114768261
 30
0.0
 10
169.718633410051
 20
65.03189114768261
 30
0.0
 10
169.7546868920415
 20
65.03189114768261
 30
0.0
 10
169.9689616959933
 20
65.03189114766978
 30
0.0
 10
170.1832012225635
 20
65.03189114765695
 30
0.0
 10
170.3974407491208
 20
65.03189114765053
 30
0.0
 10
170.4323300775913
 20
65.03189114765053
 30
0.0
 10
170.4672194060618
 20
65.03189114764412
 30
0.0
 10
170.5021087345188
 20
65.03189114764412
 30
0.0
 10
170.7477451289719
 20
65.03189114763128
 30
0.0
 10
170.9934168007924
 20
65.03189114762486
 30
0.0
 10
171.2390531952455
 20
65.03189114761203
 30
0.0
 10
171.2669576025408
 20
65.03189114761203
 30
0.0
 10
171.2948620098355
 20
65.03189114761203
 30
0.0
 10
171.3227664171302
 20
65.0318911476056
 30
0.0
 10
171.4992591474872
 20
65.0318911476056
 30
0.0
 10
171.6757518778313
 20
65.03189114759277
 30
0.0
 10
171.8522798855571
 20
65.03189114758636
 30
0.0
 10
171.9245985138244
 20
65.03189114757994
 30
0.0
 10
171.9969171420917
 20
65.03189114757994
 30
0.0
 10
172.0692357703597
 20
65.03189114757994
 30
0.0
 10
172.3355094318968
 20
65.03189114756711
 30
0.0
 10
172.601783093434
 20
65.03189114755428
 30
0.0
 10
172.8680567549719
 20
65.03189114754144
 30
0.0
 10
173.0023930166485
 20
65.03189114753502
 30
0.0
 10
173.1367292783257
 20
65.03189114752861
 30
0.0
 10
173.2710655400023
 20
65.03189114752219
 30
0.0
 10
173.33188374251
 20
65.03189114751578
 30
0.0
 10
173.3927372223858
 20
65.03189114751578
 30
0.0
 10
173.4535554248929
 20
65.03189114751578
 30
0.0
 10
173.5395969538317
 20
65.03189114750936
 30
0.0
 10
173.6256737601643
 20
65.03189114750293
 30
0.0
 10
173.711715289103
 20
65.03189114750293
 30
0.0
 10
173.780153405618
 20
65.03189114750293
 30
0.0
 10
173.8485562447385
 20
65.03189114749652
 30
0.0
 10
173.9169943612406
 20
65.0318911474901
 30
0.0
 10
174.2463439775777
 20
65.03189114747727
 30
0.0
 10
174.5757288712964
 20
65.03189114746444
 30
0.0
 10
174.9050784876335
 20
65.0318911474516
 30
0.0
 10
174.957641783302
 20
65.03189114744518
 30
0.0
 10
175.010205078971
 20
65.03189114744518
 30
0.0
 10
175.0628036520204
 20
65.03189114743877
 30
0.0
 10
175.1670130314782
 20
65.03189114743877
 30
0.0
 10
175.2712576883176
 20
65.03189114743235
 30
0.0
 10
175.3755023451686
 20
65.03189114742594
 30
0.0
 10
175.4498670614431
 20
65.03189114742594
 30
0.0
 10
175.5242317777297
 20
65.03189114741951
 30
0.0
 10
175.5985612166354
 20
65.0318911474131
 30
0.0
 10
175.7539933513362
 20
65.0318911474131
 30
0.0
 10
175.9094254860506
 20
65.03189114740027
 30
0.0
 10
176.0648576207514
 20
65.03189114740027
 30
0.0
 10
176.0876468079978
 20
65.03189114740027
 30
0.0
 10
176.1104359952447
 20
65.03189114739385
 30
0.0
 10
176.1332604598726
 20
65.03189114739385
 30
0.0
 10
176.2890806457511
 20
65.03189114738743
 30
0.0
 10
176.4449361090111
 20
65.03189114738102
 30
0.0
 10
176.6007915722712
 20
65.0318911473746
 30
0.0
 10
176.6226282702697
 20
65.0318911473746
 30
0.0
 10
176.6445002456499
 20
65.0318911473746
 30
0.0
 10
176.666336943649
 20
65.03189114736819
 30
0.0
 10
176.7892786116961
 20
65.03189114736176
 30
0.0
 10
176.912255557124
 20
65.03189114736176
 30
0.0
 10
177.0351972251839
 20
65.03189114734893
 30
0.0
 10
177.0892774481703
 20
65.03189114734893
 30
0.0
 10
177.1433223937879
 20
65.03189114734893
 30
0.0
 10
177.1974026167742
 20
65.03189114734893
 30
0.0
 10
177.2694390260074
 20
65.03189114734252
 30
0.0
 10
177.3414754352265
 20
65.0318911473361
 30
0.0
 10
177.4135118444596
 20
65.0318911473361
 30
0.0
 10
177.5176506691684
 20
65.0318911473361
 30
0.0
 10
177.6218247712446
 20
65.03189114732326
 30
0.0
 10
177.725998873335
 20
65.03189114732326
 30
0.0
 10
177.7630401219542
 20
65.03189114732326
 30
0.0
 10
177.800116647955
 20
65.03189114732326
 30
0.0
 10
177.837157896587
 20
65.03189114731684
 30
0.0
 10
177.9753393926357
 20
65.03189114731043
 30
0.0
 10
178.1135208886965
 20
65.03189114730401
 30
0.0
 10
178.251737662139
 20
65.0318911472976
 30
0.0
 10
178.4126025133039
 20
65.03189114729118
 30
0.0
 10
178.5734673644695
 20
65.03189114728477
 30
0.0
 10
178.7343322156344
 20
65.03189114727834
 30
0.0
 10
178.7476317877595
 20
65.03189114727192
 30
0.0
 10
178.7608960825037
 20
65.03189114727192
 30
0.0
 10
178.7741956546288
 20
65.03189114727192
 30
0.0
 10
178.9265586573013
 20
65.03189114727192
 30
0.0
 10
179.0789216599732
 20
65.03189114725909
 30
0.0
 10
179.2313199400394
 20
65.03189114725909
 30
0.0
 10
179.2518866523616
 20
65.03189114725268
 30
0.0
 10
179.2724533646973
 20
65.03189114725268
 30
0.0
 10
179.2930200770324
 20
65.03189114725268
 30
0.0
 10
179.4539907603273
 20
65.03189114724626
 30
0.0
 10
179.6149614436358
 20
65.03189114723342
 30
0.0
 10
179.7759321269435
 20
65.03189114723342
 30
0.0
 10
179.7865506182179
 20
65.03189114723342
 30
0.0
 10
179.7972043868732
 20
65.03189114723342
 30
0.0
 10
179.8078581555278
 20
65.03189114723342
 30
0.0
 10
180.1533648117334
 20
65.03189114721417
 30
0.0
 10
180.4989067453328
 20
65.03189114719493
 30
0.0
 10
180.8444486789193
 20
65.0318911471821
 30
0.0
 10
180.9195189427986
 20
65.0318911471821
 30
0.0
 10
180.9945892066798
 20
65.03189114717567
 30
0.0
 10
181.0696947479414
 20
65.03189114716926
 30
0.0
 10
181.161027883832
 20
65.03189114716926
 30
0.0
 10
181.2523610197239
 20
65.03189114716284
 30
0.0
 10
181.3436941556158
 20
65.03189114715641
 30
0.0
 10
181.4622261512085
 20
65.03189114715641
 30
0.0
 10
181.5807934241942
 20
65.03189114715
 30
0.0
 10
181.6993254197875
 20
65.03189114714358
 30
0.0
 10
181.7537231391902
 20
65.03189114714358
 30
0.0
 10
181.8081208586044
 20
65.03189114714358
 30
0.0
 10
181.8625185780072
 20
65.03189114713717
 30
0.0
 10
181.9523700639621
 20
65.03189114713075
 30
0.0
 10
182.0422215499042
 20
65.03189114713075
 30
0.0
 10
182.1321083132266
 20
65.03189114712434
 30
0.0
 10
182.2163859731942
 20
65.03189114711792
 30
0.0
 10
182.3006989105422
 20
65.03189114711792
 30
0.0
 10
182.3849765705086
 20
65.03189114711151
 30
0.0
 10
182.4234289143164
 20
65.03189114711151
 30
0.0
 10
182.4618812581229
 20
65.03189114710509
 30
0.0
 10
182.5003336019306
 20
65.03189114710509
 30
0.0
 10
182.6836348665574
 20
65.03189114709866
 30
0.0
 10
182.8669361311727
 20
65.03189114709225
 30
0.0
 10
183.0502373958007
 20
65.03189114707942
 30
0.0
 10
183.1775181815396
 20
65.03189114707942
 30
0.0
 10
183.3047989672926
 20
65.031891147073
 30
0.0
 10
183.432044475664
 20
65.03189114706659
 30
0.0
 10
183.4885235604664
 20
65.03189114706659
 30
0.0
 10
183.5450379226491
 20
65.03189114706016
 30
0.0
 10
183.6015170074643
 20
65.03189114705376
 30
0.0
 10
183.6895340696727
 20
65.03189114705376
 30
0.0
 10
183.7775511318696
 20
65.03189114705376
 30
0.0
 10
183.865568194078
 20
65.03189114704733
 30
0.0
 10
183.9223647753083
 20
65.03189114704091
 30
0.0
 10
183.9791260791467
 20
65.03189114704091
 30
0.0
 10
184.0359226603776
 20
65.03189114704091
 30
0.0
 10
184.1236222261575
 20
65.0318911470345
 30
0.0
 10
184.2113217919496
 20
65.03189114702808
 30
0.0
 10
184.299021357743
 20
65.03189114702808
 30
0.0
 10
184.3899664424566
 20
65.03189114702167
 30
0.0
 10
184.4809115271703
 20
65.03189114701524
 30
0.0
 10
184.5718566118974
 20
65.03189114701524
 30
0.0
 10
184.6169763804511
 20
65.03189114701524
 30
0.0
 10
184.6620961490171
 20
65.03189114701524
 30
0.0
 10
184.7072159175837
 20
65.03189114700884
 30
0.0
 10
184.8918577226236
 20
65.03189114700241
 30
0.0
 10
185.0765348050452
 20
65.03189114698958
 30
0.0
 10
185.2612118874796
 20
65.03189114698316
 30
0.0
 10
185.3654212669374
 20
65.03189114697675
 30
0.0
 10
185.4696659237756
 20
65.03189114697675
 30
0.0
 10
185.5739105806284
 20
65.03189114697032
 30
0.0
 10
185.6544841157209
 20
65.03189114696391
 30
0.0
 10
185.7350576508281
 20
65.03189114696391
 30
0.0
 10
185.8156664633157
 20
65.03189114695749
 30
0.0
 10
185.8870326023217
 20
65.03189114695108
 30
0.0
 10
185.9583987413419
 20
65.03189114695108
 30
0.0
 10
186.0298001577424
 20
65.03189114695108
 30
0.0
 10
186.0807054165575
 20
65.03189114695108
 30
0.0
 10
186.1316459527658
 20
65.03189114694466
 30
0.0
 10
186.1825512115931
 20
65.03189114693825
 30
0.0
 10
186.2754365521833
 20
65.03189114693825
 30
0.0
 10
186.3683218927856
 20
65.03189114693825
 30
0.0
 10
186.4612072333757
 20
65.0318911469254
 30
0.0
 10
186.8006109029177
 20
65.03189114691257
 30
0.0
 10
187.1400145724461
 20
65.03189114689974
 30
0.0
 10
187.4794182419881
 20
65.0318911468869
 30
0.0
 10
187.5591098425953
 20
65.0318911468805
 30
0.0
 10
187.6388014432026
 20
65.03189114687407
 30
0.0
 10
187.7184930438239
 20
65.03189114687407
 30
0.0
 10
187.8234432482567
 20
65.03189114686765
 30
0.0
 10
187.9283934526894
 20
65.03189114686124
 30
0.0
 10
188.0333436571221
 20
65.03189114686124
 30
0.0
 10
188.0816736672274
 20
65.03189114686124
 30
0.0
 10
188.1300036773475
 20
65.03189114685482
 30
0.0
 10
188.178368964835
 20
65.03189114684841
 30
0.0
 10
188.2285333986874
 20
65.03189114684841
 30
0.0
 10
188.2787331099079
 20
65.03189114684841
 30
0.0
 10
188.328897543761
 20
65.03189114684841
 30
0.0
 10
188.4147626858072
 20
65.03189114684199
 30
0.0
 10
188.5006631052472
 20
65.03189114683558
 30
0.0
 10
188.5865282472941
 20
65.03189114683558
 30
0.0
 10
188.9542596526765
 20
65.03189114682274
 30
0.0
 10
189.3219910580716
 20
65.03189114679707
 30
0.0
 10
189.689722463454
 20
65.03189114678423
 30
0.0
 10
189.7399574520683
 20
65.03189114678423
 30
0.0
 10
189.7901924406698
 20
65.03189114678423
 30
0.0
 10
189.8404274292847
 20
65.03189114677782
 30
0.0
 10
189.973352595774
 20
65.0318911467714
 30
0.0
 10
190.1063130396443
 20
65.03189114676499
 30
0.0
 10
190.2392382061336
 20
65.03189114675857
 30
0.0
 10
190.2587113196971
 20
65.03189114675857
 30
0.0
 10
190.2781844332612
 20
65.03189114675857
 30
0.0
 10
190.2976575468253
 20
65.03189114675857
 30
0.0
 10
190.6427055971035
 20
65.03189114674574
 30
0.0
 10
190.9877889247634
 20
65.03189114672648
 30
0.0
 10
191.3328722524226
 20
65.03189114670724
 30
0.0
 10
191.3943607251305
 20
65.03189114670724
 30
0.0
 10
191.455813920469
 20
65.03189114670724
 30
0.0
 10
191.5173023931903
 20
65.03189114670724
 30
0.0
 10
191.6370338196974
 20
65.03189114669439
 30
0.0
 10
191.7567652461916
 20
65.03189114669439
 30
0.0
 10
191.876461395317
 20
65.03189114668798
 30
0.0
 10
191.9053182918723
 20
65.03189114668156
 30
0.0
 10
191.9341751884148
 20
65.03189114668156
 30
0.0
 10
191.9629968075897
 20
65.03189114668156
 30
0.0
 10
192.111197079461
 20
65.03189114667515
 30
0.0
 10
192.2593620739526
 20
65.03189114666873
 30
0.0
 10
192.4075623458373
 20
65.03189114666232
 30
0.0
 10
192.4109136969011
 20
65.03189114666232
 30
0.0
 10
192.4142650479648
 20
65.03189114666232
 30
0.0
 10
192.4176163990286
 20
65.03189114666232
 30
0.0
 10
192.5797512358699
 20
65.0318911466559
 30
0.0
 10
192.7418860726983
 20
65.03189114664949
 30
0.0
 10
192.9040209095396
 20
65.03189114664306
 30
0.0
 10
192.9641688418221
 20
65.03189114663664
 30
0.0
 10
193.0242814967359
 20
65.03189114663664
 30
0.0
 10
193.0844294290183
 20
65.03189114663023
 30
0.0
 10
193.1874746549555
 20
65.03189114663023
 30
0.0
 10
193.2905198808927
 20
65.0318911466238
 30
0.0
 10
193.3935651068299
 20
65.0318911466174
 30
0.0
 10
193.4605215733822
 20
65.0318911466174
 30
0.0
 10
193.5275133173289
 20
65.0318911466174
 30
0.0
 10
193.5944697838812
 20
65.03189114661097
 30
0.0
 10
193.9138359017882
 20
65.03189114659173
 30
0.0
 10
194.2332020196837
 20
65.03189114657889
 30
0.0
 10
194.5525328601975
 20
65.03189114656605
 30
0.0
 10
194.6323655703299
 20
65.03189114656605
 30
0.0
 10
194.7121982804615
 20
65.03189114655964
 30
0.0
 10
194.7920309905932
 20
65.03189114655322
 30
0.0
 10
194.8872446382503
 20
65.03189114655322
 30
0.0
 10
194.9824582858946
 20
65.03189114654681
 30
0.0
 10
195.0776366561707
 20
65.03189114654039
 30
0.0
 10
195.095875061451
 20
65.03189114654039
 30
0.0
 10
195.1140781893395
 20
65.03189114654039
 30
0.0
 10
195.1323165946204
 20
65.03189114654039
 30
0.0
 10
195.2878192840838
 20
65.03189114653398
 30
0.0
 10
195.443286696165
 20
65.03189114652756
 30
0.0
 10
195.5987893856277
 20
65.03189114652113
 30
0.0
 10
195.6109953589819
 20
65.03189114651472
 30
0.0
 10
195.6232013323348
 20
65.03189114651472
 30
0.0
 10
195.6353720283074
 20
65.03189114651472
 30
0.0
 10
195.7955313318925
 20
65.03189114651472
 30
0.0
 10
195.9556553580832
 20
65.03189114650189
 30
0.0
 10
196.1157793842726
 20
65.03189114649547
 30
0.0
 10
196.1936365611481
 20
65.03189114648906
 30
0.0
 10
196.2714937380223
 20
65.03189114648906
 30
0.0
 10
196.3493509148837
 20
65.03189114648906
 30
0.0
 10
196.4267847631994
 20
65.03189114648264
 30
0.0
 10
196.5041833341341
 20
65.03189114647623
 30
0.0
 10
196.5816171824491
 20
65.03189114647623
 30
0.0
 10
196.6314288425055
 20
65.03189114647623
 30
0.0
 10
196.6812405025606
 20
65.0318911464698
 30
0.0
 10
196.731052162617
 20
65.0318911464698
 30
0.0
 10
197.02261970536
 20
65.03189114645697
 30
0.0
 10
197.314187248103
 20
65.03189114644414
 30
0.0
 10
197.6057900682135
 20
65.03189114642488
 30
0.0
 10
197.6684779718358
 20
65.03189114642488
 30
0.0
 10
197.7311305980894
 20
65.03189114642488
 30
0.0
 10
197.7938185017117
 20
65.03189114642488
 30
0.0
 10
197.8915015659345
 20
65.03189114641205
 30
0.0
 10
197.9891846301688
 20
65.03189114641205
 30
0.0
 10
198.0868676943923
 20
65.03189114641205
 30
0.0
 10
198.1160068099823
 20
65.03189114640563
 30
0.0
 10
198.1451459255595
 20
65.03189114640563
 30
0.0
 10
198.1742850411503
 20
65.03189114640563
 30
0.0
 10
198.4885712163783
 20
65.03189114638639
 30
0.0
 10
198.802857391605
 20
65.03189114637355
 30
0.0
 10
199.117178844214
 20
65.03189114636072
 30
0.0
 10
199.1581006045997
 20
65.03189114636072
 30
0.0
 10
199.1990223649848
 20
65.03189114636072
 30
0.0
 10
199.2399441253698
 20
65.03189114636072
 30
0.0
 10
199.3264442602545
 20
65.03189114634787
 30
0.0
 10
199.4129443951392
 20
65.03189114634787
 30
0.0
 10
199.4994445300175
 20
65.03189114634787
 30
0.0
 10
199.5537364172896
 20
65.03189114634147
 30
0.0
 10
199.60799302718
 20
65.03189114633504
 30
0.0
 10
199.6622496370654
 20
65.03189114633504
 30
0.0
 10
199.9559690999635
 20
65.03189114632221
 30
0.0
 10
200.2496885628629
 20
65.03189114630938
 30
0.0
 10
200.5434433031427
 20
65.03189114629654
 30
0.0
 10
200.5958654892879
 20
65.03189114629654
 30
0.0
 10
200.6482876754383
 20
65.03189114629654
 30
0.0
 10
200.7007098615906
 20
65.03189114629012
 30
0.0
 10
200.7545078655416
 20
65.03189114628371
 30
0.0
 10
200.8083058694926
 20
65.03189114628371
 30
0.0
 10
200.8621038734435
 20
65.03189114628371
 30
0.0
 10
200.9210523748309
 20
65.03189114628371
 30
0.0
 10
200.9800361535927
 20
65.03189114627729
 30
0.0
 10
201.0389846549724
 20
65.03189114627088
 30
0.0
 10
201.1803411151993
 20
65.03189114627088
 30
0.0
 10
201.3216622980389
 20
65.03189114625805
 30
0.0
 10
201.4629834808913
 20
65.03189114625805
 30
0.0
 10
201.5430631326761
 20
65.03189114625162
 30
0.0
 10
201.6231427844616
 20
65.03189114624521
 30
0.0
 10
201.7032224362542
 20
65.03189114624521
 30
0.0
 10
201.7709197277871
 20
65.03189114624521
 30
0.0
 10
201.838581741934
 20
65.03189114623879
 30
0.0
 10
201.9062790334747
 20
65.03189114623237
 30
0.0
 10
201.9473419033707
 20
65.03189114623237
 30
0.0
 10
201.9884047732725
 20
65.03189114623237
 30
0.0
 10
202.0294676431819
 20
65.03189114623237
 30
0.0
 10
202.2835706087407
 20
65.03189114621954
 30
0.0
 10
202.5376735743047
 20
65.0318911462067
 30
0.0
 10
202.7917765398693
 20
65.03189114619387
 30
0.0
 10
202.8392246154842
 20
65.03189114619387
 30
0.0
 10
202.8866726910985
 20
65.03189114619387
 30
0.0
 10
202.9341207667185
 20
65.03189114619387
 30
0.0
 10
203.3080609909272
 20
65.03189114617462
 30
0.0
 10
203.6820364925098
 20
65.03189114615537
 30
0.0
 10
204.0559767167185
 20
65.03189114614254
 30
0.0
 10
204.1014845364492
 20
65.03189114614254
 30
0.0
 10
204.1469923561941
 20
65.03189114613612
 30
0.0
 10
204.1924648985515
 20
65.03189114612971
 30
0.0
 10
204.2010373017989
 20
65.03189114612971
 30
0.0
 10
204.2096097050545
 20
65.03189114612971
 30
0.0
 10
204.2181821083089
 20
65.03189114612971
 30
0.0
 10
204.306798885969
 20
65.03189114612971
 30
0.0
 10
204.3953803862476
 20
65.03189114612329
 30
0.0
 10
204.4839971639072
 20
65.03189114611686
 30
0.0
 10
204.5249189242922
 20
65.03189114611686
 30
0.0
 10
204.5658406846773
 20
65.03189114611686
 30
0.0
 10
204.6067624450617
 20
65.03189114611686
 30
0.0
 10
204.7338668439163
 20
65.03189114611045
 30
0.0
 10
204.8609712427697
 20
65.03189114610403
 30
0.0
 10
204.9880756416174
 20
65.03189114609762
 30
0.0
 10
205.0759868716823
 20
65.0318911460912
 30
0.0
 10
205.1638628243682
 20
65.0318911460912
 30
0.0
 10
205.2517387770657
 20
65.03189114608479
 30
0.0
 10
205.3695652250643
 20
65.03189114607837
 30
0.0
 10
205.4873563956891
 20
65.03189114607837
 30
0.0
 10
205.6051828436942
 20
65.03189114607196
 30
0.0
 10
205.6149546778508
 20
65.03189114606553
 30
0.0
 10
205.6247617893947
 20
65.03189114606553
 30
0.0
 10
205.6345336235571
 20
65.03189114606553
 30
0.0
 10
205.8025597827891
 20
65.03189114606553
 30
0.0
 10
205.9705506646415
 20
65.0318911460527
 30
0.0
 10
206.1385415464925
 20
65.03189114604628
 30
0.0
 10
206.2176334316628
 20
65.03189114603987
 30
0.0
 10
206.2967253168195
 20
65.03189114603987
 30
0.0
 10
206.3758172019763
 20
65.03189114603987
 30
0.0
 10
206.4684203235317
 20
65.03189114602704
 30
0.0
 10
206.5609881677055
 20
65.03189114602704
 30
0.0
 10
206.6535912892731
 20
65.03189114602704
 30
0.0
 10
206.6804373751778
 20
65.03189114602061
 30
0.0
 10
206.7072834610889
 20
65.03189114602061
 30
0.0
 10
206.7340942696184
 20
65.03189114602061
 30
0.0
 10
206.8728402037494
 20
65.0318911460142
 30
0.0
 10
207.0115508605001
 20
65.03189114600778
 30
0.0
 10
207.1502615172502
 20
65.03189114600136
 30
0.0
 10
207.2420532590816
 20
65.03189114600136
 30
0.0
 10
207.3338097235307
 20
65.03189114598852
 30
0.0
 10
207.4256014653635
 20
65.03189114598852
 30
0.0
 10
207.4932282021281
 20
65.03189114598852
 30
0.0
 10
207.5608549389062
 20
65.03189114598212
 30
0.0
 10
207.6285169530595
 20
65.03189114597569
 30
0.0
 10
207.6718728526351
 20
65.03189114597569
 30
0.0
 10
207.7152640295974
 20
65.03189114597569
 30
0.0
 10
207.758655206561
 20
65.03189114597569
 30
0.0
 10
207.8685442441432
 20
65.03189114596928
 30
0.0
 10
207.9784332817253
 20
65.03189114596286
 30
0.0
 10
208.0883223193145
 20
65.03189114596286
 30
0.0
 10
208.1862170478223
 20
65.03189114595003
 30
0.0
 10
208.2841470537047
 20
65.03189114595003
 30
0.0
 10
208.3820417822133
 20
65.03189114595003
 30
0.0
 10
208.4312537268115
 20
65.0318911459436
 30
0.0
 10
208.4805009487977
 20
65.0318911459372
 30
0.0
 10
208.5297128933895
 20
65.0318911459372
 30
0.0
 10
208.5791717796486
 20
65.0318911459372
 30
0.0
 10
208.6286659432874
 20
65.0318911459372
 30
0.0
 10
208.6781248295471
 20
65.0318911459372
 30
0.0
 10
208.7696696297183
 20
65.03189114592436
 30
0.0
 10
208.8612144298888
 20
65.03189114592436
 30
0.0
 10
208.95275923006
 20
65.03189114592436
 30
0.0
 10
208.9701862556041
 20
65.03189114591794
 30
0.0
 10
208.9876485585241
 20
65.03189114591794
 30
0.0
 10
209.0050755840611
 20
65.03189114591794
 30
0.0
 10
209.122549258276
 20
65.03189114591153
 30
0.0
 10
209.240058209866
 20
65.03189114591153
 30
0.0
 10
209.357531884068
 20
65.0318911458987
 30
0.0
 10
209.4110476689848
 20
65.0318911458987
 30
0.0
 10
209.4645634539068
 20
65.0318911458987
 30
0.0
 10
209.5180439614362
 20
65.0318911458987
 30
0.0
 10
209.5934317217396
 20
65.03189114589227
 30
0.0
 10
209.6687842046543
 20
65.03189114588585
 30
0.0
 10
209.7441719649436
 20
65.03189114588585
 30
0.0
 10
209.7790612934147
 20
65.03189114588585
 30
0.0
 10
209.8139858992521
 20
65.03189114588585
 30
0.0
 10
209.8489105051041
 20
65.03189114587944
 30
0.0
 10
209.93685701255
 20
65.03189114587302
 30
0.0
 10
210.0248035199978
 20
65.03189114587302
 30
0.0
 10
210.1127853048253
 20
65.03189114586661
 30
0.0
  0
ENDBLK
  5
12F
330
12C
100
AcDbEntity
  8
0
100
AcDbBlockEnd
  0
BLOCK
  5
133
330
131
100
AcDbEntity
  8
0
100
AcDbBlockBegin
  2
block 46
 70
     0
 10
0.0
 20
0.0
 30
0.0
  3
block 46
  1

  0
SPLINE
  5
135
330
131
100
AcDbEntity
  8
0
 62
   250
370
    25
100
AcDbSpline
210
0.0
220
0.0
230
1.0
 70
     8
 71
     3
 72
    11
 73
     7
 74
     0
 42
0.0000000001
 43
0.0000000001
 12
1.0
 22
0.0
 32
0.0
 13
1.0
 23
0.0
 33
0.0
 40
0.0
 40
0.0
 40
0.0
 40
0.0
 40
1.0
 40
1.0
 40
1.0
 40
2.0
 40
2.0
 40
2.0
 40
2.0
 10
359.6170149649812
 20
75.39359836497553
 30
0.0
 10
368.5778574452166
 20
75.39359836457126
 30
0.0
 10
377.5386999254551
 20
75.39359836417341
 30
0.0
 10
386.499542405697
 20
75.39359836376914
 30
0.0
 10
388.8885265550527
 20
75.3938453053267
 30
0.0
 10
391.1123772903617
 20
76.61260821709098
 30
0.0
 10
392.397990836742
 20
78.62617049224136
 30
0.0
  0
ENDBLK
  5
134
330
131
100
AcDbEntity
  8
0
100
AcDbBlockEnd
  0
BLOCK
  5
138
330
136
100
AcDbEntity
  8
0
100
AcDbBlockBegin
  2
block 47
 70
     0
 10
0.0
 20
0.0
 30
0.0
  3
block 47
  1

  0
SPLINE
  5
13A
330
136
100
AcDbEntity
  8
0
 62
   250
370
    25
100
AcDbSpline
210
0.0
220
0.0
230
1.0
 70
     8
 71
     3
 72
    11
 73
     7
 74
     0
 42
0.0000000001
 43
0.0000000001
 12
1.0
 22
0.0
 32
0.0
 13
1.0
 23
0.0
 33
0.0
 40
0.0
 40
0.0
 40
0.0
 40
0.0
 40
1.0
 40
1.0
 40
1.0
 40
2.0
 40
2.0
 40
2.0
 40
2.0
 10
359.6170149649812
 20
75.39359836497553
 30
0.0
 10
356.55698450007
 20
75.3939511389076
 30
0.0
 10
353.5698018241692
 20
76.32724949484854
 30
0.0
 10
351.0538191081819
 20
78.06896428264712
 30
0.0
 10
350.6773036352723
 20
78.3295582860863
 30
0.0
 10
350.3001884469174
 20
78.58930563240067
 30
0.0
 10
349.9224735430986
 20
78.84820632161075
 30
0.0
  0
ENDBLK
  5
139
330
136
100
AcDbEntity
  8
0
100
AcDbBlockEnd
  0
BLOCK
  5
13D
330
13B
100
AcDbEntity
  8
0
100
AcDbBlockBegin
  2
block 48
 70
     0
 10
0.0
 20
0.0
 30
0.0
  3
block 48
  1

  0
SPLINE
  5
13F
330
13B
100
AcDbEntity
  8
0
  6
AI-Linetype-19
 62
     6
370
    25
100
AcDbSpline
210
0.0
220
0.0
230
1.0
 70
     8
 71
     3
 72
    14
 73
    10
 74
     0
 42
0.0000000001
 43
0.0000000001
 12
1.0
 22
0.0
 32
0.0
 13
1.0
 23
0.0
 33
0.0
 40
0.0
 40
0.0
 40
0.0
 40
0.0
 40
1.0
 40
1.0
 40
1.0
 40
2.0
 40
2.0
 40
2.0
 40
3.0
 40
3.0
 40
3.0
 40
3.0
 10
237.7564222134983
 20
113.3931922898888
 30
0.0
 10
261.7726272810107
 20
115.3250874301414
 30
0.0
 10
284.773937413722
 20
119.8226358370481
 30
0.0
 10
307.6737898027234
 20
127.3897396013635
 30
0.0
 10
313.6111820526696
 20
129.5137921910903
 30
0.0
 10
345.7786546789276
 20
142.8109095085181
 30
0.0
 10
353.8866279739257
 20
147.3927899586398
 30
0.0
 10
373.7272656330059
 20
158.6048927247188
 30
0.0
 10
391.9587874643536
 20
171.0403111297246
 30
0.0
 10
408.6441061012118
 20
186.6175672705872
 30
0.0
  0
ENDBLK
  5
13E
330
13B
100
AcDbEntity
  8
0
100
AcDbBlockEnd
  0
BLOCK
  5
143
330
141
100
AcDbEntity
  8
0
100
AcDbBlockBegin
  2
block 49
 70
     0
 10
0.0
 20
0.0
 30
0.0
  3
block 49
  1

  0
SPLINE
  5
145
330
141
100
AcDbEntity
  8
0
 62
   250
370
    25
100
AcDbSpline
210
0.0
220
0.0
230
1.0
 70
     8
 71
     3
 72
     8
 73
     4
 74
     0
 42
0.0000000001
 43
0.0000000001
 12
1.0
 22
0.0
 32
0.0
 13
1.0
 23
0.0
 33
0.0
 40
0.0
 40
0.0
 40
0.0
 40
0.0
 40
1.0
 40
1.0
 40
1.0
 40
1.0
 10
349.9224735430986
 20
78.84820632161075
 30
0.0
 10
346.9454507525801
 20
80.88864996023929
 30
0.0
 10
343.9340677942932
 20
82.87374339021156
 30
0.0
 10
340.8854319231008
 20
84.80549742215956
 30
0.0
  0
ENDBLK
  5
144
330
141
100
AcDbEntity
  8
0
100
AcDbBlockEnd
  0
BLOCK
  5
148
330
146
100
AcDbEntity
  8
0
100
AcDbBlockBegin
  2
block 50
 70
     0
 10
0.0
 20
0.0
 30
0.0
  3
block 50
  1

  0
SPLINE
  5
14A
330
146
100
AcDbEntity
  8
0
  6
AI-Linetype-20
 62
     6
370
    25
100
AcDbSpline
210
0.0
220
0.0
230
1.0
 70
     8
 71
     3
 72
    20
 73
    16
 74
     0
 42
0.0000000001
 43
0.0000000001
 12
1.0
 22
0.0
 32
0.0
 13
1.0
 23
0.0
 33
0.0
 40
0.0
 40
0.0
 40
0.0
 40
0.0
 40
1.0
 40
1.0
 40
1.0
 40
2.0
 40
2.0
 40
2.0
 40
3.0
 40
3.0
 40
3.0
 40
4.0
 40
4.0
 40
4.0
 40
5.0
 40
5.0
 40
5.0
 40
5.0
 10
215.1260537278769
 20
112.4380572370974
 30
0.0
 10
216.7365719406743
 20
112.4348117180994
 30
0.0
 10
218.3470195987098
 20
112.4396799964163
 30
0.0
 10
219.9574672567517
 20
112.4525915172868
 30
0.0
 10
219.9574672567517
 20
112.4525915172868
 30
0.0
 10
219.9595838995201
 20
112.4529090137154
 30
0.0
 10
219.9595838995201
 20
112.4529090137154
 30
0.0
 10
221.7462067914969
 20
112.498945994059
 30
0.0
 10
223.5321946906346
 20
112.5593408679305
 30
0.0
 10
225.3178298159704
 20
112.634058357931
 30
0.0
 10
229.439568298594
 20
112.8061766930156
 30
0.0
 10
233.5541807505301
 20
113.0571399716038
 30
0.0
 10
237.6662885085086
 20
113.3871951353488
 30
0.0
 10
231.7634656825223
 20
113.0784475089844
 30
0.0
 10
225.8606781339163
 20
112.7696646052454
 30
0.0
 10
219.9578905853038
 20
112.4609169788874
 30
0.0
  0
ENDBLK
  5
149
330
146
100
AcDbEntity
  8
0
100
AcDbBlockEnd
  0
BLOCK
  5
14E
330
14C
100
AcDbEntity
  8
0
100
AcDbBlockBegin
  2
block 51
 70
     0
 10
0.0
 20
0.0
 30
0.0
  3
block 51
  1

  0
SPLINE
  5
150
330
14C
100
AcDbEntity
  8
0
 62
   250
370
    25
100
AcDbSpline
210
0.0
220
0.0
230
1.0
 70
     8
 71
     3
 72
    11
 73
     7
 74
     0
 42
0.0000000001
 43
0.0000000001
 12
1.0
 22
0.0
 32
0.0
 13
1.0
 23
0.0
 33
0.0
 40
0.0
 40
0.0
 40
0.0
 40
0.0
 40
1.0
 40
1.0
 40
1.0
 40
2.0
 40
2.0
 40
2.0
 40
2.0
 10
-293.8281458889179
 20
228.629963155842
 30
0.0
 10
-293.6115427778985
 20
228.9708837526881
 30
0.0
 10
-293.3668588726894
 20
229.2822066280235
 30
0.0
 10
-293.0867564783183
 20
229.5732097326774
 30
0.0
 10
-293.0867564783183
 20
229.5732097326774
 30
0.0
 10
-293.0894022817955
 20
229.5776899598873
 30
0.0
 10
-293.0903194936598
 20
229.5801593764656
 30
0.0
  0
ENDBLK
  5
14F
330
14C
100
AcDbEntity
  8
0
100
AcDbBlockEnd
  0
BLOCK
  5
153
330
151
100
AcDbEntity
  8
0
100
AcDbBlockBegin
  2
block 52
 70
     0
 10
0.0
 20
0.0
 30
0.0
  3
block 52
  1

  0
SPLINE
  5
155
330
151
100
AcDbEntity
  8
0
 62
   250
370
    25
100
AcDbSpline
210
0.0
220
0.0
230
1.0
 70
     8
 71
     3
 72
    14
 73
    10
 74
     0
 42
0.0000000001
 43
0.0000000001
 12
1.0
 22
0.0
 32
0.0
 13
1.0
 23
0.0
 33
0.0
 40
0.0
 40
0.0
 40
0.0
 40
0.0
 40
1.0
 40
1.0
 40
1.0
 40
2.0
 40
2.0
 40
2.0
 40
3.0
 40
3.0
 40
3.0
 40
3.0
 10
-288.7836569868845
 20
231.4123253653557
 30
0.0
 10
-290.4078275456027
 20
231.4069984811054
 30
0.0
 10
-291.9604203010564
 20
230.7433956927263
 30
0.0
 10
-293.0867564783183
 20
229.5732097326774
 30
0.0
 10
-293.0867564783183
 20
229.5732097326774
 30
0.0
 10
-293.0834051272552
 20
229.5677770162069
 30
0.0
 10
-293.0834051272552
 20
229.5677770162069
 30
0.0
 10
-294.1477942258619
 20
228.4634892013211
 30
0.0
 10
-294.6479921918563
 20
227.3339075052095
 30
0.0
 10
-294.7501907607486
 20
225.8035747763469
 30
0.0
  0
ENDBLK
  5
154
330
151
100
AcDbEntity
  8
0
100
AcDbBlockEnd
  0
BLOCK
  5
158
330
156
100
AcDbEntity
  8
0
100
AcDbBlockBegin
  2
block 53
 70
     0
 10
0.0
 20
0.0
 30
0.0
  3
block 53
  1

  0
SPLINE
  5
15A
330
156
100
AcDbEntity
  8
0
 62
   250
370
    25
100
AcDbSpline
210
0.0
220
0.0
230
1.0
 70
     8
 71
     3
 72
    11
 73
     7
 74
     0
 42
0.0000000001
 43
0.0000000001
 12
1.0
 22
0.0
 32
0.0
 13
1.0
 23
0.0
 33
0.0
 40
0.0
 40
0.0
 40
0.0
 40
0.0
 40
1.0
 40
1.0
 40
1.0
 40
2.0
 40
2.0
 40
2.0
 40
2.0
 10
503.720030866736
 20
229.5643550746136
 30
0.0
 10
503.720030866736
 20
229.5643550746136
 30
0.0
 10
503.7216889035764
 20
229.5676358709219
 30
0.0
 10
503.7226413928306
 20
229.5692586303821
 30
0.0
 10
503.7927728235535
 20
229.4964813961753
 30
0.0
 10
503.8609287210208
 20
229.4220461251328
 30
0.0
 10
503.9272854721169
 20
229.3458469850936
 30
0.0
  0
ENDBLK
  5
159
330
156
100
AcDbEntity
  8
0
100
AcDbBlockEnd
  0
BLOCK
  5
15D
330
15B
100
AcDbEntity
  8
0
100
AcDbBlockBegin
  2
block 54
 70
     0
 10
0.0
 20
0.0
 30
0.0
  3
block 54
  1

  0
SPLINE
  5
15F
330
15B
100
AcDbEntity
  8
0
 62
   250
370
    25
100
AcDbSpline
210
0.0
220
0.0
230
1.0
 70
     8
 71
     3
 72
    11
 73
     7
 74
     0
 42
0.0000000001
 43
0.0000000001
 12
1.0
 22
0.0
 32
0.0
 13
1.0
 23
0.0
 33
0.0
 40
0.0
 40
0.0
 40
0.0
 40
0.0
 40
1.0
 40
1.0
 40
1.0
 40
2.0
 40
2.0
 40
2.0
 40
2.0
 10
503.7287443795154
 20
229.5801240633102
 30
0.0
 10
503.7272274521846
 20
229.5761729967956
 30
0.0
 10
503.7247580356067
 20
229.5728216457251
 30
0.0
 10
503.7226413928306
 20
229.5692586303821
 30
0.0
 10
502.5948941204848
 20
230.7396209774319
 30
0.0
 10
501.0405727734851
 20
231.402412386209
 30
0.0
 10
499.4152733386218
 20
231.406010679017
 30
0.0
  0
ENDBLK
  5
15E
330
15B
100
AcDbEntity
  8
0
100
AcDbBlockEnd
  0
BLOCK
  5
162
330
160
100
AcDbEntity
  8
0
100
AcDbBlockBegin
  2
block 55
 70
     0
 10
0.0
 20
0.0
 30
0.0
  3
block 55
  1

  0
SPLINE
  5
164
330
160
100
AcDbEntity
  8
0
 62
   250
370
    25
100
AcDbSpline
210
0.0
220
0.0
230
1.0
 70
     8
 71
     3
 72
     8
 73
     4
 74
     0
 42
0.0000000001
 43
0.0000000001
 12
1.0
 22
0.0
 32
0.0
 13
1.0
 23
0.0
 33
0.0
 40
0.0
 40
0.0
 40
0.0
 40
0.0
 40
1.0
 40
1.0
 40
1.0
 40
1.0
 10
-236.9221925516176
 20
185.4848015080595
 30
0.0
 10
-230.5745572463462
 20
171.8722484705582
 30
0.0
 10
-224.6501216259782
 20
159.1672504329668
 30
0.0
 10
-218.3024863207062
 20
145.5546621180846
 30
0.0
  0
ENDBLK
  5
163
330
160
100
AcDbEntity
  8
0
100
AcDbBlockEnd
  0
BLOCK
  5
167
330
165
100
AcDbEntity
  8
0
100
AcDbBlockBegin
  2
block 56
 70
     0
 10
0.0
 20
0.0
 30
0.0
  3
block 56
  1

  0
SPLINE
  5
169
330
165
100
AcDbEntity
  8
0
  6
AI-Linetype-21
 62
     6
370
    25
100
AcDbSpline
210
0.0
220
0.0
230
1.0
 70
     8
 71
     3
 72
    35
 73
    31
 74
     0
 42
0.0000000001
 43
0.0000000001
 12
1.0
 22
0.0
 32
0.0
 13
1.0
 23
0.0
 33
0.0
 40
0.0
 40
0.0
 40
0.0
 40
0.0
 40
1.0
 40
1.0
 40
1.0
 40
2.0
 40
2.0
 40
2.0
 40
3.0
 40
3.0
 40
3.0
 40
4.0
 40
4.0
 40
4.0
 40
5.0
 40
5.0
 40
5.0
 40
6.0
 40
6.0
 40
6.0
 40
7.0
 40
7.0
 40
7.0
 40
8.0
 40
8.0
 40
8.0
 40
9.0
 40
9.0
 40
9.0
 40
10.0
 40
10.0
 40
10.0
 40
10.0
 10
-88.69953177681649
 20
218.987067808395
 30
0.0
 10
-88.30297875226621
 20
218.813820596958
 30
0.0
 10
-87.90885986691933
 20
218.6348937273912
 30
0.0
 10
-87.51685762434117
 20
218.4515924627503
 30
0.0
 10
-87.11289635006938
 20
218.2626820947541
 30
0.0
 10
-86.71115755071526
 20
218.0690798352616
 30
0.0
 10
-86.31185289055874
 20
217.8705387426133
 30
0.0
 10
-85.51454883328951
 20
217.4740915501609
 30
0.0
 10
-84.7270166101836
 20
217.0578890251161
 30
0.0
 10
-83.94893872481792
 20
216.6248591899777
 30
0.0
 10
-82.23657471702985
 20
215.6718407788702
 30
0.0
 10
-80.56993019327808
 20
214.6373316207892
 30
0.0
 10
-78.94554797033096
 20
213.5412281578575
 30
0.0
 10
-78.28134546644937
 20
213.0929584947245
 30
0.0
 10
-77.6239162194643
 20
212.63534032598
 30
0.0
 10
-76.9728369008095
 20
212.1681972647273
 30
0.0
 10
-73.29721616127291
 20
209.5324831219951
 30
0.0
 10
-69.85008700968584
 20
206.6461937516672
 30
0.0
 10
-66.4677271271268
 20
203.6543897388428
 30
0.0
 10
-65.94981991662252
 20
203.1966657379692
 30
0.0
 10
-65.43628710119712
 20
202.7370720359669
 30
0.0
 10
-64.92409482619135
 20
202.2760319613983
 30
0.0
 10
-64.24747468468334
 20
201.6670032792294
 30
0.0
 10
-63.57311229548038
 20
201.0554346257275
 30
0.0
 10
-62.90051377525559
 20
200.441925716349
 30
0.0
 10
-60.458296060123
 20
198.2143355787467
 30
0.0
 10
-58.0391497512657
 20
195.9616279468304
 30
0.0
 10
-55.60204725618147
 20
193.728463983253
 30
0.0
 10
-54.69534804466371
 20
192.8976464152561
 30
0.0
 10
-53.78617941656804
 20
192.0695099281228
 30
0.0
 10
-52.87246000649385
 20
191.2464181062695
 30
0.0
  0
ENDBLK
  5
168
330
165
100
AcDbEntity
  8
0
100
AcDbBlockEnd
  0
BLOCK
  5
16D
330
16B
100
AcDbEntity
  8
0
100
AcDbBlockBegin
  2
block 57
 70
     0
 10
0.0
 20
0.0
 30
0.0
  3
block 57
  1

  0
SPLINE
  5
16F
330
16B
100
AcDbEntity
  8
0
 62
   250
370
    25
100
AcDbSpline
210
0.0
220
0.0
230
1.0
 70
     8
 71
     3
 72
     8
 73
     4
 74
     0
 42
0.0000000001
 43
0.0000000001
 12
1.0
 22
0.0
 32
0.0
 13
1.0
 23
0.0
 33
0.0
 40
0.0
 40
0.0
 40
0.0
 40
0.0
 40
1.0
 40
1.0
 40
1.0
 40
1.0
 10
-218.3024863207062
 20
145.5546621180846
 30
0.0
 10
-217.2409899673803
 20
143.2783539192622
 30
0.0
 10
-215.17211276097
 20
141.6326994362507
 30
0.0
 10
-212.7153607653463
 20
141.1104883852933
 30
0.0
  0
ENDBLK
  5
16E
330
16B
100
AcDbEntity
  8
0
100
AcDbBlockEnd
  0
BLOCK
  5
172
330
170
100
AcDbEntity
  8
0
100
AcDbBlockBegin
  2
block 58
 70
     0
 10
0.0
 20
0.0
 30
0.0
  3
block 58
  1

  0
SPLINE
  5
174
330
170
100
AcDbEntity
  8
0
 62
   250
370
    25
100
AcDbSpline
210
0.0
220
0.0
230
1.0
 70
     8
 71
     3
 72
    23
 73
    19
 74
     0
 42
0.0000000001
 43
0.0000000001
 12
1.0
 22
0.0
 32
0.0
 13
1.0
 23
0.0
 33
0.0
 40
0.0
 40
0.0
 40
0.0
 40
0.0
 40
1.0
 40
1.0
 40
1.0
 40
2.0
 40
2.0
 40
2.0
 40
3.0
 40
3.0
 40
3.0
 40
4.0
 40
4.0
 40
4.0
 40
5.0
 40
5.0
 40
5.0
 40
6.0
 40
6.0
 40
6.0
 40
6.0
 10
19.65899668617297
 20
84.80196969862284
 30
0.0
 10
27.62360596533854
 20
85.10863595949007
 30
0.0
 10
35.5914254860502
 20
85.32622683676533
 30
0.0
 10
43.56016221862227
 20
85.49485271108911
 30
0.0
 10
52.88355032944865
 20
85.6921590950121
 30
0.0
 10
62.2081731485643
 20
85.82247373498902
 30
0.0
 10
71.53328985099431
 20
85.900013415024
 30
0.0
 10
76.5556951132464
 20
85.9417818322958
 30
0.0
 10
81.5782767623904
 20
85.96823986680343
 30
0.0
 10
86.60082313416021
 20
85.98792464442222
 30
0.0
 10
90.76584696159101
 20
86.00425807100291
 30
0.0
 10
94.93087078902212
 20
86.01597016085633
 30
0.0
 10
99.09585933907165
 20
86.02711781263957
 30
0.0
 10
104.4144887581817
 20
86.04133459639986
 30
0.0
 10
109.7331181772796
 20
86.05470472304368
 30
0.0
 10
115.0517475963893
 20
86.06659319973703
 30
0.0
 10
136.8072370668449
 20
86.11517015052844
 30
0.0
 10
306.4306502196303
 20
85.21757249530553
 30
0.0
 10
328.1861749674546
 20
85.21764304908564
 30
0.0
  0
ENDBLK
  5
173
330
170
100
AcDbEntity
  8
0
100
AcDbBlockEnd
  0
BLOCK
  5
177
330
175
100
AcDbEntity
  8
0
100
AcDbBlockBegin
  2
block 59
 70
     0
 10
0.0
 20
0.0
 30
0.0
  3
block 59
  1

  0
SPLINE
  5
179
330
175
100
AcDbEntity
  8
0
 62
   250
370
    25
100
AcDbSpline
210
0.0
220
0.0
230
1.0
 70
     8
 71
     3
 72
    11
 73
     7
 74
     0
 42
0.0000000001
 43
0.0000000001
 12
1.0
 22
0.0
 32
0.0
 13
1.0
 23
0.0
 33
0.0
 40
0.0
 40
0.0
 40
0.0
 40
0.0
 40
1.0
 40
1.0
 40
1.0
 40
2.0
 40
2.0
 40
2.0
 40
2.0
 10
485.7047550181504
 20
231.4876778134981
 30
0.0
 10
383.909653586305
 20
231.9709426417876
 30
0.0
 10
282.1145521544551
 20
232.2606757653531
 30
0.0
 10
180.3183571238259
 20
232.356912461589
 30
0.0
 10
36.44693722634714
 20
232.491319284483
 30
0.0
 10
-107.4222601962328
 20
232.2383804789135
 30
0.0
 10
-251.2923042759428
 20
231.5980607674928
 30
0.0
  0
ENDBLK
  5
178
330
175
100
AcDbEntity
  8
0
100
AcDbBlockEnd
  0
BLOCK
  5
17C
330
17A
100
AcDbEntity
  8
0
100
AcDbBlockBegin
  2
block 60
 70
     0
 10
0.0
 20
0.0
 30
0.0
  3
block 60
  1

  0
SPLINE
  5
17E
330
17A
100
AcDbEntity
  8
0
  6
AI-Linetype-22
 62
     6
370
    25
100
AcDbSpline
210
0.0
220
0.0
230
1.0
 70
     8
 71
     3
 72
     8
 73
     4
 74
     0
 42
0.0000000001
 43
0.0000000001
 12
1.0
 22
0.0
 32
0.0
 13
1.0
 23
0.0
 33
0.0
 40
0.0
 40
0.0
 40
0.0
 40
0.0
 40
1.0
 40
1.0
 40
1.0
 40
1.0
 10
451.9420227180883
 20
187.2171102898878
 30
0.0
 10
456.4210075023876
 20
189.8650372354888
 30
0.0
 10
461.5203112985899
 20
191.3071344498013
 30
0.0
 10
466.7404823779264
 20
191.388656477663
 30
0.0
  0
ENDBLK
  5
17D
330
17A
100
AcDbEntity
  8
0
100
AcDbBlockEnd
  0
BLOCK
  5
182
330
180
100
AcDbEntity
  8
0
100
AcDbBlockBegin
  2
block 61
 70
     0
 10
0.0
 20
0.0
 30
0.0
  3
block 61
  1

  0
SPLINE
  5
184
330
180
100
AcDbEntity
  8
0
 62
   250
370
    25
100
AcDbSpline
210
0.0
220
0.0
230
1.0
 70
     8
 71
     3
 72
    11
 73
     7
 74
     0
 42
0.0000000001
 43
0.0000000001
 12
1.0
 22
0.0
 32
0.0
 13
1.0
 23
0.0
 33
0.0
 40
0.0
 40
0.0
 40
0.0
 40
0.0
 40
1.0
 40
1.0
 40
1.0
 40
2.0
 40
2.0
 40
2.0
 40
2.0
 10
392.397990836742
 20
78.62617049224136
 30
0.0
 10
411.3295966229422
 20
108.2660484796866
 30
0.0
 10
426.7414724101723
 20
139.0456680487702
 30
0.0
 10
439.132193404959
 20
171.9606979624664
 30
0.0
 10
441.1670457168286
 20
177.3666772051214
 30
0.0
 10
445.7527251968604
 20
182.9043169461293
 30
0.0
 10
450.3741775807871
 20
186.3322164638493
 30
0.0
  0
ENDBLK
  5
183
330
180
100
AcDbEntity
  8
0
100
AcDbBlockEnd
  0
BLOCK
  5
187
330
185
100
AcDbEntity
  8
0
100
AcDbBlockBegin
  2
block 62
 70
     0
 10
0.0
 20
0.0
 30
0.0
  3
block 62
  1

  0
SPLINE
  5
189
330
185
100
AcDbEntity
  8
0
 62
   250
370
    25
100
AcDbSpline
210
0.0
220
0.0
230
1.0
 70
     8
 71
     3
 72
    26
 73
    22
 74
     0
 42
0.0000000001
 43
0.0000000001
 12
1.0
 22
0.0
 32
0.0
 13
1.0
 23
0.0
 33
0.0
 40
0.0
 40
0.0
 40
0.0
 40
0.0
 40
1.0
 40
1.0
 40
1.0
 40
2.0
 40
2.0
 40
2.0
 40
3.0
 40
3.0
 40
3.0
 40
4.0
 40
4.0
 40
4.0
 40
5.0
 40
5.0
 40
5.0
 40
6.0
 40
6.0
 40
6.0
 40
7.0
 40
7.0
 40
7.0
 40
7.0
 10
-54.44798306245109
 20
107.4663103041142
 30
0.0
 10
-50.38674528596448
 20
106.5133977250468
 30
0.0
 10
-46.90557346301183
 20
103.9126787429148
 30
0.0
 10
-44.84001233037741
 20
100.2884218679269
 30
0.0
 10
-40.66108921569828
 20
92.95548934846023
 30
0.0
 10
-36.30426227548032
 20
85.73932495560223
 30
0.0
 10
-31.76127660287877
 20
78.62617051128699
 30
0.0
 10
-30.47566305668003
 20
76.61260823602046
 30
0.0
 10
-28.25181232148592
 20
75.39384532405148
 30
0.0
 10
-25.86282817212567
 20
75.39359838228216
 30
0.0
 10
-16.90198569189094
 20
75.3935983818843
 30
0.0
 10
-7.941143211649152
 20
75.39359838148003
 30
0.0
 10
1.019699268592317
 20
75.39359838107576
 30
0.0
 10
4.079729733498039
 20
75.39398643211862
 30
0.0
 10
7.066912409486069
 20
76.32724951040974
 30
0.0
 10
9.582859848252921
 20
78.0689642979773
 30
0.0
 10
9.95941059856333
 20
78.32955830138377
 30
0.0
 10
10.33652578694358
 20
78.58930564766669
 30
0.0
 10
10.71424069078105
 20
78.84820633684468
 30
0.0
 10
10.69314481775679
 20
78.8337426111861
 30
0.0
 10
10.69141622615347
 20
78.86245839821694
 30
0.0
 10
10.68178550150784
 20
78.87240661927828
 30
0.0
  0
ENDBLK
  5
188
330
185
100
AcDbEntity
  8
0
100
AcDbBlockEnd
  0
BLOCK
  5
18C
330
18A
100
AcDbEntity
  8
0
100
AcDbBlockBegin
  2
block 63
 70
     0
 10
0.0
 20
0.0
 30
0.0
  3
block 63
  1

  0
SPLINE
  5
18E
330
18A
100
AcDbEntity
  8
0
  6
AI-Linetype-23
 62
     6
370
    25
100
AcDbSpline
210
0.0
220
0.0
230
1.0
 70
     8
 71
     3
 72
     8
 73
     4
 74
     0
 42
0.0000000001
 43
0.0000000001
 12
1.0
 22
0.0
 32
0.0
 13
1.0
 23
0.0
 33
0.0
 40
0.0
 40
0.0
 40
0.0
 40
0.0
 40
1.0
 40
1.0
 40
1.0
 40
1.0
 10
219.097369463698
 20
112.4516743054585
 30
0.0
 10
216.2855506419536
 20
112.448499341415
 30
0.0
 10
143.6914060408778
 20
112.4463827019
 30
0.0
 10
140.8795872191334
 20
112.4453596580122
 30
0.0
  0
ENDBLK
  5
18D
330
18A
100
AcDbEntity
  8
0
100
AcDbBlockEnd
  0
BLOCK
  5
192
330
190
100
AcDbEntity
  8
0
100
AcDbBlockBegin
  2
block 64
 70
     0
 10
0.0
 20
0.0
 30
0.0
  3
block 64
  1

  0
SPLINE
  5
194
330
190
100
AcDbEntity
  8
0
  6
AI-Linetype-24
 62
     6
370
    25
100
AcDbSpline
210
0.0
220
0.0
230
1.0
 70
     8
 71
     3
 72
     8
 73
     4
 74
     0
 42
0.0000000001
 43
0.0000000001
 12
1.0
 22
0.0
 32
0.0
 13
1.0
 23
0.0
 33
0.0
 40
0.0
 40
0.0
 40
0.0
 40
0.0
 40
1.0
 40
1.0
 40
1.0
 40
1.0
 10
-236.9221925516176
 20
185.4848015080595
 30
0.0
 10
-237.9988113406711
 20
188.9477754771025
 30
0.0
 10
-241.0882516615816
 20
190.6292197161141
 30
0.0
 10
-242.6935840995629
 20
190.6834763260758
 30
0.0
  0
ENDBLK
  5
193
330
190
100
AcDbEntity
  8
0
100
AcDbBlockEnd
  0
BLOCK
  5
198
330
196
100
AcDbEntity
  8
0
100
AcDbBlockBegin
  2
block 65
 70
     0
 10
0.0
 20
0.0
 30
0.0
  3
block 65
  1

  0
SPLINE
  5
19A
330
196
100
AcDbEntity
  8
0
  6
AI-Linetype-25
 62
     6
370
    25
100
AcDbSpline
210
0.0
220
0.0
230
1.0
 70
     8
 71
     3
 72
    29
 73
    25
 74
     0
 42
0.0000000001
 43
0.0000000001
 12
1.0
 22
0.0
 32
0.0
 13
1.0
 23
0.0
 33
0.0
 40
0.0
 40
0.0
 40
0.0
 40
0.0
 40
1.0
 40
1.0
 40
1.0
 40
2.0
 40
2.0
 40
2.0
 40
3.0
 40
3.0
 40
3.0
 40
4.0
 40
4.0
 40
4.0
 40
5.0
 40
5.0
 40
5.0
 40
6.0
 40
6.0
 40
6.0
 40
7.0
 40
7.0
 40
7.0
 40
8.0
 40
8.0
 40
8.0
 40
8.0
 10
-276.9283055088463
 20
190.6862985179847
 30
0.0
 10
-276.9927925588335
 20
190.6862985179911
 30
0.0
 10
-277.0572796088207
 20
190.6862985179911
 30
0.0
 10
-277.1218019361825
 20
190.6862985179911
 30
0.0
 10
-277.12448301704
 20
190.6862985179911
 30
0.0
 10
-277.1271993752724
 20
190.6862985179911
 30
0.0
 10
-277.1271993752724
 20
190.6862985179911
 30
0.0
 10
-277.1893581181987
 20
190.6862985179911
 30
0.0
 10
-277.2488005028937
 20
190.6862985179976
 30
0.0
 10
-277.3082428875948
 20
190.686298518004
 30
0.0
 10
-277.3082428875948
 20
190.686298518004
 30
0.0
 10
-277.3119822898367
 20
190.686298518004
 30
0.0
 10
-277.3138872683381
 20
190.686298518004
 30
0.0
 10
-277.3427441648809
 20
190.686298518004
 30
0.0
 10
-277.3716010614298
 20
190.686298518004
 30
0.0
 10
-277.4004579579786
 20
190.686298518004
 30
0.0
 10
-277.795423500449
 20
190.6862985180232
 30
0.0
 10
-278.1904243203014
 20
190.6862985180425
 30
0.0
 10
-278.5853898627686
 20
190.6862985180553
 30
0.0
 10
-280.2762346690153
 20
190.6858046348237
 30
0.0
 10
-281.8521457724154
 20
189.8309984487819
 30
0.0
 10
-282.7742259215616
 20
188.4136238895689
 30
0.0
 10
-283.8352989465118
 20
186.7825742418688
 30
0.0
 10
-285.6213926778318
 20
185.7676793070291
 30
0.0
 10
-287.5657054568023
 20
185.6910215611591
 30
0.0
  0
ENDBLK
  5
199
330
196
100
AcDbEntity
  8
0
100
AcDbBlockEnd
  0
BLOCK
  5
19E
330
19C
100
AcDbEntity
  8
0
100
AcDbBlockBegin
  2
block 66
 70
     0
 10
0.0
 20
0.0
 30
0.0
  3
block 66
  1

  0
SPLINE
  5
1A0
330
19C
100
AcDbEntity
  8
0
  6
AI-Linetype-26
 62
     6
370
    25
100
AcDbSpline
210
0.0
220
0.0
230
1.0
 70
    24
 71
     3
 72
    17
 73
    13
 74
     0
 42
0.0000000001
 43
0.0000000001
 12
1.0
 22
0.0
 32
0.0
 13
1.0
 23
0.0
 33
0.0
 40
0.0
 40
0.0
 40
0.0
 40
0.0
 40
1.0
 40
1.0
 40
1.0
 40
2.0
 40
2.0
 40
2.0
 40
3.0
 40
3.0
 40
3.0
 40
4.0
 40
4.0
 40
4.0
 40
4.0
 10
-242.4391469324532
 20
190.6862985164382
 30
0.0
 10
-242.7514575744206
 20
190.686298516451
 30
0.0
 10
-263.9191014956518
 20
190.6862985174011
 30
0.0
 10
-264.2314121376224
 20
190.6862985174133
 30
0.0
 10
-264.6973204905544
 20
190.6862985174393
 30
0.0
 10
-265.1631935661051
 20
190.6862985174521
 30
0.0
 10
-265.6291019190433
 20
190.6862985174778
 30
0.0
 10
-265.6504094563471
 20
190.6862985174778
 30
0.0
 10
-265.6717169936446
 20
190.6862985174778
 30
0.0
 10
-265.6929892535733
 20
190.6862985174778
 30
0.0
 10
-265.7469636444232
 20
190.6862985174778
 30
0.0
 10
-276.6312607938002
 20
190.6862985179719
 30
0.0
 10
-276.6852351846495
 20
190.6862985179719
 30
0.0
  0
ENDBLK
  5
19F
330
19C
100
AcDbEntity
  8
0
100
AcDbBlockEnd
  0
BLOCK
  5
1A4
330
1A2
100
AcDbEntity
  8
0
100
AcDbBlockBegin
  2
block 67
 70
     0
 10
0.0
 20
0.0
 30
0.0
  3
block 67
  1

  0
SPLINE
  5
1A6
330
1A2
100
AcDbEntity
  8
0
 62
   250
370
    25
100
AcDbSpline
210
0.0
220
0.0
230
1.0
 70
     8
 71
     3
 72
     8
 73
     4
 74
     0
 42
0.0000000001
 43
0.0000000001
 12
1.0
 22
0.0
 32
0.0
 13
1.0
 23
0.0
 33
0.0
 40
0.0
 40
0.0
 40
0.0
 40
0.0
 40
1.0
 40
1.0
 40
1.0
 40
1.0
 10
19.95402021898751
 20
84.80196969860359
 30
0.0
 10
18.5646601482877
 20
84.74253198044863
 30
0.0
 10
11.95198172652487
 20
79.80484951867825
 30
0.0
 10
10.71424069078105
 20
78.84820633684468
 30
0.0
  0
ENDBLK
  5
1A5
330
1A2
100
AcDbEntity
  8
0
100
AcDbBlockEnd
  0
BLOCK
  5
1A9
330
1A7
100
AcDbEntity
  8
0
100
AcDbBlockBegin
  2
block 68
 70
     0
 10
0.0
 20
0.0
 30
0.0
  3
block 68
  1

  0
SPLINE
  5
1AB
330
1A7
100
AcDbEntity
  8
0
 62
   250
370
    25
100
AcDbSpline
210
0.0
220
0.0
230
1.0
 70
     8
 71
     3
 72
    17
 73
    13
 74
     0
 42
0.0000000001
 43
0.0000000001
 12
1.0
 22
0.0
 32
0.0
 13
1.0
 23
0.0
 33
0.0
 40
0.0
 40
0.0
 40
0.0
 40
0.0
 40
1.0
 40
1.0
 40
1.0
 40
2.0
 40
2.0
 40
2.0
 40
3.0
 40
3.0
 40
3.0
 40
4.0
 40
4.0
 40
4.0
 40
4.0
 10
-294.7407717003796
 20
225.9378052058806
 30
0.0
 10
-294.7407717003796
 20
225.9378052058806
 30
0.0
 10
-294.2666789958159
 20
216.0354471945234
 30
0.0
 10
-294.2666789958159
 20
216.0354471945234
 30
0.0
 10
-294.2666789958159
 20
216.0354471945234
 30
0.0
 10
-293.2517418229068
 20
193.7333837774197
 30
0.0
 10
-293.0815422299077
 20
191.442136823614
 30
0.0
 10
-292.9113426369121
 20
189.1508898698024
 30
0.0
 10
-293.5367682835787
 20
185.4848015106007
 30
0.0
 10
-287.9621653076816
 20
185.4848015103504
 30
0.0
 10
-282.387562331783
 20
185.4848015101001
 30
0.0
 10
498.2234623427733
 20
186.3923564749354
 30
0.0
 10
498.2234623427733
 20
186.3923564749354
 30
0.0
  0
ENDBLK
  5
1AA
330
1A7
100
AcDbEntity
  8
0
100
AcDbBlockEnd
  0
BLOCK
  5
1AE
330
1AC
100
AcDbEntity
  8
0
100
AcDbBlockBegin
  2
block 69
 70
     0
 10
0.0
 20
0.0
 30
0.0
  3
block 69
  1

  0
INSERT
  5
1B1
330
1AC
100
AcDbEntity
  8
0
100
AcDbBlockReference
  2
block 70
 10
0.0
 20
0.0
 30
0.0
  0
ENDBLK
  5
1AF
330
1AC
100
AcDbEntity
  8
0
100
AcDbBlockEnd
  0
BLOCK
  5
1B2
330
1B0
100
AcDbEntity
  8
0
100
AcDbBlockBegin
  2
block 70
 70
     0
 10
0.0
 20
0.0
 30
0.0
  3
block 70
  1

  0
INSERT
  5
1B5
330
1B0
100
AcDbEntity
  8
0
100
AcDbBlockReference
  2
block 71
 10
0.0
 20
0.0
 30
0.0
  0
ENDBLK
  5
1B3
330
1B0
100
AcDbEntity
  8
0
100
AcDbBlockEnd
  0
BLOCK
  5
1B6
330
1B4
100
AcDbEntity
  8
0
100
AcDbBlockBegin
  2
block 71
 70
     0
 10
0.0
 20
0.0
 30
0.0
  3
block 71
  1

  0
POLYLINE
  5
1B8
330
1B4
100
AcDbEntity
  8
0
 62
     4
370
    25
100
AcDb2dPolyline
 66
     1
 10
0.0
 20
0.0
 30
0.0
  0
VERTEX
  5
1B9
330
1B8
100
AcDbEntity
  8
0
 62
     4
370
    25
100
AcDbVertex
100
AcDb2dVertex
 10
69.70201159959925
 20
171.3927360106186
 30
0.0
  0
VERTEX
  5
1BA
330
1B8
100
AcDbEntity
  8
0
 62
     4
370
    25
100
AcDbVertex
100
AcDb2dVertex
 10
58.45192848439689
 20
171.3927360106186
 30
0.0
  0
SEQEND
  5
1BB
330
1B8
100
AcDbEntity
  8
0
 62
     4
370
    25
  0
POLYLINE
  5
1BC
330
1B4
100
AcDbEntity
  8
0
  6
AI-Linetype-27
 62
     4
370
    25
100
AcDb2dPolyline
 66
     1
 10
0.0
 20
0.0
 30
0.0
  0
VERTEX
  5
1BD
330
1BC
100
AcDbEntity
  8
0
  6
AI-Linetype-27
 62
     4
370
    25
100
AcDbVertex
100
AcDb2dVertex
 10
55.3269577311905
 20
171.3927360106186
 30
0.0
  0
VERTEX
  5
1BE
330
1BC
100
AcDbEntity
  8
0
  6
AI-Linetype-27
 62
     4
370
    25
100
AcDbVertex
100
AcDb2dVertex
 10
50.63950698434262
 20
171.3927360106186
 30
0.0
  0
SEQEND
  5
1C0
330
1BC
100
AcDbEntity
  8
0
  6
AI-Linetype-27
 62
     4
370
    25
  0
POLYLINE
  5
1C1
330
1B4
100
AcDbEntity
  8
0
  6
AI-Linetype-28
 62
     4
370
    25
100
AcDb2dPolyline
 66
     1
 10
0.0
 20
0.0
 30
0.0
  0
VERTEX
  5
1C2
330
1C1
100
AcDbEntity
  8
0
  6
AI-Linetype-28
 62
     4
370
    25
100
AcDbVertex
100
AcDb2dVertex
 10
49.07702160773943
 20
171.3927360106186
 30
0.0
  0
VERTEX
  5
1C3
330
1C1
100
AcDbEntity
  8
0
  6
AI-Linetype-28
 62
     4
370
    25
100
AcDbVertex
100
AcDb2dVertex
 10
22.51465178032783
 20
171.3927360106186
 30
0.0
  0
SEQEND
  5
1C5
330
1C1
100
AcDbEntity
  8
0
  6
AI-Linetype-28
 62
     4
370
    25
  0
POLYLINE
  5
1C6
330
1B4
100
AcDbEntity
  8
0
 62
     4
370
    25
100
AcDb2dPolyline
 66
     1
 10
0.0
 20
0.0
 30
0.0
  0
VERTEX
  5
1C7
330
1C6
100
AcDbEntity
  8
0
 62
     4
370
    25
100
AcDbVertex
100
AcDb2dVertex
 10
20.95216640372463
 20
171.3927360106186
 30
0.0
  0
VERTEX
  5
1C8
330
1C6
100
AcDbEntity
  8
0
 62
     4
370
    25
100
AcDbVertex
100
AcDb2dVertex
 10
9.7020839613925
 20
171.3927360106186
 30
0.0
  0
SEQEND
  5
1C9
330
1C6
100
AcDbEntity
  8
0
 62
     4
370
    25
  0
ENDBLK
  5
1B7
330
1B4
100
AcDbEntity
  8
0
100
AcDbBlockEnd
  0
BLOCK
  5
1CC
330
1CA
100
AcDbEntity
  8
0
100
AcDbBlockBegin
  2
block 72
 70
     0
 10
0.0
 20
0.0
 30
0.0
  3
block 72
  1

  0
INSERT
  5
1CF
330
1CA
100
AcDbEntity
  8
0
100
AcDbBlockReference
  2
block 73
 10
0.0
 20
0.0
 30
0.0
  0
ENDBLK
  5
1CD
330
1CA
100
AcDbEntity
  8
0
100
AcDbBlockEnd
  0
BLOCK
  5
1D0
330
1CE
100
AcDbEntity
  8
0
100
AcDbBlockBegin
  2
block 73
 70
     0
 10
0.0
 20
0.0
 30
0.0
  3
block 73
  1

  0
INSERT
  5
1D3
330
1CE
100
AcDbEntity
  8
0
100
AcDbBlockReference
  2
block 74
 10
0.0
 20
0.0
 30
0.0
  0
ENDBLK
  5
1D1
330
1CE
100
AcDbEntity
  8
0
100
AcDbBlockEnd
  0
BLOCK
  5
1D4
330
1D2
100
AcDbEntity
  8
0
100
AcDbBlockBegin
  2
block 74
 70
     0
 10
0.0
 20
0.0
 30
0.0
  3
block 74
  1

  0
POLYLINE
  5
1D6
330
1D2
100
AcDbEntity
  8
0
 62
     4
370
    25
100
AcDb2dPolyline
 66
     1
 10
0.0
 20
0.0
 30
0.0
  0
VERTEX
  5
1D7
330
1D6
100
AcDbEntity
  8
0
 62
     4
370
    25
100
AcDbVertex
100
AcDb2dVertex
 10
39.70247808099642
 20
141.3927691635993
 30
0.0
  0
VERTEX
  5
1D8
330
1D6
100
AcDbEntity
  8
0
 62
     4
370
    25
100
AcDbVertex
100
AcDb2dVertex
 10
39.70247808099642
 20
152.6428576617633
 30
0.0
  0
SEQEND
  5
1D9
330
1D6
100
AcDbEntity
  8
0
 62
     4
370
    25
  0
POLYLINE
  5
1DA
330
1D2
100
AcDbEntity
  8
0
  6
AI-Linetype-29
 62
     4
370
    25
100
AcDb2dPolyline
 66
     1
 10
0.0
 20
0.0
 30
0.0
  0
VERTEX
  5
1DB
330
1DA
100
AcDbEntity
  8
0
  6
AI-Linetype-29
 62
     4
370
    25
100
AcDbVertex
100
AcDb2dVertex
 10
39.70247808099642
 20
155.7677853512762
 30
0.0
  0
VERTEX
  5
1DC
330
1DA
100
AcDbEntity
  8
0
  6
AI-Linetype-29
 62
     4
370
    25
100
AcDbVertex
100
AcDb2dVertex
 10
39.70247808099642
 20
160.4551822685071
 30
0.0
  0
SEQEND
  5
1DE
330
1DA
100
AcDbEntity
  8
0
  6
AI-Linetype-29
 62
     4
370
    25
  0
POLYLINE
  5
1DF
330
1D2
100
AcDbEntity
  8
0
  6
AI-Linetype-30
 62
     4
370
    25
100
AcDb2dPolyline
 66
     1
 10
0.0
 20
0.0
 30
0.0
  0
VERTEX
  5
1E0
330
1DF
100
AcDbEntity
  8
0
  6
AI-Linetype-30
 62
     4
370
    25
100
AcDbVertex
100
AcDb2dVertex
 10
39.70247808099642
 20
162.0176514962252
 30
0.0
  0
VERTEX
  5
1E1
330
1DF
100
AcDbEntity
  8
0
  6
AI-Linetype-30
 62
     4
370
    25
100
AcDbVertex
100
AcDb2dVertex
 10
39.70247808099642
 20
188.5797252607435
 30
0.0
  0
SEQEND
  5
1E3
330
1DF
100
AcDbEntity
  8
0
  6
AI-Linetype-30
 62
     4
370
    25
  0
POLYLINE
  5
1E4
330
1D2
100
AcDbEntity
  8
0
 62
     4
370
    25
100
AcDb2dPolyline
 66
     1
 10
0.0
 20
0.0
 30
0.0
  0
VERTEX
  5
1E5
330
1E4
100
AcDbEntity
  8
0
 62
     4
370
    25
100
AcDbVertex
100
AcDb2dVertex
 10
39.70247808099642
 20
190.1421837225382
 30
0.0
  0
VERTEX
  5
1E6
330
1E4
100
AcDbEntity
  8
0
 62
     4
370
    25
100
AcDbVertex
100
AcDb2dVertex
 10
39.70247808099642
 20
201.3922722207023
 30
0.0
  0
SEQEND
  5
1E7
330
1E4
100
AcDbEntity
  8
0
 62
     4
370
    25
  0
ENDBLK
  5
1D5
330
1D2
100
AcDbEntity
  8
0
100
AcDbBlockEnd
  0
BLOCK
  5
1EA
330
1E8
100
AcDbEntity
  8
0
100
AcDbBlockBegin
  2
block 75
 70
     0
 10
0.0
 20
0.0
 30
0.0
  3
block 75
  1

  0
INSERT
  5
1ED
330
1E8
100
AcDbEntity
  8
0
100
AcDbBlockReference
  2
block 76
 10
0.0
 20
0.0
 30
0.0
  0
ENDBLK
  5
1EB
330
1E8
100
AcDbEntity
  8
0
100
AcDbBlockEnd
  0
BLOCK
  5
1EE
330
1EC
100
AcDbEntity
  8
0
100
AcDbBlockBegin
  2
block 76
 70
     0
 10
0.0
 20
0.0
 30
0.0
  3
block 76
  1

  0
INSERT
  5
1F1
330
1EC
100
AcDbEntity
  8
0
100
AcDbBlockReference
  2
block 77
 10
0.0
 20
0.0
 30
0.0
  0
ENDBLK
  5
1EF
330
1EC
100
AcDbEntity
  8
0
100
AcDbBlockEnd
  0
BLOCK
  5
1F2
330
1F0
100
AcDbEntity
  8
0
100
AcDbBlockBegin
  2
block 77
 70
     0
 10
0.0
 20
0.0
 30
0.0
  3
block 77
  1

  0
POLYLINE
  5
1F4
330
1F0
100
AcDbEntity
  8
0
 62
     4
370
    25
100
AcDb2dPolyline
 66
     1
 10
0.0
 20
0.0
 30
0.0
  0
VERTEX
  5
1F5
330
1F4
100
AcDbEntity
  8
0
 62
     4
370
    25
100
AcDbVertex
100
AcDb2dVertex
 10
180.6434525779945
 20
39.26396048941768
 30
0.0
  0
VERTEX
  5
1F6
330
1F4
100
AcDbEntity
  8
0
 62
     4
370
    25
100
AcDbVertex
100
AcDb2dVertex
 10
180.6434525779945
 20
50.51404091313918
 30
0.0
  0
SEQEND
  5
1F7
330
1F4
100
AcDbEntity
  8
0
 62
     4
370
    25
  0
POLYLINE
  5
1F8
330
1F0
100
AcDbEntity
  8
0
  6
AI-Linetype-31
 62
     4
370
    25
100
AcDb2dPolyline
 66
     1
 10
0.0
 20
0.0
 30
0.0
  0
VERTEX
  5
1F9
330
1F8
100
AcDbEntity
  8
0
  6
AI-Linetype-31
 62
     4
370
    25
100
AcDbVertex
100
AcDb2dVertex
 10
180.6434525779945
 20
54.5197287953029
 30
0.0
  0
VERTEX
  5
1FA
330
1F8
100
AcDbEntity
  8
0
  6
AI-Linetype-31
 62
     4
370
    25
100
AcDbVertex
100
AcDb2dVertex
 10
180.6434525779945
 20
60.52826600151019
 30
0.0
  0
SEQEND
  5
1FC
330
1F8
100
AcDbEntity
  8
0
  6
AI-Linetype-31
 62
     4
370
    25
  0
POLYLINE
  5
1FD
330
1F0
100
AcDbEntity
  8
0
  6
AI-Linetype-32
 62
     4
370
    25
100
AcDb2dPolyline
 66
     1
 10
0.0
 20
0.0
 30
0.0
  0
VERTEX
  5
1FE
330
1FD
100
AcDbEntity
  8
0
  6
AI-Linetype-32
 62
     4
370
    25
100
AcDbVertex
100
AcDb2dVertex
 10
180.6434525779945
 20
62.53110994259205
 30
0.0
  0
VERTEX
  5
1FF
330
1FD
100
AcDbEntity
  8
0
  6
AI-Linetype-32
 62
     4
370
    25
100
AcDbVertex
100
AcDb2dVertex
 10
180.6434525779945
 20
240.7851304194044
 30
0.0
  0
SEQEND
  5
201
330
1FD
100
AcDbEntity
  8
0
  6
AI-Linetype-32
 62
     4
370
    25
  0
POLYLINE
  5
202
330
1F0
100
AcDbEntity
  8
0
 62
     4
370
    25
100
AcDb2dPolyline
 66
     1
 10
0.0
 20
0.0
 30
0.0
  0
VERTEX
  5
203
330
202
100
AcDbEntity
  8
0
 62
     4
370
    25
100
AcDbVertex
100
AcDb2dVertex
 10
180.6434525779945
 20
242.787979743448
 30
0.0
  0
VERTEX
  5
204
330
202
100
AcDbEntity
  8
0
 62
     4
370
    25
100
AcDbVertex
100
AcDb2dVertex
 10
180.6434525779945
 20
254.038068241612
 30
0.0
  0
SEQEND
  5
205
330
202
100
AcDbEntity
  8
0
 62
     4
370
    25
  0
ENDBLK
  5
1F3
330
1F0
100
AcDbEntity
  8
0
100
AcDbBlockEnd
  0
BLOCK
  5
208
330
206
100
AcDbEntity
  8
0
100
AcDbBlockBegin
  2
block 78
 70
     0
 10
0.0
 20
0.0
 30
0.0
  3
block 78
  1

  0
SPLINE
  5
20A
330
206
100
AcDbEntity
  8
0
  6
AI-Linetype-33
 62
     6
370
    25
100
AcDbSpline
210
0.0
220
0.0
230
1.0
 70
    11
 71
     3
 72
    23
 73
    19
 74
     0
 42
0.0000000001
 43
0.0000000001
 12
1.0
 22
0.0
 32
0.0
 13
1.0
 23
0.0
 33
0.0
 40
0.0
 40
0.0
 40
0.0
 40
0.0
 40
1.0
 40
1.0
 40
1.0
 40
2.0
 40
2.0
 40
2.0
 40
3.0
 40
3.0
 40
3.0
 40
4.0
 40
4.0
 40
4.0
 40
5.0
 40
5.0
 40
5.0
 40
6.0
 40
6.0
 40
6.0
 40
6.0
 10
44.7021132503061
 20
161.3926044044795
 30
0.0
 10
50.22496595026271
 20
161.3926044042292
 30
0.0
 10
54.70138340200526
 20
165.8690218555739
 30
0.0
 10
54.70138340225552
 20
171.3927358191093
 30
0.0
 10
54.70138340249937
 20
176.9147272554868
 30
0.0
 10
50.2249659511611
 20
181.392436602598
 30
0.0
 10
44.70211325120447
 20
181.3924366028483
 30
0.0
 10
44.70211325120447
 20
181.3924366028483
 30
0.0
 10
34.70198183612546
 20
181.3924366032975
 30
0.0
 10
34.70198183612546
 20
181.3924366032975
 30
0.0
 10
29.17955976795871
 20
181.3924366035413
 30
0.0
 10
24.70185042084078
 20
176.9147272568344
 30
0.0
 10
24.70185042059726
 20
171.3927358204569
 30
0.0
 10
24.701850420347
 20
165.8690218569212
 30
0.0
 10
29.17955976706034
 20
161.3926044051725
 30
0.0
 10
34.70198183522708
 20
161.3926044049287
 30
0.0
 10
40.22440390339415
 20
161.3926044046784
 30
0.0
 10
39.17969118213903
 20
161.3926044047233
 30
0.0
 10
44.7021132503061
 20
161.3926044044795
 30
0.0
  0
ENDBLK
  5
209
330
206
100
AcDbEntity
  8
0
100
AcDbBlockEnd
  0
BLOCK
  5
20E
330
20C
100
AcDbEntity
  8
0
100
AcDbBlockBegin
  2
block 79
 70
     0
 10
0.0
 20
0.0
 30
0.0
  3
block 79
  1

  0
INSERT
  5
211
330
20C
100
AcDbEntity
  8
0
100
AcDbBlockReference
  2
block 80
 10
0.0
 20
0.0
 30
0.0
  0
ENDBLK
  5
20F
330
20C
100
AcDbEntity
  8
0
100
AcDbBlockEnd
  0
BLOCK
  5
212
330
210
100
AcDbEntity
  8
0
100
AcDbBlockBegin
  2
block 80
 70
     0
 10
0.0
 20
0.0
 30
0.0
  3
block 80
  1

  0
INSERT
  5
215
330
210
100
AcDbEntity
  8
0
100
AcDbBlockReference
  2
block 81
 10
0.0
 20
0.0
 30
0.0
  0
ENDBLK
  5
213
330
210
100
AcDbEntity
  8
0
100
AcDbBlockEnd
  0
BLOCK
  5
216
330
214
100
AcDbEntity
  8
0
100
AcDbBlockBegin
  2
block 81
 70
     0
 10
0.0
 20
0.0
 30
0.0
  3
block 81
  1

  0
POLYLINE
  5
218
330
214
100
AcDbEntity
  8
0
 62
     4
370
    25
100
AcDb2dPolyline
 66
     1
 10
0.0
 20
0.0
 30
0.0
  0
VERTEX
  5
219
330
218
100
AcDbEntity
  8
0
 62
     4
370
    25
100
AcDbVertex
100
AcDb2dVertex
 10
350.2748727558558
 20
171.3927360106186
 30
0.0
  0
VERTEX
  5
21A
330
218
100
AcDbEntity
  8
0
 62
     4
370
    25
100
AcDbVertex
100
AcDb2dVertex
 10
339.0247842576917
 20
171.3927360106186
 30
0.0
  0
SEQEND
  5
21B
330
218
100
AcDbEntity
  8
0
 62
     4
370
    25
  0
POLYLINE
  5
21C
330
214
100
AcDbEntity
  8
0
  6
AI-Linetype-34
 62
     4
370
    25
100
AcDb2dPolyline
 66
     1
 10
0.0
 20
0.0
 30
0.0
  0
VERTEX
  5
21D
330
21C
100
AcDbEntity
  8
0
  6
AI-Linetype-34
 62
     4
370
    25
100
AcDbVertex
100
AcDb2dVertex
 10
335.8998888659491
 20
171.3927360106186
 30
0.0
  0
VERTEX
  5
21E
330
21C
100
AcDbEntity
  8
0
  6
AI-Linetype-34
 62
     4
370
    25
100
AcDbVertex
100
AcDb2dVertex
 10
331.2125565442585
 20
171.3927360106186
 30
0.0
  0
SEQEND
  5
220
330
21C
100
AcDbEntity
  8
0
  6
AI-Linetype-34
 62
     4
370
    25
  0
POLYLINE
  5
221
330
214
100
AcDbEntity
  8
0
  6
AI-Linetype-35
 62
     4
370
    25
100
AcDb2dPolyline
 66
     1
 10
0.0
 20
0.0
 30
0.0
  0
VERTEX
  5
222
330
221
100
AcDbEntity
  8
0
  6
AI-Linetype-35
 62
     4
370
    25
100
AcDbVertex
100
AcDb2dVertex
 10
329.6500980824638
 20
171.3927360106186
 30
0.0
  0
VERTEX
  5
223
330
221
100
AcDbEntity
  8
0
  6
AI-Linetype-35
 62
     4
370
    25
100
AcDbVertex
100
AcDb2dVertex
 10
303.0883472956472
 20
171.3927360106186
 30
0.0
  0
SEQEND
  5
225
330
221
100
AcDbEntity
  8
0
  6
AI-Linetype-35
 62
     4
370
    25
  0
POLYLINE
  5
226
330
214
100
AcDbEntity
  8
0
 62
     4
370
    25
100
AcDb2dPolyline
 66
     1
 10
0.0
 20
0.0
 30
0.0
  0
VERTEX
  5
227
330
226
100
AcDbEntity
  8
0
 62
     4
370
    25
100
AcDbVertex
100
AcDb2dVertex
 10
301.5258888338525
 20
171.3927360106186
 30
0.0
  0
VERTEX
  5
228
330
226
100
AcDbEntity
  8
0
 62
     4
370
    25
100
AcDbVertex
100
AcDb2dVertex
 10
290.2758003356884
 20
171.3927360106186
 30
0.0
  0
SEQEND
  5
229
330
226
100
AcDbEntity
  8
0
 62
     4
370
    25
  0
ENDBLK
  5
217
330
214
100
AcDbEntity
  8
0
100
AcDbBlockEnd
  0
BLOCK
  5
22C
330
22A
100
AcDbEntity
  8
0
100
AcDbBlockBegin
  2
block 82
 70
     0
 10
0.0
 20
0.0
 30
0.0
  3
block 82
  1

  0
INSERT
  5
22F
330
22A
100
AcDbEntity
  8
0
100
AcDbBlockReference
  2
block 83
 10
0.0
 20
0.0
 30
0.0
  0
ENDBLK
  5
22D
330
22A
100
AcDbEntity
  8
0
100
AcDbBlockEnd
  0
BLOCK
  5
230
330
22E
100
AcDbEntity
  8
0
100
AcDbBlockBegin
  2
block 83
 70
     0
 10
0.0
 20
0.0
 30
0.0
  3
block 83
  1

  0
INSERT
  5
233
330
22E
100
AcDbEntity
  8
0
100
AcDbBlockReference
  2
block 84
 10
0.0
 20
0.0
 30
0.0
  0
ENDBLK
  5
231
330
22E
100
AcDbEntity
  8
0
100
AcDbBlockEnd
  0
BLOCK
  5
234
330
232
100
AcDbEntity
  8
0
100
AcDbBlockBegin
  2
block 84
 70
     0
 10
0.0
 20
0.0
 30
0.0
  3
block 84
  1

  0
POLYLINE
  5
236
330
232
100
AcDbEntity
  8
0
 62
     4
370
    25
100
AcDb2dPolyline
 66
     1
 10
0.0
 20
0.0
 30
0.0
  0
VERTEX
  5
237
330
236
100
AcDbEntity
  8
0
 62
     4
370
    25
100
AcDbVertex
100
AcDb2dVertex
 10
320.2753473116955
 20
141.3927691635993
 30
0.0
  0
VERTEX
  5
238
330
236
100
AcDbEntity
  8
0
 62
     4
370
    25
100
AcDbVertex
100
AcDb2dVertex
 10
320.2753473116955
 20
152.6428576617633
 30
0.0
  0
SEQEND
  5
239
330
236
100
AcDbEntity
  8
0
 62
     4
370
    25
  0
POLYLINE
  5
23A
330
232
100
AcDbEntity
  8
0
  6
AI-Linetype-36
 62
     4
370
    25
100
AcDb2dPolyline
 66
     1
 10
0.0
 20
0.0
 30
0.0
  0
VERTEX
  5
23B
330
23A
100
AcDbEntity
  8
0
  6
AI-Linetype-36
 62
     4
370
    25
100
AcDbVertex
100
AcDb2dVertex
 10
320.2753473116955
 20
155.7677853512762
 30
0.0
  0
VERTEX
  5
23C
330
23A
100
AcDbEntity
  8
0
  6
AI-Linetype-36
 62
     4
370
    25
100
AcDbVertex
100
AcDb2dVertex
 10
320.2753473116955
 20
160.4551822685071
 30
0.0
  0
SEQEND
  5
23E
330
23A
100
AcDbEntity
  8
0
  6
AI-Linetype-36
 62
     4
370
    25
  0
POLYLINE
  5
23F
330
232
100
AcDbEntity
  8
0
  6
AI-Linetype-37
 62
     4
370
    25
100
AcDb2dPolyline
 66
     1
 10
0.0
 20
0.0
 30
0.0
  0
VERTEX
  5
240
330
23F
100
AcDbEntity
  8
0
  6
AI-Linetype-37
 62
     4
370
    25
100
AcDbVertex
100
AcDb2dVertex
 10
320.2753473116955
 20
162.0176514962252
 30
0.0
  0
VERTEX
  5
241
330
23F
100
AcDbEntity
  8
0
  6
AI-Linetype-37
 62
     4
370
    25
100
AcDbVertex
100
AcDb2dVertex
 10
320.2753473116955
 20
188.5797252607435
 30
0.0
  0
SEQEND
  5
243
330
23F
100
AcDbEntity
  8
0
  6
AI-Linetype-37
 62
     4
370
    25
  0
POLYLINE
  5
244
330
232
100
AcDbEntity
  8
0
 62
     4
370
    25
100
AcDb2dPolyline
 66
     1
 10
0.0
 20
0.0
 30
0.0
  0
VERTEX
  5
245
330
244
100
AcDbEntity
  8
0
 62
     4
370
    25
100
AcDbVertex
100
AcDb2dVertex
 10
320.2753473116955
 20
190.1421837225382
 30
0.0
  0
VERTEX
  5
246
330
244
100
AcDbEntity
  8
0
 62
     4
370
    25
100
AcDbVertex
100
AcDb2dVertex
 10
320.2753473116955
 20
201.3922722207023
 30
0.0
  0
SEQEND
  5
247
330
244
100
AcDbEntity
  8
0
 62
     4
370
    25
  0
ENDBLK
  5
235
330
232
100
AcDbEntity
  8
0
100
AcDbBlockEnd
  0
BLOCK
  5
24A
330
248
100
AcDbEntity
  8
0
100
AcDbBlockBegin
  2
block 85
 70
     0
 10
0.0
 20
0.0
 30
0.0
  3
block 85
  1

  0
SPLINE
  5
24C
330
248
100
AcDbEntity
  8
0
  6
AI-Linetype-38
 62
     6
370
    25
100
AcDbSpline
210
0.0
220
0.0
230
1.0
 70
    11
 71
     3
 72
    23
 73
    19
 74
     0
 42
0.0000000001
 43
0.0000000001
 12
1.0
 22
0.0
 32
0.0
 13
1.0
 23
0.0
 33
0.0
 40
0.0
 40
0.0
 40
0.0
 40
0.0
 40
1.0
 40
1.0
 40
1.0
 40
2.0
 40
2.0
 40
2.0
 40
3.0
 40
3.0
 40
3.0
 40
4.0
 40
4.0
 40
4.0
 40
5.0
 40
5.0
 40
5.0
 40
6.0
 40
6.0
 40
6.0
 40
6.0
 10
325.2758361155781
 20
161.3926043918765
 30
0.0
 10
330.7978275519562
 20
161.3926043916327
 30
0.0
 10
335.2755368990732
 20
165.8690218429713
 30
0.0
 10
335.275536899317
 20
171.3927358065064
 30
0.0
 10
335.2755368995667
 20
176.9147272428839
 30
0.0
 10
330.7978275528546
 20
181.3924365900015
 30
0.0
 10
325.2758361164758
 20
181.3924365902453
 30
0.0
 10
325.2758361164758
 20
181.3924365902453
 30
0.0
 10
315.2757047013974
 20
181.3924365906945
 30
0.0
 10
315.2757047013974
 20
181.3924365906945
 30
0.0
 10
309.7524213696516
 20
181.3924365909448
 30
0.0
 10
305.2760039179094
 20
176.9147272442314
 30
0.0
 10
305.2760039176591
 20
171.3927358078539
 30
0.0
 10
305.2760039174153
 20
165.8690218443188
 30
0.0
 10
309.7524213687526
 20
161.392604392576
 30
0.0
 10
315.2757047004991
 20
161.3926043923257
 30
0.0
 10
320.7981267686658
 20
161.3926043920819
 30
0.0
 10
319.7525527838316
 20
161.3926043921268
 30
0.0
 10
325.2758361155781
 20
161.3926043918765
 30
0.0
  0
ENDBLK
  5
24B
330
248
100
AcDbEntity
  8
0
100
AcDbBlockEnd
  0
ENDSEC
  0
SECTION
  2
ENTITIES
  0
INSERT
  5
41
330
1F
100
AcDbEntity
  8
0
100
AcDbBlockReference
  2
block 2
 10
0.0
 20
0.0
 30
0.0
  0
INSERT
  5
46
330
1F
100
AcDbEntity
  8
0
100
AcDbBlockReference
  2
block 3
 10
0.0
 20
0.0
 30
0.0
  0
INSERT
  5
4C
330
1F
100
AcDbEntity
  8
0
100
AcDbBlockReference
  2
block 4
 10
0.0
 20
0.0
 30
0.0
  0
INSERT
  5
51
330
1F
100
AcDbEntity
  8
0
100
AcDbBlockReference
  2
block 5
 10
0.0
 20
0.0
 30
0.0
  0
INSERT
  5
57
330
1F
100
AcDbEntity
  8
0
100
AcDbBlockReference
  2
block 6
 10
0.0
 20
0.0
 30
0.0
  0
INSERT
  5
5C
330
1F
100
AcDbEntity
  8
0
100
AcDbBlockReference
  2
block 7
 10
0.0
 20
0.0
 30
0.0
  0
INSERT
  5
61
330
1F
100
AcDbEntity
  8
0
100
AcDbBlockReference
  2
block 8
 10
0.0
 20
0.0
 30
0.0
  0
INSERT
  5
67
330
1F
100
AcDbEntity
  8
0
100
AcDbBlockReference
  2
block 9
 10
0.0
 20
0.0
 30
0.0
  0
INSERT
  5
77
330
1F
100
AcDbEntity
  8
0
100
AcDbBlockReference
  2
block 12
 10
0.0
 20
0.0
 30
0.0
  0
INSERT
  5
87
330
1F
100
AcDbEntity
  8
0
100
AcDbBlockReference
  2
block 15
 10
0.0
 20
0.0
 30
0.0
  0
INSERT
  5
8D
330
1F
100
AcDbEntity
  8
0
100
AcDbBlockReference
  2
block 16
 10
0.0
 20
0.0
 30
0.0
  0
INSERT
  5
92
330
1F
100
AcDbEntity
  8
0
100
AcDbBlockReference
  2
block 17
 10
0.0
 20
0.0
 30
0.0
  0
INSERT
  5
98
330
1F
100
AcDbEntity
  8
0
100
AcDbBlockReference
  2
block 18
 10
0.0
 20
0.0
 30
0.0
  0
INSERT
  5
9E
330
1F
100
AcDbEntity
  8
0
100
AcDbBlockReference
  2
block 19
 10
0.0
 20
0.0
 30
0.0
  0
INSERT
  5
A3
330
1F
100
AcDbEntity
  8
0
100
AcDbBlockReference
  2
block 20
 10
0.0
 20
0.0
 30
0.0
  0
INSERT
  5
A8
330
1F
100
AcDbEntity
  8
0
100
AcDbBlockReference
  2
block 21
 10
0.0
 20
0.0
 30
0.0
  0
INSERT
  5
AE
330
1F
100
AcDbEntity
  8
0
100
AcDbBlockReference
  2
block 22
 10
0.0
 20
0.0
 30
0.0
  0
INSERT
  5
B4
330
1F
100
AcDbEntity
  8
0
100
AcDbBlockReference
  2
block 23
 10
0.0
 20
0.0
 30
0.0
  0
INSERT
  5
BA
330
1F
100
AcDbEntity
  8
0
100
AcDbBlockReference
  2
block 24
 10
0.0
 20
0.0
 30
0.0
  0
INSERT
  5
C0
330
1F
100
AcDbEntity
  8
0
100
AcDbBlockReference
  2
block 25
 10
0.0
 20
0.0
 30
0.0
  0
INSERT
  5
C5
330
1F
100
AcDbEntity
  8
0
100
AcDbBlockReference
  2
block 26
 10
0.0
 20
0.0
 30
0.0
  0
INSERT
  5
CA
330
1F
100
AcDbEntity
  8
0
100
AcDbBlockReference
  2
block 27
 10
0.0
 20
0.0
 30
0.0
  0
INSERT
  5
D0
330
1F
100
AcDbEntity
  8
0
100
AcDbBlockReference
  2
block 28
 10
0.0
 20
0.0
 30
0.0
  0
INSERT
  5
D6
330
1F
100
AcDbEntity
  8
0
100
AcDbBlockReference
  2
block 29
 10
0.0
 20
0.0
 30
0.0
  0
INSERT
  5
DB
330
1F
100
AcDbEntity
  8
0
100
AcDbBlockReference
  2
block 30
 10
0.0
 20
0.0
 30
0.0
  0
INSERT
  5
E0
330
1F
100
AcDbEntity
  8
0
100
AcDbBlockReference
  2
block 31
 10
0.0
 20
0.0
 30
0.0
  0
INSERT
  5
E5
330
1F
100
AcDbEntity
  8
0
100
AcDbBlockReference
  2
block 32
 10
0.0
 20
0.0
 30
0.0
  0
INSERT
  5
EA
330
1F
100
AcDbEntity
  8
0
100
AcDbBlockReference
  2
block 33
 10
0.0
 20
0.0
 30
0.0
  0
INSERT
  5
EF
330
1F
100
AcDbEntity
  8
0
100
AcDbBlockReference
  2
block 34
 10
0.0
 20
0.0
 30
0.0
  0
INSERT
  5
F4
330
1F
100
AcDbEntity
  8
0
100
AcDbBlockReference
  2
block 35
 10
0.0
 20
0.0
 30
0.0
  0
INSERT
  5
F9
330
1F
100
AcDbEntity
  8
0
100
AcDbBlockReference
  2
block 36
 10
0.0
 20
0.0
 30
0.0
  0
INSERT
  5
FF
330
1F
100
AcDbEntity
  8
0
100
AcDbBlockReference
  2
block 37
 10
0.0
 20
0.0
 30
0.0
  0
INSERT
  5
105
330
1F
100
AcDbEntity
  8
0
100
AcDbBlockReference
  2
block 38
 10
0.0
 20
0.0
 30
0.0
  0
INSERT
  5
10A
330
1F
100
AcDbEntity
  8
0
100
AcDbBlockReference
  2
block 39
 10
0.0
 20
0.0
 30
0.0
  0
INSERT
  5
112
330
1F
100
AcDbEntity
  8
0
100
AcDbBlockReference
  2
block 40
 10
0.0
 20
0.0
 30
0.0
  0
INSERT
  5
118
330
1F
100
AcDbEntity
  8
0
100
AcDbBlockReference
  2
block 41
 10
0.0
 20
0.0
 30
0.0
  0
INSERT
  5
11D
330
1F
100
AcDbEntity
  8
0
100
AcDbBlockReference
  2
block 42
 10
0.0
 20
0.0
 30
0.0
  0
INSERT
  5
123
330
1F
100
AcDbEntity
  8
0
100
AcDbBlockReference
  2
block 43
 10
0.0
 20
0.0
 30
0.0
  0
INSERT
  5
128
330
1F
100
AcDbEntity
  8
0
100
AcDbBlockReference
  2
block 44
 10
0.0
 20
0.0
 30
0.0
  0
INSERT
  5
12D
330
1F
100
AcDbEntity
  8
0
100
AcDbBlockReference
  2
block 45
 10
0.0
 20
0.0
 30
0.0
  0
INSERT
  5
132
330
1F
100
AcDbEntity
  8
0
100
AcDbBlockReference
  2
block 46
 10
0.0
 20
0.0
 30
0.0
  0
INSERT
  5
137
330
1F
100
AcDbEntity
  8
0
100
AcDbBlockReference
  2
block 47
 10
0.0
 20
0.0
 30
0.0
  0
INSERT
  5
13C
330
1F
100
AcDbEntity
  8
0
100
AcDbBlockReference
  2
block 48
 10
0.0
 20
0.0
 30
0.0
  0
INSERT
  5
142
330
1F
100
AcDbEntity
  8
0
100
AcDbBlockReference
  2
block 49
 10
0.0
 20
0.0
 30
0.0
  0
INSERT
  5
147
330
1F
100
AcDbEntity
  8
0
100
AcDbBlockReference
  2
block 50
 10
0.0
 20
0.0
 30
0.0
  0
INSERT
  5
14D
330
1F
100
AcDbEntity
  8
0
100
AcDbBlockReference
  2
block 51
 10
0.0
 20
0.0
 30
0.0
  0
INSERT
  5
152
330
1F
100
AcDbEntity
  8
0
100
AcDbBlockReference
  2
block 52
 10
0.0
 20
0.0
 30
0.0
  0
INSERT
  5
157
330
1F
100
AcDbEntity
  8
0
100
AcDbBlockReference
  2
block 53
 10
0.0
 20
0.0
 30
0.0
  0
INSERT
  5
15C
330
1F
100
AcDbEntity
  8
0
100
AcDbBlockReference
  2
block 54
 10
0.0
 20
0.0
 30
0.0
  0
INSERT
  5
161
330
1F
100
AcDbEntity
  8
0
100
AcDbBlockReference
  2
block 55
 10
0.0
 20
0.0
 30
0.0
  0
INSERT
  5
166
330
1F
100
AcDbEntity
  8
0
100
AcDbBlockReference
  2
block 56
 10
0.0
 20
0.0
 30
0.0
  0
INSERT
  5
16C
330
1F
100
AcDbEntity
  8
0
100
AcDbBlockReference
  2
block 57
 10
0.0
 20
0.0
 30
0.0
  0
INSERT
  5
171
330
1F
100
AcDbEntity
  8
0
100
AcDbBlockReference
  2
block 58
 10
0.0
 20
0.0
 30
0.0
  0
INSERT
  5
176
330
1F
100
AcDbEntity
  8
0
100
AcDbBlockReference
  2
block 59
 10
0.0
 20
0.0
 30
0.0
  0
INSERT
  5
17B
330
1F
100
AcDbEntity
  8
0
100
AcDbBlockReference
  2
block 60
 10
0.0
 20
0.0
 30
0.0
  0
INSERT
  5
181
330
1F
100
AcDbEntity
  8
0
100
AcDbBlockReference
  2
block 61
 10
0.0
 20
0.0
 30
0.0
  0
INSERT
  5
186
330
1F
100
AcDbEntity
  8
0
100
AcDbBlockReference
  2
block 62
 10
0.0
 20
0.0
 30
0.0
  0
INSERT
  5
18B
330
1F
100
AcDbEntity
  8
0
100
AcDbBlockReference
  2
block 63
 10
0.0
 20
0.0
 30
0.0
  0
INSERT
  5
191
330
1F
100
AcDbEntity
  8
0
100
AcDbBlockReference
  2
block 64
 10
0.0
 20
0.0
 30
0.0
  0
INSERT
  5
197
330
1F
100
AcDbEntity
  8
0
100
AcDbBlockReference
  2
block 65
 10
0.0
 20
0.0
 30
0.0
  0
INSERT
  5
19D
330
1F
100
AcDbEntity
  8
0
100
AcDbBlockReference
  2
block 66
 10
0.0
 20
0.0
 30
0.0
  0
INSERT
  5
1A3
330
1F
100
AcDbEntity
  8
0
100
AcDbBlockReference
  2
block 67
 10
0.0
 20
0.0
 30
0.0
  0
INSERT
  5
1A8
330
1F
100
AcDbEntity
  8
0
100
AcDbBlockReference
  2
block 68
 10
0.0
 20
0.0
 30
0.0
  0
INSERT
  5
1AD
330
1F
100
AcDbEntity
  8
0
100
AcDbBlockReference
  2
block 69
 10
0.0
 20
0.0
 30
0.0
  0
INSERT
  5
1CB
330
1F
100
AcDbEntity
  8
0
100
AcDbBlockReference
  2
block 72
 10
0.0
 20
0.0
 30
0.0
  0
INSERT
  5
1E9
330
1F
100
AcDbEntity
  8
0
100
AcDbBlockReference
  2
block 75
 10
0.0
 20
0.0
 30
0.0
  0
INSERT
  5
207
330
1F
100
AcDbEntity
  8
0
100
AcDbBlockReference
  2
block 78
 10
0.0
 20
0.0
 30
0.0
  0
INSERT
  5
20D
330
1F
100
AcDbEntity
  8
0
100
AcDbBlockReference
  2
block 79
 10
0.0
 20
0.0
 30
0.0
  0
INSERT
  5
22B
330
1F
100
AcDbEntity
  8
0
100
AcDbBlockReference
  2
block 82
 10
0.0
 20
0.0
 30
0.0
  0
INSERT
  5
249
330
1F
100
AcDbEntity
  8
0
100
AcDbBlockReference
  2
block 85
 10
0.0
 20
0.0
 30
0.0
  0
ENDSEC
  0
SECTION
  2
OBJECTS
  0
DICTIONARY
  5
C
330
0
100
AcDbDictionary
281
     1
  3
ACAD_GROUP
350
D
  3
ACAD_LAYOUT
350
1A
  3
ACAD_MATERIAL
350
3B
  3
ACAD_MLEADERSTYLE
350
26F
  3
ACAD_MLINESTYLE
350
17
  3
ACAD_PLOTSETTINGS
350
19
  3
ACAD_PLOTSTYLENAME
350
E
  3
ACAD_TABLESTYLE
350
26E
  3
ACAD_VISUALSTYLE
350
2A
  0
SUN
  5
3F
330
29
100
AcDbSun
 90
        1
290
     0
 63
     7
421
 16777215
 40
1.0
291
     1
 91
  2455826
 92
 54000000
292
     0
 70
     2
 71
   256
280
     1
  0
DICTIONARY
  5
D
102
{ACAD_REACTORS
330
C
102
}
330
C
100
AcDbDictionary
281
     1
  0
DICTIONARY
  5
1A
102
{ACAD_REACTORS
330
C
102
}
330
C
100
AcDbDictionary
281
     1
  3
Layout1
350
1E
  3
Layout2
350
26
  3
Model
350
22
  0
DICTIONARY
  5
3B
102
{ACAD_REACTORS
330
C
102
}
330
C
100
AcDbDictionary
281
     1
  3
ByBlock
350
3D
  3
ByLayer
350
3C
  3
Global
350
3E
  0
DICTIONARY
  5
26F
102
{ACAD_REACTORS
330
C
102
}
330
C
100
AcDbDictionary
281
     1
  0
DICTIONARY
  5
17
102
{ACAD_REACTORS
330
C
102
}
330
C
100
AcDbDictionary
281
     1
  3
Standard
350
18
  0
DICTIONARY
  5
19
102
{ACAD_REACTORS
330
C
102
}
330
C
100
AcDbDictionary
281
     1
  0
ACDBDICTIONARYWDFLT
  5
E
102
{ACAD_REACTORS
330
C
102
}
330
C
100
AcDbDictionary
281
     1
  3
Normal
350
F
100
AcDbDictionaryWithDefault
340
F
  0
DICTIONARY
  5
26E
102
{ACAD_REACTORS
330
C
102
}
330
C
100
AcDbDictionary
281
     1
  0
DICTIONARY
  5
2A
102
{ACAD_REACTORS
330
C
102
}
330
C
100
AcDbDictionary
281
     1
  3
2dWireframe
350
2F
  3
3D Hidden
350
31
  3
3dWireframe
350
30
  3
Basic
350
32
  3
Brighten
350
36
  3
ColorChange
350
3A
  3
Conceptual
350
34
  3
Dim
350
35
  3
Facepattern
350
39
  3
Flat
350
2B
  3
FlatWithEdges
350
2C
  3
Gouraud
350
2D
  3
GouraudWithEdges
350
2E
  3
Linepattern
350
38
  3
Realistic
350
33
  3
Thicken
350
37
  0
LAYOUT
  5
1E
102
{ACAD_REACTORS
330
1A
102
}
330
1A
100
AcDbPlotSettings
  1

  2
none_device
  4

  6

 40
0.0
 41
0.0
 42
0.0
 43
0.0
 44
0.0
 45
0.0
 46
0.0
 47
0.0
 48
0.0
 49
0.0
140
0.0
141
0.0
142
1.0
143
1.0
 70
   688
 72
     0
 73
     0
 74
     5
  7

 75
    16
 76
     0
 77
     2
 78
   300
147
1.0
148
0.0
149
0.0
100
AcDbLayout
  1
Layout1
 70
     1
 71
     1
 10
0.0
 20
0.0
 11
12.0
 21
9.0
 12
0.0
 22
0.0
 32
0.0
 14
1.000000000000000E+20
 24
1.000000000000000E+20
 34
1.000000000000000E+20
 15
-1.000000000000000E+20
 25
-1.000000000000000E+20
 35
-1.000000000000000E+20
146
0.0
 13
0.0
 23
0.0
 33
0.0
 16
1.0
 26
0.0
 36
0.0
 17
0.0
 27
1.0
 37
0.0
 76
     0
330
1B
  0
LAYOUT
  5
26
102
{ACAD_REACTORS
330
1A
102
}
330
1A
100
AcDbPlotSettings
  1

  2
none_device
  4

  6

 40
0.0
 41
0.0
 42
0.0
 43
0.0
 44
0.0
 45
0.0
 46
0.0
 47
0.0
 48
0.0
 49
0.0
140
0.0
141
0.0
142
1.0
143
1.0
 70
   688
 72
     0
 73
     0
 74
     5
  7

 75
    16
 76
     0
 77
     2
 78
   300
147
1.0
148
0.0
149
0.0
100
AcDbLayout
  1
Layout2
 70
     1
 71
     2
 10
0.0
 20
0.0
 11
0.0
 21
0.0
 12
0.0
 22
0.0
 32
0.0
 14
0.0
 24
0.0
 34
0.0
 15
0.0
 25
0.0
 35
0.0
146
0.0
 13
0.0
 23
0.0
 33
0.0
 16
1.0
 26
0.0
 36
0.0
 17
0.0
 27
1.0
 37
0.0
 76
     0
330
23
  0
LAYOUT
  5
22
102
{ACAD_REACTORS
330
1A
102
}
330
1A
100
AcDbPlotSettings
  1

  2
none_device
  4

  6

 40
0.0
 41
0.0
 42
0.0
 43
0.0
 44
0.0
 45
0.0
 46
0.0
 47
0.0
 48
0.0
 49
0.0
140
0.0
141
0.0
142
1.0
143
1.0
 70
  1712
 72
     0
 73
     0
 74
     0
  7

 75
     0
 76
     0
 77
     2
 78
   300
147
1.0
148
0.0
149
0.0
100
AcDbLayout
  1
Model
 70
     1
 71
     0
 10
0.0
 20
0.0
 11
12.0
 21
9.0
 12
0.0
 22
0.0
 32
0.0
 14
1.000000000000000E+20
 24
1.000000000000000E+20
 34
1.000000000000000E+20
 15
-1.000000000000000E+20
 25
-1.000000000000000E+20
 35
-1.000000000000000E+20
146
0.0
 13
0.0
 23
0.0
 33
0.0
 16
1.0
 26
0.0
 36
0.0
 17
0.0
 27
1.0
 37
0.0
 76
     0
330
1F
331
29
  0
MATERIAL
  5
3D
102
{ACAD_REACTORS
330
3B
102
}
330
3B
100
AcDbMaterial
  1
ByBlock
 72
     1
 94
      127
  0
MATERIAL
  5
3C
102
{ACAD_REACTORS
330
3B
102
}
330
3B
100
AcDbMaterial
  1
ByLayer
 72
     1
 94
      127
  0
MATERIAL
  5
3E
102
{ACAD_REACTORS
330
3B
102
}
330
3B
100
AcDbMaterial
  1
Global
 72
     1
 94
      127
  0
MLINESTYLE
  5
18
102
{ACAD_REACTORS
330
17
102
}
330
17
100
AcDbMlineStyle
  2
Standard
 70
     0
  3

 62
   256
 51
90.0
 52
90.0
 71
     2
 49
0.5
 62
   256
  6
BYLAYER
 49
-0.5
 62
   256
  6
BYLAYER
  0
ACDBPLACEHOLDER
  5
F
102
{ACAD_REACTORS
330
E
102
}
330
E
  0
VISUALSTYLE
  5
2F
102
{ACAD_REACTORS
330
2A
102
}
102
{ACAD_XDICTIONARY
360
256
102
}
330
2A
100
AcDbVisualStyle
  2
2dWireframe
 70
     4
 71
     0
 72
     2
 73
     0
 90
        0
 40
-0.6
 41
-30.0
 62
     5
 63
     7
421
 16777215
 74
     1
 91
        4
 64
     7
 65
   257
 75
     1
175
     1
 42
1.0
 92
        0
 66
   257
 43
1.0
 76
     1
 77
     6
 78
     2
 67
     7
 79
     5
170
     0
171
     0
290
     0
174
     0
 93
        1
 44
0.0
173
     0
291
     0
 45
0.0
  0
VISUALSTYLE
  5
31
102
{ACAD_REACTORS
330
2A
102
}
102
{ACAD_XDICTIONARY
360
25A
102
}
330
2A
100
AcDbVisualStyle
  2
3D Hidden
 70
     6
 71
     1
 72
     2
 73
     2
 90
        0
 40
-0.6
 41
-30.0
 62
     5
 63
     7
421
 16777215
 74
     2
 91
        2
 64
     7
 65
   257
 75
     2
175
     1
 42
40.0
 92
        0
 66
   257
 43
1.0
 76
     1
 77
     6
 78
     2
 67
     7
 79
     3
170
     0
171
     0
290
     0
174
     0
 93
        1
 44
0.0
173
     0
291
     0
 45
0.0
  0
VISUALSTYLE
  5
30
102
{ACAD_REACTORS
330
2A
102
}
102
{ACAD_XDICTIONARY
360
258
102
}
330
2A
100
AcDbVisualStyle
  2
3dWireframe
 70
     5
 71
     0
 72
     2
 73
     0
 90
        0
 40
-0.6
 41
-30.0
 62
     5
 63
     7
421
 16777215
 74
     1
 91
        4
 64
     7
 65
   257
 75
     1
175
     1
 42
1.0
 92
        0
 66
   257
 43
1.0
 76
     1
 77
     6
 78
     2
 67
     7
 79
     5
170
     0
171
     0
290
     0
174
     0
 93
        1
 44
0.0
173
     0
291
     0
 45
0.0
  0
VISUALSTYLE
  5
32
102
{ACAD_REACTORS
330
2A
102
}
102
{ACAD_XDICTIONARY
360
25C
102
}
330
2A
100
AcDbVisualStyle
  2
Basic
 70
     7
 71
     1
 72
     0
 73
     1
 90
        0
 40
-0.6
 41
-30.0
 62
     5
 63
     7
421
 16777215
 74
     0
 91
        4
 64
     7
 65
   257
 75
     1
175
     1
 42
1.0
 92
        8
 66
     7
 43
1.0
 76
     1
 77
     6
 78
     2
 67
     7
 79
     5
170
     0
171
     0
290
     0
174
     0
 93
        1
 44
0.0
173
     0
291
     1
 45
0.0
  0
VISUALSTYLE
  5
36
102
{ACAD_REACTORS
330
2A
102
}
102
{ACAD_XDICTIONARY
360
264
102
}
330
2A
100
AcDbVisualStyle
  2
Brighten
 70
    12
 71
     2
 72
     2
 73
     0
 90
        0
 40
-0.6
 41
-30.0
 62
     5
 63
     7
421
 16777215
 74
     1
 91
        4
 64
     7
 65
   257
 75
     1
175
     1
 42
1.0
 92
        8
 66
     7
 43
1.0
 76
     1
 77
     6
 78
     2
 67
     7
 79
     5
170
     0
171
     0
290
     0
174
     0
 93
        1
 44
50.0
173
     0
291
     1
 45
0.0
  0
VISUALSTYLE
  5
3A
102
{ACAD_REACTORS
330
2A
102
}
102
{ACAD_XDICTIONARY
360
26C
102
}
330
2A
100
AcDbVisualStyle
  2
ColorChange
 70
    16
 71
     2
 72
     2
 73
     3
 90
        0
 40
-0.6
 41
-30.0
 62
     5
 63
     8
421
  8421504
 74
     1
 91
        4
 64
     7
 65
   257
 75
     1
175
     1
 42
1.0
 92
        8
 66
     8
424
  8421504
 43
1.0
 76
     1
 77
     6
 78
     2
 67
     7
 79
     5
170
     0
171
     0
290
     0
174
     0
 93
        1
 44
0.0
173
     0
291
     1
 45
0.0
  0
VISUALSTYLE
  5
34
102
{ACAD_REACTORS
330
2A
102
}
102
{ACAD_XDICTIONARY
360
260
102
}
330
2A
100
AcDbVisualStyle
  2
Conceptual
 70
     9
 71
     3
 72
     2
 73
     0
 90
        0
 40
-0.6
 41
-30.0
 62
     5
 63
     7
421
 16777215
 74
     2
 91
        2
 64
     7
 65
   257
 75
     1
175
     1
 42
40.0
 92
        8
 66
     7
 43
1.0
 76
     1
 77
     6
 78
     2
 67
     7
 79
     3
170
     0
171
     0
290
     0
174
     0
 93
        1
 44
0.0
173
     0
291
     0
 45
0.0
  0
VISUALSTYLE
  5
35
102
{ACAD_REACTORS
330
2A
102
}
102
{ACAD_XDICTIONARY
360
262
102
}
330
2A
100
AcDbVisualStyle
  2
Dim
 70
    11
 71
     2
 72
     2
 73
     0
 90
        0
 40
-0.6
 41
-30.0
 62
     5
 63
     7
421
 16777215
 74
     1
 91
        4
 64
     7
 65
   257
 75
     1
175
     1
 42
1.0
 92
        8
 66
     7
 43
1.0
 76
     1
 77
     6
 78
     2
 67
     7
 79
     5
170
     0
171
     0
290
     0
174
     0
 93
        1
 44
-50.0
173
     0
291
     1
 45
0.0
  0
VISUALSTYLE
  5
39
102
{ACAD_REACTORS
330
2A
102
}
102
{ACAD_XDICTIONARY
360
26A
102
}
330
2A
100
AcDbVisualStyle
  2
Facepattern
 70
    15
 71
     2
 72
     2
 73
     0
 90
        0
 40
-0.6
 41
-30.0
 62
     5
 63
     7
421
 16777215
 74
     1
 91
        4
 64
     7
 65
   257
 75
     1
175
     1
 42
1.0
 92
        8
 66
     7
 43
1.0
 76
     1
 77
     6
 78
     2
 67
     7
 79
     5
170
     0
171
     0
290
     0
174
     0
 93
        1
 44
0.0
173
     0
291
     1
 45
0.0
  0
VISUALSTYLE
  5
2B
102
{ACAD_REACTORS
330
2A
102
}
102
{ACAD_XDICTIONARY
360
24E
102
}
330
2A
100
AcDbVisualStyle
  2
Flat
 70
     0
 71
     2
 72
     1
 73
     1
 90
        2
 40
-0.6
 41
30.0
 62
     5
 63
     7
421
 16777215
 74
     0
 91
        4
 64
     7
 65
   257
 75
     1
175
     1
 42
1.0
 92
        8
 66
     7
 43
1.0
 76
     1
 77
     6
 78
     2
 67
     7
 79
     5
170
     0
171
     0
290
     0
174
     0
 93
       13
 44
0.0
173
     0
291
     1
 45
0.0
  0
VISUALSTYLE
  5
2C
102
{ACAD_REACTORS
330
2A
102
}
102
{ACAD_XDICTIONARY
360
250
102
}
330
2A
100
AcDbVisualStyle
  2
FlatWithEdges
 70
     1
 71
     2
 72
     1
 73
     1
 90
        2
 40
-0.6
 41
30.0
 62
     5
 63
     7
421
 16777215
 74
     1
 91
        4
 64
     7
 65
   257
 75
     1
175
     1
 42
1.0
 92
        0
 66
   257
 43
1.0
 76
     1
 77
     6
 78
     2
 67
     7
 79
     5
170
     0
171
     0
290
     0
174
     0
 93
       13
 44
0.0
173
     0
291
     1
 45
0.0
  0
VISUALSTYLE
  5
2D
102
{ACAD_REACTORS
330
2A
102
}
102
{ACAD_XDICTIONARY
360
252
102
}
330
2A
100
AcDbVisualStyle
  2
Gouraud
 70
     2
 71
     2
 72
     2
 73
     1
 90
        2
 40
-0.6
 41
30.0
 62
     5
 63
     7
421
 16777215
 74
     0
 91
        4
 64
     7
 65
   257
 75
     1
175
     1
 42
1.0
 92
        0
 66
     7
 43
1.0
 76
     1
 77
     6
 78
     2
 67
     7
 79
     5
170
     0
171
     0
290
     0
174
     0
 93
       13
 44
0.0
173
     0
291
     1
 45
0.0
  0
VISUALSTYLE
  5
2E
102
{ACAD_REACTORS
330
2A
102
}
102
{ACAD_XDICTIONARY
360
254
102
}
330
2A
100
AcDbVisualStyle
  2
GouraudWithEdges
 70
     3
 71
     2
 72
     2
 73
     1
 90
        2
 40
-0.6
 41
30.0
 62
     5
 63
     7
421
 16777215
 74
     1
 91
        4
 64
     7
 65
   257
 75
     1
175
     1
 42
1.0
 92
        0
 66
   257
 43
1.0
 76
     1
 77
     6
 78
     2
 67
     7
 79
     5
170
     0
171
     0
290
     0
174
     0
 93
       13
 44
0.0
173
     0
291
     1
 45
0.0
  0
VISUALSTYLE
  5
38
102
{ACAD_REACTORS
330
2A
102
}
102
{ACAD_XDICTIONARY
360
268
102
}
330
2A
100
AcDbVisualStyle
  2
Linepattern
 70
    14
 71
     2
 72
     2
 73
     0
 90
        0
 40
-0.6
 41
-30.0
 62
     5
 63
     7
421
 16777215
 74
     1
 91
        4
 64
     7
 65
   257
 75
     7
175
     7
 42
1.0
 92
        8
 66
     7
 43
1.0
 76
     1
 77
     6
 78
     2
 67
     7
 79
     5
170
     0
171
     0
290
     0
174
     0
 93
        1
 44
0.0
173
     0
291
     1
 45
0.0
  0
VISUALSTYLE
  5
33
102
{ACAD_REACTORS
330
2A
102
}
102
{ACAD_XDICTIONARY
360
25E
102
}
330
2A
100
AcDbVisualStyle
  2
Realistic
 70
     8
 71
     2
 72
     2
 73
     0
 90
        0
 40
-0.6
 41
-30.0
 62
     5
 63
     7
421
 16777215
 74
     1
 91
        0
 64
     7
 65
   257
 75
     1
175
     1
 42
1.0
 92
        8
 66
     8
424
  7895160
 43
1.0
 76
     1
 77
     6
 78
     2
 67
     7
 79
     5
170
     0
171
     0
290
     0
174
     0
 93
       13
 44
0.0
173
     0
291
     0
 45
0.0
  0
VISUALSTYLE
  5
37
102
{ACAD_REACTORS
330
2A
102
}
102
{ACAD_XDICTIONARY
360
266
102
}
330
2A
100
AcDbVisualStyle
  2
Thicken
 70
    13
 71
     2
 72
     2
 73
     0
 90
        0
 40
-0.6
 41
-30.0
 62
     5
 63
     7
421
 16777215
 74
     1
 91
        4
 64
     7
 65
   257
 75
     1
175
     1
 42
1.0
 92
       12
 66
     7
 43
1.0
 76
     1
 77
     6
 78
     2
 67
     7
 79
     5
170
     0
171
     0
290
     0
174
     0
 93
        1
 44
0.0
173
     0
291
     1
 45
0.0
  0
DICTIONARY
  5
256
330
2F
100
AcDbDictionary
280
     1
281
     1
  3
ACAD_XREC_ROUNDTRIP
360
257
  0
DICTIONARY
  5
25A
330
31
100
AcDbDictionary
280
     1
281
     1
  3
ACAD_XREC_ROUNDTRIP
360
25B
  0
DICTIONARY
  5
258
330
30
100
AcDbDictionary
280
     1
281
     1
  3
ACAD_XREC_ROUNDTRIP
360
259
  0
DICTIONARY
  5
25C
330
32
100
AcDbDictionary
280
     1
281
     1
  3
ACAD_XREC_ROUNDTRIP
360
25D
  0
DICTIONARY
  5
264
330
36
100
AcDbDictionary
280
     1
281
     1
  3
ACAD_XREC_ROUNDTRIP
360
265
  0
DICTIONARY
  5
26C
330
3A
100
AcDbDictionary
280
     1
281
     1
  3
ACAD_XREC_ROUNDTRIP
360
26D
  0
DICTIONARY
  5
260
330
34
100
AcDbDictionary
280
     1
281
     1
  3
ACAD_XREC_ROUNDTRIP
360
261
  0
DICTIONARY
  5
262
330
35
100
AcDbDictionary
280
     1
281
     1
  3
ACAD_XREC_ROUNDTRIP
360
263
  0
DICTIONARY
  5
26A
330
39
100
AcDbDictionary
280
     1
281
     1
  3
ACAD_XREC_ROUNDTRIP
360
26B
  0
DICTIONARY
  5
24E
330
2B
100
AcDbDictionary
280
     1
281
     1
  3
ACAD_XREC_ROUNDTRIP
360
24F
  0
DICTIONARY
  5
250
330
2C
100
AcDbDictionary
280
     1
281
     1
  3
ACAD_XREC_ROUNDTRIP
360
251
  0
DICTIONARY
  5
252
330
2D
100
AcDbDictionary
280
     1
281
     1
  3
ACAD_XREC_ROUNDTRIP
360
253
  0
DICTIONARY
  5
254
330
2E
100
AcDbDictionary
280
     1
281
     1
  3
ACAD_XREC_ROUNDTRIP
360
255
  0
DICTIONARY
  5
268
330
38
100
AcDbDictionary
280
     1
281
     1
  3
ACAD_XREC_ROUNDTRIP
360
269
  0
DICTIONARY
  5
25E
330
33
100
AcDbDictionary
280
     1
281
     1
  3
ACAD_XREC_ROUNDTRIP
360
25F
  0
DICTIONARY
  5
266
330
37
100
AcDbDictionary
280
     1
281
     1
  3
ACAD_XREC_ROUNDTRIP
360
267
  0
XRECORD
  5
257
102
{ACAD_REACTORS
330
256
102
}
330
256
100
AcDbXrecord
280
     1
102
RTVSPropertyOp0
 70
     1
102
RTVSPropertyOp1
 70
     1
102
RTVSPropertyOp2
 70
     1
102
RTVSPropertyOp3
 70
     1
102
RTVSPropertyOp4
 70
     1
102
RTVSPropertyOp5
 70
     1
102
RTVSPropertyOp6
 70
     1
102
RTVSPropertyOp7
 70
     1
102
RTVSPropertyOp8
 70
     1
102
RTVSPropertyOp9
 70
     1
102
RTVSPropertyOp10
 70
     1
102
RTVSPropertyOp11
 70
     1
102
RTVSPropertyOp12
 70
     1
102
RTVSPropertyOp13
 70
     1
102
RTVSPropertyOp14
 70
     1
102
RTVSPropertyOp15
 70
     1
102
RTVSPropertyOp16
 70
     1
102
RTVSPropertyOp17
 70
     1
102
RTVSPropertyOp18
 70
     1
102
RTVSPropertyOp19
 70
     1
102
RTVSPropertyOp20
 70
     1
102
RTVSPropertyOp21
 70
     1
102
RTVSPropertyOp22
 70
     1
102
RTVSPropertyOp23
 70
     1
102
RTVSPropertyOp24
 70
     1
102
RTVSPropertyOp25
 70
     1
102
RTVSPropertyOp26
 70
     1
102
RTVSPropertyOp27
 70
     1
102
RTVSPropertyOp28
 70
     1
102
RTVSPropertyOp29
 70
     1
102
RTVSPropertyOp30
 70
     1
102
RTVSPropertyOp31
 70
     1
102
RTVSPropertyOp32
 70
     1
  0
XRECORD
  5
25B
102
{ACAD_REACTORS
330
25A
102
}
330
25A
100
AcDbXrecord
280
     1
102
RTVSPropertyOp0
 70
     1
102
RTVSPropertyOp1
 70
     1
102
RTVSPropertyOp2
 70
     1
102
RTVSPropertyOp3
 70
     1
102
RTVSPropertyOp4
 70
     1
102
RTVSPropertyOp5
 70
     1
102
RTVSPropertyOp6
 70
     1
102
RTVSPropertyOp7
 70
     1
102
RTVSPropertyOp8
 70
     1
102
RTVSPropertyOp9
 70
     1
102
RTVSPropertyOp10
 70
     1
102
RTVSPropertyOp11
 70
     1
102
RTVSPropertyOp12
 70
     1
102
RTVSPropertyOp13
 70
     1
102
RTVSPropertyOp14
 70
     1
102
RTVSPropertyOp15
 70
     1
102
RTVSPropertyOp16
 70
     1
102
RTVSPropertyOp17
 70
     1
102
RTVSPropertyOp18
 70
     1
102
RTVSPropertyOp19
 70
     1
102
RTVSPropertyOp20
 70
     1
102
RTVSPropertyOp21
 70
     1
102
RTVSPropertyOp22
 70
     1
102
RTVSPropertyOp23
 70
     1
102
RTVSPropertyOp24
 70
     1
102
RTVSPropertyOp25
 70
     1
102
RTVSPropertyOp26
 70
     1
102
RTVSPropertyOp27
 70
     1
102
RTVSPropertyOp28
 70
     1
102
RTVSPropertyOp29
 70
     1
102
RTVSPropertyOp30
 70
     1
102
RTVSPropertyOp31
 70
     1
102
RTVSPropertyOp32
 70
     1
  0
XRECORD
  5
259
102
{ACAD_REACTORS
330
258
102
}
330
258
100
AcDbXrecord
280
     1
102
RTVSPropertyOp0
 70
     1
102
RTVSPropertyOp1
 70
     1
102
RTVSPropertyOp2
 70
     1
102
RTVSPropertyOp3
 70
     1
102
RTVSPropertyOp4
 70
     1
102
RTVSPropertyOp5
 70
     1
102
RTVSPropertyOp6
 70
     1
102
RTVSPropertyOp7
 70
     1
102
RTVSPropertyOp8
 70
     1
102
RTVSPropertyOp9
 70
     1
102
RTVSPropertyOp10
 70
     1
102
RTVSPropertyOp11
 70
     1
102
RTVSPropertyOp12
 70
     1
102
RTVSPropertyOp13
 70
     1
102
RTVSPropertyOp14
 70
     1
102
RTVSPropertyOp15
 70
     1
102
RTVSPropertyOp16
 70
     1
102
RTVSPropertyOp17
 70
     1
102
RTVSPropertyOp18
 70
     1
102
RTVSPropertyOp19
 70
     1
102
RTVSPropertyOp20
 70
     1
102
RTVSPropertyOp21
 70
     1
102
RTVSPropertyOp22
 70
     1
102
RTVSPropertyOp23
 70
     1
102
RTVSPropertyOp24
 70
     1
102
RTVSPropertyOp25
 70
     1
102
RTVSPropertyOp26
 70
     1
102
RTVSPropertyOp27
 70
     1
102
RTVSPropertyOp28
 70
     1
102
RTVSPropertyOp29
 70
     1
102
RTVSPropertyOp30
 70
     1
102
RTVSPropertyOp31
 70
     1
102
RTVSPropertyOp32
 70
     1
  0
XRECORD
  5
25D
102
{ACAD_REACTORS
330
25C
102
}
330
25C
100
AcDbXrecord
280
     1
102
RTVSPropertyOp0
 70
     1
102
RTVSPropertyOp1
 70
     1
102
RTVSPropertyOp2
 70
     1
102
RTVSPropertyOp3
 70
     1
102
RTVSPropertyOp4
 70
     1
102
RTVSPropertyOp5
 70
     1
102
RTVSPropertyOp6
 70
     1
102
RTVSPropertyOp7
 70
     1
102
RTVSPropertyOp8
 70
     1
102
RTVSPropertyOp9
 70
     1
102
RTVSPropertyOp10
 70
     1
102
RTVSPropertyOp11
 70
     1
102
RTVSPropertyOp12
 70
     1
102
RTVSPropertyOp13
 70
     1
102
RTVSPropertyOp14
 70
     1
102
RTVSPropertyOp15
 70
     1
102
RTVSPropertyOp16
 70
     1
102
RTVSPropertyOp17
 70
     1
102
RTVSPropertyOp18
 70
     1
102
RTVSPropertyOp19
 70
     1
102
RTVSPropertyOp20
 70
     1
102
RTVSPropertyOp21
 70
     1
102
RTVSPropertyOp22
 70
     1
102
RTVSPropertyOp23
 70
     1
102
RTVSPropertyOp24
 70
     1
102
RTVSPropertyOp25
 70
     1
102
RTVSPropertyOp26
 70
     1
102
RTVSPropertyOp27
 70
     1
102
RTVSPropertyOp28
 70
     1
102
RTVSPropertyOp29
 70
     1
102
RTVSPropertyOp30
 70
     1
102
RTVSPropertyOp31
 70
     1
102
RTVSPropertyOp32
 70
     1
  0
XRECORD
  5
265
102
{ACAD_REACTORS
330
264
102
}
330
264
100
AcDbXrecord
280
     1
102
RTVSPropertyOp0
 70
     1
102
RTVSPropertyOp1
 70
     1
102
RTVSPropertyOp2
 70
     1
102
RTVSPropertyOp3
 70
     1
102
RTVSPropertyOp4
 70
     1
102
RTVSPropertyOp5
 70
     1
102
RTVSPropertyOp6
 70
     1
102
RTVSPropertyOp7
 70
     1
102
RTVSPropertyOp8
 70
     1
102
RTVSPropertyOp9
 70
     1
102
RTVSPropertyOp10
 70
     1
102
RTVSPropertyOp11
 70
     1
102
RTVSPropertyOp12
 70
     1
102
RTVSPropertyOp13
 70
     1
102
RTVSPropertyOp14
 70
     1
102
RTVSPropertyOp15
 70
     1
102
RTVSPropertyOp16
 70
     1
102
RTVSPropertyOp17
 70
     1
102
RTVSPropertyOp18
 70
     1
102
RTVSPropertyOp19
 70
     1
102
RTVSPropertyOp20
 70
     1
102
RTVSPropertyOp21
 70
     1
102
RTVSPropertyOp22
 70
     1
102
RTVSPropertyOp23
 70
     1
102
RTVSPropertyOp24
 70
     1
102
RTVSPropertyOp25
 70
     1
102
RTVSPropertyOp26
 70
     1
102
RTVSPropertyOp27
 70
     1
102
RTVSPropertyOp28
 70
     1
102
RTVSPropertyOp29
 70
     1
102
RTVSPropertyOp30
 70
     1
102
RTVSPropertyOp31
 70
     1
102
RTVSPropertyOp32
 70
     1
  0
XRECORD
  5
26D
102
{ACAD_REACTORS
330
26C
102
}
330
26C
100
AcDbXrecord
280
     1
102
RTVSPropertyOp0
 70
     1
102
RTVSPropertyOp1
 70
     1
102
RTVSPropertyOp2
 70
     1
102
RTVSPropertyOp3
 70
     1
102
RTVSPropertyOp4
 70
     1
102
RTVSPropertyOp5
 70
     1
102
RTVSPropertyOp6
 70
     1
102
RTVSPropertyOp7
 70
     1
102
RTVSPropertyOp8
 70
     1
102
RTVSPropertyOp9
 70
     1
102
RTVSPropertyOp10
 70
     1
102
RTVSPropertyOp11
 70
     1
102
RTVSPropertyOp12
 70
     1
102
RTVSPropertyOp13
 70
     1
102
RTVSPropertyOp14
 70
     1
102
RTVSPropertyOp15
 70
     1
102
RTVSPropertyOp16
 70
     1
102
RTVSPropertyOp17
 70
     1
102
RTVSPropertyOp18
 70
     1
102
RTVSPropertyOp19
 70
     1
102
RTVSPropertyOp20
 70
     1
102
RTVSPropertyOp21
 70
     1
102
RTVSPropertyOp22
 70
     1
102
RTVSPropertyOp23
 70
     1
102
RTVSPropertyOp24
 70
     1
102
RTVSPropertyOp25
 70
     1
102
RTVSPropertyOp26
 70
     1
102
RTVSPropertyOp27
 70
     1
102
RTVSPropertyOp28
 70
     1
102
RTVSPropertyOp29
 70
     1
102
RTVSPropertyOp30
 70
     1
102
RTVSPropertyOp31
 70
     1
102
RTVSPropertyOp32
 70
     1
  0
XRECORD
  5
261
102
{ACAD_REACTORS
330
260
102
}
330
260
100
AcDbXrecord
280
     1
102
RTVSPropertyOp0
 70
     1
102
RTVSPropertyOp1
 70
     1
102
RTVSPropertyOp2
 70
     1
102
RTVSPropertyOp3
 70
     1
102
RTVSPropertyOp4
 70
     1
102
RTVSPropertyOp5
 70
     1
102
RTVSPropertyOp6
 70
     1
102
RTVSPropertyOp7
 70
     1
102
RTVSPropertyOp8
 70
     1
102
RTVSPropertyOp9
 70
     1
102
RTVSPropertyOp10
 70
     1
102
RTVSPropertyOp11
 70
     1
102
RTVSPropertyOp12
 70
     1
102
RTVSPropertyOp13
 70
     1
102
RTVSPropertyOp14
 70
     1
102
RTVSPropertyOp15
 70
     1
102
RTVSPropertyOp16
 70
     1
102
RTVSPropertyOp17
 70
     1
102
RTVSPropertyOp18
 70
     1
102
RTVSPropertyOp19
 70
     1
102
RTVSPropertyOp20
 70
     1
102
RTVSPropertyOp21
 70
     1
102
RTVSPropertyOp22
 70
     1
102
RTVSPropertyOp23
 70
     1
102
RTVSPropertyOp24
 70
     1
102
RTVSPropertyOp25
 70
     1
102
RTVSPropertyOp26
 70
     1
102
RTVSPropertyOp27
 70
     1
102
RTVSPropertyOp28
 70
     1
102
RTVSPropertyOp29
 70
     1
102
RTVSPropertyOp30
 70
     1
102
RTVSPropertyOp31
 70
     1
102
RTVSPropertyOp32
 70
     1
  0
XRECORD
  5
263
102
{ACAD_REACTORS
330
262
102
}
330
262
100
AcDbXrecord
280
     1
102
RTVSPropertyOp0
 70
     1
102
RTVSPropertyOp1
 70
     1
102
RTVSPropertyOp2
 70
     1
102
RTVSPropertyOp3
 70
     1
102
RTVSPropertyOp4
 70
     1
102
RTVSPropertyOp5
 70
     1
102
RTVSPropertyOp6
 70
     1
102
RTVSPropertyOp7
 70
     1
102
RTVSPropertyOp8
 70
     1
102
RTVSPropertyOp9
 70
     1
102
RTVSPropertyOp10
 70
     1
102
RTVSPropertyOp11
 70
     1
102
RTVSPropertyOp12
 70
     1
102
RTVSPropertyOp13
 70
     1
102
RTVSPropertyOp14
 70
     1
102
RTVSPropertyOp15
 70
     1
102
RTVSPropertyOp16
 70
     1
102
RTVSPropertyOp17
 70
     1
102
RTVSPropertyOp18
 70
     1
102
RTVSPropertyOp19
 70
     1
102
RTVSPropertyOp20
 70
     1
102
RTVSPropertyOp21
 70
     1
102
RTVSPropertyOp22
 70
     1
102
RTVSPropertyOp23
 70
     1
102
RTVSPropertyOp24
 70
     1
102
RTVSPropertyOp25
 70
     1
102
RTVSPropertyOp26
 70
     1
102
RTVSPropertyOp27
 70
     1
102
RTVSPropertyOp28
 70
     1
102
RTVSPropertyOp29
 70
     1
102
RTVSPropertyOp30
 70
     1
102
RTVSPropertyOp31
 70
     1
102
RTVSPropertyOp32
 70
     1
  0
XRECORD
  5
26B
102
{ACAD_REACTORS
330
26A
102
}
330
26A
100
AcDbXrecord
280
     1
102
RTVSPropertyOp0
 70
     1
102
RTVSPropertyOp1
 70
     1
102
RTVSPropertyOp2
 70
     1
102
RTVSPropertyOp3
 70
     1
102
RTVSPropertyOp4
 70
     1
102
RTVSPropertyOp5
 70
     1
102
RTVSPropertyOp6
 70
     1
102
RTVSPropertyOp7
 70
     1
102
RTVSPropertyOp8
 70
     1
102
RTVSPropertyOp9
 70
     1
102
RTVSPropertyOp10
 70
     1
102
RTVSPropertyOp11
 70
     1
102
RTVSPropertyOp12
 70
     1
102
RTVSPropertyOp13
 70
     1
102
RTVSPropertyOp14
 70
     1
102
RTVSPropertyOp15
 70
     1
102
RTVSPropertyOp16
 70
     1
102
RTVSPropertyOp17
 70
     1
102
RTVSPropertyOp18
 70
     1
102
RTVSPropertyOp19
 70
     1
102
RTVSPropertyOp20
 70
     1
102
RTVSPropertyOp21
 70
     1
102
RTVSPropertyOp22
 70
     1
102
RTVSPropertyOp23
 70
     1
102
RTVSPropertyOp24
 70
     1
102
RTVSPropertyOp25
 70
     1
102
RTVSPropertyOp26
 70
     1
102
RTVSPropertyOp27
 70
     1
102
RTVSPropertyOp28
 70
     1
102
RTVSPropertyOp29
 70
     1
102
RTVSPropertyOp30
 70
     1
102
RTVSPropertyOp31
 70
     1
102
RTVSPropertyOp32
 70
     1
  0
XRECORD
  5
24F
102
{ACAD_REACTORS
330
24E
102
}
330
24E
100
AcDbXrecord
280
     1
102
RTVSPropertyOp0
 70
     1
102
RTVSPropertyOp1
 70
     1
102
RTVSPropertyOp2
 70
     1
102
RTVSPropertyOp3
 70
     1
102
RTVSPropertyOp4
 70
     1
102
RTVSPropertyOp5
 70
     1
102
RTVSPropertyOp6
 70
     1
102
RTVSPropertyOp7
 70
     1
102
RTVSPropertyOp8
 70
     1
102
RTVSPropertyOp9
 70
     1
102
RTVSPropertyOp10
 70
     1
102
RTVSPropertyOp11
 70
     1
102
RTVSPropertyOp12
 70
     1
102
RTVSPropertyOp13
 70
     1
102
RTVSPropertyOp14
 70
     1
102
RTVSPropertyOp15
 70
     1
102
RTVSPropertyOp16
 70
     1
102
RTVSPropertyOp17
 70
     1
102
RTVSPropertyOp18
 70
     1
102
RTVSPropertyOp19
 70
     1
102
RTVSPropertyOp20
 70
     1
102
RTVSPropertyOp21
 70
     1
102
RTVSPropertyOp22
 70
     1
102
RTVSPropertyOp23
 70
     1
102
RTVSPropertyOp24
 70
     1
102
RTVSPropertyOp25
 70
     1
102
RTVSPropertyOp26
 70
     1
102
RTVSPropertyOp27
 70
     1
102
RTVSPropertyOp28
 70
     1
102
RTVSPropertyOp29
 70
     1
102
RTVSPropertyOp30
 70
     1
102
RTVSPropertyOp31
 70
     1
102
RTVSPropertyOp32
 70
     1
  0
XRECORD
  5
251
102
{ACAD_REACTORS
330
250
102
}
330
250
100
AcDbXrecord
280
     1
102
RTVSPropertyOp0
 70
     1
102
RTVSPropertyOp1
 70
     1
102
RTVSPropertyOp2
 70
     1
102
RTVSPropertyOp3
 70
     1
102
RTVSPropertyOp4
 70
     1
102
RTVSPropertyOp5
 70
     1
102
RTVSPropertyOp6
 70
     1
102
RTVSPropertyOp7
 70
     1
102
RTVSPropertyOp8
 70
     1
102
RTVSPropertyOp9
 70
     1
102
RTVSPropertyOp10
 70
     1
102
RTVSPropertyOp11
 70
     1
102
RTVSPropertyOp12
 70
     1
102
RTVSPropertyOp13
 70
     1
102
RTVSPropertyOp14
 70
     1
102
RTVSPropertyOp15
 70
     1
102
RTVSPropertyOp16
 70
     1
102
RTVSPropertyOp17
 70
     1
102
RTVSPropertyOp18
 70
     1
102
RTVSPropertyOp19
 70
     1
102
RTVSPropertyOp20
 70
     1
102
RTVSPropertyOp21
 70
     1
102
RTVSPropertyOp22
 70
     1
102
RTVSPropertyOp23
 70
     1
102
RTVSPropertyOp24
 70
     1
102
RTVSPropertyOp25
 70
     1
102
RTVSPropertyOp26
 70
     1
102
RTVSPropertyOp27
 70
     1
102
RTVSPropertyOp28
 70
     1
102
RTVSPropertyOp29
 70
     1
102
RTVSPropertyOp30
 70
     1
102
RTVSPropertyOp31
 70
     1
102
RTVSPropertyOp32
 70
     1
  0
XRECORD
  5
253
102
{ACAD_REACTORS
330
252
102
}
330
252
100
AcDbXrecord
280
     1
102
RTVSPropertyOp0
 70
     1
102
RTVSPropertyOp1
 70
     1
102
RTVSPropertyOp2
 70
     1
102
RTVSPropertyOp3
 70
     1
102
RTVSPropertyOp4
 70
     1
102
RTVSPropertyOp5
 70
     1
102
RTVSPropertyOp6
 70
     1
102
RTVSPropertyOp7
 70
     1
102
RTVSPropertyOp8
 70
     1
102
RTVSPropertyOp9
 70
     1
102
RTVSPropertyOp10
 70
     1
102
RTVSPropertyOp11
 70
     1
102
RTVSPropertyOp12
 70
     1
102
RTVSPropertyOp13
 70
     1
102
RTVSPropertyOp14
 70
     1
102
RTVSPropertyOp15
 70
     1
102
RTVSPropertyOp16
 70
     1
102
RTVSPropertyOp17
 70
     1
102
RTVSPropertyOp18
 70
     1
102
RTVSPropertyOp19
 70
     1
102
RTVSPropertyOp20
 70
     1
102
RTVSPropertyOp21
 70
     1
102
RTVSPropertyOp22
 70
     1
102
RTVSPropertyOp23
 70
     1
102
RTVSPropertyOp24
 70
     1
102
RTVSPropertyOp25
 70
     1
102
RTVSPropertyOp26
 70
     1
102
RTVSPropertyOp27
 70
     1
102
RTVSPropertyOp28
 70
     1
102
RTVSPropertyOp29
 70
     1
102
RTVSPropertyOp30
 70
     1
102
RTVSPropertyOp31
 70
     1
102
RTVSPropertyOp32
 70
     1
  0
XRECORD
  5
255
102
{ACAD_REACTORS
330
254
102
}
330
254
100
AcDbXrecord
280
     1
102
RTVSPropertyOp0
 70
     1
102
RTVSPropertyOp1
 70
     1
102
RTVSPropertyOp2
 70
     1
102
RTVSPropertyOp3
 70
     1
102
RTVSPropertyOp4
 70
     1
102
RTVSPropertyOp5
 70
     1
102
RTVSPropertyOp6
 70
     1
102
RTVSPropertyOp7
 70
     1
102
RTVSPropertyOp8
 70
     1
102
RTVSPropertyOp9
 70
     1
102
RTVSPropertyOp10
 70
     1
102
RTVSPropertyOp11
 70
     1
102
RTVSPropertyOp12
 70
     1
102
RTVSPropertyOp13
 70
     1
102
RTVSPropertyOp14
 70
     1
102
RTVSPropertyOp15
 70
     1
102
RTVSPropertyOp16
 70
     1
102
RTVSPropertyOp17
 70
     1
102
RTVSPropertyOp18
 70
     1
102
RTVSPropertyOp19
 70
     1
102
RTVSPropertyOp20
 70
     1
102
RTVSPropertyOp21
 70
     1
102
RTVSPropertyOp22
 70
     1
102
RTVSPropertyOp23
 70
     1
102
RTVSPropertyOp24
 70
     1
102
RTVSPropertyOp25
 70
     1
102
RTVSPropertyOp26
 70
     1
102
RTVSPropertyOp27
 70
     1
102
RTVSPropertyOp28
 70
     1
102
RTVSPropertyOp29
 70
     1
102
RTVSPropertyOp30
 70
     1
102
RTVSPropertyOp31
 70
     1
102
RTVSPropertyOp32
 70
     1
  0
XRECORD
  5
269
102
{ACAD_REACTORS
330
268
102
}
330
268
100
AcDbXrecord
280
     1
102
RTVSPropertyOp0
 70
     1
102
RTVSPropertyOp1
 70
     1
102
RTVSPropertyOp2
 70
     1
102
RTVSPropertyOp3
 70
     1
102
RTVSPropertyOp4
 70
     1
102
RTVSPropertyOp5
 70
     1
102
RTVSPropertyOp6
 70
     1
102
RTVSPropertyOp7
 70
     1
102
RTVSPropertyOp8
 70
     1
102
RTVSPropertyOp9
 70
     1
102
RTVSPropertyOp10
 70
     1
102
RTVSPropertyOp11
 70
     1
102
RTVSPropertyOp12
 70
     1
102
RTVSPropertyOp13
 70
     1
102
RTVSPropertyOp14
 70
     1
102
RTVSPropertyOp15
 70
     1
102
RTVSPropertyOp16
 70
     1
102
RTVSPropertyOp17
 70
     1
102
RTVSPropertyOp18
 70
     1
102
RTVSPropertyOp19
 70
     1
102
RTVSPropertyOp20
 70
     1
102
RTVSPropertyOp21
 70
     1
102
RTVSPropertyOp22
 70
     1
102
RTVSPropertyOp23
 70
     1
102
RTVSPropertyOp24
 70
     1
102
RTVSPropertyOp25
 70
     1
102
RTVSPropertyOp26
 70
     1
102
RTVSPropertyOp27
 70
     1
102
RTVSPropertyOp28
 70
     1
102
RTVSPropertyOp29
 70
     1
102
RTVSPropertyOp30
 70
     1
102
RTVSPropertyOp31
 70
     1
102
RTVSPropertyOp32
 70
     1
  0
XRECORD
  5
25F
102
{ACAD_REACTORS
330
25E
102
}
330
25E
100
AcDbXrecord
280
     1
102
RTVSPropertyOp0
 70
     1
102
RTVSPropertyOp1
 70
     1
102
RTVSPropertyOp2
 70
     1
102
RTVSPropertyOp3
 70
     1
102
RTVSPropertyOp4
 70
     1
102
RTVSPropertyOp5
 70
     1
102
RTVSPropertyOp6
 70
     1
102
RTVSPropertyOp7
 70
     1
102
RTVSPropertyOp8
 70
     1
102
RTVSPropertyOp9
 70
     1
102
RTVSPropertyOp10
 70
     1
102
RTVSPropertyOp11
 70
     1
102
RTVSPropertyOp12
 70
     1
102
RTVSPropertyOp13
 70
     1
102
RTVSPropertyOp14
 70
     1
102
RTVSPropertyOp15
 70
     1
102
RTVSPropertyOp16
 70
     1
102
RTVSPropertyOp17
 70
     1
102
RTVSPropertyOp18
 70
     1
102
RTVSPropertyOp19
 70
     1
102
RTVSPropertyOp20
 70
     1
102
RTVSPropertyOp21
 70
     1
102
RTVSPropertyOp22
 70
     1
102
RTVSPropertyOp23
 70
     1
102
RTVSPropertyOp24
 70
     1
102
RTVSPropertyOp25
 70
     1
102
RTVSPropertyOp26
 70
     1
102
RTVSPropertyOp27
 70
     1
102
RTVSPropertyOp28
 70
     1
102
RTVSPropertyOp29
 70
     1
102
RTVSPropertyOp30
 70
     1
102
RTVSPropertyOp31
 70
     1
102
RTVSPropertyOp32
 70
     1
  0
XRECORD
  5
267
102
{ACAD_REACTORS
330
266
102
}
330
266
100
AcDbXrecord
280
     1
102
RTVSPropertyOp0
 70
     1
102
RTVSPropertyOp1
 70
     1
102
RTVSPropertyOp2
 70
     1
102
RTVSPropertyOp3
 70
     1
102
RTVSPropertyOp4
 70
     1
102
RTVSPropertyOp5
 70
     1
102
RTVSPropertyOp6
 70
     1
102
RTVSPropertyOp7
 70
     1
102
RTVSPropertyOp8
 70
     1
102
RTVSPropertyOp9
 70
     1
102
RTVSPropertyOp10
 70
     1
102
RTVSPropertyOp11
 70
     1
102
RTVSPropertyOp12
 70
     1
102
RTVSPropertyOp13
 70
     1
102
RTVSPropertyOp14
 70
     1
102
RTVSPropertyOp15
 70
     1
102
RTVSPropertyOp16
 70
     1
102
RTVSPropertyOp17
 70
     1
102
RTVSPropertyOp18
 70
     1
102
RTVSPropertyOp19
 70
     1
102
RTVSPropertyOp20
 70
     1
102
RTVSPropertyOp21
 70
     1
102
RTVSPropertyOp22
 70
     1
102
RTVSPropertyOp23
 70
     1
102
RTVSPropertyOp24
 70
     1
102
RTVSPropertyOp25
 70
     1
102
RTVSPropertyOp26
 70
     1
102
RTVSPropertyOp27
 70
     1
102
RTVSPropertyOp28
 70
     1
102
RTVSPropertyOp29
 70
     1
102
RTVSPropertyOp30
 70
     1
102
RTVSPropertyOp31
 70
     1
102
RTVSPropertyOp32
 70
     1
  0
ENDSEC
  0
EOF
