  0
SECTION
  2
HEADER
  9
$ACADVER
  1
AC1021
  9
$ACADMAINTVER
 70
    25
  9
$DWGCODEPAGE
  3
UNDEFINED
  9
$INSBASE
 10
0.0
 20
0.0
 30
0.0
  9
$EXTMIN
 10
1.000000000000000E+20
 20
1.000000000000000E+20
 30
1.000000000000000E+20
  9
$EXTMAX
 10
-1.000000000000000E+20
 20
-1.000000000000000E+20
 30
-1.000000000000000E+20
  9
$LIMMIN
 10
0.0
 20
0.0
  9
$LIMMAX
 10
12.0
 20
9.0
  9
$ORTHOMODE
 70
     0
  9
$REGENMODE
 70
     1
  9
$FILLMODE
 70
     1
  9
$QTEXTMODE
 70
     0
  9
$MIRRTEXT
 70
     1
  9
$LTSCALE
 40
1.0
  9
$ATTMODE
 70
     1
  9
$TEXTSIZE
 40
0.2
  9
$TRACEWID
 40
0.05
  9
$TEXTSTYLE
  7
Standard
  9
$CLAYER
  8
0
  9
$CELTYPE
  6
ByLayer
  9
$CECOLOR
 62
   256
  9
$CELTSCALE
 40
1.0
  9
$DISPSILH
 70
     0
  9
$DIMSCALE
 40
1.0
  9
$DIMASZ
 40
0.18
  9
$DIMEXO
 40
0.0625
  9
$DIMDLI
 40
0.38
  9
$DIMRND
 40
0.0
  9
$DIMDLE
 40
0.0
  9
$DIMEXE
 40
0.18
  9
$DIMTP
 40
0.0
  9
$DIMTM
 40
0.0
  9
$DIMTXT
 40
0.18
  9
$DIMCEN
 40
0.09
  9
$DIMTSZ
 40
0.0
  9
$DIMTOL
 70
     0
  9
$DIMLIM
 70
     0
  9
$DIMTIH
 70
     1
  9
$DIMTOH
 70
     1
  9
$DIMSE1
 70
     0
  9
$DIMSE2
 70
     0
  9
$DIMTAD
 70
     0
  9
$DIMZIN
 70
     0
  9
$DIMBLK
  1

  9
$DIMASO
 70
     1
  9
$DIMSHO
 70
     1
  9
$DIMPOST
  1

  9
$DIMAPOST
  1

  9
$DIMALT
 70
     0
  9
$DIMALTD
 70
     2
  9
$DIMALTF
 40
25.4
  9
$DIMLFAC
 40
1.0
  9
$DIMTOFL
 70
     0
  9
$DIMTVP
 40
0.0
  9
$DIMTIX
 70
     0
  9
$DIMSOXD
 70
     0
  9
$DIMSAH
 70
     0
  9
$DIMBLK1
  1

  9
$DIMBLK2
  1

  9
$DIMSTYLE
  2
Standard
  9
$DIMCLRD
 70
     0
  9
$DIMCLRE
 70
     0
  9
$DIMCLRT
 70
     0
  9
$DIMTFAC
 40
1.0
  9
$DIMGAP
 40
0.09
  9
$DIMJUST
 70
     0
  9
$DIMSD1
 70
     0
  9
$DIMSD2
 70
     0
  9
$DIMTOLJ
 70
     1
  9
$DIMTZIN
 70
     0
  9
$DIMALTZ
 70
     0
  9
$DIMALTTZ
 70
     0
  9
$DIMUPT
 70
     0
  9
$DIMDEC
 70
     4
  9
$DIMTDEC
 70
     4
  9
$DIMALTU
 70
     2
  9
$DIMALTTD
 70
     2
  9
$DIMTXSTY
  7
Standard
  9
$DIMAUNIT
 70
     0
  9
$DIMADEC
 70
     0
  9
$DIMALTRND
 40
0.0
  9
$DIMAZIN
 70
     0
  9
$DIMDSEP
 70
    46
  9
$DIMATFIT
 70
     3
  9
$DIMFRAC
 70
     0
  9
$DIMLDRBLK
  1

  9
$DIMLUNIT
 70
     2
  9
$DIMLWD
 70
    -2
  9
$DIMLWE
 70
    -2
  9
$DIMTMOVE
 70
     0
  9
$DIMFXL
 40
1.0
  9
$DIMFXLON
 70
     0
  9
$DIMJOGANG
 40
0.7853981633974483
  9
$DIMTFILL
 70
     0
  9
$DIMTFILLCLR
 70
     0
  9
$DIMARCSYM
 70
     0
  9
$DIMLTYPE
  6

  9
$DIMLTEX1
  6

  9
$DIMLTEX2
  6

  9
$LUNITS
 70
     2
  9
$LUPREC
 70
     4
  9
$SKETCHINC
 40
0.1
  9
$FILLETRAD
 40
0.5
  9
$AUNITS
 70
     0
  9
$AUPREC
 70
     0
  9
$MENU
  1
.
  9
$ELEVATION
 40
0.0
  9
$PELEVATION
 40
0.0
  9
$THICKNESS
 40
0.0
  9
$LIMCHECK
 70
     0
  9
$CHAMFERA
 40
0.5
  9
$CHAMFERB
 40
0.5
  9
$CHAMFERC
 40
1.0
  9
$CHAMFERD
 40
0.0
  9
$SKPOLY
 70
     0
  9
$TDCREATE
 40
2459380.404212951
  9
$TDUCREATE
 40
2459380.362546296
  9
$TDUPDATE
 40
2459380.404212951
  9
$TDUUPDATE
 40
2459380.362546296
  9
$TDINDWG
 40
0.0000000116
  9
$TDUSRTIMER
 40
0.0000000116
  9
$USRTIMER
 70
     1
  9
$ANGBASE
 50
0.0
  9
$ANGDIR
 70
     0
  9
$PDMODE
 70
     0
  9
$PDSIZE
 40
0.0
  9
$PLINEWID
 40
0.0
  9
$SPLFRAME
 70
     0
  9
$SPLINETYPE
 70
     6
  9
$SPLINESEGS
 70
     8
  9
$HANDSEED
  5
E3
  9
$SURFTAB1
 70
     6
  9
$SURFTAB2
 70
     6
  9
$SURFTYPE
 70
     6
  9
$SURFU
 70
     6
  9
$SURFV
 70
     6
  9
$UCSBASE
  2

  9
$UCSNAME
  2

  9
$UCSORG
 10
0.0
 20
0.0
 30
0.0
  9
$UCSXDIR
 10
1.0
 20
0.0
 30
0.0
  9
$UCSYDIR
 10
0.0
 20
1.0
 30
0.0
  9
$UCSORTHOREF
  2

  9
$UCSORTHOVIEW
 70
     0
  9
$UCSORGTOP
 10
0.0
 20
0.0
 30
0.0
  9
$UCSORGBOTTOM
 10
0.0
 20
0.0
 30
0.0
  9
$UCSORGLEFT
 10
0.0
 20
0.0
 30
0.0
  9
$UCSORGRIGHT
 10
0.0
 20
0.0
 30
0.0
  9
$UCSORGFRONT
 10
0.0
 20
0.0
 30
0.0
  9
$UCSORGBACK
 10
0.0
 20
0.0
 30
0.0
  9
$PUCSBASE
  2

  9
$PUCSNAME
  2

  9
$PUCSORG
 10
0.0
 20
0.0
 30
0.0
  9
$PUCSXDIR
 10
1.0
 20
0.0
 30
0.0
  9
$PUCSYDIR
 10
0.0
 20
1.0
 30
0.0
  9
$PUCSORTHOREF
  2

  9
$PUCSORTHOVIEW
 70
     0
  9
$PUCSORGTOP
 10
0.0
 20
0.0
 30
0.0
  9
$PUCSORGBOTTOM
 10
0.0
 20
0.0
 30
0.0
  9
$PUCSORGLEFT
 10
0.0
 20
0.0
 30
0.0
  9
$PUCSORGRIGHT
 10
0.0
 20
0.0
 30
0.0
  9
$PUCSORGFRONT
 10
0.0
 20
0.0
 30
0.0
  9
$PUCSORGBACK
 10
0.0
 20
0.0
 30
0.0
  9
$USERI1
 70
     0
  9
$USERI2
 70
     0
  9
$USERI3
 70
     0
  9
$USERI4
 70
     0
  9
$USERI5
 70
     0
  9
$USERR1
 40
0.0
  9
$USERR2
 40
0.0
  9
$USERR3
 40
0.0
  9
$USERR4
 40
0.0
  9
$USERR5
 40
0.0
  9
$WORLDVIEW
 70
     1
  9
$SHADEDGE
 70
     3
  9
$SHADEDIF
 70
    70
  9
$TILEMODE
 70
     1
  9
$MAXACTVP
 70
    64
  9
$PINSBASE
 10
0.0
 20
0.0
 30
0.0
  9
$PLIMCHECK
 70
     0
  9
$PEXTMIN
 10
1.000000000000000E+20
 20
1.000000000000000E+20
 30
1.000000000000000E+20
  9
$PEXTMAX
 10
-1.000000000000000E+20
 20
-1.000000000000000E+20
 30
-1.000000000000000E+20
  9
$PLIMMIN
 10
0.0
 20
0.0
  9
$PLIMMAX
 10
12.0
 20
9.0
  9
$UNITMODE
 70
     0
  9
$VISRETAIN
 70
     1
  9
$PLINEGEN
 70
     0
  9
$PSLTSCALE
 70
     1
  9
$TREEDEPTH
 70
  3020
  9
$CMLSTYLE
  2
Standard
  9
$CMLJUST
 70
     0
  9
$CMLSCALE
 40
1.0
  9
$PROXYGRAPHICS
 70
     1
  9
$MEASUREMENT
 70
     0
  9
$CELWEIGHT
370
    -1
  9
$ENDCAPS
280
     0
  9
$JOINSTYLE
280
     0
  9
$LWDISPLAY
290
     1
  9
$INSUNITS
 70
     1
  9
$HYPERLINKBASE
  1

  9
$STYLESHEET
  1

  9
$XEDIT
290
     1
  9
$CEPSNTYPE
380
     0
  9
$PSTYLEMODE
290
     1
  9
$FINGERPRINTGUID
  2
{22E425E2-6AAF-A7B4-1C0D-75E40BB806E2}
  9
$VERSIONGUID
  2
{FAEB1C32-E019-11D5-929B-00C0DF256EC4}
  9
$EXTNAMES
290
     1
  9
$PSVPSCALE
 40
0.0
  9
$OLESTARTUP
290
     0
  9
$SORTENTS
280
   127
  9
$INDEXCTL
280
     0
  9
$HIDETEXT
280
     1
  9
$XCLIPFRAME
290
     0
  9
$HALOGAP
280
     0
  9
$OBSCOLOR
 70
   257
  9
$OBSLTYPE
280
     0
  9
$INTERSECTIONDISPLAY
280
     0
  9
$INTERSECTIONCOLOR
 70
   257
  9
$DIMASSOC
280
     2
  9
$PROJECTNAME
  1

  9
$CAMERADISPLAY
290
     0
  9
$LENSLENGTH
 40
50.0
  9
$CAMERAHEIGHT
 40
0.0
  9
$STEPSPERSEC
 40
2.0
  9
$STEPSIZE
 40
6.0
  9
$3DDWFPREC
 40
2.0
  9
$PSOLWIDTH
 40
0.25
  9
$PSOLHEIGHT
 40
4.0
  9
$LOFTANG1
 40
1.570796326794897
  9
$LOFTANG2
 40
1.570796326794897
  9
$LOFTMAG1
 40
0.0
  9
$LOFTMAG2
 40
0.0
  9
$LOFTPARAM
 70
     7
  9
$LOFTNORMALS
280
     1
  9
$LATITUDE
 40
37.795
  9
$LONGITUDE
 40
-122.394
  9
$NORTHDIRECTION
 40
0.0
  9
$TIMEZONE
 70
 -8000
  9
$LIGHTGLYPHDISPLAY
280
     1
  9
$TILEMODELIGHTSYNCH
280
     1
  9
$CMATERIAL
347
3C
  9
$SOLIDHIST
280
     1
  9
$SHOWHIST
280
     1
  9
$DWFFRAME
280
     2
  9
$DGNFRAME
280
     2
  9
$REALWORLDSCALE
290
     1
  9
$INTERFERECOLOR
 62
   256
  9
$CSHADOW
280
     0
  9
$SHADOWPLANELOCATION
 40
0.0
  0
ENDSEC
  0
SECTION
  2
CLASSES
  0
CLASS
  1
ACDBDICTIONARYWDFLT
  2
AcDbDictionaryWithDefault
  3
ObjectDBX Classes
 90
        0
 91
        4
280
     0
281
     0
  0
CLASS
  1
VISUALSTYLE
  2
AcDbVisualStyle
  3
ObjectDBX Classes
 90
     4095
 91
        4
280
     0
281
     0
  0
CLASS
  1
MATERIAL
  2
AcDbMaterial
  3
ObjectDBX Classes
 90
     1153
 91
        4
280
     0
281
     0
  0
CLASS
  1
SUN
  2
AcDbSun
  3
SCENEOE
 90
     1024
 91
        4
280
     0
281
     0
  0
ENDSEC
  0
SECTION
  2
TABLES
  0
TABLE
  2
VPORT
  5
8
330
0
100
AcDbSymbolTable
 70
     1
  0
VPORT
  5
29
330
8
100
AcDbSymbolTableRecord
100
AcDbViewportTableRecord
  2
*Active
 70
     0
 10
0.0
 20
0.0
 11
1.0
 21
1.0
 12
0.0
 22
0.0
 13
0.0
 23
0.0
 14
0.5
 24
0.5
 15
0.5
 25
0.5
 16
0.0
 26
0.0
 36
1.0
 17
105.0007777515277
 27
-148.5000416295416
 37
0.0
 40
297.0000832590831
 41
0.7070757462376333
 42
50.0
 43
0.0
 44
0.0
 50
0.0
 51
0.0
 71
     0
 72
   100
 73
     1
 74
     3
 75
     0
 76
     0
 77
     0
 78
     0
281
     0
 65
     1
110
0.0
120
0.0
130
0.0
111
1.0
121
0.0
131
0.0
112
0.0
122
1.0
132
0.0
 79
     0
146
0.0
 60
     3
 61
     5
292
     1
282
     1
141
0.0
142
0.0
 63
   250
361
3F
  0
ENDTAB
  0
TABLE
  2
LTYPE
  5
5
330
0
100
AcDbSymbolTable
 70
    11
  0
LTYPE
  5
14
330
5
100
AcDbSymbolTableRecord
100
AcDbLinetypeTableRecord
  2
ByBlock
 70
     0
  3

 72
    65
 73
     0
 40
0.0
  0
LTYPE
  5
15
330
5
100
AcDbSymbolTableRecord
100
AcDbLinetypeTableRecord
  2
ByLayer
 70
     0
  3

 72
    65
 73
     0
 40
0.0
  0
LTYPE
  5
16
330
5
100
AcDbSymbolTableRecord
100
AcDbLinetypeTableRecord
  2
Continuous
 70
     0
  3
Solid line
 72
    65
 73
     0
 40
0.0
  0
LTYPE
  5
41
330
5
100
AcDbSymbolTableRecord
100
AcDbLinetypeTableRecord
  2
AI-Linetype-1
 70
     0
  3
Adobe Illustrator Linetype No. 1
 72
    65
 73
     2
 40
7.270862246391072
 49
3.635375106750391
 74
     0
 49
-3.635487139640682
 74
     0
  0
LTYPE
  5
43
330
5
100
AcDbSymbolTableRecord
100
AcDbLinetypeTableRecord
  2
AI-Linetype-2
 70
     0
  3
Adobe Illustrator Linetype No. 2
 72
    65
 73
     2
 40
7.270862246391072
 49
3.635375106750391
 74
     0
 49
-3.635487139640682
 74
     0
  0
LTYPE
  5
65
330
5
100
AcDbSymbolTableRecord
100
AcDbLinetypeTableRecord
  2
AI-Linetype-3
 70
     0
  3
Adobe Illustrator Linetype No. 3
 72
    65
 73
     2
 40
8.794680126958502
 49
4.397340063479251
 74
     0
 49
-4.397340063479251
 74
     0
  0
LTYPE
  5
6A
330
5
100
AcDbSymbolTableRecord
100
AcDbLinetypeTableRecord
  2
AI-Linetype-4
 70
     0
  3
Adobe Illustrator Linetype No. 4
 72
    65
 73
     4
 40
39.57625704941515
 49
26.3842368589774
 74
     0
 49
-4.397340063479251
 74
     0
 49
4.397340063479251
 74
     0
 49
-4.397340063479251
 74
     0
  0
LTYPE
  5
7F
330
5
100
AcDbSymbolTableRecord
100
AcDbLinetypeTableRecord
  2
AI-Linetype-5
 70
     0
  3
Adobe Illustrator Linetype No. 5
 72
    65
 73
     2
 40
8.776306060080433
 49
4.388153030040217
 74
     0
 49
-4.388153030040217
 74
     0
  0
LTYPE
  5
84
330
5
100
AcDbSymbolTableRecord
100
AcDbLinetypeTableRecord
  2
AI-Linetype-6
 70
     0
  3
Adobe Illustrator Linetype No. 6
 72
    65
 73
     4
 40
39.4935717298532
 49
26.32911263973256
 74
     0
 49
-4.388153030040217
 74
     0
 49
4.388153030040217
 74
     0
 49
-4.388153030040217
 74
     0
  0
LTYPE
  5
A0
330
5
100
AcDbSymbolTableRecord
100
AcDbLinetypeTableRecord
  2
AI-Linetype-7
 70
     0
  3
Adobe Illustrator Linetype No. 7
 72
    65
 73
     2
 40
9.58322143844926
 49
4.79161071922463
 74
     0
 49
-4.79161071922463
 74
     0
  0
LTYPE
  5
A5
330
5
100
AcDbSymbolTableRecord
100
AcDbLinetypeTableRecord
  2
AI-Linetype-8
 70
     0
  3
Adobe Illustrator Linetype No. 8
 72
    65
 73
     4
 40
43.12470842713844
 49
28.74987626946455
 74
     0
 49
-4.79161071922463
 74
     0
 49
4.79161071922463
 74
     0
 49
-4.79161071922463
 74
     0
  0
LTYPE
  5
B6
330
5
100
AcDbSymbolTableRecord
100
AcDbLinetypeTableRecord
  2
AI-Linetype-9
 70
     0
  3
Adobe Illustrator Linetype No. 9
 72
    65
 73
     2
 40
9.58322143844926
 49
4.79161071922463
 74
     0
 49
-4.79161071922463
 74
     0
  0
LTYPE
  5
BB
330
5
100
AcDbSymbolTableRecord
100
AcDbLinetypeTableRecord
  2
AI-Linetype-10
 70
     0
  3
Adobe Illustrator Linetype No. 10
 72
    65
 73
     4
 40
43.12470842713844
 49
28.74987626946455
 74
     0
 49
-4.79161071922463
 74
     0
 49
4.79161071922463
 74
     0
 49
-4.79161071922463
 74
     0
  0
ENDTAB
  0
TABLE
  2
LAYER
  5
2
330
0
100
AcDbSymbolTable
 70
     1
  0
LAYER
  5
10
330
2
100
AcDbSymbolTableRecord
100
AcDbLayerTableRecord
  2
0
 70
     0
 62
     7
  6
Continuous
370
    -3
390
F
347
3E
  0
ENDTAB
  0
TABLE
  2
STYLE
  5
3
330
0
100
AcDbSymbolTable
 70
     1
  0
STYLE
  5
11
330
3
100
AcDbSymbolTableRecord
100
AcDbTextStyleTableRecord
  2
Standard
 70
     0
 40
0.0
 41
1.0
 50
0.0
 71
     0
 42
0.2
  3
txt
  4

  0
ENDTAB
  0
TABLE
  2
VIEW
  5
6
330
0
100
AcDbSymbolTable
 70
     0
  0
ENDTAB
  0
TABLE
  2
UCS
  5
7
330
0
100
AcDbSymbolTable
 70
     0
  0
ENDTAB
  0
TABLE
  2
APPID
  5
9
330
0
100
AcDbSymbolTable
 70
     1
  0
APPID
  5
12
330
9
100
AcDbSymbolTableRecord
100
AcDbRegAppTableRecord
  2
ACAD
 70
     0
  0
ENDTAB
  0
TABLE
  2
DIMSTYLE
  5
A
330
0
100
AcDbSymbolTable
 70
     1
100
AcDbDimStyleTable
  0
DIMSTYLE
105
27
330
A
100
AcDbSymbolTableRecord
100
AcDbDimStyleTableRecord
  2
Standard
 70
     0
178
     0
340
11
  0
ENDTAB
  0
TABLE
  2
BLOCK_RECORD
  5
1
330
0
100
AcDbSymbolTable
 70
     9
  0
BLOCK_RECORD
  5
1F
330
1
100
AcDbSymbolTableRecord
100
AcDbBlockTableRecord
  2
*Model_Space
340
22
 70
     0
280
     1
281
     0
  0
BLOCK_RECORD
  5
1B
330
1
100
AcDbSymbolTableRecord
100
AcDbBlockTableRecord
  2
*Paper_Space
340
1E
 70
     0
280
     1
281
     0
  0
BLOCK_RECORD
  5
23
330
1
100
AcDbSymbolTableRecord
100
AcDbBlockTableRecord
  2
*Paper_Space0
340
26
 70
     0
280
     1
281
     0
  0
BLOCK_RECORD
  5
56
330
1
100
AcDbSymbolTableRecord
100
AcDbBlockTableRecord
  2
block 2
340
0
102
{BLKREFS
331
57
102
}
 70
     0
280
     1
281
     0
  0
BLOCK_RECORD
  5
5A
330
1
100
AcDbSymbolTableRecord
100
AcDbBlockTableRecord
  2
block 3
340
0
102
{BLKREFS
331
5B
102
}
 70
     0
280
     1
281
     0
  0
BLOCK_RECORD
  5
70
330
1
100
AcDbSymbolTableRecord
100
AcDbBlockTableRecord
  2
block 4
340
0
102
{BLKREFS
331
71
102
}
 70
     0
280
     1
281
     0
  0
BLOCK_RECORD
  5
74
330
1
100
AcDbSymbolTableRecord
100
AcDbBlockTableRecord
  2
block 5
340
0
102
{BLKREFS
331
75
102
}
 70
     0
280
     1
281
     0
  0
BLOCK_RECORD
  5
8D
330
1
100
AcDbSymbolTableRecord
100
AcDbBlockTableRecord
  2
block 6
340
0
102
{BLKREFS
331
8E
102
}
 70
     0
280
     1
281
     0
  0
BLOCK_RECORD
  5
91
330
1
100
AcDbSymbolTableRecord
100
AcDbBlockTableRecord
  2
block 7
340
0
102
{BLKREFS
331
92
102
}
 70
     0
280
     1
281
     0
  0
BLOCK_RECORD
  5
95
330
1
100
AcDbSymbolTableRecord
100
AcDbBlockTableRecord
  2
block 8
340
0
102
{BLKREFS
331
96
102
}
 70
     0
280
     1
281
     0
  0
BLOCK_RECORD
  5
AB
330
1
100
AcDbSymbolTableRecord
100
AcDbBlockTableRecord
  2
block 9
340
0
102
{BLKREFS
331
AC
102
}
 70
     0
280
     1
281
     0
  0
ENDTAB
  0
ENDSEC
  0
SECTION
  2
BLOCKS
  0
BLOCK
  5
20
330
1F
100
AcDbEntity
  8
0
100
AcDbBlockBegin
  2
*Model_Space
 70
     0
 10
0.0
 20
0.0
 30
0.0
  3
*Model_Space
  1

  0
ENDBLK
  5
21
330
1F
100
AcDbEntity
  8
0
100
AcDbBlockEnd
  0
BLOCK
  5
1C
330
1B
100
AcDbEntity
 67
     1
  8
0
100
AcDbBlockBegin
  2
*Paper_Space
 70
     0
 10
0.0
 20
0.0
 30
0.0
  3
*Paper_Space
  1

  0
ENDBLK
  5
1D
330
1B
100
AcDbEntity
 67
     1
  8
0
100
AcDbBlockEnd
  0
BLOCK
  5
24
330
23
100
AcDbEntity
  8
0
100
AcDbBlockBegin
  2
*Paper_Space0
 70
     0
 10
0.0
 20
0.0
 30
0.0
  3
*Paper_Space0
  1

  0
ENDBLK
  5
25
330
23
100
AcDbEntity
  8
0
100
AcDbBlockEnd
  0
BLOCK
  5
58
330
56
100
AcDbEntity
  8
0
100
AcDbBlockBegin
  2
block 2
 70
     0
 10
0.0
 20
0.0
 30
0.0
  3
block 2
  1

  0
INSERT
  5
5B
330
56
100
AcDbEntity
  8
0
100
AcDbBlockReference
  2
block 3
 10
0.0
 20
0.0
 30
0.0
  0
ENDBLK
  5
59
330
56
100
AcDbEntity
  8
0
100
AcDbBlockEnd
  0
BLOCK
  5
5C
330
5A
100
AcDbEntity
  8
0
100
AcDbBlockBegin
  2
block 3
 70
     0
 10
0.0
 20
0.0
 30
0.0
  3
block 3
  1

  0
POLYLINE
  5
5E
330
5A
100
AcDbEntity
  8
0
 62
     4
370
    25
100
AcDb2dPolyline
 66
     1
 10
0.0
 20
0.0
 30
0.0
  0
VERTEX
  5
5F
330
5E
100
AcDbEntity
  8
0
 62
     4
370
    25
100
AcDbVertex
100
AcDb2dVertex
 10
174.4900814044027
 20
-223.9258235795437
 30
0.0
  0
VERTEX
  5
60
330
5E
100
AcDbEntity
  8
0
 62
     4
370
    25
100
AcDbVertex
100
AcDb2dVertex
 10
163.2399929062386
 20
-223.9258235795437
 30
0.0
  0
SEQEND
  5
61
330
5E
100
AcDbEntity
  8
0
 62
     4
370
    25
  0
POLYLINE
  5
62
330
5A
100
AcDbEntity
  8
0
  6
AI-Linetype-3
 62
     4
370
    25
100
AcDb2dPolyline
 66
     1
 10
0.0
 20
0.0
 30
0.0
  0
VERTEX
  5
63
330
62
100
AcDbEntity
  8
0
  6
AI-Linetype-3
 62
     4
370
    25
100
AcDbVertex
100
AcDb2dVertex
 10
158.8426514970189
 20
-223.9258235795437
 30
0.0
  0
VERTEX
  5
64
330
62
100
AcDbEntity
  8
0
  6
AI-Linetype-3
 62
     4
370
    25
100
AcDbVertex
100
AcDb2dVertex
 10
152.2466393831894
 20
-223.9258235795437
 30
0.0
  0
SEQEND
  5
66
330
62
100
AcDbEntity
  8
0
  6
AI-Linetype-3
 62
     4
370
    25
  0
POLYLINE
  5
67
330
5A
100
AcDbEntity
  8
0
  6
AI-Linetype-4
 62
     4
370
    25
100
AcDb2dPolyline
 66
     1
 10
0.0
 20
0.0
 30
0.0
  0
VERTEX
  5
68
330
67
100
AcDbEntity
  8
0
  6
AI-Linetype-4
 62
     4
370
    25
100
AcDbVertex
100
AcDb2dVertex
 10
150.0479686785796
 20
-223.9258235795437
 30
0.0
  0
VERTEX
  5
69
330
67
100
AcDbEntity
  8
0
  6
AI-Linetype-4
 62
     4
370
    25
100
AcDbVertex
100
AcDb2dVertex
 10
73.09413335880167
 20
-223.9258235795437
 30
0.0
  0
SEQEND
  5
6B
330
67
100
AcDbEntity
  8
0
  6
AI-Linetype-4
 62
     4
370
    25
  0
POLYLINE
  5
6C
330
5A
100
AcDbEntity
  8
0
 62
     4
370
    25
100
AcDb2dPolyline
 66
     1
 10
0.0
 20
0.0
 30
0.0
  0
VERTEX
  5
6D
330
6C
100
AcDbEntity
  8
0
 62
     4
370
    25
100
AcDbVertex
100
AcDb2dVertex
 10
70.89546265419183
 20
-223.9258235795437
 30
0.0
  0
VERTEX
  5
6E
330
6C
100
AcDbEntity
  8
0
 62
     4
370
    25
100
AcDbVertex
100
AcDb2dVertex
 10
59.64537953898948
 20
-223.9258235795437
 30
0.0
  0
SEQEND
  5
6F
330
6C
100
AcDbEntity
  8
0
 62
     4
370
    25
  0
ENDBLK
  5
5D
330
5A
100
AcDbEntity
  8
0
100
AcDbBlockEnd
  0
BLOCK
  5
72
330
70
100
AcDbEntity
  8
0
100
AcDbBlockBegin
  2
block 4
 70
     0
 10
0.0
 20
0.0
 30
0.0
  3
block 4
  1

  0
INSERT
  5
75
330
70
100
AcDbEntity
  8
0
100
AcDbBlockReference
  2
block 5
 10
0.0
 20
0.0
 30
0.0
  0
ENDBLK
  5
73
330
70
100
AcDbEntity
  8
0
100
AcDbBlockEnd
  0
BLOCK
  5
76
330
74
100
AcDbEntity
  8
0
100
AcDbBlockBegin
  2
block 5
 70
     0
 10
0.0
 20
0.0
 30
0.0
  3
block 5
  1

  0
POLYLINE
  5
78
330
74
100
AcDbEntity
  8
0
 62
     4
370
    25
100
AcDb2dPolyline
 66
     1
 10
0.0
 20
0.0
 30
0.0
  0
VERTEX
  5
79
330
78
100
AcDbEntity
  8
0
 62
     4
370
    25
100
AcDbVertex
100
AcDb2dVertex
 10
117.0677250887344
 20
-167.319965659803
 30
0.0
  0
VERTEX
  5
7A
330
78
100
AcDbEntity
  8
0
 62
     4
370
    25
100
AcDbVertex
100
AcDb2dVertex
 10
117.0677250887344
 20
-178.5700541579671
 30
0.0
  0
SEQEND
  5
7B
330
78
100
AcDbEntity
  8
0
 62
     4
370
    25
  0
POLYLINE
  5
7C
330
74
100
AcDbEntity
  8
0
  6
AI-Linetype-5
 62
     4
370
    25
100
AcDb2dPolyline
 66
     1
 10
0.0
 20
0.0
 30
0.0
  0
VERTEX
  5
7D
330
7C
100
AcDbEntity
  8
0
  6
AI-Linetype-5
 62
     4
370
    25
100
AcDbVertex
100
AcDb2dVertex
 10
117.0677250887344
 20
-182.9582122345339
 30
0.0
  0
VERTEX
  5
7E
330
7C
100
AcDbEntity
  8
0
  6
AI-Linetype-5
 62
     4
370
    25
100
AcDbVertex
100
AcDb2dVertex
 10
117.0677250887344
 20
-189.540433200499
 30
0.0
  0
SEQEND
  5
80
330
7C
100
AcDbEntity
  8
0
  6
AI-Linetype-5
 62
     4
370
    25
  0
POLYLINE
  5
81
330
74
100
AcDbEntity
  8
0
  6
AI-Linetype-6
 62
     4
370
    25
100
AcDb2dPolyline
 66
     1
 10
0.0
 20
0.0
 30
0.0
  0
VERTEX
  5
82
330
81
100
AcDbEntity
  8
0
  6
AI-Linetype-6
 62
     4
370
    25
100
AcDbVertex
100
AcDb2dVertex
 10
117.0677250887344
 20
-191.7345068558207
 30
0.0
  0
VERTEX
  5
83
330
81
100
AcDbEntity
  8
0
  6
AI-Linetype-6
 62
     4
370
    25
100
AcDbVertex
100
AcDb2dVertex
 10
117.0677250887344
 20
-268.5275800245565
 30
0.0
  0
SEQEND
  5
85
330
81
100
AcDbEntity
  8
0
  6
AI-Linetype-6
 62
     4
370
    25
  0
POLYLINE
  5
86
330
74
100
AcDbEntity
  8
0
 62
     4
370
    25
100
AcDb2dPolyline
 66
     1
 10
0.0
 20
0.0
 30
0.0
  0
VERTEX
  5
87
330
86
100
AcDbEntity
  8
0
 62
     4
370
    25
100
AcDbVertex
100
AcDb2dVertex
 10
117.0677250887344
 20
-270.7216536798782
 30
0.0
  0
VERTEX
  5
88
330
86
100
AcDbEntity
  8
0
 62
     4
370
    25
100
AcDbVertex
100
AcDb2dVertex
 10
117.0677250887344
 20
-281.9717421780422
 30
0.0
  0
SEQEND
  5
89
330
86
100
AcDbEntity
  8
0
 62
     4
370
    25
  0
ENDBLK
  5
77
330
74
100
AcDbEntity
  8
0
100
AcDbBlockEnd
  0
BLOCK
  5
8F
330
8D
100
AcDbEntity
  8
0
100
AcDbBlockBegin
  2
block 6
 70
     0
 10
0.0
 20
0.0
 30
0.0
  3
block 6
  1

  0
INSERT
  5
92
330
8D
100
AcDbEntity
  8
0
100
AcDbBlockReference
  2
block 7
 10
0.0
 20
0.0
 30
0.0
  0
ENDBLK
  5
90
330
8D
100
AcDbEntity
  8
0
100
AcDbBlockEnd
  0
BLOCK
  5
93
330
91
100
AcDbEntity
  8
0
100
AcDbBlockBegin
  2
block 7
 70
     0
 10
0.0
 20
0.0
 30
0.0
  3
block 7
  1

  0
INSERT
  5
96
330
91
100
AcDbEntity
  8
0
100
AcDbBlockReference
  2
block 8
 10
0.0
 20
0.0
 30
0.0
  0
INSERT
  5
AC
330
91
100
AcDbEntity
  8
0
100
AcDbBlockReference
  2
block 9
 10
0.0
 20
0.0
 30
0.0
  0
ENDBLK
  5
94
330
91
100
AcDbEntity
  8
0
100
AcDbBlockEnd
  0
BLOCK
  5
97
330
95
100
AcDbEntity
  8
0
100
AcDbBlockBegin
  2
block 8
 70
     0
 10
0.0
 20
0.0
 30
0.0
  3
block 8
  1

  0
POLYLINE
  5
99
330
95
100
AcDbEntity
  8
0
 62
     4
370
    25
100
AcDb2dPolyline
 66
     1
 10
0.0
 20
0.0
 30
0.0
  0
VERTEX
  5
9A
330
99
100
AcDbEntity
  8
0
 62
     4
370
    25
100
AcDbVertex
100
AcDb2dVertex
 10
156.6365200074989
 20
-73.7319443412404
 30
0.0
  0
VERTEX
  5
9B
330
99
100
AcDbEntity
  8
0
 62
     4
370
    25
100
AcDbVertex
100
AcDb2dVertex
 10
145.3864422752582
 20
-73.7319443412404
 30
0.0
  0
SEQEND
  5
9C
330
99
100
AcDbEntity
  8
0
 62
     4
370
    25
  0
POLYLINE
  5
9D
330
95
100
AcDbEntity
  8
0
  6
AI-Linetype-7
 62
     4
370
    25
100
AcDb2dPolyline
 66
     1
 10
0.0
 20
0.0
 30
0.0
  0
VERTEX
  5
9E
330
9D
100
AcDbEntity
  8
0
  6
AI-Linetype-7
 62
     4
370
    25
100
AcDbVertex
100
AcDb2dVertex
 10
140.5948312195985
 20
-73.7319443412404
 30
0.0
  0
VERTEX
  5
9F
330
9D
100
AcDbEntity
  8
0
  6
AI-Linetype-7
 62
     4
370
    25
100
AcDbVertex
100
AcDb2dVertex
 10
133.4074146361089
 20
-73.7319443412404
 30
0.0
  0
SEQEND
  5
A1
330
9D
100
AcDbEntity
  8
0
  6
AI-Linetype-7
 62
     4
370
    25
  0
POLYLINE
  5
A2
330
95
100
AcDbEntity
  8
0
  6
AI-Linetype-8
 62
     4
370
    25
100
AcDb2dPolyline
 66
     1
 10
0.0
 20
0.0
 30
0.0
  0
VERTEX
  5
A3
330
A2
100
AcDbEntity
  8
0
  6
AI-Linetype-8
 62
     4
370
    25
100
AcDbVertex
100
AcDb2dVertex
 10
131.011609108279
 20
-73.7319443412404
 30
0.0
  0
VERTEX
  5
A4
330
A2
100
AcDbEntity
  8
0
  6
AI-Linetype-8
 62
     4
370
    25
100
AcDbVertex
100
AcDb2dVertex
 10
90.28270519966512
 20
-73.7319443412404
 30
0.0
  0
SEQEND
  5
A6
330
A2
100
AcDbEntity
  8
0
  6
AI-Linetype-8
 62
     4
370
    25
  0
POLYLINE
  5
A7
330
95
100
AcDbEntity
  8
0
 62
     4
370
    25
100
AcDb2dPolyline
 66
     1
 10
0.0
 20
0.0
 30
0.0
  0
VERTEX
  5
A8
330
A7
100
AcDbEntity
  8
0
 62
     4
370
    25
100
AcDbVertex
100
AcDb2dVertex
 10
87.88689967183525
 20
-73.7319443412404
 30
0.0
  0
VERTEX
  5
A9
330
A7
100
AcDbEntity
  8
0
 62
     4
370
    25
100
AcDbVertex
100
AcDb2dVertex
 10
76.6368165566329
 20
-73.7319443412404
 30
0.0
  0
SEQEND
  5
AA
330
A7
100
AcDbEntity
  8
0
 62
     4
370
    25
  0
ENDBLK
  5
98
330
95
100
AcDbEntity
  8
0
100
AcDbBlockEnd
  0
BLOCK
  5
AD
330
AB
100
AcDbEntity
  8
0
100
AcDbBlockBegin
  2
block 9
 70
     0
 10
0.0
 20
0.0
 30
0.0
  3
block 9
  1

  0
POLYLINE
  5
AF
330
AB
100
AcDbEntity
  8
0
 62
     4
370
    25
100
AcDb2dPolyline
 66
     1
 10
0.0
 20
0.0
 30
0.0
  0
VERTEX
  5
B0
330
AF
100
AcDbEntity
  8
0
 62
     4
370
    25
100
AcDbVertex
100
AcDb2dVertex
 10
116.6362376451302
 20
-113.732334362843
 30
0.0
  0
VERTEX
  5
B1
330
AF
100
AcDbEntity
  8
0
 62
     4
370
    25
100
AcDbVertex
100
AcDb2dVertex
 10
116.6362376451302
 20
-102.4822566306023
 30
0.0
  0
SEQEND
  5
B2
330
AF
100
AcDbEntity
  8
0
 62
     4
370
    25
  0
POLYLINE
  5
B3
330
AB
100
AcDbEntity
  8
0
  6
AI-Linetype-9
 62
     4
370
    25
100
AcDb2dPolyline
 66
     1
 10
0.0
 20
0.0
 30
0.0
  0
VERTEX
  5
B4
330
B3
100
AcDbEntity
  8
0
  6
AI-Linetype-9
 62
     4
370
    25
100
AcDbVertex
100
AcDb2dVertex
 10
116.6362376451302
 20
-97.69064557494258
 30
0.0
  0
VERTEX
  5
B5
330
B3
100
AcDbEntity
  8
0
  6
AI-Linetype-9
 62
     4
370
    25
100
AcDbVertex
100
AcDb2dVertex
 10
116.6362376451302
 20
-90.50322899145297
 30
0.0
  0
SEQEND
  5
B7
330
B3
100
AcDbEntity
  8
0
  6
AI-Linetype-9
 62
     4
370
    25
  0
POLYLINE
  5
B8
330
AB
100
AcDbEntity
  8
0
  6
AI-Linetype-10
 62
     4
370
    25
100
AcDb2dPolyline
 66
     1
 10
0.0
 20
0.0
 30
0.0
  0
VERTEX
  5
B9
330
B8
100
AcDbEntity
  8
0
  6
AI-Linetype-10
 62
     4
370
    25
100
AcDbVertex
100
AcDb2dVertex
 10
116.6362376451302
 20
-88.1074234636231
 30
0.0
  0
VERTEX
  5
BA
330
B8
100
AcDbEntity
  8
0
  6
AI-Linetype-10
 62
     4
370
    25
100
AcDbVertex
100
AcDb2dVertex
 10
116.6362376451302
 20
-47.37851955500921
 30
0.0
  0
SEQEND
  5
BC
330
B8
100
AcDbEntity
  8
0
  6
AI-Linetype-10
 62
     4
370
    25
  0
POLYLINE
  5
BD
330
AB
100
AcDbEntity
  8
0
 62
     4
370
    25
100
AcDb2dPolyline
 66
     1
 10
0.0
 20
0.0
 30
0.0
  0
VERTEX
  5
BE
330
BD
100
AcDbEntity
  8
0
 62
     4
370
    25
100
AcDbVertex
100
AcDb2dVertex
 10
116.6362376451302
 20
-44.98271402717935
 30
0.0
  0
VERTEX
  5
BF
330
BD
100
AcDbEntity
  8
0
 62
     4
370
    25
100
AcDbVertex
100
AcDb2dVertex
 10
116.6362376451302
 20
-33.732630911977
 30
0.0
  0
SEQEND
  5
C0
330
BD
100
AcDbEntity
  8
0
 62
     4
370
    25
  0
ENDBLK
  5
AE
330
AB
100
AcDbEntity
  8
0
100
AcDbBlockEnd
  0
ENDSEC
  0
SECTION
  2
ENTITIES
  0
SPLINE
  5
40
330
1F
100
AcDbEntity
  8
0
  6
AI-Linetype-1
 62
     6
370
    25
100
AcDbSpline
210
0.0
220
0.0
230
1.0
 70
    11
 71
     3
 72
    17
 73
    13
 74
     0
 42
0.0000000001
 43
0.0000000001
 12
1.0
 22
0.0
 32
0.0
 13
1.0
 23
0.0
 33
0.0
 40
0.0
 40
0.0
 40
0.0
 40
0.0
 40
1.0
 40
1.0
 40
1.0
 40
2.0
 40
2.0
 40
2.0
 40
3.0
 40
3.0
 40
3.0
 40
4.0
 40
4.0
 40
4.0
 40
4.0
 10
216.6690466391743
 20
-91.7131548122229
 30
0.0
 10
226.3330992035335
 20
-91.7131548122229
 30
0.0
 10
234.1707435568326
 20
-83.87868559392692
 30
0.0
 10
234.1707435568326
 20
-74.21463302957987
 30
0.0
 10
234.1707435568326
 20
-64.5474053302086
 30
0.0
 10
226.3330992035335
 20
-56.71293611192545
 30
0.0
 10
216.6690466391743
 20
-56.71293611192545
 30
0.0
 10
207.0049940748273
 20
-56.71293611192545
 30
0.0
 10
199.1673497215289
 20
-64.5474053302086
 30
0.0
 10
199.1673497215289
 20
-74.21463302957987
 30
0.0
 10
199.1673497215289
 20
-83.87868559392692
 30
0.0
 10
207.0049940748273
 20
-91.7131548122229
 30
0.0
 10
216.6690466391743
 20
-91.7131548122229
 30
0.0
  0
SPLINE
  5
42
330
1F
100
AcDbEntity
  8
0
  6
AI-Linetype-2
 62
     6
370
    25
100
AcDbSpline
210
0.0
220
0.0
230
1.0
 70
    11
 71
     3
 72
    17
 73
    13
 74
     0
 42
0.0000000001
 43
0.0000000001
 12
1.0
 22
0.0
 32
0.0
 13
1.0
 23
0.0
 33
0.0
 40
0.0
 40
0.0
 40
0.0
 40
0.0
 40
1.0
 40
1.0
 40
1.0
 40
2.0
 40
2.0
 40
2.0
 40
3.0
 40
3.0
 40
3.0
 40
4.0
 40
4.0
 40
4.0
 40
4.0
 10
16.60343084937508
 20
-90.7528957274281
 30
0.0
 10
26.26748341372854
 20
-90.7528957274281
 30
0.0
 10
34.10512776703335
 20
-82.91842650914495
 30
0.0
 10
34.10512776703335
 20
-73.25437394478443
 30
0.0
 10
34.10512776703335
 20
-63.58714624542279
 30
0.0
 10
26.26748341372854
 20
-55.75267702713964
 30
0.0
 10
16.60343084937508
 20
-55.75267702713964
 30
0.0
 10
6.939378285034783
 20
-55.75267702713964
 30
0.0
 10
-0.8982660682703559
 20
-63.58714624542279
 30
0.0
 10
-0.8982660682703559
 20
-73.25437394478443
 30
0.0
 10
-0.8982660682703559
 20
-82.91842650914495
 30
0.0
 10
6.939378285034783
 20
-90.7528957274281
 30
0.0
 10
16.60343084937508
 20
-90.7528957274281
 30
0.0
  0
SPLINE
  5
44
330
1F
100
AcDbEntity
  8
0
 62
   250
370
    25
100
AcDbSpline
210
0.0
220
0.0
230
1.0
 70
    11
 71
     3
 72
    83
 73
    79
 74
     0
 42
0.0000000001
 43
0.0000000001
 12
1.0
 22
0.0
 32
0.0
 13
1.0
 23
0.0
 33
0.0
 40
0.0
 40
0.0
 40
0.0
 40
0.0
 40
1.0
 40
1.0
 40
1.0
 40
2.0
 40
2.0
 40
2.0
 40
3.0
 40
3.0
 40
3.0
 40
4.0
 40
4.0
 40
4.0
 40
5.0
 40
5.0
 40
5.0
 40
6.0
 40
6.0
 40
6.0
 40
7.0
 40
7.0
 40
7.0
 40
8.0
 40
8.0
 40
8.0
 40
9.0
 40
9.0
 40
9.0
 40
10.0
 40
10.0
 40
10.0
 40
11.0
 40
11.0
 40
11.0
 40
12.0
 40
12.0
 40
12.0
 40
13.0
 40
13.0
 40
13.0
 40
14.0
 40
14.0
 40
14.0
 40
15.0
 40
15.0
 40
15.0
 40
16.0
 40
16.0
 40
16.0
 40
17.0
 40
17.0
 40
17.0
 40
18.0
 40
18.0
 40
18.0
 40
19.0
 40
19.0
 40
19.0
 40
20.0
 40
20.0
 40
20.0
 40
21.0
 40
21.0
 40
21.0
 40
22.0
 40
22.0
 40
22.0
 40
23.0
 40
23.0
 40
23.0
 40
24.0
 40
24.0
 40
24.0
 40
25.0
 40
25.0
 40
25.0
 40
26.0
 40
26.0
 40
26.0
 40
26.0
 10
-357.1594735092199
 20
-6.958921193777794
 30
0.0
 10
-357.162048808693
 20
-151.2709404851242
 30
0.0
 10
-357.1619429812156
 20
-295.5829123703909
 30
0.0
 10
-357.1594382506686
 20
-439.8949195336431
 30
0.0
 10
-357.1593676949047
 20
-444.4061271792676
 30
0.0
 10
-357.1594029730884
 20
-448.9173348248781
 30
0.0
 10
-357.1595793632226
 20
-453.4285416211792
 30
0.0
 10
-357.1598263093462
 20
-458.2843094716843
 30
0.0
 10
-357.021148545878
 20
-462.0716129550507
 30
0.0
 10
-355.1988641704343
 20
-466.7226273739037
 30
0.0
 10
-351.9177997890076
 20
-475.0969510092737
 30
0.0
 10
-344.5102693651058
 20
-481.8068239793056
 30
0.0
 10
-335.8172796809105
 20
-484.1771165925231
 30
0.0
 10
-331.3516158015312
 20
-485.3947362854105
 30
0.0
 10
-326.9199246227743
 20
-485.3418193063403
 30
0.0
 10
-322.4008498722775
 20
-485.3827417705157
 30
0.0
 10
-317.8898537806197
 20
-485.423628956684
 30
0.0
 10
-313.3788576889528
 20
-485.4643397529399
 30
0.0
 10
-308.8678615972921
 20
-485.5039922095835
 30
0.0
 10
-299.8459399699393
 20
-485.5832265669274
 30
0.0
 10
-290.823983064602
 20
-485.6594270174659
 30
0.0
 10
-281.8019908812742
 20
-485.7325935611842
 30
0.0
 10
-245.7139515919997
 20
-486.0251891801138
 30
0.0
 10
-209.625700634812
 20
-486.2689953441587
 30
0.0
 10
-173.537026341785
 20
-486.4640120533305
 30
0.0
 10
-101.381655941113
 20
-486.8539749156973
 30
0.0
 10
-29.22653248633257
 20
-487.0489210705198
 30
0.0
 10
42.9298962539386
 20
-487.0489210737546
 30
0.0
 10
115.0863602722003
 20
-487.0489210769894
 30
0.0
 10
187.241519004978
 20
-486.8539749286616
 30
0.0
 10
259.396924683673
 20
-486.4640120727752
 30
0.0
 10
295.489408999224
 20
-486.2689600888388
 30
0.0
 10
331.5814347009573
 20
-486.0251186500567
 30
0.0
 10
367.6732487347774
 20
-485.7324877563906
 30
0.0
 10
376.6961934237305
 20
-485.6593212134801
 30
0.0
 10
385.7191028347084
 20
-485.5831207637495
 30
0.0
 10
394.7420122456824
 20
-485.5038511292345
 30
0.0
 10
399.2534316731833
 20
-485.4642339509543
 30
0.0
 10
403.7648863786672
 20
-485.4238406569947
 30
0.0
 10
408.2763058061681
 20
-485.3826712473377
 30
0.0
 10
412.7959450044385
 20
-485.3414312817129
 30
0.0
 10
417.227706739167
 20
-485.3960416044977
 30
0.0
 10
421.6936881205262
 20
-484.1732007700593
 30
0.0
 10
430.3767646908262
 20
-481.7957467264329
 30
0.0
 10
437.7858120687406
 20
-475.0894015556838
 30
0.0
 10
441.0628547604892
 20
-466.7173357117401
 30
0.0
 10
442.8729329531369
 20
-462.0929208946033
 30
0.0
 10
443.0207829933536
 20
-458.2581685198557
 30
0.0
 10
443.0200774338439
 20
-453.4305877803027
 30
0.0
 10
443.0194424302987
 20
-448.918710702227
 30
0.0
 10
443.0190543726547
 20
-444.4067974969092
 30
0.0
 10
443.0190543728523
 20
-439.8949195695699
 30
0.0
 10
443.0194071591987
 20
-295.5829124063196
 30
0.0
 10
443.0210652310278
 20
-151.2709405210497
 30
0.0
 10
443.0182429986071
 20
-6.958921229700427
 30
0.0
 10
443.0182429986071
 20
-6.958921229700427
 30
0.0
 10
443.0163732653402
 20
-6.958921229700427
 30
0.0
 10
443.0163732653402
 20
-6.958921229700427
 30
0.0
 10
442.9919608989119
 20
-6.958921229700427
 30
0.0
 10
442.9684304821347
 20
-6.958921229700427
 30
0.0
 10
442.944864787376
 20
-6.958921229700427
 30
0.0
 10
442.8787538412942
 20
-6.958921229697219
 30
0.0
 10
442.8124312272831
 20
-6.95892122969401
 30
0.0
 10
442.7461438912748
 20
-6.958921229690802
 30
0.0
 10
442.495352687583
 20
-6.958921229681176
 30
0.0
 10
442.2446320398659
 20
-6.95892122967155
 30
0.0
 10
441.9939113921526
 20
-6.958921229658716
 30
0.0
 10
440.3457591562367
 20
-6.958921229584921
 30
0.0
 10
438.6975716423385
 20
-6.958921229511126
 30
0.0
 10
437.0494194064226
 20
-6.958921229437331
 30
0.0
 10
330.6763779872589
 20
-6.958921224659881
 30
0.0
 10
224.3033012901003
 20
-6.95892121988564
 30
0.0
 10
117.9302598709251
 20
-6.958921215108191
 30
0.0
 10
-38.44308274183891
 20
-6.958921208088003
 30
0.0
 10
-194.8164606325938
 20
-6.958921201067816
 30
0.0
 10
-351.1898032453639
 20
-6.958921194047307
 30
0.0
 10
-353.1796933333188
 20
-6.95892119395747
 30
0.0
 10
-355.1695834212676
 20
-6.958921193864423
 30
0.0
 10
-357.1594735092199
 20
-6.958921193777794
 30
0.0
  0
SPLINE
  5
45
330
1F
100
AcDbEntity
  8
0
 62
   250
370
    25
100
AcDbSpline
210
0.0
220
0.0
230
1.0
 70
     8
 71
     3
 72
    53
 73
    49
 74
     0
 42
0.0000000001
 43
0.0000000001
 12
1.0
 22
0.0
 32
0.0
 13
1.0
 23
0.0
 33
0.0
 40
0.0
 40
0.0
 40
0.0
 40
0.0
 40
1.0
 40
1.0
 40
1.0
 40
2.0
 40
2.0
 40
2.0
 40
3.0
 40
3.0
 40
3.0
 40
4.0
 40
4.0
 40
4.0
 40
5.0
 40
5.0
 40
5.0
 40
6.0
 40
6.0
 40
6.0
 40
7.0
 40
7.0
 40
7.0
 40
8.0
 40
8.0
 40
8.0
 40
9.0
 40
9.0
 40
9.0
 40
10.0
 40
10.0
 40
10.0
 40
11.0
 40
11.0
 40
11.0
 40
12.0
 40
12.0
 40
12.0
 40
13.0
 40
13.0
 40
13.0
 40
14.0
 40
14.0
 40
14.0
 40
15.0
 40
15.0
 40
15.0
 40
16.0
 40
16.0
 40
16.0
 40
16.0
 10
130.4303439826952
 20
-143.5833030668147
 30
0.0
 10
130.4311906543545
 20
-143.6451453750129
 30
0.0
 10
130.4046968867396
 20
-143.7026484910186
 30
0.0
 10
130.3693483445944
 20
-143.752319894289
 30
0.0
 10
130.3212997274301
 20
-143.8199125140834
 30
0.0
 10
130.2568468466892
 20
-143.8731117158852
 30
0.0
 10
130.188795611358
 20
-143.9204194941402
 30
0.0
 10
130.0949914461362
 20
-143.9856132109382
 30
0.0
 10
129.9942375176242
 20
-144.0396238063902
 30
0.0
 10
129.8908024621753
 20
-144.0874960324126
 30
0.0
 10
129.756252222913
 20
-144.1497969544085
 30
0.0
 10
129.6171511234333
 20
-144.2017614267184
 30
0.0
 10
129.4767094604912
 20
-144.2494219848277
 30
0.0
 10
129.0984236147823
 20
-144.3777632952591
 30
0.0
 10
128.7105774348087
 20
-144.4750599786411
 30
0.0
 10
128.3200501278982
 20
-144.5589863056068
 30
0.0
 10
127.8056970895168
 20
-144.6695122334634
 30
0.0
 10
127.2867226349492
 20
-144.7568252470041
 30
0.0
 10
126.7662665049748
 20
-144.8329551392154
 30
0.0
 10
125.4230924594973
 20
-145.0294182391732
 30
0.0
 10
124.0700405778947
 20
-145.1513742342258
 30
0.0
 10
122.7151189630367
 20
-145.2357591749546
 30
0.0
 10
121.1220709415097
 20
-145.3349961474768
 30
0.0
 10
119.5264829049849
 20
-145.3823392036453
 30
0.0
 10
117.9302598647134
 20
-145.3830800412681
 30
0.0
 10
116.3337546005527
 20
-145.38230392552
 30
0.0
 10
114.7378490621546
 20
-145.3349608692065
 30
0.0
 10
113.1445540947495
 20
-145.2356886185557
 30
0.0
 10
111.7899147037743
 20
-145.151303677705
 30
0.0
 10
110.4371097680819
 20
-145.0293829605211
 30
0.0
 10
109.0942532245027
 20
-144.8329551384222
 30
0.0
 10
108.5737618165442
 20
-144.7568252461635
 30
0.0
 10
108.054787361983
 20
-144.6695122325753
 30
0.0
 10
107.5404343236209
 20
-144.5589863046699
 30
0.0
 10
107.1499070167104
 20
-144.4750599776753
 30
0.0
 10
106.7620608367625
 20
-144.3777632942516
 30
0.0
 10
106.3838102690383
 20
-144.249386705804
 30
0.0
 10
106.2433686060962
 20
-144.2017261476851
 30
0.0
 10
106.1042322286382
 20
-144.1497969533465
 30
0.0
 10
105.9696819893951
 20
-144.0874960313378
 30
0.0
 10
105.8662469339334
 20
-144.0396238053089
 30
0.0
 10
105.7655282834184
 20
-143.9856132098441
 30
0.0
 10
105.671688840213
 20
-143.92041949304
 30
0.0
 10
105.6036376048877
 20
-143.873111714779
 30
0.0
 10
105.5392200021373
 20
-143.81991251297
 30
0.0
 10
105.4911713849858
 20
-143.7523198931725
 30
0.0
 10
105.4558228428345
 20
-143.7026484898988
 30
0.0
 10
105.4293290752257
 20
-143.6451453738899
 30
0.0
 10
105.4301757468985
 20
-143.5833030656918
 30
0.0
  0
SPLINE
  5
46
330
1F
100
AcDbEntity
  8
0
 62
   250
370
    25
100
AcDbSpline
210
0.0
220
0.0
230
1.0
 70
     8
 71
     3
 72
   134
 73
   130
 74
     0
 42
0.0000000001
 43
0.0000000001
 12
1.0
 22
0.0
 32
0.0
 13
1.0
 23
0.0
 33
0.0
 40
0.0
 40
0.0
 40
0.0
 40
0.0
 40
1.0
 40
1.0
 40
1.0
 40
2.0
 40
2.0
 40
2.0
 40
3.0
 40
3.0
 40
3.0
 40
4.0
 40
4.0
 40
4.0
 40
5.0
 40
5.0
 40
5.0
 40
6.0
 40
6.0
 40
6.0
 40
7.0
 40
7.0
 40
7.0
 40
8.0
 40
8.0
 40
8.0
 40
9.0
 40
9.0
 40
9.0
 40
10.0
 40
10.0
 40
10.0
 40
11.0
 40
11.0
 40
11.0
 40
12.0
 40
12.0
 40
12.0
 40
13.0
 40
13.0
 40
13.0
 40
14.0
 40
14.0
 40
14.0
 40
15.0
 40
15.0
 40
15.0
 40
16.0
 40
16.0
 40
16.0
 40
17.0
 40
17.0
 40
17.0
 40
18.0
 40
18.0
 40
18.0
 40
19.0
 40
19.0
 40
19.0
 40
20.0
 40
20.0
 40
20.0
 40
21.0
 40
21.0
 40
21.0
 40
22.0
 40
22.0
 40
22.0
 40
23.0
 40
23.0
 40
23.0
 40
24.0
 40
24.0
 40
24.0
 40
25.0
 40
25.0
 40
25.0
 40
26.0
 40
26.0
 40
26.0
 40
27.0
 40
27.0
 40
27.0
 40
28.0
 40
28.0
 40
28.0
 40
29.0
 40
29.0
 40
29.0
 40
30.0
 40
30.0
 40
30.0
 40
31.0
 40
31.0
 40
31.0
 40
32.0
 40
32.0
 40
32.0
 40
33.0
 40
33.0
 40
33.0
 40
34.0
 40
34.0
 40
34.0
 40
35.0
 40
35.0
 40
35.0
 40
36.0
 40
36.0
 40
36.0
 40
37.0
 40
37.0
 40
37.0
 40
38.0
 40
38.0
 40
38.0
 40
39.0
 40
39.0
 40
39.0
 40
40.0
 40
40.0
 40
40.0
 40
41.0
 40
41.0
 40
41.0
 40
42.0
 40
42.0
 40
42.0
 40
43.0
 40
43.0
 40
43.0
 40
43.0
 10
423.321908315292
 20
-15.66214152910858
 30
0.0
 10
321.5247039263739
 20
-15.66658655080043
 30
0.0
 10
219.7274642594581
 20
-15.66940878511887
 30
0.0
 10
117.9302598705401
 20
-15.67032600818848
 30
0.0
 10
-33.86724571198673
 20
-15.67163128685732
 30
0.0
 10
-185.6658415174168
 20
-16.22811038170711
 30
0.0
 10
-337.4622921550177
 20
-15.66214149495094
 30
0.0
 10
-340.5166899410677
 20
-15.65075325690245
 30
0.0
 10
-350.0648656056998
 20
-16.88118176890257
 30
0.0
 10
-351.189803246243
 20
-26.44880910189484
 30
0.0
 10
-351.1840529378642
 20
-101.3869776077116
 30
0.0
 10
-351.1784790185355
 20
-156.8352312695927
 30
0.0
 10
-351.1737517717519
 20
-231.7733626043304
 30
0.0
 10
-351.1692009147751
 20
-303.9727228298516
 30
0.0
 10
-351.1654261734957
 20
-376.1720477774073
 30
0.0
 10
-351.1611575404143
 20
-448.3714432809338
 30
0.0
 10
-351.1610517065282
 20
-450.0684554848225
 30
0.0
 10
-351.1609811506331
 20
-451.7654676887079
 30
0.0
 10
-351.1614397645278
 20
-453.4624437661586
 30
0.0
 10
-351.161616154495
 20
-454.150293940505
 30
0.0
 10
-351.161898378416
 20
-454.8381088368691
 30
0.0
 10
-351.1513149825948
 20
-455.5259590112437
 30
0.0
 10
-351.1371685101762
 20
-456.4443508252376
 30
0.0
 10
-351.1036191453778
 20
-457.3627779172028
 30
0.0
 10
-351.0271011934094
 20
-458.2779947124361
 30
0.0
 10
-350.9621544209051
 20
-459.0543926320925
 30
0.0
 10
-350.8662688545281
 20
-459.8285327606255
 30
0.0
 10
-350.7280497047439
 20
-460.5952645120757
 30
0.0
 10
-350.471755135275
 20
-462.017143744696
 30
0.0
 10
-350.06983303889
 20
-463.4136581052755
 30
0.0
 10
-349.528668731097
 20
-464.7530221282541
 30
0.0
 10
-348.9669726353468
 20
-466.1432922852894
 30
0.0
 10
-348.2552392644088
 20
-467.4719670784742
 30
0.0
 10
-347.4241604662541
 20
-468.7206666770066
 30
0.0
 10
-346.5533939336569
 20
-470.0290213501711
 30
0.0
 10
-345.5516755163942
 20
-471.2496043937442
 30
0.0
 10
-344.4438056387295
 20
-472.3640006989477
 30
0.0
 10
-343.2478819075918
 20
-473.5670153054122
 30
0.0
 10
-341.9282735569328
 20
-474.6463100143691
 30
0.0
 10
-340.5059004325569
 20
-475.5710518659426
 30
0.0
 10
-339.1467807373775
 20
-476.4546595856127
 30
0.0
 10
-337.6938568769648
 20
-477.197155360617
 30
0.0
 10
-336.1766565257399
 20
-477.7652014940093
 30
0.0
 10
-334.6720151375962
 20
-478.3285203772608
 30
0.0
 10
-333.1041908762112
 20
-478.7202118577874
 30
0.0
 10
-331.5149528772147
 20
-478.9632066265972
 30
0.0
 10
-330.7285360094953
 20
-479.0834340035099
 30
0.0
 10
-329.9368979998278
 20
-479.1672544986831
 30
0.0
 10
-329.14363720279
 20
-479.2248281721401
 30
0.0
 10
-328.2009388563363
 20
-479.2932321873762
 30
0.0
 10
-327.2559827187657
 20
-479.3245943171268
 30
0.0
 10
-326.3109207472355
 20
-479.3425508121161
 30
0.0
 10
-325.6556674321009
 20
-479.3549686632865
 30
0.0
 10
-325.0003435609909
 20
-479.3609306429788
 30
0.0
 10
-324.3450196898812
 20
-479.3668926226712
 30
0.0
 10
-317.4860972286217
 20
-479.4293346585005
 30
0.0
 10
-310.6271394893707
 20
-479.4909300226648
 30
0.0
 10
-303.7681817501267
 20
-479.5506909315444
 30
0.0
 10
-293.4616122563609
 20
-479.6404734068053
 30
0.0
 10
-283.1549722066326
 20
-479.7261283577008
 30
0.0
 10
-272.8482968789131
 20
-479.8077616181566
 30
0.0
 10
-253.6866353543977
 20
-479.9595627935076
 30
0.0
 10
-234.5248679959228
 20
-480.0975702762699
 30
0.0
 10
-215.3630300814723
 20
-480.2217487884473
 30
0.0
 10
-178.200599723366
 20
-480.4625916017044
 30
0.0
 10
-141.0378165853959
 20
-480.6514346633522
 30
0.0
 10
-103.8748570574899
 20
-480.7882779733699
 30
0.0
 10
-29.94020614630176
 20
-481.0605887519478
 30
0.0
 10
43.99522088059022
 20
-481.1271583151732
 30
0.0
 10
117.9302598496463
 20
-480.9880572190104
 30
0.0
 10
168.1641365896861
 20
-480.8935474963189
 30
0.0
 10
218.3978722177887
 20
-480.7040694348548
 30
0.0
 10
268.6310433981199
 20
-480.4195877566348
 30
0.0
 10
295.4653846909081
 20
-480.2676454713968
 30
0.0
 10
322.2995848717586
 20
-480.0885391368085
 30
0.0
 10
349.1335733846957
 20
-479.8824451427998
 30
0.0
 10
366.4221149554967
 20
-479.7496588036348
 30
0.0
 10
383.7105859703267
 20
-479.6056540648625
 30
0.0
 10
400.9989511511961
 20
-479.450078146635
 30
0.0
 10
403.7260453161614
 20
-479.425559946362
 30
0.0
 10
406.4531747591192
 20
-479.4007242442157
 30
0.0
 10
409.1802689240769
 20
-479.3761354879745
 30
0.0
 10
409.5923863585248
 20
-479.3723960214643
 30
0.0
 10
410.0045037929696
 20
-479.3686918329268
 30
0.0
 10
410.4166212274214
 20
-479.3647054205264
 30
0.0
 10
410.7060418259682
 20
-479.3619184596216
 30
0.0
 10
410.995462424508
 20
-479.3589551087986
 30
0.0
 10
411.2848830230554
 20
-479.3555331441477
 30
0.0
 10
412.0493217053931
 20
-479.3464314237515
 30
0.0
 10
412.8136545537699
 20
-479.3338019047295
 30
0.0
 10
413.5775640663197
 20
-479.3034981146548
 30
0.0
 10
414.6050354135372
 20
-479.2627520406702
 30
0.0
 10
415.6317306450829
 20
-479.1899735552453
 30
0.0
 10
416.6520405611118
 20
-479.0626200252077
 30
0.0
 10
417.6183398803245
 20
-478.9420045905418
 30
0.0
 10
418.5788888877921
 20
-478.7724585890451
 30
0.0
 10
419.5245505850964
 20
-478.5402941620883
 30
0.0
 10
421.2909546306755
 20
-478.1066571561694
 30
0.0
 10
423.0053589246515
 20
-477.4545788598653
 30
0.0
 10
424.6128709205372
 20
-476.6039560573826
 30
0.0
 10
426.3178207142236
 20
-475.7017568391182
 30
0.0
 10
427.9025431310575
 20
-474.5762126904103
 30
0.0
 10
429.3360640991681
 20
-473.2843328369082
 30
0.0
 10
430.7842607095191
 20
-471.979188460602
 30
0.0
 10
432.0781866863591
 20
-470.5042864148133
 30
0.0
 10
433.171345643916
 20
-468.8898952117214
 30
0.0
 10
434.4892606513637
 20
-466.9435734367532
 30
0.0
 10
435.5153914352157
 20
-464.7944737972524
 30
0.0
 10
436.1453151563811
 20
-462.5317790422677
 30
0.0
 10
436.4594303452961
 20
-461.4034832105879
 30
0.0
 10
436.6750141188371
 20
-460.2469297119736
 30
0.0
 10
436.8079062927964
 20
-459.0827561683396
 30
0.0
 10
436.9649991652784
 20
-457.7067030397663
 30
0.0
 10
437.0065213550696
 20
-456.3199959593647
 30
0.0
 10
437.0175280868106
 20
-454.9347705543845
 30
0.0
 10
437.021161719408
 20
-454.4795081428464
 30
0.0
 10
437.0214792213058
 20
-454.0244221212419
 30
0.0
 10
437.0215850552781
 20
-453.5692655436614
 30
0.0
 10
437.0216908892851
 20
-452.774981685034
 30
0.0
 10
437.0210911635456
 20
-451.9805214364659
 30
0.0
 10
437.0208794956658
 20
-451.1860973718527
 30
0.0
 10
437.0207383837395
 20
-450.6905122346419
 30
0.0
 10
437.0207736617499
 20
-450.194927097435
 30
0.0
 10
437.020808939761
 20
-449.6993772382104
 30
0.0
 10
437.0228903426154
 20
-412.4304788593208
 30
0.0
 10
437.024901189502
 20
-375.1616157584206
 30
0.0
 10
437.0270178703431
 20
-337.8927526575159
 30
0.0
 10
437.0285701029783
 20
-310.310765700583
 30
0.0
 10
437.030228179651
 20
-57.91723071870894
 30
0.0
 10
437.0319215242274
 20
-30.33520848379447
 30
0.0
  0
SPLINE
  5
47
330
1F
100
AcDbEntity
  8
0
 62
   250
370
    25
100
AcDbSpline
210
0.0
220
0.0
230
1.0
 70
     8
 71
     3
 72
     8
 73
     4
 74
     0
 42
0.0000000001
 43
0.0000000001
 12
1.0
 22
0.0
 32
0.0
 13
1.0
 23
0.0
 33
0.0
 40
0.0
 40
0.0
 40
0.0
 40
0.0
 40
1.0
 40
1.0
 40
1.0
 40
1.0
 10
117.9302598701935
 20
-23.37937738019557
 30
0.0
 10
219.5553782425754
 20
-23.30137775733512
 30
0.0
 10
321.1798263332334
 20
-23.06656748594758
 30
0.0
 10
422.8042391459144
 20
-22.67498184401034
 30
0.0
  0
SPLINE
  5
48
330
1F
100
AcDbEntity
  8
0
 62
   250
370
    25
100
AcDbSpline
210
0.0
220
0.0
230
1.0
 70
     8
 71
     3
 72
    38
 73
    34
 74
     0
 42
0.0000000001
 43
0.0000000001
 12
1.0
 22
0.0
 32
0.0
 13
1.0
 23
0.0
 33
0.0
 40
0.0
 40
0.0
 40
0.0
 40
0.0
 40
1.0
 40
1.0
 40
1.0
 40
2.0
 40
2.0
 40
2.0
 40
3.0
 40
3.0
 40
3.0
 40
4.0
 40
4.0
 40
4.0
 40
5.0
 40
5.0
 40
5.0
 40
6.0
 40
6.0
 40
6.0
 40
7.0
 40
7.0
 40
7.0
 40
8.0
 40
8.0
 40
8.0
 40
9.0
 40
9.0
 40
9.0
 40
10.0
 40
10.0
 40
10.0
 40
11.0
 40
11.0
 40
11.0
 40
11.0
 10
431.6766879455132
 20
-30.33520848356025
 30
0.0
 10
431.6760882143732
 20
-149.9780729160115
 30
0.0
 10
431.676194042961
 20
-269.6209258109047
 30
0.0
 10
431.6760882036305
 20
-389.2637787058056
 30
0.0
 10
431.6760882028085
 20
-407.6775111803412
 30
0.0
 10
431.6760529239972
 20
-426.091208376908
 30
0.0
 10
431.6750298615663
 20
-444.5048350174964
 30
0.0
 10
431.674924027524
 20
-446.4530970325474
 30
0.0
 10
431.6748181934747
 20
-448.4013943255839
 30
0.0
 10
431.6762293128335
 20
-450.3498327305577
 30
0.0
 10
431.6770054284808
 20
-451.4336429943287
 30
0.0
 10
431.6782754359351
 20
-452.5174523857439
 30
0.0
 10
431.6763351466466
 20
-453.6008040630702
 30
0.0
 10
431.6756648648895
 20
-453.9850166104501
 30
0.0
 10
431.6745712473084
 20
-454.3691586018721
 30
0.0
 10
431.6719959542989
 20
-454.7535122612027
 30
0.0
 10
431.6639172954127
 20
-455.9513762816289
 30
0.0
 10
431.6412335502448
 20
-457.1512158692763
 30
0.0
 10
431.5123277887251
 20
-458.3421301264297
 30
0.0
 10
431.4109035784425
 20
-459.2795367749611
 30
0.0
 10
431.2436153679799
 20
-460.2114047796562
 30
0.0
 10
430.9901783152846
 20
-461.1191779197924
 30
0.0
 10
430.7430207441376
 20
-462.0043731487755
 30
0.0
 10
430.4139124111094
 20
-462.8666376867516
 30
0.0
 10
430.0146714415808
 20
-463.695176469929
 30
0.0
 10
429.6053409680017
 20
-464.5447056549012
 30
0.0
 10
429.1222442253388
 20
-465.3587804637572
 30
0.0
 10
428.5807271375828
 20
-466.130592245171
 30
0.0
 10
427.7032225095102
 20
-467.3811968548929
 30
0.0
 10
426.7013356488222
 20
-468.5551691957144
 30
0.0
 10
425.5204676710691
 20
-469.5252164643283
 30
0.0
 10
424.6095447573594
 20
-470.2735120409706
 30
0.0
 10
423.5404129464373
 20
-471.0327090410422
 30
0.0
 10
423.3216548883549
 20
-471.1841697184891
 30
0.0
  0
SPLINE
  5
49
330
1F
100
AcDbEntity
  8
0
 62
   250
370
    25
100
AcDbSpline
210
0.0
220
0.0
230
1.0
 70
     8
 71
     3
 72
    11
 73
     7
 74
     0
 42
0.0000000001
 43
0.0000000001
 12
1.0
 22
0.0
 32
0.0
 13
1.0
 23
0.0
 33
0.0
 40
0.0
 40
0.0
 40
0.0
 40
0.0
 40
1.0
 40
1.0
 40
1.0
 40
2.0
 40
2.0
 40
2.0
 40
2.0
 10
431.6766879455132
 20
-30.33520848356025
 30
0.0
 10
431.6753826600838
 20
-28.93894106890564
 30
0.0
 10
431.3903365318778
 20
-27.70435266485891
 30
0.0
 10
430.7794629234068
 20
-26.44880913700893
 30
0.0
 10
428.7770844284464
 20
-24.19906140283302
 30
0.0
 10
425.7266675202898
 20
-22.92203358129696
 30
0.0
 10
422.8042391459144
 20
-22.67498184401034
 30
0.0
  0
SPLINE
  5
4A
330
1F
100
AcDbEntity
  8
0
 62
   250
370
    25
100
AcDbSpline
210
0.0
220
0.0
230
1.0
 70
     8
 71
     3
 72
    23
 73
    19
 74
     0
 42
0.0000000001
 43
0.0000000001
 12
1.0
 22
0.0
 32
0.0
 13
1.0
 23
0.0
 33
0.0
 40
0.0
 40
0.0
 40
0.0
 40
0.0
 40
1.0
 40
1.0
 40
1.0
 40
2.0
 40
2.0
 40
2.0
 40
3.0
 40
3.0
 40
3.0
 40
4.0
 40
4.0
 40
4.0
 40
5.0
 40
5.0
 40
5.0
 40
6.0
 40
6.0
 40
6.0
 40
6.0
 10
423.321908315292
 20
-15.66214152910858
 30
0.0
 10
423.9869689105834
 20
-15.66168291531692
 30
0.0
 10
424.6515356140647
 20
-15.71569351217422
 30
0.0
 10
425.3076003228829
 20
-15.82318553606663
 30
0.0
 10
425.9024224477061
 20
-15.92065861188677
 30
0.0
 10
426.4902595312627
 20
-16.06205278048356
 30
0.0
 10
427.0640206983331
 20
-16.24641553623754
 30
0.0
 10
428.2461507369206
 20
-16.62632416937064
 30
0.0
 10
429.3685904228907
 20
-17.18869054696429
 30
0.0
 10
430.3907700721589
 20
-17.89336832077366
 30
0.0
 10
431.5064716627637
 20
-18.6625342533049
 30
0.0
 10
432.5027925481567
 20
-19.60124618737072
 30
0.0
 10
433.3640340245028
 20
-20.64797931508344
 30
0.0
 10
434.2375522400268
 20
-21.70956447497501
 30
0.0
 10
434.9721104680257
 20
-22.88224001331454
 30
0.0
 10
435.5749054176671
 20
-24.11749869910851
 30
0.0
 10
436.55471620549
 20
-26.12622723172386
 30
0.0
 10
437.0104372307566
 20
-28.10070083973594
 30
0.0
 10
437.0101197287735
 20
-30.33563181963117
 30
0.0
  0
SPLINE
  5
4B
330
1F
100
AcDbEntity
  8
0
 62
   250
370
    25
100
AcDbSpline
210
0.0
220
0.0
230
1.0
 70
     8
 71
     3
 72
    38
 73
    34
 74
     0
 42
0.0000000001
 43
0.0000000001
 12
1.0
 22
0.0
 32
0.0
 13
1.0
 23
0.0
 33
0.0
 40
0.0
 40
0.0
 40
0.0
 40
0.0
 40
1.0
 40
1.0
 40
1.0
 40
2.0
 40
2.0
 40
2.0
 40
3.0
 40
3.0
 40
3.0
 40
4.0
 40
4.0
 40
4.0
 40
5.0
 40
5.0
 40
5.0
 40
6.0
 40
6.0
 40
6.0
 40
7.0
 40
7.0
 40
7.0
 40
8.0
 40
8.0
 40
8.0
 40
9.0
 40
9.0
 40
9.0
 40
10.0
 40
10.0
 40
10.0
 40
11.0
 40
11.0
 40
11.0
 40
11.0
 10
117.9302598648803
 20
-141.675963514127
 30
0.0
 10
118.6237545170289
 20
-141.6764221279703
 30
0.0
 10
119.3174255591008
 20
-141.6876052493356
 30
0.0
 10
120.0106027093767
 20
-141.7106064957672
 30
0.0
 10
120.6850825269749
 20
-141.7330080164498
 30
0.0
 10
121.359068452765
 20
-141.7665926584662
 30
0.0
 10
122.0324193748018
 20
-141.8108312520381
 30
0.0
 10
123.3835662451463
 20
-141.8995906630616
 30
0.0
 10
124.7322083784572
 20
-142.0312481041857
 30
0.0
 10
126.0728776869012
 20
-142.2210789430341
 30
0.0
 10
126.625472062278
 20
-142.2993255144104
 30
0.0
 10
127.176690596196
 20
-142.3874851996488
 30
0.0
 10
127.7249105012908
 20
-142.492543039837
 30
0.0
 10
128.1903329728381
 20
-142.5817257866452
 30
0.0
 10
128.6535329312532
 20
-142.6831147163557
 30
0.0
 10
129.1094303465335
 20
-142.8124085324264
 30
0.0
 10
129.2964036732356
 20
-142.8654313443127
 30
0.0
 10
129.4821422704297
 20
-142.923146128238
 30
0.0
 10
129.6638944551714
 20
-142.9918676435688
 30
0.0
 10
129.7829576584988
 20
-143.03688235279
 30
0.0
 10
129.9003627964726
 20
-143.0866595900295
 30
0.0
 10
130.0134992981175
 20
-143.1451152116428
 30
0.0
 10
130.0997539742988
 20
-143.1896713070557
 30
0.0
 10
130.1835391914571
 20
-143.2393074323477
 30
0.0
 10
130.2588224139425
 20
-143.3008322386783
 30
0.0
 10
130.3137149604253
 20
-143.3457058359553
 30
0.0
 10
130.3640566466837
 20
-143.3968941925973
 30
0.0
 10
130.3977471234809
 20
-143.4597595623704
 30
0.0
 10
141.242023682457
 20
-143.459759562858
 30
0.0
 10
152.0862649634488
 20
-143.4597595633425
 30
0.0
 10
162.9305062444535
 20
-143.4597595638302
 30
0.0
 10
167.0767985150816
 20
-143.4597595640163
 30
0.0
 10
311.0851716969873
 20
-143.4597595704814
 30
0.0
 10
315.2314286896313
 20
-143.4597595706675
 30
0.0
  0
SPLINE
  5
4C
330
1F
100
AcDbEntity
  8
0
 62
   250
370
    25
100
AcDbSpline
210
0.0
220
0.0
230
1.0
 70
     8
 71
     3
 72
    74
 73
    70
 74
     0
 42
0.0000000001
 43
0.0000000001
 12
1.0
 22
0.0
 32
0.0
 13
1.0
 23
0.0
 33
0.0
 40
0.0
 40
0.0
 40
0.0
 40
0.0
 40
1.0
 40
1.0
 40
1.0
 40
2.0
 40
2.0
 40
2.0
 40
3.0
 40
3.0
 40
3.0
 40
4.0
 40
4.0
 40
4.0
 40
5.0
 40
5.0
 40
5.0
 40
6.0
 40
6.0
 40
6.0
 40
7.0
 40
7.0
 40
7.0
 40
8.0
 40
8.0
 40
8.0
 40
9.0
 40
9.0
 40
9.0
 40
10.0
 40
10.0
 40
10.0
 40
11.0
 40
11.0
 40
11.0
 40
12.0
 40
12.0
 40
12.0
 40
13.0
 40
13.0
 40
13.0
 40
14.0
 40
14.0
 40
14.0
 40
15.0
 40
15.0
 40
15.0
 40
16.0
 40
16.0
 40
16.0
 40
17.0
 40
17.0
 40
17.0
 40
18.0
 40
18.0
 40
18.0
 40
19.0
 40
19.0
 40
19.0
 40
20.0
 40
20.0
 40
20.0
 40
21.0
 40
21.0
 40
21.0
 40
22.0
 40
22.0
 40
22.0
 40
23.0
 40
23.0
 40
23.0
 40
23.0
 10
405.2319567253252
 20
-178.9599608836203
 30
0.0
 10
405.2319567246514
 20
-193.960054390563
 30
0.0
 10
405.2319567239776
 20
-208.9601478975063
 30
0.0
 10
405.2319567233038
 20
-223.960206126468
 30
0.0
 10
405.231956721423
 20
-265.8611745285382
 30
0.0
 10
405.2319214415535
 20
-307.762107652634
 30
0.0
 10
405.2319919956487
 20
-349.6630407767233
 30
0.0
 10
405.2319919953664
 20
-355.9481666341421
 30
0.0
 10
405.2319919950841
 20
-362.2332924915653
 30
0.0
 10
405.2319214388302
 20
-368.5184536269785
 30
0.0
 10
405.2318156043541
 20
-380.0411961249042
 30
0.0
 10
405.2314628239762
 20
-391.563938622826
 30
0.0
 10
405.2310747656058
 20
-403.0867163987518
 30
0.0
 10
405.2309336534959
 20
-406.8185275155784
 30
0.0
 10
405.2307925413829
 20
-410.5503033544227
 30
0.0
 10
405.2325211625406
 20
-414.2819733593262
 30
0.0
 10
405.2327681084175
 20
-414.8711862694747
 30
0.0
 10
405.2330856102664
 20
-415.4603991796091
 30
0.0
 10
405.2319919926712
 20
-416.049682645722
 30
0.0
 10
405.2290639197387
 20
-417.6211757779906
 30
0.0
 10
405.2161168987516
 20
-419.1932333580195
 30
0.0
 10
405.1158215839937
 20
-420.7611634137719
 30
0.0
 10
405.0322833126867
 20
-422.0677541545679
 30
0.0
 10
404.8881021831453
 20
-423.3714873785551
 30
0.0
 10
404.6705428423721
 20
-424.6628380296961
 30
0.0
 10
404.4747500190738
 20
-425.8251065327156
 30
0.0
 10
404.2195137890728
 20
-426.9773208099266
 30
0.0
 10
403.9025058052883
 20
-428.112107762393
 30
0.0
 10
403.2333176855117
 20
-430.5077651867436
 30
0.0
 10
402.288925995611
 20
-432.8255640975577
 30
0.0
 10
401.1219302129847
 20
-435.0228181326594
 30
0.0
 10
399.8935154564203
 20
-437.3357486814924
 30
0.0
 10
398.4184370205679
 20
-439.5150815000522
 30
0.0
 10
396.7546566366868
 20
-441.5378858979331
 30
0.0
 10
395.0078318733575
 20
-443.6616558896761
 30
0.0
 10
393.0530081035703
 20
-445.6128812553987
 30
0.0
 10
390.9249694216952
 20
-447.3542026087089
 30
0.0
 10
389.3034167872914
 20
-448.6811134689651
 30
0.0
 10
387.5812513363373
 20
-449.8861388900683
 30
0.0
 10
385.7704675841196
 20
-450.9403509241034
 30
0.0
 10
384.0729967235022
 20
-451.9286275164263
 30
0.0
 10
382.2976320694115
 20
-452.7844009048831
 30
0.0
 10
380.4608131634312
 20
-453.4795536222982
 30
0.0
 10
378.6239942574413
 20
-454.1747063397061
 30
0.0
 10
376.725756377537
 20
-454.7092383860871
 30
0.0
 10
374.7953096962627
 20
-455.0708730222394
 30
0.0
 10
373.7657216698623
 20
-455.2637377725802
 30
0.0
 10
372.7269966450411
 20
-455.4074602882025
 30
0.0
 10
371.6846027096678
 20
-455.510718953671
 30
0.0
 10
371.0330888610497
 20
-455.5752423903481
 30
0.0
 10
370.380163892999
 20
-455.6239612892184
 30
0.0
 10
369.7263922532832
 20
-455.6592392753695
 30
0.0
 10
369.3341363250455
 20
-455.6804060670447
 30
0.0
 10
368.9415981729276
 20
-455.696704496647
 30
0.0
 10
368.5489541868458
 20
-455.7097220735279
 30
0.0
 10
368.090940092389
 20
-455.724962163532
 30
0.0
 10
367.6328201639752
 20
-455.7357219492872
 30
0.0
 10
367.1746296795816
 20
-455.7424247666414
 30
0.0
 10
366.6508926968924
 20
-455.7501153676076
 30
0.0
 10
366.127085158231
 20
-455.7525142706354
 30
0.0
 10
365.6032776195625
 20
-455.7549131736774
 30
0.0
 10
351.6582424660985
 20
-455.8184841041312
 30
0.0
 10
337.7132073126222
 20
-455.8757755530483
 30
0.0
 10
323.7681368811612
 20
-455.9278105820156
 30
0.0
 10
299.1515461890035
 20
-456.019674456903
 30
0.0
 10
274.5348849408639
 20
-456.0952751801639
 30
0.0
 10
249.9181884147467
 20
-456.1543658058964
 30
0.0
 10
205.9223063013818
 20
-456.2599175385403
 30
0.0
 10
161.9262830760656
 20
-456.3126581258886
 30
0.0
 10
117.9302598507565
 20
-456.3126581239127
 30
0.0
  0
SPLINE
  5
4D
330
1F
100
AcDbEntity
  8
0
 62
   250
370
    25
100
AcDbSpline
210
0.0
220
0.0
230
1.0
 70
     8
 71
     3
 72
    11
 73
     7
 74
     0
 42
0.0000000001
 43
0.0000000001
 12
1.0
 22
0.0
 32
0.0
 13
1.0
 23
0.0
 33
0.0
 40
0.0
 40
0.0
 40
0.0
 40
0.0
 40
1.0
 40
1.0
 40
1.0
 40
2.0
 40
2.0
 40
2.0
 40
2.0
 10
-345.1726488130023
 20
-26.44880910217077
 30
0.0
 10
-344.1403636888379
 20
-23.51612055327868
 30
0.0
 10
-339.8670513606692
 20
-22.92203354692403
 30
0.0
 10
-336.944622986261
 20
-22.6750170878885
 30
0.0
 10
-185.3198031460709
 20
-23.25982027144852
 30
0.0
 10
-33.69565358760555
 20
-23.4946305542105
 30
0.0
 10
117.9302598701935
 20
-23.37937738019557
 30
0.0
  0
SPLINE
  5
4E
330
1F
100
AcDbEntity
  8
0
 62
   250
370
    25
100
AcDbSpline
210
0.0
220
0.0
230
1.0
 70
     8
 71
     3
 72
   155
 73
   151
 74
     0
 42
0.0000000001
 43
0.0000000001
 12
1.0
 22
0.0
 32
0.0
 13
1.0
 23
0.0
 33
0.0
 40
0.0
 40
0.0
 40
0.0
 40
0.0
 40
1.0
 40
1.0
 40
1.0
 40
2.0
 40
2.0
 40
2.0
 40
3.0
 40
3.0
 40
3.0
 40
4.0
 40
4.0
 40
4.0
 40
5.0
 40
5.0
 40
5.0
 40
6.0
 40
6.0
 40
6.0
 40
7.0
 40
7.0
 40
7.0
 40
8.0
 40
8.0
 40
8.0
 40
9.0
 40
9.0
 40
9.0
 40
10.0
 40
10.0
 40
10.0
 40
11.0
 40
11.0
 40
11.0
 40
12.0
 40
12.0
 40
12.0
 40
13.0
 40
13.0
 40
13.0
 40
14.0
 40
14.0
 40
14.0
 40
15.0
 40
15.0
 40
15.0
 40
16.0
 40
16.0
 40
16.0
 40
17.0
 40
17.0
 40
17.0
 40
18.0
 40
18.0
 40
18.0
 40
19.0
 40
19.0
 40
19.0
 40
20.0
 40
20.0
 40
20.0
 40
21.0
 40
21.0
 40
21.0
 40
22.0
 40
22.0
 40
22.0
 40
23.0
 40
23.0
 40
23.0
 40
24.0
 40
24.0
 40
24.0
 40
25.0
 40
25.0
 40
25.0
 40
26.0
 40
26.0
 40
26.0
 40
27.0
 40
27.0
 40
27.0
 40
28.0
 40
28.0
 40
28.0
 40
29.0
 40
29.0
 40
29.0
 40
30.0
 40
30.0
 40
30.0
 40
31.0
 40
31.0
 40
31.0
 40
32.0
 40
32.0
 40
32.0
 40
33.0
 40
33.0
 40
33.0
 40
34.0
 40
34.0
 40
34.0
 40
35.0
 40
35.0
 40
35.0
 40
36.0
 40
36.0
 40
36.0
 40
37.0
 40
37.0
 40
37.0
 40
38.0
 40
38.0
 40
38.0
 40
39.0
 40
39.0
 40
39.0
 40
40.0
 40
40.0
 40
40.0
 40
41.0
 40
41.0
 40
41.0
 40
42.0
 40
42.0
 40
42.0
 40
43.0
 40
43.0
 40
43.0
 40
44.0
 40
44.0
 40
44.0
 40
45.0
 40
45.0
 40
45.0
 40
46.0
 40
46.0
 40
46.0
 40
47.0
 40
47.0
 40
47.0
 40
48.0
 40
48.0
 40
48.0
 40
49.0
 40
49.0
 40
49.0
 40
50.0
 40
50.0
 40
50.0
 40
50.0
 10
375.0639868513443
 20
-178.9599608822631
 30
0.0
 10
375.0639515712772
 20
-225.1840699904297
 30
0.0
 10
375.0639868451744
 20
-316.4084243414441
 30
0.0
 10
375.0637398971876
 20
-362.6325334496216
 30
0.0
 10
375.0637398971242
 20
-364.1685369286984
 30
0.0
 10
375.0637398970536
 20
-365.7045756857543
 30
0.0
 10
375.0643396227475
 20
-367.2405791648311
 30
0.0
 10
375.0648687924756
 20
-368.6854243299413
 30
0.0
 10
375.0659624099829
 20
-370.1302694950547
 30
0.0
 10
375.0617643295576
 20
-371.575185216137
 30
0.0
 10
375.0574251371951
 20
-373.0534033553228
 30
0.0
 10
375.0475473010001
 20
-374.5316920504774
 30
0.0
 10
374.9962178310527
 20
-376.0089224060731
 30
0.0
 10
374.9598815052603
 20
-377.054420777825
 30
0.0
 10
374.9028017235853
 20
-378.0993899797891
 30
0.0
 10
374.8208156836795
 20
-379.1424188925738
 30
0.0
 10
374.698365793609
 20
-380.7008238922928
 30
0.0
 10
374.5202825193455
 20
-382.2548896998154
 30
0.0
 10
374.2691385357276
 20
-383.7974196061621
 30
0.0
 10
374.0403607953509
 20
-385.2026475937891
 30
0.0
 10
373.7509049187512
 20
-386.5983152474153
 30
0.0
 10
373.3950911501686
 20
-387.9772964139992
 30
0.0
 10
372.7094987668141
 20
-390.6342578752955
 30
0.0
 10
371.777489650038
 20
-393.2292359164559
 30
0.0
 10
370.571723360606
 20
-395.6936148560993
 30
0.0
 10
369.3961903053017
 20
-398.0961867655262
 30
0.0
 10
367.9604115460402
 20
-400.3745801667619
 30
0.0
 10
366.2673857116191
 20
-402.4450098447576
 30
0.0
 10
364.6702101656325
 20
-404.3982460556734
 30
0.0
 10
362.8441157673968
 20
-406.1663786778051
 30
0.0
 10
360.831753602185
 20
-407.6880945727405
 30
0.0
 10
359.1841305360043
 20
-408.9340424567775
 30
0.0
 10
357.411658676772
 20
-410.0148540917145
 30
0.0
 10
355.5604110744397
 20
-410.9319758749463
 30
0.0
 10
353.5280110131051
 20
-411.9388448527256
 30
0.0
 10
351.4006778909906
 20
-412.7484746147867
 30
0.0
 10
349.2273422749231
 20
-413.3973073199589
 30
0.0
 10
346.753050158828
 20
-414.1359577756328
 30
0.0
 10
344.219102968121
 20
-414.6662211722529
 30
0.0
 10
341.666282054827
 20
-415.0556195736628
 30
0.0
 10
340.2323024729444
 20
-415.2743783603155
 30
0.0
 10
338.7923609114002
 20
-415.4486868855112
 30
0.0
 10
337.3484329374236
 20
-415.5862004720755
 30
0.0
 10
335.8556449526004
 20
-415.7284060306666
 30
0.0
 10
334.3585530534648
 20
-415.8313119136614
 30
0.0
 10
332.8606497606471
 20
-415.899786483021
 30
0.0
 10
332.2734829588162
 20
-415.9266330297888
 30
0.0
 10
331.6861750450474
 20
-415.9481878787659
 30
0.0
 10
331.0986554633583
 20
-415.9665324310855
 30
0.0
 10
330.7355744296829
 20
-415.9778919423285
 30
0.0
 10
330.3723875620536
 20
-415.9880167240865
 30
0.0
 10
330.0092006944307
 20
-415.9982120618167
 30
0.0
 10
328.7088894021535
 20
-416.0346542205573
 30
0.0
 10
327.4087192218276
 20
-416.0716608270552
 30
0.0
 10
326.1085137635105
 20
-416.1082793757184
 30
0.0
 10
320.6134029696167
 20
-416.2631850088301
 30
0.0
 10
315.1180452298255
 20
-416.4118817165428
 30
0.0
 10
309.6225111000988
 20
-416.554440054806
 30
0.0
 10
300.2865448398388
 20
-416.7966587013217
 30
0.0
 10
290.95015524374
 20
-417.0212736331803
 30
0.0
 10
281.6133775898113
 20
-417.2281437384447
 30
0.0
 10
263.439288010137
 20
-417.630841939582
 30
0.0
 10
245.2637167550439
 20
-417.9664414127325
 30
0.0
 10
227.0871577163466
 20
-418.2349421578853
 30
0.0
 10
190.70419446265
 20
-418.7724022619905
 30
0.0
 10
154.3172447965266
 20
-419.0412205081811
 30
0.0
 10
117.9302598524313
 20
-419.0412205065442
 30
0.0
 10
81.543274908336
 20
-419.0412205049142
 30
0.0
 10
45.15632524223157
 20
-418.7724022554503
 30
0.0
 10
8.773361988579882
 20
-418.2349421480814
 30
0.0
 10
-9.403232328082659
 20
-417.9664414013058
 30
0.0
 10
-27.57880358313757
 20
-417.6308419265221
 30
0.0
 10
-45.75285788478884
 20
-417.2281437237408
 30
0.0
 10
-55.08967081669539
 20
-417.0212736176371
 30
0.0
 10
-64.42606041276875
 20
-416.7966586849462
 30
0.0
 10
-73.76199139501838
 20
-416.5544400375937
 30
0.0
 10
-79.25749024674774
 20
-416.41188169883
 30
0.0
 10
-84.75284798652606
 20
-416.2631849906303
 30
0.0
 10
-90.24802933638237
 20
-416.1083499129966
 30
0.0
 10
-91.54823479469307
 20
-416.0716960862273
 30
0.0
 10
-92.84844025299735
 20
-416.0347247575955
 30
0.0
 10
-94.14864571130838
 20
-415.9980709308333
 30
0.0
 10
-94.51179730095284
 20
-415.9878403150894
 30
0.0
 10
-94.87494889059764
 20
-415.9776096993352
 30
0.0
 10
-95.2380652022509
 20
-415.9663207440316
 30
0.0
 10
-95.82562006192441
 20
-415.9480114696448
 30
0.0
 10
-96.413069087641
 20
-415.9268446784498
 30
0.0
 10
-97.00030644543796
 20
-415.9001745215622
 30
0.0
 10
-98.49838612818444
 20
-415.8320880098993
 30
0.0
 10
-99.99484302355462
 20
-415.7280179532525
 30
0.0
 10
-101.4876310083711
 20
-415.5857065605805
 30
0.0
 10
-102.931523704344
 20
-415.4480518619495
 30
0.0
 10
-104.3719238796991
 20
-415.2746252862496
 30
0.0
 10
-105.8060445735071
 20
-415.0561487233392
 30
0.0
 10
-108.3590771546822
 20
-414.6671736575389
 30
0.0
 10
-110.8920718397121
 20
-414.1353933073194
 30
0.0
 10
-113.3664697897024
 20
-413.3967781294127
 30
0.0
 10
-115.5399112396659
 20
-412.7479454240429
 30
0.0
 10
-117.6681263113655
 20
-411.9395503912697
 30
0.0
 10
-119.7004558166307
 20
-410.9326108573354
 30
0.0
 10
-121.5516328629162
 20
-410.0154537959519
 30
0.0
 10
-123.3232580503813
 20
-408.9335838213141
 30
0.0
 10
-124.9708105604772
 20
-407.6874595472036
 30
0.0
 10
-126.983031613602
 20
-406.1654614281865
 30
0.0
 10
-128.8102196292612
 20
-404.3984224234312
 30
0.0
 10
-130.407465731038
 20
-402.4454331582792
 30
0.0
 10
-132.100526843261
 20
-400.3752151480472
 30
0.0
 10
-133.5352472627411
 20
-398.0960103530221
 30
0.0
 10
-134.7107803178116
 20
-395.6933326095325
 30
0.0
 10
-135.9166171630087
 20
-393.2288125578356
 30
0.0
 10
-136.8497551751013
 20
-390.6343284083931
 30
0.0
 10
-137.5347831104403
 20
-387.9775080589633
 30
0.0
 10
-137.8903146550054
 20
-386.5985621703468
 30
0.0
 10
-138.1789944157883
 20
-385.2028592387102
 30
0.0
 10
-138.4081249359054
 20
-383.7975254170942
 30
0.0
 10
-138.6596569772315
 20
-382.2548896767758
 30
0.0
 10
-138.8394335946877
 20
-380.7006827572916
 30
0.0
 10
-138.9612837588478
 20
-379.142313035544
 30
0.0
 10
-139.0428464628293
 20
-378.0993194007421
 30
0.0
 10
-139.0984798469792
 20
-377.0544560327324
 30
0.0
 10
-139.1344986708007
 20
-376.0089929389729
 30
0.0
 10
-139.1853695267981
 20
-374.5317978613531
 30
0.0
 10
-139.1970112621735
 20
-373.053403332237
 30
0.0
 10
-139.2019149021746
 20
-371.5751499150613
 30
0.0
 10
-139.2066774302507
 20
-370.1302341939829
 30
0.0
 10
-139.2050193648321
 20
-368.6854243068555
 30
0.0
 10
-139.2041374151168
 20
-367.2405791417415
 30
0.0
 10
-139.2032201874048
 20
-365.7045756626646
 30
0.0
 10
-139.2032201873407
 20
-364.1685369056088
 30
0.0
 10
-139.2032554652546
 20
-362.6325334265326
 30
0.0
 10
-139.203537687064
 20
-316.4084243183551
 30
0.0
 10
-139.2034318510382
 20
-270.1843152101923
 30
0.0
 10
-139.2034671269497
 20
-223.9602061020225
 30
0.0
 10
-139.2037846287396
 20
-222.1953896104249
 30
0.0
 10
-139.2040315745639
 20
-220.4305378408368
 30
0.0
 10
-139.2056190838626
 20
-218.6657213492392
 30
0.0
 10
-139.2072065931617
 20
-216.9139929901791
 30
0.0
 10
-139.2101346659348
 20
-215.1622999091005
 30
0.0
 10
-139.2135919085044
 20
-213.4105715500436
 30
0.0
 10
-139.2196597219842
 20
-210.353240233773
 30
0.0
 10
-139.2273856008242
 20
-207.295873639508
 30
0.0
 10
-139.2383217764011
 20
-204.2385423232335
 30
0.0
 10
-139.2652388795088
 20
-196.7211211620089
 30
0.0
 10
-139.3116294309851
 20
-189.2038058347437
 30
0.0
 10
-139.3660633633098
 20
-181.686525785453
 30
0.0
 10
-139.3689561581597
 20
-181.2875670499365
 30
0.0
 10
-139.3718842309943
 20
-180.8886083144038
 30
0.0
 10
-139.3717078410399
 20
-180.4896143008903
 30
0.0
 10
-139.3714961731074
 20
-179.9797063016611
 30
0.0
 10
-139.3662750311271
 20
-179.469798302428
 30
0.0
 10
-139.3653578034661
 20
-178.9599608591684
 30
0.0
  0
SPLINE
  5
4F
330
1F
100
AcDbEntity
  8
0
 62
   250
370
    25
100
AcDbSpline
210
0.0
220
0.0
230
1.0
 70
    24
 71
     3
 72
     8
 73
     4
 74
     0
 42
0.0000000001
 43
0.0000000001
 12
1.0
 22
0.0
 32
0.0
 13
1.0
 23
0.0
 33
0.0
 40
0.0
 40
0.0
 40
0.0
 40
0.0
 40
1.0
 40
1.0
 40
1.0
 40
1.0
 10
103.242791927749
 20
-143.4597595611511
 30
0.0
 10
79.93332117918929
 20
-143.4597595601051
 30
0.0
 10
-56.52524886652552
 20
-143.4597595539769
 30
0.0
 10
-79.83471961508519
 20
-143.459759552931
 30
0.0
  0
SPLINE
  5
50
330
1F
100
AcDbEntity
  8
0
 62
   250
370
    25
100
AcDbSpline
210
0.0
220
0.0
230
1.0
 70
     8
 71
     3
 72
    68
 73
    64
 74
     0
 42
0.0000000001
 43
0.0000000001
 12
1.0
 22
0.0
 32
0.0
 13
1.0
 23
0.0
 33
0.0
 40
0.0
 40
0.0
 40
0.0
 40
0.0
 40
1.0
 40
1.0
 40
1.0
 40
2.0
 40
2.0
 40
2.0
 40
3.0
 40
3.0
 40
3.0
 40
4.0
 40
4.0
 40
4.0
 40
5.0
 40
5.0
 40
5.0
 40
6.0
 40
6.0
 40
6.0
 40
7.0
 40
7.0
 40
7.0
 40
8.0
 40
8.0
 40
8.0
 40
9.0
 40
9.0
 40
9.0
 40
10.0
 40
10.0
 40
10.0
 40
11.0
 40
11.0
 40
11.0
 40
12.0
 40
12.0
 40
12.0
 40
13.0
 40
13.0
 40
13.0
 40
14.0
 40
14.0
 40
14.0
 40
15.0
 40
15.0
 40
15.0
 40
16.0
 40
16.0
 40
16.0
 40
17.0
 40
17.0
 40
17.0
 40
18.0
 40
18.0
 40
18.0
 40
19.0
 40
19.0
 40
19.0
 40
20.0
 40
20.0
 40
20.0
 40
21.0
 40
21.0
 40
21.0
 40
21.0
 10
117.9302598507565
 20
-456.3126581239127
 30
0.0
 10
44.60337808530294
 20
-456.3126581206215
 30
0.0
 10
-28.72279812041569
 20
-456.1661486407684
 30
0.0
 10
-102.0490801600874
 20
-455.8730591283673
 30
0.0
 10
-107.4984001279203
 20
-455.8512926106493
 30
0.0
 10
-112.9476848177751
 20
-455.8287146992593
 30
0.0
 10
-118.3969695076236
 20
-455.8053253941787
 30
0.0
 10
-120.2277558779439
 20
-455.7974584031871
 30
0.0
 10
-122.0585422482648
 20
-455.7894855782239
 30
0.0
 10
-123.8893286185794
 20
-455.7814421973065
 30
0.0
 10
-124.45920920718
 20
-455.7789374602538
 30
0.0
 10
-125.0290545178025
 20
-455.7764327232125
 30
0.0
 10
-125.5989351064067
 20
-455.773822152206
 30
0.0
 10
-126.5646346998411
 20
-455.7694476818863
 30
0.0
 10
-127.5303342932883
 20
-455.7648615436335
 30
0.0
 10
-128.4959986087417
 20
-455.7612279110071
 30
0.0
 10
-129.1398924123321
 20
-455.7587937299412
 30
0.0
 10
-129.7837862159221
 20
-455.7568181626949
 30
0.0
 10
-130.4277505754818
 20
-455.7512442408365
 30
0.0
 10
-131.8442322762106
 20
-455.7390027795715
 30
0.0
 10
-133.2610314788202
 20
-455.709580939053
 30
0.0
 10
-134.6738089909984
 20
-455.6092856243015
 30
0.0
 10
-135.7259043725683
 20
-455.5346021275177
 30
0.0
 10
-136.775741963022
 20
-455.4206542321533
 30
0.0
 10
-137.8183122883179
 20
-455.2602805069743
 30
0.0
 10
-138.7138439672582
 20
-455.1225552489141
 30
0.0
 10
-139.6039781143153
 20
-454.9505750662938
 30
0.0
 10
-140.4855044327398
 20
-454.7417646661145
 30
0.0
 10
-142.3009448790574
 20
-454.3117260146061
 30
0.0
 10
-144.0796256637792
 20
-453.7254411623551
 30
0.0
 10
-145.7982985940179
 20
-452.9997377087594
 30
0.0
 10
-148.2960858488277
 20
-451.9450670340786
 30
0.0
 10
-150.6670487433309
 20
-450.5959672077072
 30
0.0
 10
-152.8773556888079
 20
-449.0245446313191
 30
0.0
 10
-155.2912871704523
 20
-447.3084117592979
 30
0.0
 10
-157.513623909198
 20
-445.3270942719342
 30
0.0
 10
-159.5084881931011
 20
-443.1377072274114
 30
0.0
 10
-161.4550921919264
 20
-441.001272438788
 30
0.0
 10
-163.1851599116297
 20
-438.666716484833
 30
0.0
 10
-164.6290526075002
 20
-436.1633553713543
 30
0.0
 10
-166.0626794094005
 20
-433.6778449184127
 30
0.0
 10
-167.2142587118514
 20
-431.0259634869001
 30
0.0
 10
-167.9990527920856
 20
-428.2664842003056
 30
0.0
 10
-168.4581252260591
 20
-426.6523047058362
 30
0.0
 10
-168.7916785852259
 20
-425.0013302727039
 30
0.0
 10
-169.0077562504435
 20
-423.3371265951207
 30
0.0
 10
-169.1261491719958
 20
-422.425120119673
 30
0.0
 10
-169.2092641073779
 20
-421.5091625098667
 30
0.0
 10
-169.2646858236085
 20
-420.5912293328891
 30
0.0
 10
-169.3319609431851
 20
-419.476762499918
 30
0.0
 10
-169.3584194327645
 20
-418.3594381501375
 30
0.0
 10
-169.3671330952992
 20
-417.2427135261072
 30
0.0
 10
-169.3715428435459
 20
-416.6823580079269
 30
0.0
 10
-169.3714370095604
 20
-416.122178879673
 30
0.0
 10
-169.3713664535562
 20
-415.5619644734325
 30
0.0
 10
-169.371154785556
 20
-413.5355969989719
 30
0.0
 10
-169.3712253414351
 20
-411.5088767446518
 30
0.0
 10
-169.3712958973206
 20
-409.4821917683243
 30
0.0
 10
-169.371366453168
 20
-406.7640582805118
 30
0.0
 10
-169.3713664530461
 20
-404.0459953486741
 30
0.0
 10
-169.3713664529174
 20
-401.3279324168337
 30
0.0
 10
-169.3715781181871
 20
-342.2053804967692
 30
0.0
 10
-169.3713311696267
 20
-283.0827932987159
 30
0.0
 10
-169.371437000936
 20
-223.9602061006685
 30
0.0
  0
SPLINE
  5
51
330
1F
100
AcDbEntity
  8
0
 62
   250
370
    25
100
AcDbSpline
210
0.0
220
0.0
230
1.0
 70
     8
 71
     3
 72
    35
 73
    31
 74
     0
 42
0.0000000001
 43
0.0000000001
 12
1.0
 22
0.0
 32
0.0
 13
1.0
 23
0.0
 33
0.0
 40
0.0
 40
0.0
 40
0.0
 40
0.0
 40
1.0
 40
1.0
 40
1.0
 40
2.0
 40
2.0
 40
2.0
 40
3.0
 40
3.0
 40
3.0
 40
4.0
 40
4.0
 40
4.0
 40
5.0
 40
5.0
 40
5.0
 40
6.0
 40
6.0
 40
6.0
 40
7.0
 40
7.0
 40
7.0
 40
8.0
 40
8.0
 40
8.0
 40
9.0
 40
9.0
 40
9.0
 40
10.0
 40
10.0
 40
10.0
 40
10.0
 10
117.9302598648803
 20
-141.675963514127
 30
0.0
 10
117.236765212731
 20
-141.6764221279093
 30
0.0
 10
116.5430941706597
 20
-141.6876052492098
 30
0.0
 10
115.849881742399
 20
-141.7106064955811
 30
0.0
 10
115.1754372027856
 20
-141.7330080162034
 30
0.0
 10
114.5014512769956
 20
-141.7665926581582
 30
0.0
 10
113.8280650769611
 20
-141.8108312516692
 30
0.0
 10
112.4769534846014
 20
-141.899590662571
 30
0.0
 10
111.1283113512648
 20
-142.0312481035732
 30
0.0
 10
109.7876420428073
 20
-142.2210789423026
 30
0.0
 10
109.2350476674242
 20
-142.2993255136307
 30
0.0
 10
108.6837938555092
 20
-142.387485198821
 30
0.0
 10
108.1356092284056
 20
-142.4925430389579
 30
0.0
 10
107.6701867568455
 20
-142.5817257857244
 30
0.0
 10
107.2069867984169
 20
-142.6831147153935
 30
0.0
 10
106.7510541051402
 20
-142.812408531419
 30
0.0
 10
106.5641160564158
 20
-142.8654313432892
 30
0.0
 10
106.3783774592275
 20
-142.9231461272023
 30
0.0
 10
106.1965899964889
 20
-142.9918676425132
 30
0.0
 10
106.0775267931614
 20
-143.0368823517216
 30
0.0
 10
105.9601569331596
 20
-143.0866595889547
 30
0.0
 10
105.8470204315147
 20
-143.145115210558
 30
0.0
 10
105.7607657553199
 20
-143.1896713059616
 30
0.0
 10
105.6769452601775
 20
-143.2393074312504
 30
0.0
 10
105.6016973156698
 20
-143.3008322375682
 30
0.0
 10
105.546804769194
 20
-143.3457058348419
 30
0.0
 10
105.4964278049316
 20
-143.3968941914807
 30
0.0
 10
105.4627373281408
 20
-143.4597595612506
 30
0.0
 10
94.61849604714894
 20
-143.4597595607629
 30
0.0
 10
-68.52663240105521
 20
-143.4597595534379
 30
0.0
 10
-79.37090896003122
 20
-143.4597595529537
 30
0.0
  0
SPLINE
  5
52
330
1F
100
AcDbEntity
  8
0
 62
   250
370
    25
100
AcDbSpline
210
0.0
220
0.0
230
1.0
 70
     8
 71
     3
 72
     8
 73
     4
 74
     0
 42
0.0000000001
 43
0.0000000001
 12
1.0
 22
0.0
 32
0.0
 13
1.0
 23
0.0
 33
0.0
 40
0.0
 40
0.0
 40
0.0
 40
0.0
 40
1.0
 40
1.0
 40
1.0
 40
1.0
 10
117.9302598493768
 20
-486.9750489740823
 30
0.0
 10
132.7080671443918
 20
-486.9473910335822
 30
0.0
 10
147.485839161422
 20
-486.9115486003089
 30
0.0
 10
162.2636111784593
 20
-486.8675216742171
 30
0.0
  0
SPLINE
  5
53
330
1F
100
AcDbEntity
  8
0
 62
   250
370
    25
100
AcDbSpline
210
0.0
220
0.0
230
1.0
 70
     8
 71
     3
 72
    56
 73
    52
 74
     0
 42
0.0000000001
 43
0.0000000001
 12
1.0
 22
0.0
 32
0.0
 13
1.0
 23
0.0
 33
0.0
 40
0.0
 40
0.0
 40
0.0
 40
0.0
 40
1.0
 40
1.0
 40
1.0
 40
2.0
 40
2.0
 40
2.0
 40
3.0
 40
3.0
 40
3.0
 40
4.0
 40
4.0
 40
4.0
 40
5.0
 40
5.0
 40
5.0
 40
6.0
 40
6.0
 40
6.0
 40
7.0
 40
7.0
 40
7.0
 40
8.0
 40
8.0
 40
8.0
 40
9.0
 40
9.0
 40
9.0
 40
10.0
 40
10.0
 40
10.0
 40
11.0
 40
11.0
 40
11.0
 40
12.0
 40
12.0
 40
12.0
 40
13.0
 40
13.0
 40
13.0
 40
14.0
 40
14.0
 40
14.0
 40
15.0
 40
15.0
 40
15.0
 40
16.0
 40
16.0
 40
16.0
 40
17.0
 40
17.0
 40
17.0
 40
17.0
 10
-169.371437000936
 20
-223.9602061006685
 30
0.0
 10
-169.371437000397
 20
-212.0606947199545
 30
0.0
 10
-169.3714722758275
 20
-155.1609380963864
 30
0.0
 10
-169.3711547734215
 20
-143.2614267156629
 30
0.0
 10
-169.3711547734026
 20
-142.7831277912473
 30
0.0
 10
-169.3711547733766
 20
-142.3047935888349
 30
0.0
 10
-169.3716839431503
 20
-141.8265299424041
 30
0.0
 10
-169.372354224862
 20
-141.2399628811584
 30
0.0
 10
-169.3738359002555
 20
-140.6533958199127
 30
0.0
 10
-169.3685442023001
 20
-140.066793480679
 30
0.0
 10
-169.3618766628787
 20
-139.3243682804756
 30
0.0
 10
-169.3442729477461
 20
-138.5818372463114
 30
0.0
 10
-169.28856900755
 20
-137.8415640032032
 30
0.0
 10
-169.2446126367533
 20
-137.2573958449635
 30
0.0
 10
-169.1769141812665
 20
-136.6746035281414
 30
0.0
 10
-169.0830747380284
 20
-136.0962209594898
 30
0.0
 10
-168.9903289123612
 20
-135.5246117640073
 30
0.0
 10
-168.8720418247048
 20
-134.957306482732
 30
0.0
 10
-168.7260615179033
 20
-134.3970567985114
 30
0.0
 10
-168.5448737808942
 20
-133.7017187823572
 30
0.0
 10
-168.3209996806264
 20
-133.0172552946865
 30
0.0
 10
-168.058813687375
 20
-132.3482082869619
 30
0.0
 10
-167.5086534929791
 20
-130.9442149933544
 30
0.0
 10
-166.7897234127339
 20
-129.6079907111998
 30
0.0
 10
-165.9411820113236
 20
-128.3613019579471
 30
0.0
 10
-165.094087007332
 20
-127.1167298838643
 30
0.0
 10
-164.117839295974
 20
-125.9613405588246
 30
0.0
 10
-163.0409434900766
 20
-124.9093862892471
 30
0.0
 10
-162.133487851763
 20
-124.0229563307734
 30
0.0
 10
-161.1545942914589
 20
-123.2099751395148
 30
0.0
 10
-160.1116359082757
 20
-122.4875878167411
 30
0.0
 10
-158.5832171573677
 20
-121.4290012857783
 30
0.0
 10
-156.9172495383996
 20
-120.565008126543
 30
0.0
 10
-155.1561019127577
 20
-119.9706798936037
 30
0.0
 10
-154.3108766420785
 20
-119.6854573754514
 30
0.0
 10
-153.4437084639919
 20
-119.4623241129579
 30
0.0
 10
-152.5658157781337
 20
-119.3040317890494
 30
0.0
 10
-151.5727051894228
 20
-119.124996009277
 30
0.0
 10
-150.5658714641048
 20
-119.0288987749874
 30
0.0
 10
-149.5575207853862
 20
-118.9894579864939
 30
0.0
 10
-148.9331357081483
 20
-118.9650103421109
 30
0.0
 10
-148.3081509051427
 20
-118.9622939372027
 30
0.0
 10
-147.6832013801271
 20
-118.9606711498677
 30
0.0
 10
-146.479975105802
 20
-118.9575666871332
 30
0.0
 10
-145.276925221406
 20
-118.958625026777
 30
0.0
 10
-144.0738753370029
 20
-118.9591894746093
 30
0.0
 10
-142.6070872279931
 20
-118.9598950344013
 30
0.0
 10
-141.1402991189833
 20
-118.9598597564685
 30
0.0
 10
-139.6734757319887
 20
-118.9598597565391
 30
0.0
 10
-119.5726083816381
 20
-118.9595422555738
 30
0.0
 10
355.4330928354551
 20
-118.9597186668297
 30
0.0
 10
375.5339601857996
 20
-118.9597186677313
 30
0.0
  0
SPLINE
  5
54
330
1F
100
AcDbEntity
  8
0
 62
   250
370
    25
100
AcDbSpline
210
0.0
220
0.0
230
1.0
 70
     8
 71
     3
 72
    89
 73
    85
 74
     0
 42
0.0000000001
 43
0.0000000001
 12
1.0
 22
0.0
 32
0.0
 13
1.0
 23
0.0
 33
0.0
 40
0.0
 40
0.0
 40
0.0
 40
0.0
 40
1.0
 40
1.0
 40
1.0
 40
2.0
 40
2.0
 40
2.0
 40
3.0
 40
3.0
 40
3.0
 40
4.0
 40
4.0
 40
4.0
 40
5.0
 40
5.0
 40
5.0
 40
6.0
 40
6.0
 40
6.0
 40
7.0
 40
7.0
 40
7.0
 40
8.0
 40
8.0
 40
8.0
 40
9.0
 40
9.0
 40
9.0
 40
10.0
 40
10.0
 40
10.0
 40
11.0
 40
11.0
 40
11.0
 40
12.0
 40
12.0
 40
12.0
 40
13.0
 40
13.0
 40
13.0
 40
14.0
 40
14.0
 40
14.0
 40
15.0
 40
15.0
 40
15.0
 40
16.0
 40
16.0
 40
16.0
 40
17.0
 40
17.0
 40
17.0
 40
18.0
 40
18.0
 40
18.0
 40
19.0
 40
19.0
 40
19.0
 40
20.0
 40
20.0
 40
20.0
 40
21.0
 40
21.0
 40
21.0
 40
22.0
 40
22.0
 40
22.0
 40
23.0
 40
23.0
 40
23.0
 40
24.0
 40
24.0
 40
24.0
 40
25.0
 40
25.0
 40
25.0
 40
26.0
 40
26.0
 40
26.0
 40
27.0
 40
27.0
 40
27.0
 40
28.0
 40
28.0
 40
28.0
 40
28.0
 10
423.4174410813997
 20
-471.1150894669952
 30
0.0
 10
422.6072115729902
 20
-471.7059251793397
 30
0.0
 10
421.7452998148376
 20
-472.2275102048401
 30
0.0
 10
420.8405253034923
 20
-472.6604416510793
 30
0.0
 10
420.0165726584728
 20
-473.0547437024854
 30
0.0
 10
419.1570598033897
 20
-473.3754911527164
 30
0.0
 10
418.2763448786211
 20
-473.6166867441249
 30
0.0
 10
417.3576002847652
 20
-473.8683246194401
 30
0.0
 10
416.4157838879562
 20
-474.0333550387055
 30
0.0
 10
415.46874634919
 20
-474.1385187154341
 30
0.0
 10
414.247704691839
 20
-474.2741272942272
 30
0.0
 10
413.0179493719156
 20
-474.3101813960399
 30
0.0
 10
411.7891818355944
 20
-474.3248923162023
 30
0.0
 10
411.3421039168538
 20
-474.330254570089
 30
0.0
 10
410.8951318320676
 20
-474.3327593070886
 30
0.0
 10
410.4481950252642
 20
-474.3352640440913
 30
0.0
 10
406.3730584527448
 20
-474.3580183449843
 30
0.0
 10
402.2973221544544
 20
-474.3788323566415
 30
0.0
 10
398.2216564121432
 20
-474.3993994223942
 30
0.0
 10
390.7776132722402
 20
-474.4369351993505
 30
0.0
 10
383.3338876342278
 20
-474.4736243046314
 30
0.0
 10
375.8900914402292
 20
-474.5086200665816
 30
0.0
 10
362.4841744714214
 20
-474.5716971052574
 30
0.0
 10
349.0780105567137
 20
-474.6294118900227
 30
0.0
 10
335.6718819199908
 20
-474.6823288686836
 30
0.0
 10
309.7434440340764
 20
-474.7846350274071
 30
0.0
 10
283.8151472601126
 20
-474.8690199691658
 30
0.0
 10
257.8867446521894
 20
-474.935025080133
 30
0.0
 10
206.029868880374
 20
-475.067035302056
 30
0.0
 10
154.172710884663
 20
-475.1254909228039
 30
0.0
 10
102.3155881669496
 20
-475.1107447222498
 30
0.0
 10
-33.07934718947212
 20
-475.0722211552774
 30
0.0
 10
-168.4739650440015
 20
-474.5344788059914
 30
0.0
 10
-303.864913987932
 20
-473.4975176744155
 30
0.0
 10
-310.9622098017517
 20
-473.4431542974081
 30
0.0
 10
-318.0595056155715
 20
-473.3874503569222
 30
0.0
 10
-325.1567661514001
 20
-473.3286419536589
 30
0.0
 10
-325.4360972459021
 20
-473.3263136065679
 30
0.0
 10
-325.7154283404042
 20
-473.3239852594627
 30
0.0
 10
-325.994759434906
 20
-473.3201046809673
 30
0.0
 10
-326.9254632660629
 20
-473.3071223820191
 30
0.0
 10
-327.8560965412506
 20
-473.2766774799052
 30
0.0
 10
-328.7840486894796
 20
-473.2048515000322
 30
0.0
 10
-329.0750215194174
 20
-473.1823441448396
 30
0.0
 10
-329.3657121254637
 20
-473.1557445432505
 30
0.0
 10
-329.6557677277636
 20
-473.1232887959683
 30
0.0
 10
-330.2754255548423
 20
-473.0539322751159
 30
0.0
 10
-330.8920847531112
 20
-472.9577292068039
 30
0.0
 10
-331.5019705780246
 20
-472.8283648314891
 30
0.0
 10
-331.9266822535277
 20
-472.7383001327748
 30
0.0
 10
-332.3480777983318
 20
-472.6321486723669
 30
0.0
 10
-332.764216923197
 20
-472.5081818289447
 30
0.0
 10
-333.1898811043389
 20
-472.3813927466252
 30
0.0
 10
-333.6100771976094
 20
-472.2359768876195
 30
0.0
 10
-334.0229354697533
 20
-472.0722164757826
 30
0.0
 10
-334.8400441854282
 20
-471.7481881727776
 30
0.0
 10
-335.6286835662603
 20
-471.3523338899248
 30
0.0
 10
-336.3800693936954
 20
-470.8965775865387
 30
0.0
 10
-337.7218675976689
 20
-470.0826791675309
 30
0.0
 10
-338.9449906561503
 20
-469.0776446194633
 30
0.0
 10
-340.0299298428001
 20
-467.9422579124856
 30
0.0
 10
-341.1695499080056
 20
-466.7496150339487
 30
0.0
 10
-342.1566985169816
 20
-465.4131790838044
 30
0.0
 10
-342.9490068083286
 20
-463.9672402645902
 30
0.0
 10
-343.6931959265335
 20
-462.609178908918
 30
0.0
 10
-344.2655106961217
 20
-461.1544911491387
 30
0.0
 10
-344.6215714104798
 20
-459.6476272478209
 30
0.0
 10
-344.7974321715035
 20
-458.903367573567
 30
0.0
 10
-344.9205170652171
 20
-458.1463725463155
 30
0.0
 10
-345.0028206069238
 20
-457.3858497204415
 30
0.0
 10
-345.1001172927378
 20
-456.4869666327959
 30
0.0
 10
-345.1403694749194
 20
-455.5831799050882
 30
0.0
 10
-345.1586434717186
 20
-454.6792167874439
 30
0.0
 10
-345.1745538434417
 20
-453.8913535222905
 30
0.0
 10
-345.1737777277125
 20
-453.1033844231686
 30
0.0
 10
-345.1731780019121
 20
-452.315380046078
 30
0.0
 10
-345.171167156578
 20
-449.5518799466428
 30
0.0
 10
-345.1718374381934
 20
-446.7884495257353
 30
0.0
 10
-345.1722254959141
 20
-444.0250191048252
 30
0.0
 10
-345.1729310554302
 20
-439.4099883485334
 30
0.0
 10
-345.1728957772403
 20
-434.7949575922306
 30
0.0
 10
-345.1728957770286
 20
-430.1799268359317
 30
0.0
 10
-345.1726488247909
 20
-289.1062623314276
 30
0.0
 10
-345.1726840973207
 20
-167.5224857347733
 30
0.0
 10
-345.1726488130023
 20
-26.44880910217077
 30
0.0
  0
SPLINE
  5
55
330
1F
100
AcDbEntity
  8
0
 62
   250
370
    25
100
AcDbSpline
210
0.0
220
0.0
230
1.0
 70
     8
 71
     3
 72
    50
 73
    46
 74
     0
 42
0.0000000001
 43
0.0000000001
 12
1.0
 22
0.0
 32
0.0
 13
1.0
 23
0.0
 33
0.0
 40
0.0
 40
0.0
 40
0.0
 40
0.0
 40
1.0
 40
1.0
 40
1.0
 40
2.0
 40
2.0
 40
2.0
 40
3.0
 40
3.0
 40
3.0
 40
4.0
 40
4.0
 40
4.0
 40
5.0
 40
5.0
 40
5.0
 40
6.0
 40
6.0
 40
6.0
 40
7.0
 40
7.0
 40
7.0
 40
8.0
 40
8.0
 40
8.0
 40
9.0
 40
9.0
 40
9.0
 40
10.0
 40
10.0
 40
10.0
 40
11.0
 40
11.0
 40
11.0
 40
12.0
 40
12.0
 40
12.0
 40
13.0
 40
13.0
 40
13.0
 40
14.0
 40
14.0
 40
14.0
 40
15.0
 40
15.0
 40
15.0
 40
15.0
 10
375.5339601857996
 20
-118.9597186677313
 30
0.0
 10
377.0007835727984
 20
-118.9597186677987
 30
0.0
 10
378.4676069597933
 20
-118.9597539458508
 30
0.0
 10
379.9343950688021
 20
-118.9592600541094
 30
0.0
 10
381.1374802311855
 20
-118.9588367183272
 30
0.0
 10
382.3405653935714
 20
-118.9580958806723
 30
0.0
 10
383.543685833944
 20
-118.9608475636456
 30
0.0
 10
384.1686000809762
 20
-118.9622586831244
 30
0.0
 10
384.7934790500217
 20
-118.9646575862177
 30
0.0
 10
385.4179346832266
 20
-118.988999396695
 30
0.0
 10
386.4263559179159
 20
-119.0283696293095
 30
0.0
 10
387.4335424230961
 20
-119.125066589445
 30
0.0
 10
388.4265824558062
 20
-119.304278759239
 30
0.0
 10
389.3044045856849
 20
-119.4626769171906
 30
0.0
 10
390.1711847058968
 20
-119.6855279558665
 30
0.0
 10
391.0163394205737
 20
-119.9706799181263
 30
0.0
 10
392.7772401002659
 20
-120.5647964833096
 30
0.0
 10
394.4442660587417
 20
-121.4293188124854
 30
0.0
 10
395.9726142535727
 20
-122.4877995096235
 30
0.0
 10
397.0155373587133
 20
-123.2101162765178
 30
0.0
 10
397.993901749149
 20
-124.0227094100171
 30
0.0
 10
398.9011457194647
 20
-124.9091393685749
 30
0.0
 10
399.97779457937
 20
-125.9610583602639
 30
0.0
 10
400.9543245145063
 20
-127.1169062992107
 30
0.0
 10
401.8017722982534
 20
-128.3614783733712
 30
0.0
 10
402.650666479423
 20
-129.6081671266973
 30
0.0
 10
403.370090451344
 20
-130.9438975171144
 30
0.0
 10
403.9191923060245
 20
-132.3480319227111
 30
0.0
 10
404.3917409307351
 20
-133.5563735050563
 30
0.0
 10
404.7381707548726
 20
-134.8153478957186
 30
0.0
 10
404.9454289235736
 20
-136.0962562632452
 30
0.0
 10
405.0389861428711
 20
-136.6745682759407
 30
0.0
 10
405.1041798612842
 20
-137.2573605927628
 30
0.0
 10
405.1476423402227
 20
-137.8415640289937
 30
0.0
 10
405.2027112766089
 20
-138.5818372721051
 30
0.0
 10
405.222855006675
 20
-139.3243683062719
 30
0.0
 10
405.2300869938043
 20
-140.0668287844697
 30
0.0
 10
405.2358020275351
 20
-140.6534311237002
 30
0.0
 10
405.2334384024298
 20
-141.2399629069579
 30
0.0
 10
405.2323800628284
 20
-141.8265299682036
 30
0.0
 10
405.2315333911415
 20
-142.304793614635
 30
0.0
 10
405.2315686690993
 20
-142.7830925390595
 30
0.0
 10
405.231568669082
 20
-143.2613914634814
 30
0.0
 10
405.2320625603589
 20
-155.1609381221859
 30
0.0
 10
405.2318861698824
 20
-167.0604495029031
 30
0.0
 10
405.2319567253252
 20
-178.9599608836203
 30
0.0
  0
INSERT
  5
57
330
1F
100
AcDbEntity
  8
0
100
AcDbBlockReference
  2
block 2
 10
0.0
 20
0.0
 30
0.0
  0
INSERT
  5
71
330
1F
100
AcDbEntity
  8
0
100
AcDbBlockReference
  2
block 4
 10
0.0
 20
0.0
 30
0.0
  0
SPLINE
  5
8A
330
1F
100
AcDbEntity
  8
0
 62
   250
370
    25
100
AcDbSpline
210
0.0
220
0.0
230
1.0
 70
    11
 71
     3
 72
    17
 73
    13
 74
     0
 42
0.0000000001
 43
0.0000000001
 12
1.0
 22
0.0
 32
0.0
 13
1.0
 23
0.0
 33
0.0
 40
0.0
 40
0.0
 40
0.0
 40
0.0
 40
1.0
 40
1.0
 40
1.0
 40
2.0
 40
2.0
 40
2.0
 40
3.0
 40
3.0
 40
3.0
 40
4.0
 40
4.0
 40
4.0
 40
4.0
 10
91.29739153030084
 20
-223.9258250940792
 30
0.0
 10
91.29739153094255
 20
-209.6845726413186
 30
0.0
 10
102.8406867233596
 20
-198.1597949538797
 30
0.0
 10
117.0664361495612
 20
-198.1597949545188
 30
0.0
 10
131.3007983682965
 20
-198.1597949551567
 30
0.0
 10
142.8514144333391
 20
-209.6845726436352
 30
0.0
 10
142.8514144326974
 20
-223.9258250963958
 30
0.0
 10
142.8514144320557
 20
-238.17052266617
 30
0.0
 10
131.3007983659864
 20
-249.7021905876348
 30
0.0
 10
117.0664361472511
 20
-249.7021905869964
 30
0.0
 10
102.8406867210495
 20
-249.7021905863579
 30
0.0
 10
91.29739152965915
 20
-238.1705226638535
 30
0.0
 10
91.29739153030084
 20
-223.9258250940792
 30
0.0
  0
SPLINE
  5
8B
330
1F
100
AcDbEntity
  8
0
 62
   250
370
    25
100
AcDbSpline
210
0.0
220
0.0
230
1.0
 70
    11
 71
     3
 72
    17
 73
    13
 74
     0
 42
0.0000000001
 43
0.0000000001
 12
1.0
 22
0.0
 32
0.0
 13
1.0
 23
0.0
 33
0.0
 40
0.0
 40
0.0
 40
0.0
 40
0.0
 40
1.0
 40
1.0
 40
1.0
 40
2.0
 40
2.0
 40
2.0
 40
3.0
 40
3.0
 40
3.0
 40
4.0
 40
4.0
 40
4.0
 40
4.0
 10
80.11583362476918
 20
-223.9258250935787
 30
0.0
 10
80.1158336256804
 20
-203.507477836391
 30
0.0
 10
96.65842424391363
 20
-186.9812515254588
 30
0.0
 10
117.060407195289
 20
-186.9812515263732
 30
0.0
 10
137.4623901466651
 20
-186.9812515272909
 30
0.0
 10
154.0187612314615
 20
-203.5074778397086
 30
0.0
 10
154.0187612305503
 20
-223.9258250968963
 30
0.0
 10
154.0187612296326
 20
-244.3450336333379
 30
0.0
 10
137.4623901433475
 20
-260.8747050612831
 30
0.0
 10
117.0604071919715
 20
-260.8747050603719
 30
0.0
 10
96.65842424059603
 20
-260.8747050594542
 30
0.0
 10
80.11583362385154
 20
-244.3450336300203
 30
0.0
 10
80.11583362476918
 20
-223.9258250935787
 30
0.0
  0
SPLINE
  5
8C
330
1F
100
AcDbEntity
  8
0
 62
   250
370
    25
100
AcDbSpline
210
0.0
220
0.0
230
1.0
 70
    11
 71
     3
 72
    20
 73
    16
 74
     0
 42
0.0000000001
 43
0.0000000001
 12
1.0
 22
0.0
 32
0.0
 13
1.0
 23
0.0
 33
0.0
 40
0.0
 40
0.0
 40
0.0
 40
0.0
 40
1.0
 40
1.0
 40
1.0
 40
2.0
 40
2.0
 40
2.0
 40
3.0
 40
3.0
 40
3.0
 40
4.0
 40
4.0
 40
4.0
 40
5.0
 40
5.0
 40
5.0
 40
5.0
 10
134.136894872919
 20
-73.73194698131122
 30
0.0
 10
134.136894873349
 20
-64.06817843984734
 30
0.0
 10
126.3018375067372
 20
-56.23312107252652
 30
0.0
 10
116.6362387468607
 20
-56.23312107209658
 30
0.0
 10
106.9715012662382
 20
-56.23312107166375
 30
0.0
 10
99.13644389891991
 20
-64.06817843827518
 30
0.0
 10
99.13644389849028
 20
-73.73194697973874
 30
0.0
 10
99.13644389805361
 20
-83.39765339952096
 30
0.0
 10
106.971501264666
 20
-91.23271076683922
 30
0.0
 10
116.6362387452886
 20
-91.23271076726917
 30
0.0
 10
126.301837505165
 20
-91.23271076770551
 30
0.0
 10
134.1368948724827
 20
-83.39765340109312
 30
0.0
 10
134.136894872919
 20
-73.73194698131122
 30
0.0
 10
134.136894872919
 20
-73.73194698131122
 30
0.0
 10
134.136894872919
 20
-73.73194698131122
 30
0.0
 10
134.136894872919
 20
-73.73194698131122
 30
0.0
  0
INSERT
  5
8E
330
1F
100
AcDbEntity
  8
0
100
AcDbBlockReference
  2
block 6
 10
0.0
 20
0.0
 30
0.0
  0
ENDSEC
  0
SECTION
  2
OBJECTS
  0
DICTIONARY
  5
C
330
0
100
AcDbDictionary
281
     1
  3
ACAD_GROUP
350
D
  3
ACAD_LAYOUT
350
1A
  3
ACAD_MATERIAL
350
3B
  3
ACAD_MLEADERSTYLE
350
E2
  3
ACAD_MLINESTYLE
350
17
  3
ACAD_PLOTSETTINGS
350
19
  3
ACAD_PLOTSTYLENAME
350
E
  3
ACAD_TABLESTYLE
350
E1
  3
ACAD_VISUALSTYLE
350
2A
  0
SUN
  5
3F
330
29
100
AcDbSun
 90
        1
290
     0
 63
     7
421
 16777215
 40
1.0
291
     1
 91
  2455826
 92
 54000000
292
     0
 70
     2
 71
   256
280
     1
  0
DICTIONARY
  5
D
102
{ACAD_REACTORS
330
C
102
}
330
C
100
AcDbDictionary
281
     1
  0
DICTIONARY
  5
1A
102
{ACAD_REACTORS
330
C
102
}
330
C
100
AcDbDictionary
281
     1
  3
Layout1
350
1E
  3
Layout2
350
26
  3
Model
350
22
  0
DICTIONARY
  5
3B
102
{ACAD_REACTORS
330
C
102
}
330
C
100
AcDbDictionary
281
     1
  3
ByBlock
350
3D
  3
ByLayer
350
3C
  3
Global
350
3E
  0
DICTIONARY
  5
E2
102
{ACAD_REACTORS
330
C
102
}
330
C
100
AcDbDictionary
281
     1
  0
DICTIONARY
  5
17
102
{ACAD_REACTORS
330
C
102
}
330
C
100
AcDbDictionary
281
     1
  3
Standard
350
18
  0
DICTIONARY
  5
19
102
{ACAD_REACTORS
330
C
102
}
330
C
100
AcDbDictionary
281
     1
  0
ACDBDICTIONARYWDFLT
  5
E
102
{ACAD_REACTORS
330
C
102
}
330
C
100
AcDbDictionary
281
     1
  3
Normal
350
F
100
AcDbDictionaryWithDefault
340
F
  0
DICTIONARY
  5
E1
102
{ACAD_REACTORS
330
C
102
}
330
C
100
AcDbDictionary
281
     1
  0
DICTIONARY
  5
2A
102
{ACAD_REACTORS
330
C
102
}
330
C
100
AcDbDictionary
281
     1
  3
2dWireframe
350
2F
  3
3D Hidden
350
31
  3
3dWireframe
350
30
  3
Basic
350
32
  3
Brighten
350
36
  3
ColorChange
350
3A
  3
Conceptual
350
34
  3
Dim
350
35
  3
Facepattern
350
39
  3
Flat
350
2B
  3
FlatWithEdges
350
2C
  3
Gouraud
350
2D
  3
GouraudWithEdges
350
2E
  3
Linepattern
350
38
  3
Realistic
350
33
  3
Thicken
350
37
  0
LAYOUT
  5
1E
102
{ACAD_REACTORS
330
1A
102
}
330
1A
100
AcDbPlotSettings
  1

  2
none_device
  4

  6

 40
0.0
 41
0.0
 42
0.0
 43
0.0
 44
0.0
 45
0.0
 46
0.0
 47
0.0
 48
0.0
 49
0.0
140
0.0
141
0.0
142
1.0
143
1.0
 70
   688
 72
     0
 73
     0
 74
     5
  7

 75
    16
 76
     0
 77
     2
 78
   300
147
1.0
148
0.0
149
0.0
100
AcDbLayout
  1
Layout1
 70
     1
 71
     1
 10
0.0
 20
0.0
 11
12.0
 21
9.0
 12
0.0
 22
0.0
 32
0.0
 14
1.000000000000000E+20
 24
1.000000000000000E+20
 34
1.000000000000000E+20
 15
-1.000000000000000E+20
 25
-1.000000000000000E+20
 35
-1.000000000000000E+20
146
0.0
 13
0.0
 23
0.0
 33
0.0
 16
1.0
 26
0.0
 36
0.0
 17
0.0
 27
1.0
 37
0.0
 76
     0
330
1B
  0
LAYOUT
  5
26
102
{ACAD_REACTORS
330
1A
102
}
330
1A
100
AcDbPlotSettings
  1

  2
none_device
  4

  6

 40
0.0
 41
0.0
 42
0.0
 43
0.0
 44
0.0
 45
0.0
 46
0.0
 47
0.0
 48
0.0
 49
0.0
140
0.0
141
0.0
142
1.0
143
1.0
 70
   688
 72
     0
 73
     0
 74
     5
  7

 75
    16
 76
     0
 77
     2
 78
   300
147
1.0
148
0.0
149
0.0
100
AcDbLayout
  1
Layout2
 70
     1
 71
     2
 10
0.0
 20
0.0
 11
0.0
 21
0.0
 12
0.0
 22
0.0
 32
0.0
 14
0.0
 24
0.0
 34
0.0
 15
0.0
 25
0.0
 35
0.0
146
0.0
 13
0.0
 23
0.0
 33
0.0
 16
1.0
 26
0.0
 36
0.0
 17
0.0
 27
1.0
 37
0.0
 76
     0
330
23
  0
LAYOUT
  5
22
102
{ACAD_REACTORS
330
1A
102
}
330
1A
100
AcDbPlotSettings
  1

  2
none_device
  4

  6

 40
0.0
 41
0.0
 42
0.0
 43
0.0
 44
0.0
 45
0.0
 46
0.0
 47
0.0
 48
0.0
 49
0.0
140
0.0
141
0.0
142
1.0
143
1.0
 70
  1712
 72
     0
 73
     0
 74
     0
  7

 75
     0
 76
     0
 77
     2
 78
   300
147
1.0
148
0.0
149
0.0
100
AcDbLayout
  1
Model
 70
     1
 71
     0
 10
0.0
 20
0.0
 11
12.0
 21
9.0
 12
0.0
 22
0.0
 32
0.0
 14
1.000000000000000E+20
 24
1.000000000000000E+20
 34
1.000000000000000E+20
 15
-1.000000000000000E+20
 25
-1.000000000000000E+20
 35
-1.000000000000000E+20
146
0.0
 13
0.0
 23
0.0
 33
0.0
 16
1.0
 26
0.0
 36
0.0
 17
0.0
 27
1.0
 37
0.0
 76
     0
330
1F
331
29
  0
MATERIAL
  5
3D
102
{ACAD_REACTORS
330
3B
102
}
330
3B
100
AcDbMaterial
  1
ByBlock
 72
     1
 94
      127
  0
MATERIAL
  5
3C
102
{ACAD_REACTORS
330
3B
102
}
330
3B
100
AcDbMaterial
  1
ByLayer
 72
     1
 94
      127
  0
MATERIAL
  5
3E
102
{ACAD_REACTORS
330
3B
102
}
330
3B
100
AcDbMaterial
  1
Global
 72
     1
 94
      127
  0
MLINESTYLE
  5
18
102
{ACAD_REACTORS
330
17
102
}
330
17
100
AcDbMlineStyle
  2
Standard
 70
     0
  3

 62
   256
 51
90.0
 52
90.0
 71
     2
 49
0.5
 62
   256
  6
BYLAYER
 49
-0.5
 62
   256
  6
BYLAYER
  0
ACDBPLACEHOLDER
  5
F
102
{ACAD_REACTORS
330
E
102
}
330
E
  0
VISUALSTYLE
  5
2F
102
{ACAD_REACTORS
330
2A
102
}
102
{ACAD_XDICTIONARY
360
C9
102
}
330
2A
100
AcDbVisualStyle
  2
2dWireframe
 70
     4
 71
     0
 72
     2
 73
     0
 90
        0
 40
-0.6
 41
-30.0
 62
     5
 63
     7
421
 16777215
 74
     1
 91
        4
 64
     7
 65
   257
 75
     1
175
     1
 42
1.0
 92
        0
 66
   257
 43
1.0
 76
     1
 77
     6
 78
     2
 67
     7
 79
     5
170
     0
171
     0
290
     0
174
     0
 93
        1
 44
0.0
173
     0
291
     0
 45
0.0
  0
VISUALSTYLE
  5
31
102
{ACAD_REACTORS
330
2A
102
}
102
{ACAD_XDICTIONARY
360
CD
102
}
330
2A
100
AcDbVisualStyle
  2
3D Hidden
 70
     6
 71
     1
 72
     2
 73
     2
 90
        0
 40
-0.6
 41
-30.0
 62
     5
 63
     7
421
 16777215
 74
     2
 91
        2
 64
     7
 65
   257
 75
     2
175
     1
 42
40.0
 92
        0
 66
   257
 43
1.0
 76
     1
 77
     6
 78
     2
 67
     7
 79
     3
170
     0
171
     0
290
     0
174
     0
 93
        1
 44
0.0
173
     0
291
     0
 45
0.0
  0
VISUALSTYLE
  5
30
102
{ACAD_REACTORS
330
2A
102
}
102
{ACAD_XDICTIONARY
360
CB
102
}
330
2A
100
AcDbVisualStyle
  2
3dWireframe
 70
     5
 71
     0
 72
     2
 73
     0
 90
        0
 40
-0.6
 41
-30.0
 62
     5
 63
     7
421
 16777215
 74
     1
 91
        4
 64
     7
 65
   257
 75
     1
175
     1
 42
1.0
 92
        0
 66
   257
 43
1.0
 76
     1
 77
     6
 78
     2
 67
     7
 79
     5
170
     0
171
     0
290
     0
174
     0
 93
        1
 44
0.0
173
     0
291
     0
 45
0.0
  0
VISUALSTYLE
  5
32
102
{ACAD_REACTORS
330
2A
102
}
102
{ACAD_XDICTIONARY
360
CF
102
}
330
2A
100
AcDbVisualStyle
  2
Basic
 70
     7
 71
     1
 72
     0
 73
     1
 90
        0
 40
-0.6
 41
-30.0
 62
     5
 63
     7
421
 16777215
 74
     0
 91
        4
 64
     7
 65
   257
 75
     1
175
     1
 42
1.0
 92
        8
 66
     7
 43
1.0
 76
     1
 77
     6
 78
     2
 67
     7
 79
     5
170
     0
171
     0
290
     0
174
     0
 93
        1
 44
0.0
173
     0
291
     1
 45
0.0
  0
VISUALSTYLE
  5
36
102
{ACAD_REACTORS
330
2A
102
}
102
{ACAD_XDICTIONARY
360
D7
102
}
330
2A
100
AcDbVisualStyle
  2
Brighten
 70
    12
 71
     2
 72
     2
 73
     0
 90
        0
 40
-0.6
 41
-30.0
 62
     5
 63
     7
421
 16777215
 74
     1
 91
        4
 64
     7
 65
   257
 75
     1
175
     1
 42
1.0
 92
        8
 66
     7
 43
1.0
 76
     1
 77
     6
 78
     2
 67
     7
 79
     5
170
     0
171
     0
290
     0
174
     0
 93
        1
 44
50.0
173
     0
291
     1
 45
0.0
  0
VISUALSTYLE
  5
3A
102
{ACAD_REACTORS
330
2A
102
}
102
{ACAD_XDICTIONARY
360
DF
102
}
330
2A
100
AcDbVisualStyle
  2
ColorChange
 70
    16
 71
     2
 72
     2
 73
     3
 90
        0
 40
-0.6
 41
-30.0
 62
     5
 63
     8
421
  8421504
 74
     1
 91
        4
 64
     7
 65
   257
 75
     1
175
     1
 42
1.0
 92
        8
 66
     8
424
  8421504
 43
1.0
 76
     1
 77
     6
 78
     2
 67
     7
 79
     5
170
     0
171
     0
290
     0
174
     0
 93
        1
 44
0.0
173
     0
291
     1
 45
0.0
  0
VISUALSTYLE
  5
34
102
{ACAD_REACTORS
330
2A
102
}
102
{ACAD_XDICTIONARY
360
D3
102
}
330
2A
100
AcDbVisualStyle
  2
Conceptual
 70
     9
 71
     3
 72
     2
 73
     0
 90
        0
 40
-0.6
 41
-30.0
 62
     5
 63
     7
421
 16777215
 74
     2
 91
        2
 64
     7
 65
   257
 75
     1
175
     1
 42
40.0
 92
        8
 66
     7
 43
1.0
 76
     1
 77
     6
 78
     2
 67
     7
 79
     3
170
     0
171
     0
290
     0
174
     0
 93
        1
 44
0.0
173
     0
291
     0
 45
0.0
  0
VISUALSTYLE
  5
35
102
{ACAD_REACTORS
330
2A
102
}
102
{ACAD_XDICTIONARY
360
D5
102
}
330
2A
100
AcDbVisualStyle
  2
Dim
 70
    11
 71
     2
 72
     2
 73
     0
 90
        0
 40
-0.6
 41
-30.0
 62
     5
 63
     7
421
 16777215
 74
     1
 91
        4
 64
     7
 65
   257
 75
     1
175
     1
 42
1.0
 92
        8
 66
     7
 43
1.0
 76
     1
 77
     6
 78
     2
 67
     7
 79
     5
170
     0
171
     0
290
     0
174
     0
 93
        1
 44
-50.0
173
     0
291
     1
 45
0.0
  0
VISUALSTYLE
  5
39
102
{ACAD_REACTORS
330
2A
102
}
102
{ACAD_XDICTIONARY
360
DD
102
}
330
2A
100
AcDbVisualStyle
  2
Facepattern
 70
    15
 71
     2
 72
     2
 73
     0
 90
        0
 40
-0.6
 41
-30.0
 62
     5
 63
     7
421
 16777215
 74
     1
 91
        4
 64
     7
 65
   257
 75
     1
175
     1
 42
1.0
 92
        8
 66
     7
 43
1.0
 76
     1
 77
     6
 78
     2
 67
     7
 79
     5
170
     0
171
     0
290
     0
174
     0
 93
        1
 44
0.0
173
     0
291
     1
 45
0.0
  0
VISUALSTYLE
  5
2B
102
{ACAD_REACTORS
330
2A
102
}
102
{ACAD_XDICTIONARY
360
C1
102
}
330
2A
100
AcDbVisualStyle
  2
Flat
 70
     0
 71
     2
 72
     1
 73
     1
 90
        2
 40
-0.6
 41
30.0
 62
     5
 63
     7
421
 16777215
 74
     0
 91
        4
 64
     7
 65
   257
 75
     1
175
     1
 42
1.0
 92
        8
 66
     7
 43
1.0
 76
     1
 77
     6
 78
     2
 67
     7
 79
     5
170
     0
171
     0
290
     0
174
     0
 93
       13
 44
0.0
173
     0
291
     1
 45
0.0
  0
VISUALSTYLE
  5
2C
102
{ACAD_REACTORS
330
2A
102
}
102
{ACAD_XDICTIONARY
360
C3
102
}
330
2A
100
AcDbVisualStyle
  2
FlatWithEdges
 70
     1
 71
     2
 72
     1
 73
     1
 90
        2
 40
-0.6
 41
30.0
 62
     5
 63
     7
421
 16777215
 74
     1
 91
        4
 64
     7
 65
   257
 75
     1
175
     1
 42
1.0
 92
        0
 66
   257
 43
1.0
 76
     1
 77
     6
 78
     2
 67
     7
 79
     5
170
     0
171
     0
290
     0
174
     0
 93
       13
 44
0.0
173
     0
291
     1
 45
0.0
  0
VISUALSTYLE
  5
2D
102
{ACAD_REACTORS
330
2A
102
}
102
{ACAD_XDICTIONARY
360
C5
102
}
330
2A
100
AcDbVisualStyle
  2
Gouraud
 70
     2
 71
     2
 72
     2
 73
     1
 90
        2
 40
-0.6
 41
30.0
 62
     5
 63
     7
421
 16777215
 74
     0
 91
        4
 64
     7
 65
   257
 75
     1
175
     1
 42
1.0
 92
        0
 66
     7
 43
1.0
 76
     1
 77
     6
 78
     2
 67
     7
 79
     5
170
     0
171
     0
290
     0
174
     0
 93
       13
 44
0.0
173
     0
291
     1
 45
0.0
  0
VISUALSTYLE
  5
2E
102
{ACAD_REACTORS
330
2A
102
}
102
{ACAD_XDICTIONARY
360
C7
102
}
330
2A
100
AcDbVisualStyle
  2
GouraudWithEdges
 70
     3
 71
     2
 72
     2
 73
     1
 90
        2
 40
-0.6
 41
30.0
 62
     5
 63
     7
421
 16777215
 74
     1
 91
        4
 64
     7
 65
   257
 75
     1
175
     1
 42
1.0
 92
        0
 66
   257
 43
1.0
 76
     1
 77
     6
 78
     2
 67
     7
 79
     5
170
     0
171
     0
290
     0
174
     0
 93
       13
 44
0.0
173
     0
291
     1
 45
0.0
  0
VISUALSTYLE
  5
38
102
{ACAD_REACTORS
330
2A
102
}
102
{ACAD_XDICTIONARY
360
DB
102
}
330
2A
100
AcDbVisualStyle
  2
Linepattern
 70
    14
 71
     2
 72
     2
 73
     0
 90
        0
 40
-0.6
 41
-30.0
 62
     5
 63
     7
421
 16777215
 74
     1
 91
        4
 64
     7
 65
   257
 75
     7
175
     7
 42
1.0
 92
        8
 66
     7
 43
1.0
 76
     1
 77
     6
 78
     2
 67
     7
 79
     5
170
     0
171
     0
290
     0
174
     0
 93
        1
 44
0.0
173
     0
291
     1
 45
0.0
  0
VISUALSTYLE
  5
33
102
{ACAD_REACTORS
330
2A
102
}
102
{ACAD_XDICTIONARY
360
D1
102
}
330
2A
100
AcDbVisualStyle
  2
Realistic
 70
     8
 71
     2
 72
     2
 73
     0
 90
        0
 40
-0.6
 41
-30.0
 62
     5
 63
     7
421
 16777215
 74
     1
 91
        0
 64
     7
 65
   257
 75
     1
175
     1
 42
1.0
 92
        8
 66
     8
424
  7895160
 43
1.0
 76
     1
 77
     6
 78
     2
 67
     7
 79
     5
170
     0
171
     0
290
     0
174
     0
 93
       13
 44
0.0
173
     0
291
     0
 45
0.0
  0
VISUALSTYLE
  5
37
102
{ACAD_REACTORS
330
2A
102
}
102
{ACAD_XDICTIONARY
360
D9
102
}
330
2A
100
AcDbVisualStyle
  2
Thicken
 70
    13
 71
     2
 72
     2
 73
     0
 90
        0
 40
-0.6
 41
-30.0
 62
     5
 63
     7
421
 16777215
 74
     1
 91
        4
 64
     7
 65
   257
 75
     1
175
     1
 42
1.0
 92
       12
 66
     7
 43
1.0
 76
     1
 77
     6
 78
     2
 67
     7
 79
     5
170
     0
171
     0
290
     0
174
     0
 93
        1
 44
0.0
173
     0
291
     1
 45
0.0
  0
DICTIONARY
  5
C9
330
2F
100
AcDbDictionary
280
     1
281
     1
  3
ACAD_XREC_ROUNDTRIP
360
CA
  0
DICTIONARY
  5
CD
330
31
100
AcDbDictionary
280
     1
281
     1
  3
ACAD_XREC_ROUNDTRIP
360
CE
  0
DICTIONARY
  5
CB
330
30
100
AcDbDictionary
280
     1
281
     1
  3
ACAD_XREC_ROUNDTRIP
360
CC
  0
DICTIONARY
  5
CF
330
32
100
AcDbDictionary
280
     1
281
     1
  3
ACAD_XREC_ROUNDTRIP
360
D0
  0
DICTIONARY
  5
D7
330
36
100
AcDbDictionary
280
     1
281
     1
  3
ACAD_XREC_ROUNDTRIP
360
D8
  0
DICTIONARY
  5
DF
330
3A
100
AcDbDictionary
280
     1
281
     1
  3
ACAD_XREC_ROUNDTRIP
360
E0
  0
DICTIONARY
  5
D3
330
34
100
AcDbDictionary
280
     1
281
     1
  3
ACAD_XREC_ROUNDTRIP
360
D4
  0
DICTIONARY
  5
D5
330
35
100
AcDbDictionary
280
     1
281
     1
  3
ACAD_XREC_ROUNDTRIP
360
D6
  0
DICTIONARY
  5
DD
330
39
100
AcDbDictionary
280
     1
281
     1
  3
ACAD_XREC_ROUNDTRIP
360
DE
  0
DICTIONARY
  5
C1
330
2B
100
AcDbDictionary
280
     1
281
     1
  3
ACAD_XREC_ROUNDTRIP
360
C2
  0
DICTIONARY
  5
C3
330
2C
100
AcDbDictionary
280
     1
281
     1
  3
ACAD_XREC_ROUNDTRIP
360
C4
  0
DICTIONARY
  5
C5
330
2D
100
AcDbDictionary
280
     1
281
     1
  3
ACAD_XREC_ROUNDTRIP
360
C6
  0
DICTIONARY
  5
C7
330
2E
100
AcDbDictionary
280
     1
281
     1
  3
ACAD_XREC_ROUNDTRIP
360
C8
  0
DICTIONARY
  5
DB
330
38
100
AcDbDictionary
280
     1
281
     1
  3
ACAD_XREC_ROUNDTRIP
360
DC
  0
DICTIONARY
  5
D1
330
33
100
AcDbDictionary
280
     1
281
     1
  3
ACAD_XREC_ROUNDTRIP
360
D2
  0
DICTIONARY
  5
D9
330
37
100
AcDbDictionary
280
     1
281
     1
  3
ACAD_XREC_ROUNDTRIP
360
DA
  0
XRECORD
  5
CA
102
{ACAD_REACTORS
330
C9
102
}
330
C9
100
AcDbXrecord
280
     1
102
RTVSPropertyOp0
 70
     1
102
RTVSPropertyOp1
 70
     1
102
RTVSPropertyOp2
 70
     1
102
RTVSPropertyOp3
 70
     1
102
RTVSPropertyOp4
 70
     1
102
RTVSPropertyOp5
 70
     1
102
RTVSPropertyOp6
 70
     1
102
RTVSPropertyOp7
 70
     1
102
RTVSPropertyOp8
 70
     1
102
RTVSPropertyOp9
 70
     1
102
RTVSPropertyOp10
 70
     1
102
RTVSPropertyOp11
 70
     1
102
RTVSPropertyOp12
 70
     1
102
RTVSPropertyOp13
 70
     1
102
RTVSPropertyOp14
 70
     1
102
RTVSPropertyOp15
 70
     1
102
RTVSPropertyOp16
 70
     1
102
RTVSPropertyOp17
 70
     1
102
RTVSPropertyOp18
 70
     1
102
RTVSPropertyOp19
 70
     1
102
RTVSPropertyOp20
 70
     1
102
RTVSPropertyOp21
 70
     1
102
RTVSPropertyOp22
 70
     1
102
RTVSPropertyOp23
 70
     1
102
RTVSPropertyOp24
 70
     1
102
RTVSPropertyOp25
 70
     1
102
RTVSPropertyOp26
 70
     1
102
RTVSPropertyOp27
 70
     1
102
RTVSPropertyOp28
 70
     1
102
RTVSPropertyOp29
 70
     1
102
RTVSPropertyOp30
 70
     1
102
RTVSPropertyOp31
 70
     1
102
RTVSPropertyOp32
 70
     1
  0
XRECORD
  5
CE
102
{ACAD_REACTORS
330
CD
102
}
330
CD
100
AcDbXrecord
280
     1
102
RTVSPropertyOp0
 70
     1
102
RTVSPropertyOp1
 70
     1
102
RTVSPropertyOp2
 70
     1
102
RTVSPropertyOp3
 70
     1
102
RTVSPropertyOp4
 70
     1
102
RTVSPropertyOp5
 70
     1
102
RTVSPropertyOp6
 70
     1
102
RTVSPropertyOp7
 70
     1
102
RTVSPropertyOp8
 70
     1
102
RTVSPropertyOp9
 70
     1
102
RTVSPropertyOp10
 70
     1
102
RTVSPropertyOp11
 70
     1
102
RTVSPropertyOp12
 70
     1
102
RTVSPropertyOp13
 70
     1
102
RTVSPropertyOp14
 70
     1
102
RTVSPropertyOp15
 70
     1
102
RTVSPropertyOp16
 70
     1
102
RTVSPropertyOp17
 70
     1
102
RTVSPropertyOp18
 70
     1
102
RTVSPropertyOp19
 70
     1
102
RTVSPropertyOp20
 70
     1
102
RTVSPropertyOp21
 70
     1
102
RTVSPropertyOp22
 70
     1
102
RTVSPropertyOp23
 70
     1
102
RTVSPropertyOp24
 70
     1
102
RTVSPropertyOp25
 70
     1
102
RTVSPropertyOp26
 70
     1
102
RTVSPropertyOp27
 70
     1
102
RTVSPropertyOp28
 70
     1
102
RTVSPropertyOp29
 70
     1
102
RTVSPropertyOp30
 70
     1
102
RTVSPropertyOp31
 70
     1
102
RTVSPropertyOp32
 70
     1
  0
XRECORD
  5
CC
102
{ACAD_REACTORS
330
CB
102
}
330
CB
100
AcDbXrecord
280
     1
102
RTVSPropertyOp0
 70
     1
102
RTVSPropertyOp1
 70
     1
102
RTVSPropertyOp2
 70
     1
102
RTVSPropertyOp3
 70
     1
102
RTVSPropertyOp4
 70
     1
102
RTVSPropertyOp5
 70
     1
102
RTVSPropertyOp6
 70
     1
102
RTVSPropertyOp7
 70
     1
102
RTVSPropertyOp8
 70
     1
102
RTVSPropertyOp9
 70
     1
102
RTVSPropertyOp10
 70
     1
102
RTVSPropertyOp11
 70
     1
102
RTVSPropertyOp12
 70
     1
102
RTVSPropertyOp13
 70
     1
102
RTVSPropertyOp14
 70
     1
102
RTVSPropertyOp15
 70
     1
102
RTVSPropertyOp16
 70
     1
102
RTVSPropertyOp17
 70
     1
102
RTVSPropertyOp18
 70
     1
102
RTVSPropertyOp19
 70
     1
102
RTVSPropertyOp20
 70
     1
102
RTVSPropertyOp21
 70
     1
102
RTVSPropertyOp22
 70
     1
102
RTVSPropertyOp23
 70
     1
102
RTVSPropertyOp24
 70
     1
102
RTVSPropertyOp25
 70
     1
102
RTVSPropertyOp26
 70
     1
102
RTVSPropertyOp27
 70
     1
102
RTVSPropertyOp28
 70
     1
102
RTVSPropertyOp29
 70
     1
102
RTVSPropertyOp30
 70
     1
102
RTVSPropertyOp31
 70
     1
102
RTVSPropertyOp32
 70
     1
  0
XRECORD
  5
D0
102
{ACAD_REACTORS
330
CF
102
}
330
CF
100
AcDbXrecord
280
     1
102
RTVSPropertyOp0
 70
     1
102
RTVSPropertyOp1
 70
     1
102
RTVSPropertyOp2
 70
     1
102
RTVSPropertyOp3
 70
     1
102
RTVSPropertyOp4
 70
     1
102
RTVSPropertyOp5
 70
     1
102
RTVSPropertyOp6
 70
     1
102
RTVSPropertyOp7
 70
     1
102
RTVSPropertyOp8
 70
     1
102
RTVSPropertyOp9
 70
     1
102
RTVSPropertyOp10
 70
     1
102
RTVSPropertyOp11
 70
     1
102
RTVSPropertyOp12
 70
     1
102
RTVSPropertyOp13
 70
     1
102
RTVSPropertyOp14
 70
     1
102
RTVSPropertyOp15
 70
     1
102
RTVSPropertyOp16
 70
     1
102
RTVSPropertyOp17
 70
     1
102
RTVSPropertyOp18
 70
     1
102
RTVSPropertyOp19
 70
     1
102
RTVSPropertyOp20
 70
     1
102
RTVSPropertyOp21
 70
     1
102
RTVSPropertyOp22
 70
     1
102
RTVSPropertyOp23
 70
     1
102
RTVSPropertyOp24
 70
     1
102
RTVSPropertyOp25
 70
     1
102
RTVSPropertyOp26
 70
     1
102
RTVSPropertyOp27
 70
     1
102
RTVSPropertyOp28
 70
     1
102
RTVSPropertyOp29
 70
     1
102
RTVSPropertyOp30
 70
     1
102
RTVSPropertyOp31
 70
     1
102
RTVSPropertyOp32
 70
     1
  0
XRECORD
  5
D8
102
{ACAD_REACTORS
330
D7
102
}
330
D7
100
AcDbXrecord
280
     1
102
RTVSPropertyOp0
 70
     1
102
RTVSPropertyOp1
 70
     1
102
RTVSPropertyOp2
 70
     1
102
RTVSPropertyOp3
 70
     1
102
RTVSPropertyOp4
 70
     1
102
RTVSPropertyOp5
 70
     1
102
RTVSPropertyOp6
 70
     1
102
RTVSPropertyOp7
 70
     1
102
RTVSPropertyOp8
 70
     1
102
RTVSPropertyOp9
 70
     1
102
RTVSPropertyOp10
 70
     1
102
RTVSPropertyOp11
 70
     1
102
RTVSPropertyOp12
 70
     1
102
RTVSPropertyOp13
 70
     1
102
RTVSPropertyOp14
 70
     1
102
RTVSPropertyOp15
 70
     1
102
RTVSPropertyOp16
 70
     1
102
RTVSPropertyOp17
 70
     1
102
RTVSPropertyOp18
 70
     1
102
RTVSPropertyOp19
 70
     1
102
RTVSPropertyOp20
 70
     1
102
RTVSPropertyOp21
 70
     1
102
RTVSPropertyOp22
 70
     1
102
RTVSPropertyOp23
 70
     1
102
RTVSPropertyOp24
 70
     1
102
RTVSPropertyOp25
 70
     1
102
RTVSPropertyOp26
 70
     1
102
RTVSPropertyOp27
 70
     1
102
RTVSPropertyOp28
 70
     1
102
RTVSPropertyOp29
 70
     1
102
RTVSPropertyOp30
 70
     1
102
RTVSPropertyOp31
 70
     1
102
RTVSPropertyOp32
 70
     1
  0
XRECORD
  5
E0
102
{ACAD_REACTORS
330
DF
102
}
330
DF
100
AcDbXrecord
280
     1
102
RTVSPropertyOp0
 70
     1
102
RTVSPropertyOp1
 70
     1
102
RTVSPropertyOp2
 70
     1
102
RTVSPropertyOp3
 70
     1
102
RTVSPropertyOp4
 70
     1
102
RTVSPropertyOp5
 70
     1
102
RTVSPropertyOp6
 70
     1
102
RTVSPropertyOp7
 70
     1
102
RTVSPropertyOp8
 70
     1
102
RTVSPropertyOp9
 70
     1
102
RTVSPropertyOp10
 70
     1
102
RTVSPropertyOp11
 70
     1
102
RTVSPropertyOp12
 70
     1
102
RTVSPropertyOp13
 70
     1
102
RTVSPropertyOp14
 70
     1
102
RTVSPropertyOp15
 70
     1
102
RTVSPropertyOp16
 70
     1
102
RTVSPropertyOp17
 70
     1
102
RTVSPropertyOp18
 70
     1
102
RTVSPropertyOp19
 70
     1
102
RTVSPropertyOp20
 70
     1
102
RTVSPropertyOp21
 70
     1
102
RTVSPropertyOp22
 70
     1
102
RTVSPropertyOp23
 70
     1
102
RTVSPropertyOp24
 70
     1
102
RTVSPropertyOp25
 70
     1
102
RTVSPropertyOp26
 70
     1
102
RTVSPropertyOp27
 70
     1
102
RTVSPropertyOp28
 70
     1
102
RTVSPropertyOp29
 70
     1
102
RTVSPropertyOp30
 70
     1
102
RTVSPropertyOp31
 70
     1
102
RTVSPropertyOp32
 70
     1
  0
XRECORD
  5
D4
102
{ACAD_REACTORS
330
D3
102
}
330
D3
100
AcDbXrecord
280
     1
102
RTVSPropertyOp0
 70
     1
102
RTVSPropertyOp1
 70
     1
102
RTVSPropertyOp2
 70
     1
102
RTVSPropertyOp3
 70
     1
102
RTVSPropertyOp4
 70
     1
102
RTVSPropertyOp5
 70
     1
102
RTVSPropertyOp6
 70
     1
102
RTVSPropertyOp7
 70
     1
102
RTVSPropertyOp8
 70
     1
102
RTVSPropertyOp9
 70
     1
102
RTVSPropertyOp10
 70
     1
102
RTVSPropertyOp11
 70
     1
102
RTVSPropertyOp12
 70
     1
102
RTVSPropertyOp13
 70
     1
102
RTVSPropertyOp14
 70
     1
102
RTVSPropertyOp15
 70
     1
102
RTVSPropertyOp16
 70
     1
102
RTVSPropertyOp17
 70
     1
102
RTVSPropertyOp18
 70
     1
102
RTVSPropertyOp19
 70
     1
102
RTVSPropertyOp20
 70
     1
102
RTVSPropertyOp21
 70
     1
102
RTVSPropertyOp22
 70
     1
102
RTVSPropertyOp23
 70
     1
102
RTVSPropertyOp24
 70
     1
102
RTVSPropertyOp25
 70
     1
102
RTVSPropertyOp26
 70
     1
102
RTVSPropertyOp27
 70
     1
102
RTVSPropertyOp28
 70
     1
102
RTVSPropertyOp29
 70
     1
102
RTVSPropertyOp30
 70
     1
102
RTVSPropertyOp31
 70
     1
102
RTVSPropertyOp32
 70
     1
  0
XRECORD
  5
D6
102
{ACAD_REACTORS
330
D5
102
}
330
D5
100
AcDbXrecord
280
     1
102
RTVSPropertyOp0
 70
     1
102
RTVSPropertyOp1
 70
     1
102
RTVSPropertyOp2
 70
     1
102
RTVSPropertyOp3
 70
     1
102
RTVSPropertyOp4
 70
     1
102
RTVSPropertyOp5
 70
     1
102
RTVSPropertyOp6
 70
     1
102
RTVSPropertyOp7
 70
     1
102
RTVSPropertyOp8
 70
     1
102
RTVSPropertyOp9
 70
     1
102
RTVSPropertyOp10
 70
     1
102
RTVSPropertyOp11
 70
     1
102
RTVSPropertyOp12
 70
     1
102
RTVSPropertyOp13
 70
     1
102
RTVSPropertyOp14
 70
     1
102
RTVSPropertyOp15
 70
     1
102
RTVSPropertyOp16
 70
     1
102
RTVSPropertyOp17
 70
     1
102
RTVSPropertyOp18
 70
     1
102
RTVSPropertyOp19
 70
     1
102
RTVSPropertyOp20
 70
     1
102
RTVSPropertyOp21
 70
     1
102
RTVSPropertyOp22
 70
     1
102
RTVSPropertyOp23
 70
     1
102
RTVSPropertyOp24
 70
     1
102
RTVSPropertyOp25
 70
     1
102
RTVSPropertyOp26
 70
     1
102
RTVSPropertyOp27
 70
     1
102
RTVSPropertyOp28
 70
     1
102
RTVSPropertyOp29
 70
     1
102
RTVSPropertyOp30
 70
     1
102
RTVSPropertyOp31
 70
     1
102
RTVSPropertyOp32
 70
     1
  0
XRECORD
  5
DE
102
{ACAD_REACTORS
330
DD
102
}
330
DD
100
AcDbXrecord
280
     1
102
RTVSPropertyOp0
 70
     1
102
RTVSPropertyOp1
 70
     1
102
RTVSPropertyOp2
 70
     1
102
RTVSPropertyOp3
 70
     1
102
RTVSPropertyOp4
 70
     1
102
RTVSPropertyOp5
 70
     1
102
RTVSPropertyOp6
 70
     1
102
RTVSPropertyOp7
 70
     1
102
RTVSPropertyOp8
 70
     1
102
RTVSPropertyOp9
 70
     1
102
RTVSPropertyOp10
 70
     1
102
RTVSPropertyOp11
 70
     1
102
RTVSPropertyOp12
 70
     1
102
RTVSPropertyOp13
 70
     1
102
RTVSPropertyOp14
 70
     1
102
RTVSPropertyOp15
 70
     1
102
RTVSPropertyOp16
 70
     1
102
RTVSPropertyOp17
 70
     1
102
RTVSPropertyOp18
 70
     1
102
RTVSPropertyOp19
 70
     1
102
RTVSPropertyOp20
 70
     1
102
RTVSPropertyOp21
 70
     1
102
RTVSPropertyOp22
 70
     1
102
RTVSPropertyOp23
 70
     1
102
RTVSPropertyOp24
 70
     1
102
RTVSPropertyOp25
 70
     1
102
RTVSPropertyOp26
 70
     1
102
RTVSPropertyOp27
 70
     1
102
RTVSPropertyOp28
 70
     1
102
RTVSPropertyOp29
 70
     1
102
RTVSPropertyOp30
 70
     1
102
RTVSPropertyOp31
 70
     1
102
RTVSPropertyOp32
 70
     1
  0
XRECORD
  5
C2
102
{ACAD_REACTORS
330
C1
102
}
330
C1
100
AcDbXrecord
280
     1
102
RTVSPropertyOp0
 70
     1
102
RTVSPropertyOp1
 70
     1
102
RTVSPropertyOp2
 70
     1
102
RTVSPropertyOp3
 70
     1
102
RTVSPropertyOp4
 70
     1
102
RTVSPropertyOp5
 70
     1
102
RTVSPropertyOp6
 70
     1
102
RTVSPropertyOp7
 70
     1
102
RTVSPropertyOp8
 70
     1
102
RTVSPropertyOp9
 70
     1
102
RTVSPropertyOp10
 70
     1
102
RTVSPropertyOp11
 70
     1
102
RTVSPropertyOp12
 70
     1
102
RTVSPropertyOp13
 70
     1
102
RTVSPropertyOp14
 70
     1
102
RTVSPropertyOp15
 70
     1
102
RTVSPropertyOp16
 70
     1
102
RTVSPropertyOp17
 70
     1
102
RTVSPropertyOp18
 70
     1
102
RTVSPropertyOp19
 70
     1
102
RTVSPropertyOp20
 70
     1
102
RTVSPropertyOp21
 70
     1
102
RTVSPropertyOp22
 70
     1
102
RTVSPropertyOp23
 70
     1
102
RTVSPropertyOp24
 70
     1
102
RTVSPropertyOp25
 70
     1
102
RTVSPropertyOp26
 70
     1
102
RTVSPropertyOp27
 70
     1
102
RTVSPropertyOp28
 70
     1
102
RTVSPropertyOp29
 70
     1
102
RTVSPropertyOp30
 70
     1
102
RTVSPropertyOp31
 70
     1
102
RTVSPropertyOp32
 70
     1
  0
XRECORD
  5
C4
102
{ACAD_REACTORS
330
C3
102
}
330
C3
100
AcDbXrecord
280
     1
102
RTVSPropertyOp0
 70
     1
102
RTVSPropertyOp1
 70
     1
102
RTVSPropertyOp2
 70
     1
102
RTVSPropertyOp3
 70
     1
102
RTVSPropertyOp4
 70
     1
102
RTVSPropertyOp5
 70
     1
102
RTVSPropertyOp6
 70
     1
102
RTVSPropertyOp7
 70
     1
102
RTVSPropertyOp8
 70
     1
102
RTVSPropertyOp9
 70
     1
102
RTVSPropertyOp10
 70
     1
102
RTVSPropertyOp11
 70
     1
102
RTVSPropertyOp12
 70
     1
102
RTVSPropertyOp13
 70
     1
102
RTVSPropertyOp14
 70
     1
102
RTVSPropertyOp15
 70
     1
102
RTVSPropertyOp16
 70
     1
102
RTVSPropertyOp17
 70
     1
102
RTVSPropertyOp18
 70
     1
102
RTVSPropertyOp19
 70
     1
102
RTVSPropertyOp20
 70
     1
102
RTVSPropertyOp21
 70
     1
102
RTVSPropertyOp22
 70
     1
102
RTVSPropertyOp23
 70
     1
102
RTVSPropertyOp24
 70
     1
102
RTVSPropertyOp25
 70
     1
102
RTVSPropertyOp26
 70
     1
102
RTVSPropertyOp27
 70
     1
102
RTVSPropertyOp28
 70
     1
102
RTVSPropertyOp29
 70
     1
102
RTVSPropertyOp30
 70
     1
102
RTVSPropertyOp31
 70
     1
102
RTVSPropertyOp32
 70
     1
  0
XRECORD
  5
C6
102
{ACAD_REACTORS
330
C5
102
}
330
C5
100
AcDbXrecord
280
     1
102
RTVSPropertyOp0
 70
     1
102
RTVSPropertyOp1
 70
     1
102
RTVSPropertyOp2
 70
     1
102
RTVSPropertyOp3
 70
     1
102
RTVSPropertyOp4
 70
     1
102
RTVSPropertyOp5
 70
     1
102
RTVSPropertyOp6
 70
     1
102
RTVSPropertyOp7
 70
     1
102
RTVSPropertyOp8
 70
     1
102
RTVSPropertyOp9
 70
     1
102
RTVSPropertyOp10
 70
     1
102
RTVSPropertyOp11
 70
     1
102
RTVSPropertyOp12
 70
     1
102
RTVSPropertyOp13
 70
     1
102
RTVSPropertyOp14
 70
     1
102
RTVSPropertyOp15
 70
     1
102
RTVSPropertyOp16
 70
     1
102
RTVSPropertyOp17
 70
     1
102
RTVSPropertyOp18
 70
     1
102
RTVSPropertyOp19
 70
     1
102
RTVSPropertyOp20
 70
     1
102
RTVSPropertyOp21
 70
     1
102
RTVSPropertyOp22
 70
     1
102
RTVSPropertyOp23
 70
     1
102
RTVSPropertyOp24
 70
     1
102
RTVSPropertyOp25
 70
     1
102
RTVSPropertyOp26
 70
     1
102
RTVSPropertyOp27
 70
     1
102
RTVSPropertyOp28
 70
     1
102
RTVSPropertyOp29
 70
     1
102
RTVSPropertyOp30
 70
     1
102
RTVSPropertyOp31
 70
     1
102
RTVSPropertyOp32
 70
     1
  0
XRECORD
  5
C8
102
{ACAD_REACTORS
330
C7
102
}
330
C7
100
AcDbXrecord
280
     1
102
RTVSPropertyOp0
 70
     1
102
RTVSPropertyOp1
 70
     1
102
RTVSPropertyOp2
 70
     1
102
RTVSPropertyOp3
 70
     1
102
RTVSPropertyOp4
 70
     1
102
RTVSPropertyOp5
 70
     1
102
RTVSPropertyOp6
 70
     1
102
RTVSPropertyOp7
 70
     1
102
RTVSPropertyOp8
 70
     1
102
RTVSPropertyOp9
 70
     1
102
RTVSPropertyOp10
 70
     1
102
RTVSPropertyOp11
 70
     1
102
RTVSPropertyOp12
 70
     1
102
RTVSPropertyOp13
 70
     1
102
RTVSPropertyOp14
 70
     1
102
RTVSPropertyOp15
 70
     1
102
RTVSPropertyOp16
 70
     1
102
RTVSPropertyOp17
 70
     1
102
RTVSPropertyOp18
 70
     1
102
RTVSPropertyOp19
 70
     1
102
RTVSPropertyOp20
 70
     1
102
RTVSPropertyOp21
 70
     1
102
RTVSPropertyOp22
 70
     1
102
RTVSPropertyOp23
 70
     1
102
RTVSPropertyOp24
 70
     1
102
RTVSPropertyOp25
 70
     1
102
RTVSPropertyOp26
 70
     1
102
RTVSPropertyOp27
 70
     1
102
RTVSPropertyOp28
 70
     1
102
RTVSPropertyOp29
 70
     1
102
RTVSPropertyOp30
 70
     1
102
RTVSPropertyOp31
 70
     1
102
RTVSPropertyOp32
 70
     1
  0
XRECORD
  5
DC
102
{ACAD_REACTORS
330
DB
102
}
330
DB
100
AcDbXrecord
280
     1
102
RTVSPropertyOp0
 70
     1
102
RTVSPropertyOp1
 70
     1
102
RTVSPropertyOp2
 70
     1
102
RTVSPropertyOp3
 70
     1
102
RTVSPropertyOp4
 70
     1
102
RTVSPropertyOp5
 70
     1
102
RTVSPropertyOp6
 70
     1
102
RTVSPropertyOp7
 70
     1
102
RTVSPropertyOp8
 70
     1
102
RTVSPropertyOp9
 70
     1
102
RTVSPropertyOp10
 70
     1
102
RTVSPropertyOp11
 70
     1
102
RTVSPropertyOp12
 70
     1
102
RTVSPropertyOp13
 70
     1
102
RTVSPropertyOp14
 70
     1
102
RTVSPropertyOp15
 70
     1
102
RTVSPropertyOp16
 70
     1
102
RTVSPropertyOp17
 70
     1
102
RTVSPropertyOp18
 70
     1
102
RTVSPropertyOp19
 70
     1
102
RTVSPropertyOp20
 70
     1
102
RTVSPropertyOp21
 70
     1
102
RTVSPropertyOp22
 70
     1
102
RTVSPropertyOp23
 70
     1
102
RTVSPropertyOp24
 70
     1
102
RTVSPropertyOp25
 70
     1
102
RTVSPropertyOp26
 70
     1
102
RTVSPropertyOp27
 70
     1
102
RTVSPropertyOp28
 70
     1
102
RTVSPropertyOp29
 70
     1
102
RTVSPropertyOp30
 70
     1
102
RTVSPropertyOp31
 70
     1
102
RTVSPropertyOp32
 70
     1
  0
XRECORD
  5
D2
102
{ACAD_REACTORS
330
D1
102
}
330
D1
100
AcDbXrecord
280
     1
102
RTVSPropertyOp0
 70
     1
102
RTVSPropertyOp1
 70
     1
102
RTVSPropertyOp2
 70
     1
102
RTVSPropertyOp3
 70
     1
102
RTVSPropertyOp4
 70
     1
102
RTVSPropertyOp5
 70
     1
102
RTVSPropertyOp6
 70
     1
102
RTVSPropertyOp7
 70
     1
102
RTVSPropertyOp8
 70
     1
102
RTVSPropertyOp9
 70
     1
102
RTVSPropertyOp10
 70
     1
102
RTVSPropertyOp11
 70
     1
102
RTVSPropertyOp12
 70
     1
102
RTVSPropertyOp13
 70
     1
102
RTVSPropertyOp14
 70
     1
102
RTVSPropertyOp15
 70
     1
102
RTVSPropertyOp16
 70
     1
102
RTVSPropertyOp17
 70
     1
102
RTVSPropertyOp18
 70
     1
102
RTVSPropertyOp19
 70
     1
102
RTVSPropertyOp20
 70
     1
102
RTVSPropertyOp21
 70
     1
102
RTVSPropertyOp22
 70
     1
102
RTVSPropertyOp23
 70
     1
102
RTVSPropertyOp24
 70
     1
102
RTVSPropertyOp25
 70
     1
102
RTVSPropertyOp26
 70
     1
102
RTVSPropertyOp27
 70
     1
102
RTVSPropertyOp28
 70
     1
102
RTVSPropertyOp29
 70
     1
102
RTVSPropertyOp30
 70
     1
102
RTVSPropertyOp31
 70
     1
102
RTVSPropertyOp32
 70
     1
  0
XRECORD
  5
DA
102
{ACAD_REACTORS
330
D9
102
}
330
D9
100
AcDbXrecord
280
     1
102
RTVSPropertyOp0
 70
     1
102
RTVSPropertyOp1
 70
     1
102
RTVSPropertyOp2
 70
     1
102
RTVSPropertyOp3
 70
     1
102
RTVSPropertyOp4
 70
     1
102
RTVSPropertyOp5
 70
     1
102
RTVSPropertyOp6
 70
     1
102
RTVSPropertyOp7
 70
     1
102
RTVSPropertyOp8
 70
     1
102
RTVSPropertyOp9
 70
     1
102
RTVSPropertyOp10
 70
     1
102
RTVSPropertyOp11
 70
     1
102
RTVSPropertyOp12
 70
     1
102
RTVSPropertyOp13
 70
     1
102
RTVSPropertyOp14
 70
     1
102
RTVSPropertyOp15
 70
     1
102
RTVSPropertyOp16
 70
     1
102
RTVSPropertyOp17
 70
     1
102
RTVSPropertyOp18
 70
     1
102
RTVSPropertyOp19
 70
     1
102
RTVSPropertyOp20
 70
     1
102
RTVSPropertyOp21
 70
     1
102
RTVSPropertyOp22
 70
     1
102
RTVSPropertyOp23
 70
     1
102
RTVSPropertyOp24
 70
     1
102
RTVSPropertyOp25
 70
     1
102
RTVSPropertyOp26
 70
     1
102
RTVSPropertyOp27
 70
     1
102
RTVSPropertyOp28
 70
     1
102
RTVSPropertyOp29
 70
     1
102
RTVSPropertyOp30
 70
     1
102
RTVSPropertyOp31
 70
     1
102
RTVSPropertyOp32
 70
     1
  0
ENDSEC
  0
EOF
