  0
SECTION
  2
HEADER
  9
$ACADVER
  1
AC1021
  9
$ACADMAINTVER
 70
    25
  9
$DWGCODEPAGE
  3
UNDEFINED
  9
$INSBASE
 10
0.0
 20
0.0
 30
0.0
  9
$EXTMIN
 10
1.000000000000000E+20
 20
1.000000000000000E+20
 30
1.000000000000000E+20
  9
$EXTMAX
 10
-1.000000000000000E+20
 20
-1.000000000000000E+20
 30
-1.000000000000000E+20
  9
$LIMMIN
 10
0.0
 20
0.0
  9
$LIMMAX
 10
12.0
 20
9.0
  9
$ORTHOMODE
 70
     0
  9
$REGENMODE
 70
     1
  9
$FILLMODE
 70
     1
  9
$QTEXTMODE
 70
     0
  9
$MIRRTEXT
 70
     1
  9
$LTSCALE
 40
1.0
  9
$ATTMODE
 70
     1
  9
$TEXTSIZE
 40
0.2
  9
$TRACEWID
 40
0.05
  9
$TEXTSTYLE
  7
Standard
  9
$CLAYER
  8
0
  9
$CELTYPE
  6
ByLayer
  9
$CECOLOR
 62
   256
  9
$CELTSCALE
 40
1.0
  9
$DISPSILH
 70
     0
  9
$DIMSCALE
 40
1.0
  9
$DIMASZ
 40
0.18
  9
$DIMEXO
 40
0.0625
  9
$DIMDLI
 40
0.38
  9
$DIMRND
 40
0.0
  9
$DIMDLE
 40
0.0
  9
$DIMEXE
 40
0.18
  9
$DIMTP
 40
0.0
  9
$DIMTM
 40
0.0
  9
$DIMTXT
 40
0.18
  9
$DIMCEN
 40
0.09
  9
$DIMTSZ
 40
0.0
  9
$DIMTOL
 70
     0
  9
$DIMLIM
 70
     0
  9
$DIMTIH
 70
     1
  9
$DIMTOH
 70
     1
  9
$DIMSE1
 70
     0
  9
$DIMSE2
 70
     0
  9
$DIMTAD
 70
     0
  9
$DIMZIN
 70
     0
  9
$DIMBLK
  1

  9
$DIMASO
 70
     1
  9
$DIMSHO
 70
     1
  9
$DIMPOST
  1

  9
$DIMAPOST
  1

  9
$DIMALT
 70
     0
  9
$DIMALTD
 70
     2
  9
$DIMALTF
 40
25.4
  9
$DIMLFAC
 40
1.0
  9
$DIMTOFL
 70
     0
  9
$DIMTVP
 40
0.0
  9
$DIMTIX
 70
     0
  9
$DIMSOXD
 70
     0
  9
$DIMSAH
 70
     0
  9
$DIMBLK1
  1

  9
$DIMBLK2
  1

  9
$DIMSTYLE
  2
Standard
  9
$DIMCLRD
 70
     0
  9
$DIMCLRE
 70
     0
  9
$DIMCLRT
 70
     0
  9
$DIMTFAC
 40
1.0
  9
$DIMGAP
 40
0.09
  9
$DIMJUST
 70
     0
  9
$DIMSD1
 70
     0
  9
$DIMSD2
 70
     0
  9
$DIMTOLJ
 70
     1
  9
$DIMTZIN
 70
     0
  9
$DIMALTZ
 70
     0
  9
$DIMALTTZ
 70
     0
  9
$DIMUPT
 70
     0
  9
$DIMDEC
 70
     4
  9
$DIMTDEC
 70
     4
  9
$DIMALTU
 70
     2
  9
$DIMALTTD
 70
     2
  9
$DIMTXSTY
  7
Standard
  9
$DIMAUNIT
 70
     0
  9
$DIMADEC
 70
     0
  9
$DIMALTRND
 40
0.0
  9
$DIMAZIN
 70
     0
  9
$DIMDSEP
 70
    46
  9
$DIMATFIT
 70
     3
  9
$DIMFRAC
 70
     0
  9
$DIMLDRBLK
  1

  9
$DIMLUNIT
 70
     2
  9
$DIMLWD
 70
    -2
  9
$DIMLWE
 70
    -2
  9
$DIMTMOVE
 70
     0
  9
$DIMFXL
 40
1.0
  9
$DIMFXLON
 70
     0
  9
$DIMJOGANG
 40
0.7853981633974483
  9
$DIMTFILL
 70
     0
  9
$DIMTFILLCLR
 70
     0
  9
$DIMARCSYM
 70
     0
  9
$DIMLTYPE
  6

  9
$DIMLTEX1
  6

  9
$DIMLTEX2
  6

  9
$LUNITS
 70
     2
  9
$LUPREC
 70
     4
  9
$SKETCHINC
 40
0.1
  9
$FILLETRAD
 40
0.5
  9
$AUNITS
 70
     0
  9
$AUPREC
 70
     0
  9
$MENU
  1
.
  9
$ELEVATION
 40
0.0
  9
$PELEVATION
 40
0.0
  9
$THICKNESS
 40
0.0
  9
$LIMCHECK
 70
     0
  9
$CHAMFERA
 40
0.5
  9
$CHAMFERB
 40
0.5
  9
$CHAMFERC
 40
1.0
  9
$CHAMFERD
 40
0.0
  9
$SKPOLY
 70
     0
  9
$TDCREATE
 40
2459306.485358785
  9
$TDUCREATE
 40
2459306.44369213
  9
$TDUPDATE
 40
2459306.485358785
  9
$TDUUPDATE
 40
2459306.44369213
  9
$TDINDWG
 40
0.0000000116
  9
$TDUSRTIMER
 40
0.0000000116
  9
$USRTIMER
 70
     1
  9
$ANGBASE
 50
0.0
  9
$ANGDIR
 70
     0
  9
$PDMODE
 70
     0
  9
$PDSIZE
 40
0.0
  9
$PLINEWID
 40
0.0
  9
$SPLFRAME
 70
     0
  9
$SPLINETYPE
 70
     6
  9
$SPLINESEGS
 70
     8
  9
$HANDSEED
  5
15F
  9
$SURFTAB1
 70
     6
  9
$SURFTAB2
 70
     6
  9
$SURFTYPE
 70
     6
  9
$SURFU
 70
     6
  9
$SURFV
 70
     6
  9
$UCSBASE
  2

  9
$UCSNAME
  2

  9
$UCSORG
 10
0.0
 20
0.0
 30
0.0
  9
$UCSXDIR
 10
1.0
 20
0.0
 30
0.0
  9
$UCSYDIR
 10
0.0
 20
1.0
 30
0.0
  9
$UCSORTHOREF
  2

  9
$UCSORTHOVIEW
 70
     0
  9
$UCSORGTOP
 10
0.0
 20
0.0
 30
0.0
  9
$UCSORGBOTTOM
 10
0.0
 20
0.0
 30
0.0
  9
$UCSORGLEFT
 10
0.0
 20
0.0
 30
0.0
  9
$UCSORGRIGHT
 10
0.0
 20
0.0
 30
0.0
  9
$UCSORGFRONT
 10
0.0
 20
0.0
 30
0.0
  9
$UCSORGBACK
 10
0.0
 20
0.0
 30
0.0
  9
$PUCSBASE
  2

  9
$PUCSNAME
  2

  9
$PUCSORG
 10
0.0
 20
0.0
 30
0.0
  9
$PUCSXDIR
 10
1.0
 20
0.0
 30
0.0
  9
$PUCSYDIR
 10
0.0
 20
1.0
 30
0.0
  9
$PUCSORTHOREF
  2

  9
$PUCSORTHOVIEW
 70
     0
  9
$PUCSORGTOP
 10
0.0
 20
0.0
 30
0.0
  9
$PUCSORGBOTTOM
 10
0.0
 20
0.0
 30
0.0
  9
$PUCSORGLEFT
 10
0.0
 20
0.0
 30
0.0
  9
$PUCSORGRIGHT
 10
0.0
 20
0.0
 30
0.0
  9
$PUCSORGFRONT
 10
0.0
 20
0.0
 30
0.0
  9
$PUCSORGBACK
 10
0.0
 20
0.0
 30
0.0
  9
$USERI1
 70
     0
  9
$USERI2
 70
     0
  9
$USERI3
 70
     0
  9
$USERI4
 70
     0
  9
$USERI5
 70
     0
  9
$USERR1
 40
0.0
  9
$USERR2
 40
0.0
  9
$USERR3
 40
0.0
  9
$USERR4
 40
0.0
  9
$USERR5
 40
0.0
  9
$WORLDVIEW
 70
     1
  9
$SHADEDGE
 70
     3
  9
$SHADEDIF
 70
    70
  9
$TILEMODE
 70
     1
  9
$MAXACTVP
 70
    64
  9
$PINSBASE
 10
0.0
 20
0.0
 30
0.0
  9
$PLIMCHECK
 70
     0
  9
$PEXTMIN
 10
1.000000000000000E+20
 20
1.000000000000000E+20
 30
1.000000000000000E+20
  9
$PEXTMAX
 10
-1.000000000000000E+20
 20
-1.000000000000000E+20
 30
-1.000000000000000E+20
  9
$PLIMMIN
 10
0.0
 20
0.0
  9
$PLIMMAX
 10
12.0
 20
9.0
  9
$UNITMODE
 70
     0
  9
$VISRETAIN
 70
     1
  9
$PLINEGEN
 70
     0
  9
$PSLTSCALE
 70
     1
  9
$TREEDEPTH
 70
  3020
  9
$CMLSTYLE
  2
Standard
  9
$CMLJUST
 70
     0
  9
$CMLSCALE
 40
1.0
  9
$PROXYGRAPHICS
 70
     1
  9
$MEASUREMENT
 70
     0
  9
$CELWEIGHT
370
    -1
  9
$ENDCAPS
280
     0
  9
$JOINSTYLE
280
     0
  9
$LWDISPLAY
290
     1
  9
$INSUNITS
 70
     1
  9
$HYPERLINKBASE
  1

  9
$STYLESHEET
  1

  9
$XEDIT
290
     1
  9
$CEPSNTYPE
380
     0
  9
$PSTYLEMODE
290
     1
  9
$FINGERPRINTGUID
  2
{E27FF85D-3FB2-9E9C-A5B2-2951A9BE8979}
  9
$VERSIONGUID
  2
{FAEB1C32-E019-11D5-929B-00C0DF256EC4}
  9
$EXTNAMES
290
     1
  9
$PSVPSCALE
 40
0.0
  9
$OLESTARTUP
290
     0
  9
$SORTENTS
280
   127
  9
$INDEXCTL
280
     0
  9
$HIDETEXT
280
     1
  9
$XCLIPFRAME
290
     0
  9
$HALOGAP
280
     0
  9
$OBSCOLOR
 70
   257
  9
$OBSLTYPE
280
     0
  9
$INTERSECTIONDISPLAY
280
     0
  9
$INTERSECTIONCOLOR
 70
   257
  9
$DIMASSOC
280
     2
  9
$PROJECTNAME
  1

  9
$CAMERADISPLAY
290
     0
  9
$LENSLENGTH
 40
50.0
  9
$CAMERAHEIGHT
 40
0.0
  9
$STEPSPERSEC
 40
2.0
  9
$STEPSIZE
 40
6.0
  9
$3DDWFPREC
 40
2.0
  9
$PSOLWIDTH
 40
0.25
  9
$PSOLHEIGHT
 40
4.0
  9
$LOFTANG1
 40
1.570796326794897
  9
$LOFTANG2
 40
1.570796326794897
  9
$LOFTMAG1
 40
0.0
  9
$LOFTMAG2
 40
0.0
  9
$LOFTPARAM
 70
     7
  9
$LOFTNORMALS
280
     1
  9
$LATITUDE
 40
37.795
  9
$LONGITUDE
 40
-122.394
  9
$NORTHDIRECTION
 40
0.0
  9
$TIMEZONE
 70
 -8000
  9
$LIGHTGLYPHDISPLAY
280
     1
  9
$TILEMODELIGHTSYNCH
280
     1
  9
$CMATERIAL
347
3C
  9
$SOLIDHIST
280
     1
  9
$SHOWHIST
280
     1
  9
$DWFFRAME
280
     2
  9
$DGNFRAME
280
     2
  9
$REALWORLDSCALE
290
     1
  9
$INTERFERECOLOR
 62
   256
  9
$CSHADOW
280
     0
  9
$SHADOWPLANELOCATION
 40
0.0
  0
ENDSEC
  0
SECTION
  2
CLASSES
  0
CLASS
  1
ACDBDICTIONARYWDFLT
  2
AcDbDictionaryWithDefault
  3
ObjectDBX Classes
 90
        0
 91
        4
280
     0
281
     0
  0
CLASS
  1
VISUALSTYLE
  2
AcDbVisualStyle
  3
ObjectDBX Classes
 90
     4095
 91
        4
280
     0
281
     0
  0
CLASS
  1
MATERIAL
  2
AcDbMaterial
  3
ObjectDBX Classes
 90
     1153
 91
        4
280
     0
281
     0
  0
CLASS
  1
SUN
  2
AcDbSun
  3
SCENEOE
 90
     1024
 91
        4
280
     0
281
     0
  0
ENDSEC
  0
SECTION
  2
TABLES
  0
TABLE
  2
VPORT
  5
8
330
0
100
AcDbSymbolTable
 70
     1
  0
VPORT
  5
29
330
8
100
AcDbSymbolTableRecord
100
AcDbViewportTableRecord
  2
*Active
 70
     0
 10
0.0
 20
0.0
 11
1.0
 21
1.0
 12
0.0
 22
0.0
 13
0.0
 23
0.0
 14
0.5
 24
0.5
 15
0.5
 25
0.5
 16
0.0
 26
0.0
 36
1.0
 17
105.0007777515277
 27
148.5000416295417
 37
0.0
 40
297.0000832590835
 41
0.7070757462376325
 42
50.0
 43
0.0
 44
0.0
 50
0.0
 51
0.0
 71
     0
 72
   100
 73
     1
 74
     3
 75
     0
 76
     0
 77
     0
 78
     0
281
     0
 65
     1
110
0.0
120
0.0
130
0.0
111
1.0
121
0.0
131
0.0
112
0.0
122
1.0
132
0.0
 79
     0
146
0.0
 60
     3
 61
     5
292
     1
282
     1
141
0.0
142
0.0
 63
   250
361
3F
  0
ENDTAB
  0
TABLE
  2
LTYPE
  5
5
330
0
100
AcDbSymbolTable
 70
    11
  0
LTYPE
  5
14
330
5
100
AcDbSymbolTableRecord
100
AcDbLinetypeTableRecord
  2
ByBlock
 70
     0
  3

 72
    65
 73
     0
 40
0.0
  0
LTYPE
  5
15
330
5
100
AcDbSymbolTableRecord
100
AcDbLinetypeTableRecord
  2
ByLayer
 70
     0
  3

 72
    65
 73
     0
 40
0.0
  0
LTYPE
  5
16
330
5
100
AcDbSymbolTableRecord
100
AcDbLinetypeTableRecord
  2
Continuous
 70
     0
  3
Solid line
 72
    65
 73
     0
 40
0.0
  0
LTYPE
  5
45
330
5
100
AcDbSymbolTableRecord
100
AcDbLinetypeTableRecord
  2
AI-Linetype-1
 70
     0
  3
Adobe Illustrator Linetype No. 1
 72
    65
 73
     2
 40
7.270862246391072
 49
3.635375106750391
 74
     0
 49
-3.635487139640682
 74
     0
  0
LTYPE
  5
4B
330
5
100
AcDbSymbolTableRecord
100
AcDbLinetypeTableRecord
  2
AI-Linetype-2
 70
     0
  3
Adobe Illustrator Linetype No. 2
 72
    65
 73
     2
 40
7.270862246391072
 49
3.635375106750391
 74
     0
 49
-3.635487139640682
 74
     0
  0
LTYPE
  5
B5
330
5
100
AcDbSymbolTableRecord
100
AcDbLinetypeTableRecord
  2
AI-Linetype-3
 70
     0
  3
Adobe Illustrator Linetype No. 3
 72
    65
 73
     2
 40
8.794680126958502
 49
4.397340063479251
 74
     0
 49
-4.397340063479251
 74
     0
  0
LTYPE
  5
BE
330
5
100
AcDbSymbolTableRecord
100
AcDbLinetypeTableRecord
  2
AI-Linetype-4
 70
     0
  3
Adobe Illustrator Linetype No. 4
 72
    65
 73
     4
 40
39.57625704941515
 49
26.3842368589774
 74
     0
 49
-4.397340063479251
 74
     0
 49
4.397340063479251
 74
     0
 49
-4.397340063479251
 74
     0
  0
LTYPE
  5
D7
330
5
100
AcDbSymbolTableRecord
100
AcDbLinetypeTableRecord
  2
AI-Linetype-5
 70
     0
  3
Adobe Illustrator Linetype No. 5
 72
    65
 73
     2
 40
8.776306060080433
 49
4.388153030040217
 74
     0
 49
-4.388153030040217
 74
     0
  0
LTYPE
  5
E0
330
5
100
AcDbSymbolTableRecord
100
AcDbLinetypeTableRecord
  2
AI-Linetype-6
 70
     0
  3
Adobe Illustrator Linetype No. 6
 72
    65
 73
     4
 40
39.4935717298532
 49
26.32911263973256
 74
     0
 49
-4.388153030040217
 74
     0
 49
4.388153030040217
 74
     0
 49
-4.388153030040217
 74
     0
  0
LTYPE
  5
108
330
5
100
AcDbSymbolTableRecord
100
AcDbLinetypeTableRecord
  2
AI-Linetype-7
 70
     0
  3
Adobe Illustrator Linetype No. 7
 72
    65
 73
     2
 40
9.58322143844926
 49
4.79161071922463
 74
     0
 49
-4.79161071922463
 74
     0
  0
LTYPE
  5
111
330
5
100
AcDbSymbolTableRecord
100
AcDbLinetypeTableRecord
  2
AI-Linetype-8
 70
     0
  3
Adobe Illustrator Linetype No. 8
 72
    65
 73
     4
 40
43.12470842713844
 49
28.74987626946455
 74
     0
 49
-4.79161071922463
 74
     0
 49
4.79161071922463
 74
     0
 49
-4.79161071922463
 74
     0
  0
LTYPE
  5
12A
330
5
100
AcDbSymbolTableRecord
100
AcDbLinetypeTableRecord
  2
AI-Linetype-9
 70
     0
  3
Adobe Illustrator Linetype No. 9
 72
    65
 73
     2
 40
9.58322143844926
 49
4.79161071922463
 74
     0
 49
-4.79161071922463
 74
     0
  0
LTYPE
  5
133
330
5
100
AcDbSymbolTableRecord
100
AcDbLinetypeTableRecord
  2
AI-Linetype-10
 70
     0
  3
Adobe Illustrator Linetype No. 10
 72
    65
 73
     4
 40
43.12470842713844
 49
28.74987626946455
 74
     0
 49
-4.79161071922463
 74
     0
 49
4.79161071922463
 74
     0
 49
-4.79161071922463
 74
     0
  0
ENDTAB
  0
TABLE
  2
LAYER
  5
2
330
0
100
AcDbSymbolTable
 70
     1
  0
LAYER
  5
10
330
2
100
AcDbSymbolTableRecord
100
AcDbLayerTableRecord
  2
0
 70
     0
 62
     7
  6
Continuous
370
    -3
390
F
347
3E
  0
ENDTAB
  0
TABLE
  2
STYLE
  5
3
330
0
100
AcDbSymbolTable
 70
     1
  0
STYLE
  5
11
330
3
100
AcDbSymbolTableRecord
100
AcDbTextStyleTableRecord
  2
Standard
 70
     0
 40
0.0
 41
1.0
 50
0.0
 71
     0
 42
0.2
  3
txt
  4

  0
ENDTAB
  0
TABLE
  2
VIEW
  5
6
330
0
100
AcDbSymbolTable
 70
     0
  0
ENDTAB
  0
TABLE
  2
UCS
  5
7
330
0
100
AcDbSymbolTable
 70
     0
  0
ENDTAB
  0
TABLE
  2
APPID
  5
9
330
0
100
AcDbSymbolTable
 70
     1
  0
APPID
  5
12
330
9
100
AcDbSymbolTableRecord
100
AcDbRegAppTableRecord
  2
ACAD
 70
     0
  0
ENDTAB
  0
TABLE
  2
DIMSTYLE
  5
A
330
0
100
AcDbSymbolTable
 70
     1
100
AcDbDimStyleTable
  0
DIMSTYLE
105
27
330
A
100
AcDbSymbolTableRecord
100
AcDbDimStyleTableRecord
  2
Standard
 70
     0
178
     0
340
11
  0
ENDTAB
  0
TABLE
  2
BLOCK_RECORD
  5
1
330
0
100
AcDbSymbolTable
 70
    40
  0
BLOCK_RECORD
  5
1F
330
1
100
AcDbSymbolTableRecord
100
AcDbBlockTableRecord
  2
*Model_Space
340
22
 70
     0
280
     1
281
     0
  0
BLOCK_RECORD
  5
1B
330
1
100
AcDbSymbolTableRecord
100
AcDbBlockTableRecord
  2
*Paper_Space
340
1E
 70
     0
280
     1
281
     0
  0
BLOCK_RECORD
  5
23
330
1
100
AcDbSymbolTableRecord
100
AcDbBlockTableRecord
  2
*Paper_Space0
340
26
 70
     0
280
     1
281
     0
  0
BLOCK_RECORD
  5
40
330
1
100
AcDbSymbolTableRecord
100
AcDbBlockTableRecord
  2
block 2
340
0
102
{BLKREFS
331
41
102
}
 70
     0
280
     1
281
     0
  0
BLOCK_RECORD
  5
46
330
1
100
AcDbSymbolTableRecord
100
AcDbBlockTableRecord
  2
block 3
340
0
102
{BLKREFS
331
47
102
}
 70
     0
280
     1
281
     0
  0
BLOCK_RECORD
  5
4C
330
1
100
AcDbSymbolTableRecord
100
AcDbBlockTableRecord
  2
block 4
340
0
102
{BLKREFS
331
4D
102
}
 70
     0
280
     1
281
     0
  0
BLOCK_RECORD
  5
51
330
1
100
AcDbSymbolTableRecord
100
AcDbBlockTableRecord
  2
block 5
340
0
102
{BLKREFS
331
52
102
}
 70
     0
280
     1
281
     0
  0
BLOCK_RECORD
  5
56
330
1
100
AcDbSymbolTableRecord
100
AcDbBlockTableRecord
  2
block 6
340
0
102
{BLKREFS
331
57
102
}
 70
     0
280
     1
281
     0
  0
BLOCK_RECORD
  5
5B
330
1
100
AcDbSymbolTableRecord
100
AcDbBlockTableRecord
  2
block 7
340
0
102
{BLKREFS
331
5C
102
}
 70
     0
280
     1
281
     0
  0
BLOCK_RECORD
  5
60
330
1
100
AcDbSymbolTableRecord
100
AcDbBlockTableRecord
  2
block 8
340
0
102
{BLKREFS
331
61
102
}
 70
     0
280
     1
281
     0
  0
BLOCK_RECORD
  5
65
330
1
100
AcDbSymbolTableRecord
100
AcDbBlockTableRecord
  2
block 9
340
0
102
{BLKREFS
331
66
102
}
 70
     0
280
     1
281
     0
  0
BLOCK_RECORD
  5
6A
330
1
100
AcDbSymbolTableRecord
100
AcDbBlockTableRecord
  2
block 10
340
0
102
{BLKREFS
331
6B
102
}
 70
     0
280
     1
281
     0
  0
BLOCK_RECORD
  5
6F
330
1
100
AcDbSymbolTableRecord
100
AcDbBlockTableRecord
  2
block 11
340
0
102
{BLKREFS
331
70
102
}
 70
     0
280
     1
281
     0
  0
BLOCK_RECORD
  5
74
330
1
100
AcDbSymbolTableRecord
100
AcDbBlockTableRecord
  2
block 12
340
0
102
{BLKREFS
331
75
102
}
 70
     0
280
     1
281
     0
  0
BLOCK_RECORD
  5
79
330
1
100
AcDbSymbolTableRecord
100
AcDbBlockTableRecord
  2
block 13
340
0
102
{BLKREFS
331
7A
102
}
 70
     0
280
     1
281
     0
  0
BLOCK_RECORD
  5
7E
330
1
100
AcDbSymbolTableRecord
100
AcDbBlockTableRecord
  2
block 14
340
0
102
{BLKREFS
331
7F
102
}
 70
     0
280
     1
281
     0
  0
BLOCK_RECORD
  5
83
330
1
100
AcDbSymbolTableRecord
100
AcDbBlockTableRecord
  2
block 15
340
0
102
{BLKREFS
331
84
102
}
 70
     0
280
     1
281
     0
  0
BLOCK_RECORD
  5
88
330
1
100
AcDbSymbolTableRecord
100
AcDbBlockTableRecord
  2
block 16
340
0
102
{BLKREFS
331
89
102
}
 70
     0
280
     1
281
     0
  0
BLOCK_RECORD
  5
8D
330
1
100
AcDbSymbolTableRecord
100
AcDbBlockTableRecord
  2
block 17
340
0
102
{BLKREFS
331
8E
102
}
 70
     0
280
     1
281
     0
  0
BLOCK_RECORD
  5
92
330
1
100
AcDbSymbolTableRecord
100
AcDbBlockTableRecord
  2
block 18
340
0
102
{BLKREFS
331
93
102
}
 70
     0
280
     1
281
     0
  0
BLOCK_RECORD
  5
97
330
1
100
AcDbSymbolTableRecord
100
AcDbBlockTableRecord
  2
block 19
340
0
102
{BLKREFS
331
98
102
}
 70
     0
280
     1
281
     0
  0
BLOCK_RECORD
  5
9C
330
1
100
AcDbSymbolTableRecord
100
AcDbBlockTableRecord
  2
block 20
340
0
102
{BLKREFS
331
9D
102
}
 70
     0
280
     1
281
     0
  0
BLOCK_RECORD
  5
A1
330
1
100
AcDbSymbolTableRecord
100
AcDbBlockTableRecord
  2
block 21
340
0
102
{BLKREFS
331
A2
102
}
 70
     0
280
     1
281
     0
  0
BLOCK_RECORD
  5
A6
330
1
100
AcDbSymbolTableRecord
100
AcDbBlockTableRecord
  2
block 22
340
0
102
{BLKREFS
331
A7
102
}
 70
     0
280
     1
281
     0
  0
BLOCK_RECORD
  5
AE
330
1
100
AcDbSymbolTableRecord
100
AcDbBlockTableRecord
  2
block 23
340
0
102
{BLKREFS
331
AF
102
}
 70
     0
280
     1
281
     0
  0
BLOCK_RECORD
  5
B7
330
1
100
AcDbSymbolTableRecord
100
AcDbBlockTableRecord
  2
block 24
340
0
102
{BLKREFS
331
B8
102
}
 70
     0
280
     1
281
     0
  0
BLOCK_RECORD
  5
C0
330
1
100
AcDbSymbolTableRecord
100
AcDbBlockTableRecord
  2
block 25
340
0
102
{BLKREFS
331
C1
102
}
 70
     0
280
     1
281
     0
  0
BLOCK_RECORD
  5
C8
330
1
100
AcDbSymbolTableRecord
100
AcDbBlockTableRecord
  2
block 26
340
0
102
{BLKREFS
331
C9
102
}
 70
     0
280
     1
281
     0
  0
BLOCK_RECORD
  5
D0
330
1
100
AcDbSymbolTableRecord
100
AcDbBlockTableRecord
  2
block 27
340
0
102
{BLKREFS
331
D1
102
}
 70
     0
280
     1
281
     0
  0
BLOCK_RECORD
  5
D9
330
1
100
AcDbSymbolTableRecord
100
AcDbBlockTableRecord
  2
block 28
340
0
102
{BLKREFS
331
DA
102
}
 70
     0
280
     1
281
     0
  0
BLOCK_RECORD
  5
E2
330
1
100
AcDbSymbolTableRecord
100
AcDbBlockTableRecord
  2
block 29
340
0
102
{BLKREFS
331
E3
102
}
 70
     0
280
     1
281
     0
  0
BLOCK_RECORD
  5
EA
330
1
100
AcDbSymbolTableRecord
100
AcDbBlockTableRecord
  2
block 30
340
0
102
{BLKREFS
331
EB
102
}
 70
     0
280
     1
281
     0
  0
BLOCK_RECORD
  5
EF
330
1
100
AcDbSymbolTableRecord
100
AcDbBlockTableRecord
  2
block 31
340
0
102
{BLKREFS
331
F0
102
}
 70
     0
280
     1
281
     0
  0
BLOCK_RECORD
  5
F4
330
1
100
AcDbSymbolTableRecord
100
AcDbBlockTableRecord
  2
block 32
340
0
102
{BLKREFS
331
F5
102
}
 70
     0
280
     1
281
     0
  0
BLOCK_RECORD
  5
F9
330
1
100
AcDbSymbolTableRecord
100
AcDbBlockTableRecord
  2
block 33
340
0
102
{BLKREFS
331
FA
102
}
 70
     0
280
     1
281
     0
  0
BLOCK_RECORD
  5
101
330
1
100
AcDbSymbolTableRecord
100
AcDbBlockTableRecord
  2
block 34
340
0
102
{BLKREFS
331
102
102
}
 70
     0
280
     1
281
     0
  0
BLOCK_RECORD
  5
10A
330
1
100
AcDbSymbolTableRecord
100
AcDbBlockTableRecord
  2
block 35
340
0
102
{BLKREFS
331
10B
102
}
 70
     0
280
     1
281
     0
  0
BLOCK_RECORD
  5
113
330
1
100
AcDbSymbolTableRecord
100
AcDbBlockTableRecord
  2
block 36
340
0
102
{BLKREFS
331
114
102
}
 70
     0
280
     1
281
     0
  0
BLOCK_RECORD
  5
11B
330
1
100
AcDbSymbolTableRecord
100
AcDbBlockTableRecord
  2
block 37
340
0
102
{BLKREFS
331
11C
102
}
 70
     0
280
     1
281
     0
  0
BLOCK_RECORD
  5
123
330
1
100
AcDbSymbolTableRecord
100
AcDbBlockTableRecord
  2
block 38
340
0
102
{BLKREFS
331
124
102
}
 70
     0
280
     1
281
     0
  0
BLOCK_RECORD
  5
12C
330
1
100
AcDbSymbolTableRecord
100
AcDbBlockTableRecord
  2
block 39
340
0
102
{BLKREFS
331
12D
102
}
 70
     0
280
     1
281
     0
  0
BLOCK_RECORD
  5
135
330
1
100
AcDbSymbolTableRecord
100
AcDbBlockTableRecord
  2
block 40
340
0
102
{BLKREFS
331
136
102
}
 70
     0
280
     1
281
     0
  0
ENDTAB
  0
ENDSEC
  0
SECTION
  2
BLOCKS
  0
BLOCK
  5
20
330
1F
100
AcDbEntity
  8
0
100
AcDbBlockBegin
  2
*Model_Space
 70
     0
 10
0.0
 20
0.0
 30
0.0
  3
*Model_Space
  1

  0
ENDBLK
  5
21
330
1F
100
AcDbEntity
  8
0
100
AcDbBlockEnd
  0
BLOCK
  5
1C
330
1B
100
AcDbEntity
 67
     1
  8
0
100
AcDbBlockBegin
  2
*Paper_Space
 70
     0
 10
0.0
 20
0.0
 30
0.0
  3
*Paper_Space
  1

  0
ENDBLK
  5
1D
330
1B
100
AcDbEntity
 67
     1
  8
0
100
AcDbBlockEnd
  0
BLOCK
  5
24
330
23
100
AcDbEntity
  8
0
100
AcDbBlockBegin
  2
*Paper_Space0
 70
     0
 10
0.0
 20
0.0
 30
0.0
  3
*Paper_Space0
  1

  0
ENDBLK
  5
25
330
23
100
AcDbEntity
  8
0
100
AcDbBlockEnd
  0
BLOCK
  5
42
330
40
100
AcDbEntity
  8
0
100
AcDbBlockBegin
  2
block 2
 70
     0
 10
0.0
 20
0.0
 30
0.0
  3
block 2
  1

  0
SPLINE
  5
44
330
40
100
AcDbEntity
  8
0
  6
AI-Linetype-1
 62
     6
370
    25
100
AcDbSpline
210
0.0
220
0.0
230
1.0
 70
    11
 71
     3
 72
    17
 73
    13
 74
     0
 42
0.0000000001
 43
0.0000000001
 12
1.0
 22
0.0
 32
0.0
 13
1.0
 23
0.0
 33
0.0
 40
0.0
 40
0.0
 40
0.0
 40
0.0
 40
1.0
 40
1.0
 40
1.0
 40
2.0
 40
2.0
 40
2.0
 40
3.0
 40
3.0
 40
3.0
 40
4.0
 40
4.0
 40
4.0
 40
4.0
 10
279.0436845812723
 20
303.7732746790215
 30
0.0
 10
288.7077371456322
 20
303.7732746790215
 30
0.0
 10
296.5453814989306
 20
311.6077438973176
 30
0.0
 10
296.5453814989306
 20
321.2717964616646
 30
0.0
 10
296.5453814989306
 20
330.9390241610358
 30
0.0
 10
288.7077371456322
 20
338.773493379319
 30
0.0
 10
279.0436845812723
 20
338.773493379319
 30
0.0
 10
269.3796320169253
 20
338.773493379319
 30
0.0
 10
261.5419876636269
 20
330.9390241610358
 30
0.0
 10
261.5419876636269
 20
321.2717964616646
 30
0.0
 10
261.5419876636269
 20
311.6077438973176
 30
0.0
 10
269.3796320169253
 20
303.7732746790215
 30
0.0
 10
279.0436845812723
 20
303.7732746790215
 30
0.0
  0
ENDBLK
  5
43
330
40
100
AcDbEntity
  8
0
100
AcDbBlockEnd
  0
BLOCK
  5
48
330
46
100
AcDbEntity
  8
0
100
AcDbBlockBegin
  2
block 3
 70
     0
 10
0.0
 20
0.0
 30
0.0
  3
block 3
  1

  0
SPLINE
  5
4A
330
46
100
AcDbEntity
  8
0
  6
AI-Linetype-2
 62
     6
370
    25
100
AcDbSpline
210
0.0
220
0.0
230
1.0
 70
    11
 71
     3
 72
    17
 73
    13
 74
     0
 42
0.0000000001
 43
0.0000000001
 12
1.0
 22
0.0
 32
0.0
 13
1.0
 23
0.0
 33
0.0
 40
0.0
 40
0.0
 40
0.0
 40
0.0
 40
1.0
 40
1.0
 40
1.0
 40
2.0
 40
2.0
 40
2.0
 40
3.0
 40
3.0
 40
3.0
 40
4.0
 40
4.0
 40
4.0
 40
4.0
 10
78.9780687914737
 20
304.7335337638164
 30
0.0
 10
88.64212135582684
 20
304.7335337638164
 30
0.0
 10
96.47976570913198
 20
312.5680029820995
 30
0.0
 10
96.47976570913198
 20
322.23205554646
 30
0.0
 10
96.47976570913198
 20
331.8992832458217
 30
0.0
 10
88.64212135582684
 20
339.7337524641051
 30
0.0
 10
78.9780687914737
 20
339.7337524641051
 30
0.0
 10
69.31401622713308
 20
339.7337524641051
 30
0.0
 10
61.47637187382827
 20
331.8992832458217
 30
0.0
 10
61.47637187382827
 20
322.23205554646
 30
0.0
 10
61.47637187382827
 20
312.5680029820995
 30
0.0
 10
69.31401622713308
 20
304.7335337638164
 30
0.0
 10
78.9780687914737
 20
304.7335337638164
 30
0.0
  0
ENDBLK
  5
49
330
46
100
AcDbEntity
  8
0
100
AcDbBlockEnd
  0
BLOCK
  5
4E
330
4C
100
AcDbEntity
  8
0
100
AcDbBlockBegin
  2
block 4
 70
     0
 10
0.0
 20
0.0
 30
0.0
  3
block 4
  1

  0
SPLINE
  5
50
330
4C
100
AcDbEntity
  8
0
 62
   250
370
    25
100
AcDbSpline
210
0.0
220
0.0
230
1.0
 70
    11
 71
     3
 72
    83
 73
    79
 74
     0
 42
0.0000000001
 43
0.0000000001
 12
1.0
 22
0.0
 32
0.0
 13
1.0
 23
0.0
 33
0.0
 40
0.0
 40
0.0
 40
0.0
 40
0.0
 40
1.0
 40
1.0
 40
1.0
 40
2.0
 40
2.0
 40
2.0
 40
3.0
 40
3.0
 40
3.0
 40
4.0
 40
4.0
 40
4.0
 40
5.0
 40
5.0
 40
5.0
 40
6.0
 40
6.0
 40
6.0
 40
7.0
 40
7.0
 40
7.0
 40
8.0
 40
8.0
 40
8.0
 40
9.0
 40
9.0
 40
9.0
 40
10.0
 40
10.0
 40
10.0
 40
11.0
 40
11.0
 40
11.0
 40
12.0
 40
12.0
 40
12.0
 40
13.0
 40
13.0
 40
13.0
 40
14.0
 40
14.0
 40
14.0
 40
15.0
 40
15.0
 40
15.0
 40
16.0
 40
16.0
 40
16.0
 40
17.0
 40
17.0
 40
17.0
 40
18.0
 40
18.0
 40
18.0
 40
19.0
 40
19.0
 40
19.0
 40
20.0
 40
20.0
 40
20.0
 40
21.0
 40
21.0
 40
21.0
 40
22.0
 40
22.0
 40
22.0
 40
23.0
 40
23.0
 40
23.0
 40
24.0
 40
24.0
 40
24.0
 40
25.0
 40
25.0
 40
25.0
 40
26.0
 40
26.0
 40
26.0
 40
26.0
 10
-294.7848355671223
 20
388.5275082974657
 30
0.0
 10
-294.7874108665953
 20
244.21548900612
 30
0.0
 10
-294.7873050391179
 20
99.90351712085386
 30
0.0
 10
-294.784800308571
 20
-44.4084900423996
 30
0.0
 10
-294.7847297528071
 20
-48.91969768802286
 30
0.0
 10
-294.7847650309911
 20
-53.43090533363328
 30
0.0
 10
-294.7849414211249
 20
-57.94211212993194
 30
0.0
 10
-294.7851883672485
 20
-62.79787998044084
 30
0.0
 10
-294.6465106037804
 20
-66.58518346380598
 30
0.0
 10
-292.824226228333
 20
-71.23619788266026
 30
0.0
 10
-289.5431618469096
 20
-79.61052151802954
 30
0.0
 10
-282.1356314230075
 20
-86.32039448806154
 30
0.0
 10
-273.4426417388119
 20
-88.6906871012783
 30
0.0
 10
-268.976977859433
 20
-89.90830679416572
 30
0.0
 10
-264.5452866806756
 20
-89.85538981509676
 30
0.0
 10
-260.0262119301789
 20
-89.89631227927099
 30
0.0
 10
-255.5152158385214
 20
-89.9371994654399
 30
0.0
 10
-251.0042197468539
 20
-89.97791026169642
 30
0.0
 10
-246.4932236551932
 20
-90.01756271833999
 30
0.0
 10
-237.4713020278407
 20
-90.09679707568323
 30
0.0
 10
-228.4493451225038
 20
-90.17299752622172
 30
0.0
 10
-219.4273529391759
 20
-90.24616406994011
 30
0.0
 10
-183.3393136499014
 20
-90.53875968886584
 30
0.0
 10
-147.2510626927137
 20
-90.78256585291459
 30
0.0
 10
-111.1623883996867
 20
-90.97758256208634
 30
0.0
 10
-39.00701799901436
 20
-91.36754542445387
 30
0.0
 10
33.14810545576606
 20
-91.5624915792757
 30
0.0
 10
105.3045341960366
 20
-91.56249158250986
 30
0.0
 10
177.4609982142983
 20
-91.5624915857453
 30
0.0
 10
249.616156947076
 20
-91.36754543741748
 30
0.0
 10
321.7715626257717
 20
-90.97758258153111
 30
0.0
 10
357.8640469413239
 20
-90.78253059759075
 30
0.0
 10
393.9560726430547
 20
-90.53868915880935
 30
0.0
 10
430.0478866768735
 20
-90.24605826514582
 30
0.0
 10
439.0708313658297
 20
-90.17289172223599
 30
0.0
 10
448.0937407768038
 20
-90.09669127250604
 30
0.0
 10
457.1166501877817
 20
-90.0174216379904
 30
0.0
 10
461.6280696152794
 20
-89.97780445971021
 30
0.0
 10
466.1395243207664
 20
-89.93741116575058
 30
0.0
 10
470.6509437482642
 20
-89.89624175609352
 30
0.0
 10
475.1705829465384
 20
-89.85500179046944
 30
0.0
 10
479.602344681263
 20
-89.9096121132536
 30
0.0
 10
484.0683260626254
 20
-88.68677127881514
 30
0.0
 10
492.7514026329223
 20
-86.30931723518945
 30
0.0
 10
500.1604500108367
 20
-79.6029720644397
 30
0.0
 10
503.4374927025853
 20
-71.230906220496
 30
0.0
 10
505.2475708952362
 20
-66.6064914033592
 30
0.0
 10
505.3954209354535
 20
-62.77173902861155
 30
0.0
 10
505.3947153759432
 20
-57.94415828905924
 30
0.0
 10
505.3940803723947
 20
-53.43228121098287
 30
0.0
 10
505.3936923147508
 20
-48.92036800566513
 30
0.0
 10
505.3936923149484
 20
-44.40849007832576
 30
0.0
 10
505.3940451012948
 20
99.90351708492449
 30
0.0
 10
505.3957031731238
 20
244.2154889701948
 30
0.0
 10
505.3928809407071
 20
388.5275082615456
 30
0.0
 10
505.3928809407071
 20
388.5275082615456
 30
0.0
 10
505.3910112074363
 20
388.5275082615456
 30
0.0
 10
505.3910112074363
 20
388.5275082615456
 30
0.0
 10
505.3665988410112
 20
388.5275082615456
 30
0.0
 10
505.3430684242308
 20
388.5275082615456
 30
0.0
 10
505.3195027294714
 20
388.5275082615456
 30
0.0
 10
505.2533917833903
 20
388.5275082615456
 30
0.0
 10
505.1870691693824
 20
388.5275082615495
 30
0.0
 10
505.1207818333709
 20
388.5275082615527
 30
0.0
 10
504.869990629679
 20
388.5275082615636
 30
0.0
 10
504.6192699819658
 20
388.5275082615739
 30
0.0
 10
504.3685493342487
 20
388.5275082615848
 30
0.0
 10
502.7203970983327
 20
388.5275082616586
 30
0.0
 10
501.0722095844346
 20
388.5275082617327
 30
0.0
 10
499.4240573485187
 20
388.5275082618068
 30
0.0
 10
393.0510159293557
 20
388.5275082665836
 30
0.0
 10
286.6779392321976
 20
388.5275082713601
 30
0.0
 10
180.304897813023
 20
388.5275082761366
 30
0.0
 10
23.93155520025939
 20
388.5275082831571
 30
0.0
 10
-132.4418226904951
 20
388.5275082901773
 30
0.0
 10
-288.8151653032652
 20
388.5275082971975
 30
0.0
 10
-290.8050553912211
 20
388.5275082972857
 30
0.0
 10
-292.7949454791699
 20
388.527508297381
 30
0.0
 10
-294.7848355671223
 20
388.5275082974657
 30
0.0
  0
ENDBLK
  5
4F
330
4C
100
AcDbEntity
  8
0
100
AcDbBlockEnd
  0
BLOCK
  5
53
330
51
100
AcDbEntity
  8
0
100
AcDbBlockBegin
  2
block 5
 70
     0
 10
0.0
 20
0.0
 30
0.0
  3
block 5
  1

  0
SPLINE
  5
55
330
51
100
AcDbEntity
  8
0
 62
   250
370
    25
100
AcDbSpline
210
0.0
220
0.0
230
1.0
 70
     8
 71
     3
 72
    53
 73
    49
 74
     0
 42
0.0000000001
 43
0.0000000001
 12
1.0
 22
0.0
 32
0.0
 13
1.0
 23
0.0
 33
0.0
 40
0.0
 40
0.0
 40
0.0
 40
0.0
 40
1.0
 40
1.0
 40
1.0
 40
2.0
 40
2.0
 40
2.0
 40
3.0
 40
3.0
 40
3.0
 40
4.0
 40
4.0
 40
4.0
 40
5.0
 40
5.0
 40
5.0
 40
6.0
 40
6.0
 40
6.0
 40
7.0
 40
7.0
 40
7.0
 40
8.0
 40
8.0
 40
8.0
 40
9.0
 40
9.0
 40
9.0
 40
10.0
 40
10.0
 40
10.0
 40
11.0
 40
11.0
 40
11.0
 40
12.0
 40
12.0
 40
12.0
 40
13.0
 40
13.0
 40
13.0
 40
14.0
 40
14.0
 40
14.0
 40
15.0
 40
15.0
 40
15.0
 40
16.0
 40
16.0
 40
16.0
 40
16.0
 10
192.8049819247925
 20
251.9031264244297
 30
0.0
 10
192.8058285964532
 20
251.8412841162319
 30
0.0
 10
192.7793348288376
 20
251.7837810002262
 30
0.0
 10
192.7439862866924
 20
251.7341095969554
 30
0.0
 10
192.6959376695281
 20
251.6665169771611
 30
0.0
 10
192.6314847887878
 20
251.6133177753592
 30
0.0
 10
192.5634335534554
 20
251.5660099971043
 30
0.0
 10
192.4696293882342
 20
251.5008162803063
 30
0.0
 10
192.3688754597222
 20
251.4468056848546
 30
0.0
 10
192.2654404042739
 20
251.3989334588318
 30
0.0
 10
192.130890165011
 20
251.3366325368359
 30
0.0
 10
191.9917890655313
 20
251.284668064526
 30
0.0
 10
191.8513474025892
 20
251.2370075064168
 30
0.0
 10
191.4730615568802
 20
251.1086661959854
 30
0.0
 10
191.0852153769067
 20
251.0113695126034
 30
0.0
 10
190.6946880699968
 20
250.9274431856377
 30
0.0
 10
190.1803350316148
 20
250.816917257781
 30
0.0
 10
189.6613605770471
 20
250.7296042442407
 30
0.0
 10
189.1409044470728
 20
250.6534743520291
 30
0.0
 10
187.7977304015953
 20
250.4570112520712
 30
0.0
 10
186.444678519992
 20
250.3350552570187
 30
0.0
 10
185.0897569051347
 20
250.2506703162899
 30
0.0
 10
183.4967088836083
 20
250.1514333437679
 30
0.0
 10
181.9011208470829
 20
250.1040902875994
 30
0.0
 10
180.3048978068114
 20
250.1033494499763
 30
0.0
 10
178.7083925426513
 20
250.1041255657244
 30
0.0
 10
177.1124870042525
 20
250.151468622038
 30
0.0
 10
175.5191920368474
 20
250.2507408726888
 30
0.0
 10
174.1645526458722
 20
250.3351258135398
 30
0.0
 10
172.8117477101798
 20
250.4570465307237
 30
0.0
 10
171.4688911666013
 20
250.6534743528225
 30
0.0
 10
170.9483997586422
 20
250.7296042450813
 30
0.0
 10
170.429425304081
 20
250.8169172586691
 30
0.0
 10
169.9150722657189
 20
250.9274431865749
 30
0.0
 10
169.5245449588083
 20
251.0113695135691
 30
0.0
 10
169.1366987788605
 20
251.1086661969929
 30
0.0
 10
168.7584482111363
 20
251.2370427854408
 30
0.0
 10
168.6180065481942
 20
251.2847033435594
 30
0.0
 10
168.4788701707362
 20
251.3366325378979
 30
0.0
 10
168.3443199314925
 20
251.398933459907
 30
0.0
 10
168.2408848760313
 20
251.4468056859359
 30
0.0
 10
168.140166225517
 20
251.5008162814004
 30
0.0
 10
168.046326782311
 20
251.5660099982045
 30
0.0
 10
167.9782755469856
 20
251.6133177764655
 30
0.0
 10
167.9138579442359
 20
251.6665169782744
 30
0.0
 10
167.8658093270844
 20
251.734109598072
 30
0.0
 10
167.8304607849328
 20
251.7837810013459
 30
0.0
 10
167.8039670173237
 20
251.8412841173545
 30
0.0
 10
167.8048136889965
 20
251.903126425553
 30
0.0
  0
ENDBLK
  5
54
330
51
100
AcDbEntity
  8
0
100
AcDbBlockEnd
  0
BLOCK
  5
58
330
56
100
AcDbEntity
  8
0
100
AcDbBlockBegin
  2
block 6
 70
     0
 10
0.0
 20
0.0
 30
0.0
  3
block 6
  1

  0
SPLINE
  5
5A
330
56
100
AcDbEntity
  8
0
 62
   250
370
    25
100
AcDbSpline
210
0.0
220
0.0
230
1.0
 70
     8
 71
     3
 72
   134
 73
   130
 74
     0
 42
0.0000000001
 43
0.0000000001
 12
1.0
 22
0.0
 32
0.0
 13
1.0
 23
0.0
 33
0.0
 40
0.0
 40
0.0
 40
0.0
 40
0.0
 40
1.0
 40
1.0
 40
1.0
 40
2.0
 40
2.0
 40
2.0
 40
3.0
 40
3.0
 40
3.0
 40
4.0
 40
4.0
 40
4.0
 40
5.0
 40
5.0
 40
5.0
 40
6.0
 40
6.0
 40
6.0
 40
7.0
 40
7.0
 40
7.0
 40
8.0
 40
8.0
 40
8.0
 40
9.0
 40
9.0
 40
9.0
 40
10.0
 40
10.0
 40
10.0
 40
11.0
 40
11.0
 40
11.0
 40
12.0
 40
12.0
 40
12.0
 40
13.0
 40
13.0
 40
13.0
 40
14.0
 40
14.0
 40
14.0
 40
15.0
 40
15.0
 40
15.0
 40
16.0
 40
16.0
 40
16.0
 40
17.0
 40
17.0
 40
17.0
 40
18.0
 40
18.0
 40
18.0
 40
19.0
 40
19.0
 40
19.0
 40
20.0
 40
20.0
 40
20.0
 40
21.0
 40
21.0
 40
21.0
 40
22.0
 40
22.0
 40
22.0
 40
23.0
 40
23.0
 40
23.0
 40
24.0
 40
24.0
 40
24.0
 40
25.0
 40
25.0
 40
25.0
 40
26.0
 40
26.0
 40
26.0
 40
27.0
 40
27.0
 40
27.0
 40
28.0
 40
28.0
 40
28.0
 40
29.0
 40
29.0
 40
29.0
 40
30.0
 40
30.0
 40
30.0
 40
31.0
 40
31.0
 40
31.0
 40
32.0
 40
32.0
 40
32.0
 40
33.0
 40
33.0
 40
33.0
 40
34.0
 40
34.0
 40
34.0
 40
35.0
 40
35.0
 40
35.0
 40
36.0
 40
36.0
 40
36.0
 40
37.0
 40
37.0
 40
37.0
 40
38.0
 40
38.0
 40
38.0
 40
39.0
 40
39.0
 40
39.0
 40
40.0
 40
40.0
 40
40.0
 40
41.0
 40
41.0
 40
41.0
 40
42.0
 40
42.0
 40
42.0
 40
43.0
 40
43.0
 40
43.0
 40
43.0
 10
485.696546257388
 20
379.8242879621352
 30
0.0
 10
383.8993418684744
 20
379.819842940444
 30
0.0
 10
282.1021022015568
 20
379.8170207061259
 30
0.0
 10
180.304897812638
 20
379.8161034830572
 30
0.0
 10
28.50739223011189
 20
379.8147982043871
 30
0.0
 10
-123.2912035753182
 20
379.258319109538
 30
0.0
 10
-275.0876542129191
 20
379.8242879962948
 30
0.0
 10
-278.1420519989697
 20
379.8356762343423
 30
0.0
 10
-287.6902276636015
 20
378.6052477223406
 30
0.0
 10
-288.8151653041443
 20
369.0376203893483
 30
0.0
 10
-288.809414995766
 20
294.0994518835328
 30
0.0
 10
-288.8038410764369
 20
238.6511982216518
 30
0.0
 10
-288.7991138296532
 20
163.713066886914
 30
0.0
 10
-288.7945629726768
 20
91.51370666139317
 30
0.0
 10
-288.790788231398
 20
19.31438171383684
 30
0.0
 10
-288.7865195983156
 20
-52.88501378969033
 30
0.0
 10
-288.7864137644299
 20
-54.58202599357835
 30
0.0
 10
-288.7863432085348
 20
-56.27903819746059
 30
0.0
 10
-288.7868018224291
 20
-57.97601427491513
 30
0.0
 10
-288.7869782123967
 20
-58.66386444926147
 30
0.0
 10
-288.7872604363174
 20
-59.35167934562561
 30
0.0
 10
-288.7766770404962
 20
-60.03952952000019
 30
0.0
 10
-288.7625305680776
 20
-60.95792133399344
 30
0.0
 10
-288.7289812032798
 20
-61.87634842595865
 30
0.0
 10
-288.6524632513111
 20
-62.79156522119262
 30
0.0
 10
-288.5875164788068
 20
-63.56796314084833
 30
0.0
 10
-288.4916309124299
 20
-64.34210326938134
 30
0.0
 10
-288.3534117626453
 20
-65.1088350208316
 30
0.0
 10
-288.097117193176
 20
-66.53071425345252
 30
0.0
 10
-287.6951950967926
 20
-67.92722861403145
 30
0.0
 10
-287.1540307889987
 20
-69.26659263701002
 30
0.0
 10
-286.5923346932485
 20
-70.65686279404528
 30
0.0
 10
-285.8806013223105
 20
-71.98553758723003
 30
0.0
 10
-285.0495225241555
 20
-73.23423718576316
 30
0.0
 10
-284.1787559915582
 20
-74.54259185892701
 30
0.0
 10
-283.1770375742956
 20
-75.76317490250072
 30
0.0
 10
-282.0691676966309
 20
-76.87757120770358
 30
0.0
 10
-280.8732439654929
 20
-78.0805858141674
 30
0.0
 10
-279.5536356148344
 20
-79.15988052312503
 30
0.0
 10
-278.1312624904579
 20
-80.08462237469844
 30
0.0
 10
-276.7721427952793
 20
-80.96823009436858
 30
0.0
 10
-275.3192189348662
 20
-81.71072586937349
 30
0.0
 10
-273.8020185836416
 20
-82.27877200276511
 30
0.0
 10
-272.297377195498
 20
-82.84209088601415
 30
0.0
 10
-270.7295529341126
 20
-83.23378236654331
 30
0.0
 10
-269.1403149351164
 20
-83.47677713535371
 30
0.0
 10
-268.3538980673967
 20
-83.59700451226644
 30
0.0
 10
-267.5622600577292
 20
-83.68082500743964
 30
0.0
 10
-266.7689992606914
 20
-83.73839868089595
 30
0.0
 10
-265.8263009142374
 20
-83.80680269613144
 30
0.0
 10
-264.8813447766673
 20
-83.83816482588263
 30
0.0
 10
-263.9362828051375
 20
-83.85612132087266
 30
0.0
 10
-263.2810294900025
 20
-83.86853917203919
 30
0.0
 10
-262.6257056188925
 20
-83.87450115173407
 30
0.0
 10
-261.9703817477825
 20
-83.88046313142766
 30
0.0
 10
-255.1114592865227
 20
-83.94290516725705
 30
0.0
 10
-248.2525015472724
 20
-84.00450053142072
 30
0.0
 10
-241.3935438080284
 20
-84.06426144029967
 30
0.0
 10
-231.0869743142623
 20
-84.1540439155611
 30
0.0
 10
-220.7803342645336
 20
-84.23969886645601
 30
0.0
 10
-210.4736589368141
 20
-84.32133212691242
 30
0.0
 10
-191.3119974122991
 20
-84.47313330226343
 30
0.0
 10
-172.1502300538248
 20
-84.61114078502578
 30
0.0
 10
-152.988392139374
 20
-84.7353192972031
 30
0.0
 10
-115.8259617812677
 20
-84.97616211046098
 30
0.0
 10
-78.66317864329724
 20
-85.1650051721055
 30
0.0
 10
-41.5002191153916
 20
-85.30184848212573
 30
0.0
 10
32.43443179579654
 20
-85.5741592607043
 30
0.0
 10
106.3698588226882
 20
-85.64072882392905
 30
0.0
 10
180.3048977917443
 20
-85.50162772776696
 30
0.0
 10
230.5387745317847
 20
-85.4071180050754
 30
0.0
 10
280.7725101598867
 20
-85.21763994361072
 30
0.0
 10
331.0056813402178
 20
-84.9331582653907
 30
0.0
 10
357.8400226330054
 20
-84.7812159801527
 30
0.0
 10
384.6742228138552
 20
-84.60210964556508
 30
0.0
 10
411.5082113267937
 20
-84.39601565155564
 30
0.0
 10
428.7967528975921
 20
-84.26322931239005
 30
0.0
 10
446.0852239124228
 20
-84.11922457361776
 30
0.0
 10
463.3735890932921
 20
-83.96364865539084
 30
0.0
 10
466.1006832582568
 20
-83.93913045511725
 30
0.0
 10
468.8278127012147
 20
-83.91429475297157
 30
0.0
 10
471.5549068661729
 20
-83.88970599673097
 30
0.0
 10
471.9670243006209
 20
-83.8859665302202
 30
0.0
 10
472.3791417350657
 20
-83.88226234168268
 30
0.0
 10
472.7912591695175
 20
-83.87827592928225
 30
0.0
 10
473.0806797680643
 20
-83.87548896837745
 30
0.0
 10
473.370100366604
 20
-83.87252561755386
 30
0.0
 10
473.6595209651515
 20
-83.86910365290362
 30
0.0
 10
474.4239596474891
 20
-83.8600019325074
 30
0.0
 10
475.188292495866
 20
-83.8473724134822
 30
0.0
 10
475.9522020084151
 20
-83.81706862340687
 30
0.0
 10
476.9796733556332
 20
-83.77632254942672
 30
0.0
 10
478.0063685871783
 20
-83.70354406399727
 30
0.0
 10
479.0266785032079
 20
-83.57619053396417
 30
0.0
 10
479.9929778224206
 20
-83.4555750992977
 30
0.0
 10
480.9535268298875
 20
-83.28602909780098
 30
0.0
 10
481.8991885271925
 20
-83.05386467084483
 30
0.0
 10
483.6655925727709
 20
-82.62022766492524
 30
0.0
 10
485.3799968667515
 20
-81.96814936861726
 30
0.0
 10
486.9875088626333
 20
-81.11752656613909
 30
0.0
 10
488.6924586563229
 20
-80.21532734787401
 30
0.0
 10
490.2771810731568
 20
-79.08978319916619
 30
0.0
 10
491.7107020412641
 20
-77.79790334566337
 30
0.0
 10
493.1588986516152
 20
-76.49275896935784
 30
0.0
 10
494.4528246284552
 20
-75.01785692356856
 30
0.0
 10
495.5459835860121
 20
-73.4034657204772
 30
0.0
 10
496.8638985934597
 20
-71.45714394550976
 30
0.0
 10
497.8900293773117
 20
-69.30804430600824
 30
0.0
 10
498.5199530984803
 20
-67.0453495510236
 30
0.0
 10
498.8340682873921
 20
-65.91705371934317
 30
0.0
 10
499.0496520609331
 20
-64.7605002207295
 30
0.0
 10
499.1825442348956
 20
-63.59632667709612
 30
0.0
 10
499.3396371073745
 20
-62.22027354852217
 30
0.0
 10
499.3811592971657
 20
-60.83356646811736
 30
0.0
 10
499.3921660289099
 20
-59.4483410631404
 30
0.0
 10
499.3957996615041
 20
-58.99307865159846
 30
0.0
 10
499.3961171634019
 20
-58.53799262999715
 30
0.0
 10
499.3962229973735
 20
-58.08283605241728
 30
0.0
 10
499.3963288313811
 20
-57.28855219378987
 30
0.0
 10
499.3957291056456
 20
-56.49409194522183
 30
0.0
 10
499.3955174377612
 20
-55.69966788060854
 30
0.0
 10
499.3953763258387
 20
-55.20408274339845
 30
0.0
 10
499.395411603846
 20
-54.70849760619092
 30
0.0
 10
499.3954468818564
 20
-54.2129477469669
 30
0.0
 10
499.3975282847152
 20
-16.94404936807736
 30
0.0
 10
499.3995391316013
 20
20.32481373282546
 30
0.0
 10
499.4016558124392
 20
57.59367683372828
 30
0.0
 10
499.4032080450744
 20
85.17566379066182
 30
0.0
 10
499.404866121747
 20
337.5691987725355
 30
0.0
 10
499.4065594663266
 20
365.1512210074496
 30
0.0
  0
ENDBLK
  5
59
330
56
100
AcDbEntity
  8
0
100
AcDbBlockEnd
  0
BLOCK
  5
5D
330
5B
100
AcDbEntity
  8
0
100
AcDbBlockBegin
  2
block 7
 70
     0
 10
0.0
 20
0.0
 30
0.0
  3
block 7
  1

  0
SPLINE
  5
5F
330
5B
100
AcDbEntity
  8
0
 62
   250
370
    25
100
AcDbSpline
210
0.0
220
0.0
230
1.0
 70
     8
 71
     3
 72
     8
 73
     4
 74
     0
 42
0.0000000001
 43
0.0000000001
 12
1.0
 22
0.0
 32
0.0
 13
1.0
 23
0.0
 33
0.0
 40
0.0
 40
0.0
 40
0.0
 40
0.0
 40
1.0
 40
1.0
 40
1.0
 40
1.0
 10
180.3048978122915
 20
372.1070521110492
 30
0.0
 10
281.930016184674
 20
372.1850517339087
 30
0.0
 10
383.5544642753321
 20
372.4198620052959
 30
0.0
 10
485.1788770880099
 20
372.8114476472329
 30
0.0
  0
ENDBLK
  5
5E
330
5B
100
AcDbEntity
  8
0
100
AcDbBlockEnd
  0
BLOCK
  5
62
330
60
100
AcDbEntity
  8
0
100
AcDbBlockBegin
  2
block 8
 70
     0
 10
0.0
 20
0.0
 30
0.0
  3
block 8
  1

  0
SPLINE
  5
64
330
60
100
AcDbEntity
  8
0
 62
   250
370
    25
100
AcDbSpline
210
0.0
220
0.0
230
1.0
 70
     8
 71
     3
 72
    38
 73
    34
 74
     0
 42
0.0000000001
 43
0.0000000001
 12
1.0
 22
0.0
 32
0.0
 13
1.0
 23
0.0
 33
0.0
 40
0.0
 40
0.0
 40
0.0
 40
0.0
 40
1.0
 40
1.0
 40
1.0
 40
2.0
 40
2.0
 40
2.0
 40
3.0
 40
3.0
 40
3.0
 40
4.0
 40
4.0
 40
4.0
 40
5.0
 40
5.0
 40
5.0
 40
6.0
 40
6.0
 40
6.0
 40
7.0
 40
7.0
 40
7.0
 40
8.0
 40
8.0
 40
8.0
 40
9.0
 40
9.0
 40
9.0
 40
10.0
 40
10.0
 40
10.0
 40
11.0
 40
11.0
 40
11.0
 40
11.0
 10
494.0513258876093
 20
365.1512210076858
 30
0.0
 10
494.0507261564686
 20
245.5083565752329
 30
0.0
 10
494.0508319850609
 20
125.8655036803394
 30
0.0
 10
494.0507261457304
 20
6.222650785440488
 30
0.0
 10
494.0507261449046
 20
-12.19108168909769
 30
0.0
 10
494.0506908660932
 20
-30.60477888566263
 30
0.0
 10
494.0496678036623
 20
-49.01840552625221
 30
0.0
 10
494.0495619696201
 20
-50.96666754130266
 30
0.0
 10
494.0494561355707
 20
-52.91496483433981
 30
0.0
 10
494.0508672549327
 20
-54.86340323931355
 30
0.0
 10
494.0516433705769
 20
-55.94721350308521
 30
0.0
 10
494.0529133780306
 20
-57.0310228945004
 30
0.0
 10
494.0509730887427
 20
-58.11437457182544
 30
0.0
 10
494.0503028069887
 20
-58.49858711920603
 30
0.0
 10
494.0492091894083
 20
-58.88272911062859
 30
0.0
 10
494.0466338963943
 20
-59.26708276995859
 30
0.0
 10
494.038555237512
 20
-60.46494679038537
 30
0.0
 10
494.0158714923441
 20
-61.66478637803217
 30
0.0
 10
493.8869657308211
 20
-62.85570063518487
 30
0.0
 10
493.7855415205424
 20
-63.79310728371759
 30
0.0
 10
493.6182533100759
 20
-64.72497528841268
 30
0.0
 10
493.3648162573807
 20
-65.63274842854831
 30
0.0
 10
493.1176586862337
 20
-66.51794365753135
 30
0.0
 10
492.7885503532054
 20
-67.38020819550749
 30
0.0
 10
492.3893093836768
 20
-68.20874697868491
 30
0.0
 10
491.9799789100977
 20
-69.05827616365711
 30
0.0
 10
491.4968821674349
 20
-69.87235097251306
 30
0.0
 10
490.9553650796789
 20
-70.64416275392684
 30
0.0
 10
490.0778604516062
 20
-71.89476736364882
 30
0.0
 10
489.0759735909183
 20
-73.06873970447096
 30
0.0
 10
487.8951056131684
 20
-74.03878697308414
 30
0.0
 10
486.9841826994555
 20
-74.78708254972649
 30
0.0
 10
485.9150508885334
 20
-75.54627954979873
 30
0.0
 10
485.696292830451
 20
-75.69774022724435
 30
0.0
  0
ENDBLK
  5
63
330
60
100
AcDbEntity
  8
0
100
AcDbBlockEnd
  0
BLOCK
  5
67
330
65
100
AcDbEntity
  8
0
100
AcDbBlockBegin
  2
block 9
 70
     0
 10
0.0
 20
0.0
 30
0.0
  3
block 9
  1

  0
SPLINE
  5
69
330
65
100
AcDbEntity
  8
0
 62
   250
370
    25
100
AcDbSpline
210
0.0
220
0.0
230
1.0
 70
     8
 71
     3
 72
    11
 73
     7
 74
     0
 42
0.0000000001
 43
0.0000000001
 12
1.0
 22
0.0
 32
0.0
 13
1.0
 23
0.0
 33
0.0
 40
0.0
 40
0.0
 40
0.0
 40
0.0
 40
1.0
 40
1.0
 40
1.0
 40
2.0
 40
2.0
 40
2.0
 40
2.0
 10
494.0513258876093
 20
365.1512210076858
 30
0.0
 10
494.0500206021836
 20
366.5474884223398
 30
0.0
 10
493.7649744739739
 20
367.7820768263852
 30
0.0
 10
493.1541008655029
 20
369.0376203542365
 30
0.0
 10
491.1517223705456
 20
371.2873680884108
 30
0.0
 10
488.1013054623859
 20
372.5643959099481
 30
0.0
 10
485.1788770880099
 20
372.8114476472329
 30
0.0
  0
ENDBLK
  5
68
330
65
100
AcDbEntity
  8
0
100
AcDbBlockEnd
  0
BLOCK
  5
6C
330
6A
100
AcDbEntity
  8
0
100
AcDbBlockBegin
  2
block 10
 70
     0
 10
0.0
 20
0.0
 30
0.0
  3
block 10
  1

  0
SPLINE
  5
6E
330
6A
100
AcDbEntity
  8
0
 62
   250
370
    25
100
AcDbSpline
210
0.0
220
0.0
230
1.0
 70
     8
 71
     3
 72
    23
 73
    19
 74
     0
 42
0.0000000001
 43
0.0000000001
 12
1.0
 22
0.0
 32
0.0
 13
1.0
 23
0.0
 33
0.0
 40
0.0
 40
0.0
 40
0.0
 40
0.0
 40
1.0
 40
1.0
 40
1.0
 40
2.0
 40
2.0
 40
2.0
 40
3.0
 40
3.0
 40
3.0
 40
4.0
 40
4.0
 40
4.0
 40
5.0
 40
5.0
 40
5.0
 40
6.0
 40
6.0
 40
6.0
 40
6.0
 10
485.696546257388
 20
379.8242879621352
 30
0.0
 10
486.3616068526795
 20
379.8247465759275
 30
0.0
 10
487.0261735561608
 20
379.7707359790686
 30
0.0
 10
487.6822382649789
 20
379.6632439551785
 30
0.0
 10
488.2770603898015
 20
379.5657708793567
 30
0.0
 10
488.8648974733588
 20
379.4243767107619
 30
0.0
 10
489.4386586404292
 20
379.2400139550069
 30
0.0
 10
490.6207886790167
 20
378.8601053218725
 30
0.0
 10
491.7432283649867
 20
378.2977389442785
 30
0.0
 10
492.7654080142544
 20
377.5930611704708
 30
0.0
 10
493.8811096048597
 20
376.8238952379399
 30
0.0
 10
494.8774304902521
 20
375.8851833038731
 30
0.0
 10
495.7386719666027
 20
374.8384501761626
 30
0.0
 10
496.6121901821228
 20
373.7768650162685
 30
0.0
 10
497.3467484101217
 20
372.6041894779286
 30
0.0
 10
497.9495433597631
 20
371.3689307921366
 30
0.0
 10
498.9293541475893
 20
369.360202259519
 30
0.0
 10
499.3850751728519
 20
367.3857286515072
 30
0.0
 10
499.3847576708695
 20
365.1507976716117
 30
0.0
  0
ENDBLK
  5
6D
330
6A
100
AcDbEntity
  8
0
100
AcDbBlockEnd
  0
BLOCK
  5
71
330
6F
100
AcDbEntity
  8
0
100
AcDbBlockBegin
  2
block 11
 70
     0
 10
0.0
 20
0.0
 30
0.0
  3
block 11
  1

  0
SPLINE
  5
73
330
6F
100
AcDbEntity
  8
0
 62
   250
370
    25
100
AcDbSpline
210
0.0
220
0.0
230
1.0
 70
     8
 71
     3
 72
    38
 73
    34
 74
     0
 42
0.0000000001
 43
0.0000000001
 12
1.0
 22
0.0
 32
0.0
 13
1.0
 23
0.0
 33
0.0
 40
0.0
 40
0.0
 40
0.0
 40
0.0
 40
1.0
 40
1.0
 40
1.0
 40
2.0
 40
2.0
 40
2.0
 40
3.0
 40
3.0
 40
3.0
 40
4.0
 40
4.0
 40
4.0
 40
5.0
 40
5.0
 40
5.0
 40
6.0
 40
6.0
 40
6.0
 40
7.0
 40
7.0
 40
7.0
 40
8.0
 40
8.0
 40
8.0
 40
9.0
 40
9.0
 40
9.0
 40
10.0
 40
10.0
 40
10.0
 40
11.0
 40
11.0
 40
11.0
 40
11.0
 10
180.3048978069783
 20
253.8104659771174
 30
0.0
 10
180.9983924591275
 20
253.8100073632741
 30
0.0
 10
181.6920635011988
 20
253.7988242419089
 30
0.0
 10
182.3852406514747
 20
253.7758229954775
 30
0.0
 10
183.0597204690729
 20
253.7534214747946
 30
0.0
 10
183.7337063948629
 20
253.719836832778
 30
0.0
 10
184.4070573168998
 20
253.6755982392063
 30
0.0
 10
185.7582041872443
 20
253.5868388281828
 30
0.0
 10
187.1068463205552
 20
253.4551813870588
 30
0.0
 10
188.4475156289992
 20
253.2653505482106
 30
0.0
 10
189.0001100043759
 20
253.1871039768344
 30
0.0
 10
189.5513285382939
 20
253.0989442915956
 30
0.0
 10
190.0995484433888
 20
252.9938864514075
 30
0.0
 10
190.5649709149361
 20
252.9047037045992
 30
0.0
 10
191.0281708733512
 20
252.8033147748887
 30
0.0
 10
191.4840682886309
 20
252.674020958818
 30
0.0
 10
191.6710416153336
 20
252.6209981469317
 30
0.0
 10
191.8567802125277
 20
252.5632833630064
 30
0.0
 10
192.0385323972694
 20
252.4945618476757
 30
0.0
 10
192.1575956005975
 20
252.4495471384544
 30
0.0
 10
192.2750007385705
 20
252.3997699012149
 30
0.0
 10
192.3881372402155
 20
252.3413142796016
 30
0.0
 10
192.4743919163975
 20
252.2967581841887
 30
0.0
 10
192.5581771335551
 20
252.2471220588967
 30
0.0
 10
192.6334603560412
 20
252.1855972525658
 30
0.0
 10
192.6883529025233
 20
252.1407236552892
 30
0.0
 10
192.7386945887817
 20
252.0895352986472
 30
0.0
 10
192.7723850655789
 20
252.0266699288741
 30
0.0
 10
203.6166616245556
 20
252.0266699283864
 30
0.0
 10
214.4609029055474
 20
252.0266699279019
 30
0.0
 10
225.3051441865515
 20
252.0266699274142
 30
0.0
 10
229.4514364571796
 20
252.0266699272285
 30
0.0
 10
373.459809639086
 20
252.026669920763
 30
0.0
 10
377.606066631728
 20
252.0266699205769
 30
0.0
  0
ENDBLK
  5
72
330
6F
100
AcDbEntity
  8
0
100
AcDbBlockEnd
  0
BLOCK
  5
76
330
74
100
AcDbEntity
  8
0
100
AcDbBlockBegin
  2
block 12
 70
     0
 10
0.0
 20
0.0
 30
0.0
  3
block 12
  1

  0
SPLINE
  5
78
330
74
100
AcDbEntity
  8
0
 62
   250
370
    25
100
AcDbSpline
210
0.0
220
0.0
230
1.0
 70
     8
 71
     3
 72
    74
 73
    70
 74
     0
 42
0.0000000001
 43
0.0000000001
 12
1.0
 22
0.0
 32
0.0
 13
1.0
 23
0.0
 33
0.0
 40
0.0
 40
0.0
 40
0.0
 40
0.0
 40
1.0
 40
1.0
 40
1.0
 40
2.0
 40
2.0
 40
2.0
 40
3.0
 40
3.0
 40
3.0
 40
4.0
 40
4.0
 40
4.0
 40
5.0
 40
5.0
 40
5.0
 40
6.0
 40
6.0
 40
6.0
 40
7.0
 40
7.0
 40
7.0
 40
8.0
 40
8.0
 40
8.0
 40
9.0
 40
9.0
 40
9.0
 40
10.0
 40
10.0
 40
10.0
 40
11.0
 40
11.0
 40
11.0
 40
12.0
 40
12.0
 40
12.0
 40
13.0
 40
13.0
 40
13.0
 40
14.0
 40
14.0
 40
14.0
 40
15.0
 40
15.0
 40
15.0
 40
16.0
 40
16.0
 40
16.0
 40
17.0
 40
17.0
 40
17.0
 40
18.0
 40
18.0
 40
18.0
 40
19.0
 40
19.0
 40
19.0
 40
20.0
 40
20.0
 40
20.0
 40
21.0
 40
21.0
 40
21.0
 40
22.0
 40
22.0
 40
22.0
 40
23.0
 40
23.0
 40
23.0
 40
23.0
 10
467.6065946674212
 20
216.5264686076241
 30
0.0
 10
467.6065946667475
 20
201.5263751006818
 30
0.0
 10
467.6065946660737
 20
186.5262815937382
 30
0.0
 10
467.6065946653999
 20
171.5262233647765
 30
0.0
 10
467.6065946635191
 20
129.6252549627065
 30
0.0
 10
467.6065593836496
 20
87.72432183861012
 30
0.0
 10
467.6066299377448
 20
45.82338871452144
 30
0.0
 10
467.6066299374625
 20
39.53826285710012
 30
0.0
 10
467.6066299371801
 20
33.25313699967881
 30
0.0
 10
467.6065593809295
 20
26.96797586426629
 30
0.0
 10
467.6064535464495
 20
15.44523336634127
 30
0.0
 10
467.6061007660722
 20
3.922490868416252
 30
0.0
 10
467.6057127077012
 20
-7.60028690750639
 30
0.0
 10
467.605571595592
 20
-11.33209802433491
 30
0.0
 10
467.6054304834828
 20
-15.06387386317928
 30
0.0
 10
467.6071591046367
 20
-18.79554386808276
 30
0.0
 10
467.6074060505135
 20
-19.38475677822995
 30
0.0
 10
467.6077235523618
 20
-19.97396968836367
 30
0.0
 10
467.6066299347673
 20
-20.56325315447915
 30
0.0
 10
467.6037018618342
 20
-22.1347462867477
 30
0.0
 10
467.5907548408477
 20
-23.70680386677415
 30
0.0
 10
467.4904595260898
 20
-25.27473392252647
 30
0.0
 10
467.406921254786
 20
-26.58132466332125
 30
0.0
 10
467.2627401252446
 20
-27.88505788730969
 30
0.0
 10
467.0451807844682
 20
-29.17640853845392
 30
0.0
 10
466.8493879611699
 20
-30.33867704147271
 30
0.0
 10
466.5941517311683
 20
-31.4908913186812
 30
0.0
 10
466.2771437473876
 20
-32.62567827114824
 30
0.0
 10
465.6079556276077
 20
-35.02133569549883
 30
0.0
 10
464.6635639377071
 20
-37.33913460631354
 30
0.0
 10
463.4965681550846
 20
-39.53638864141524
 30
0.0
 10
462.2681533985163
 20
-41.84931919024831
 30
0.0
 10
460.7930749626639
 20
-44.02865200880807
 30
0.0
 10
459.129294578786
 20
-46.05145640668956
 30
0.0
 10
457.3824698154529
 20
-48.17522639843136
 30
0.0
 10
455.4276460456664
 20
-50.12645176415461
 30
0.0
 10
453.2996073637906
 20
-51.86777311746543
 30
0.0
 10
451.6780547293868
 20
-53.19468397772029
 30
0.0
 10
449.9558892784333
 20
-54.39970939882351
 30
0.0
 10
448.1451055262156
 20
-55.45392143285986
 30
0.0
 10
446.4476346655983
 20
-56.44219802518214
 30
0.0
 10
444.6722700115075
 20
-57.29797141363896
 30
0.0
 10
442.8354511055273
 20
-57.99312413105337
 30
0.0
 10
440.9986321995367
 20
-58.68827684846265
 30
0.0
 10
439.100394319633
 20
-59.22280889484363
 30
0.0
 10
437.1699476383587
 20
-59.58444353099462
 30
0.0
 10
436.1403596119583
 20
-59.77730828133604
 30
0.0
 10
435.1016345871371
 20
-59.92103079695901
 30
0.0
 10
434.0592406517638
 20
-60.02428946242689
 30
0.0
 10
433.4077268031457
 20
-60.08881289910338
 30
0.0
 10
432.754801835095
 20
-60.13753179797357
 30
0.0
 10
432.1010301953825
 20
-60.17280978412479
 30
0.0
 10
431.7087742671416
 20
-60.19397657580115
 30
0.0
 10
431.3162361150276
 20
-60.21027500540347
 30
0.0
 10
430.9235921289412
 20
-60.2232925822806
 30
0.0
 10
430.465578034485
 20
-60.23853267228794
 30
0.0
 10
430.0074581060745
 20
-60.249292458043
 30
0.0
 10
429.5492676216777
 20
-60.25599527539726
 30
0.0
 10
429.0255306389878
 20
-60.26368587636345
 30
0.0
 10
428.5017231003264
 20
-60.26608477939193
 30
0.0
 10
427.9779155616579
 20
-60.26848368243326
 30
0.0
 10
414.0328804081958
 20
-60.33205461288775
 30
0.0
 10
400.087845254719
 20
-60.38934606180482
 30
0.0
 10
386.1427748232605
 20
-60.44138109077153
 30
0.0
 10
361.5261841311014
 20
-60.53324496565956
 30
0.0
 10
336.9095228829626
 20
-60.60884568891979
 30
0.0
 10
312.2928263568447
 20
-60.66793631465165
 30
0.0
 10
268.2969442434798
 20
-60.7734880472955
 30
0.0
 10
224.3009210181636
 20
-60.82622863464378
 30
0.0
 10
180.3048977928545
 20
-60.82622863266863
 30
0.0
  0
ENDBLK
  5
77
330
74
100
AcDbEntity
  8
0
100
AcDbBlockEnd
  0
BLOCK
  5
7B
330
79
100
AcDbEntity
  8
0
100
AcDbBlockBegin
  2
block 13
 70
     0
 10
0.0
 20
0.0
 30
0.0
  3
block 13
  1

  0
SPLINE
  5
7D
330
79
100
AcDbEntity
  8
0
 62
   250
370
    25
100
AcDbSpline
210
0.0
220
0.0
230
1.0
 70
     8
 71
     3
 72
    11
 73
     7
 74
     0
 42
0.0000000001
 43
0.0000000001
 12
1.0
 22
0.0
 32
0.0
 13
1.0
 23
0.0
 33
0.0
 40
0.0
 40
0.0
 40
0.0
 40
0.0
 40
1.0
 40
1.0
 40
1.0
 40
2.0
 40
2.0
 40
2.0
 40
2.0
 10
-282.7980108709043
 20
369.0376203890734
 30
0.0
 10
-281.7657257467392
 20
371.9703089379667
 30
0.0
 10
-277.4924134185708
 20
372.5643959443191
 30
0.0
 10
-274.569985044163
 20
372.8114124033569
 30
0.0
 10
-122.9451652039729
 20
372.2266092197972
 30
0.0
 10
28.67898435449307
 20
371.9917989370327
 30
0.0
 10
180.3048978122915
 20
372.1070521110492
 30
0.0
  0
ENDBLK
  5
7C
330
79
100
AcDbEntity
  8
0
100
AcDbBlockEnd
  0
BLOCK
  5
80
330
7E
100
AcDbEntity
  8
0
100
AcDbBlockBegin
  2
block 14
 70
     0
 10
0.0
 20
0.0
 30
0.0
  3
block 14
  1

  0
SPLINE
  5
82
330
7E
100
AcDbEntity
  8
0
 62
   250
370
    25
100
AcDbSpline
210
0.0
220
0.0
230
1.0
 70
     8
 71
     3
 72
   155
 73
   151
 74
     0
 42
0.0000000001
 43
0.0000000001
 12
1.0
 22
0.0
 32
0.0
 13
1.0
 23
0.0
 33
0.0
 40
0.0
 40
0.0
 40
0.0
 40
0.0
 40
1.0
 40
1.0
 40
1.0
 40
2.0
 40
2.0
 40
2.0
 40
3.0
 40
3.0
 40
3.0
 40
4.0
 40
4.0
 40
4.0
 40
5.0
 40
5.0
 40
5.0
 40
6.0
 40
6.0
 40
6.0
 40
7.0
 40
7.0
 40
7.0
 40
8.0
 40
8.0
 40
8.0
 40
9.0
 40
9.0
 40
9.0
 40
10.0
 40
10.0
 40
10.0
 40
11.0
 40
11.0
 40
11.0
 40
12.0
 40
12.0
 40
12.0
 40
13.0
 40
13.0
 40
13.0
 40
14.0
 40
14.0
 40
14.0
 40
15.0
 40
15.0
 40
15.0
 40
16.0
 40
16.0
 40
16.0
 40
17.0
 40
17.0
 40
17.0
 40
18.0
 40
18.0
 40
18.0
 40
19.0
 40
19.0
 40
19.0
 40
20.0
 40
20.0
 40
20.0
 40
21.0
 40
21.0
 40
21.0
 40
22.0
 40
22.0
 40
22.0
 40
23.0
 40
23.0
 40
23.0
 40
24.0
 40
24.0
 40
24.0
 40
25.0
 40
25.0
 40
25.0
 40
26.0
 40
26.0
 40
26.0
 40
27.0
 40
27.0
 40
27.0
 40
28.0
 40
28.0
 40
28.0
 40
29.0
 40
29.0
 40
29.0
 40
30.0
 40
30.0
 40
30.0
 40
31.0
 40
31.0
 40
31.0
 40
32.0
 40
32.0
 40
32.0
 40
33.0
 40
33.0
 40
33.0
 40
34.0
 40
34.0
 40
34.0
 40
35.0
 40
35.0
 40
35.0
 40
36.0
 40
36.0
 40
36.0
 40
37.0
 40
37.0
 40
37.0
 40
38.0
 40
38.0
 40
38.0
 40
39.0
 40
39.0
 40
39.0
 40
40.0
 40
40.0
 40
40.0
 40
41.0
 40
41.0
 40
41.0
 40
42.0
 40
42.0
 40
42.0
 40
43.0
 40
43.0
 40
43.0
 40
44.0
 40
44.0
 40
44.0
 40
45.0
 40
45.0
 40
45.0
 40
46.0
 40
46.0
 40
46.0
 40
47.0
 40
47.0
 40
47.0
 40
48.0
 40
48.0
 40
48.0
 40
49.0
 40
49.0
 40
49.0
 40
50.0
 40
50.0
 40
50.0
 40
50.0
 10
437.4386247934474
 20
216.5264686089813
 30
0.0
 10
437.4385895133733
 20
170.3023595008147
 30
0.0
 10
437.4386247872704
 20
79.0780051498007
 30
0.0
 10
437.4383778392876
 20
32.85389604162443
 30
0.0
 10
437.4383778392202
 20
31.31789256254697
 30
0.0
 10
437.4383778391496
 20
29.78185380549115
 30
0.0
 10
437.4389775648435
 20
28.24585032641369
 30
0.0
 10
437.4395067345717
 20
26.80100516130157
 30
0.0
 10
437.4406003520783
 20
25.35615999618946
 30
0.0
 10
437.436402271653
 20
23.91124427510841
 30
0.0
 10
437.4320630792911
 20
22.43302613591944
 30
0.0
 10
437.4221852430961
 20
20.95473744076797
 30
0.0
 10
437.3708557731488
 20
19.4775070851704
 30
0.0
 10
437.3345194473564
 20
18.43200871342102
 30
0.0
 10
437.2774396656814
 20
17.38703951145694
 30
0.0
 10
437.1954536257755
 20
16.34401059867289
 30
0.0
 10
437.0730037357082
 20
14.78560559895008
 30
0.0
 10
436.8949204614416
 20
13.23153979143067
 30
0.0
 10
436.6437764778236
 20
11.68900988508076
 30
0.0
 10
436.4149987374469
 20
10.2837818974544
 30
0.0
 10
436.1255428608473
 20
8.888114243829506
 30
0.0
 10
435.769729092264
 20
7.509133077246887
 30
0.0
 10
435.0841367089101
 20
4.852171615948576
 30
0.0
 10
434.1521275921341
 20
2.257193574789524
 30
0.0
 10
432.9463613027021
 20
-0.2071853648539212
 30
0.0
 10
431.7708282474016
 20
-2.609757274280766
 30
0.0
 10
430.3350494881356
 20
-4.888150675516514
 30
0.0
 10
428.6420236537184
 20
-6.958580353514108
 30
0.0
 10
427.0448481077286
 20
-8.911816564428676
 30
0.0
 10
425.2187537094929
 20
-10.67994918656231
 30
0.0
 10
423.2063915442843
 20
-12.20166508149764
 30
0.0
 10
421.5587684781042
 20
-13.44761296553406
 30
0.0
 10
419.7862966188681
 20
-14.5284246004691
 30
0.0
 10
417.9350490165351
 20
-15.4455463837009
 30
0.0
 10
415.9026489552006
 20
-16.45241536147892
 30
0.0
 10
413.7753158330898
 20
-17.26204512354265
 30
0.0
 10
411.6019802170198
 20
-17.91087782871352
 30
0.0
 10
409.127688100926
 20
-18.64952828438736
 30
0.0
 10
406.5937409102177
 20
-19.17979168101008
 30
0.0
 10
404.040919996925
 20
-19.56919008241868
 30
0.0
 10
402.606940415043
 20
-19.7879488690707
 30
0.0
 10
401.1669988535008
 20
-19.96225739426579
 30
0.0
 10
399.7230708795222
 20
-20.09977098083134
 30
0.0
 10
398.2302828946977
 20
-20.24197653942249
 30
0.0
 10
396.7331909955647
 20
-20.34488242241601
 30
0.0
 10
395.2352877027451
 20
-20.41335699177748
 30
0.0
 10
394.6481209009129
 20
-20.44020353854402
 30
0.0
 10
394.0608129871447
 20
-20.461758387523
 30
0.0
 10
393.4732934054576
 20
-20.48010293984198
 30
0.0
 10
393.1102123717815
 20
-20.49146245108433
 30
0.0
 10
392.7470255041509
 20
-20.50158723284434
 30
0.0
 10
392.3838386365268
 20
-20.51178257057327
 30
0.0
 10
391.0835273442521
 20
-20.54822472931322
 30
0.0
 10
389.7833571639275
 20
-20.58523133581171
 30
0.0
 10
388.4831517056097
 20
-20.62184988447495
 30
0.0
 10
382.9880409117127
 20
-20.77675551758475
 30
0.0
 10
377.4926831719216
 20
-20.92545222529737
 30
0.0
 10
371.9971490421975
 20
-21.06801056356122
 30
0.0
 10
362.661182781938
 20
-21.31022921007754
 30
0.0
 10
353.3247931858374
 20
-21.53484414193619
 30
0.0
 10
343.9880155319092
 20
-21.74171424719864
 30
0.0
 10
325.8139259522356
 20
-22.14441244833723
 30
0.0
 10
307.6383546971419
 20
-22.48001192148901
 30
0.0
 10
289.4617956584445
 20
-22.74851266664178
 30
0.0
 10
253.0788324047479
 20
-23.28597277074572
 30
0.0
 10
216.6918827386246
 20
-23.554791016937
 30
0.0
 10
180.3048977945293
 20
-23.55479101530066
 30
0.0
 10
143.917912850434
 20
-23.55479101367139
 30
0.0
 10
107.5309631843299
 20
-23.2859727642068
 30
0.0
 10
71.14799993067818
 20
-22.74851265683662
 30
0.0
 10
52.97140561401564
 20
-22.48001191005971
 30
0.0
 10
34.79583435896105
 20
-22.14441243527866
 30
0.0
 10
16.62178005730979
 20
-21.74171423249796
 30
0.0
 10
7.284967125402918
 20
-21.53484412639424
 30
0.0
 10
-2.051422470670452
 20
-21.31022919370139
 30
0.0
 10
-11.38735345292008
 20
-21.06801054635086
 30
0.0
 10
-16.88285230464943
 20
-20.92545220758648
 30
0.0
 10
-22.37821004442776
 20
-20.77675549938617
 30
0.0
 10
-27.87339139428407
 20
-20.62192042175056
 30
0.0
 10
-29.17359685259477
 20
-20.58526659498188
 30
0.0
 10
-30.47380231089905
 20
-20.54829526635267
 30
0.0
 10
-31.77400776920974
 20
-20.51164143958913
 30
0.0
 10
-32.13715935885453
 20
-20.50141082384397
 30
0.0
 10
-32.50031094849901
 20
-20.49118020809238
 30
0.0
 10
-32.86342726015259
 20
-20.47989125278624
 30
0.0
 10
-33.45098211982579
 20
-20.46158197840071
 30
0.0
 10
-34.0384311455427
 20
-20.44041518720691
 30
0.0
 10
-34.62566850333933
 20
-20.41374503031748
 30
0.0
 10
-36.12374818608613
 20
-20.34565851865648
 30
0.0
 10
-37.62020508145631
 20
-20.24158846200902
 30
0.0
 10
-39.11299306627248
 20
-20.09927706933516
 30
0.0
 10
-40.55688576224606
 20
-19.9616223707034
 30
0.0
 10
-41.99728593760048
 20
-19.78819579500546
 30
0.0
 10
-43.43140663140847
 20
-19.56971923209506
 30
0.0
 10
-45.98443921258387
 20
-19.18074416629408
 30
0.0
 10
-48.51743389761379
 20
-18.64896381607585
 30
0.0
 10
-50.99183184760415
 20
-17.91034863816733
 30
0.0
 10
-53.16527329756762
 20
-17.26151593279817
 30
0.0
 10
-55.29348836926722
 20
-16.45312090002556
 30
0.0
 10
-57.32581787453211
 20
-15.44618136609059
 30
0.0
 10
-59.17699492081788
 20
-14.52902430470844
 30
0.0
 10
-60.948620108283
 20
-13.44715433007062
 30
0.0
 10
-62.59617261837892
 20
-12.20103005596011
 30
0.0
 10
-64.6083936715037
 20
-10.67903193694241
 30
0.0
 10
-66.43558168716355
 20
-8.911992932187692
 30
0.0
 10
-68.0328277889397
 20
-6.959003667035734
 30
0.0
 10
-69.7258889011627
 20
-4.88878565680313
 30
0.0
 10
-71.16060932064246
 20
-2.609580861776719
 30
0.0
 10
-72.33614237571328
 20
-0.2069031182870622
 30
0.0
 10
-73.54197922091012
 20
2.257616933409759
 30
0.0
 10
-74.47511723300303
 20
4.852101082850437
 30
0.0
 10
-75.16014516834173
 20
7.50892143228018
 30
0.0
 10
-75.51567671290681
 20
8.887867320898547
 30
0.0
 10
-75.80435647368964
 20
10.2835702525339
 30
0.0
 10
-76.03348699380673
 20
11.68890407415248
 30
0.0
 10
-76.28501903513322
 20
13.23153981446703
 30
0.0
 10
-76.46479565258912
 20
14.78574673395126
 30
0.0
 10
-76.58664581674981
 20
16.34411645570147
 30
0.0
 10
-76.66820852073067
 20
17.38711009050137
 30
0.0
 10
-76.72384190488086
 20
18.43197345851173
 30
0.0
 10
-76.75986072870236
 20
19.47743655227055
 30
0.0
 10
-76.81073158469982
 20
20.95463162989038
 30
0.0
 10
-76.82237332007492
 20
22.43302615900778
 30
0.0
 10
-76.82727696007599
 20
23.91127957618153
 30
0.0
 10
-76.83203948815203
 20
25.35619529726258
 30
0.0
 10
-76.83038142273351
 20
26.80100518439055
 30
0.0
 10
-76.8294994730185
 20
28.24585034950202
 30
0.0
 10
-76.82858224530621
 20
29.78185382857948
 30
0.0
 10
-76.82858224524203
 20
31.3178925856353
 30
0.0
 10
-76.82861752315624
 20
32.85389606471276
 30
0.0
 10
-76.82889974496571
 20
79.07800517288902
 30
0.0
 10
-76.82879390893962
 20
125.3021142810525
 30
0.0
 10
-76.8288291848514
 20
171.526223389222
 30
0.0
 10
-76.82914668664134
 20
173.2910398808195
 30
0.0
 10
-76.82939363246523
 20
175.0558916504077
 30
0.0
 10
-76.83098114176401
 20
176.8207081420052
 30
0.0
 10
-76.8325686510628
 20
178.5724365010654
 30
0.0
 10
-76.83549672383648
 20
180.3241295821439
 30
0.0
 10
-76.83895396640605
 20
182.0758579412009
 30
0.0
 10
-76.84502177988557
 20
185.1331892574715
 30
0.0
 10
-76.85274765872585
 20
188.1905558517365
 30
0.0
 10
-76.86368383430315
 20
191.2478871680109
 30
0.0
 10
-76.8906009374108
 20
198.7653083292359
 30
0.0
 10
-76.93699148888679
 20
206.2826236565004
 30
0.0
 10
-76.99142542121119
 20
213.7999037057917
 30
0.0
 10
-76.99431821606103
 20
214.198862441308
 30
0.0
 10
-76.99724628889568
 20
214.597821176841
 30
0.0
 10
-76.99706989894126
 20
214.9968151903542
 30
0.0
 10
-76.99685823100879
 20
215.5067231895834
 30
0.0
 10
-76.99163708902847
 20
216.0166311888168
 30
0.0
 10
-76.99071986136782
 20
216.5264686320761
 30
0.0
  0
ENDBLK
  5
81
330
7E
100
AcDbEntity
  8
0
100
AcDbBlockEnd
  0
BLOCK
  5
85
330
83
100
AcDbEntity
  8
0
100
AcDbBlockBegin
  2
block 15
 70
     0
 10
0.0
 20
0.0
 30
0.0
  3
block 15
  1

  0
SPLINE
  5
87
330
83
100
AcDbEntity
  8
0
 62
   250
370
    25
100
AcDbSpline
210
0.0
220
0.0
230
1.0
 70
    24
 71
     3
 72
     8
 73
     4
 74
     0
 42
0.0000000001
 43
0.0000000001
 12
1.0
 22
0.0
 32
0.0
 13
1.0
 23
0.0
 33
0.0
 40
0.0
 40
0.0
 40
0.0
 40
0.0
 40
1.0
 40
1.0
 40
1.0
 40
1.0
 10
165.6174298698469
 20
252.0266699300933
 30
0.0
 10
142.3079591212873
 20
252.0266699311393
 30
0.0
 10
5.849389075573101
 20
252.0266699372679
 30
0.0
 10
-17.46008167298657
 20
252.0266699383138
 30
0.0
  0
ENDBLK
  5
86
330
83
100
AcDbEntity
  8
0
100
AcDbBlockEnd
  0
BLOCK
  5
8A
330
88
100
AcDbEntity
  8
0
100
AcDbBlockBegin
  2
block 16
 70
     0
 10
0.0
 20
0.0
 30
0.0
  3
block 16
  1

  0
SPLINE
  5
8C
330
88
100
AcDbEntity
  8
0
 62
   250
370
    25
100
AcDbSpline
210
0.0
220
0.0
230
1.0
 70
     8
 71
     3
 72
    68
 73
    64
 74
     0
 42
0.0000000001
 43
0.0000000001
 12
1.0
 22
0.0
 32
0.0
 13
1.0
 23
0.0
 33
0.0
 40
0.0
 40
0.0
 40
0.0
 40
0.0
 40
1.0
 40
1.0
 40
1.0
 40
2.0
 40
2.0
 40
2.0
 40
3.0
 40
3.0
 40
3.0
 40
4.0
 40
4.0
 40
4.0
 40
5.0
 40
5.0
 40
5.0
 40
6.0
 40
6.0
 40
6.0
 40
7.0
 40
7.0
 40
7.0
 40
8.0
 40
8.0
 40
8.0
 40
9.0
 40
9.0
 40
9.0
 40
10.0
 40
10.0
 40
10.0
 40
11.0
 40
11.0
 40
11.0
 40
12.0
 40
12.0
 40
12.0
 40
13.0
 40
13.0
 40
13.0
 40
14.0
 40
14.0
 40
14.0
 40
15.0
 40
15.0
 40
15.0
 40
16.0
 40
16.0
 40
16.0
 40
17.0
 40
17.0
 40
17.0
 40
18.0
 40
18.0
 40
18.0
 40
19.0
 40
19.0
 40
19.0
 40
20.0
 40
20.0
 40
20.0
 40
21.0
 40
21.0
 40
21.0
 40
21.0
 10
180.3048977928545
 20
-60.82622863266863
 30
0.0
 10
106.9780160274009
 20
-60.826228629378
 30
0.0
 10
33.65183982168293
 20
-60.67971914952111
 30
0.0
 10
-39.6744422179891
 20
-60.38662963712323
 30
0.0
 10
-45.12376218582199
 20
-60.36486311940516
 30
0.0
 10
-50.5730468756762
 20
-60.34228520801513
 30
0.0
 10
-56.02233156552558
 20
-60.3188959029352
 30
0.0
 10
-57.85311793584558
 20
-60.31102891194367
 30
0.0
 10
-59.68390430616654
 20
-60.30305608697983
 30
0.0
 10
-61.51469067648076
 20
-60.2950127060618
 30
0.0
 10
-62.08457126508169
 20
-60.29250796901029
 30
0.0
 10
-62.65441657570425
 20
-60.29000323196776
 30
0.0
 10
-63.22429716430806
 20
-60.28739266096124
 30
0.0
 10
-64.18999675774243
 20
-60.28301819064215
 30
0.0
 10
-65.15569635118997
 20
-60.27843205238995
 30
0.0
 10
-66.12136066664341
 20
-60.27479841976297
 30
0.0
 10
-66.76525447023378
 20
-60.27236423869707
 30
0.0
 10
-67.40914827382383
 20
-60.27038867145011
 30
0.0
 10
-68.05311263338315
 20
-60.26481474959303
 30
0.0
 10
-69.46959433411232
 20
-60.25257328832734
 30
0.0
 10
-70.88639353672158
 20
-60.22315144780883
 30
0.0
 10
-72.29917104889977
 20
-60.12285613305419
 30
0.0
 10
-73.3512664304697
 20
-60.04817263627355
 30
0.0
 10
-74.40110402092337
 20
-59.93422474090917
 30
0.0
 10
-75.44367434621932
 20
-59.77385101573076
 30
0.0
 10
-76.33920602515954
 20
-59.63612575766938
 30
0.0
 10
-77.22934017221667
 20
-59.4641455750503
 30
0.0
 10
-78.11086649064153
 20
-59.25533517486973
 30
0.0
 10
-79.92630693695907
 20
-58.82529652336261
 30
0.0
 10
-81.70498772168087
 20
-58.23901167111163
 30
0.0
 10
-83.42366065191959
 20
-57.51330821751532
 30
0.0
 10
-85.92144790672936
 20
-56.45863754283444
 30
0.0
 10
-88.29241080123228
 20
-55.10953771646378
 30
0.0
 10
-90.5027177467096
 20
-53.53811514007496
 30
0.0
 10
-92.91664922835433
 20
-51.82198226805311
 30
0.0
 10
-95.13898596709974
 20
-49.84066478069074
 30
0.0
 10
-97.13385025100284
 20
-47.65127773616793
 30
0.0
 10
-99.08045424982805
 20
-45.51484294754383
 30
0.0
 10
-100.8105219695313
 20
-43.18028699358958
 30
0.0
 10
-102.2544146654019
 20
-40.67692588010956
 30
0.0
 10
-103.6880414673019
 20
-38.19141542716919
 30
0.0
 10
-104.8396207697531
 20
-35.53953399565601
 30
0.0
 10
-105.6244148499873
 20
-32.78005470906081
 30
0.0
 10
-106.0834872839608
 20
-31.16587521459206
 30
0.0
 10
-106.4170406431279
 20
-29.51490078146105
 30
0.0
 10
-106.6331183083452
 20
-27.85069710387658
 30
0.0
 10
-106.7515112298975
 20
-26.93869062842881
 30
0.0
 10
-106.8346261652803
 20
-26.02273301862058
 30
0.0
 10
-106.8900478815098
 20
-25.10479984164368
 30
0.0
 10
-106.9573230010868
 20
-23.99033300867135
 30
0.0
 10
-106.9837814906662
 20
-22.87300865889139
 30
0.0
 10
-106.9924951532002
 20
-21.75628403486181
 30
0.0
 10
-106.9969049014476
 20
-21.19592851668082
 30
0.0
 10
-106.9967990674618
 20
-20.63574938843018
 30
0.0
 10
-106.9967285114576
 20
-20.07553498218706
 30
0.0
 10
-106.9965168434581
 20
-18.0491675077271
 30
0.0
 10
-106.9965873993368
 20
-16.02244725340899
 30
0.0
 10
-106.9966579552223
 20
-13.99576227708144
 30
0.0
 10
-106.9967285110693
 20
-11.27762878926834
 30
0.0
 10
-106.9967285109474
 20
-8.559565857431863
 30
0.0
 10
-106.9967285108191
 20
-5.841502925588333
 30
0.0
 10
-106.9969401760888
 20
53.28104899447497
 30
0.0
 10
-106.9966932275281
 20
112.4036361925289
 30
0.0
 10
-106.9967990588371
 20
171.526223390576
 30
0.0
  0
ENDBLK
  5
8B
330
88
100
AcDbEntity
  8
0
100
AcDbBlockEnd
  0
BLOCK
  5
8F
330
8D
100
AcDbEntity
  8
0
100
AcDbBlockBegin
  2
block 17
 70
     0
 10
0.0
 20
0.0
 30
0.0
  3
block 17
  1

  0
SPLINE
  5
91
330
8D
100
AcDbEntity
  8
0
 62
   250
370
    25
100
AcDbSpline
210
0.0
220
0.0
230
1.0
 70
     8
 71
     3
 72
    35
 73
    31
 74
     0
 42
0.0000000001
 43
0.0000000001
 12
1.0
 22
0.0
 32
0.0
 13
1.0
 23
0.0
 33
0.0
 40
0.0
 40
0.0
 40
0.0
 40
0.0
 40
1.0
 40
1.0
 40
1.0
 40
2.0
 40
2.0
 40
2.0
 40
3.0
 40
3.0
 40
3.0
 40
4.0
 40
4.0
 40
4.0
 40
5.0
 40
5.0
 40
5.0
 40
6.0
 40
6.0
 40
6.0
 40
7.0
 40
7.0
 40
7.0
 40
8.0
 40
8.0
 40
8.0
 40
9.0
 40
9.0
 40
9.0
 40
10.0
 40
10.0
 40
10.0
 40
10.0
 10
180.3048978069783
 20
253.8104659771174
 30
0.0
 10
179.611403154829
 20
253.8100073633351
 30
0.0
 10
178.9177321127577
 20
253.798824242035
 30
0.0
 10
178.2245196844977
 20
253.7758229956633
 30
0.0
 10
177.5500751448836
 20
253.7534214750411
 30
0.0
 10
176.8760892190936
 20
253.7198368330866
 30
0.0
 10
176.202703019059
 20
253.6755982395753
 30
0.0
 10
174.8515914266994
 20
253.5868388286734
 30
0.0
 10
173.5029492933628
 20
253.4551813876713
 30
0.0
 10
172.162279984906
 20
253.2653505489419
 30
0.0
 10
171.6096856095228
 20
253.187103977614
 30
0.0
 10
171.0584317976078
 20
253.0989442924234
 30
0.0
 10
170.5102471705035
 20
252.9938864522866
 30
0.0
 10
170.0448246989434
 20
252.9047037055198
 30
0.0
 10
169.5816247405155
 20
252.8033147758513
 30
0.0
 10
169.1256920472382
 20
252.6740209598258
 30
0.0
 10
168.9387539985138
 20
252.6209981479552
 30
0.0
 10
168.7530154013261
 20
252.5632833640421
 30
0.0
 10
168.5712279385868
 20
252.4945618487313
 30
0.0
 10
168.4521647352594
 20
252.4495471395229
 30
0.0
 10
168.3347948752576
 20
252.3997699022898
 30
0.0
 10
168.221658373612
 20
252.3413142806864
 30
0.0
 10
168.1354036974179
 20
252.2967581852828
 30
0.0
 10
168.0515832022755
 20
252.2471220599943
 30
0.0
 10
167.9763352577677
 20
252.1855972536763
 30
0.0
 10
167.921442711292
 20
252.1407236564025
 30
0.0
 10
167.8710657470296
 20
252.0895352997634
 30
0.0
 10
167.8373752702388
 20
252.0266699299939
 30
0.0
 10
156.9931339892469
 20
252.0266699304815
 30
0.0
 10
-6.1519944589569
 20
252.0266699378069
 30
0.0
 10
-16.99627101793291
 20
252.026669938291
 30
0.0
  0
ENDBLK
  5
90
330
8D
100
AcDbEntity
  8
0
100
AcDbBlockEnd
  0
BLOCK
  5
94
330
92
100
AcDbEntity
  8
0
100
AcDbBlockBegin
  2
block 18
 70
     0
 10
0.0
 20
0.0
 30
0.0
  3
block 18
  1

  0
SPLINE
  5
96
330
92
100
AcDbEntity
  8
0
 62
   250
370
    25
100
AcDbSpline
210
0.0
220
0.0
230
1.0
 70
     8
 71
     3
 72
     8
 73
     4
 74
     0
 42
0.0000000001
 43
0.0000000001
 12
1.0
 22
0.0
 32
0.0
 13
1.0
 23
0.0
 33
0.0
 40
0.0
 40
0.0
 40
0.0
 40
0.0
 40
1.0
 40
1.0
 40
1.0
 40
1.0
 10
180.3048977914748
 20
-91.48861948283812
 30
0.0
 10
195.0827050864898
 20
-91.46096154233804
 30
0.0
 10
209.8604771035206
 20
-91.4251191090642
 30
0.0
 10
224.6382491205572
 20
-91.38109218297296
 30
0.0
  0
ENDBLK
  5
95
330
92
100
AcDbEntity
  8
0
100
AcDbBlockEnd
  0
BLOCK
  5
99
330
97
100
AcDbEntity
  8
0
100
AcDbBlockBegin
  2
block 19
 70
     0
 10
0.0
 20
0.0
 30
0.0
  3
block 19
  1

  0
SPLINE
  5
9B
330
97
100
AcDbEntity
  8
0
 62
   250
370
    25
100
AcDbSpline
210
0.0
220
0.0
230
1.0
 70
     8
 71
     3
 72
    56
 73
    52
 74
     0
 42
0.0000000001
 43
0.0000000001
 12
1.0
 22
0.0
 32
0.0
 13
1.0
 23
0.0
 33
0.0
 40
0.0
 40
0.0
 40
0.0
 40
0.0
 40
1.0
 40
1.0
 40
1.0
 40
2.0
 40
2.0
 40
2.0
 40
3.0
 40
3.0
 40
3.0
 40
4.0
 40
4.0
 40
4.0
 40
5.0
 40
5.0
 40
5.0
 40
6.0
 40
6.0
 40
6.0
 40
7.0
 40
7.0
 40
7.0
 40
8.0
 40
8.0
 40
8.0
 40
9.0
 40
9.0
 40
9.0
 40
10.0
 40
10.0
 40
10.0
 40
11.0
 40
11.0
 40
11.0
 40
12.0
 40
12.0
 40
12.0
 40
13.0
 40
13.0
 40
13.0
 40
14.0
 40
14.0
 40
14.0
 40
15.0
 40
15.0
 40
15.0
 40
16.0
 40
16.0
 40
16.0
 40
17.0
 40
17.0
 40
17.0
 40
17.0
 10
-106.9967990588371
 20
171.526223390576
 30
0.0
 10
-106.9967990582987
 20
183.4257347712896
 30
0.0
 10
-106.9968343337292
 20
240.3254913948583
 30
0.0
 10
-106.9965168313232
 20
252.2250027755816
 30
0.0
 10
-106.9965168313039
 20
252.7033016999968
 30
0.0
 10
-106.9965168312783
 20
253.1816359024096
 30
0.0
 10
-106.997046001052
 20
253.6598995488403
 30
0.0
 10
-106.9977162827633
 20
254.2464666100861
 30
0.0
 10
-106.9991979581572
 20
254.8330336713318
 30
0.0
 10
-106.9939062602015
 20
255.4196360105658
 30
0.0
 10
-106.9872387207804
 20
256.1620612107689
 30
0.0
 10
-106.9696350056478
 20
256.904592244933
 30
0.0
 10
-106.9139310654514
 20
257.6448654880413
 30
0.0
 10
-106.8699746946544
 20
258.229033646281
 30
0.0
 10
-106.8022762391679
 20
258.8118259631033
 30
0.0
 10
-106.7084367959301
 20
259.3902085317546
 30
0.0
 10
-106.6156909702628
 20
259.9618177272374
 30
0.0
 10
-106.4974038826065
 20
260.5291230085125
 30
0.0
 10
-106.3514235758047
 20
261.089372692733
 30
0.0
 10
-106.1702358387955
 20
261.7847107088873
 30
0.0
 10
-105.9463617385277
 20
262.4691741965582
 30
0.0
 10
-105.6841757452773
 20
263.1382212042828
 30
0.0
 10
-105.1340155508808
 20
264.54221449789
 30
0.0
 10
-104.4150854706353
 20
265.8784387800447
 30
0.0
 10
-103.5665440692253
 20
267.1251275332973
 30
0.0
 10
-102.7194490652334
 20
268.3696996073805
 30
0.0
 10
-101.7432013538753
 20
269.5250889324198
 30
0.0
 10
-100.666305547978
 20
270.5770432019974
 30
0.0
 10
-99.75884990966436
 20
271.4634731604714
 30
0.0
 10
-98.77995634936057
 20
272.2764543517296
 30
0.0
 10
-97.73699796617805
 20
272.9988416745033
 30
0.0
 10
-96.2085792152691
 20
274.0574282054665
 30
0.0
 10
-94.54261159630131
 20
274.9214213647014
 30
0.0
 10
-92.78146397065906
 20
275.5157495976404
 30
0.0
 10
-91.93623869998022
 20
275.800972115793
 30
0.0
 10
-91.0690705218936
 20
276.0241053782865
 30
0.0
 10
-90.1911778360351
 20
276.182397702195
 30
0.0
 10
-89.19806724732453
 20
276.3614334819674
 30
0.0
 10
-88.19123352200644
 20
276.4575307162573
 30
0.0
 10
-87.18288284328759
 20
276.4969715047509
 30
0.0
 10
-86.55849776605002
 20
276.5214191491335
 30
0.0
 10
-85.93351296304378
 20
276.5241355540421
 30
0.0
 10
-85.30856343802908
 20
276.5257583413767
 30
0.0
 10
-84.10533716370368
 20
276.5288628041116
 30
0.0
 10
-82.90228727930769
 20
276.5278044644675
 30
0.0
 10
-81.6992373949043
 20
276.5272400166355
 30
0.0
 10
-80.23244928589482
 20
276.5265344568431
 30
0.0
 10
-78.765661176885
 20
276.5265697347762
 30
0.0
 10
-77.29883778989009
 20
276.5265697347057
 30
0.0
 10
-57.19797043954014
 20
276.5268872356707
 30
0.0
 10
417.8077307775505
 20
276.5267108244147
 30
0.0
 10
437.9085981278995
 20
276.5267108235132
 30
0.0
  0
ENDBLK
  5
9A
330
97
100
AcDbEntity
  8
0
100
AcDbBlockEnd
  0
BLOCK
  5
9E
330
9C
100
AcDbEntity
  8
0
100
AcDbBlockBegin
  2
block 20
 70
     0
 10
0.0
 20
0.0
 30
0.0
  3
block 20
  1

  0
SPLINE
  5
A0
330
9C
100
AcDbEntity
  8
0
 62
   250
370
    25
100
AcDbSpline
210
0.0
220
0.0
230
1.0
 70
     8
 71
     3
 72
    89
 73
    85
 74
     0
 42
0.0000000001
 43
0.0000000001
 12
1.0
 22
0.0
 32
0.0
 13
1.0
 23
0.0
 33
0.0
 40
0.0
 40
0.0
 40
0.0
 40
0.0
 40
1.0
 40
1.0
 40
1.0
 40
2.0
 40
2.0
 40
2.0
 40
3.0
 40
3.0
 40
3.0
 40
4.0
 40
4.0
 40
4.0
 40
5.0
 40
5.0
 40
5.0
 40
6.0
 40
6.0
 40
6.0
 40
7.0
 40
7.0
 40
7.0
 40
8.0
 40
8.0
 40
8.0
 40
9.0
 40
9.0
 40
9.0
 40
10.0
 40
10.0
 40
10.0
 40
11.0
 40
11.0
 40
11.0
 40
12.0
 40
12.0
 40
12.0
 40
13.0
 40
13.0
 40
13.0
 40
14.0
 40
14.0
 40
14.0
 40
15.0
 40
15.0
 40
15.0
 40
16.0
 40
16.0
 40
16.0
 40
17.0
 40
17.0
 40
17.0
 40
18.0
 40
18.0
 40
18.0
 40
19.0
 40
19.0
 40
19.0
 40
20.0
 40
20.0
 40
20.0
 40
21.0
 40
21.0
 40
21.0
 40
22.0
 40
22.0
 40
22.0
 40
23.0
 40
23.0
 40
23.0
 40
24.0
 40
24.0
 40
24.0
 40
25.0
 40
25.0
 40
25.0
 40
26.0
 40
26.0
 40
26.0
 40
27.0
 40
27.0
 40
27.0
 40
28.0
 40
28.0
 40
28.0
 40
28.0
 10
485.7920790234957
 20
-75.62865997575047
 30
0.0
 10
484.9818495150856
 20
-76.21949568809559
 30
0.0
 10
484.1199377569368
 20
-76.74108071359214
 30
0.0
 10
483.2151632455884
 20
-77.17401215983521
 30
0.0
 10
482.391210600572
 20
-77.56831421124191
 30
0.0
 10
481.5316977454858
 20
-77.88906166146847
 30
0.0
 10
480.6509828207172
 20
-78.13025725288078
 30
0.0
 10
479.7322382268612
 20
-78.38189512819596
 30
0.0
 10
478.7904218300516
 20
-78.5469255474614
 30
0.0
 10
477.8433842912899
 20
-78.65208922419062
 30
0.0
 10
476.6223426339351
 20
-78.7876978029831
 30
0.0
 10
475.3925873140116
 20
-78.82375190479581
 30
0.0
 10
474.1638197776904
 20
-78.83846282495819
 30
0.0
 10
473.7167418589499
 20
-78.84382507884492
 30
0.0
 10
473.2697697741636
 20
-78.84632981584446
 30
0.0
 10
472.8228329673597
 20
-78.84883455284785
 30
0.0
 10
468.7476963948408
 20
-78.87158885373957
 30
0.0
 10
464.6719600965504
 20
-78.89240286539736
 30
0.0
 10
460.5962943542393
 20
-78.91296993115007
 30
0.0
 10
453.1522512143394
 20
-78.950505708107
 30
0.0
 10
445.7085255763238
 20
-78.98719481338667
 30
0.0
 10
438.2647293823284
 20
-79.0221905753336
 30
0.0
 10
424.8588124135175
 20
-79.08526761401389
 30
0.0
 10
411.4526484988123
 20
-79.14298239877921
 30
0.0
 10
398.0465198620894
 20
-79.19589937744007
 30
0.0
 10
372.118081976175
 20
-79.29820553616361
 30
0.0
 10
346.1897852022106
 20
-79.3825904779223
 30
0.0
 10
320.2613825942874
 20
-79.44859558888892
 30
0.0
 10
268.404506822472
 20
-79.58060581081186
 30
0.0
 10
216.547348826761
 20
-79.6390614315598
 30
0.0
 10
164.6902261090482
 20
-79.624315231005
 30
0.0
 10
29.29529075262618
 20
-79.5857916640339
 30
0.0
 10
-106.0993271019029
 20
-79.04804931474726
 30
0.0
 10
-241.4902760458337
 20
-78.01108818317071
 30
0.0
 10
-248.5875718596531
 20
-77.95672480616457
 30
0.0
 10
-255.6848676734729
 20
-77.90102086567873
 30
0.0
 10
-262.7821282093017
 20
-77.84221246241472
 30
0.0
 10
-263.0614593038038
 20
-77.83988411532373
 30
0.0
 10
-263.3407903983056
 20
-77.8375557682186
 30
0.0
 10
-263.6201214928076
 20
-77.83367518971993
 30
0.0
 10
-264.5508253239643
 20
-77.82069289077498
 30
0.0
 10
-265.4814585991523
 20
-77.79024798866166
 30
0.0
 10
-266.4094107473806
 20
-77.71842200878876
 30
0.0
 10
-266.7003835773194
 20
-77.69591465359163
 30
0.0
 10
-266.991074183366
 20
-77.66931505200633
 30
0.0
 10
-267.2811297856647
 20
-77.63685930472415
 30
0.0
 10
-267.900787612744
 20
-77.56750278386858
 30
0.0
 10
-268.5174468110129
 20
-77.47129971555984
 30
0.0
 10
-269.1273326359263
 20
-77.34193534024493
 30
0.0
 10
-269.5520443114297
 20
-77.25187064153064
 30
0.0
 10
-269.9734398562338
 20
-77.14571918112276
 30
0.0
 10
-270.3895789810991
 20
-77.02175233769991
 30
0.0
 10
-270.8152431622406
 20
-76.89496325538107
 30
0.0
 10
-271.2354392555112
 20
-76.74954739637532
 30
0.0
 10
-271.6482975276551
 20
-76.58578698453917
 30
0.0
 10
-272.4654062433299
 20
-76.2617586815303
 30
0.0
 10
-273.2540456241621
 20
-75.86590439868061
 30
0.0
 10
-274.0054314515964
 20
-75.41014809529453
 30
0.0
 10
-275.3472296555706
 20
-74.59624967628615
 30
0.0
 10
-276.570352714052
 20
-73.59121512821856
 30
0.0
 10
-277.6552919007015
 20
-72.45582842124148
 30
0.0
 10
-278.7949119659077
 20
-71.26318554270452
 30
0.0
 10
-279.7820605748836
 20
-69.92674959255963
 30
0.0
 10
-280.5743688662307
 20
-68.48081077334544
 30
0.0
 10
-281.3185579844348
 20
-67.12274941767446
 30
0.0
 10
-281.890872754023
 20
-65.66806165789525
 30
0.0
 10
-282.2469334683818
 20
-64.16119775657745
 30
0.0
 10
-282.4227942294052
 20
-63.41693808232286
 30
0.0
 10
-282.5458791231188
 20
-62.65994305507201
 30
0.0
 10
-282.6281826648258
 20
-61.89942022919731
 30
0.0
 10
-282.7254793506395
 20
-61.00053714155173
 30
0.0
 10
-282.7657315328211
 20
-60.09675041384476
 30
0.0
 10
-282.7840055296203
 20
-59.19278729619973
 30
0.0
 10
-282.7999159013435
 20
-58.40492403104635
 30
0.0
 10
-282.7991397856143
 20
-57.61695493192448
 30
0.0
 10
-282.7985400598135
 20
-56.82895055483451
 30
0.0
 10
-282.7965292144797
 20
-54.06545045539871
 30
0.0
 10
-282.7971994960951
 20
-51.30202003448862
 30
0.0
 10
-282.7975875538152
 20
-48.5385896135811
 30
0.0
 10
-282.7982931133319
 20
-43.92355885728603
 30
0.0
 10
-282.7982578351421
 20
-39.3085281009871
 30
0.0
 10
-282.7982578349303
 20
-34.6934973446869
 30
0.0
 10
-282.7980108826929
 20
106.3801671598172
 30
0.0
 10
-282.7980461552223
 20
227.9639437564712
 30
0.0
 10
-282.7980108709043
 20
369.0376203890734
 30
0.0
  0
ENDBLK
  5
9F
330
9C
100
AcDbEntity
  8
0
100
AcDbBlockEnd
  0
BLOCK
  5
A3
330
A1
100
AcDbEntity
  8
0
100
AcDbBlockBegin
  2
block 21
 70
     0
 10
0.0
 20
0.0
 30
0.0
  3
block 21
  1

  0
SPLINE
  5
A5
330
A1
100
AcDbEntity
  8
0
 62
   250
370
    25
100
AcDbSpline
210
0.0
220
0.0
230
1.0
 70
     8
 71
     3
 72
    50
 73
    46
 74
     0
 42
0.0000000001
 43
0.0000000001
 12
1.0
 22
0.0
 32
0.0
 13
1.0
 23
0.0
 33
0.0
 40
0.0
 40
0.0
 40
0.0
 40
0.0
 40
1.0
 40
1.0
 40
1.0
 40
2.0
 40
2.0
 40
2.0
 40
3.0
 40
3.0
 40
3.0
 40
4.0
 40
4.0
 40
4.0
 40
5.0
 40
5.0
 40
5.0
 40
6.0
 40
6.0
 40
6.0
 40
7.0
 40
7.0
 40
7.0
 40
8.0
 40
8.0
 40
8.0
 40
9.0
 40
9.0
 40
9.0
 40
10.0
 40
10.0
 40
10.0
 40
11.0
 40
11.0
 40
11.0
 40
12.0
 40
12.0
 40
12.0
 40
13.0
 40
13.0
 40
13.0
 40
14.0
 40
14.0
 40
14.0
 40
15.0
 40
15.0
 40
15.0
 40
15.0
 10
437.9085981278995
 20
276.5267108235132
 30
0.0
 10
439.3754215148977
 20
276.5267108234458
 30
0.0
 10
440.8422449018893
 20
276.5266755453939
 30
0.0
 10
442.3090330109021
 20
276.5271694371351
 30
0.0
 10
443.5121181732815
 20
276.5275927729173
 30
0.0
 10
444.7152033356675
 20
276.5283336105721
 30
0.0
 10
445.9183237760401
 20
276.5255819275989
 30
0.0
 10
446.5432380230716
 20
276.5241708081201
 30
0.0
 10
447.1681169921177
 20
276.5217719050268
 30
0.0
 10
447.792572625322
 20
276.4974300945494
 30
0.0
 10
448.800993860012
 20
276.4580598619349
 30
0.0
 10
449.8081803651921
 20
276.3613629017994
 30
0.0
 10
450.8012203979023
 20
276.1821507320058
 30
0.0
 10
451.6790425277841
 20
276.0237525740538
 30
0.0
 10
452.5458226479928
 20
275.8009015353779
 30
0.0
 10
453.3909773626697
 20
275.5157495731182
 30
0.0
 10
455.151878042362
 20
274.9216330079349
 30
0.0
 10
456.8189040008449
 20
274.057110678759
 30
0.0
 10
458.3472521956688
 20
272.9986299816209
 30
0.0
 10
459.3901753008126
 20
272.2763132147267
 30
0.0
 10
460.3685396912451
 20
271.4637200812273
 30
0.0
 10
461.2757836615608
 20
270.5772901226698
 30
0.0
 10
462.3524325214661
 20
269.5253711309808
 30
0.0
 10
463.3289624566023
 20
268.3695231920337
 30
0.0
 10
464.1764102403495
 20
267.1249511178732
 30
0.0
 10
465.0253044215185
 20
265.8782623645468
 30
0.0
 10
465.74472839344
 20
264.5425319741301
 30
0.0
 10
466.2938302481206
 20
263.1383975685337
 30
0.0
 10
466.7663788728312
 20
261.9300559861881
 30
0.0
 10
467.1128086969686
 20
260.6710815955258
 30
0.0
 10
467.3200668656696
 20
259.3901732279992
 30
0.0
 10
467.4136240849671
 20
258.811861215304
 30
0.0
 10
467.4788178033835
 20
258.2290688984817
 30
0.0
 10
467.5222802823181
 20
257.6448654622508
 30
0.0
 10
467.5773492187049
 20
256.9045922191393
 30
0.0
 10
467.5974929487711
 20
256.1620611849729
 30
0.0
 10
467.6047249358998
 20
255.4196007067748
 30
0.0
 10
467.6104399696312
 20
254.8329983675443
 30
0.0
 10
467.6080763445297
 20
254.2464665842868
 30
0.0
 10
467.6070180049238
 20
253.6598995230408
 30
0.0
 10
467.6061713332376
 20
253.1816358766094
 30
0.0
 10
467.6062066111954
 20
252.703336952185
 30
0.0
 10
467.6062066111774
 20
252.225038027763
 30
0.0
 10
467.6067005024549
 20
240.3254913690585
 30
0.0
 10
467.6065241119785
 20
228.4259799883413
 30
0.0
 10
467.6065946674212
 20
216.5264686076241
 30
0.0
  0
ENDBLK
  5
A4
330
A1
100
AcDbEntity
  8
0
100
AcDbBlockEnd
  0
BLOCK
  5
A8
330
A6
100
AcDbEntity
  8
0
100
AcDbBlockBegin
  2
block 22
 70
     0
 10
0.0
 20
0.0
 30
0.0
  3
block 22
  1

  0
POLYLINE
  5
AA
330
A6
100
AcDbEntity
  8
0
 62
     4
370
    25
100
AcDb2dPolyline
 66
     1
 10
0.0
 20
0.0
 30
0.0
  0
VERTEX
  5
AB
330
AA
100
AcDbEntity
  8
0
 62
     4
370
    25
100
AcDbVertex
100
AcDb2dVertex
 10
236.8647158192896
 20
171.5606018367129
 30
0.0
  0
VERTEX
  5
AC
330
AA
100
AcDbEntity
  8
0
 62
     4
370
    25
100
AcDbVertex
100
AcDb2dVertex
 10
225.6146273211255
 20
171.5606018367129
 30
0.0
  0
SEQEND
  5
AD
330
AA
100
AcDbEntity
  8
0
 62
     4
370
    25
  0
ENDBLK
  5
A9
330
A6
100
AcDbEntity
  8
0
100
AcDbBlockEnd
  0
BLOCK
  5
B0
330
AE
100
AcDbEntity
  8
0
100
AcDbBlockBegin
  2
block 23
 70
     0
 10
0.0
 20
0.0
 30
0.0
  3
block 23
  1

  0
POLYLINE
  5
B2
330
AE
100
AcDbEntity
  8
0
  6
AI-Linetype-3
 62
     4
370
    25
100
AcDb2dPolyline
 66
     1
 10
0.0
 20
0.0
 30
0.0
  0
VERTEX
  5
B3
330
B2
100
AcDbEntity
  8
0
  6
AI-Linetype-3
 62
     4
370
    25
100
AcDbVertex
100
AcDb2dVertex
 10
221.2172966778292
 20
171.5606018367129
 30
0.0
  0
VERTEX
  5
B4
330
B2
100
AcDbEntity
  8
0
  6
AI-Linetype-3
 62
     4
370
    25
100
AcDbVertex
100
AcDb2dVertex
 10
214.6212845639998
 20
171.5606018367129
 30
0.0
  0
SEQEND
  5
B6
330
B2
100
AcDbEntity
  8
0
  6
AI-Linetype-3
 62
     4
370
    25
  0
ENDBLK
  5
B1
330
AE
100
AcDbEntity
  8
0
100
AcDbBlockEnd
  0
BLOCK
  5
B9
330
B7
100
AcDbEntity
  8
0
100
AcDbBlockBegin
  2
block 24
 70
     0
 10
0.0
 20
0.0
 30
0.0
  3
block 24
  1

  0
POLYLINE
  5
BB
330
B7
100
AcDbEntity
  8
0
  6
AI-Linetype-4
 62
     4
370
    25
100
AcDb2dPolyline
 66
     1
 10
0.0
 20
0.0
 30
0.0
  0
VERTEX
  5
BC
330
BB
100
AcDbEntity
  8
0
  6
AI-Linetype-4
 62
     4
370
    25
100
AcDbVertex
100
AcDb2dVertex
 10
212.4226138593899
 20
171.5606018367129
 30
0.0
  0
VERTEX
  5
BD
330
BB
100
AcDbEntity
  8
0
  6
AI-Linetype-4
 62
     4
370
    25
100
AcDbVertex
100
AcDb2dVertex
 10
135.4687677736886
 20
171.5606018367129
 30
0.0
  0
SEQEND
  5
BF
330
BB
100
AcDbEntity
  8
0
  6
AI-Linetype-4
 62
     4
370
    25
  0
ENDBLK
  5
BA
330
B7
100
AcDbEntity
  8
0
100
AcDbBlockEnd
  0
BLOCK
  5
C2
330
C0
100
AcDbEntity
  8
0
100
AcDbBlockBegin
  2
block 25
 70
     0
 10
0.0
 20
0.0
 30
0.0
  3
block 25
  1

  0
POLYLINE
  5
C4
330
C0
100
AcDbEntity
  8
0
 62
     4
370
    25
100
AcDb2dPolyline
 66
     1
 10
0.0
 20
0.0
 30
0.0
  0
VERTEX
  5
C5
330
C4
100
AcDbEntity
  8
0
 62
     4
370
    25
100
AcDbVertex
100
AcDb2dVertex
 10
133.2701024520404
 20
171.5606018367129
 30
0.0
  0
VERTEX
  5
C6
330
C4
100
AcDbEntity
  8
0
 62
     4
370
    25
100
AcDbVertex
100
AcDb2dVertex
 10
122.0200193368381
 20
171.5606018367129
 30
0.0
  0
SEQEND
  5
C7
330
C4
100
AcDbEntity
  8
0
 62
     4
370
    25
  0
ENDBLK
  5
C3
330
C0
100
AcDbEntity
  8
0
100
AcDbBlockEnd
  0
BLOCK
  5
CA
330
C8
100
AcDbEntity
  8
0
100
AcDbBlockBegin
  2
block 26
 70
     0
 10
0.0
 20
0.0
 30
0.0
  3
block 26
  1

  0
POLYLINE
  5
CC
330
C8
100
AcDbEntity
  8
0
 62
     4
370
    25
100
AcDb2dPolyline
 66
     1
 10
0.0
 20
0.0
 30
0.0
  0
VERTEX
  5
CD
330
CC
100
AcDbEntity
  8
0
 62
     4
370
    25
100
AcDbVertex
100
AcDb2dVertex
 10
179.4423702695447
 20
228.1664597564536
 30
0.0
  0
VERTEX
  5
CE
330
CC
100
AcDbEntity
  8
0
 62
     4
370
    25
100
AcDbVertex
100
AcDb2dVertex
 10
179.4423702695447
 20
216.9163820242129
 30
0.0
  0
SEQEND
  5
CF
330
CC
100
AcDbEntity
  8
0
 62
     4
370
    25
  0
ENDBLK
  5
CB
330
C8
100
AcDbEntity
  8
0
100
AcDbBlockEnd
  0
BLOCK
  5
D2
330
D0
100
AcDbEntity
  8
0
100
AcDbBlockBegin
  2
block 27
 70
     0
 10
0.0
 20
0.0
 30
0.0
  3
block 27
  1

  0
POLYLINE
  5
D4
330
D0
100
AcDbEntity
  8
0
  6
AI-Linetype-5
 62
     4
370
    25
100
AcDb2dPolyline
 66
     1
 10
0.0
 20
0.0
 30
0.0
  0
VERTEX
  5
D5
330
D4
100
AcDbEntity
  8
0
  6
AI-Linetype-5
 62
     4
370
    25
100
AcDbVertex
100
AcDb2dVertex
 10
179.4423702695447
 20
212.5282239476461
 30
0.0
  0
VERTEX
  5
D6
330
D4
100
AcDbEntity
  8
0
  6
AI-Linetype-5
 62
     4
370
    25
100
AcDbVertex
100
AcDb2dVertex
 10
179.4423702695447
 20
205.9459922157576
 30
0.0
  0
SEQEND
  5
D8
330
D4
100
AcDbEntity
  8
0
  6
AI-Linetype-5
 62
     4
370
    25
  0
ENDBLK
  5
D3
330
D0
100
AcDbEntity
  8
0
100
AcDbBlockEnd
  0
BLOCK
  5
DB
330
D9
100
AcDbEntity
  8
0
100
AcDbBlockBegin
  2
block 28
 70
     0
 10
0.0
 20
0.0
 30
0.0
  3
block 28
  1

  0
POLYLINE
  5
DD
330
D9
100
AcDbEntity
  8
0
  6
AI-Linetype-6
 62
     4
370
    25
100
AcDb2dPolyline
 66
     1
 10
0.0
 20
0.0
 30
0.0
  0
VERTEX
  5
DE
330
DD
100
AcDbEntity
  8
0
  6
AI-Linetype-6
 62
     4
370
    25
100
AcDbVertex
100
AcDb2dVertex
 10
179.4423702695447
 20
203.7519185604359
 30
0.0
  0
VERTEX
  5
DF
330
DD
100
AcDbEntity
  8
0
  6
AI-Linetype-6
 62
     4
370
    25
100
AcDbVertex
100
AcDb2dVertex
 10
179.4423702695447
 20
126.9588561576232
 30
0.0
  0
SEQEND
  5
E1
330
DD
100
AcDbEntity
  8
0
  6
AI-Linetype-6
 62
     4
370
    25
  0
ENDBLK
  5
DC
330
D9
100
AcDbEntity
  8
0
100
AcDbBlockEnd
  0
BLOCK
  5
E4
330
E2
100
AcDbEntity
  8
0
100
AcDbBlockBegin
  2
block 29
 70
     0
 10
0.0
 20
0.0
 30
0.0
  3
block 29
  1

  0
POLYLINE
  5
E6
330
E2
100
AcDbEntity
  8
0
 62
     4
370
    25
100
AcDb2dPolyline
 66
     1
 10
0.0
 20
0.0
 30
0.0
  0
VERTEX
  5
E7
330
E6
100
AcDbEntity
  8
0
 62
     4
370
    25
100
AcDbVertex
100
AcDb2dVertex
 10
179.4423702695447
 20
124.7647825023015
 30
0.0
  0
VERTEX
  5
E8
330
E6
100
AcDbEntity
  8
0
 62
     4
370
    25
100
AcDbVertex
100
AcDb2dVertex
 10
179.4423702695447
 20
113.5146940041375
 30
0.0
  0
SEQEND
  5
E9
330
E6
100
AcDbEntity
  8
0
 62
     4
370
    25
  0
ENDBLK
  5
E5
330
E2
100
AcDbEntity
  8
0
100
AcDbBlockEnd
  0
BLOCK
  5
EC
330
EA
100
AcDbEntity
  8
0
100
AcDbBlockBegin
  2
block 30
 70
     0
 10
0.0
 20
0.0
 30
0.0
  3
block 30
  1

  0
SPLINE
  5
EE
330
EA
100
AcDbEntity
  8
0
 62
   250
370
    25
100
AcDbSpline
210
0.0
220
0.0
230
1.0
 70
    11
 71
     3
 72
    17
 73
    13
 74
     0
 42
0.0000000001
 43
0.0000000001
 12
1.0
 22
0.0
 32
0.0
 13
1.0
 23
0.0
 33
0.0
 40
0.0
 40
0.0
 40
0.0
 40
0.0
 40
1.0
 40
1.0
 40
1.0
 40
2.0
 40
2.0
 40
2.0
 40
3.0
 40
3.0
 40
3.0
 40
4.0
 40
4.0
 40
4.0
 40
4.0
 10
153.6720294723988
 20
171.5606043971652
 30
0.0
 10
153.6720294730405
 20
185.8018568499258
 30
0.0
 10
165.2153246654582
 20
197.3266345373647
 30
0.0
 10
179.4410740916599
 20
197.3266345367256
 30
0.0
 10
193.6754363103939
 20
197.3266345360881
 30
0.0
 10
205.2260523754371
 20
185.8018568476096
 30
0.0
 10
205.2260523747954
 20
171.5606043948487
 30
0.0
 10
205.2260523741537
 20
157.3159068250744
 30
0.0
 10
193.6754363080838
 20
145.7842389036099
 30
0.0
 10
179.4410740893497
 20
145.7842389042478
 30
0.0
 10
165.2153246631475
 20
145.7842389048863
 30
0.0
 10
153.6720294717571
 20
157.315906827391
 30
0.0
 10
153.6720294723988
 20
171.5606043971652
 30
0.0
  0
ENDBLK
  5
ED
330
EA
100
AcDbEntity
  8
0
100
AcDbBlockEnd
  0
BLOCK
  5
F1
330
EF
100
AcDbEntity
  8
0
100
AcDbBlockBegin
  2
block 31
 70
     0
 10
0.0
 20
0.0
 30
0.0
  3
block 31
  1

  0
SPLINE
  5
F3
330
EF
100
AcDbEntity
  8
0
 62
   250
370
    25
100
AcDbSpline
210
0.0
220
0.0
230
1.0
 70
    11
 71
     3
 72
    17
 73
    13
 74
     0
 42
0.0000000001
 43
0.0000000001
 12
1.0
 22
0.0
 32
0.0
 13
1.0
 23
0.0
 33
0.0
 40
0.0
 40
0.0
 40
0.0
 40
0.0
 40
1.0
 40
1.0
 40
1.0
 40
2.0
 40
2.0
 40
2.0
 40
3.0
 40
3.0
 40
3.0
 40
4.0
 40
4.0
 40
4.0
 40
4.0
 10
142.4904715668672
 20
171.5606043976657
 30
0.0
 10
142.4904715677784
 20
191.9789516548537
 30
0.0
 10
159.0330621860116
 20
208.5051779657857
 30
0.0
 10
179.435045137387
 20
208.5051779648713
 30
0.0
 10
199.8370280887631
 20
208.5051779639539
 30
0.0
 10
216.3933991735595
 20
191.9789516515358
 30
0.0
 10
216.3933991726483
 20
171.5606043943482
 30
0.0
 10
216.3933991717306
 20
151.1413958579066
 30
0.0
 10
199.8370280854455
 20
134.6117244299617
 30
0.0
 10
179.4350451340694
 20
134.6117244308729
 30
0.0
 10
159.033062182694
 20
134.6117244317905
 30
0.0
 10
142.4904715659495
 20
151.1413958612242
 30
0.0
 10
142.4904715668672
 20
171.5606043976657
 30
0.0
  0
ENDBLK
  5
F2
330
EF
100
AcDbEntity
  8
0
100
AcDbBlockEnd
  0
BLOCK
  5
F6
330
F4
100
AcDbEntity
  8
0
100
AcDbBlockBegin
  2
block 32
 70
     0
 10
0.0
 20
0.0
 30
0.0
  3
block 32
  1

  0
SPLINE
  5
F8
330
F4
100
AcDbEntity
  8
0
 62
   250
370
    25
100
AcDbSpline
210
0.0
220
0.0
230
1.0
 70
    11
 71
     3
 72
    17
 73
    13
 74
     0
 42
0.0000000001
 43
0.0000000001
 12
1.0
 22
0.0
 32
0.0
 13
1.0
 23
0.0
 33
0.0
 40
0.0
 40
0.0
 40
0.0
 40
0.0
 40
1.0
 40
1.0
 40
1.0
 40
2.0
 40
2.0
 40
2.0
 40
3.0
 40
3.0
 40
3.0
 40
4.0
 40
4.0
 40
4.0
 40
4.0
 10
196.511532815017
 20
321.7544825099336
 30
0.0
 10
196.5115328154469
 20
331.4182510513971
 30
0.0
 10
188.6764754488345
 20
339.2533084187179
 30
0.0
 10
179.0108766889587
 20
339.2533084191479
 30
0.0
 10
169.3461392083362
 20
339.253308419581
 30
0.0
 10
161.5110818410179
 20
331.4182510529693
 30
0.0
 10
161.511081840588
 20
321.7544825115057
 30
0.0
 10
161.5110818401516
 20
312.0887760917238
 30
0.0
 10
169.346139206764
 20
304.2537187244052
 30
0.0
 10
179.0108766873866
 20
304.2537187239749
 30
0.0
 10
188.6764754472624
 20
304.2537187235392
 30
0.0
 10
196.5115328145806
 20
312.0887760901513
 30
0.0
 10
196.511532815017
 20
321.7544825099336
 30
0.0
  0
ENDBLK
  5
F7
330
F4
100
AcDbEntity
  8
0
100
AcDbBlockEnd
  0
BLOCK
  5
FB
330
F9
100
AcDbEntity
  8
0
100
AcDbBlockBegin
  2
block 33
 70
     0
 10
0.0
 20
0.0
 30
0.0
  3
block 33
  1

  0
POLYLINE
  5
FD
330
F9
100
AcDbEntity
  8
0
 62
     4
370
    25
100
AcDb2dPolyline
 66
     1
 10
0.0
 20
0.0
 30
0.0
  0
VERTEX
  5
FE
330
FD
100
AcDbEntity
  8
0
 62
     4
370
    25
100
AcDbVertex
100
AcDb2dVertex
 10
219.0111651883092
 20
321.7544824207566
 30
0.0
  0
VERTEX
  5
FF
330
FD
100
AcDbEntity
  8
0
 62
     4
370
    25
100
AcDbVertex
100
AcDb2dVertex
 10
207.7610766901451
 20
321.7544824207566
 30
0.0
  0
SEQEND
  5
100
330
FD
100
AcDbEntity
  8
0
 62
     4
370
    25
  0
ENDBLK
  5
FC
330
F9
100
AcDbEntity
  8
0
100
AcDbBlockEnd
  0
BLOCK
  5
103
330
101
100
AcDbEntity
  8
0
100
AcDbBlockBegin
  2
block 34
 70
     0
 10
0.0
 20
0.0
 30
0.0
  3
block 34
  1

  0
POLYLINE
  5
105
330
101
100
AcDbEntity
  8
0
  6
AI-Linetype-7
 62
     4
370
    25
100
AcDb2dPolyline
 66
     1
 10
0.0
 20
0.0
 30
0.0
  0
VERTEX
  5
106
330
105
100
AcDbEntity
  8
0
  6
AI-Linetype-7
 62
     4
370
    25
100
AcDbVertex
100
AcDb2dVertex
 10
202.9694656344854
 20
321.7544824207566
 30
0.0
  0
VERTEX
  5
107
330
105
100
AcDbEntity
  8
0
  6
AI-Linetype-7
 62
     4
370
    25
100
AcDbVertex
100
AcDb2dVertex
 10
195.7820490509958
 20
321.7544824207566
 30
0.0
  0
SEQEND
  5
109
330
105
100
AcDbEntity
  8
0
  6
AI-Linetype-7
 62
     4
370
    25
  0
ENDBLK
  5
104
330
101
100
AcDbEntity
  8
0
100
AcDbBlockEnd
  0
BLOCK
  5
10C
330
10A
100
AcDbEntity
  8
0
100
AcDbBlockBegin
  2
block 35
 70
     0
 10
0.0
 20
0.0
 30
0.0
  3
block 35
  1

  0
POLYLINE
  5
10E
330
10A
100
AcDbEntity
  8
0
  6
AI-Linetype-8
 62
     4
370
    25
100
AcDb2dPolyline
 66
     1
 10
0.0
 20
0.0
 30
0.0
  0
VERTEX
  5
10F
330
10E
100
AcDbEntity
  8
0
  6
AI-Linetype-8
 62
     4
370
    25
100
AcDbVertex
100
AcDb2dVertex
 10
193.3862435231659
 20
321.7544824207566
 30
0.0
  0
VERTEX
  5
110
330
10E
100
AcDbEntity
  8
0
  6
AI-Linetype-8
 62
     4
370
    25
100
AcDbVertex
100
AcDb2dVertex
 10
152.6573449975137
 20
321.7544824207566
 30
0.0
  0
SEQEND
  5
112
330
10E
100
AcDbEntity
  8
0
  6
AI-Linetype-8
 62
     4
370
    25
  0
ENDBLK
  5
10D
330
10A
100
AcDbEntity
  8
0
100
AcDbBlockEnd
  0
BLOCK
  5
115
330
113
100
AcDbEntity
  8
0
100
AcDbBlockBegin
  2
block 36
 70
     0
 10
0.0
 20
0.0
 30
0.0
  3
block 36
  1

  0
POLYLINE
  5
117
330
113
100
AcDbEntity
  8
0
 62
     4
370
    25
100
AcDb2dPolyline
 66
     1
 10
0.0
 20
0.0
 30
0.0
  0
VERTEX
  5
118
330
117
100
AcDbEntity
  8
0
 62
     4
370
    25
100
AcDbVertex
100
AcDb2dVertex
 10
150.2615340867222
 20
321.7544824207566
 30
0.0
  0
VERTEX
  5
119
330
117
100
AcDbEntity
  8
0
 62
     4
370
    25
100
AcDbVertex
100
AcDb2dVertex
 10
139.0114509715198
 20
321.7544824207566
 30
0.0
  0
SEQEND
  5
11A
330
117
100
AcDbEntity
  8
0
 62
     4
370
    25
  0
ENDBLK
  5
116
330
113
100
AcDbEntity
  8
0
100
AcDbBlockEnd
  0
BLOCK
  5
11D
330
11B
100
AcDbEntity
  8
0
100
AcDbBlockBegin
  2
block 37
 70
     0
 10
0.0
 20
0.0
 30
0.0
  3
block 37
  1

  0
POLYLINE
  5
11F
330
11B
100
AcDbEntity
  8
0
 62
     4
370
    25
100
AcDb2dPolyline
 66
     1
 10
0.0
 20
0.0
 30
0.0
  0
VERTEX
  5
120
330
11F
100
AcDbEntity
  8
0
 62
     4
370
    25
100
AcDbVertex
100
AcDb2dVertex
 10
179.0108720600171
 20
281.7540910534137
 30
0.0
  0
VERTEX
  5
121
330
11F
100
AcDbEntity
  8
0
 62
     4
370
    25
100
AcDbVertex
100
AcDb2dVertex
 10
179.0108720600171
 20
293.004174168616
 30
0.0
  0
SEQEND
  5
122
330
11F
100
AcDbEntity
  8
0
 62
     4
370
    25
  0
ENDBLK
  5
11E
330
11B
100
AcDbEntity
  8
0
100
AcDbBlockEnd
  0
BLOCK
  5
125
330
123
100
AcDbEntity
  8
0
100
AcDbBlockBegin
  2
block 38
 70
     0
 10
0.0
 20
0.0
 30
0.0
  3
block 38
  1

  0
POLYLINE
  5
127
330
123
100
AcDbEntity
  8
0
  6
AI-Linetype-9
 62
     4
370
    25
100
AcDb2dPolyline
 66
     1
 10
0.0
 20
0.0
 30
0.0
  0
VERTEX
  5
128
330
127
100
AcDbEntity
  8
0
  6
AI-Linetype-9
 62
     4
370
    25
100
AcDbVertex
100
AcDb2dVertex
 10
179.0108720600171
 20
297.7957838785353
 30
0.0
  0
VERTEX
  5
129
330
127
100
AcDbEntity
  8
0
  6
AI-Linetype-9
 62
     4
370
    25
100
AcDbVertex
100
AcDb2dVertex
 10
179.0108720600171
 20
304.9832004620249
 30
0.0
  0
SEQEND
  5
12B
330
127
100
AcDbEntity
  8
0
  6
AI-Linetype-9
 62
     4
370
    25
  0
ENDBLK
  5
126
330
123
100
AcDbEntity
  8
0
100
AcDbBlockEnd
  0
BLOCK
  5
12E
330
12C
100
AcDbEntity
  8
0
100
AcDbBlockBegin
  2
block 39
 70
     0
 10
0.0
 20
0.0
 30
0.0
  3
block 39
  1

  0
POLYLINE
  5
130
330
12C
100
AcDbEntity
  8
0
  6
AI-Linetype-10
 62
     4
370
    25
100
AcDb2dPolyline
 66
     1
 10
0.0
 20
0.0
 30
0.0
  0
VERTEX
  5
131
330
130
100
AcDbEntity
  8
0
  6
AI-Linetype-10
 62
     4
370
    25
100
AcDbVertex
100
AcDb2dVertex
 10
179.0108720600171
 20
307.3790053169846
 30
0.0
  0
VERTEX
  5
132
330
130
100
AcDbEntity
  8
0
  6
AI-Linetype-10
 62
     4
370
    25
100
AcDbVertex
100
AcDb2dVertex
 10
179.0108720600171
 20
348.1079085527282
 30
0.0
  0
SEQEND
  5
134
330
130
100
AcDbEntity
  8
0
  6
AI-Linetype-10
 62
     4
370
    25
  0
ENDBLK
  5
12F
330
12C
100
AcDbEntity
  8
0
100
AcDbBlockEnd
  0
BLOCK
  5
137
330
135
100
AcDbEntity
  8
0
100
AcDbBlockBegin
  2
block 40
 70
     0
 10
0.0
 20
0.0
 30
0.0
  3
block 40
  1

  0
POLYLINE
  5
139
330
135
100
AcDbEntity
  8
0
 62
     4
370
    25
100
AcDb2dPolyline
 66
     1
 10
0.0
 20
0.0
 30
0.0
  0
VERTEX
  5
13A
330
139
100
AcDbEntity
  8
0
 62
     4
370
    25
100
AcDbVertex
100
AcDb2dVertex
 10
179.0108720600171
 20
350.5037140805581
 30
0.0
  0
VERTEX
  5
13B
330
139
100
AcDbEntity
  8
0
 62
     4
370
    25
100
AcDbVertex
100
AcDb2dVertex
 10
179.0108720600171
 20
361.7537971957602
 30
0.0
  0
SEQEND
  5
13C
330
139
100
AcDbEntity
  8
0
 62
     4
370
    25
  0
ENDBLK
  5
138
330
135
100
AcDbEntity
  8
0
100
AcDbBlockEnd
  0
ENDSEC
  0
SECTION
  2
ENTITIES
  0
INSERT
  5
41
330
1F
100
AcDbEntity
  8
0
100
AcDbBlockReference
  2
block 2
 10
0.0
 20
0.0
 30
0.0
  0
INSERT
  5
47
330
1F
100
AcDbEntity
  8
0
100
AcDbBlockReference
  2
block 3
 10
0.0
 20
0.0
 30
0.0
  0
INSERT
  5
4D
330
1F
100
AcDbEntity
  8
0
100
AcDbBlockReference
  2
block 4
 10
0.0
 20
0.0
 30
0.0
  0
INSERT
  5
52
330
1F
100
AcDbEntity
  8
0
100
AcDbBlockReference
  2
block 5
 10
0.0
 20
0.0
 30
0.0
  0
INSERT
  5
57
330
1F
100
AcDbEntity
  8
0
100
AcDbBlockReference
  2
block 6
 10
0.0
 20
0.0
 30
0.0
  0
INSERT
  5
5C
330
1F
100
AcDbEntity
  8
0
100
AcDbBlockReference
  2
block 7
 10
0.0
 20
0.0
 30
0.0
  0
INSERT
  5
61
330
1F
100
AcDbEntity
  8
0
100
AcDbBlockReference
  2
block 8
 10
0.0
 20
0.0
 30
0.0
  0
INSERT
  5
66
330
1F
100
AcDbEntity
  8
0
100
AcDbBlockReference
  2
block 9
 10
0.0
 20
0.0
 30
0.0
  0
INSERT
  5
6B
330
1F
100
AcDbEntity
  8
0
100
AcDbBlockReference
  2
block 10
 10
0.0
 20
0.0
 30
0.0
  0
INSERT
  5
70
330
1F
100
AcDbEntity
  8
0
100
AcDbBlockReference
  2
block 11
 10
0.0
 20
0.0
 30
0.0
  0
INSERT
  5
75
330
1F
100
AcDbEntity
  8
0
100
AcDbBlockReference
  2
block 12
 10
0.0
 20
0.0
 30
0.0
  0
INSERT
  5
7A
330
1F
100
AcDbEntity
  8
0
100
AcDbBlockReference
  2
block 13
 10
0.0
 20
0.0
 30
0.0
  0
INSERT
  5
7F
330
1F
100
AcDbEntity
  8
0
100
AcDbBlockReference
  2
block 14
 10
0.0
 20
0.0
 30
0.0
  0
INSERT
  5
84
330
1F
100
AcDbEntity
  8
0
100
AcDbBlockReference
  2
block 15
 10
0.0
 20
0.0
 30
0.0
  0
INSERT
  5
89
330
1F
100
AcDbEntity
  8
0
100
AcDbBlockReference
  2
block 16
 10
0.0
 20
0.0
 30
0.0
  0
INSERT
  5
8E
330
1F
100
AcDbEntity
  8
0
100
AcDbBlockReference
  2
block 17
 10
0.0
 20
0.0
 30
0.0
  0
INSERT
  5
93
330
1F
100
AcDbEntity
  8
0
100
AcDbBlockReference
  2
block 18
 10
0.0
 20
0.0
 30
0.0
  0
INSERT
  5
98
330
1F
100
AcDbEntity
  8
0
100
AcDbBlockReference
  2
block 19
 10
0.0
 20
0.0
 30
0.0
  0
INSERT
  5
9D
330
1F
100
AcDbEntity
  8
0
100
AcDbBlockReference
  2
block 20
 10
0.0
 20
0.0
 30
0.0
  0
INSERT
  5
A2
330
1F
100
AcDbEntity
  8
0
100
AcDbBlockReference
  2
block 21
 10
0.0
 20
0.0
 30
0.0
  0
INSERT
  5
A7
330
1F
100
AcDbEntity
  8
0
100
AcDbBlockReference
  2
block 22
 10
0.0
 20
0.0
 30
0.0
  0
INSERT
  5
AF
330
1F
100
AcDbEntity
  8
0
100
AcDbBlockReference
  2
block 23
 10
0.0
 20
0.0
 30
0.0
  0
INSERT
  5
B8
330
1F
100
AcDbEntity
  8
0
100
AcDbBlockReference
  2
block 24
 10
0.0
 20
0.0
 30
0.0
  0
INSERT
  5
C1
330
1F
100
AcDbEntity
  8
0
100
AcDbBlockReference
  2
block 25
 10
0.0
 20
0.0
 30
0.0
  0
INSERT
  5
C9
330
1F
100
AcDbEntity
  8
0
100
AcDbBlockReference
  2
block 26
 10
0.0
 20
0.0
 30
0.0
  0
INSERT
  5
D1
330
1F
100
AcDbEntity
  8
0
100
AcDbBlockReference
  2
block 27
 10
0.0
 20
0.0
 30
0.0
  0
INSERT
  5
DA
330
1F
100
AcDbEntity
  8
0
100
AcDbBlockReference
  2
block 28
 10
0.0
 20
0.0
 30
0.0
  0
INSERT
  5
E3
330
1F
100
AcDbEntity
  8
0
100
AcDbBlockReference
  2
block 29
 10
0.0
 20
0.0
 30
0.0
  0
INSERT
  5
EB
330
1F
100
AcDbEntity
  8
0
100
AcDbBlockReference
  2
block 30
 10
0.0
 20
0.0
 30
0.0
  0
INSERT
  5
F0
330
1F
100
AcDbEntity
  8
0
100
AcDbBlockReference
  2
block 31
 10
0.0
 20
0.0
 30
0.0
  0
INSERT
  5
F5
330
1F
100
AcDbEntity
  8
0
100
AcDbBlockReference
  2
block 32
 10
0.0
 20
0.0
 30
0.0
  0
INSERT
  5
FA
330
1F
100
AcDbEntity
  8
0
100
AcDbBlockReference
  2
block 33
 10
0.0
 20
0.0
 30
0.0
  0
INSERT
  5
102
330
1F
100
AcDbEntity
  8
0
100
AcDbBlockReference
  2
block 34
 10
0.0
 20
0.0
 30
0.0
  0
INSERT
  5
10B
330
1F
100
AcDbEntity
  8
0
100
AcDbBlockReference
  2
block 35
 10
0.0
 20
0.0
 30
0.0
  0
INSERT
  5
114
330
1F
100
AcDbEntity
  8
0
100
AcDbBlockReference
  2
block 36
 10
0.0
 20
0.0
 30
0.0
  0
INSERT
  5
11C
330
1F
100
AcDbEntity
  8
0
100
AcDbBlockReference
  2
block 37
 10
0.0
 20
0.0
 30
0.0
  0
INSERT
  5
124
330
1F
100
AcDbEntity
  8
0
100
AcDbBlockReference
  2
block 38
 10
0.0
 20
0.0
 30
0.0
  0
INSERT
  5
12D
330
1F
100
AcDbEntity
  8
0
100
AcDbBlockReference
  2
block 39
 10
0.0
 20
0.0
 30
0.0
  0
INSERT
  5
136
330
1F
100
AcDbEntity
  8
0
100
AcDbBlockReference
  2
block 40
 10
0.0
 20
0.0
 30
0.0
  0
ENDSEC
  0
SECTION
  2
OBJECTS
  0
DICTIONARY
  5
C
330
0
100
AcDbDictionary
281
     1
  3
ACAD_GROUP
350
D
  3
ACAD_LAYOUT
350
1A
  3
ACAD_MATERIAL
350
3B
  3
ACAD_MLEADERSTYLE
350
15E
  3
ACAD_MLINESTYLE
350
17
  3
ACAD_PLOTSETTINGS
350
19
  3
ACAD_PLOTSTYLENAME
350
E
  3
ACAD_TABLESTYLE
350
15D
  3
ACAD_VISUALSTYLE
350
2A
  0
SUN
  5
3F
330
29
100
AcDbSun
 90
        1
290
     0
 63
     7
421
 16777215
 40
1.0
291
     1
 91
  2455826
 92
 54000000
292
     0
 70
     2
 71
   256
280
     1
  0
DICTIONARY
  5
D
102
{ACAD_REACTORS
330
C
102
}
330
C
100
AcDbDictionary
281
     1
  0
DICTIONARY
  5
1A
102
{ACAD_REACTORS
330
C
102
}
330
C
100
AcDbDictionary
281
     1
  3
Layout1
350
1E
  3
Layout2
350
26
  3
Model
350
22
  0
DICTIONARY
  5
3B
102
{ACAD_REACTORS
330
C
102
}
330
C
100
AcDbDictionary
281
     1
  3
ByBlock
350
3D
  3
ByLayer
350
3C
  3
Global
350
3E
  0
DICTIONARY
  5
15E
102
{ACAD_REACTORS
330
C
102
}
330
C
100
AcDbDictionary
281
     1
  0
DICTIONARY
  5
17
102
{ACAD_REACTORS
330
C
102
}
330
C
100
AcDbDictionary
281
     1
  3
Standard
350
18
  0
DICTIONARY
  5
19
102
{ACAD_REACTORS
330
C
102
}
330
C
100
AcDbDictionary
281
     1
  0
ACDBDICTIONARYWDFLT
  5
E
102
{ACAD_REACTORS
330
C
102
}
330
C
100
AcDbDictionary
281
     1
  3
Normal
350
F
100
AcDbDictionaryWithDefault
340
F
  0
DICTIONARY
  5
15D
102
{ACAD_REACTORS
330
C
102
}
330
C
100
AcDbDictionary
281
     1
  0
DICTIONARY
  5
2A
102
{ACAD_REACTORS
330
C
102
}
330
C
100
AcDbDictionary
281
     1
  3
2dWireframe
350
2F
  3
3D Hidden
350
31
  3
3dWireframe
350
30
  3
Basic
350
32
  3
Brighten
350
36
  3
ColorChange
350
3A
  3
Conceptual
350
34
  3
Dim
350
35
  3
Facepattern
350
39
  3
Flat
350
2B
  3
FlatWithEdges
350
2C
  3
Gouraud
350
2D
  3
GouraudWithEdges
350
2E
  3
Linepattern
350
38
  3
Realistic
350
33
  3
Thicken
350
37
  0
LAYOUT
  5
1E
102
{ACAD_REACTORS
330
1A
102
}
330
1A
100
AcDbPlotSettings
  1

  2
none_device
  4

  6

 40
0.0
 41
0.0
 42
0.0
 43
0.0
 44
0.0
 45
0.0
 46
0.0
 47
0.0
 48
0.0
 49
0.0
140
0.0
141
0.0
142
1.0
143
1.0
 70
   688
 72
     0
 73
     0
 74
     5
  7

 75
    16
 76
     0
 77
     2
 78
   300
147
1.0
148
0.0
149
0.0
100
AcDbLayout
  1
Layout1
 70
     1
 71
     1
 10
0.0
 20
0.0
 11
12.0
 21
9.0
 12
0.0
 22
0.0
 32
0.0
 14
1.000000000000000E+20
 24
1.000000000000000E+20
 34
1.000000000000000E+20
 15
-1.000000000000000E+20
 25
-1.000000000000000E+20
 35
-1.000000000000000E+20
146
0.0
 13
0.0
 23
0.0
 33
0.0
 16
1.0
 26
0.0
 36
0.0
 17
0.0
 27
1.0
 37
0.0
 76
     0
330
1B
  0
LAYOUT
  5
26
102
{ACAD_REACTORS
330
1A
102
}
330
1A
100
AcDbPlotSettings
  1

  2
none_device
  4

  6

 40
0.0
 41
0.0
 42
0.0
 43
0.0
 44
0.0
 45
0.0
 46
0.0
 47
0.0
 48
0.0
 49
0.0
140
0.0
141
0.0
142
1.0
143
1.0
 70
   688
 72
     0
 73
     0
 74
     5
  7

 75
    16
 76
     0
 77
     2
 78
   300
147
1.0
148
0.0
149
0.0
100
AcDbLayout
  1
Layout2
 70
     1
 71
     2
 10
0.0
 20
0.0
 11
0.0
 21
0.0
 12
0.0
 22
0.0
 32
0.0
 14
0.0
 24
0.0
 34
0.0
 15
0.0
 25
0.0
 35
0.0
146
0.0
 13
0.0
 23
0.0
 33
0.0
 16
1.0
 26
0.0
 36
0.0
 17
0.0
 27
1.0
 37
0.0
 76
     0
330
23
  0
LAYOUT
  5
22
102
{ACAD_REACTORS
330
1A
102
}
330
1A
100
AcDbPlotSettings
  1

  2
none_device
  4

  6

 40
0.0
 41
0.0
 42
0.0
 43
0.0
 44
0.0
 45
0.0
 46
0.0
 47
0.0
 48
0.0
 49
0.0
140
0.0
141
0.0
142
1.0
143
1.0
 70
  1712
 72
     0
 73
     0
 74
     0
  7

 75
     0
 76
     0
 77
     2
 78
   300
147
1.0
148
0.0
149
0.0
100
AcDbLayout
  1
Model
 70
     1
 71
     0
 10
0.0
 20
0.0
 11
12.0
 21
9.0
 12
0.0
 22
0.0
 32
0.0
 14
1.000000000000000E+20
 24
1.000000000000000E+20
 34
1.000000000000000E+20
 15
-1.000000000000000E+20
 25
-1.000000000000000E+20
 35
-1.000000000000000E+20
146
0.0
 13
0.0
 23
0.0
 33
0.0
 16
1.0
 26
0.0
 36
0.0
 17
0.0
 27
1.0
 37
0.0
 76
     0
330
1F
331
29
  0
MATERIAL
  5
3D
102
{ACAD_REACTORS
330
3B
102
}
330
3B
100
AcDbMaterial
  1
ByBlock
 72
     1
 94
      127
  0
MATERIAL
  5
3C
102
{ACAD_REACTORS
330
3B
102
}
330
3B
100
AcDbMaterial
  1
ByLayer
 72
     1
 94
      127
  0
MATERIAL
  5
3E
102
{ACAD_REACTORS
330
3B
102
}
330
3B
100
AcDbMaterial
  1
Global
 72
     1
 94
      127
  0
MLINESTYLE
  5
18
102
{ACAD_REACTORS
330
17
102
}
330
17
100
AcDbMlineStyle
  2
Standard
 70
     0
  3

 62
   256
 51
90.0
 52
90.0
 71
     2
 49
0.5
 62
   256
  6
BYLAYER
 49
-0.5
 62
   256
  6
BYLAYER
  0
ACDBPLACEHOLDER
  5
F
102
{ACAD_REACTORS
330
E
102
}
330
E
  0
VISUALSTYLE
  5
2F
102
{ACAD_REACTORS
330
2A
102
}
102
{ACAD_XDICTIONARY
360
145
102
}
330
2A
100
AcDbVisualStyle
  2
2dWireframe
 70
     4
 71
     0
 72
     2
 73
     0
 90
        0
 40
-0.6
 41
-30.0
 62
     5
 63
     7
421
 16777215
 74
     1
 91
        4
 64
     7
 65
   257
 75
     1
175
     1
 42
1.0
 92
        0
 66
   257
 43
1.0
 76
     1
 77
     6
 78
     2
 67
     7
 79
     5
170
     0
171
     0
290
     0
174
     0
 93
        1
 44
0.0
173
     0
291
     0
 45
0.0
  0
VISUALSTYLE
  5
31
102
{ACAD_REACTORS
330
2A
102
}
102
{ACAD_XDICTIONARY
360
149
102
}
330
2A
100
AcDbVisualStyle
  2
3D Hidden
 70
     6
 71
     1
 72
     2
 73
     2
 90
        0
 40
-0.6
 41
-30.0
 62
     5
 63
     7
421
 16777215
 74
     2
 91
        2
 64
     7
 65
   257
 75
     2
175
     1
 42
40.0
 92
        0
 66
   257
 43
1.0
 76
     1
 77
     6
 78
     2
 67
     7
 79
     3
170
     0
171
     0
290
     0
174
     0
 93
        1
 44
0.0
173
     0
291
     0
 45
0.0
  0
VISUALSTYLE
  5
30
102
{ACAD_REACTORS
330
2A
102
}
102
{ACAD_XDICTIONARY
360
147
102
}
330
2A
100
AcDbVisualStyle
  2
3dWireframe
 70
     5
 71
     0
 72
     2
 73
     0
 90
        0
 40
-0.6
 41
-30.0
 62
     5
 63
     7
421
 16777215
 74
     1
 91
        4
 64
     7
 65
   257
 75
     1
175
     1
 42
1.0
 92
        0
 66
   257
 43
1.0
 76
     1
 77
     6
 78
     2
 67
     7
 79
     5
170
     0
171
     0
290
     0
174
     0
 93
        1
 44
0.0
173
     0
291
     0
 45
0.0
  0
VISUALSTYLE
  5
32
102
{ACAD_REACTORS
330
2A
102
}
102
{ACAD_XDICTIONARY
360
14B
102
}
330
2A
100
AcDbVisualStyle
  2
Basic
 70
     7
 71
     1
 72
     0
 73
     1
 90
        0
 40
-0.6
 41
-30.0
 62
     5
 63
     7
421
 16777215
 74
     0
 91
        4
 64
     7
 65
   257
 75
     1
175
     1
 42
1.0
 92
        8
 66
     7
 43
1.0
 76
     1
 77
     6
 78
     2
 67
     7
 79
     5
170
     0
171
     0
290
     0
174
     0
 93
        1
 44
0.0
173
     0
291
     1
 45
0.0
  0
VISUALSTYLE
  5
36
102
{ACAD_REACTORS
330
2A
102
}
102
{ACAD_XDICTIONARY
360
153
102
}
330
2A
100
AcDbVisualStyle
  2
Brighten
 70
    12
 71
     2
 72
     2
 73
     0
 90
        0
 40
-0.6
 41
-30.0
 62
     5
 63
     7
421
 16777215
 74
     1
 91
        4
 64
     7
 65
   257
 75
     1
175
     1
 42
1.0
 92
        8
 66
     7
 43
1.0
 76
     1
 77
     6
 78
     2
 67
     7
 79
     5
170
     0
171
     0
290
     0
174
     0
 93
        1
 44
50.0
173
     0
291
     1
 45
0.0
  0
VISUALSTYLE
  5
3A
102
{ACAD_REACTORS
330
2A
102
}
102
{ACAD_XDICTIONARY
360
15B
102
}
330
2A
100
AcDbVisualStyle
  2
ColorChange
 70
    16
 71
     2
 72
     2
 73
     3
 90
        0
 40
-0.6
 41
-30.0
 62
     5
 63
     8
421
  8421504
 74
     1
 91
        4
 64
     7
 65
   257
 75
     1
175
     1
 42
1.0
 92
        8
 66
     8
424
  8421504
 43
1.0
 76
     1
 77
     6
 78
     2
 67
     7
 79
     5
170
     0
171
     0
290
     0
174
     0
 93
        1
 44
0.0
173
     0
291
     1
 45
0.0
  0
VISUALSTYLE
  5
34
102
{ACAD_REACTORS
330
2A
102
}
102
{ACAD_XDICTIONARY
360
14F
102
}
330
2A
100
AcDbVisualStyle
  2
Conceptual
 70
     9
 71
     3
 72
     2
 73
     0
 90
        0
 40
-0.6
 41
-30.0
 62
     5
 63
     7
421
 16777215
 74
     2
 91
        2
 64
     7
 65
   257
 75
     1
175
     1
 42
40.0
 92
        8
 66
     7
 43
1.0
 76
     1
 77
     6
 78
     2
 67
     7
 79
     3
170
     0
171
     0
290
     0
174
     0
 93
        1
 44
0.0
173
     0
291
     0
 45
0.0
  0
VISUALSTYLE
  5
35
102
{ACAD_REACTORS
330
2A
102
}
102
{ACAD_XDICTIONARY
360
151
102
}
330
2A
100
AcDbVisualStyle
  2
Dim
 70
    11
 71
     2
 72
     2
 73
     0
 90
        0
 40
-0.6
 41
-30.0
 62
     5
 63
     7
421
 16777215
 74
     1
 91
        4
 64
     7
 65
   257
 75
     1
175
     1
 42
1.0
 92
        8
 66
     7
 43
1.0
 76
     1
 77
     6
 78
     2
 67
     7
 79
     5
170
     0
171
     0
290
     0
174
     0
 93
        1
 44
-50.0
173
     0
291
     1
 45
0.0
  0
VISUALSTYLE
  5
39
102
{ACAD_REACTORS
330
2A
102
}
102
{ACAD_XDICTIONARY
360
159
102
}
330
2A
100
AcDbVisualStyle
  2
Facepattern
 70
    15
 71
     2
 72
     2
 73
     0
 90
        0
 40
-0.6
 41
-30.0
 62
     5
 63
     7
421
 16777215
 74
     1
 91
        4
 64
     7
 65
   257
 75
     1
175
     1
 42
1.0
 92
        8
 66
     7
 43
1.0
 76
     1
 77
     6
 78
     2
 67
     7
 79
     5
170
     0
171
     0
290
     0
174
     0
 93
        1
 44
0.0
173
     0
291
     1
 45
0.0
  0
VISUALSTYLE
  5
2B
102
{ACAD_REACTORS
330
2A
102
}
102
{ACAD_XDICTIONARY
360
13D
102
}
330
2A
100
AcDbVisualStyle
  2
Flat
 70
     0
 71
     2
 72
     1
 73
     1
 90
        2
 40
-0.6
 41
30.0
 62
     5
 63
     7
421
 16777215
 74
     0
 91
        4
 64
     7
 65
   257
 75
     1
175
     1
 42
1.0
 92
        8
 66
     7
 43
1.0
 76
     1
 77
     6
 78
     2
 67
     7
 79
     5
170
     0
171
     0
290
     0
174
     0
 93
       13
 44
0.0
173
     0
291
     1
 45
0.0
  0
VISUALSTYLE
  5
2C
102
{ACAD_REACTORS
330
2A
102
}
102
{ACAD_XDICTIONARY
360
13F
102
}
330
2A
100
AcDbVisualStyle
  2
FlatWithEdges
 70
     1
 71
     2
 72
     1
 73
     1
 90
        2
 40
-0.6
 41
30.0
 62
     5
 63
     7
421
 16777215
 74
     1
 91
        4
 64
     7
 65
   257
 75
     1
175
     1
 42
1.0
 92
        0
 66
   257
 43
1.0
 76
     1
 77
     6
 78
     2
 67
     7
 79
     5
170
     0
171
     0
290
     0
174
     0
 93
       13
 44
0.0
173
     0
291
     1
 45
0.0
  0
VISUALSTYLE
  5
2D
102
{ACAD_REACTORS
330
2A
102
}
102
{ACAD_XDICTIONARY
360
141
102
}
330
2A
100
AcDbVisualStyle
  2
Gouraud
 70
     2
 71
     2
 72
     2
 73
     1
 90
        2
 40
-0.6
 41
30.0
 62
     5
 63
     7
421
 16777215
 74
     0
 91
        4
 64
     7
 65
   257
 75
     1
175
     1
 42
1.0
 92
        0
 66
     7
 43
1.0
 76
     1
 77
     6
 78
     2
 67
     7
 79
     5
170
     0
171
     0
290
     0
174
     0
 93
       13
 44
0.0
173
     0
291
     1
 45
0.0
  0
VISUALSTYLE
  5
2E
102
{ACAD_REACTORS
330
2A
102
}
102
{ACAD_XDICTIONARY
360
143
102
}
330
2A
100
AcDbVisualStyle
  2
GouraudWithEdges
 70
     3
 71
     2
 72
     2
 73
     1
 90
        2
 40
-0.6
 41
30.0
 62
     5
 63
     7
421
 16777215
 74
     1
 91
        4
 64
     7
 65
   257
 75
     1
175
     1
 42
1.0
 92
        0
 66
   257
 43
1.0
 76
     1
 77
     6
 78
     2
 67
     7
 79
     5
170
     0
171
     0
290
     0
174
     0
 93
       13
 44
0.0
173
     0
291
     1
 45
0.0
  0
VISUALSTYLE
  5
38
102
{ACAD_REACTORS
330
2A
102
}
102
{ACAD_XDICTIONARY
360
157
102
}
330
2A
100
AcDbVisualStyle
  2
Linepattern
 70
    14
 71
     2
 72
     2
 73
     0
 90
        0
 40
-0.6
 41
-30.0
 62
     5
 63
     7
421
 16777215
 74
     1
 91
        4
 64
     7
 65
   257
 75
     7
175
     7
 42
1.0
 92
        8
 66
     7
 43
1.0
 76
     1
 77
     6
 78
     2
 67
     7
 79
     5
170
     0
171
     0
290
     0
174
     0
 93
        1
 44
0.0
173
     0
291
     1
 45
0.0
  0
VISUALSTYLE
  5
33
102
{ACAD_REACTORS
330
2A
102
}
102
{ACAD_XDICTIONARY
360
14D
102
}
330
2A
100
AcDbVisualStyle
  2
Realistic
 70
     8
 71
     2
 72
     2
 73
     0
 90
        0
 40
-0.6
 41
-30.0
 62
     5
 63
     7
421
 16777215
 74
     1
 91
        0
 64
     7
 65
   257
 75
     1
175
     1
 42
1.0
 92
        8
 66
     8
424
  7895160
 43
1.0
 76
     1
 77
     6
 78
     2
 67
     7
 79
     5
170
     0
171
     0
290
     0
174
     0
 93
       13
 44
0.0
173
     0
291
     0
 45
0.0
  0
VISUALSTYLE
  5
37
102
{ACAD_REACTORS
330
2A
102
}
102
{ACAD_XDICTIONARY
360
155
102
}
330
2A
100
AcDbVisualStyle
  2
Thicken
 70
    13
 71
     2
 72
     2
 73
     0
 90
        0
 40
-0.6
 41
-30.0
 62
     5
 63
     7
421
 16777215
 74
     1
 91
        4
 64
     7
 65
   257
 75
     1
175
     1
 42
1.0
 92
       12
 66
     7
 43
1.0
 76
     1
 77
     6
 78
     2
 67
     7
 79
     5
170
     0
171
     0
290
     0
174
     0
 93
        1
 44
0.0
173
     0
291
     1
 45
0.0
  0
DICTIONARY
  5
145
330
2F
100
AcDbDictionary
280
     1
281
     1
  3
ACAD_XREC_ROUNDTRIP
360
146
  0
DICTIONARY
  5
149
330
31
100
AcDbDictionary
280
     1
281
     1
  3
ACAD_XREC_ROUNDTRIP
360
14A
  0
DICTIONARY
  5
147
330
30
100
AcDbDictionary
280
     1
281
     1
  3
ACAD_XREC_ROUNDTRIP
360
148
  0
DICTIONARY
  5
14B
330
32
100
AcDbDictionary
280
     1
281
     1
  3
ACAD_XREC_ROUNDTRIP
360
14C
  0
DICTIONARY
  5
153
330
36
100
AcDbDictionary
280
     1
281
     1
  3
ACAD_XREC_ROUNDTRIP
360
154
  0
DICTIONARY
  5
15B
330
3A
100
AcDbDictionary
280
     1
281
     1
  3
ACAD_XREC_ROUNDTRIP
360
15C
  0
DICTIONARY
  5
14F
330
34
100
AcDbDictionary
280
     1
281
     1
  3
ACAD_XREC_ROUNDTRIP
360
150
  0
DICTIONARY
  5
151
330
35
100
AcDbDictionary
280
     1
281
     1
  3
ACAD_XREC_ROUNDTRIP
360
152
  0
DICTIONARY
  5
159
330
39
100
AcDbDictionary
280
     1
281
     1
  3
ACAD_XREC_ROUNDTRIP
360
15A
  0
DICTIONARY
  5
13D
330
2B
100
AcDbDictionary
280
     1
281
     1
  3
ACAD_XREC_ROUNDTRIP
360
13E
  0
DICTIONARY
  5
13F
330
2C
100
AcDbDictionary
280
     1
281
     1
  3
ACAD_XREC_ROUNDTRIP
360
140
  0
DICTIONARY
  5
141
330
2D
100
AcDbDictionary
280
     1
281
     1
  3
ACAD_XREC_ROUNDTRIP
360
142
  0
DICTIONARY
  5
143
330
2E
100
AcDbDictionary
280
     1
281
     1
  3
ACAD_XREC_ROUNDTRIP
360
144
  0
DICTIONARY
  5
157
330
38
100
AcDbDictionary
280
     1
281
     1
  3
ACAD_XREC_ROUNDTRIP
360
158
  0
DICTIONARY
  5
14D
330
33
100
AcDbDictionary
280
     1
281
     1
  3
ACAD_XREC_ROUNDTRIP
360
14E
  0
DICTIONARY
  5
155
330
37
100
AcDbDictionary
280
     1
281
     1
  3
ACAD_XREC_ROUNDTRIP
360
156
  0
XRECORD
  5
146
102
{ACAD_REACTORS
330
145
102
}
330
145
100
AcDbXrecord
280
     1
102
RTVSPropertyOp0
 70
     1
102
RTVSPropertyOp1
 70
     1
102
RTVSPropertyOp2
 70
     1
102
RTVSPropertyOp3
 70
     1
102
RTVSPropertyOp4
 70
     1
102
RTVSPropertyOp5
 70
     1
102
RTVSPropertyOp6
 70
     1
102
RTVSPropertyOp7
 70
     1
102
RTVSPropertyOp8
 70
     1
102
RTVSPropertyOp9
 70
     1
102
RTVSPropertyOp10
 70
     1
102
RTVSPropertyOp11
 70
     1
102
RTVSPropertyOp12
 70
     1
102
RTVSPropertyOp13
 70
     1
102
RTVSPropertyOp14
 70
     1
102
RTVSPropertyOp15
 70
     1
102
RTVSPropertyOp16
 70
     1
102
RTVSPropertyOp17
 70
     1
102
RTVSPropertyOp18
 70
     1
102
RTVSPropertyOp19
 70
     1
102
RTVSPropertyOp20
 70
     1
102
RTVSPropertyOp21
 70
     1
102
RTVSPropertyOp22
 70
     1
102
RTVSPropertyOp23
 70
     1
102
RTVSPropertyOp24
 70
     1
102
RTVSPropertyOp25
 70
     1
102
RTVSPropertyOp26
 70
     1
102
RTVSPropertyOp27
 70
     1
102
RTVSPropertyOp28
 70
     1
102
RTVSPropertyOp29
 70
     1
102
RTVSPropertyOp30
 70
     1
102
RTVSPropertyOp31
 70
     1
102
RTVSPropertyOp32
 70
     1
  0
XRECORD
  5
14A
102
{ACAD_REACTORS
330
149
102
}
330
149
100
AcDbXrecord
280
     1
102
RTVSPropertyOp0
 70
     1
102
RTVSPropertyOp1
 70
     1
102
RTVSPropertyOp2
 70
     1
102
RTVSPropertyOp3
 70
     1
102
RTVSPropertyOp4
 70
     1
102
RTVSPropertyOp5
 70
     1
102
RTVSPropertyOp6
 70
     1
102
RTVSPropertyOp7
 70
     1
102
RTVSPropertyOp8
 70
     1
102
RTVSPropertyOp9
 70
     1
102
RTVSPropertyOp10
 70
     1
102
RTVSPropertyOp11
 70
     1
102
RTVSPropertyOp12
 70
     1
102
RTVSPropertyOp13
 70
     1
102
RTVSPropertyOp14
 70
     1
102
RTVSPropertyOp15
 70
     1
102
RTVSPropertyOp16
 70
     1
102
RTVSPropertyOp17
 70
     1
102
RTVSPropertyOp18
 70
     1
102
RTVSPropertyOp19
 70
     1
102
RTVSPropertyOp20
 70
     1
102
RTVSPropertyOp21
 70
     1
102
RTVSPropertyOp22
 70
     1
102
RTVSPropertyOp23
 70
     1
102
RTVSPropertyOp24
 70
     1
102
RTVSPropertyOp25
 70
     1
102
RTVSPropertyOp26
 70
     1
102
RTVSPropertyOp27
 70
     1
102
RTVSPropertyOp28
 70
     1
102
RTVSPropertyOp29
 70
     1
102
RTVSPropertyOp30
 70
     1
102
RTVSPropertyOp31
 70
     1
102
RTVSPropertyOp32
 70
     1
  0
XRECORD
  5
148
102
{ACAD_REACTORS
330
147
102
}
330
147
100
AcDbXrecord
280
     1
102
RTVSPropertyOp0
 70
     1
102
RTVSPropertyOp1
 70
     1
102
RTVSPropertyOp2
 70
     1
102
RTVSPropertyOp3
 70
     1
102
RTVSPropertyOp4
 70
     1
102
RTVSPropertyOp5
 70
     1
102
RTVSPropertyOp6
 70
     1
102
RTVSPropertyOp7
 70
     1
102
RTVSPropertyOp8
 70
     1
102
RTVSPropertyOp9
 70
     1
102
RTVSPropertyOp10
 70
     1
102
RTVSPropertyOp11
 70
     1
102
RTVSPropertyOp12
 70
     1
102
RTVSPropertyOp13
 70
     1
102
RTVSPropertyOp14
 70
     1
102
RTVSPropertyOp15
 70
     1
102
RTVSPropertyOp16
 70
     1
102
RTVSPropertyOp17
 70
     1
102
RTVSPropertyOp18
 70
     1
102
RTVSPropertyOp19
 70
     1
102
RTVSPropertyOp20
 70
     1
102
RTVSPropertyOp21
 70
     1
102
RTVSPropertyOp22
 70
     1
102
RTVSPropertyOp23
 70
     1
102
RTVSPropertyOp24
 70
     1
102
RTVSPropertyOp25
 70
     1
102
RTVSPropertyOp26
 70
     1
102
RTVSPropertyOp27
 70
     1
102
RTVSPropertyOp28
 70
     1
102
RTVSPropertyOp29
 70
     1
102
RTVSPropertyOp30
 70
     1
102
RTVSPropertyOp31
 70
     1
102
RTVSPropertyOp32
 70
     1
  0
XRECORD
  5
14C
102
{ACAD_REACTORS
330
14B
102
}
330
14B
100
AcDbXrecord
280
     1
102
RTVSPropertyOp0
 70
     1
102
RTVSPropertyOp1
 70
     1
102
RTVSPropertyOp2
 70
     1
102
RTVSPropertyOp3
 70
     1
102
RTVSPropertyOp4
 70
     1
102
RTVSPropertyOp5
 70
     1
102
RTVSPropertyOp6
 70
     1
102
RTVSPropertyOp7
 70
     1
102
RTVSPropertyOp8
 70
     1
102
RTVSPropertyOp9
 70
     1
102
RTVSPropertyOp10
 70
     1
102
RTVSPropertyOp11
 70
     1
102
RTVSPropertyOp12
 70
     1
102
RTVSPropertyOp13
 70
     1
102
RTVSPropertyOp14
 70
     1
102
RTVSPropertyOp15
 70
     1
102
RTVSPropertyOp16
 70
     1
102
RTVSPropertyOp17
 70
     1
102
RTVSPropertyOp18
 70
     1
102
RTVSPropertyOp19
 70
     1
102
RTVSPropertyOp20
 70
     1
102
RTVSPropertyOp21
 70
     1
102
RTVSPropertyOp22
 70
     1
102
RTVSPropertyOp23
 70
     1
102
RTVSPropertyOp24
 70
     1
102
RTVSPropertyOp25
 70
     1
102
RTVSPropertyOp26
 70
     1
102
RTVSPropertyOp27
 70
     1
102
RTVSPropertyOp28
 70
     1
102
RTVSPropertyOp29
 70
     1
102
RTVSPropertyOp30
 70
     1
102
RTVSPropertyOp31
 70
     1
102
RTVSPropertyOp32
 70
     1
  0
XRECORD
  5
154
102
{ACAD_REACTORS
330
153
102
}
330
153
100
AcDbXrecord
280
     1
102
RTVSPropertyOp0
 70
     1
102
RTVSPropertyOp1
 70
     1
102
RTVSPropertyOp2
 70
     1
102
RTVSPropertyOp3
 70
     1
102
RTVSPropertyOp4
 70
     1
102
RTVSPropertyOp5
 70
     1
102
RTVSPropertyOp6
 70
     1
102
RTVSPropertyOp7
 70
     1
102
RTVSPropertyOp8
 70
     1
102
RTVSPropertyOp9
 70
     1
102
RTVSPropertyOp10
 70
     1
102
RTVSPropertyOp11
 70
     1
102
RTVSPropertyOp12
 70
     1
102
RTVSPropertyOp13
 70
     1
102
RTVSPropertyOp14
 70
     1
102
RTVSPropertyOp15
 70
     1
102
RTVSPropertyOp16
 70
     1
102
RTVSPropertyOp17
 70
     1
102
RTVSPropertyOp18
 70
     1
102
RTVSPropertyOp19
 70
     1
102
RTVSPropertyOp20
 70
     1
102
RTVSPropertyOp21
 70
     1
102
RTVSPropertyOp22
 70
     1
102
RTVSPropertyOp23
 70
     1
102
RTVSPropertyOp24
 70
     1
102
RTVSPropertyOp25
 70
     1
102
RTVSPropertyOp26
 70
     1
102
RTVSPropertyOp27
 70
     1
102
RTVSPropertyOp28
 70
     1
102
RTVSPropertyOp29
 70
     1
102
RTVSPropertyOp30
 70
     1
102
RTVSPropertyOp31
 70
     1
102
RTVSPropertyOp32
 70
     1
  0
XRECORD
  5
15C
102
{ACAD_REACTORS
330
15B
102
}
330
15B
100
AcDbXrecord
280
     1
102
RTVSPropertyOp0
 70
     1
102
RTVSPropertyOp1
 70
     1
102
RTVSPropertyOp2
 70
     1
102
RTVSPropertyOp3
 70
     1
102
RTVSPropertyOp4
 70
     1
102
RTVSPropertyOp5
 70
     1
102
RTVSPropertyOp6
 70
     1
102
RTVSPropertyOp7
 70
     1
102
RTVSPropertyOp8
 70
     1
102
RTVSPropertyOp9
 70
     1
102
RTVSPropertyOp10
 70
     1
102
RTVSPropertyOp11
 70
     1
102
RTVSPropertyOp12
 70
     1
102
RTVSPropertyOp13
 70
     1
102
RTVSPropertyOp14
 70
     1
102
RTVSPropertyOp15
 70
     1
102
RTVSPropertyOp16
 70
     1
102
RTVSPropertyOp17
 70
     1
102
RTVSPropertyOp18
 70
     1
102
RTVSPropertyOp19
 70
     1
102
RTVSPropertyOp20
 70
     1
102
RTVSPropertyOp21
 70
     1
102
RTVSPropertyOp22
 70
     1
102
RTVSPropertyOp23
 70
     1
102
RTVSPropertyOp24
 70
     1
102
RTVSPropertyOp25
 70
     1
102
RTVSPropertyOp26
 70
     1
102
RTVSPropertyOp27
 70
     1
102
RTVSPropertyOp28
 70
     1
102
RTVSPropertyOp29
 70
     1
102
RTVSPropertyOp30
 70
     1
102
RTVSPropertyOp31
 70
     1
102
RTVSPropertyOp32
 70
     1
  0
XRECORD
  5
150
102
{ACAD_REACTORS
330
14F
102
}
330
14F
100
AcDbXrecord
280
     1
102
RTVSPropertyOp0
 70
     1
102
RTVSPropertyOp1
 70
     1
102
RTVSPropertyOp2
 70
     1
102
RTVSPropertyOp3
 70
     1
102
RTVSPropertyOp4
 70
     1
102
RTVSPropertyOp5
 70
     1
102
RTVSPropertyOp6
 70
     1
102
RTVSPropertyOp7
 70
     1
102
RTVSPropertyOp8
 70
     1
102
RTVSPropertyOp9
 70
     1
102
RTVSPropertyOp10
 70
     1
102
RTVSPropertyOp11
 70
     1
102
RTVSPropertyOp12
 70
     1
102
RTVSPropertyOp13
 70
     1
102
RTVSPropertyOp14
 70
     1
102
RTVSPropertyOp15
 70
     1
102
RTVSPropertyOp16
 70
     1
102
RTVSPropertyOp17
 70
     1
102
RTVSPropertyOp18
 70
     1
102
RTVSPropertyOp19
 70
     1
102
RTVSPropertyOp20
 70
     1
102
RTVSPropertyOp21
 70
     1
102
RTVSPropertyOp22
 70
     1
102
RTVSPropertyOp23
 70
     1
102
RTVSPropertyOp24
 70
     1
102
RTVSPropertyOp25
 70
     1
102
RTVSPropertyOp26
 70
     1
102
RTVSPropertyOp27
 70
     1
102
RTVSPropertyOp28
 70
     1
102
RTVSPropertyOp29
 70
     1
102
RTVSPropertyOp30
 70
     1
102
RTVSPropertyOp31
 70
     1
102
RTVSPropertyOp32
 70
     1
  0
XRECORD
  5
152
102
{ACAD_REACTORS
330
151
102
}
330
151
100
AcDbXrecord
280
     1
102
RTVSPropertyOp0
 70
     1
102
RTVSPropertyOp1
 70
     1
102
RTVSPropertyOp2
 70
     1
102
RTVSPropertyOp3
 70
     1
102
RTVSPropertyOp4
 70
     1
102
RTVSPropertyOp5
 70
     1
102
RTVSPropertyOp6
 70
     1
102
RTVSPropertyOp7
 70
     1
102
RTVSPropertyOp8
 70
     1
102
RTVSPropertyOp9
 70
     1
102
RTVSPropertyOp10
 70
     1
102
RTVSPropertyOp11
 70
     1
102
RTVSPropertyOp12
 70
     1
102
RTVSPropertyOp13
 70
     1
102
RTVSPropertyOp14
 70
     1
102
RTVSPropertyOp15
 70
     1
102
RTVSPropertyOp16
 70
     1
102
RTVSPropertyOp17
 70
     1
102
RTVSPropertyOp18
 70
     1
102
RTVSPropertyOp19
 70
     1
102
RTVSPropertyOp20
 70
     1
102
RTVSPropertyOp21
 70
     1
102
RTVSPropertyOp22
 70
     1
102
RTVSPropertyOp23
 70
     1
102
RTVSPropertyOp24
 70
     1
102
RTVSPropertyOp25
 70
     1
102
RTVSPropertyOp26
 70
     1
102
RTVSPropertyOp27
 70
     1
102
RTVSPropertyOp28
 70
     1
102
RTVSPropertyOp29
 70
     1
102
RTVSPropertyOp30
 70
     1
102
RTVSPropertyOp31
 70
     1
102
RTVSPropertyOp32
 70
     1
  0
XRECORD
  5
15A
102
{ACAD_REACTORS
330
159
102
}
330
159
100
AcDbXrecord
280
     1
102
RTVSPropertyOp0
 70
     1
102
RTVSPropertyOp1
 70
     1
102
RTVSPropertyOp2
 70
     1
102
RTVSPropertyOp3
 70
     1
102
RTVSPropertyOp4
 70
     1
102
RTVSPropertyOp5
 70
     1
102
RTVSPropertyOp6
 70
     1
102
RTVSPropertyOp7
 70
     1
102
RTVSPropertyOp8
 70
     1
102
RTVSPropertyOp9
 70
     1
102
RTVSPropertyOp10
 70
     1
102
RTVSPropertyOp11
 70
     1
102
RTVSPropertyOp12
 70
     1
102
RTVSPropertyOp13
 70
     1
102
RTVSPropertyOp14
 70
     1
102
RTVSPropertyOp15
 70
     1
102
RTVSPropertyOp16
 70
     1
102
RTVSPropertyOp17
 70
     1
102
RTVSPropertyOp18
 70
     1
102
RTVSPropertyOp19
 70
     1
102
RTVSPropertyOp20
 70
     1
102
RTVSPropertyOp21
 70
     1
102
RTVSPropertyOp22
 70
     1
102
RTVSPropertyOp23
 70
     1
102
RTVSPropertyOp24
 70
     1
102
RTVSPropertyOp25
 70
     1
102
RTVSPropertyOp26
 70
     1
102
RTVSPropertyOp27
 70
     1
102
RTVSPropertyOp28
 70
     1
102
RTVSPropertyOp29
 70
     1
102
RTVSPropertyOp30
 70
     1
102
RTVSPropertyOp31
 70
     1
102
RTVSPropertyOp32
 70
     1
  0
XRECORD
  5
13E
102
{ACAD_REACTORS
330
13D
102
}
330
13D
100
AcDbXrecord
280
     1
102
RTVSPropertyOp0
 70
     1
102
RTVSPropertyOp1
 70
     1
102
RTVSPropertyOp2
 70
     1
102
RTVSPropertyOp3
 70
     1
102
RTVSPropertyOp4
 70
     1
102
RTVSPropertyOp5
 70
     1
102
RTVSPropertyOp6
 70
     1
102
RTVSPropertyOp7
 70
     1
102
RTVSPropertyOp8
 70
     1
102
RTVSPropertyOp9
 70
     1
102
RTVSPropertyOp10
 70
     1
102
RTVSPropertyOp11
 70
     1
102
RTVSPropertyOp12
 70
     1
102
RTVSPropertyOp13
 70
     1
102
RTVSPropertyOp14
 70
     1
102
RTVSPropertyOp15
 70
     1
102
RTVSPropertyOp16
 70
     1
102
RTVSPropertyOp17
 70
     1
102
RTVSPropertyOp18
 70
     1
102
RTVSPropertyOp19
 70
     1
102
RTVSPropertyOp20
 70
     1
102
RTVSPropertyOp21
 70
     1
102
RTVSPropertyOp22
 70
     1
102
RTVSPropertyOp23
 70
     1
102
RTVSPropertyOp24
 70
     1
102
RTVSPropertyOp25
 70
     1
102
RTVSPropertyOp26
 70
     1
102
RTVSPropertyOp27
 70
     1
102
RTVSPropertyOp28
 70
     1
102
RTVSPropertyOp29
 70
     1
102
RTVSPropertyOp30
 70
     1
102
RTVSPropertyOp31
 70
     1
102
RTVSPropertyOp32
 70
     1
  0
XRECORD
  5
140
102
{ACAD_REACTORS
330
13F
102
}
330
13F
100
AcDbXrecord
280
     1
102
RTVSPropertyOp0
 70
     1
102
RTVSPropertyOp1
 70
     1
102
RTVSPropertyOp2
 70
     1
102
RTVSPropertyOp3
 70
     1
102
RTVSPropertyOp4
 70
     1
102
RTVSPropertyOp5
 70
     1
102
RTVSPropertyOp6
 70
     1
102
RTVSPropertyOp7
 70
     1
102
RTVSPropertyOp8
 70
     1
102
RTVSPropertyOp9
 70
     1
102
RTVSPropertyOp10
 70
     1
102
RTVSPropertyOp11
 70
     1
102
RTVSPropertyOp12
 70
     1
102
RTVSPropertyOp13
 70
     1
102
RTVSPropertyOp14
 70
     1
102
RTVSPropertyOp15
 70
     1
102
RTVSPropertyOp16
 70
     1
102
RTVSPropertyOp17
 70
     1
102
RTVSPropertyOp18
 70
     1
102
RTVSPropertyOp19
 70
     1
102
RTVSPropertyOp20
 70
     1
102
RTVSPropertyOp21
 70
     1
102
RTVSPropertyOp22
 70
     1
102
RTVSPropertyOp23
 70
     1
102
RTVSPropertyOp24
 70
     1
102
RTVSPropertyOp25
 70
     1
102
RTVSPropertyOp26
 70
     1
102
RTVSPropertyOp27
 70
     1
102
RTVSPropertyOp28
 70
     1
102
RTVSPropertyOp29
 70
     1
102
RTVSPropertyOp30
 70
     1
102
RTVSPropertyOp31
 70
     1
102
RTVSPropertyOp32
 70
     1
  0
XRECORD
  5
142
102
{ACAD_REACTORS
330
141
102
}
330
141
100
AcDbXrecord
280
     1
102
RTVSPropertyOp0
 70
     1
102
RTVSPropertyOp1
 70
     1
102
RTVSPropertyOp2
 70
     1
102
RTVSPropertyOp3
 70
     1
102
RTVSPropertyOp4
 70
     1
102
RTVSPropertyOp5
 70
     1
102
RTVSPropertyOp6
 70
     1
102
RTVSPropertyOp7
 70
     1
102
RTVSPropertyOp8
 70
     1
102
RTVSPropertyOp9
 70
     1
102
RTVSPropertyOp10
 70
     1
102
RTVSPropertyOp11
 70
     1
102
RTVSPropertyOp12
 70
     1
102
RTVSPropertyOp13
 70
     1
102
RTVSPropertyOp14
 70
     1
102
RTVSPropertyOp15
 70
     1
102
RTVSPropertyOp16
 70
     1
102
RTVSPropertyOp17
 70
     1
102
RTVSPropertyOp18
 70
     1
102
RTVSPropertyOp19
 70
     1
102
RTVSPropertyOp20
 70
     1
102
RTVSPropertyOp21
 70
     1
102
RTVSPropertyOp22
 70
     1
102
RTVSPropertyOp23
 70
     1
102
RTVSPropertyOp24
 70
     1
102
RTVSPropertyOp25
 70
     1
102
RTVSPropertyOp26
 70
     1
102
RTVSPropertyOp27
 70
     1
102
RTVSPropertyOp28
 70
     1
102
RTVSPropertyOp29
 70
     1
102
RTVSPropertyOp30
 70
     1
102
RTVSPropertyOp31
 70
     1
102
RTVSPropertyOp32
 70
     1
  0
XRECORD
  5
144
102
{ACAD_REACTORS
330
143
102
}
330
143
100
AcDbXrecord
280
     1
102
RTVSPropertyOp0
 70
     1
102
RTVSPropertyOp1
 70
     1
102
RTVSPropertyOp2
 70
     1
102
RTVSPropertyOp3
 70
     1
102
RTVSPropertyOp4
 70
     1
102
RTVSPropertyOp5
 70
     1
102
RTVSPropertyOp6
 70
     1
102
RTVSPropertyOp7
 70
     1
102
RTVSPropertyOp8
 70
     1
102
RTVSPropertyOp9
 70
     1
102
RTVSPropertyOp10
 70
     1
102
RTVSPropertyOp11
 70
     1
102
RTVSPropertyOp12
 70
     1
102
RTVSPropertyOp13
 70
     1
102
RTVSPropertyOp14
 70
     1
102
RTVSPropertyOp15
 70
     1
102
RTVSPropertyOp16
 70
     1
102
RTVSPropertyOp17
 70
     1
102
RTVSPropertyOp18
 70
     1
102
RTVSPropertyOp19
 70
     1
102
RTVSPropertyOp20
 70
     1
102
RTVSPropertyOp21
 70
     1
102
RTVSPropertyOp22
 70
     1
102
RTVSPropertyOp23
 70
     1
102
RTVSPropertyOp24
 70
     1
102
RTVSPropertyOp25
 70
     1
102
RTVSPropertyOp26
 70
     1
102
RTVSPropertyOp27
 70
     1
102
RTVSPropertyOp28
 70
     1
102
RTVSPropertyOp29
 70
     1
102
RTVSPropertyOp30
 70
     1
102
RTVSPropertyOp31
 70
     1
102
RTVSPropertyOp32
 70
     1
  0
XRECORD
  5
158
102
{ACAD_REACTORS
330
157
102
}
330
157
100
AcDbXrecord
280
     1
102
RTVSPropertyOp0
 70
     1
102
RTVSPropertyOp1
 70
     1
102
RTVSPropertyOp2
 70
     1
102
RTVSPropertyOp3
 70
     1
102
RTVSPropertyOp4
 70
     1
102
RTVSPropertyOp5
 70
     1
102
RTVSPropertyOp6
 70
     1
102
RTVSPropertyOp7
 70
     1
102
RTVSPropertyOp8
 70
     1
102
RTVSPropertyOp9
 70
     1
102
RTVSPropertyOp10
 70
     1
102
RTVSPropertyOp11
 70
     1
102
RTVSPropertyOp12
 70
     1
102
RTVSPropertyOp13
 70
     1
102
RTVSPropertyOp14
 70
     1
102
RTVSPropertyOp15
 70
     1
102
RTVSPropertyOp16
 70
     1
102
RTVSPropertyOp17
 70
     1
102
RTVSPropertyOp18
 70
     1
102
RTVSPropertyOp19
 70
     1
102
RTVSPropertyOp20
 70
     1
102
RTVSPropertyOp21
 70
     1
102
RTVSPropertyOp22
 70
     1
102
RTVSPropertyOp23
 70
     1
102
RTVSPropertyOp24
 70
     1
102
RTVSPropertyOp25
 70
     1
102
RTVSPropertyOp26
 70
     1
102
RTVSPropertyOp27
 70
     1
102
RTVSPropertyOp28
 70
     1
102
RTVSPropertyOp29
 70
     1
102
RTVSPropertyOp30
 70
     1
102
RTVSPropertyOp31
 70
     1
102
RTVSPropertyOp32
 70
     1
  0
XRECORD
  5
14E
102
{ACAD_REACTORS
330
14D
102
}
330
14D
100
AcDbXrecord
280
     1
102
RTVSPropertyOp0
 70
     1
102
RTVSPropertyOp1
 70
     1
102
RTVSPropertyOp2
 70
     1
102
RTVSPropertyOp3
 70
     1
102
RTVSPropertyOp4
 70
     1
102
RTVSPropertyOp5
 70
     1
102
RTVSPropertyOp6
 70
     1
102
RTVSPropertyOp7
 70
     1
102
RTVSPropertyOp8
 70
     1
102
RTVSPropertyOp9
 70
     1
102
RTVSPropertyOp10
 70
     1
102
RTVSPropertyOp11
 70
     1
102
RTVSPropertyOp12
 70
     1
102
RTVSPropertyOp13
 70
     1
102
RTVSPropertyOp14
 70
     1
102
RTVSPropertyOp15
 70
     1
102
RTVSPropertyOp16
 70
     1
102
RTVSPropertyOp17
 70
     1
102
RTVSPropertyOp18
 70
     1
102
RTVSPropertyOp19
 70
     1
102
RTVSPropertyOp20
 70
     1
102
RTVSPropertyOp21
 70
     1
102
RTVSPropertyOp22
 70
     1
102
RTVSPropertyOp23
 70
     1
102
RTVSPropertyOp24
 70
     1
102
RTVSPropertyOp25
 70
     1
102
RTVSPropertyOp26
 70
     1
102
RTVSPropertyOp27
 70
     1
102
RTVSPropertyOp28
 70
     1
102
RTVSPropertyOp29
 70
     1
102
RTVSPropertyOp30
 70
     1
102
RTVSPropertyOp31
 70
     1
102
RTVSPropertyOp32
 70
     1
  0
XRECORD
  5
156
102
{ACAD_REACTORS
330
155
102
}
330
155
100
AcDbXrecord
280
     1
102
RTVSPropertyOp0
 70
     1
102
RTVSPropertyOp1
 70
     1
102
RTVSPropertyOp2
 70
     1
102
RTVSPropertyOp3
 70
     1
102
RTVSPropertyOp4
 70
     1
102
RTVSPropertyOp5
 70
     1
102
RTVSPropertyOp6
 70
     1
102
RTVSPropertyOp7
 70
     1
102
RTVSPropertyOp8
 70
     1
102
RTVSPropertyOp9
 70
     1
102
RTVSPropertyOp10
 70
     1
102
RTVSPropertyOp11
 70
     1
102
RTVSPropertyOp12
 70
     1
102
RTVSPropertyOp13
 70
     1
102
RTVSPropertyOp14
 70
     1
102
RTVSPropertyOp15
 70
     1
102
RTVSPropertyOp16
 70
     1
102
RTVSPropertyOp17
 70
     1
102
RTVSPropertyOp18
 70
     1
102
RTVSPropertyOp19
 70
     1
102
RTVSPropertyOp20
 70
     1
102
RTVSPropertyOp21
 70
     1
102
RTVSPropertyOp22
 70
     1
102
RTVSPropertyOp23
 70
     1
102
RTVSPropertyOp24
 70
     1
102
RTVSPropertyOp25
 70
     1
102
RTVSPropertyOp26
 70
     1
102
RTVSPropertyOp27
 70
     1
102
RTVSPropertyOp28
 70
     1
102
RTVSPropertyOp29
 70
     1
102
RTVSPropertyOp30
 70
     1
102
RTVSPropertyOp31
 70
     1
102
RTVSPropertyOp32
 70
     1
  0
ENDSEC
  0
EOF
