  0
SECTION
  2
HEADER
  9
$ACADVER
  1
AC1021
  9
$ACADMAINTVER
 70
    25
  9
$DWGCODEPAGE
  3
UNDEFINED
  9
$INSBASE
 10
0.0
 20
0.0
 30
0.0
  9
$EXTMIN
 10
1.000000000000000E+20
 20
1.000000000000000E+20
 30
1.000000000000000E+20
  9
$EXTMAX
 10
-1.000000000000000E+20
 20
-1.000000000000000E+20
 30
-1.000000000000000E+20
  9
$LIMMIN
 10
0.0
 20
0.0
  9
$LIMMAX
 10
12.0
 20
9.0
  9
$ORTHOMODE
 70
     0
  9
$REGENMODE
 70
     1
  9
$FILLMODE
 70
     1
  9
$QTEXTMODE
 70
     0
  9
$MIRRTEXT
 70
     1
  9
$LTSCALE
 40
1.0
  9
$ATTMODE
 70
     1
  9
$TEXTSIZE
 40
0.2
  9
$TRACEWID
 40
0.05
  9
$TEXTSTYLE
  7
Standard
  9
$CLAYER
  8
0
  9
$CELTYPE
  6
ByLayer
  9
$CECOLOR
 62
   256
  9
$CELTSCALE
 40
1.0
  9
$DISPSILH
 70
     0
  9
$DIMSCALE
 40
1.0
  9
$DIMASZ
 40
0.18
  9
$DIMEXO
 40
0.0625
  9
$DIMDLI
 40
0.38
  9
$DIMRND
 40
0.0
  9
$DIMDLE
 40
0.0
  9
$DIMEXE
 40
0.18
  9
$DIMTP
 40
0.0
  9
$DIMTM
 40
0.0
  9
$DIMTXT
 40
0.18
  9
$DIMCEN
 40
0.09
  9
$DIMTSZ
 40
0.0
  9
$DIMTOL
 70
     0
  9
$DIMLIM
 70
     0
  9
$DIMTIH
 70
     1
  9
$DIMTOH
 70
     1
  9
$DIMSE1
 70
     0
  9
$DIMSE2
 70
     0
  9
$DIMTAD
 70
     0
  9
$DIMZIN
 70
     0
  9
$DIMBLK
  1

  9
$DIMASO
 70
     1
  9
$DIMSHO
 70
     1
  9
$DIMPOST
  1

  9
$DIMAPOST
  1

  9
$DIMALT
 70
     0
  9
$DIMALTD
 70
     2
  9
$DIMALTF
 40
25.4
  9
$DIMLFAC
 40
1.0
  9
$DIMTOFL
 70
     0
  9
$DIMTVP
 40
0.0
  9
$DIMTIX
 70
     0
  9
$DIMSOXD
 70
     0
  9
$DIMSAH
 70
     0
  9
$DIMBLK1
  1

  9
$DIMBLK2
  1

  9
$DIMSTYLE
  2
Standard
  9
$DIMCLRD
 70
     0
  9
$DIMCLRE
 70
     0
  9
$DIMCLRT
 70
     0
  9
$DIMTFAC
 40
1.0
  9
$DIMGAP
 40
0.09
  9
$DIMJUST
 70
     0
  9
$DIMSD1
 70
     0
  9
$DIMSD2
 70
     0
  9
$DIMTOLJ
 70
     1
  9
$DIMTZIN
 70
     0
  9
$DIMALTZ
 70
     0
  9
$DIMALTTZ
 70
     0
  9
$DIMUPT
 70
     0
  9
$DIMDEC
 70
     4
  9
$DIMTDEC
 70
     4
  9
$DIMALTU
 70
     2
  9
$DIMALTTD
 70
     2
  9
$DIMTXSTY
  7
Standard
  9
$DIMAUNIT
 70
     0
  9
$DIMADEC
 70
     0
  9
$DIMALTRND
 40
0.0
  9
$DIMAZIN
 70
     0
  9
$DIMDSEP
 70
    46
  9
$DIMATFIT
 70
     3
  9
$DIMFRAC
 70
     0
  9
$DIMLDRBLK
  1

  9
$DIMLUNIT
 70
     2
  9
$DIMLWD
 70
    -2
  9
$DIMLWE
 70
    -2
  9
$DIMTMOVE
 70
     0
  9
$DIMFXL
 40
1.0
  9
$DIMFXLON
 70
     0
  9
$DIMJOGANG
 40
0.7853981633974483
  9
$DIMTFILL
 70
     0
  9
$DIMTFILLCLR
 70
     0
  9
$DIMARCSYM
 70
     0
  9
$DIMLTYPE
  6

  9
$DIMLTEX1
  6

  9
$DIMLTEX2
  6

  9
$LUNITS
 70
     2
  9
$LUPREC
 70
     4
  9
$SKETCHINC
 40
0.1
  9
$FILLETRAD
 40
0.5
  9
$AUNITS
 70
     0
  9
$AUPREC
 70
     0
  9
$MENU
  1
.
  9
$ELEVATION
 40
0.0
  9
$PELEVATION
 40
0.0
  9
$THICKNESS
 40
0.0
  9
$LIMCHECK
 70
     0
  9
$CHAMFERA
 40
0.5
  9
$CHAMFERB
 40
0.5
  9
$CHAMFERC
 40
1.0
  9
$CHAMFERD
 40
0.0
  9
$SKPOLY
 70
     0
  9
$TDCREATE
 40
2459380.412835637
  9
$TDUCREATE
 40
2459380.371168981
  9
$TDUPDATE
 40
2459380.412835637
  9
$TDUUPDATE
 40
2459380.371168981
  9
$TDINDWG
 40
0.0000000116
  9
$TDUSRTIMER
 40
0.0000000116
  9
$USRTIMER
 70
     1
  9
$ANGBASE
 50
0.0
  9
$ANGDIR
 70
     0
  9
$PDMODE
 70
     0
  9
$PDSIZE
 40
0.0
  9
$PLINEWID
 40
0.0
  9
$SPLFRAME
 70
     0
  9
$SPLINETYPE
 70
     6
  9
$SPLINESEGS
 70
     8
  9
$HANDSEED
  5
274
  9
$SURFTAB1
 70
     6
  9
$SURFTAB2
 70
     6
  9
$SURFTYPE
 70
     6
  9
$SURFU
 70
     6
  9
$SURFV
 70
     6
  9
$UCSBASE
  2

  9
$UCSNAME
  2

  9
$UCSORG
 10
0.0
 20
0.0
 30
0.0
  9
$UCSXDIR
 10
1.0
 20
0.0
 30
0.0
  9
$UCSYDIR
 10
0.0
 20
1.0
 30
0.0
  9
$UCSORTHOREF
  2

  9
$UCSORTHOVIEW
 70
     0
  9
$UCSORGTOP
 10
0.0
 20
0.0
 30
0.0
  9
$UCSORGBOTTOM
 10
0.0
 20
0.0
 30
0.0
  9
$UCSORGLEFT
 10
0.0
 20
0.0
 30
0.0
  9
$UCSORGRIGHT
 10
0.0
 20
0.0
 30
0.0
  9
$UCSORGFRONT
 10
0.0
 20
0.0
 30
0.0
  9
$UCSORGBACK
 10
0.0
 20
0.0
 30
0.0
  9
$PUCSBASE
  2

  9
$PUCSNAME
  2

  9
$PUCSORG
 10
0.0
 20
0.0
 30
0.0
  9
$PUCSXDIR
 10
1.0
 20
0.0
 30
0.0
  9
$PUCSYDIR
 10
0.0
 20
1.0
 30
0.0
  9
$PUCSORTHOREF
  2

  9
$PUCSORTHOVIEW
 70
     0
  9
$PUCSORGTOP
 10
0.0
 20
0.0
 30
0.0
  9
$PUCSORGBOTTOM
 10
0.0
 20
0.0
 30
0.0
  9
$PUCSORGLEFT
 10
0.0
 20
0.0
 30
0.0
  9
$PUCSORGRIGHT
 10
0.0
 20
0.0
 30
0.0
  9
$PUCSORGFRONT
 10
0.0
 20
0.0
 30
0.0
  9
$PUCSORGBACK
 10
0.0
 20
0.0
 30
0.0
  9
$USERI1
 70
     0
  9
$USERI2
 70
     0
  9
$USERI3
 70
     0
  9
$USERI4
 70
     0
  9
$USERI5
 70
     0
  9
$USERR1
 40
0.0
  9
$USERR2
 40
0.0
  9
$USERR3
 40
0.0
  9
$USERR4
 40
0.0
  9
$USERR5
 40
0.0
  9
$WORLDVIEW
 70
     1
  9
$SHADEDGE
 70
     3
  9
$SHADEDIF
 70
    70
  9
$TILEMODE
 70
     1
  9
$MAXACTVP
 70
    64
  9
$PINSBASE
 10
0.0
 20
0.0
 30
0.0
  9
$PLIMCHECK
 70
     0
  9
$PEXTMIN
 10
1.000000000000000E+20
 20
1.000000000000000E+20
 30
1.000000000000000E+20
  9
$PEXTMAX
 10
-1.000000000000000E+20
 20
-1.000000000000000E+20
 30
-1.000000000000000E+20
  9
$PLIMMIN
 10
0.0
 20
0.0
  9
$PLIMMAX
 10
12.0
 20
9.0
  9
$UNITMODE
 70
     0
  9
$VISRETAIN
 70
     1
  9
$PLINEGEN
 70
     0
  9
$PSLTSCALE
 70
     1
  9
$TREEDEPTH
 70
  3020
  9
$CMLSTYLE
  2
Standard
  9
$CMLJUST
 70
     0
  9
$CMLSCALE
 40
1.0
  9
$PROXYGRAPHICS
 70
     1
  9
$MEASUREMENT
 70
     0
  9
$CELWEIGHT
370
    -1
  9
$ENDCAPS
280
     0
  9
$JOINSTYLE
280
     0
  9
$LWDISPLAY
290
     1
  9
$INSUNITS
 70
     1
  9
$HYPERLINKBASE
  1

  9
$STYLESHEET
  1

  9
$XEDIT
290
     1
  9
$CEPSNTYPE
380
     0
  9
$PSTYLEMODE
290
     1
  9
$FINGERPRINTGUID
  2
{4A72ACF9-1767-37EE-E903-77FEBC7FC05E}
  9
$VERSIONGUID
  2
{FAEB1C32-E019-11D5-929B-00C0DF256EC4}
  9
$EXTNAMES
290
     1
  9
$PSVPSCALE
 40
0.0
  9
$OLESTARTUP
290
     0
  9
$SORTENTS
280
   127
  9
$INDEXCTL
280
     0
  9
$HIDETEXT
280
     1
  9
$XCLIPFRAME
290
     0
  9
$HALOGAP
280
     0
  9
$OBSCOLOR
 70
   257
  9
$OBSLTYPE
280
     0
  9
$INTERSECTIONDISPLAY
280
     0
  9
$INTERSECTIONCOLOR
 70
   257
  9
$DIMASSOC
280
     2
  9
$PROJECTNAME
  1

  9
$CAMERADISPLAY
290
     0
  9
$LENSLENGTH
 40
50.0
  9
$CAMERAHEIGHT
 40
0.0
  9
$STEPSPERSEC
 40
2.0
  9
$STEPSIZE
 40
6.0
  9
$3DDWFPREC
 40
2.0
  9
$PSOLWIDTH
 40
0.25
  9
$PSOLHEIGHT
 40
4.0
  9
$LOFTANG1
 40
1.570796326794897
  9
$LOFTANG2
 40
1.570796326794897
  9
$LOFTMAG1
 40
0.0
  9
$LOFTMAG2
 40
0.0
  9
$LOFTPARAM
 70
     7
  9
$LOFTNORMALS
280
     1
  9
$LATITUDE
 40
37.795
  9
$LONGITUDE
 40
-122.394
  9
$NORTHDIRECTION
 40
0.0
  9
$TIMEZONE
 70
 -8000
  9
$LIGHTGLYPHDISPLAY
280
     1
  9
$TILEMODELIGHTSYNCH
280
     1
  9
$CMATERIAL
347
3C
  9
$SOLIDHIST
280
     1
  9
$SHOWHIST
280
     1
  9
$DWFFRAME
280
     2
  9
$DGNFRAME
280
     2
  9
$REALWORLDSCALE
290
     1
  9
$INTERFERECOLOR
 62
   256
  9
$CSHADOW
280
     0
  9
$SHADOWPLANELOCATION
 40
0.0
  0
ENDSEC
  0
SECTION
  2
CLASSES
  0
CLASS
  1
ACDBDICTIONARYWDFLT
  2
AcDbDictionaryWithDefault
  3
ObjectDBX Classes
 90
        0
 91
        4
280
     0
281
     0
  0
CLASS
  1
VISUALSTYLE
  2
AcDbVisualStyle
  3
ObjectDBX Classes
 90
     4095
 91
        4
280
     0
281
     0
  0
CLASS
  1
MATERIAL
  2
AcDbMaterial
  3
ObjectDBX Classes
 90
     1153
 91
        4
280
     0
281
     0
  0
CLASS
  1
SUN
  2
AcDbSun
  3
SCENEOE
 90
     1024
 91
        4
280
     0
281
     0
  0
ENDSEC
  0
SECTION
  2
TABLES
  0
TABLE
  2
VPORT
  5
8
330
0
100
AcDbSymbolTable
 70
     1
  0
VPORT
  5
29
330
8
100
AcDbSymbolTableRecord
100
AcDbViewportTableRecord
  2
*Active
 70
     0
 10
0.0
 20
0.0
 11
1.0
 21
1.0
 12
0.0
 22
0.0
 13
0.0
 23
0.0
 14
0.5
 24
0.5
 15
0.5
 25
0.5
 16
0.0
 26
0.0
 36
1.0
 17
105.0007777515277
 27
148.5000416295417
 37
0.0
 40
297.0000832590835
 41
0.7070757462376325
 42
50.0
 43
0.0
 44
0.0
 50
0.0
 51
0.0
 71
     0
 72
   100
 73
     1
 74
     3
 75
     0
 76
     0
 77
     0
 78
     0
281
     0
 65
     1
110
0.0
120
0.0
130
0.0
111
1.0
121
0.0
131
0.0
112
0.0
122
1.0
132
0.0
 79
     0
146
0.0
 60
     3
 61
     5
292
     1
282
     1
141
0.0
142
0.0
 63
   250
361
3F
  0
ENDTAB
  0
TABLE
  2
LTYPE
  5
5
330
0
100
AcDbSymbolTable
 70
    43
  0
LTYPE
  5
14
330
5
100
AcDbSymbolTableRecord
100
AcDbLinetypeTableRecord
  2
ByBlock
 70
     0
  3

 72
    65
 73
     0
 40
0.0
  0
LTYPE
  5
15
330
5
100
AcDbSymbolTableRecord
100
AcDbLinetypeTableRecord
  2
ByLayer
 70
     0
  3

 72
    65
 73
     0
 40
0.0
  0
LTYPE
  5
16
330
5
100
AcDbSymbolTableRecord
100
AcDbLinetypeTableRecord
  2
Continuous
 70
     0
  3
Solid line
 72
    65
 73
     0
 40
0.0
  0
LTYPE
  5
4A
330
5
100
AcDbSymbolTableRecord
100
AcDbLinetypeTableRecord
  2
AI-Linetype-1
 70
     0
  3
Adobe Illustrator Linetype No. 1
 72
    65
 73
     2
 40
7.270862246391072
 49
3.635375106750391
 74
     0
 49
-3.635487139640682
 74
     0
  0
LTYPE
  5
55
330
5
100
AcDbSymbolTableRecord
100
AcDbLinetypeTableRecord
  2
AI-Linetype-2
 70
     0
  3
Adobe Illustrator Linetype No. 2
 72
    65
 73
     2
 40
7.270862246391072
 49
3.635375106750391
 74
     0
 49
-3.635487139640682
 74
     0
  0
LTYPE
  5
5B
330
5
100
AcDbSymbolTableRecord
100
AcDbLinetypeTableRecord
  2
AI-Linetype-3
 70
     0
  3
Adobe Illustrator Linetype No. 3
 72
    65
 73
     2
 40
7.270862246391072
 49
3.635375106750391
 74
     0
 49
-3.635487139640682
 74
     0
  0
LTYPE
  5
66
330
5
100
AcDbSymbolTableRecord
100
AcDbLinetypeTableRecord
  2
AI-Linetype-4
 70
     0
  3
Adobe Illustrator Linetype No. 4
 72
    65
 73
     2
 40
7.270862246391072
 49
3.635375106750391
 74
     0
 49
-3.635487139640682
 74
     0
  0
LTYPE
  5
75
330
5
100
AcDbSymbolTableRecord
100
AcDbLinetypeTableRecord
  2
AI-Linetype-5
 70
     0
  3
Adobe Illustrator Linetype No. 5
 72
    65
 73
     2
 40
7.177318483783572
 49
3.588603898316852
 74
     0
 49
-3.58871458546672
 74
     0
  0
LTYPE
  5
85
330
5
100
AcDbSymbolTableRecord
100
AcDbLinetypeTableRecord
  2
AI-Linetype-6
 70
     0
  3
Adobe Illustrator Linetype No. 6
 72
    65
 73
     2
 40
7.177272728609158
 49
3.588581020729645
 74
     0
 49
-3.588691707879513
 74
     0
  0
LTYPE
  5
8C
330
5
100
AcDbSymbolTableRecord
100
AcDbLinetypeTableRecord
  2
AI-Linetype-7
 70
     0
  3
Adobe Illustrator Linetype No. 7
 72
    65
 73
     2
 40
7.270862246391072
 49
3.635375106750391
 74
     0
 49
-3.635487139640682
 74
     0
  0
LTYPE
  5
92
330
5
100
AcDbSymbolTableRecord
100
AcDbLinetypeTableRecord
  2
AI-Linetype-8
 70
     0
  3
Adobe Illustrator Linetype No. 8
 72
    65
 73
     2
 40
7.270862246391072
 49
3.635375106750391
 74
     0
 49
-3.635487139640682
 74
     0
  0
LTYPE
  5
98
330
5
100
AcDbSymbolTableRecord
100
AcDbLinetypeTableRecord
  2
AI-Linetype-9
 70
     0
  3
Adobe Illustrator Linetype No. 9
 72
    65
 73
     2
 40
7.270862246391072
 49
3.635375106750391
 74
     0
 49
-3.635487139640682
 74
     0
  0
LTYPE
  5
A8
330
5
100
AcDbSymbolTableRecord
100
AcDbLinetypeTableRecord
  2
AI-Linetype-10
 70
     0
  3
Adobe Illustrator Linetype No. 10
 72
    65
 73
     2
 40
7.270862246391072
 49
3.635375106750391
 74
     0
 49
-3.635487139640682
 74
     0
  0
LTYPE
  5
AE
330
5
100
AcDbSymbolTableRecord
100
AcDbLinetypeTableRecord
  2
AI-Linetype-11
 70
     0
  3
Adobe Illustrator Linetype No. 11
 72
    65
 73
     2
 40
7.270862246391072
 49
3.635375106750391
 74
     0
 49
-3.635487139640682
 74
     0
  0
LTYPE
  5
B4
330
5
100
AcDbSymbolTableRecord
100
AcDbLinetypeTableRecord
  2
AI-Linetype-12
 70
     0
  3
Adobe Illustrator Linetype No. 12
 72
    65
 73
     2
 40
7.270862246391072
 49
3.635375106750391
 74
     0
 49
-3.635487139640682
 74
     0
  0
LTYPE
  5
BA
330
5
100
AcDbSymbolTableRecord
100
AcDbLinetypeTableRecord
  2
AI-Linetype-13
 70
     0
  3
Adobe Illustrator Linetype No. 13
 72
    65
 73
     2
 40
7.270862246391072
 49
3.635375106750391
 74
     0
 49
-3.635487139640682
 74
     0
  0
LTYPE
  5
CA
330
5
100
AcDbSymbolTableRecord
100
AcDbLinetypeTableRecord
  2
AI-Linetype-14
 70
     0
  3
Adobe Illustrator Linetype No. 14
 72
    65
 73
     2
 40
7.270862246391072
 49
3.635375106750391
 74
     0
 49
-3.635487139640682
 74
     0
  0
LTYPE
  5
D0
330
5
100
AcDbSymbolTableRecord
100
AcDbLinetypeTableRecord
  2
AI-Linetype-15
 70
     0
  3
Adobe Illustrator Linetype No. 15
 72
    65
 73
     2
 40
7.270862246391072
 49
3.635375106750391
 74
     0
 49
-3.635487139640682
 74
     0
  0
LTYPE
  5
EF
330
5
100
AcDbSymbolTableRecord
100
AcDbLinetypeTableRecord
  2
AI-Linetype-16
 70
     0
  3
Adobe Illustrator Linetype No. 16
 72
    65
 73
     2
 40
7.270862246391072
 49
3.635375106750391
 74
     0
 49
-3.635487139640682
 74
     0
  0
LTYPE
  5
F5
330
5
100
AcDbSymbolTableRecord
100
AcDbLinetypeTableRecord
  2
AI-Linetype-17
 70
     0
  3
Adobe Illustrator Linetype No. 17
 72
    65
 73
     2
 40
7.270862246391072
 49
3.635375106750391
 74
     0
 49
-3.635487139640682
 74
     0
  0
LTYPE
  5
108
330
5
100
AcDbSymbolTableRecord
100
AcDbLinetypeTableRecord
  2
AI-Linetype-18
 70
     0
  3
Adobe Illustrator Linetype No. 18
 72
    65
 73
     2
 40
7.270862246391072
 49
3.635375106750391
 74
     0
 49
-3.635487139640682
 74
     0
  0
LTYPE
  5
113
330
5
100
AcDbSymbolTableRecord
100
AcDbLinetypeTableRecord
  2
AI-Linetype-19
 70
     0
  3
Adobe Illustrator Linetype No. 19
 72
    65
 73
     2
 40
7.270862246391072
 49
3.635375106750391
 74
     0
 49
-3.635487139640682
 74
     0
  0
LTYPE
  5
11E
330
5
100
AcDbSymbolTableRecord
100
AcDbLinetypeTableRecord
  2
AI-Linetype-20
 70
     0
  3
Adobe Illustrator Linetype No. 20
 72
    65
 73
     2
 40
7.270862246391072
 49
3.635375106750391
 74
     0
 49
-3.635487139640682
 74
     0
  0
LTYPE
  5
12E
330
5
100
AcDbSymbolTableRecord
100
AcDbLinetypeTableRecord
  2
AI-Linetype-21
 70
     0
  3
Adobe Illustrator Linetype No. 21
 72
    65
 73
     2
 40
7.270862246391072
 49
3.635375106750391
 74
     0
 49
-3.635487139640682
 74
     0
  0
LTYPE
  5
139
330
5
100
AcDbSymbolTableRecord
100
AcDbLinetypeTableRecord
  2
AI-Linetype-22
 70
     0
  3
Adobe Illustrator Linetype No. 22
 72
    65
 73
     2
 40
7.270862246391072
 49
3.635375106750391
 74
     0
 49
-3.635487139640682
 74
     0
  0
LTYPE
  5
158
330
5
100
AcDbSymbolTableRecord
100
AcDbLinetypeTableRecord
  2
AI-Linetype-23
 70
     0
  3
Adobe Illustrator Linetype No. 23
 72
    65
 73
     2
 40
7.270862246391072
 49
3.635375106750391
 74
     0
 49
-3.635487139640682
 74
     0
  0
LTYPE
  5
16D
330
5
100
AcDbSymbolTableRecord
100
AcDbLinetypeTableRecord
  2
AI-Linetype-24
 70
     0
  3
Adobe Illustrator Linetype No. 24
 72
    65
 73
     2
 40
7.270862246391072
 49
3.635375106750391
 74
     0
 49
-3.635487139640682
 74
     0
  0
LTYPE
  5
17D
330
5
100
AcDbSymbolTableRecord
100
AcDbLinetypeTableRecord
  2
AI-Linetype-25
 70
     0
  3
Adobe Illustrator Linetype No. 25
 72
    65
 73
     2
 40
7.270862246391072
 49
3.635375106750391
 74
     0
 49
-3.635487139640682
 74
     0
  0
LTYPE
  5
183
330
5
100
AcDbSymbolTableRecord
100
AcDbLinetypeTableRecord
  2
AI-Linetype-26
 70
     0
  3
Adobe Illustrator Linetype No. 26
 72
    65
 73
     2
 40
7.270862246391072
 49
3.635375106750391
 74
     0
 49
-3.635487139640682
 74
     0
  0
LTYPE
  5
189
330
5
100
AcDbSymbolTableRecord
100
AcDbLinetypeTableRecord
  2
AI-Linetype-27
 70
     0
  3
Adobe Illustrator Linetype No. 27
 72
    65
 73
     2
 40
7.270862246391072
 49
3.635375106750391
 74
     0
 49
-3.635487139640682
 74
     0
  0
LTYPE
  5
18F
330
5
100
AcDbSymbolTableRecord
100
AcDbLinetypeTableRecord
  2
AI-Linetype-28
 70
     0
  3
Adobe Illustrator Linetype No. 28
 72
    65
 73
     2
 40
7.270862246391072
 49
3.635375106750391
 74
     0
 49
-3.635487139640682
 74
     0
  0
LTYPE
  5
1AD
330
5
100
AcDbSymbolTableRecord
100
AcDbLinetypeTableRecord
  2
AI-Linetype-29
 70
     0
  3
Adobe Illustrator Linetype No. 29
 72
    65
 73
     2
 40
6.249974477053161
 49
3.124987238526581
 74
     0
 49
-3.124987238526581
 74
     0
  0
LTYPE
  5
1B2
330
5
100
AcDbSymbolTableRecord
100
AcDbLinetypeTableRecord
  2
AI-Linetype-30
 70
     0
  3
Adobe Illustrator Linetype No. 30
 72
    65
 73
     4
 40
28.1250244308731
 49
18.75006271529336
 74
     0
 49
-3.124987238526581
 74
     0
 49
3.124987238526581
 74
     0
 49
-3.124987238526581
 74
     0
  0
LTYPE
  5
1CB
330
5
100
AcDbSymbolTableRecord
100
AcDbLinetypeTableRecord
  2
AI-Linetype-31
 70
     0
  3
Adobe Illustrator Linetype No. 31
 72
    65
 73
     2
 40
6.249903152810694
 49
3.124951576405347
 74
     0
 49
-3.124951576405347
 74
     0
  0
LTYPE
  5
1D0
330
5
100
AcDbSymbolTableRecord
100
AcDbLinetypeTableRecord
  2
AI-Linetype-32
 70
     0
  3
Adobe Illustrator Linetype No. 32
 72
    65
 73
     4
 40
28.12470212604158
 49
18.74984739682553
 74
     0
 49
-3.124951576405347
 74
     0
 49
3.124951576405347
 74
     0
 49
-3.124951576405347
 74
     0
  0
LTYPE
  5
1E9
330
5
100
AcDbSymbolTableRecord
100
AcDbLinetypeTableRecord
  2
AI-Linetype-33
 70
     0
  3
Adobe Illustrator Linetype No. 33
 72
    65
 73
     2
 40
7.272621465560249
 49
3.636310732780125
 74
     0
 49
-3.636310732780125
 74
     0
  0
LTYPE
  5
1EE
330
5
100
AcDbSymbolTableRecord
100
AcDbLinetypeTableRecord
  2
AI-Linetype-34
 70
     0
  3
Adobe Illustrator Linetype No. 34
 72
    65
 73
     4
 40
32.72695875674221
 49
21.81802655840183
 74
     0
 49
-3.636310732780125
 74
     0
 49
3.636310732780125
 74
     0
 49
-3.636310732780125
 74
     0
  0
LTYPE
  5
1F9
330
5
100
AcDbSymbolTableRecord
100
AcDbLinetypeTableRecord
  2
AI-Linetype-35
 70
     0
  3
Adobe Illustrator Linetype No. 35
 72
    65
 73
     2
 40
7.270862246391072
 49
3.635375106750391
 74
     0
 49
-3.635487139640682
 74
     0
  0
LTYPE
  5
20D
330
5
100
AcDbSymbolTableRecord
100
AcDbLinetypeTableRecord
  2
AI-Linetype-36
 70
     0
  3
Adobe Illustrator Linetype No. 36
 72
    65
 73
     2
 40
6.249831155698013
 49
3.124915577849007
 74
     0
 49
-3.124915577849007
 74
     0
  0
LTYPE
  5
212
330
5
100
AcDbSymbolTableRecord
100
AcDbLinetypeTableRecord
  2
AI-Linetype-37
 70
     0
  3
Adobe Illustrator Linetype No. 37
 72
    65
 73
     4
 40
28.12437881190472
 49
18.74963207835771
 74
     0
 49
-3.124915577849007
 74
     0
 49
3.124915577849007
 74
     0
 49
-3.124915577849007
 74
     0
  0
LTYPE
  5
22B
330
5
100
AcDbSymbolTableRecord
100
AcDbLinetypeTableRecord
  2
AI-Linetype-38
 70
     0
  3
Adobe Illustrator Linetype No. 38
 72
    65
 73
     2
 40
6.249903152810694
 49
3.124951576405347
 74
     0
 49
-3.124951576405347
 74
     0
  0
LTYPE
  5
230
330
5
100
AcDbSymbolTableRecord
100
AcDbLinetypeTableRecord
  2
AI-Linetype-39
 70
     0
  3
Adobe Illustrator Linetype No. 39
 72
    65
 73
     4
 40
28.12470212604158
 49
18.74984739682553
 74
     0
 49
-3.124951576405347
 74
     0
 49
3.124951576405347
 74
     0
 49
-3.124951576405347
 74
     0
  0
LTYPE
  5
23B
330
5
100
AcDbSymbolTableRecord
100
AcDbLinetypeTableRecord
  2
AI-Linetype-40
 70
     0
  3
Adobe Illustrator Linetype No. 40
 72
    65
 73
     2
 40
7.270862246391072
 49
3.635375106750391
 74
     0
 49
-3.635487139640682
 74
     0
  0
LTYPE
  5
246
330
5
100
AcDbSymbolTableRecord
100
AcDbLinetypeTableRecord
  2
AI-Linetype-41
 70
     0
  3
Adobe Illustrator Linetype No. 41
 72
    65
 73
     2
 40
7.270862246391072
 49
3.635375106750391
 74
     0
 49
-3.635487139640682
 74
     0
  0
LTYPE
  5
251
330
5
100
AcDbSymbolTableRecord
100
AcDbLinetypeTableRecord
  2
AI-Linetype-42
 70
     0
  3
Adobe Illustrator Linetype No. 42
 72
    65
 73
     2
 40
7.270862246391072
 49
3.635375106750391
 74
     0
 49
-3.635487139640682
 74
     0
  0
ENDTAB
  0
TABLE
  2
LAYER
  5
2
330
0
100
AcDbSymbolTable
 70
     1
  0
LAYER
  5
10
330
2
100
AcDbSymbolTableRecord
100
AcDbLayerTableRecord
  2
0
 70
     0
 62
     7
  6
Continuous
370
    -3
390
F
347
3E
  0
ENDTAB
  0
TABLE
  2
STYLE
  5
3
330
0
100
AcDbSymbolTable
 70
     1
  0
STYLE
  5
11
330
3
100
AcDbSymbolTableRecord
100
AcDbTextStyleTableRecord
  2
Standard
 70
     0
 40
0.0
 41
1.0
 50
0.0
 71
     0
 42
0.2
  3
txt
  4

  0
ENDTAB
  0
TABLE
  2
VIEW
  5
6
330
0
100
AcDbSymbolTable
 70
     0
  0
ENDTAB
  0
TABLE
  2
UCS
  5
7
330
0
100
AcDbSymbolTable
 70
     0
  0
ENDTAB
  0
TABLE
  2
APPID
  5
9
330
0
100
AcDbSymbolTable
 70
     1
  0
APPID
  5
12
330
9
100
AcDbSymbolTableRecord
100
AcDbRegAppTableRecord
  2
ACAD
 70
     0
  0
ENDTAB
  0
TABLE
  2
DIMSTYLE
  5
A
330
0
100
AcDbSymbolTable
 70
     1
100
AcDbDimStyleTable
  0
DIMSTYLE
105
27
330
A
100
AcDbSymbolTableRecord
100
AcDbDimStyleTableRecord
  2
Standard
 70
     0
178
     0
340
11
  0
ENDTAB
  0
TABLE
  2
BLOCK_RECORD
  5
1
330
0
100
AcDbSymbolTable
 70
    85
  0
BLOCK_RECORD
  5
1F
330
1
100
AcDbSymbolTableRecord
100
AcDbBlockTableRecord
  2
*Model_Space
340
22
 70
     0
280
     1
281
     0
  0
BLOCK_RECORD
  5
1B
330
1
100
AcDbSymbolTableRecord
100
AcDbBlockTableRecord
  2
*Paper_Space
340
1E
 70
     0
280
     1
281
     0
  0
BLOCK_RECORD
  5
23
330
1
100
AcDbSymbolTableRecord
100
AcDbBlockTableRecord
  2
*Paper_Space0
340
26
 70
     0
280
     1
281
     0
  0
BLOCK_RECORD
  5
40
330
1
100
AcDbSymbolTableRecord
100
AcDbBlockTableRecord
  2
block 2
340
0
102
{BLKREFS
331
41
102
}
 70
     0
280
     1
281
     0
  0
BLOCK_RECORD
  5
45
330
1
100
AcDbSymbolTableRecord
100
AcDbBlockTableRecord
  2
block 3
340
0
102
{BLKREFS
331
46
102
}
 70
     0
280
     1
281
     0
  0
BLOCK_RECORD
  5
4B
330
1
100
AcDbSymbolTableRecord
100
AcDbBlockTableRecord
  2
block 4
340
0
102
{BLKREFS
331
4C
102
}
 70
     0
280
     1
281
     0
  0
BLOCK_RECORD
  5
50
330
1
100
AcDbSymbolTableRecord
100
AcDbBlockTableRecord
  2
block 5
340
0
102
{BLKREFS
331
51
102
}
 70
     0
280
     1
281
     0
  0
BLOCK_RECORD
  5
56
330
1
100
AcDbSymbolTableRecord
100
AcDbBlockTableRecord
  2
block 6
340
0
102
{BLKREFS
331
57
102
}
 70
     0
280
     1
281
     0
  0
BLOCK_RECORD
  5
5C
330
1
100
AcDbSymbolTableRecord
100
AcDbBlockTableRecord
  2
block 7
340
0
102
{BLKREFS
331
5D
102
}
 70
     0
280
     1
281
     0
  0
BLOCK_RECORD
  5
61
330
1
100
AcDbSymbolTableRecord
100
AcDbBlockTableRecord
  2
block 8
340
0
102
{BLKREFS
331
62
102
}
 70
     0
280
     1
281
     0
  0
BLOCK_RECORD
  5
67
330
1
100
AcDbSymbolTableRecord
100
AcDbBlockTableRecord
  2
block 9
340
0
102
{BLKREFS
331
68
102
}
 70
     0
280
     1
281
     0
  0
BLOCK_RECORD
  5
6B
330
1
100
AcDbSymbolTableRecord
100
AcDbBlockTableRecord
  2
block 10
340
0
102
{BLKREFS
331
6C
102
}
 70
     0
280
     1
281
     0
  0
BLOCK_RECORD
  5
6F
330
1
100
AcDbSymbolTableRecord
100
AcDbBlockTableRecord
  2
block 11
340
0
102
{BLKREFS
331
70
102
}
 70
     0
280
     1
281
     0
  0
BLOCK_RECORD
  5
77
330
1
100
AcDbSymbolTableRecord
100
AcDbBlockTableRecord
  2
block 12
340
0
102
{BLKREFS
331
78
102
}
 70
     0
280
     1
281
     0
  0
BLOCK_RECORD
  5
7B
330
1
100
AcDbSymbolTableRecord
100
AcDbBlockTableRecord
  2
block 13
340
0
102
{BLKREFS
331
7C
102
}
 70
     0
280
     1
281
     0
  0
BLOCK_RECORD
  5
7F
330
1
100
AcDbSymbolTableRecord
100
AcDbBlockTableRecord
  2
block 14
340
0
102
{BLKREFS
331
80
102
}
 70
     0
280
     1
281
     0
  0
BLOCK_RECORD
  5
87
330
1
100
AcDbSymbolTableRecord
100
AcDbBlockTableRecord
  2
block 15
340
0
102
{BLKREFS
331
88
102
}
 70
     0
280
     1
281
     0
  0
BLOCK_RECORD
  5
8D
330
1
100
AcDbSymbolTableRecord
100
AcDbBlockTableRecord
  2
block 16
340
0
102
{BLKREFS
331
8E
102
}
 70
     0
280
     1
281
     0
  0
BLOCK_RECORD
  5
93
330
1
100
AcDbSymbolTableRecord
100
AcDbBlockTableRecord
  2
block 17
340
0
102
{BLKREFS
331
94
102
}
 70
     0
280
     1
281
     0
  0
BLOCK_RECORD
  5
99
330
1
100
AcDbSymbolTableRecord
100
AcDbBlockTableRecord
  2
block 18
340
0
102
{BLKREFS
331
9A
102
}
 70
     0
280
     1
281
     0
  0
BLOCK_RECORD
  5
9E
330
1
100
AcDbSymbolTableRecord
100
AcDbBlockTableRecord
  2
block 19
340
0
102
{BLKREFS
331
9F
102
}
 70
     0
280
     1
281
     0
  0
BLOCK_RECORD
  5
A3
330
1
100
AcDbSymbolTableRecord
100
AcDbBlockTableRecord
  2
block 20
340
0
102
{BLKREFS
331
A4
102
}
 70
     0
280
     1
281
     0
  0
BLOCK_RECORD
  5
A9
330
1
100
AcDbSymbolTableRecord
100
AcDbBlockTableRecord
  2
block 21
340
0
102
{BLKREFS
331
AA
102
}
 70
     0
280
     1
281
     0
  0
BLOCK_RECORD
  5
AF
330
1
100
AcDbSymbolTableRecord
100
AcDbBlockTableRecord
  2
block 22
340
0
102
{BLKREFS
331
B0
102
}
 70
     0
280
     1
281
     0
  0
BLOCK_RECORD
  5
B5
330
1
100
AcDbSymbolTableRecord
100
AcDbBlockTableRecord
  2
block 23
340
0
102
{BLKREFS
331
B6
102
}
 70
     0
280
     1
281
     0
  0
BLOCK_RECORD
  5
BB
330
1
100
AcDbSymbolTableRecord
100
AcDbBlockTableRecord
  2
block 24
340
0
102
{BLKREFS
331
BC
102
}
 70
     0
280
     1
281
     0
  0
BLOCK_RECORD
  5
C0
330
1
100
AcDbSymbolTableRecord
100
AcDbBlockTableRecord
  2
block 25
340
0
102
{BLKREFS
331
C1
102
}
 70
     0
280
     1
281
     0
  0
BLOCK_RECORD
  5
C5
330
1
100
AcDbSymbolTableRecord
100
AcDbBlockTableRecord
  2
block 26
340
0
102
{BLKREFS
331
C6
102
}
 70
     0
280
     1
281
     0
  0
BLOCK_RECORD
  5
CB
330
1
100
AcDbSymbolTableRecord
100
AcDbBlockTableRecord
  2
block 27
340
0
102
{BLKREFS
331
CC
102
}
 70
     0
280
     1
281
     0
  0
BLOCK_RECORD
  5
D1
330
1
100
AcDbSymbolTableRecord
100
AcDbBlockTableRecord
  2
block 28
340
0
102
{BLKREFS
331
D2
102
}
 70
     0
280
     1
281
     0
  0
BLOCK_RECORD
  5
D6
330
1
100
AcDbSymbolTableRecord
100
AcDbBlockTableRecord
  2
block 29
340
0
102
{BLKREFS
331
D7
102
}
 70
     0
280
     1
281
     0
  0
BLOCK_RECORD
  5
DB
330
1
100
AcDbSymbolTableRecord
100
AcDbBlockTableRecord
  2
block 30
340
0
102
{BLKREFS
331
DC
102
}
 70
     0
280
     1
281
     0
  0
BLOCK_RECORD
  5
E0
330
1
100
AcDbSymbolTableRecord
100
AcDbBlockTableRecord
  2
block 31
340
0
102
{BLKREFS
331
E1
102
}
 70
     0
280
     1
281
     0
  0
BLOCK_RECORD
  5
E5
330
1
100
AcDbSymbolTableRecord
100
AcDbBlockTableRecord
  2
block 32
340
0
102
{BLKREFS
331
E6
102
}
 70
     0
280
     1
281
     0
  0
BLOCK_RECORD
  5
EA
330
1
100
AcDbSymbolTableRecord
100
AcDbBlockTableRecord
  2
block 33
340
0
102
{BLKREFS
331
EB
102
}
 70
     0
280
     1
281
     0
  0
BLOCK_RECORD
  5
F0
330
1
100
AcDbSymbolTableRecord
100
AcDbBlockTableRecord
  2
block 34
340
0
102
{BLKREFS
331
F1
102
}
 70
     0
280
     1
281
     0
  0
BLOCK_RECORD
  5
F6
330
1
100
AcDbSymbolTableRecord
100
AcDbBlockTableRecord
  2
block 35
340
0
102
{BLKREFS
331
F7
102
}
 70
     0
280
     1
281
     0
  0
BLOCK_RECORD
  5
FB
330
1
100
AcDbSymbolTableRecord
100
AcDbBlockTableRecord
  2
block 36
340
0
102
{BLKREFS
331
FC
102
}
 70
     0
280
     1
281
     0
  0
BLOCK_RECORD
  5
103
330
1
100
AcDbSymbolTableRecord
100
AcDbBlockTableRecord
  2
block 37
340
0
102
{BLKREFS
331
104
102
}
 70
     0
280
     1
281
     0
  0
BLOCK_RECORD
  5
109
330
1
100
AcDbSymbolTableRecord
100
AcDbBlockTableRecord
  2
block 38
340
0
102
{BLKREFS
331
10A
102
}
 70
     0
280
     1
281
     0
  0
BLOCK_RECORD
  5
10E
330
1
100
AcDbSymbolTableRecord
100
AcDbBlockTableRecord
  2
block 39
340
0
102
{BLKREFS
331
10F
102
}
 70
     0
280
     1
281
     0
  0
BLOCK_RECORD
  5
114
330
1
100
AcDbSymbolTableRecord
100
AcDbBlockTableRecord
  2
block 40
340
0
102
{BLKREFS
331
115
102
}
 70
     0
280
     1
281
     0
  0
BLOCK_RECORD
  5
119
330
1
100
AcDbSymbolTableRecord
100
AcDbBlockTableRecord
  2
block 41
340
0
102
{BLKREFS
331
11A
102
}
 70
     0
280
     1
281
     0
  0
BLOCK_RECORD
  5
11F
330
1
100
AcDbSymbolTableRecord
100
AcDbBlockTableRecord
  2
block 42
340
0
102
{BLKREFS
331
120
102
}
 70
     0
280
     1
281
     0
  0
BLOCK_RECORD
  5
124
330
1
100
AcDbSymbolTableRecord
100
AcDbBlockTableRecord
  2
block 43
340
0
102
{BLKREFS
331
125
102
}
 70
     0
280
     1
281
     0
  0
BLOCK_RECORD
  5
129
330
1
100
AcDbSymbolTableRecord
100
AcDbBlockTableRecord
  2
block 44
340
0
102
{BLKREFS
331
12A
102
}
 70
     0
280
     1
281
     0
  0
BLOCK_RECORD
  5
12F
330
1
100
AcDbSymbolTableRecord
100
AcDbBlockTableRecord
  2
block 45
340
0
102
{BLKREFS
331
130
102
}
 70
     0
280
     1
281
     0
  0
BLOCK_RECORD
  5
134
330
1
100
AcDbSymbolTableRecord
100
AcDbBlockTableRecord
  2
block 46
340
0
102
{BLKREFS
331
135
102
}
 70
     0
280
     1
281
     0
  0
BLOCK_RECORD
  5
13A
330
1
100
AcDbSymbolTableRecord
100
AcDbBlockTableRecord
  2
block 47
340
0
102
{BLKREFS
331
13B
102
}
 70
     0
280
     1
281
     0
  0
BLOCK_RECORD
  5
13F
330
1
100
AcDbSymbolTableRecord
100
AcDbBlockTableRecord
  2
block 48
340
0
102
{BLKREFS
331
140
102
}
 70
     0
280
     1
281
     0
  0
BLOCK_RECORD
  5
144
330
1
100
AcDbSymbolTableRecord
100
AcDbBlockTableRecord
  2
block 49
340
0
102
{BLKREFS
331
145
102
}
 70
     0
280
     1
281
     0
  0
BLOCK_RECORD
  5
149
330
1
100
AcDbSymbolTableRecord
100
AcDbBlockTableRecord
  2
block 50
340
0
102
{BLKREFS
331
14A
102
}
 70
     0
280
     1
281
     0
  0
BLOCK_RECORD
  5
14E
330
1
100
AcDbSymbolTableRecord
100
AcDbBlockTableRecord
  2
block 51
340
0
102
{BLKREFS
331
14F
102
}
 70
     0
280
     1
281
     0
  0
BLOCK_RECORD
  5
153
330
1
100
AcDbSymbolTableRecord
100
AcDbBlockTableRecord
  2
block 52
340
0
102
{BLKREFS
331
154
102
}
 70
     0
280
     1
281
     0
  0
BLOCK_RECORD
  5
159
330
1
100
AcDbSymbolTableRecord
100
AcDbBlockTableRecord
  2
block 53
340
0
102
{BLKREFS
331
15A
102
}
 70
     0
280
     1
281
     0
  0
BLOCK_RECORD
  5
15E
330
1
100
AcDbSymbolTableRecord
100
AcDbBlockTableRecord
  2
block 54
340
0
102
{BLKREFS
331
15F
102
}
 70
     0
280
     1
281
     0
  0
BLOCK_RECORD
  5
163
330
1
100
AcDbSymbolTableRecord
100
AcDbBlockTableRecord
  2
block 55
340
0
102
{BLKREFS
331
164
102
}
 70
     0
280
     1
281
     0
  0
BLOCK_RECORD
  5
168
330
1
100
AcDbSymbolTableRecord
100
AcDbBlockTableRecord
  2
block 56
340
0
102
{BLKREFS
331
169
102
}
 70
     0
280
     1
281
     0
  0
BLOCK_RECORD
  5
16E
330
1
100
AcDbSymbolTableRecord
100
AcDbBlockTableRecord
  2
block 57
340
0
102
{BLKREFS
331
16F
102
}
 70
     0
280
     1
281
     0
  0
BLOCK_RECORD
  5
173
330
1
100
AcDbSymbolTableRecord
100
AcDbBlockTableRecord
  2
block 58
340
0
102
{BLKREFS
331
174
102
}
 70
     0
280
     1
281
     0
  0
BLOCK_RECORD
  5
178
330
1
100
AcDbSymbolTableRecord
100
AcDbBlockTableRecord
  2
block 59
340
0
102
{BLKREFS
331
179
102
}
 70
     0
280
     1
281
     0
  0
BLOCK_RECORD
  5
17E
330
1
100
AcDbSymbolTableRecord
100
AcDbBlockTableRecord
  2
block 60
340
0
102
{BLKREFS
331
17F
102
}
 70
     0
280
     1
281
     0
  0
BLOCK_RECORD
  5
184
330
1
100
AcDbSymbolTableRecord
100
AcDbBlockTableRecord
  2
block 61
340
0
102
{BLKREFS
331
185
102
}
 70
     0
280
     1
281
     0
  0
BLOCK_RECORD
  5
18A
330
1
100
AcDbSymbolTableRecord
100
AcDbBlockTableRecord
  2
block 62
340
0
102
{BLKREFS
331
18B
102
}
 70
     0
280
     1
281
     0
  0
BLOCK_RECORD
  5
190
330
1
100
AcDbSymbolTableRecord
100
AcDbBlockTableRecord
  2
block 63
340
0
102
{BLKREFS
331
191
102
}
 70
     0
280
     1
281
     0
  0
BLOCK_RECORD
  5
195
330
1
100
AcDbSymbolTableRecord
100
AcDbBlockTableRecord
  2
block 64
340
0
102
{BLKREFS
331
196
102
}
 70
     0
280
     1
281
     0
  0
BLOCK_RECORD
  5
19A
330
1
100
AcDbSymbolTableRecord
100
AcDbBlockTableRecord
  2
block 65
340
0
102
{BLKREFS
331
19B
102
}
 70
     0
280
     1
281
     0
  0
BLOCK_RECORD
  5
19E
330
1
100
AcDbSymbolTableRecord
100
AcDbBlockTableRecord
  2
block 66
340
0
102
{BLKREFS
331
19F
102
}
 70
     0
280
     1
281
     0
  0
BLOCK_RECORD
  5
1A2
330
1
100
AcDbSymbolTableRecord
100
AcDbBlockTableRecord
  2
block 67
340
0
102
{BLKREFS
331
1A3
102
}
 70
     0
280
     1
281
     0
  0
BLOCK_RECORD
  5
1B8
330
1
100
AcDbSymbolTableRecord
100
AcDbBlockTableRecord
  2
block 68
340
0
102
{BLKREFS
331
1B9
102
}
 70
     0
280
     1
281
     0
  0
BLOCK_RECORD
  5
1BC
330
1
100
AcDbSymbolTableRecord
100
AcDbBlockTableRecord
  2
block 69
340
0
102
{BLKREFS
331
1BD
102
}
 70
     0
280
     1
281
     0
  0
BLOCK_RECORD
  5
1C0
330
1
100
AcDbSymbolTableRecord
100
AcDbBlockTableRecord
  2
block 70
340
0
102
{BLKREFS
331
1C1
102
}
 70
     0
280
     1
281
     0
  0
BLOCK_RECORD
  5
1D6
330
1
100
AcDbSymbolTableRecord
100
AcDbBlockTableRecord
  2
block 71
340
0
102
{BLKREFS
331
1D7
102
}
 70
     0
280
     1
281
     0
  0
BLOCK_RECORD
  5
1DA
330
1
100
AcDbSymbolTableRecord
100
AcDbBlockTableRecord
  2
block 72
340
0
102
{BLKREFS
331
1DB
102
}
 70
     0
280
     1
281
     0
  0
BLOCK_RECORD
  5
1DE
330
1
100
AcDbSymbolTableRecord
100
AcDbBlockTableRecord
  2
block 73
340
0
102
{BLKREFS
331
1DF
102
}
 70
     0
280
     1
281
     0
  0
BLOCK_RECORD
  5
1F4
330
1
100
AcDbSymbolTableRecord
100
AcDbBlockTableRecord
  2
block 74
340
0
102
{BLKREFS
331
1F5
102
}
 70
     0
280
     1
281
     0
  0
BLOCK_RECORD
  5
1FA
330
1
100
AcDbSymbolTableRecord
100
AcDbBlockTableRecord
  2
block 75
340
0
102
{BLKREFS
331
1FB
102
}
 70
     0
280
     1
281
     0
  0
BLOCK_RECORD
  5
1FE
330
1
100
AcDbSymbolTableRecord
100
AcDbBlockTableRecord
  2
block 76
340
0
102
{BLKREFS
331
1FF
102
}
 70
     0
280
     1
281
     0
  0
BLOCK_RECORD
  5
202
330
1
100
AcDbSymbolTableRecord
100
AcDbBlockTableRecord
  2
block 77
340
0
102
{BLKREFS
331
203
102
}
 70
     0
280
     1
281
     0
  0
BLOCK_RECORD
  5
218
330
1
100
AcDbSymbolTableRecord
100
AcDbBlockTableRecord
  2
block 78
340
0
102
{BLKREFS
331
219
102
}
 70
     0
280
     1
281
     0
  0
BLOCK_RECORD
  5
21C
330
1
100
AcDbSymbolTableRecord
100
AcDbBlockTableRecord
  2
block 79
340
0
102
{BLKREFS
331
21D
102
}
 70
     0
280
     1
281
     0
  0
BLOCK_RECORD
  5
220
330
1
100
AcDbSymbolTableRecord
100
AcDbBlockTableRecord
  2
block 80
340
0
102
{BLKREFS
331
221
102
}
 70
     0
280
     1
281
     0
  0
BLOCK_RECORD
  5
236
330
1
100
AcDbSymbolTableRecord
100
AcDbBlockTableRecord
  2
block 81
340
0
102
{BLKREFS
331
237
102
}
 70
     0
280
     1
281
     0
  0
BLOCK_RECORD
  5
23C
330
1
100
AcDbSymbolTableRecord
100
AcDbBlockTableRecord
  2
block 82
340
0
102
{BLKREFS
331
23D
102
}
 70
     0
280
     1
281
     0
  0
BLOCK_RECORD
  5
241
330
1
100
AcDbSymbolTableRecord
100
AcDbBlockTableRecord
  2
block 83
340
0
102
{BLKREFS
331
242
102
}
 70
     0
280
     1
281
     0
  0
BLOCK_RECORD
  5
247
330
1
100
AcDbSymbolTableRecord
100
AcDbBlockTableRecord
  2
block 84
340
0
102
{BLKREFS
331
248
102
}
 70
     0
280
     1
281
     0
  0
BLOCK_RECORD
  5
24C
330
1
100
AcDbSymbolTableRecord
100
AcDbBlockTableRecord
  2
block 85
340
0
102
{BLKREFS
331
24D
102
}
 70
     0
280
     1
281
     0
  0
ENDTAB
  0
ENDSEC
  0
SECTION
  2
BLOCKS
  0
BLOCK
  5
20
330
1F
100
AcDbEntity
  8
0
100
AcDbBlockBegin
  2
*Model_Space
 70
     0
 10
0.0
 20
0.0
 30
0.0
  3
*Model_Space
  1

  0
ENDBLK
  5
21
330
1F
100
AcDbEntity
  8
0
100
AcDbBlockEnd
  0
BLOCK
  5
1C
330
1B
100
AcDbEntity
 67
     1
  8
0
100
AcDbBlockBegin
  2
*Paper_Space
 70
     0
 10
0.0
 20
0.0
 30
0.0
  3
*Paper_Space
  1

  0
ENDBLK
  5
1D
330
1B
100
AcDbEntity
 67
     1
  8
0
100
AcDbBlockEnd
  0
BLOCK
  5
24
330
23
100
AcDbEntity
  8
0
100
AcDbBlockBegin
  2
*Paper_Space0
 70
     0
 10
0.0
 20
0.0
 30
0.0
  3
*Paper_Space0
  1

  0
ENDBLK
  5
25
330
23
100
AcDbEntity
  8
0
100
AcDbBlockEnd
  0
BLOCK
  5
42
330
40
100
AcDbEntity
  8
0
100
AcDbBlockBegin
  2
block 2
 70
     0
 10
0.0
 20
0.0
 30
0.0
  3
block 2
  1

  0
SPLINE
  5
44
330
40
100
AcDbEntity
  8
0
 62
   250
370
    25
100
AcDbSpline
210
0.0
220
0.0
230
1.0
 70
     8
 71
     3
 72
    11
 73
     7
 74
     0
 42
0.0000000001
 43
0.0000000001
 12
1.0
 22
0.0
 32
0.0
 13
1.0
 23
0.0
 33
0.0
 40
0.0
 40
0.0
 40
0.0
 40
0.0
 40
1.0
 40
1.0
 40
1.0
 40
2.0
 40
2.0
 40
2.0
 40
2.0
 10
-294.5498440956396
 20
354.03098394436
 30
0.0
 10
-294.5252556691399
 20
354.1202713295273
 30
0.0
 10
-294.4985858693762
 20
354.2088531644346
 30
0.0
 10
-294.4699052513751
 20
354.2969058366473
 30
0.0
 10
-294.344670080543
 20
354.6804076794613
 30
0.0
 10
-294.185321554722
 20
355.0424960719341
 30
0.0
 10
-293.9865327694732
 20
355.3936131578978
 30
0.0
  0
ENDBLK
  5
43
330
40
100
AcDbEntity
  8
0
100
AcDbBlockEnd
  0
BLOCK
  5
47
330
45
100
AcDbEntity
  8
0
100
AcDbBlockBegin
  2
block 3
 70
     0
 10
0.0
 20
0.0
 30
0.0
  3
block 3
  1

  0
SPLINE
  5
49
330
45
100
AcDbEntity
  8
0
  6
AI-Linetype-1
 62
     6
370
    25
100
AcDbSpline
210
0.0
220
0.0
230
1.0
 70
     8
 71
     3
 72
     8
 73
     4
 74
     0
 42
0.0000000001
 43
0.0000000001
 12
1.0
 22
0.0
 32
0.0
 13
1.0
 23
0.0
 33
0.0
 40
0.0
 40
0.0
 40
0.0
 40
0.0
 40
1.0
 40
1.0
 40
1.0
 40
1.0
 10
118.798113409265
 20
240.6243309426305
 30
0.0
 10
124.700570481352
 20
240.3155821494015
 30
0.0
 10
134.7754418870475
 20
239.7942480253042
 30
0.0
 10
140.6779342366553
 20
239.4854992320752
 30
0.0
  0
ENDBLK
  5
48
330
45
100
AcDbEntity
  8
0
100
AcDbBlockEnd
  0
BLOCK
  5
4D
330
4B
100
AcDbEntity
  8
0
100
AcDbBlockBegin
  2
block 4
 70
     0
 10
0.0
 20
0.0
 30
0.0
  3
block 4
  1

  0
SPLINE
  5
4F
330
4B
100
AcDbEntity
  8
0
 62
   250
370
    25
100
AcDbSpline
210
0.0
220
0.0
230
1.0
 70
     8
 71
     3
 72
    11
 73
     7
 74
     0
 42
0.0000000001
 43
0.0000000001
 12
1.0
 22
0.0
 32
0.0
 13
1.0
 23
0.0
 33
0.0
 40
0.0
 40
0.0
 40
0.0
 40
0.0
 40
1.0
 40
1.0
 40
1.0
 40
2.0
 40
2.0
 40
2.0
 40
2.0
 10
-293.0819820609573
 20
356.5867691994146
 30
0.0
 10
-293.0819820609573
 20
356.5867691994146
 30
0.0
 10
-293.0830403863457
 20
356.590226395682
 30
0.0
 10
-293.0830403863457
 20
356.590226395682
 30
0.0
 10
-292.4303358425076
 20
357.2666727056509
 30
0.0
 10
-291.7156134309724
 20
357.7326533736154
 30
0.0
 10
-290.8331817230936
 20
358.0567126071456
 30
0.0
  0
ENDBLK
  5
4E
330
4B
100
AcDbEntity
  8
0
100
AcDbBlockEnd
  0
BLOCK
  5
52
330
50
100
AcDbEntity
  8
0
100
AcDbBlockBegin
  2
block 5
 70
     0
 10
0.0
 20
0.0
 30
0.0
  3
block 5
  1

  0
SPLINE
  5
54
330
50
100
AcDbEntity
  8
0
  6
AI-Linetype-2
 62
     6
370
    25
100
AcDbSpline
210
0.0
220
0.0
230
1.0
 70
     8
 71
     3
 72
     8
 73
     4
 74
     0
 42
0.0000000001
 43
0.0000000001
 12
1.0
 22
0.0
 32
0.0
 13
1.0
 23
0.0
 33
0.0
 40
0.0
 40
0.0
 40
0.0
 40
0.0
 40
1.0
 40
1.0
 40
1.0
 40
1.0
 10
498.2249466528384
 20
313.4211690928256
 30
0.0
 10
496.2737826914432
 20
313.4923591139596
 30
0.0
 10
494.4791450548736
 20
314.508351485783
 30
0.0
 10
493.4137994426479
 20
316.1444519794446
 30
0.0
  0
ENDBLK
  5
53
330
50
100
AcDbEntity
  8
0
100
AcDbBlockEnd
  0
BLOCK
  5
58
330
56
100
AcDbEntity
  8
0
100
AcDbBlockBegin
  2
block 6
 70
     0
 10
0.0
 20
0.0
 30
0.0
  3
block 6
  1

  0
SPLINE
  5
5A
330
56
100
AcDbEntity
  8
0
  6
AI-Linetype-3
 62
     6
370
    25
100
AcDbSpline
210
0.0
220
0.0
230
1.0
 70
     8
 71
     3
 72
    29
 73
    25
 74
     0
 42
0.0000000001
 43
0.0000000001
 12
1.0
 22
0.0
 32
0.0
 13
1.0
 23
0.0
 33
0.0
 40
0.0
 40
0.0
 40
0.0
 40
0.0
 40
1.0
 40
1.0
 40
1.0
 40
2.0
 40
2.0
 40
2.0
 40
3.0
 40
3.0
 40
3.0
 40
4.0
 40
4.0
 40
4.0
 40
5.0
 40
5.0
 40
5.0
 40
6.0
 40
6.0
 40
6.0
 40
7.0
 40
7.0
 40
7.0
 40
8.0
 40
8.0
 40
8.0
 40
8.0
 10
210.1131812347003
 20
192.0562589479076
 30
0.0
 10
211.4985644440918
 20
192.0562589478495
 30
0.0
 10
212.8839476534775
 20
192.0562589477854
 30
0.0
 10
214.2693308628633
 20
192.0562589477219
 30
0.0
 10
214.3508219176796
 20
192.0622208473965
 30
0.0
 10
214.4328774127113
 20
192.0643727756814
 30
0.0
 10
214.5142273574706
 20
192.0729804888277
 30
0.0
 10
214.5625575501508
 20
192.0780957281992
 30
0.0
 10
214.610676077758
 20
192.0855040059062
 30
0.0
 10
214.6584065527213
 20
192.0947467142897
 30
0.0
 10
214.7817014603409
 20
192.1186295905157
 30
0.0
 10
214.9025622195616
 20
192.1548595962623
 30
0.0
 10
215.0189780121557
 20
192.2020256310236
 30
0.0
 10
215.2506101619105
 20
192.2958990928618
 30
0.0
 10
215.4645682777011
 20
192.4332344505951
 30
0.0
 10
215.6458594165415
 20
192.6051770484972
 30
0.0
 10
215.8312780243814
 20
192.7810001728176
 30
0.0
 10
215.9825127222355
 20
192.9930533028968
 30
0.0
 10
216.0886627585849
 20
193.2255321129548
 30
0.0
 10
216.194706962391
 20
193.4577287029124
 30
0.0
 10
216.2558076147622
 20
193.7103156953274
 30
0.0
 10
216.2672375289514
 20
193.9654426686717
 30
0.0
 10
216.5575009054407
 20
200.3571635672778
 30
0.0
 10
216.82796268462
 20
206.3135873076526
 30
0.0
 10
217.1182260611093
 20
212.7052729287517
 30
0.0
  0
ENDBLK
  5
59
330
56
100
AcDbEntity
  8
0
100
AcDbBlockEnd
  0
BLOCK
  5
5E
330
5C
100
AcDbEntity
  8
0
100
AcDbBlockBegin
  2
block 7
 70
     0
 10
0.0
 20
0.0
 30
0.0
  3
block 7
  1

  0
SPLINE
  5
60
330
5C
100
AcDbEntity
  8
0
 62
   250
370
    25
100
AcDbSpline
210
0.0
220
0.0
230
1.0
 70
     8
 71
     3
 72
    17
 73
    13
 74
     0
 42
0.0000000001
 43
0.0000000001
 12
1.0
 22
0.0
 32
0.0
 13
1.0
 23
0.0
 33
0.0
 40
0.0
 40
0.0
 40
0.0
 40
0.0
 40
1.0
 40
1.0
 40
1.0
 40
2.0
 40
2.0
 40
2.0
 40
3.0
 40
3.0
 40
3.0
 40
4.0
 40
4.0
 40
4.0
 40
4.0
 10
505.3600353052311
 20
353.1426961334326
 30
0.0
 10
504.9646449400572
 20
341.8208016959685
 30
0.0
 10
504.6095414945851
 20
329.5645470516347
 30
0.0
 10
504.2141511294074
 20
318.2426526141588
 30
0.0
 10
504.1688548027769
 20
316.9475798378145
 30
0.0
 10
503.622582515352
 20
315.7206632164322
 30
0.0
 10
502.6904095142407
 20
314.8204869196153
 30
0.0
 10
501.7581306805939
 20
313.9201695127419
 30
0.0
 10
500.5126933648923
 20
313.4171827337684
 30
0.0
 10
499.2167386507254
 20
313.4171827338197
 30
0.0
 10
498.8869997375759
 20
313.417182733839
 30
0.0
 10
498.555426393758
 20
313.4171827338518
 30
0.0
 10
498.2249466528384
 20
313.417182733871
 30
0.0
  0
ENDBLK
  5
5F
330
5C
100
AcDbEntity
  8
0
100
AcDbBlockEnd
  0
BLOCK
  5
63
330
61
100
AcDbEntity
  8
0
100
AcDbBlockBegin
  2
block 8
 70
     0
 10
0.0
 20
0.0
 30
0.0
  3
block 8
  1

  0
SPLINE
  5
65
330
61
100
AcDbEntity
  8
0
  6
AI-Linetype-4
 62
     6
370
    25
100
AcDbSpline
210
0.0
220
0.0
230
1.0
 70
     8
 71
     3
 72
     8
 73
     4
 74
     0
 42
0.0000000001
 43
0.0000000001
 12
1.0
 22
0.0
 32
0.0
 13
1.0
 23
0.0
 33
0.0
 40
0.0
 40
0.0
 40
0.0
 40
0.0
 40
1.0
 40
1.0
 40
1.0
 40
1.0
 10
466.9543242180886
 20
349.9118051155333
 30
0.0
 10
456.5140853831832
 20
349.7509043796382
 30
0.0
 10
447.0260924540066
 20
345.7435200238206
 30
0.0
 10
438.576987002372
 20
340.1740121189137
 30
0.0
  0
ENDBLK
  5
64
330
61
100
AcDbEntity
  8
0
100
AcDbBlockEnd
  0
BLOCK
  5
69
330
67
100
AcDbEntity
  8
0
100
AcDbBlockBegin
  2
block 9
 70
     0
 10
0.0
 20
0.0
 30
0.0
  3
block 9
  1

  0
INSERT
  5
6C
330
67
100
AcDbEntity
  8
0
100
AcDbBlockReference
  2
block 10
 10
0.0
 20
0.0
 30
0.0
  0
ENDBLK
  5
6A
330
67
100
AcDbEntity
  8
0
100
AcDbBlockEnd
  0
BLOCK
  5
6D
330
6B
100
AcDbEntity
  8
0
100
AcDbBlockBegin
  2
block 10
 70
     0
 10
0.0
 20
0.0
 30
0.0
  3
block 10
  1

  0
INSERT
  5
70
330
6B
100
AcDbEntity
  8
0
100
AcDbBlockReference
  2
block 11
 10
0.0
 20
0.0
 30
0.0
  0
ENDBLK
  5
6E
330
6B
100
AcDbEntity
  8
0
100
AcDbBlockEnd
  0
BLOCK
  5
71
330
6F
100
AcDbEntity
  8
0
100
AcDbBlockBegin
  2
block 11
 70
     0
 10
0.0
 20
0.0
 30
0.0
  3
block 11
  1

  0
SPLINE
  5
73
330
6F
100
AcDbEntity
  8
0
 62
     6
370
    25
100
AcDbSpline
210
0.0
220
0.0
230
1.0
 70
     8
 71
     3
 72
     8
 73
     4
 74
     0
 42
0.0000000001
 43
0.0000000001
 12
1.0
 22
0.0
 32
0.0
 13
1.0
 23
0.0
 33
0.0
 40
0.0
 40
0.0
 40
0.0
 40
0.0
 40
1.0
 40
1.0
 40
1.0
 40
1.0
 10
145.4487554398477
 20
237.4281432511899
 30
0.0
 10
145.8771530634385
 20
236.9996810320587
 30
0.0
 10
146.3055506870293
 20
236.5711972810807
 30
0.0
 10
146.7339483106201
 20
236.1427350619496
 30
0.0
  0
SPLINE
  5
74
330
6F
100
AcDbEntity
  8
0
  6
AI-Linetype-5
 62
     6
370
    25
100
AcDbSpline
210
0.0
220
0.0
230
1.0
 70
     8
 71
     3
 72
    11
 73
     7
 74
     0
 42
0.0000000001
 43
0.0000000001
 12
1.0
 22
0.0
 32
0.0
 13
1.0
 23
0.0
 33
0.0
 40
0.0
 40
0.0
 40
0.0
 40
0.0
 40
1.0
 40
1.0
 40
1.0
 40
2.0
 40
2.0
 40
2.0
 40
2.0
 10
149.2713364969704
 20
233.6049054727403
 30
0.0
 10
151.95382779879
 20
230.921929704368
 30
0.0
 10
154.6363191006096
 20
228.2389754678426
 30
0.0
 10
157.3187996365058
 20
225.5559996994704
 30
0.0
 10
157.3187996365058
 20
215.5934295115313
 30
0.0
 10
157.3187996365058
 20
205.6308593235923
 30
0.0
 10
157.3187996365058
 20
195.6682891356533
 30
0.0
  0
SPLINE
  5
76
330
6F
100
AcDbEntity
  8
0
 62
     6
370
    25
100
AcDbSpline
210
0.0
220
0.0
230
1.0
 70
    24
 71
     3
 72
     8
 73
     4
 74
     0
 42
0.0000000001
 43
0.0000000001
 12
1.0
 22
0.0
 32
0.0
 13
1.0
 23
0.0
 33
0.0
 40
0.0
 40
0.0
 40
0.0
 40
0.0
 40
1.0
 40
1.0
 40
1.0
 40
1.0
 10
157.3187996365058
 20
193.8739542158544
 30
0.0
 10
157.3187996365058
 20
193.2680480473861
 30
0.0
 10
157.3187996365058
 20
192.6621634107646
 30
0.0
 10
157.3187996365058
 20
192.0562572422963
 30
0.0
  0
ENDBLK
  5
72
330
6F
100
AcDbEntity
  8
0
100
AcDbBlockEnd
  0
BLOCK
  5
79
330
77
100
AcDbEntity
  8
0
100
AcDbBlockBegin
  2
block 12
 70
     0
 10
0.0
 20
0.0
 30
0.0
  3
block 12
  1

  0
INSERT
  5
7C
330
77
100
AcDbEntity
  8
0
100
AcDbBlockReference
  2
block 13
 10
0.0
 20
0.0
 30
0.0
  0
ENDBLK
  5
7A
330
77
100
AcDbEntity
  8
0
100
AcDbBlockEnd
  0
BLOCK
  5
7D
330
7B
100
AcDbEntity
  8
0
100
AcDbBlockBegin
  2
block 13
 70
     0
 10
0.0
 20
0.0
 30
0.0
  3
block 13
  1

  0
INSERT
  5
80
330
7B
100
AcDbEntity
  8
0
100
AcDbBlockReference
  2
block 14
 10
0.0
 20
0.0
 30
0.0
  0
ENDBLK
  5
7E
330
7B
100
AcDbEntity
  8
0
100
AcDbBlockEnd
  0
BLOCK
  5
81
330
7F
100
AcDbEntity
  8
0
100
AcDbBlockBegin
  2
block 14
 70
     0
 10
0.0
 20
0.0
 30
0.0
  3
block 14
  1

  0
SPLINE
  5
83
330
7F
100
AcDbEntity
  8
0
 62
     6
370
    25
100
AcDbSpline
210
0.0
220
0.0
230
1.0
 70
     8
 71
     3
 72
     8
 73
     4
 74
     0
 42
0.0000000001
 43
0.0000000001
 12
1.0
 22
0.0
 32
0.0
 13
1.0
 23
0.0
 33
0.0
 40
0.0
 40
0.0
 40
0.0
 40
0.0
 40
1.0
 40
1.0
 40
1.0
 40
1.0
 10
215.1882647506192
 20
237.427927932722
 30
0.0
 10
214.7598886588752
 20
236.9994657135909
 30
0.0
 10
214.3314910352843
 20
236.5710034944597
 30
0.0
 10
213.9030934116935
 20
236.1425412753285
 30
0.0
  0
SPLINE
  5
84
330
7F
100
AcDbEntity
  8
0
  6
AI-Linetype-6
 62
     6
370
    25
100
AcDbSpline
210
0.0
220
0.0
230
1.0
 70
     8
 71
     3
 72
    11
 73
     7
 74
     0
 42
0.0000000001
 43
0.0000000001
 12
1.0
 22
0.0
 32
0.0
 13
1.0
 23
0.0
 33
0.0
 40
0.0
 40
0.0
 40
0.0
 40
0.0
 40
1.0
 40
1.0
 40
1.0
 40
2.0
 40
2.0
 40
2.0
 40
2.0
 10
211.3657159912667
 20
233.604733217966
 30
0.0
 10
208.6833000509108
 20
230.9218220451341
 30
0.0
 10
206.0008841105549
 20
228.2389108723023
 30
0.0
 10
203.3184466383522
 20
225.5559996994704
 30
0.0
 10
203.3184466383522
 20
215.5934510433781
 30
0.0
 10
203.3184466383522
 20
205.6308593235923
 30
0.0
 10
203.3184466383522
 20
195.6682891356533
 30
0.0
  0
SPLINE
  5
86
330
7F
100
AcDbEntity
  8
0
 62
     6
370
    25
100
AcDbSpline
210
0.0
220
0.0
230
1.0
 70
    24
 71
     3
 72
     8
 73
     4
 74
     0
 42
0.0000000001
 43
0.0000000001
 12
1.0
 22
0.0
 32
0.0
 13
1.0
 23
0.0
 33
0.0
 40
0.0
 40
0.0
 40
0.0
 40
0.0
 40
1.0
 40
1.0
 40
1.0
 40
1.0
 10
203.3184466383522
 20
193.8739542158544
 30
0.0
 10
203.3184466383522
 20
193.2680480473861
 30
0.0
 10
203.3184466383522
 20
192.6621634107646
 30
0.0
 10
203.3184466383522
 20
192.0562572422963
 30
0.0
  0
ENDBLK
  5
82
330
7F
100
AcDbEntity
  8
0
100
AcDbBlockEnd
  0
BLOCK
  5
89
330
87
100
AcDbEntity
  8
0
100
AcDbBlockBegin
  2
block 15
 70
     0
 10
0.0
 20
0.0
 30
0.0
  3
block 15
  1

  0
SPLINE
  5
8B
330
87
100
AcDbEntity
  8
0
  6
AI-Linetype-7
 62
     6
370
    25
100
AcDbSpline
210
0.0
220
0.0
230
1.0
 70
    24
 71
     3
 72
    11
 73
     7
 74
     0
 42
0.0000000001
 43
0.0000000001
 12
1.0
 22
0.0
 32
0.0
 13
1.0
 23
0.0
 33
0.0
 40
0.0
 40
0.0
 40
0.0
 40
0.0
 40
1.0
 40
1.0
 40
1.0
 40
2.0
 40
2.0
 40
2.0
 40
2.0
 10
158.2703761120494
 20
225.5559968722173
 30
0.0
 10
164.9984328187271
 20
225.5559968719157
 30
0.0
 10
173.5905485107006
 20
225.5559968715306
 30
0.0
 10
180.3186404948869
 20
225.5559968712226
 30
0.0
 10
187.0467324790867
 20
225.5559968709274
 30
0.0
 10
196.0647810216287
 20
225.5559968705167
 30
0.0
 10
202.7928730058221
 20
225.5559968702216
 30
0.0
  0
ENDBLK
  5
8A
330
87
100
AcDbEntity
  8
0
100
AcDbBlockEnd
  0
BLOCK
  5
8F
330
8D
100
AcDbEntity
  8
0
100
AcDbBlockBegin
  2
block 16
 70
     0
 10
0.0
 20
0.0
 30
0.0
  3
block 16
  1

  0
SPLINE
  5
91
330
8D
100
AcDbEntity
  8
0
  6
AI-Linetype-8
 62
     6
370
    25
100
AcDbSpline
210
0.0
220
0.0
230
1.0
 70
     8
 71
     3
 72
     8
 73
     4
 74
     0
 42
0.0000000001
 43
0.0000000001
 12
1.0
 22
0.0
 32
0.0
 13
1.0
 23
0.0
 33
0.0
 40
0.0
 40
0.0
 40
0.0
 40
0.0
 40
1.0
 40
1.0
 40
1.0
 40
1.0
 10
438.576987002372
 20
340.1740121189137
 30
0.0
 10
429.9252122390589
 20
334.1114656936242
 30
0.0
 10
416.1524125917329
 20
320.9004604405498
 30
0.0
 10
408.6452520121676
 20
313.6423943802897
 30
0.0
  0
ENDBLK
  5
90
330
8D
100
AcDbEntity
  8
0
100
AcDbBlockEnd
  0
BLOCK
  5
95
330
93
100
AcDbEntity
  8
0
100
AcDbBlockBegin
  2
block 17
 70
     0
 10
0.0
 20
0.0
 30
0.0
  3
block 17
  1

  0
SPLINE
  5
97
330
93
100
AcDbEntity
  8
0
  6
AI-Linetype-9
 62
     6
370
    25
100
AcDbSpline
210
0.0
220
0.0
230
1.0
 70
     8
 71
     3
 72
     8
 73
     4
 74
     0
 42
0.0000000001
 43
0.0000000001
 12
1.0
 22
0.0
 32
0.0
 13
1.0
 23
0.0
 33
0.0
 40
0.0
 40
0.0
 40
0.0
 40
0.0
 40
1.0
 40
1.0
 40
1.0
 40
1.0
 10
494.1979859063582
 20
355.7953358007458
 30
0.0
 10
495.1930939905374
 20
357.6706531093426
 30
0.0
 10
496.9651513914227
 20
358.3152967413773
 30
0.0
 10
499.0859649123973
 20
358.4115690740107
 30
0.0
  0
ENDBLK
  5
96
330
93
100
AcDbEntity
  8
0
100
AcDbBlockEnd
  0
BLOCK
  5
9B
330
99
100
AcDbEntity
  8
0
100
AcDbBlockBegin
  2
block 18
 70
     0
 10
0.0
 20
0.0
 30
0.0
  3
block 18
  1

  0
SPLINE
  5
9D
330
99
100
AcDbEntity
  8
0
 62
   250
370
    25
100
AcDbSpline
210
0.0
220
0.0
230
1.0
 70
     8
 71
     3
 72
    14
 73
    10
 74
     0
 42
0.0000000001
 43
0.0000000001
 12
1.0
 22
0.0
 32
0.0
 13
1.0
 23
0.0
 33
0.0
 40
0.0
 40
0.0
 40
0.0
 40
0.0
 40
1.0
 40
1.0
 40
1.0
 40
2.0
 40
2.0
 40
2.0
 40
3.0
 40
3.0
 40
3.0
 40
3.0
 10
-288.6766509941494
 20
358.4502044777223
 30
0.0
 10
-136.8813582023033
 20
359.1541672409871
 30
0.0
 10
28.52179549851997
 20
359.4983634352685
 30
0.0
 10
180.3186405008932
 20
359.3598991903034
 30
0.0
 10
282.1151848040191
 20
359.2659904463684
 30
0.0
 10
383.9106707817419
 20
358.9832764533602
 30
0.0
 10
485.7061920369682
 20
358.5116866562408
 30
0.0
 10
489.7227838240717
 20
358.493095406764
 30
0.0
 10
495.3850317080726
 20
358.4575288230328
 30
0.0
 10
499.4016234951684
 20
358.4379145256733
 30
0.0
  0
ENDBLK
  5
9C
330
99
100
AcDbEntity
  8
0
100
AcDbBlockEnd
  0
BLOCK
  5
A0
330
9E
100
AcDbEntity
  8
0
100
AcDbBlockBegin
  2
block 19
 70
     0
 10
0.0
 20
0.0
 30
0.0
  3
block 19
  1

  0
SPLINE
  5
A2
330
9E
100
AcDbEntity
  8
0
 62
   250
370
    25
100
AcDbSpline
210
0.0
220
0.0
230
1.0
 70
     8
 71
     3
 72
     8
 73
     4
 74
     0
 42
0.0000000001
 43
0.0000000001
 12
1.0
 22
0.0
 32
0.0
 13
1.0
 23
0.0
 33
0.0
 40
0.0
 40
0.0
 40
0.0
 40
0.0
 40
1.0
 40
1.0
 40
1.0
 40
1.0
 10
-288.7761146679294
 20
358.4287139806578
 30
0.0
 10
-288.7824293427368
 20
358.4351697655177
 30
0.0
 10
-288.7896965103967
 20
358.4405319474832
 30
0.0
 10
-288.7951292473849
 20
358.4479755027056
 30
0.0
  0
ENDBLK
  5
A1
330
9E
100
AcDbEntity
  8
0
100
AcDbBlockEnd
  0
BLOCK
  5
A5
330
A3
100
AcDbEntity
  8
0
100
AcDbBlockBegin
  2
block 20
 70
     0
 10
0.0
 20
0.0
 30
0.0
  3
block 20
  1

  0
SPLINE
  5
A7
330
A3
100
AcDbEntity
  8
0
  6
AI-Linetype-10
 62
     6
370
    25
100
AcDbSpline
210
0.0
220
0.0
230
1.0
 70
     8
 71
     3
 72
    41
 73
    37
 74
     0
 42
0.0000000001
 43
0.0000000001
 12
1.0
 22
0.0
 32
0.0
 13
1.0
 23
0.0
 33
0.0
 40
0.0
 40
0.0
 40
0.0
 40
0.0
 40
1.0
 40
1.0
 40
1.0
 40
2.0
 40
2.0
 40
2.0
 40
3.0
 40
3.0
 40
3.0
 40
4.0
 40
4.0
 40
4.0
 40
5.0
 40
5.0
 40
5.0
 40
6.0
 40
6.0
 40
6.0
 40
7.0
 40
7.0
 40
7.0
 40
8.0
 40
8.0
 40
8.0
 40
9.0
 40
9.0
 40
9.0
 40
10.0
 40
10.0
 40
10.0
 40
11.0
 40
11.0
 40
11.0
 40
12.0
 40
12.0
 40
12.0
 40
12.0
 10
52.95281372770133
 20
254.4176237894276
 30
0.0
 10
45.09248996685549
 20
257.012461251689
 30
0.0
 10
37.38368312397114
 20
259.9390484453128
 30
0.0
 10
29.78173186768902
 20
263.2143538540434
 30
0.0
 10
29.77160722148184
 20
263.2187282656416
 30
0.0
 10
29.76151785279615
 20
263.2230673997259
 30
0.0
 10
29.75142848410307
 20
263.2274065338161
 30
0.0
 10
29.71946705741209
 20
263.2411647638481
 30
0.0
 10
29.68754090822943
 20
263.2549582714009
 30
0.0
 10
29.65561475904612
 20
263.2687165014393
 30
0.0
 10
29.6455253903569
 20
263.273055635524
 30
0.0
 10
29.63543602166703
 20
263.2774300471286
 30
0.0
 10
29.6253466529746
 20
263.281769181212
 30
0.0
 10
29.5934205037913
 20
263.2955626887584
 30
0.0
 10
29.56149435460864
 20
263.3093561963113
 30
0.0
 10
29.52956820543496
 20
263.3231497038512
 30
0.0
 10
29.51947883673932
 20
263.3274888379482
 30
0.0
 10
29.50938946804624
 20
263.331863249547
 30
0.0
 10
29.49930009935381
 20
263.3362023836365
 30
0.0
 10
29.46737395017693
 20
263.3499958911826
 30
0.0
 10
29.43544780099427
 20
263.3637893987357
 30
0.0
 10
29.40355692933181
 20
263.3776181837902
 30
0.0
 10
29.39346756063905
 20
263.3819573178736
 30
0.0
 10
29.38337819194951
 20
263.3863317294849
 30
0.0
 10
29.37328882325996
 20
263.3907061410831
 30
0.0
 10
29.34139795158498
 20
263.4044996486298
 30
0.0
 10
29.3094718024081
 20
263.41832843369
 30
0.0
 10
29.27754565322544
 20
263.4321219412428
 30
0.0
 10
21.59720776327042
 20
266.7575919733164
 30
0.0
 10
14.39585385635197
 20
270.9986841872151
 30
0.0
 10
6.755252533195062
 20
274.4144703180058
 30
0.0
 10
0.1304018345875217
 20
277.3761577792197
 30
0.0
 10
-31.08159055479865
 20
298.4083095739597
 30
0.0
 10
-37.75260252194499
 20
303.9553599449615
 30
0.0
 10
-44.42361448908331
 20
309.5024103159703
 30
0.0
 10
-50.55139204949597
 20
316.1317169300921
 30
0.0
 10
-52.87305754181772
 20
318.2712627021329
 30
0.0
  0
ENDBLK
  5
A6
330
A3
100
AcDbEntity
  8
0
100
AcDbBlockEnd
  0
BLOCK
  5
AB
330
A9
100
AcDbEntity
  8
0
100
AcDbBlockBegin
  2
block 21
 70
     0
 10
0.0
 20
0.0
 30
0.0
  3
block 21
  1

  0
SPLINE
  5
AD
330
A9
100
AcDbEntity
  8
0
  6
AI-Linetype-11
 62
     6
370
    25
100
AcDbSpline
210
0.0
220
0.0
230
1.0
 70
     8
 71
     3
 72
    20
 73
    16
 74
     0
 42
0.0000000001
 43
0.0000000001
 12
1.0
 22
0.0
 32
0.0
 13
1.0
 23
0.0
 33
0.0
 40
0.0
 40
0.0
 40
0.0
 40
0.0
 40
1.0
 40
1.0
 40
1.0
 40
2.0
 40
2.0
 40
2.0
 40
3.0
 40
3.0
 40
3.0
 40
4.0
 40
4.0
 40
4.0
 40
5.0
 40
5.0
 40
5.0
 40
5.0
 10
-288.4965403781383
 20
358.413756315173
 30
0.0
 10
-286.355089512126
 20
358.3362516192227
 30
0.0
 10
-284.4181071109746
 20
357.1223876774976
 30
0.0
 10
-283.4146029788867
 20
355.229043559709
 30
0.0
 10
-281.6810659947635
 20
351.9618167017113
 30
0.0
 10
-278.2859581526446
 20
349.9186489864962
 30
0.0
 10
-274.587287311862
 20
349.9169203881959
 30
0.0
 10
-122.9546944095762
 20
349.9169203813938
 30
0.0
 10
28.6842131675205
 20
349.9169203745793
 30
0.0
 10
180.3186405004697
 20
349.9169203677773
 30
0.0
 10
281.9543546222542
 20
349.9169203632087
 30
0.0
 10
383.5901040215409
 20
349.9169203586524
 30
0.0
 10
485.2258534208334
 20
349.9169203540837
 30
0.0
 10
488.9253709219256
 20
349.918507842006
 30
0.0
 10
491.5420804600353
 20
350.8974764638257
 30
0.0
 10
493.2763229947152
 20
354.1653383168979
 30
0.0
  0
ENDBLK
  5
AC
330
A9
100
AcDbEntity
  8
0
100
AcDbBlockEnd
  0
BLOCK
  5
B1
330
AF
100
AcDbEntity
  8
0
100
AcDbBlockBegin
  2
block 22
 70
     0
 10
0.0
 20
0.0
 30
0.0
  3
block 22
  1

  0
SPLINE
  5
B3
330
AF
100
AcDbEntity
  8
0
  6
AI-Linetype-12
 62
     6
370
    25
100
AcDbSpline
210
0.0
220
0.0
230
1.0
 70
    24
 71
     3
 72
    17
 73
    13
 74
     0
 42
0.0000000001
 43
0.0000000001
 12
1.0
 22
0.0
 32
0.0
 13
1.0
 23
0.0
 33
0.0
 40
0.0
 40
0.0
 40
0.0
 40
0.0
 40
1.0
 40
1.0
 40
1.0
 40
2.0
 40
2.0
 40
2.0
 40
3.0
 40
3.0
 40
3.0
 40
4.0
 40
4.0
 40
4.0
 40
4.0
 10
489.1695369513187
 20
318.4171351936762
 30
0.0
 10
489.1544028982819
 20
318.4171351936762
 30
0.0
 10
480.0681399223026
 20
318.4171351940868
 30
0.0
 10
480.0530058692659
 20
318.4171351940868
 30
0.0
 10
479.9920463269646
 20
318.4171351940868
 30
0.0
 10
479.9310867846561
 20
318.4171351940868
 30
0.0
 10
479.8700919648346
 20
318.4171351940932
 30
0.0
 10
478.2561457493237
 20
318.4171351941638
 30
0.0
 10
476.6421995338096
 20
318.4171351942405
 30
0.0
 10
475.0282180407792
 20
318.417135194305
 30
0.0
 10
474.955828584297
 20
318.4171351943118
 30
0.0
 10
466.8142724904379
 20
318.4171351946772
 30
0.0
 10
466.7418477564323
 20
318.4171351946772
 30
0.0
  0
ENDBLK
  5
B2
330
AF
100
AcDbEntity
  8
0
100
AcDbBlockEnd
  0
BLOCK
  5
B7
330
B5
100
AcDbEntity
  8
0
100
AcDbBlockBegin
  2
block 23
 70
     0
 10
0.0
 20
0.0
 30
0.0
  3
block 23
  1

  0
SPLINE
  5
B9
330
B5
100
AcDbEntity
  8
0
  6
AI-Linetype-13
 62
     6
370
    25
100
AcDbSpline
210
0.0
220
0.0
230
1.0
 70
     8
 71
     3
 72
     8
 73
     4
 74
     0
 42
0.0000000001
 43
0.0000000001
 12
1.0
 22
0.0
 32
0.0
 13
1.0
 23
0.0
 33
0.0
 40
0.0
 40
0.0
 40
0.0
 40
0.0
 40
1.0
 40
1.0
 40
1.0
 40
1.0
 10
493.4150341555949
 20
316.146074745042
 30
0.0
 10
492.492244973034
 20
317.5626079983611
 30
0.0
 10
490.9161868064135
 20
318.4168882509998
 30
0.0
 10
489.2256178328699
 20
318.4171351936762
 30
0.0
  0
ENDBLK
  5
B8
330
B5
100
AcDbEntity
  8
0
100
AcDbBlockEnd
  0
BLOCK
  5
BD
330
BB
100
AcDbEntity
  8
0
100
AcDbBlockBegin
  2
block 24
 70
     0
 10
0.0
 20
0.0
 30
0.0
  3
block 24
  1

  0
SPLINE
  5
BF
330
BB
100
AcDbEntity
  8
0
 62
   250
370
    25
100
AcDbSpline
210
0.0
220
0.0
230
1.0
 70
     8
 71
     3
 72
    14
 73
    10
 74
     0
 42
0.0000000001
 43
0.0000000001
 12
1.0
 22
0.0
 32
0.0
 13
1.0
 23
0.0
 33
0.0
 40
0.0
 40
0.0
 40
0.0
 40
0.0
 40
1.0
 40
1.0
 40
1.0
 40
2.0
 40
2.0
 40
2.0
 40
3.0
 40
3.0
 40
3.0
 40
3.0
 10
505.3600353052311
 20
353.1426961334326
 30
0.0
 10
505.3492051087781
 20
353.2323010162254
 30
0.0
 10
505.334917716058
 20
353.3214120138231
 30
0.0
 10
505.3239111320285
 20
353.4110168966163
 30
0.0
 10
505.117008518885
 20
354.6897914620066
 30
0.0
 10
504.6281680225732
 20
355.6711413160819
 30
0.0
 10
503.7303553191147
 20
356.6054309679665
 30
0.0
 10
502.6061315378404
 20
357.7753038510559
 30
0.0
 10
501.0560023431996
 20
358.4400027493277
 30
0.0
 10
499.4335189695648
 20
358.4479754673149
 30
0.0
  0
ENDBLK
  5
BE
330
BB
100
AcDbEntity
  8
0
100
AcDbBlockEnd
  0
BLOCK
  5
C2
330
C0
100
AcDbEntity
  8
0
100
AcDbBlockBegin
  2
block 25
 70
     0
 10
0.0
 20
0.0
 30
0.0
  3
block 25
  1

  0
SPLINE
  5
C4
330
C0
100
AcDbEntity
  8
0
 62
   250
370
    25
100
AcDbSpline
210
0.0
220
0.0
230
1.0
 70
     8
 71
     3
 72
     8
 73
     4
 74
     0
 42
0.0000000001
 43
0.0000000001
 12
1.0
 22
0.0
 32
0.0
 13
1.0
 23
0.0
 33
0.0
 40
0.0
 40
0.0
 40
0.0
 40
0.0
 40
1.0
 40
1.0
 40
1.0
 40
1.0
 10
-54.37323378197011
 20
234.4782443362685
 30
0.0
 10
-57.86034537781159
 20
235.2194248826057
 30
0.0
 10
-61.34745697365628
 20
235.9606407064586
 30
0.0
 10
-64.83456856949743
 20
236.7018565303169
 30
0.0
  0
ENDBLK
  5
C3
330
C0
100
AcDbEntity
  8
0
100
AcDbBlockEnd
  0
BLOCK
  5
C7
330
C5
100
AcDbEntity
  8
0
100
AcDbBlockBegin
  2
block 26
 70
     0
 10
0.0
 20
0.0
 30
0.0
  3
block 26
  1

  0
SPLINE
  5
C9
330
C5
100
AcDbEntity
  8
0
  6
AI-Linetype-14
 62
     6
370
    25
100
AcDbSpline
210
0.0
220
0.0
230
1.0
 70
     8
 71
     3
 72
     8
 73
     4
 74
     0
 42
0.0000000001
 43
0.0000000001
 12
1.0
 22
0.0
 32
0.0
 13
1.0
 23
0.0
 33
0.0
 40
0.0
 40
0.0
 40
0.0
 40
0.0
 40
1.0
 40
1.0
 40
1.0
 40
1.0
 10
-88.56469317204174
 20
345.9600886996123
 30
0.0
 10
-93.68458917522288
 20
348.2240230906795
 30
0.0
 10
-98.78635253681205
 20
349.5267158100409
 30
0.0
 10
-104.3915260076287
 20
349.8441781489399
 30
0.0
  0
ENDBLK
  5
C8
330
C5
100
AcDbEntity
  8
0
100
AcDbBlockEnd
  0
BLOCK
  5
CD
330
CB
100
AcDbEntity
  8
0
100
AcDbBlockBegin
  2
block 27
 70
     0
 10
0.0
 20
0.0
 30
0.0
  3
block 27
  1

  0
SPLINE
  5
CF
330
CB
100
AcDbEntity
  8
0
  6
AI-Linetype-15
 62
     6
370
    25
100
AcDbSpline
210
0.0
220
0.0
230
1.0
 70
     8
 71
     3
 72
     8
 73
     4
 74
     0
 42
0.0000000001
 43
0.0000000001
 12
1.0
 22
0.0
 32
0.0
 13
1.0
 23
0.0
 33
0.0
 40
0.0
 40
0.0
 40
0.0
 40
0.0
 40
1.0
 40
1.0
 40
1.0
 40
1.0
 10
219.7557955049008
 20
239.4686365773576
 30
0.0
 10
219.7786553332656
 20
239.4699065678184
 30
0.0
 10
219.8015151616298
 20
239.4710707257497
 30
0.0
 10
219.8244102675027
 20
239.4721996061539
 30
0.0
  0
ENDBLK
  5
CE
330
CB
100
AcDbEntity
  8
0
100
AcDbBlockEnd
  0
BLOCK
  5
D3
330
D1
100
AcDbEntity
  8
0
100
AcDbBlockBegin
  2
block 28
 70
     0
 10
0.0
 20
0.0
 30
0.0
  3
block 28
  1

  0
SPLINE
  5
D5
330
D1
100
AcDbEntity
  8
0
 62
   250
370
    25
100
AcDbSpline
210
0.0
220
0.0
230
1.0
 70
     8
 71
     3
 72
     8
 73
     4
 74
     0
 42
0.0000000001
 43
0.0000000001
 12
1.0
 22
0.0
 32
0.0
 13
1.0
 23
0.0
 33
0.0
 40
0.0
 40
0.0
 40
0.0
 40
0.0
 40
1.0
 40
1.0
 40
1.0
 40
1.0
 10
328.1870169368153
 20
212.2420871057546
 30
0.0
 10
331.9885570052323
 20
212.1367837295553
 30
0.0
 10
361.8854025339401
 20
211.294568385065
 30
0.0
 10
365.7278997947919
 20
210.0771414144538
 30
0.0
  0
ENDBLK
  5
D4
330
D1
100
AcDbEntity
  8
0
100
AcDbBlockEnd
  0
BLOCK
  5
D8
330
D6
100
AcDbEntity
  8
0
100
AcDbBlockBegin
  2
block 29
 70
     0
 10
0.0
 20
0.0
 30
0.0
  3
block 29
  1

  0
SPLINE
  5
DA
330
D6
100
AcDbEntity
  8
0
 62
   250
370
    25
100
AcDbSpline
210
0.0
220
0.0
230
1.0
 70
     8
 71
     3
 72
    11
 73
     7
 74
     0
 42
0.0000000001
 43
0.0000000001
 12
1.0
 22
0.0
 32
0.0
 13
1.0
 23
0.0
 33
0.0
 40
0.0
 40
0.0
 40
0.0
 40
0.0
 40
1.0
 40
1.0
 40
1.0
 40
2.0
 40
2.0
 40
2.0
 40
2.0
 10
-83.35692929959589
 20
312.6389539944255
 30
0.0
 10
-72.97782639587396
 20
283.149775404371
 30
0.0
 10
-59.80103191702247
 20
254.3149309544142
 30
0.0
 10
-44.15813603476727
 20
227.2476594577564
 30
0.0
 10
-44.38560543798991
 20
227.2695667932877
 30
0.0
 10
-44.61307484121928
 20
227.2913330187629
 30
0.0
 10
-44.84057952195666
 20
227.3129228566659
 30
0.0
  0
ENDBLK
  5
D9
330
D6
100
AcDbEntity
  8
0
100
AcDbBlockEnd
  0
BLOCK
  5
DD
330
DB
100
AcDbEntity
  8
0
100
AcDbBlockBegin
  2
block 30
 70
     0
 10
0.0
 20
0.0
 30
0.0
  3
block 30
  1

  0
SPLINE
  5
DF
330
DB
100
AcDbEntity
  8
0
 62
   250
370
    25
100
AcDbSpline
210
0.0
220
0.0
230
1.0
 70
     8
 71
     3
 72
     8
 73
     4
 74
     0
 42
0.0000000001
 43
0.0000000001
 12
1.0
 22
0.0
 32
0.0
 13
1.0
 23
0.0
 33
0.0
 40
0.0
 40
0.0
 40
0.0
 40
0.0
 40
1.0
 40
1.0
 40
1.0
 40
1.0
 10
-294.7422829285996
 20
352.9627808535272
 30
0.0
 10
-294.7376615744043
 20
353.015309070248
 30
0.0
 10
-294.7323699474652
 20
353.0677314544254
 30
0.0
 10
-294.7263727702729
 20
353.1201185611006
 30
0.0
  0
ENDBLK
  5
DE
330
DB
100
AcDbEntity
  8
0
100
AcDbBlockEnd
  0
BLOCK
  5
E2
330
E0
100
AcDbEntity
  8
0
100
AcDbBlockBegin
  2
block 31
 70
     0
 10
0.0
 20
0.0
 30
0.0
  3
block 31
  1

  0
SPLINE
  5
E4
330
E0
100
AcDbEntity
  8
0
 62
   250
370
    25
100
AcDbSpline
210
0.0
220
0.0
230
1.0
 70
     8
 71
     3
 72
     8
 73
     4
 74
     0
 42
0.0000000001
 43
0.0000000001
 12
1.0
 22
0.0
 32
0.0
 13
1.0
 23
0.0
 33
0.0
 40
0.0
 40
0.0
 40
0.0
 40
0.0
 40
1.0
 40
1.0
 40
1.0
 40
1.0
 10
-294.6265726862222
 20
353.7202596106731
 30
0.0
 10
-294.6056531210688
 20
353.8159675032012
 30
0.0
 10
-294.5823699625501
 20
353.9110404004851
 30
0.0
 10
-294.5567584881674
 20
354.0056546900869
 30
0.0
  0
ENDBLK
  5
E3
330
E0
100
AcDbEntity
  8
0
100
AcDbBlockEnd
  0
BLOCK
  5
E7
330
E5
100
AcDbEntity
  8
0
100
AcDbBlockBegin
  2
block 32
 70
     0
 10
0.0
 20
0.0
 30
0.0
  3
block 32
  1

  0
SPLINE
  5
E9
330
E5
100
AcDbEntity
  8
0
 62
   250
370
    25
100
AcDbSpline
210
0.0
220
0.0
230
1.0
 70
     8
 71
     3
 72
     8
 73
     4
 74
     0
 42
0.0000000001
 43
0.0000000001
 12
1.0
 22
0.0
 32
0.0
 13
1.0
 23
0.0
 33
0.0
 40
0.0
 40
0.0
 40
0.0
 40
0.0
 40
1.0
 40
1.0
 40
1.0
 40
1.0
 10
-291.1170598694653
 20
357.9485517525793
 30
0.0
 10
-290.6499855985565
 20
358.1475522028649
 30
0.0
 10
-290.1765966528478
 20
358.2824181346942
 30
0.0
 10
-289.6747387542302
 20
358.359393667837
 30
0.0
  0
ENDBLK
  5
E8
330
E5
100
AcDbEntity
  8
0
100
AcDbBlockEnd
  0
BLOCK
  5
EC
330
EA
100
AcDbEntity
  8
0
100
AcDbBlockBegin
  2
block 33
 70
     0
 10
0.0
 20
0.0
 30
0.0
  3
block 33
  1

  0
SPLINE
  5
EE
330
EA
100
AcDbEntity
  8
0
  6
AI-Linetype-16
 62
     6
370
    25
100
AcDbSpline
210
0.0
220
0.0
230
1.0
 70
     8
 71
     3
 72
     8
 73
     4
 74
     0
 42
0.0000000001
 43
0.0000000001
 12
1.0
 22
0.0
 32
0.0
 13
1.0
 23
0.0
 33
0.0
 40
0.0
 40
0.0
 40
0.0
 40
0.0
 40
1.0
 40
1.0
 40
1.0
 40
1.0
 10
140.8089549195973
 20
239.4723759972665
 30
0.0
 10
140.8325555757349
 20
239.4712471168567
 30
0.0
 10
140.8561209543587
 20
239.4700124039035
 30
0.0
 10
140.879721610484
 20
239.4687424134424
 30
0.0
  0
ENDBLK
  5
ED
330
EA
100
AcDbEntity
  8
0
100
AcDbBlockEnd
  0
BLOCK
  5
F2
330
F0
100
AcDbEntity
  8
0
100
AcDbBlockBegin
  2
block 34
 70
     0
 10
0.0
 20
0.0
 30
0.0
  3
block 34
  1

  0
SPLINE
  5
F4
330
F0
100
AcDbEntity
  8
0
  6
AI-Linetype-17
 62
     6
370
    25
100
AcDbSpline
210
0.0
220
0.0
230
1.0
 70
     8
 71
     3
 72
     8
 73
     4
 74
     0
 42
0.0000000001
 43
0.0000000001
 12
1.0
 22
0.0
 32
0.0
 13
1.0
 23
0.0
 33
0.0
 40
0.0
 40
0.0
 40
0.0
 40
0.0
 40
1.0
 40
1.0
 40
1.0
 40
1.0
 10
56.85675720871672
 20
252.9089965719208
 30
0.0
 10
74.12873336051352
 20
247.9166287770219
 30
0.0
 10
98.04837597437502
 20
242.860816391468
 30
0.0
 10
115.9319230900794
 20
241.0506919258647
 30
0.0
  0
ENDBLK
  5
F3
330
F0
100
AcDbEntity
  8
0
100
AcDbBlockEnd
  0
BLOCK
  5
F8
330
F6
100
AcDbEntity
  8
0
100
AcDbBlockBegin
  2
block 35
 70
     0
 10
0.0
 20
0.0
 30
0.0
  3
block 35
  1

  0
SPLINE
  5
FA
330
F6
100
AcDbEntity
  8
0
 62
   250
370
    25
100
AcDbSpline
210
0.0
220
0.0
230
1.0
 70
     8
 71
     3
 72
    17
 73
    13
 74
     0
 42
0.0000000001
 43
0.0000000001
 12
1.0
 22
0.0
 32
0.0
 13
1.0
 23
0.0
 33
0.0
 40
0.0
 40
0.0
 40
0.0
 40
0.0
 40
1.0
 40
1.0
 40
1.0
 40
2.0
 40
2.0
 40
2.0
 40
3.0
 40
3.0
 40
3.0
 40
4.0
 40
4.0
 40
4.0
 40
4.0
 10
-2.782446414360589
 20
210.4499894649226
 30
0.0
 10
-1.987714603575985
 20
210.5454151372971
 30
0.0
 10
-1.191642247302027
 20
210.6251775939414
 30
0.0
 10
-0.3945468431537625
 20
210.6974964953713
 30
0.0
 10
1.18002966795979
 20
210.8404057000844
 30
0.0
 10
2.756087834619746
 20
210.9582325931258
 30
0.0
 10
4.333839321898845
 20
211.0593026675346
 30
0.0
 10
7.489024798835579
 20
211.2614428163568
 30
0.0
 10
10.64544498871872
 20
211.4338440217901
 30
0.0
 10
13.80387599684311
 20
211.5765415613535
 30
0.0
 10
20.12077329059925
 20
211.8619366404931
 30
0.0
 10
26.43946973751748
 20
212.0751186507139
 30
0.0
 10
32.76014172515227
 20
212.2507653871931
 30
0.0
  0
ENDBLK
  5
F9
330
F6
100
AcDbEntity
  8
0
100
AcDbBlockEnd
  0
BLOCK
  5
FD
330
FB
100
AcDbEntity
  8
0
100
AcDbBlockBegin
  2
block 36
 70
     0
 10
0.0
 20
0.0
 30
0.0
  3
block 36
  1

  0
POLYLINE
  5
FF
330
FB
100
AcDbEntity
  8
0
 62
   250
370
    25
100
AcDb2dPolyline
 66
     1
 10
0.0
 20
0.0
 30
0.0
  0
VERTEX
  5
100
330
FF
100
AcDbEntity
  8
0
 62
   250
370
    25
100
AcDbVertex
100
AcDb2dVertex
 10
-64.83456856949743
 20
236.7018565303169
 30
0.0
  0
VERTEX
  5
101
330
FF
100
AcDbEntity
  8
0
 62
   250
370
    25
100
AcDbVertex
100
AcDb2dVertex
 10
-212.7165621305887
 20
268.1351435853549
 30
0.0
  0
SEQEND
  5
102
330
FF
100
AcDbEntity
  8
0
 62
   250
370
    25
  0
ENDBLK
  5
FE
330
FB
100
AcDbEntity
  8
0
100
AcDbBlockEnd
  0
BLOCK
  5
105
330
103
100
AcDbEntity
  8
0
100
AcDbBlockBegin
  2
block 37
 70
     0
 10
0.0
 20
0.0
 30
0.0
  3
block 37
  1

  0
SPLINE
  5
107
330
103
100
AcDbEntity
  8
0
  6
AI-Linetype-18
 62
     6
370
    25
100
AcDbSpline
210
0.0
220
0.0
230
1.0
 70
     8
 71
     3
 72
    74
 73
    70
 74
     0
 42
0.0000000001
 43
0.0000000001
 12
1.0
 22
0.0
 32
0.0
 13
1.0
 23
0.0
 33
0.0
 40
0.0
 40
0.0
 40
0.0
 40
0.0
 40
1.0
 40
1.0
 40
1.0
 40
2.0
 40
2.0
 40
2.0
 40
3.0
 40
3.0
 40
3.0
 40
4.0
 40
4.0
 40
4.0
 40
5.0
 40
5.0
 40
5.0
 40
6.0
 40
6.0
 40
6.0
 40
7.0
 40
7.0
 40
7.0
 40
8.0
 40
8.0
 40
8.0
 40
9.0
 40
9.0
 40
9.0
 40
10.0
 40
10.0
 40
10.0
 40
11.0
 40
11.0
 40
11.0
 40
12.0
 40
12.0
 40
12.0
 40
13.0
 40
13.0
 40
13.0
 40
14.0
 40
14.0
 40
14.0
 40
15.0
 40
15.0
 40
15.0
 40
16.0
 40
16.0
 40
16.0
 40
17.0
 40
17.0
 40
17.0
 40
18.0
 40
18.0
 40
18.0
 40
19.0
 40
19.0
 40
19.0
 40
20.0
 40
20.0
 40
20.0
 40
21.0
 40
21.0
 40
21.0
 40
22.0
 40
22.0
 40
22.0
 40
23.0
 40
23.0
 40
23.0
 40
23.0
 10
167.8187240729608
 20
316.3283889463615
 30
0.0
 10
167.8187240729737
 20
316.5602680387037
 30
0.0
 10
167.8187240729865
 20
316.792111853531
 30
0.0
 10
167.8187240729929
 20
317.0239909458733
 30
0.0
 10
167.8187240730057
 20
317.3222975950169
 30
0.0
 10
167.8295542694844
 20
317.6196164738017
 30
0.0
 10
167.8512852174448
 20
317.9171470176653
 30
0.0
 10
167.961739110428
 20
319.4534474272638
 30
0.0
 10
168.3677127290342
 20
320.9674171711802
 30
0.0
 10
169.0367154838705
 20
322.3545642561808
 30
0.0
 10
169.7160898275075
 20
323.7631953465497
 30
0.0
 10
170.6666776903704
 20
325.0410174190354
 30
0.0
 10
171.8201465299508
 20
326.0968733803082
 30
0.0
 10
172.97072261348
 20
327.150083528109
 30
0.0
 10
174.3231566258406
 20
327.9824211675797
 30
0.0
 10
175.7798356888455
 20
328.5406878092808
 30
0.0
 10
176.5018605455312
 20
328.8174046204961
 30
0.0
 10
177.2494968765888
 20
329.0267766595649
 30
0.0
 10
178.0099389448325
 20
329.1671811609009
 30
0.0
 10
178.7709454532788
 20
329.3076562172668
 30
0.0
 10
179.5447929764122
 20
329.3790579033588
 30
0.0
 10
180.3186404995456
 20
329.3786698506761
 30
0.0
 10
181.0924880226919
 20
329.3790579032944
 30
0.0
 10
181.8663355458259
 20
329.3076562171259
 30
0.0
 10
182.6273420542594
 20
329.1671811606891
 30
0.0
 10
183.3877841224839
 20
329.0267766592883
 30
0.0
 10
184.1354204535221
 20
328.8174046201496
 30
0.0
 10
184.8574453101822
 20
328.5406878088766
 30
0.0
 10
186.3141243731358
 20
327.9824211670407
 30
0.0
 10
187.6665583854322
 20
327.150083527448
 30
0.0
 10
188.8171344688587
 20
326.0968733795445
 30
0.0
 10
189.9705680308355
 20
325.0410174181691
 30
0.0
 10
190.9211911710896
 20
323.7631953455935
 30
0.0
 10
191.6005655146047
 20
322.3545642551734
 30
0.0
 10
192.2695682693133
 20
320.9674171701082
 30
0.0
 10
192.6755418877905
 20
319.4534474261537
 30
0.0
 10
192.7859605031188
 20
317.9171470165423
 30
0.0
 10
192.8076914510535
 20
317.6196164726852
 30
0.0
 10
192.8185569250145
 20
317.3222975938939
 30
0.0
 10
192.8185569250017
 20
317.0239909447506
 30
0.0
 10
192.8186274799914
 20
316.212678702904
 30
0.0
 10
192.7370658701083
 20
315.4018250687302
 30
0.0
 10
192.5771529040662
 20
314.6065640952639
 30
0.0
 10
192.4171693829964
 20
313.8109503466749
 30
0.0
 10
192.178728673225
 20
313.0309645362956
 30
0.0
 10
191.8652174159836
 20
312.282516822468
 30
0.0
 10
191.2377715713439
 20
310.7845983469322
 30
0.0
 10
190.3095496516536
 20
309.4130792001599
 30
0.0
 10
189.1547049890621
 20
308.2712872174505
 30
0.0
 10
187.9966147952899
 20
307.1262497035538
 30
0.0
 10
186.6105613131148
 20
306.2122798992107
 30
0.0
 10
185.1034706841731
 20
305.5949234233914
 30
0.0
 10
183.5899242703698
 20
304.9748858566066
 30
0.0
 10
181.9542823843994
 20
304.6540368767837
 30
0.0
 10
180.3186404984419
 20
304.654177986911
 30
0.0
 10
178.6826811148693
 20
304.6540368769316
 30
0.0
 10
177.0467217313218
 20
304.975026966946
 30
0.0
 10
175.5329283749772
 20
305.5952761989508
 30
0.0
 10
174.0261552436961
 20
306.2126326749049
 30
0.0
 10
172.6404192592258
 20
307.1264966468276
 30
0.0
 10
171.4825407306288
 20
308.2712872182466
 30
0.0
 10
170.3276960681399
 20
309.413079201058
 30
0.0
 10
169.399474148578
 20
310.7846336254285
 30
0.0
 10
168.7720283040794
 20
312.2825521010155
 30
0.0
 10
168.4585170469029
 20
313.0309998148746
 30
0.0
 10
168.2200763371956
 20
313.8109856252673
 30
0.0
 10
168.0600928161958
 20
314.6065993738756
 30
0.0
 10
167.9001798502249
 20
315.4018250698397
 30
0.0
 10
167.8186535179326
 20
316.212678704027
 30
0.0
 10
167.8187240729929
 20
317.0239909458733
 30
0.0
  0
ENDBLK
  5
106
330
103
100
AcDbEntity
  8
0
100
AcDbBlockEnd
  0
BLOCK
  5
10B
330
109
100
AcDbEntity
  8
0
100
AcDbBlockBegin
  2
block 38
 70
     0
 10
0.0
 20
0.0
 30
0.0
  3
block 38
  1

  0
SPLINE
  5
10D
330
109
100
AcDbEntity
  8
0
 62
   250
370
    25
100
AcDbSpline
210
0.0
220
0.0
230
1.0
 70
     8
 71
     3
 72
    11
 73
     7
 74
     0
 42
0.0000000001
 43
0.0000000001
 12
1.0
 22
0.0
 32
0.0
 13
1.0
 23
0.0
 33
0.0
 40
0.0
 40
0.0
 40
0.0
 40
0.0
 40
1.0
 40
1.0
 40
1.0
 40
2.0
 40
2.0
 40
2.0
 40
2.0
 10
502.5531799909511
 20
357.5303720789412
 30
0.0
 10
501.5573310791153
 20
358.1446594112447
 30
0.0
 10
500.5798617514903
 20
358.42243454792
 30
0.0
 10
499.4097772033779
 20
358.4237045384334
 30
0.0
 10
499.4173265911397
 20
358.4321711415346
 30
0.0
 10
499.426675132053
 20
358.4386974814176
 30
0.0
 10
499.4335189695648
 20
358.4479754673149
 30
0.0
  0
ENDBLK
  5
10C
330
109
100
AcDbEntity
  8
0
100
AcDbBlockEnd
  0
BLOCK
  5
110
330
10E
100
AcDbEntity
  8
0
100
AcDbBlockBegin
  2
block 39
 70
     0
 10
0.0
 20
0.0
 30
0.0
  3
block 39
  1

  0
SPLINE
  5
112
330
10E
100
AcDbEntity
  8
0
  6
AI-Linetype-19
 62
     6
370
    25
100
AcDbSpline
210
0.0
220
0.0
230
1.0
 70
     8
 71
     3
 72
     8
 73
     4
 74
     0
 42
0.0000000001
 43
0.0000000001
 12
1.0
 22
0.0
 32
0.0
 13
1.0
 23
0.0
 33
0.0
 40
0.0
 40
0.0
 40
0.0
 40
0.0
 40
1.0
 40
1.0
 40
1.0
 40
1.0
 10
-89.32883937911026
 20
346.2819254499048
 30
0.0
 10
-89.28569498082722
 20
346.2637575307474
 30
0.0
 10
-89.24255058254707
 20
346.2455190565743
 30
0.0
 10
-89.19947673928613
 20
346.2272100273663
 30
0.0
  0
ENDBLK
  5
111
330
10E
100
AcDbEntity
  8
0
100
AcDbBlockEnd
  0
BLOCK
  5
116
330
114
100
AcDbEntity
  8
0
100
AcDbBlockBegin
  2
block 40
 70
     0
 10
0.0
 20
0.0
 30
0.0
  3
block 40
  1

  0
SPLINE
  5
118
330
114
100
AcDbEntity
  8
0
 62
   250
370
    25
100
AcDbSpline
210
0.0
220
0.0
230
1.0
 70
     8
 71
     3
 72
    11
 73
     7
 74
     0
 42
0.0000000001
 43
0.0000000001
 12
1.0
 22
0.0
 32
0.0
 13
1.0
 23
0.0
 33
0.0
 40
0.0
 40
0.0
 40
0.0
 40
0.0
 40
1.0
 40
1.0
 40
1.0
 40
2.0
 40
2.0
 40
2.0
 40
2.0
 10
-288.7558300980065
 20
358.4481518902712
 30
0.0
 10
-288.7689533328093
 20
358.4481166127546
 30
0.0
 10
-288.7820412900955
 20
358.4480460577318
 30
0.0
 10
-288.7951292473849
 20
358.4479755027056
 30
0.0
 10
-291.0557828295239
 20
358.4369336412687
 30
0.0
 10
-293.1183178992279
 20
357.1561482577399
 30
0.0
 10
-294.1305708546812
 20
355.1347820457009
 30
0.0
  0
ENDBLK
  5
117
330
114
100
AcDbEntity
  8
0
100
AcDbBlockEnd
  0
BLOCK
  5
11B
330
119
100
AcDbEntity
  8
0
100
AcDbBlockBegin
  2
block 41
 70
     0
 10
0.0
 20
0.0
 30
0.0
  3
block 41
  1

  0
SPLINE
  5
11D
330
119
100
AcDbEntity
  8
0
  6
AI-Linetype-20
 62
     6
370
    25
100
AcDbSpline
210
0.0
220
0.0
230
1.0
 70
     8
 71
     3
 72
   758
 73
   754
 74
     0
 42
0.0000000001
 43
0.0000000001
 12
1.0
 22
0.0
 32
0.0
 13
1.0
 23
0.0
 33
0.0
 40
0.0
 40
0.0
 40
0.0
 40
0.0
 40
1.0
 40
1.0
 40
1.0
 40
2.0
 40
2.0
 40
2.0
 40
3.0
 40
3.0
 40
3.0
 40
4.0
 40
4.0
 40
4.0
 40
5.0
 40
5.0
 40
5.0
 40
6.0
 40
6.0
 40
6.0
 40
7.0
 40
7.0
 40
7.0
 40
8.0
 40
8.0
 40
8.0
 40
9.0
 40
9.0
 40
9.0
 40
10.0
 40
10.0
 40
10.0
 40
11.0
 40
11.0
 40
11.0
 40
12.0
 40
12.0
 40
12.0
 40
13.0
 40
13.0
 40
13.0
 40
14.0
 40
14.0
 40
14.0
 40
15.0
 40
15.0
 40
15.0
 40
16.0
 40
16.0
 40
16.0
 40
17.0
 40
17.0
 40
17.0
 40
18.0
 40
18.0
 40
18.0
 40
19.0
 40
19.0
 40
19.0
 40
20.0
 40
20.0
 40
20.0
 40
21.0
 40
21.0
 40
21.0
 40
22.0
 40
22.0
 40
22.0
 40
23.0
 40
23.0
 40
23.0
 40
24.0
 40
24.0
 40
24.0
 40
25.0
 40
25.0
 40
25.0
 40
26.0
 40
26.0
 40
26.0
 40
27.0
 40
27.0
 40
27.0
 40
28.0
 40
28.0
 40
28.0
 40
29.0
 40
29.0
 40
29.0
 40
30.0
 40
30.0
 40
30.0
 40
31.0
 40
31.0
 40
31.0
 40
32.0
 40
32.0
 40
32.0
 40
33.0
 40
33.0
 40
33.0
 40
34.0
 40
34.0
 40
34.0
 40
35.0
 40
35.0
 40
35.0
 40
36.0
 40
36.0
 40
36.0
 40
37.0
 40
37.0
 40
37.0
 40
38.0
 40
38.0
 40
38.0
 40
39.0
 40
39.0
 40
39.0
 40
40.0
 40
40.0
 40
40.0
 40
41.0
 40
41.0
 40
41.0
 40
42.0
 40
42.0
 40
42.0
 40
43.0
 40
43.0
 40
43.0
 40
44.0
 40
44.0
 40
44.0
 40
45.0
 40
45.0
 40
45.0
 40
46.0
 40
46.0
 40
46.0
 40
47.0
 40
47.0
 40
47.0
 40
48.0
 40
48.0
 40
48.0
 40
49.0
 40
49.0
 40
49.0
 40
50.0
 40
50.0
 40
50.0
 40
51.0
 40
51.0
 40
51.0
 40
52.0
 40
52.0
 40
52.0
 40
53.0
 40
53.0
 40
53.0
 40
54.0
 40
54.0
 40
54.0
 40
55.0
 40
55.0
 40
55.0
 40
56.0
 40
56.0
 40
56.0
 40
57.0
 40
57.0
 40
57.0
 40
58.0
 40
58.0
 40
58.0
 40
59.0
 40
59.0
 40
59.0
 40
60.0
 40
60.0
 40
60.0
 40
61.0
 40
61.0
 40
61.0
 40
62.0
 40
62.0
 40
62.0
 40
63.0
 40
63.0
 40
63.0
 40
64.0
 40
64.0
 40
64.0
 40
65.0
 40
65.0
 40
65.0
 40
66.0
 40
66.0
 40
66.0
 40
67.0
 40
67.0
 40
67.0
 40
68.0
 40
68.0
 40
68.0
 40
69.0
 40
69.0
 40
69.0
 40
70.0
 40
70.0
 40
70.0
 40
71.0
 40
71.0
 40
71.0
 40
72.0
 40
72.0
 40
72.0
 40
73.0
 40
73.0
 40
73.0
 40
74.0
 40
74.0
 40
74.0
 40
75.0
 40
75.0
 40
75.0
 40
76.0
 40
76.0
 40
76.0
 40
77.0
 40
77.0
 40
77.0
 40
78.0
 40
78.0
 40
78.0
 40
79.0
 40
79.0
 40
79.0
 40
80.0
 40
80.0
 40
80.0
 40
81.0
 40
81.0
 40
81.0
 40
82.0
 40
82.0
 40
82.0
 40
83.0
 40
83.0
 40
83.0
 40
84.0
 40
84.0
 40
84.0
 40
85.0
 40
85.0
 40
85.0
 40
86.0
 40
86.0
 40
86.0
 40
87.0
 40
87.0
 40
87.0
 40
88.0
 40
88.0
 40
88.0
 40
89.0
 40
89.0
 40
89.0
 40
90.0
 40
90.0
 40
90.0
 40
91.0
 40
91.0
 40
91.0
 40
92.0
 40
92.0
 40
92.0
 40
93.0
 40
93.0
 40
93.0
 40
94.0
 40
94.0
 40
94.0
 40
95.0
 40
95.0
 40
95.0
 40
96.0
 40
96.0
 40
96.0
 40
97.0
 40
97.0
 40
97.0
 40
98.0
 40
98.0
 40
98.0
 40
99.0
 40
99.0
 40
99.0
 40
100.0
 40
100.0
 40
100.0
 40
101.0
 40
101.0
 40
101.0
 40
102.0
 40
102.0
 40
102.0
 40
103.0
 40
103.0
 40
103.0
 40
104.0
 40
104.0
 40
104.0
 40
105.0
 40
105.0
 40
105.0
 40
106.0
 40
106.0
 40
106.0
 40
107.0
 40
107.0
 40
107.0
 40
108.0
 40
108.0
 40
108.0
 40
109.0
 40
109.0
 40
109.0
 40
110.0
 40
110.0
 40
110.0
 40
111.0
 40
111.0
 40
111.0
 40
112.0
 40
112.0
 40
112.0
 40
113.0
 40
113.0
 40
113.0
 40
114.0
 40
114.0
 40
114.0
 40
115.0
 40
115.0
 40
115.0
 40
116.0
 40
116.0
 40
116.0
 40
117.0
 40
117.0
 40
117.0
 40
118.0
 40
118.0
 40
118.0
 40
119.0
 40
119.0
 40
119.0
 40
120.0
 40
120.0
 40
120.0
 40
121.0
 40
121.0
 40
121.0
 40
122.0
 40
122.0
 40
122.0
 40
123.0
 40
123.0
 40
123.0
 40
124.0
 40
124.0
 40
124.0
 40
125.0
 40
125.0
 40
125.0
 40
126.0
 40
126.0
 40
126.0
 40
127.0
 40
127.0
 40
127.0
 40
128.0
 40
128.0
 40
128.0
 40
129.0
 40
129.0
 40
129.0
 40
130.0
 40
130.0
 40
130.0
 40
131.0
 40
131.0
 40
131.0
 40
132.0
 40
132.0
 40
132.0
 40
133.0
 40
133.0
 40
133.0
 40
134.0
 40
134.0
 40
134.0
 40
135.0
 40
135.0
 40
135.0
 40
136.0
 40
136.0
 40
136.0
 40
137.0
 40
137.0
 40
137.0
 40
138.0
 40
138.0
 40
138.0
 40
139.0
 40
139.0
 40
139.0
 40
140.0
 40
140.0
 40
140.0
 40
141.0
 40
141.0
 40
141.0
 40
142.0
 40
142.0
 40
142.0
 40
143.0
 40
143.0
 40
143.0
 40
144.0
 40
144.0
 40
144.0
 40
145.0
 40
145.0
 40
145.0
 40
146.0
 40
146.0
 40
146.0
 40
147.0
 40
147.0
 40
147.0
 40
148.0
 40
148.0
 40
148.0
 40
149.0
 40
149.0
 40
149.0
 40
150.0
 40
150.0
 40
150.0
 40
151.0
 40
151.0
 40
151.0
 40
152.0
 40
152.0
 40
152.0
 40
153.0
 40
153.0
 40
153.0
 40
154.0
 40
154.0
 40
154.0
 40
155.0
 40
155.0
 40
155.0
 40
156.0
 40
156.0
 40
156.0
 40
157.0
 40
157.0
 40
157.0
 40
158.0
 40
158.0
 40
158.0
 40
159.0
 40
159.0
 40
159.0
 40
160.0
 40
160.0
 40
160.0
 40
161.0
 40
161.0
 40
161.0
 40
162.0
 40
162.0
 40
162.0
 40
163.0
 40
163.0
 40
163.0
 40
164.0
 40
164.0
 40
164.0
 40
165.0
 40
165.0
 40
165.0
 40
166.0
 40
166.0
 40
166.0
 40
167.0
 40
167.0
 40
167.0
 40
168.0
 40
168.0
 40
168.0
 40
169.0
 40
169.0
 40
169.0
 40
170.0
 40
170.0
 40
170.0
 40
171.0
 40
171.0
 40
171.0
 40
172.0
 40
172.0
 40
172.0
 40
173.0
 40
173.0
 40
173.0
 40
174.0
 40
174.0
 40
174.0
 40
175.0
 40
175.0
 40
175.0
 40
176.0
 40
176.0
 40
176.0
 40
177.0
 40
177.0
 40
177.0
 40
178.0
 40
178.0
 40
178.0
 40
179.0
 40
179.0
 40
179.0
 40
180.0
 40
180.0
 40
180.0
 40
181.0
 40
181.0
 40
181.0
 40
182.0
 40
182.0
 40
182.0
 40
183.0
 40
183.0
 40
183.0
 40
184.0
 40
184.0
 40
184.0
 40
185.0
 40
185.0
 40
185.0
 40
186.0
 40
186.0
 40
186.0
 40
187.0
 40
187.0
 40
187.0
 40
188.0
 40
188.0
 40
188.0
 40
189.0
 40
189.0
 40
189.0
 40
190.0
 40
190.0
 40
190.0
 40
191.0
 40
191.0
 40
191.0
 40
192.0
 40
192.0
 40
192.0
 40
193.0
 40
193.0
 40
193.0
 40
194.0
 40
194.0
 40
194.0
 40
195.0
 40
195.0
 40
195.0
 40
196.0
 40
196.0
 40
196.0
 40
197.0
 40
197.0
 40
197.0
 40
198.0
 40
198.0
 40
198.0
 40
199.0
 40
199.0
 40
199.0
 40
200.0
 40
200.0
 40
200.0
 40
201.0
 40
201.0
 40
201.0
 40
202.0
 40
202.0
 40
202.0
 40
203.0
 40
203.0
 40
203.0
 40
204.0
 40
204.0
 40
204.0
 40
205.0
 40
205.0
 40
205.0
 40
206.0
 40
206.0
 40
206.0
 40
207.0
 40
207.0
 40
207.0
 40
208.0
 40
208.0
 40
208.0
 40
209.0
 40
209.0
 40
209.0
 40
210.0
 40
210.0
 40
210.0
 40
211.0
 40
211.0
 40
211.0
 40
212.0
 40
212.0
 40
212.0
 40
213.0
 40
213.0
 40
213.0
 40
214.0
 40
214.0
 40
214.0
 40
215.0
 40
215.0
 40
215.0
 40
216.0
 40
216.0
 40
216.0
 40
217.0
 40
217.0
 40
217.0
 40
218.0
 40
218.0
 40
218.0
 40
219.0
 40
219.0
 40
219.0
 40
220.0
 40
220.0
 40
220.0
 40
221.0
 40
221.0
 40
221.0
 40
222.0
 40
222.0
 40
222.0
 40
223.0
 40
223.0
 40
223.0
 40
224.0
 40
224.0
 40
224.0
 40
225.0
 40
225.0
 40
225.0
 40
226.0
 40
226.0
 40
226.0
 40
227.0
 40
227.0
 40
227.0
 40
228.0
 40
228.0
 40
228.0
 40
229.0
 40
229.0
 40
229.0
 40
230.0
 40
230.0
 40
230.0
 40
231.0
 40
231.0
 40
231.0
 40
232.0
 40
232.0
 40
232.0
 40
233.0
 40
233.0
 40
233.0
 40
234.0
 40
234.0
 40
234.0
 40
235.0
 40
235.0
 40
235.0
 40
236.0
 40
236.0
 40
236.0
 40
237.0
 40
237.0
 40
237.0
 40
238.0
 40
238.0
 40
238.0
 40
239.0
 40
239.0
 40
239.0
 40
240.0
 40
240.0
 40
240.0
 40
241.0
 40
241.0
 40
241.0
 40
242.0
 40
242.0
 40
242.0
 40
243.0
 40
243.0
 40
243.0
 40
244.0
 40
244.0
 40
244.0
 40
245.0
 40
245.0
 40
245.0
 40
246.0
 40
246.0
 40
246.0
 40
247.0
 40
247.0
 40
247.0
 40
248.0
 40
248.0
 40
248.0
 40
249.0
 40
249.0
 40
249.0
 40
250.0
 40
250.0
 40
250.0
 40
251.0
 40
251.0
 40
251.0
 40
251.0
 10
143.4992886077601
 20
213.1405348127807
 30
0.0
 10
143.7895167061574
 20
206.7488491916496
 30
0.0
 10
144.0797800820814
 20
200.3571635705312
 30
0.0
 10
144.3700081804793
 20
193.9654779494068
 30
0.0
 10
144.3757584150813
 20
193.8374205775576
 30
0.0
 10
144.394032166756
 20
193.7098923683968
 30
0.0
 10
144.4241944402906
 20
193.5853274703163
 30
0.0
 10
144.4541450487478
 20
193.4617856201162
 30
0.0
 10
144.4957725139668
 20
193.341171803476
 30
0.0
 10
144.5485829507874
 20
193.2255673936841
 30
0.0
 10
144.6547682646256
 20
192.9930885836133
 30
0.0
 10
144.806002962447
 20
192.7810001760069
 30
0.0
 10
144.9914215702869
 20
192.6051770516736
 30
0.0
 10
145.1727127091022
 20
192.4332344537522
 30
0.0
 10
145.3866708248929
 20
192.2959343735074
 30
0.0
 10
145.6183029746413
 20
192.202025634142
 30
0.0
 10
145.7347187672218
 20
192.1548595993681
 30
0.0
 10
145.8555795264432
 20
192.1186295936151
 30
0.0
 10
145.9788744340558
 20
192.0947467173699
 30
0.0
 10
146.0266049090203
 20
192.0855040089864
 30
0.0
 10
146.0747234366268
 20
192.0780957312791
 30
0.0
 10
146.123053629307
 20
192.0729804919014
 30
0.0
 10
146.2044035740663
 20
192.0643727787426
 30
0.0
 10
146.2864237915836
 20
192.0622208504574
 30
0.0
 10
146.3679501239144
 20
192.0562589507696
 30
0.0
 10
146.3721481479414
 20
192.0562589507696
 30
0.0
 10
146.3763461719813
 20
192.0562589507696
 30
0.0
 10
146.3805441960211
 20
192.0562589507696
 30
0.0
 10
146.4046387373324
 20
192.0562589507696
 30
0.0
 10
146.4286980011298
 20
192.0562589507696
 30
0.0
 10
146.4527925424546
 20
192.0562589507635
 30
0.0
 10
146.4642930116585
 20
192.0562589507635
 30
0.0
 10
146.475793480863
 20
192.0562589507635
 30
0.0
 10
146.4872939500804
 20
192.0562589507635
 30
0.0
 10
146.4917741942087
 20
192.0562589507635
 30
0.0
 10
146.4962544383498
 20
192.0562589507635
 30
0.0
 10
146.5007699600111
 20
192.0562589507635
 30
0.0
 10
146.5134698646547
 20
192.0562589507635
 30
0.0
 10
146.5262050468127
 20
192.0562589507635
 30
0.0
 10
146.5389049514562
 20
192.0562589507635
 30
0.0
 10
146.5457840664754
 20
192.0562589507635
 30
0.0
 10
146.5526631814946
 20
192.0562589507635
 30
0.0
 10
146.5595070189994
 20
192.0562589507635
 30
0.0
 10
146.5729124738955
 20
192.0562589507635
 30
0.0
 10
146.5863179288044
 20
192.0562589507635
 30
0.0
 10
146.5997233837134
 20
192.0562589507635
 30
0.0
 10
146.6094952547843
 20
192.0562589507635
 30
0.0
 10
146.6193024033691
 20
192.0562589507635
 30
0.0
 10
146.6291095519673
 20
192.0562589507635
 30
0.0
 10
146.642620839406
 20
192.0562589507635
 30
0.0
 10
146.6561321268454
 20
192.0562589507568
 30
0.0
 10
146.6696434142963
 20
192.0562589507568
 30
0.0
 10
146.6829430366627
 20
192.0562589507568
 30
0.0
 10
146.6962073815152
 20
192.0562589507568
 30
0.0
 10
146.7095070038815
 20
192.0562589507568
 30
0.0
 10
146.7225596836475
 20
192.0562589507503
 30
0.0
 10
146.7356123634269
 20
192.0562589507503
 30
0.0
 10
146.7486650432064
 20
192.0562589507503
 30
0.0
 10
146.7660215795555
 20
192.0562589507503
 30
0.0
 10
146.7833781159046
 20
192.0562589507503
 30
0.0
 10
146.8007699297688
 20
192.0562589507503
 30
0.0
 10
146.8127290066454
 20
192.0562589507503
 30
0.0
 10
146.8247233610358
 20
192.0562589507503
 30
0.0
 10
146.8367177154269
 20
192.0562589507503
 30
0.0
 10
146.8637755678181
 20
192.0562589507503
 30
0.0
 10
146.8908686977373
 20
192.0562589507503
 30
0.0
 10
146.9179618276436
 20
192.0562589507503
 30
0.0
 10
146.9232181770782
 20
192.0562589507503
 30
0.0
 10
146.9284392489863
 20
192.0562589507503
 30
0.0
 10
146.9336955984024
 20
192.0562589507503
 30
0.0
 10
147.0072139353095
 20
192.0562589507439
 30
0.0
 10
147.0807675497176
 20
192.0562589507375
 30
0.0
 10
147.1542858866119
 20
192.0562589507375
 30
0.0
 10
147.2394105252662
 20
192.0562589507311
 30
0.0
 10
147.3245351639077
 20
192.0562589507244
 30
0.0
 10
147.4096598025491
 20
192.0562589507244
 30
0.0
 10
147.4096598025491
 20
192.0562589507244
 30
0.0
 10
147.415939199852
 20
192.0562589507244
 30
0.0
 10
147.419043620989
 20
192.0562589507244
 30
0.0
 10
147.4627524594839
 20
192.0562589507244
 30
0.0
 10
147.5064965754804
 20
192.0562589507244
 30
0.0
 10
147.5502054139752
 20
192.0562589507182
 30
0.0
 10
147.5584250744841
 20
192.0562589507182
 30
0.0
 10
147.566644734993
 20
192.0562589507182
 30
0.0
 10
147.5748643955019
 20
192.0562589507182
 30
0.0
 10
147.6162801956485
 20
192.0562589507119
 30
0.0
 10
147.6576959958072
 20
192.0562589507119
 30
0.0
 10
147.6991470734683
 20
192.0562589507119
 30
0.0
 10
147.7992999326096
 20
192.0562589507054
 30
0.0
 10
147.8994527917631
 20
192.056258950699
 30
0.0
 10
147.99957037339
 20
192.056258950699
 30
0.0
 10
148.0332251206999
 20
192.056258950699
 30
0.0
 10
148.0668798680225
 20
192.056258950699
 30
0.0
 10
148.1004993378185
 20
192.0562589506923
 30
0.0
 10
148.1205016876326
 20
192.0562589506923
 30
0.0
 10
148.1404687599457
 20
192.0562589506923
 30
0.0
 10
148.1604711097597
 20
192.0562589506862
 30
0.0
 10
148.1720774115068
 20
192.0562589506862
 30
0.0
 10
148.183683713254
 20
192.0562589506862
 30
0.0
 10
148.1952547374867
 20
192.0562589506862
 30
0.0
 10
148.3765105988005
 20
192.0562589506798
 30
0.0
 10
148.5577664601265
 20
192.0562589506733
 30
0.0
 10
148.7390223214403
 20
192.0562589506608
 30
0.0
 10
148.7637518579951
 20
192.0562589506608
 30
0.0
 10
148.7884461170233
 20
192.0562589506608
 30
0.0
 10
148.8131756535782
 20
192.0562589506608
 30
0.0
 10
148.849088161709
 20
192.0562589506608
 30
0.0
 10
148.8850359473678
 20
192.0562589506608
 30
0.0
 10
148.9209484555114
 20
192.0562589506608
 30
0.0
 10
148.9496996285225
 20
192.0562589506538
 30
0.0
 10
148.9784508015463
 20
192.0562589506538
 30
0.0
 10
149.0072019745695
 20
192.0562589506538
 30
0.0
 10
149.047982779486
 20
192.0562589506477
 30
0.0
 10
149.0887635844019
 20
192.0562589506477
 30
0.0
 10
149.1295443893306
 20
192.0562589506477
 30
0.0
 10
149.1459484328339
 20
192.0562589506477
 30
0.0
 10
149.1623877538516
 20
192.0562589506477
 30
0.0
 10
149.1787917973428
 20
192.0562589506477
 30
0.0
 10
149.3217715571608
 20
192.0562589506348
 30
0.0
 10
149.4647513169794
 20
192.0562589506348
 30
0.0
 10
149.6077310767852
 20
192.056258950622
 30
0.0
 10
149.6130579812417
 20
192.056258950622
 30
0.0
 10
149.6183848856859
 20
192.056258950622
 30
0.0
 10
149.6237470676511
 20
192.056258950622
 30
0.0
 10
149.681531633793
 20
192.056258950622
 30
0.0
 10
149.7393161999291
 20
192.056258950622
 30
0.0
 10
149.7971360435918
 20
192.0562589506156
 30
0.0
 10
149.8169620058472
 20
192.0562589506156
 30
0.0
 10
149.8367879681033
 20
192.0562589506156
 30
0.0
 10
149.8566492078609
 20
192.0562589506156
 30
0.0
 10
149.9154568218839
 20
192.0562589506092
 30
0.0
 10
149.974264435894
 20
192.0562589506092
 30
0.0
 10
150.0330720499163
 20
192.0562589506092
 30
0.0
 10
150.0541327251194
 20
192.0562589506092
 30
0.0
 10
150.0751934003218
 20
192.0562589506092
 30
0.0
 10
150.0962540755249
 20
192.0562589506027
 30
0.0
 10
150.1559789048792
 20
192.0562589505963
 30
0.0
 10
150.215739011748
 20
192.0562589505963
 30
0.0
 10
150.2754638411023
 20
192.0562589505963
 30
0.0
 10
150.2977945067668
 20
192.0562589505963
 30
0.0
 10
150.3201251724436
 20
192.0562589505963
 30
0.0
 10
150.3424558381075
 20
192.0562589505963
 30
0.0
 10
150.4986293877492
 20
192.0562589505835
 30
0.0
 10
150.6547676598771
 20
192.0562589505771
 30
0.0
 10
150.8109412095187
 20
192.0562589505707
 30
0.0
 10
150.8252638797597
 20
192.0562589505707
 30
0.0
 10
150.83958655
 20
192.0562589505707
 30
0.0
 10
150.8539092202403
 20
192.0562589505707
 30
0.0
 10
150.9227709254355
 20
192.0562589505707
 30
0.0
 10
150.9916679081444
 20
192.0562589505643
 30
0.0
 10
151.060529613346
 20
192.0562589505581
 30
0.0
 10
151.0799675229518
 20
192.0562589505581
 30
0.0
 10
151.0993701550495
 20
192.0562589505581
 30
0.0
 10
151.1188080646616
 20
192.0562589505581
 30
0.0
 10
151.1620935729988
 20
192.0562589505581
 30
0.0
 10
151.2054143588498
 20
192.0562589505581
 30
0.0
 10
151.2486998671864
 20
192.0562589505514
 30
0.0
 10
151.2960422895192
 20
192.056258950545
 30
0.0
 10
151.3433847118392
 20
192.056258950545
 30
0.0
 10
151.3907271341592
 20
192.056258950545
 30
0.0
 10
151.4185258143245
 20
192.056258950545
 30
0.0
 10
151.4463244945019
 20
192.056258950545
 30
0.0
 10
151.4741231746671
 20
192.056258950545
 30
0.0
 10
151.5396687936523
 20
192.0562589505386
 30
0.0
 10
151.6051791351236
 20
192.0562589505322
 30
0.0
 10
151.6707247541087
 20
192.0562589505322
 30
0.0
 10
151.7597299191743
 20
192.0562589505322
 30
0.0
 10
151.8486998067332
 20
192.0562589505261
 30
0.0
 10
151.9377049717924
 20
192.056258950519
 30
0.0
 10
151.9447251968558
 20
192.056258950519
 30
0.0
 10
151.9517454219193
 20
192.056258950519
 30
0.0
 10
151.9587656469955
 20
192.056258950519
 30
0.0
 10
152.0310845484572
 20
192.056258950519
 30
0.0
 10
152.1034034499189
 20
192.0562589505129
 30
0.0
 10
152.1757223513677
 20
192.0562589505065
 30
0.0
 10
152.2020746535135
 20
192.0562589505065
 30
0.0
 10
152.228462233173
 20
192.0562589505065
 30
0.0
 10
152.2548498128198
 20
192.0562589505065
 30
0.0
 10
152.3091419051878
 20
192.0562589505065
 30
0.0
 10
152.3634339975552
 20
192.0562589505065
 30
0.0
 10
152.4177260899226
 20
192.0562589505001
 30
0.0
 10
152.4647862921414
 20
192.056258950494
 30
0.0
 10
152.5118817718752
 20
192.056258950494
 30
0.0
 10
152.5589419740805
 20
192.056258950494
 30
0.0
 10
152.5938667118646
 20
192.056258950494
 30
0.0
 10
152.6287914496487
 20
192.056258950494
 30
0.0
 10
152.6636809099055
 20
192.0562589504872
 30
0.0
 10
152.7352237060801
 20
192.0562589504808
 30
0.0
 10
152.8067312247524
 20
192.0562589504808
 30
0.0
 10
152.8782387434125
 20
192.0562589504808
 30
0.0
 10
152.9745110761419
 20
192.0562589504744
 30
0.0
 10
153.0708186863722
 20
192.056258950468
 30
0.0
 10
153.1670910191009
 20
192.056258950468
 30
0.0
 10
153.1818370194995
 20
192.056258950468
 30
0.0
 10
153.1965477423709
 20
192.056258950468
 30
0.0
 10
153.2112937427695
 20
192.056258950468
 30
0.0
 10
153.2823073762559
 20
192.0562589504616
 30
0.0
 10
153.3533562872439
 20
192.0562589504548
 30
0.0
 10
153.4243699207297
 20
192.0562589504548
 30
0.0
 10
153.467196821407
 20
192.0562589504548
 30
0.0
 10
153.5100237220721
 20
192.0562589504548
 30
0.0
 10
153.5528153452222
 20
192.0562589504488
 30
0.0
 10
153.5969827913891
 20
192.0562589504423
 30
0.0
 10
153.6411149600295
 20
192.0562589504423
 30
0.0
 10
153.6852471286827
 20
192.0562589504423
 30
0.0
 10
153.7417264268423
 20
192.0562589504423
 30
0.0
 10
153.7982410025298
 20
192.0562589504359
 30
0.0
 10
153.8547203006907
 20
192.0562589504359
 30
0.0
 10
153.8863642297657
 20
192.0562589504295
 30
0.0
 10
153.9179728813275
 20
192.0562589504295
 30
0.0
 10
153.949616810416
 20
192.0562589504295
 30
0.0
 10
154.0325189657502
 20
192.0562589504295
 30
0.0
 10
154.1153858435578
 20
192.0562589504234
 30
0.0
 10
154.1982527213775
 20
192.0562589504163
 30
0.0
 10
154.2950189392934
 20
192.0562589504163
 30
0.0
 10
154.3917851571958
 20
192.0562589504102
 30
0.0
 10
154.4885513750989
 20
192.0562589504038
 30
0.0
 10
154.5349060270587
 20
192.0562589504038
 30
0.0
 10
154.5812606790185
 20
192.0562589504038
 30
0.0
 10
154.6276153309783
 20
192.0562589504038
 30
0.0
 10
154.6726999924773
 20
192.0562589503974
 30
0.0
 10
154.7178199314901
 20
192.0562589503974
 30
0.0
 10
154.7629045929756
 20
192.0562589503913
 30
0.0
 10
154.8114111732266
 20
192.0562589503913
 30
0.0
 10
154.8599177534783
 20
192.0562589503913
 30
0.0
 10
154.9084243337165
 20
192.0562589503913
 30
0.0
 10
154.952415392319
 20
192.0562589503846
 30
0.0
 10
154.9964064509081
 20
192.0562589503846
 30
0.0
 10
155.0403975095043
 20
192.0562589503782
 30
0.0
 10
155.1185724781105
 20
192.0562589503782
 30
0.0
 10
155.196712169203
 20
192.0562589503782
 30
0.0
 10
155.2748871378099
 20
192.0562589503717
 30
0.0
 10
155.3847413129998
 20
192.0562589503653
 30
0.0
 10
155.4946307657034
 20
192.0562589503653
 30
0.0
 10
155.6044849408997
 20
192.0562589503522
 30
0.0
 10
155.6616345118051
 20
192.0562589503522
 30
0.0
 10
155.7187840827234
 20
192.0562589503522
 30
0.0
 10
155.7758983761208
 20
192.0562589503522
 30
0.0
 10
155.8142450326505
 20
192.0562589503461
 30
0.0
 10
155.8525564116601
 20
192.0562589503461
 30
0.0
 10
155.8908677906819
 20
192.0562589503397
 30
0.0
 10
155.9372929976769
 20
192.0562589503397
 30
0.0
 10
155.9837182046585
 20
192.0562589503397
 30
0.0
 10
156.0301081341327
 20
192.0562589503397
 30
0.0
 10
156.0800963699177
 20
192.0562589503397
 30
0.0
 10
156.1300846057026
 20
192.0562589503332
 30
0.0
 10
156.180037563986
 20
192.0562589503268
 30
0.0
 10
156.2595883555963
 20
192.0562589503268
 30
0.0
 10
156.3391391471938
 20
192.0562589503268
 30
0.0
 10
156.4186899388042
 20
192.0562589503201
 30
0.0
 10
156.4364345277972
 20
192.0562589503201
 30
0.0
 10
156.4541791167902
 20
192.056258950314
 30
0.0
 10
156.4718884282694
 20
192.056258950314
 30
0.0
 10
156.5860817375498
 20
192.056258950314
 30
0.0
 10
156.7002750468301
 20
192.0562589503076
 30
0.0
 10
156.8144330785961
 20
192.0562589503012
 30
0.0
 10
156.8973705114447
 20
192.0562589503012
 30
0.0
 10
156.9803079442933
 20
192.0562589502947
 30
0.0
 10
157.0632806546436
 20
192.0562589502887
 30
0.0
 10
157.2511686883897
 20
192.0562589502816
 30
0.0
 10
157.4390567221359
 20
192.0562589502755
 30
0.0
 10
157.6269800333958
 20
192.0562589502626
 30
0.0
 10
157.6522387326387
 20
192.0562589502626
 30
0.0
 10
157.6774974318816
 20
192.0562589502626
 30
0.0
 10
157.7027914086384
 20
192.0562589502626
 30
0.0
 10
157.8218530146909
 20
192.0562589502566
 30
0.0
 10
157.9409498982701
 20
192.0562589502498
 30
0.0
 10
158.0600467818499
 20
192.0562589502498
 30
0.0
 10
158.133741506315
 20
192.0562589502434
 30
0.0
 10
158.2074009532664
 20
192.056258950237
 30
0.0
 10
158.2810956777193
 20
192.056258950237
 30
0.0
 10
158.6482287545572
 20
192.0562589502242
 30
0.0
 10
159.0153618313823
 20
192.0562589501985
 30
0.0
 10
159.3824949082074
 20
192.0562589501853
 30
0.0
 10
159.4274737371638
 20
192.0562589501853
 30
0.0
 10
159.4724172886057
 20
192.0562589501853
 30
0.0
 10
159.5173608400598
 20
192.0562589501792
 30
0.0
 10
159.6410085227961
 20
192.0562589501728
 30
0.0
 10
159.764620928018
 20
192.0562589501728
 30
0.0
 10
159.8882686107607
 20
192.05625895016
 30
0.0
 10
159.9796020916768
 20
192.05625895016
 30
0.0
 10
160.0709708501061
 20
192.05625895016
 30
0.0
 10
160.1623396085367
 20
192.0562589501468
 30
0.0
 10
160.3340352638641
 20
192.0562589501468
 30
0.0
 10
160.50573091918
 20
192.0562589501343
 30
0.0
 10
160.677461852009
 20
192.0562589501279
 30
0.0
 10
160.7140799104123
 20
192.0562589501279
 30
0.0
 10
160.7506979688021
 20
192.0562589501218
 30
0.0
 10
160.7873160272053
 20
192.0562589501218
 30
0.0
 10
160.9040140399064
 20
192.0562589501218
 30
0.0
 10
161.0207473301091
 20
192.0562589501087
 30
0.0
 10
161.1374453428108
 20
192.0562589501087
 30
0.0
 10
161.235128776058
 20
192.0562589501022
 30
0.0
 10
161.3328122092924
 20
192.0562589500958
 30
0.0
 10
161.4304603650253
 20
192.0562589500958
 30
0.0
 10
161.5334001476879
 20
192.0562589500894
 30
0.0
 10
161.6363399303513
 20
192.0562589500827
 30
0.0
 10
161.7392797130139
 20
192.0562589500827
 30
0.0
 10
161.8577063238486
 20
192.0562589500766
 30
0.0
 10
161.9761682121848
 20
192.0562589500701
 30
0.0
 10
162.0945948230194
 20
192.0562589500637
 30
0.0
 10
162.2464292385642
 20
192.0562589500573
 30
0.0
 10
162.398228376608
 20
192.0562589500512
 30
0.0
 10
162.5500275146518
 20
192.0562589500445
 30
0.0
 10
162.6099287315776
 20
192.0562589500445
 30
0.0
 10
162.6698299484906
 20
192.0562589500381
 30
0.0
 10
162.7297311654035
 20
192.0562589500381
 30
0.0
 10
162.8983576771077
 20
192.0562589500316
 30
0.0
 10
163.0669841888004
 20
192.0562589500191
 30
0.0
 10
163.2355754229908
 20
192.0562589500121
 30
0.0
 10
163.2852108836462
 20
192.0562589500121
 30
0.0
 10
163.3348463443017
 20
192.056258950006
 30
0.0
 10
163.38448180497
 20
192.056258950006
 30
0.0
 10
163.4696064436115
 20
192.056258950006
 30
0.0
 10
163.5546958047514
 20
192.0562589499995
 30
0.0
 10
163.6397851658784
 20
192.0562589499932
 30
0.0
 10
163.7782846815559
 20
192.0562589499932
 30
0.0
 10
163.9167841972334
 20
192.0562589499803
 30
0.0
 10
164.0552837128975
 20
192.0562589499803
 30
0.0
 10
164.2105753247222
 20
192.0562589499675
 30
0.0
 10
164.3658669365341
 20
192.0562589499675
 30
0.0
 10
164.5211232708444
 20
192.0562589499546
 30
0.0
 10
164.5831411385342
 20
192.0562589499546
 30
0.0
 10
164.6451237287102
 20
192.0562589499546
 30
0.0
 10
164.7071415964128
 20
192.0562589499479
 30
0.0
 10
164.8174543792684
 20
192.0562589499418
 30
0.0
 10
164.9278024396384
 20
192.0562589499418
 30
0.0
 10
165.0381152225074
 20
192.056258949929
 30
0.0
 10
165.1541429624511
 20
192.056258949929
 30
0.0
 10
165.2702059799221
 20
192.0562589499226
 30
0.0
 10
165.386233719878
 20
192.0562589499165
 30
0.0
 10
165.5946532661263
 20
192.0562589499033
 30
0.0
 10
165.8030728123874
 20
192.0562589498969
 30
0.0
 10
166.0114923586479
 20
192.0562589498905
 30
0.0
 10
166.0357632875306
 20
192.0562589498905
 30
0.0
 10
166.0600694939149
 20
192.0562589498905
 30
0.0
 10
166.0843757003121
 20
192.0562589498905
 30
0.0
 10
166.2606574323104
 20
192.0562589498776
 30
0.0
 10
166.4369038867956
 20
192.0562589498712
 30
0.0
 10
166.6131856187946
 20
192.0562589498648
 30
0.0
 10
166.6704057447282
 20
192.0562589498584
 30
0.0
 10
166.7275905931602
 20
192.0562589498584
 30
0.0
 10
166.7848107190939
 20
192.0562589498523
 30
0.0
 10
166.9376681825132
 20
192.0562589498523
 30
0.0
 10
167.0905256459455
 20
192.0562589498391
 30
0.0
 10
167.2433831093777
 20
192.0562589498327
 30
0.0
 10
167.3301657911239
 20
192.0562589498263
 30
0.0
 10
167.4169484728829
 20
192.0562589498263
 30
0.0
 10
167.5037311546291
 20
192.0562589498263
 30
0.0
 10
167.6932419539662
 20
192.0562589498131
 30
0.0
 10
167.8827527533026
 20
192.0562589498006
 30
0.0
 10
168.0722635526519
 20
192.0562589498006
 30
0.0
 10
168.1266262000353
 20
192.0562589497942
 30
0.0
 10
168.1809888474316
 20
192.0562589497878
 30
0.0
 10
168.2353514948144
 20
192.0562589497878
 30
0.0
 10
168.4103632363525
 20
192.0562589497817
 30
0.0
 10
168.5854102554045
 20
192.0562589497746
 30
0.0
 10
168.7604572744436
 20
192.0562589497621
 30
0.0
 10
168.8333758936216
 20
192.0562589497621
 30
0.0
 10
168.9062945127995
 20
192.0562589497621
 30
0.0
 10
168.979248409492
 20
192.0562589497557
 30
0.0
 10
169.2017436834065
 20
192.0562589497496
 30
0.0
 10
169.4242389573076
 20
192.0562589497364
 30
0.0
 10
169.6467695087366
 20
192.0562589497236
 30
0.0
 10
169.6828231269252
 20
192.0562589497236
 30
0.0
 10
169.7188767451131
 20
192.0562589497236
 30
0.0
 10
169.754930363301
 20
192.0562589497236
 30
0.0
 10
169.9692059767073
 20
192.0562589497105
 30
0.0
 10
170.1834463125986
 20
192.056258949698
 30
0.0
 10
170.397686648477
 20
192.0562589496915
 30
0.0
 10
170.4325761087467
 20
192.0562589496915
 30
0.0
 10
170.4674655690164
 20
192.0562589496851
 30
0.0
 10
170.5023550292732
 20
192.0562589496851
 30
0.0
 10
170.7479923516539
 20
192.0562589496723
 30
0.0
 10
170.9936649515355
 20
192.0562589496659
 30
0.0
 10
171.2393022739156
 20
192.056258949653
 30
0.0
 10
171.2672067866235
 20
192.056258949653
 30
0.0
 10
171.2951112993313
 20
192.056258949653
 30
0.0
 10
171.3230158120392
 20
192.0562589496469
 30
0.0
 10
171.4995092091234
 20
192.0562589496469
 30
0.0
 10
171.6760026061948
 20
192.0562589496338
 30
0.0
 10
171.8525312807807
 20
192.0562589496274
 30
0.0
 10
171.9248501822423
 20
192.0562589496209
 30
0.0
 10
171.997169083704
 20
192.0562589496209
 30
0.0
 10
172.0694879851657
 20
192.0562589496209
 30
0.0
 10
172.3357626525905
 20
192.0562589496081
 30
0.0
 10
172.602037320016
 20
192.0562589495953
 30
0.0
 10
172.8683119874408
 20
192.0562589495825
 30
0.0
 10
173.0026487565929
 20
192.0562589495757
 30
0.0
 10
173.1369855257443
 20
192.0562589495696
 30
0.0
 10
173.2713222948958
 20
192.0562589495632
 30
0.0
 10
173.3321407271529
 20
192.0562589495568
 30
0.0
 10
173.3929944369123
 20
192.0562589495568
 30
0.0
 10
173.4538128691694
 20
192.0562589495568
 30
0.0
 10
173.5398547231423
 20
192.0562589495504
 30
0.0
 10
173.6259318546423
 20
192.0562589495443
 30
0.0
 10
173.7119737086152
 20
192.0562589495443
 30
0.0
 10
173.7804120836649
 20
192.0562589495443
 30
0.0
 10
173.848815181188
 20
192.0562589495375
 30
0.0
 10
173.9172535562248
 20
192.0562589495311
 30
0.0
 10
174.2466044167285
 20
192.0562589495183
 30
0.0
 10
174.5759905547465
 20
192.0562589495051
 30
0.0
 10
174.9053414152502
 20
192.0562589494926
 30
0.0
 10
174.957904909484
 20
192.0562589494862
 30
0.0
 10
175.0104684037185
 20
192.0562589494862
 30
0.0
 10
175.0630671754668
 20
192.0562589494801
 30
0.0
 10
175.1672769485909
 20
192.0562589494801
 30
0.0
 10
175.2715219992295
 20
192.0562589494734
 30
0.0
 10
175.3757670498803
 20
192.056258949467
 30
0.0
 10
175.4501320470777
 20
192.056258949467
 30
0.0
 10
175.524497044288
 20
192.0562589494605
 30
0.0
 10
175.5988267639839
 20
192.0562589494541
 30
0.0
 10
175.7542594858528
 20
192.0562589494541
 30
0.0
 10
175.9096922077346
 20
192.0562589494409
 30
0.0
 10
176.0651249296029
 20
192.0562589494409
 30
0.0
 10
176.0879142029389
 20
192.0562589494409
 30
0.0
 10
176.1107034762756
 20
192.0562589494349
 30
0.0
 10
176.133528027126
 20
192.0562589494349
 30
0.0
 10
176.2893488016383
 20
192.0562589494284
 30
0.0
 10
176.4452048536649
 20
192.056258949422
 30
0.0
 10
176.6010609056915
 20
192.0562589494156
 30
0.0
 10
176.6228976861817
 20
192.0562589494156
 30
0.0
 10
176.6447697441864
 20
192.0562589494156
 30
0.0
 10
176.6666065246766
 20
192.0562589494095
 30
0.0
 10
176.789548657154
 20
192.0562589494025
 30
0.0
 10
176.9125260671451
 20
192.0562589494025
 30
0.0
 10
177.0354681996353
 20
192.0562589493899
 30
0.0
 10
177.0895486269174
 20
192.0562589493899
 30
0.0
 10
177.143593776698
 20
192.0562589493899
 30
0.0
 10
177.1976742039802
 20
192.0562589493899
 30
0.0
 10
177.2697108853419
 20
192.0562589493835
 30
0.0
 10
177.3417475666888
 20
192.0562589493774
 30
0.0
 10
177.4137842480492
 20
192.0562589493774
 30
0.0
 10
177.517923466158
 20
192.0562589493774
 30
0.0
 10
177.6220979617677
 20
192.0562589493643
 30
0.0
 10
177.7262724573903
 20
192.0562589493643
 30
0.0
 10
177.7633138459384
 20
192.0562589493643
 30
0.0
 10
177.8003905120009
 20
192.0562589493643
 30
0.0
 10
177.8374319005618
 20
192.0562589493579
 30
0.0
 10
177.9756139186115
 20
192.0562589493514
 30
0.0
 10
178.1137959366733
 20
192.0562589493453
 30
0.0
 10
178.2520132322495
 20
192.0562589493383
 30
0.0
 10
178.4128786911054
 20
192.0562589493322
 30
0.0
 10
178.5737441499606
 20
192.0562589493258
 30
0.0
 10
178.7346096088165
 20
192.0562589493194
 30
0.0
 10
178.7479092311828
 20
192.0562589493129
 30
0.0
 10
178.7611735760347
 20
192.0562589493129
 30
0.0
 10
178.774473198401
 20
192.0562589493129
 30
0.0
 10
178.9268367766467
 20
192.0562589493129
 30
0.0
 10
179.0792003548924
 20
192.0562589493001
 30
0.0
 10
179.2315992106647
 20
192.0562589493001
 30
0.0
 10
179.2521660006813
 20
192.0562589492937
 30
0.0
 10
179.2727327907107
 20
192.0562589492937
 30
0.0
 10
179.2932995807394
 20
192.0562589492937
 30
0.0
 10
179.4542708721251
 20
192.0562589492873
 30
0.0
 10
179.6152421635236
 20
192.0562589492748
 30
0.0
 10
179.7762134549214
 20
192.0562589492748
 30
0.0
 10
179.7868319863084
 20
192.0562589492748
 30
0.0
 10
179.7974857952098
 20
192.0562589492748
 30
0.0
 10
179.8081396041111
 20
192.0562589492748
 30
0.0
 10
180.1536475655184
 20
192.0562589492552
 30
0.0
 10
180.499190804453
 20
192.0562589492359
 30
0.0
 10
180.8447340433747
 20
192.0562589492231
 30
0.0
 10
180.9198045908439
 20
192.0562589492231
 30
0.0
 10
180.9948751383131
 20
192.0562589492167
 30
0.0
 10
181.0699809632968
 20
192.0562589492106
 30
0.0
 10
181.161314444213
 20
192.0562589492106
 30
0.0
 10
181.2526479251285
 20
192.0562589492035
 30
0.0
 10
181.343981406044
 20
192.0562589491974
 30
0.0
 10
181.4625138494091
 20
192.0562589491974
 30
0.0
 10
181.5810815703008
 20
192.056258949191
 30
0.0
 10
181.6996140136652
 20
192.0562589491846
 30
0.0
 10
181.7540119385624
 20
192.0562589491846
 30
0.0
 10
181.8084098634731
 20
192.0562589491846
 30
0.0
 10
181.8628077883703
 20
192.0562589491782
 30
0.0
 10
181.9526596137526
 20
192.0562589491715
 30
0.0
 10
182.042511439122
 20
192.0562589491715
 30
0.0
 10
182.1323985420052
 20
192.0562589491653
 30
0.0
 10
182.2166765203435
 20
192.0562589491589
 30
0.0
 10
182.3009897761962
 20
192.0562589491589
 30
0.0
 10
182.3852677545339
 20
192.0562589491525
 30
0.0
 10
182.4237202436005
 20
192.0562589491525
 30
0.0
 10
182.4621727326671
 20
192.0562589491461
 30
0.0
 10
182.5006252217331
 20
192.0562589491461
 30
0.0
 10
182.6839271788083
 20
192.05625894914
 30
0.0
 10
182.8672291358701
 20
192.0562589491329
 30
0.0
 10
183.0505310929453
 20
192.0562589491204
 30
0.0
 10
183.1778123595068
 20
192.0562589491204
 30
0.0
 10
183.305093626081
 20
192.056258949114
 30
0.0
 10
183.4323396151408
 20
192.0562589491079
 30
0.0
 10
183.4888189133011
 20
192.0562589491079
 30
0.0
 10
183.5453334889757
 20
192.0562589491012
 30
0.0
 10
183.6018127871488
 20
192.0562589490948
 30
0.0
 10
183.6898301818549
 20
192.0562589490948
 30
0.0
 10
183.7778475765481
 20
192.0562589490948
 30
0.0
 10
183.8658649712542
 20
192.0562589490883
 30
0.0
 10
183.9226617670423
 20
192.0562589490819
 30
0.0
 10
183.9794232853038
 20
192.0562589490819
 30
0.0
 10
184.0362200810926
 20
192.0562589490819
 30
0.0
 10
184.1239199781701
 20
192.0562589490755
 30
0.0
 10
184.2116198752612
 20
192.0562589490688
 30
0.0
 10
184.2993197723522
 20
192.0562589490688
 30
0.0
 10
184.3902652006238
 20
192.0562589490627
 30
0.0
 10
184.4812106288961
 20
192.0562589490563
 30
0.0
 10
184.5721560571811
 20
192.0562589490563
 30
0.0
 10
184.6172759961811
 20
192.0562589490563
 30
0.0
 10
184.6623959351938
 20
192.0562589490563
 30
0.0
 10
184.7075158742072
 20
192.0562589490498
 30
0.0
 10
184.8921583767587
 20
192.0562589490434
 30
0.0
 10
185.0768361568245
 20
192.0562589490306
 30
0.0
 10
185.2615139369038
 20
192.0562589490242
 30
0.0
 10
185.365723710028
 20
192.0562589490177
 30
0.0
 10
185.4699687606659
 20
192.0562589490177
 30
0.0
 10
185.5742138113167
 20
192.0562589490114
 30
0.0
 10
185.6547876507888
 20
192.0562589490052
 30
0.0
 10
185.7353614902738
 20
192.0562589490052
 30
0.0
 10
185.8159706072725
 20
192.0562589489982
 30
0.0
 10
185.8873370158756
 20
192.0562589489921
 30
0.0
 10
185.9587034244915
 20
192.0562589489921
 30
0.0
 10
186.0301051106218
 20
192.0562589489921
 30
0.0
 10
186.0810105617381
 20
192.0562589489921
 30
0.0
 10
186.1319512903817
 20
192.0562589489857
 30
0.0
 10
186.1828567415108
 20
192.0562589489793
 30
0.0
 10
186.275742432989
 20
192.0562589489793
 30
0.0
 10
186.3686281244801
 20
192.0562589489793
 30
0.0
 10
186.4615138159577
 20
192.0562589489664
 30
0.0
 10
186.8009187676464
 20
192.0562589489536
 30
0.0
 10
187.1403237193217
 20
192.0562589489408
 30
0.0
 10
187.4797286710104
 20
192.0562589489279
 30
0.0
 10
187.5594205726649
 20
192.0562589489215
 30
0.0
 10
187.6391124743195
 20
192.0562589489151
 30
0.0
 10
187.7188043759869
 20
192.0562589489151
 30
0.0
 10
187.8237549768844
 20
192.0562589489087
 30
0.0
 10
187.9287055777813
 20
192.0562589489026
 30
0.0
 10
188.0336561786788
 20
192.0562589489026
 30
0.0
 10
188.081986371359
 20
192.0562589489026
 30
0.0
 10
188.130316564052
 20
192.0562589488955
 30
0.0
 10
188.178682034246
 20
192.0562589488894
 30
0.0
 10
188.2288466576018
 20
192.0562589488894
 30
0.0
 10
188.2790465584598
 20
192.0562589488894
 30
0.0
 10
188.3292111818155
 20
192.0562589488894
 30
0.0
 10
188.4150766482304
 20
192.056258948883
 30
0.0
 10
188.5009773921718
 20
192.0562589488766
 30
0.0
 10
188.5868428585867
 20
192.0562589488766
 30
0.0
 10
188.954575653128
 20
192.0562589488638
 30
0.0
 10
189.3223084476823
 20
192.0562589488384
 30
0.0
 10
189.6900412422237
 20
192.0562589488252
 30
0.0
 10
189.7402764206083
 20
192.0562589488252
 30
0.0
 10
189.7905115989801
 20
192.0562589488252
 30
0.0
 10
189.8407467773647
 20
192.0562589488188
 30
0.0
 10
189.9736724459983
 20
192.0562589488124
 30
0.0
 10
190.1066333921463
 20
192.056258948806
 30
0.0
 10
190.2395590607792
 20
192.0562589487993
 30
0.0
 10
190.2590322479058
 20
192.0562589487993
 30
0.0
 10
190.2785054350323
 20
192.0562589487993
 30
0.0
 10
190.2979786221589
 20
192.0562589487993
 30
0.0
 10
190.6430279759069
 20
192.0562589487867
 30
0.0
 10
190.9881126071687
 20
192.0562589487678
 30
0.0
 10
191.3331972384312
 20
192.0562589487483
 30
0.0
 10
191.3946859434207
 20
192.0562589487483
 30
0.0
 10
191.4561393709085
 20
192.0562589487483
 30
0.0
 10
191.5176280759102
 20
192.0562589487483
 30
0.0
 10
191.6373599547207
 20
192.0562589487357
 30
0.0
 10
191.7570918335178
 20
192.0562589487357
 30
0.0
 10
191.8767884348139
 20
192.056258948729
 30
0.0
 10
191.9056454403797
 20
192.0562589487226
 30
0.0
 10
191.934502445934
 20
192.0562589487226
 30
0.0
 10
191.9633241739861
 20
192.0562589487226
 30
0.0
 10
192.1115250057057
 20
192.0562589487162
 30
0.0
 10
192.2596905599116
 20
192.0562589487097
 30
0.0
 10
192.4078913916441
 20
192.0562589487037
 30
0.0
 10
192.4112427553679
 20
192.0562589487037
 30
0.0
 10
192.4145941190924
 20
192.0562589487037
 30
0.0
 10
192.4179454828163
 20
192.0562589487037
 30
0.0
 10
192.5800809321458
 20
192.0562589486966
 30
0.0
 10
192.7422163814625
 20
192.0562589486905
 30
0.0
 10
192.904351830792
 20
192.0562589486841
 30
0.0
 10
192.9644999902918
 20
192.0562589486777
 30
0.0
 10
193.02461287229
 20
192.0562589486777
 30
0.0
 10
193.0847610317898
 20
192.0562589486712
 30
0.0
 10
193.1878066469951
 20
192.0562589486712
 30
0.0
 10
193.2908522622011
 20
192.0562589486645
 30
0.0
 10
193.3938978774064
 20
192.0562589486584
 30
0.0
 10
193.4608545968971
 20
192.0562589486584
 30
0.0
 10
193.5278465939146
 20
192.0562589486584
 30
0.0
 10
193.5948033134047
 20
192.056258948652
 30
0.0
 10
193.914170637765
 20
192.0562589486331
 30
0.0
 10
194.2335379621117
 20
192.0562589486199
 30
0.0
 10
194.5528700089454
 20
192.0562589486071
 30
0.0
 10
194.6327030206564
 20
192.0562589486071
 30
0.0
 10
194.712536032368
 20
192.056258948601
 30
0.0
 10
194.7923690440796
 20
192.0562589485942
 30
0.0
 10
194.8875830514199
 20
192.0562589485942
 30
0.0
 10
194.982797058748
 20
192.0562589485878
 30
0.0
 10
195.0779757885739
 20
192.0562589485814
 30
0.0
 10
195.0962142627534
 20
192.0562589485814
 30
0.0
 10
195.1144174594057
 20
192.0562589485814
 30
0.0
 10
195.1326559335852
 20
192.0562589485814
 30
0.0
 10
195.2881592104824
 20
192.056258948575
 30
0.0
 10
195.4436272098651
 20
192.0562589485686
 30
0.0
 10
195.5991304867623
 20
192.0562589485618
 30
0.0
 10
195.6113365062257
 20
192.0562589485557
 30
0.0
 10
195.6235425256892
 20
192.0562589485557
 30
0.0
 10
195.6357132676383
 20
192.0562589485557
 30
0.0
 10
195.795873176248
 20
192.0562589485557
 30
0.0
 10
195.9559978073305
 20
192.0562589485429
 30
0.0
 10
196.1161224384124
 20
192.0562589485365
 30
0.0
 10
196.1939799094036
 20
192.0562589485304
 30
0.0
 10
196.2718373803948
 20
192.0562589485304
 30
0.0
 10
196.3496948513732
 20
192.0562589485304
 30
0.0
 10
196.4271289922067
 20
192.0562589485236
 30
0.0
 10
196.5045278555258
 20
192.0562589485172
 30
0.0
 10
196.5819619963587
 20
192.0562589485172
 30
0.0
 10
196.6317738445856
 20
192.0562589485172
 30
0.0
 10
196.681585692812
 20
192.0562589485108
 30
0.0
 10
196.7313975410389
 20
192.0562589485108
 30
0.0
 10
197.0229661852211
 20
192.0562589484983
 30
0.0
 10
197.3145348294032
 20
192.0562589484852
 30
0.0
 10
197.6061387510863
 20
192.0562589484662
 30
0.0
 10
197.6688268915213
 20
192.0562589484662
 30
0.0
 10
197.7314797544546
 20
192.0562589484662
 30
0.0
 10
197.7941678948895
 20
192.0562589484662
 30
0.0
 10
197.8918513281239
 20
192.0562589484531
 30
0.0
 10
197.9895347613712
 20
192.0562589484531
 30
0.0
 10
198.0872181946056
 20
192.0562589484531
 30
0.0
 10
198.1163574202727
 20
192.0562589484466
 30
0.0
 10
198.1454966459276
 20
192.0562589484466
 30
0.0
 10
198.1746358715954
 20
192.0562589484466
 30
0.0
 10
198.4889232340847
 20
192.0562589484271
 30
0.0
 10
198.8032105965747
 20
192.0562589484146
 30
0.0
 10
199.1175332365791
 20
192.0562589484017
 30
0.0
 10
199.1584551515514
 20
192.0562589484017
 30
0.0
 10
199.1993770665249
 20
192.0562589484017
 30
0.0
 10
199.2402989814972
 20
192.0562589484017
 30
0.0
 10
199.3267994431492
 20
192.0562589483889
 30
0.0
 10
199.4132999048011
 20
192.0562589483889
 30
0.0
 10
199.4998003664461
 20
192.0562589483889
 30
0.0
 10
199.5540924588135
 20
192.0562589483825
 30
0.0
 10
199.6083492736671
 20
192.0562589483761
 30
0.0
 10
199.6626060885143
 20
192.0562589483761
 30
0.0
 10
199.9563266609813
 20
192.0562589483635
 30
0.0
 10
200.2500472334483
 20
192.0562589483504
 30
0.0
 10
200.5438030834297
 20
192.0562589483376
 30
0.0
 10
200.5962254676072
 20
192.0562589483376
 30
0.0
 10
200.6486478517904
 20
192.0562589483376
 30
0.0
 10
200.7010702359742
 20
192.0562589483314
 30
0.0
 10
200.7548684431551
 20
192.0562589483247
 30
0.0
 10
200.8086666503367
 20
192.0562589483247
 30
0.0
 10
200.8624648575176
 20
192.0562589483247
 30
0.0
 10
200.9214135815912
 20
192.0562589483247
 30
0.0
 10
200.9803975831721
 20
192.0562589483183
 30
0.0
 10
201.0393463072393
 20
192.0562589483119
 30
0.0
 10
201.1807033014606
 20
192.0562589483119
 30
0.0
 10
201.3220250181617
 20
192.056258948299
 30
0.0
 10
201.4633467348749
 20
192.056258948299
 30
0.0
 10
201.5434266891734
 20
192.0562589482923
 30
0.0
 10
201.6235066434712
 20
192.0562589482862
 30
0.0
 10
201.7035865977761
 20
192.0562589482862
 30
0.0
 10
201.7712841450466
 20
192.0562589482862
 30
0.0
 10
201.8389464147957
 20
192.0562589482798
 30
0.0
 10
201.9066439620721
 20
192.0562589482734
 30
0.0
 10
201.9477069870892
 20
192.0562589482734
 30
0.0
 10
201.9887700121128
 20
192.0562589482734
 30
0.0
 10
202.0298330371427
 20
192.0562589482734
 30
0.0
 10
202.283936962612
 20
192.0562589482609
 30
0.0
 10
202.5380408880885
 20
192.0562589482477
 30
0.0
 10
202.7921448135642
 20
192.0562589482349
 30
0.0
 10
202.8395930684204
 20
192.0562589482349
 30
0.0
 10
202.8870413232767
 20
192.0562589482349
 30
0.0
 10
202.9344895781393
 20
192.0562589482349
 30
0.0
 10
203.3084312149612
 20
192.0562589482156
 30
0.0
 10
203.6824081292917
 20
192.0562589481967
 30
0.0
 10
204.0563497661136
 20
192.0562589481835
 30
0.0
 10
204.1018577577574
 20
192.0562589481835
 30
0.0
 10
204.147365749414
 20
192.0562589481771
 30
0.0
 10
204.1928384635505
 20
192.0562589481707
 30
0.0
 10
204.2014108991824
 20
192.0562589481707
 30
0.0
 10
204.2099833348207
 20
192.0562589481707
 30
0.0
 10
204.2185557704591
 20
192.0562589481707
 30
0.0
 10
204.3071728828814
 20
192.0562589481707
 30
0.0
 10
204.3957547177894
 20
192.0562589481643
 30
0.0
 10
204.4843718302118
 20
192.0562589481576
 30
0.0
 10
204.5252937451847
 20
192.0562589481576
 30
0.0
 10
204.5662156601576
 20
192.0562589481576
 30
0.0
 10
204.6071375751305
 20
192.0562589481576
 30
0.0
 10
204.7342424541397
 20
192.0562589481515
 30
0.0
 10
204.8613473331496
 20
192.0562589481451
 30
0.0
 10
204.9884522121523
 20
192.0562589481386
 30
0.0
 10
205.0763637743158
 20
192.0562589481322
 30
0.0
 10
205.1642400589648
 20
192.0562589481322
 30
0.0
 10
205.2521163436266
 20
192.0562589481261
 30
0.0
 10
205.3699432367321
 20
192.0562589481191
 30
0.0
 10
205.4877348523296
 20
192.0562589481191
 30
0.0
 10
205.6055617454415
 20
192.056258948113
 30
0.0
 10
205.6153336165125
 20
192.0562589481065
 30
0.0
 10
205.6251407651043
 20
192.0562589481065
 30
0.0
 10
205.6349126361817
 20
192.0562589481065
 30
0.0
 10
205.8029394301574
 20
192.0562589481065
 30
0.0
 10
205.9709309466193
 20
192.056258948094
 30
0.0
 10
206.1389224630805
 20
192.0562589480873
 30
0.0
 10
206.2180146470316
 20
192.0562589480809
 30
0.0
 10
206.2971068309699
 20
192.0562589480809
 30
0.0
 10
206.3761990149081
 20
192.0562589480809
 30
0.0
 10
206.4688024862851
 20
192.056258948068
 30
0.0
 10
206.5613706801477
 20
192.056258948068
 30
0.0
 10
206.6539741515375
 20
192.056258948068
 30
0.0
 10
206.6808203388569
 20
192.0562589480616
 30
0.0
 10
206.7076665261828
 20
192.0562589480616
 30
0.0
 10
206.7344774359943
 20
192.0562589480616
 30
0.0
 10
206.873223894258
 20
192.0562589480549
 30
0.0
 10
207.0119350750079
 20
192.0562589480488
 30
0.0
 10
207.1506462557579
 20
192.0562589480424
 30
0.0
 10
207.2424383443461
 20
192.0562589480424
 30
0.0
 10
207.3341951554199
 20
192.0562589480296
 30
0.0
 10
207.4259872440082
 20
192.0562589480296
 30
0.0
 10
207.4936142362428
 20
192.0562589480296
 30
0.0
 10
207.561241228491
 20
192.0562589480234
 30
0.0
 10
207.6289034982472
 20
192.0562589480167
 30
0.0
 10
207.6722595616062
 20
192.0562589480167
 30
0.0
 10
207.7156509024853
 20
192.0562589480167
 30
0.0
 10
207.7590422433652
 20
192.0562589480167
 30
0.0
 10
207.8689316960695
 20
192.0562589480103
 30
0.0
 10
207.9788211487738
 20
192.0562589480039
 30
0.0
 10
208.0887106014839
 20
192.0562589480039
 30
0.0
 10
208.1866056998035
 20
192.0562589479914
 30
0.0
 10
208.2845360756312
 20
192.0562589479914
 30
0.0
 10
208.3824311739515
 20
192.0562589479914
 30
0.0
 10
208.4316433044551
 20
192.0562589479843
 30
0.0
 10
208.4808907124795
 20
192.0562589479782
 30
0.0
 10
208.5301028429766
 20
192.0562589479782
 30
0.0
 10
208.5795619160734
 20
192.0562589479782
 30
0.0
 10
208.6290562666853
 20
192.0562589479782
 30
0.0
 10
208.6785153397821
 20
192.0562589479782
 30
0.0
 10
208.7700604857772
 20
192.0562589479654
 30
0.0
 10
208.8616056317721
 20
192.0562589479654
 30
0.0
 10
208.9531507777665
 20
192.0562589479654
 30
0.0
 10
208.9705778691444
 20
192.0562589479593
 30
0.0
 10
208.9880402380298
 20
192.0562589479593
 30
0.0
 10
209.0054673294013
 20
192.0562589479593
 30
0.0
 10
209.1229414473902
 20
192.0562589479525
 30
0.0
 10
209.2404508428864
 20
192.0562589479525
 30
0.0
 10
209.357924960863
 20
192.0562589479397
 30
0.0
 10
209.4114409479427
 20
192.0562589479397
 30
0.0
 10
209.4649569350294
 20
192.0562589479397
 30
0.0
 10
209.5184376445888
 20
192.0562589479397
 30
0.0
 10
209.5938256896795
 20
192.0562589479333
 30
0.0
 10
209.66917845725
 20
192.0562589479269
 30
0.0
 10
209.7445665023285
 20
192.0562589479269
 30
0.0
 10
209.7794559625982
 20
192.0562589479269
 30
0.0
 10
209.8143807003695
 20
192.0562589479269
 30
0.0
 10
209.8493054381529
 20
192.0562589479201
 30
0.0
 10
209.9372522778308
 20
192.056258947914
 30
0.0
 10
210.0251991175087
 20
192.056258947914
 30
0.0
 10
210.1131812347003
 20
192.0562589479076
 30
0.0
  0
ENDBLK
  5
11C
330
119
100
AcDbEntity
  8
0
100
AcDbBlockEnd
  0
BLOCK
  5
121
330
11F
100
AcDbEntity
  8
0
100
AcDbBlockBegin
  2
block 42
 70
     0
 10
0.0
 20
0.0
 30
0.0
  3
block 42
  1

  0
SPLINE
  5
123
330
11F
100
AcDbEntity
  8
0
 62
   250
370
    25
100
AcDbSpline
210
0.0
220
0.0
230
1.0
 70
     8
 71
     3
 72
    11
 73
     7
 74
     0
 42
0.0000000001
 43
0.0000000001
 12
1.0
 22
0.0
 32
0.0
 13
1.0
 23
0.0
 33
0.0
 40
0.0
 40
0.0
 40
0.0
 40
0.0
 40
1.0
 40
1.0
 40
1.0
 40
2.0
 40
2.0
 40
2.0
 40
2.0
 10
359.6179756689309
 20
202.4180053098802
 30
0.0
 10
368.5788520000599
 20
202.4180053094766
 30
0.0
 10
377.5397283311921
 20
202.4180053090787
 30
0.0
 10
386.5006046623242
 20
202.4180053086745
 30
0.0
 10
388.8895978364166
 20
202.4182522511644
 30
0.0
 10
391.1134569726485
 20
203.6370197669836
 30
0.0
 10
392.3990753756183
 20
205.6505896486601
 30
0.0
  0
ENDBLK
  5
122
330
11F
100
AcDbEntity
  8
0
100
AcDbBlockEnd
  0
BLOCK
  5
126
330
124
100
AcDbEntity
  8
0
100
AcDbBlockBegin
  2
block 43
 70
     0
 10
0.0
 20
0.0
 30
0.0
  3
block 43
  1

  0
SPLINE
  5
128
330
124
100
AcDbEntity
  8
0
 62
   250
370
    25
100
AcDbSpline
210
0.0
220
0.0
230
1.0
 70
     8
 71
     3
 72
    11
 73
     7
 74
     0
 42
0.0000000001
 43
0.0000000001
 12
1.0
 22
0.0
 32
0.0
 13
1.0
 23
0.0
 33
0.0
 40
0.0
 40
0.0
 40
0.0
 40
0.0
 40
1.0
 40
1.0
 40
1.0
 40
2.0
 40
2.0
 40
2.0
 40
2.0
 10
359.6179756689309
 20
202.4180053098802
 30
0.0
 10
356.5579336443063
 20
202.4183580851444
 30
0.0
 10
353.5707396838911
 20
203.351659966757
 30
0.0
 10
351.0547474634105
 20
205.0933813341377
 30
0.0
 10
350.6782305681577
 20
205.353976322009
 30
0.0
 10
350.3011139551956
 20
205.6137246495566
 30
0.0
 10
349.9233976245038
 20
205.872626316802
 30
0.0
  0
ENDBLK
  5
127
330
124
100
AcDbEntity
  8
0
100
AcDbBlockEnd
  0
BLOCK
  5
12B
330
129
100
AcDbEntity
  8
0
100
AcDbBlockBegin
  2
block 44
 70
     0
 10
0.0
 20
0.0
 30
0.0
  3
block 44
  1

  0
SPLINE
  5
12D
330
129
100
AcDbEntity
  8
0
  6
AI-Linetype-21
 62
     6
370
    25
100
AcDbSpline
210
0.0
220
0.0
230
1.0
 70
     8
 71
     3
 72
    14
 73
    10
 74
     0
 42
0.0000000001
 43
0.0000000001
 12
1.0
 22
0.0
 32
0.0
 13
1.0
 23
0.0
 33
0.0
 40
0.0
 40
0.0
 40
0.0
 40
0.0
 40
1.0
 40
1.0
 40
1.0
 40
2.0
 40
2.0
 40
2.0
 40
3.0
 40
3.0
 40
3.0
 40
3.0
 10
237.7569225712521
 20
240.4177427838132
 30
0.0
 10
261.7732183634883
 20
242.349645222082
 30
0.0
 10
284.7746153870103
 20
246.8472106191354
 30
0.0
 10
307.6745542835504
 20
254.4143429692911
 30
0.0
 10
313.611968962864
 20
256.538403582937
 30
0.0
 10
345.7795631064506
 20
269.835571132169
 30
0.0
 10
353.8875670305029
 20
274.4174688910134
 30
0.0
 10
373.7282796404923
 20
285.6296140124491
 30
0.0
 10
391.9598703440772
 20
298.0650793940655
 30
0.0
 10
408.6452520121676
 20
313.6423943802897
 30
0.0
  0
ENDBLK
  5
12C
330
129
100
AcDbEntity
  8
0
100
AcDbBlockEnd
  0
BLOCK
  5
131
330
12F
100
AcDbEntity
  8
0
100
AcDbBlockBegin
  2
block 45
 70
     0
 10
0.0
 20
0.0
 30
0.0
  3
block 45
  1

  0
SPLINE
  5
133
330
12F
100
AcDbEntity
  8
0
 62
   250
370
    25
100
AcDbSpline
210
0.0
220
0.0
230
1.0
 70
     8
 71
     3
 72
     8
 73
     4
 74
     0
 42
0.0000000001
 43
0.0000000001
 12
1.0
 22
0.0
 32
0.0
 13
1.0
 23
0.0
 33
0.0
 40
0.0
 40
0.0
 40
0.0
 40
0.0
 40
1.0
 40
1.0
 40
1.0
 40
1.0
 10
349.9233976245038
 20
205.872626316802
 30
0.0
 10
346.9463635878465
 20
207.9130776635047
 30
0.0
 10
343.9349692536204
 20
209.8981785924573
 30
0.0
 10
340.8863218657604
 20
211.8299399218892
 30
0.0
  0
ENDBLK
  5
132
330
12F
100
AcDbEntity
  8
0
100
AcDbBlockEnd
  0
BLOCK
  5
136
330
134
100
AcDbEntity
  8
0
100
AcDbBlockBegin
  2
block 46
 70
     0
 10
0.0
 20
0.0
 30
0.0
  3
block 46
  1

  0
SPLINE
  5
138
330
134
100
AcDbEntity
  8
0
  6
AI-Linetype-22
 62
     6
370
    25
100
AcDbSpline
210
0.0
220
0.0
230
1.0
 70
     8
 71
     3
 72
    20
 73
    16
 74
     0
 42
0.0000000001
 43
0.0000000001
 12
1.0
 22
0.0
 32
0.0
 13
1.0
 23
0.0
 33
0.0
 40
0.0
 40
0.0
 40
0.0
 40
0.0
 40
1.0
 40
1.0
 40
1.0
 40
2.0
 40
2.0
 40
2.0
 40
3.0
 40
3.0
 40
3.0
 40
4.0
 40
4.0
 40
4.0
 40
5.0
 40
5.0
 40
5.0
 40
5.0
 10
215.1264685961059
 20
239.4626041228594
 30
0.0
 10
216.7369928928711
 20
239.4593585916011
 30
0.0
 10
218.3474466346075
 20
239.4642268883088
 30
0.0
 10
219.957900376351
 20
239.4771384579539
 30
0.0
 10
219.957900376351
 20
239.4771384579539
 30
0.0
 10
219.960017027115
 20
239.4774559555824
 30
0.0
 10
219.960017027115
 20
239.4774559555824
 30
0.0
 10
221.7466466683212
 20
239.5234931098373
 30
0.0
 10
223.5326413142896
 20
239.5838882118598
 30
0.0
 10
225.3182831851228
 20
239.6586059841158
 30
0.0
 10
229.4400372382155
 20
239.8307249694027
 30
0.0
 10
233.5546652337027
 20
240.0816891960415
 30
0.0
 10
237.6667885257693
 20
240.411745606618
 30
0.0
 10
231.7639434010063
 20
240.1029968139142
 30
0.0
 10
225.8611335537572
 20
239.7942127437031
 30
0.0
 10
219.9583237065023
 20
239.485463951006
 30
0.0
  0
ENDBLK
  5
137
330
134
100
AcDbEntity
  8
0
100
AcDbBlockEnd
  0
BLOCK
  5
13C
330
13A
100
AcDbEntity
  8
0
100
AcDbBlockBegin
  2
block 47
 70
     0
 10
0.0
 20
0.0
 30
0.0
  3
block 47
  1

  0
SPLINE
  5
13E
330
13A
100
AcDbEntity
  8
0
 62
   250
370
    25
100
AcDbSpline
210
0.0
220
0.0
230
1.0
 70
     8
 71
     3
 72
    11
 73
     7
 74
     0
 42
0.0000000001
 43
0.0000000001
 12
1.0
 22
0.0
 32
0.0
 13
1.0
 23
0.0
 33
0.0
 40
0.0
 40
0.0
 40
0.0
 40
0.0
 40
1.0
 40
1.0
 40
1.0
 40
2.0
 40
2.0
 40
2.0
 40
2.0
 10
-293.8296536695607
 20
355.6549489735098
 30
0.0
 10
-293.613049740291
 20
355.9958708582333
 30
0.0
 10
-293.368364910751
 20
356.3071949096376
 30
0.0
 10
-293.088261458255
 20
356.5981991135986
 30
0.0
 10
-293.088261458255
 20
356.5981991135986
 30
0.0
 10
-293.0909072717261
 20
356.6026793577307
 30
0.0
 10
-293.0918244870549
 20
356.6051487836396
 30
0.0
  0
ENDBLK
  5
13D
330
13A
100
AcDbEntity
  8
0
100
AcDbBlockEnd
  0
BLOCK
  5
141
330
13F
100
AcDbEntity
  8
0
100
AcDbBlockBegin
  2
block 48
 70
     0
 10
0.0
 20
0.0
 30
0.0
  3
block 48
  1

  0
SPLINE
  5
143
330
13F
100
AcDbEntity
  8
0
 62
   250
370
    25
100
AcDbSpline
210
0.0
220
0.0
230
1.0
 70
     8
 71
     3
 72
    14
 73
    10
 74
     0
 42
0.0000000001
 43
0.0000000001
 12
1.0
 22
0.0
 32
0.0
 13
1.0
 23
0.0
 33
0.0
 40
0.0
 40
0.0
 40
0.0
 40
0.0
 40
1.0
 40
1.0
 40
1.0
 40
2.0
 40
2.0
 40
2.0
 40
3.0
 40
3.0
 40
3.0
 40
3.0
 10
-288.7851457112347
 20
358.4373216938045
 30
0.0
 10
-290.4093224054951
 20
358.4319947894298
 30
0.0
 10
-291.9619210260941
 20
357.7683894941937
 30
0.0
 10
-293.088261458255
 20
356.5981991135986
 30
0.0
 10
-293.088261458255
 20
356.5981991135986
 30
0.0
 10
-293.0849100945305
 20
356.5927663766034
 30
0.0
 10
-293.0849100945305
 20
356.5927663766034
 30
0.0
 10
-294.1493032140203
 20
355.4884743901097
 30
0.0
 10
-294.6495030695883
 20
354.3588884268381
 30
0.0
 10
-294.7517020245498
 20
352.8285499169213
 30
0.0
  0
ENDBLK
  5
142
330
13F
100
AcDbEntity
  8
0
100
AcDbBlockEnd
  0
BLOCK
  5
146
330
144
100
AcDbEntity
  8
0
100
AcDbBlockBegin
  2
block 49
 70
     0
 10
0.0
 20
0.0
 30
0.0
  3
block 49
  1

  0
SPLINE
  5
148
330
144
100
AcDbEntity
  8
0
 62
   250
370
    25
100
AcDbSpline
210
0.0
220
0.0
230
1.0
 70
     8
 71
     3
 72
    11
 73
     7
 74
     0
 42
0.0000000001
 43
0.0000000001
 12
1.0
 22
0.0
 32
0.0
 13
1.0
 23
0.0
 33
0.0
 40
0.0
 40
0.0
 40
0.0
 40
0.0
 40
1.0
 40
1.0
 40
1.0
 40
2.0
 40
2.0
 40
2.0
 40
2.0
 10
503.7215359408889
 20
356.5893444220843
 30
0.0
 10
503.7215359408889
 20
356.5893444220843
 30
0.0
 10
503.7241464768471
 20
356.5942479963783
 30
0.0
 10
503.7241464768471
 20
356.5942479963783
 30
0.0
 10
503.7942781725025
 20
356.5214704872409
 30
0.0
 10
503.8624343274375
 20
356.4470349350117
 30
0.0
 10
503.9287913292068
 20
356.3708355071166
 30
0.0
  0
ENDBLK
  5
147
330
144
100
AcDbEntity
  8
0
100
AcDbBlockEnd
  0
BLOCK
  5
14B
330
149
100
AcDbEntity
  8
0
100
AcDbBlockBegin
  2
block 50
 70
     0
 10
0.0
 20
0.0
 30
0.0
  3
block 50
  1

  0
SPLINE
  5
14D
330
149
100
AcDbEntity
  8
0
 62
   250
370
    25
100
AcDbSpline
210
0.0
220
0.0
230
1.0
 70
     8
 71
     3
 72
    11
 73
     7
 74
     0
 42
0.0000000001
 43
0.0000000001
 12
1.0
 22
0.0
 32
0.0
 13
1.0
 23
0.0
 33
0.0
 40
0.0
 40
0.0
 40
0.0
 40
0.0
 40
1.0
 40
1.0
 40
1.0
 40
2.0
 40
2.0
 40
2.0
 40
2.0
 10
503.7302494865856
 20
356.6051134703514
 30
0.0
 10
503.7287325535257
 20
356.6011623889096
 30
0.0
 10
503.7262631276168
 20
356.5978110251784
 30
0.0
 10
503.7241464768471
 20
356.5942479963783
 30
0.0
 10
502.5963949442716
 20
357.7646147646417
 30
0.0
 10
501.0420677255968
 20
358.4274086772088
 30
0.0
 10
499.416762150925
 20
358.43100698361
 30
0.0
  0
ENDBLK
  5
14C
330
149
100
AcDbEntity
  8
0
100
AcDbBlockEnd
  0
BLOCK
  5
150
330
14E
100
AcDbEntity
  8
0
100
AcDbBlockBegin
  2
block 51
 70
     0
 10
0.0
 20
0.0
 30
0.0
  3
block 51
  1

  0
SPLINE
  5
152
330
14E
100
AcDbEntity
  8
0
 62
   250
370
    25
100
AcDbSpline
210
0.0
220
0.0
230
1.0
 70
     8
 71
     3
 72
     8
 73
     4
 74
     0
 42
0.0000000001
 43
0.0000000001
 12
1.0
 22
0.0
 32
0.0
 13
1.0
 23
0.0
 33
0.0
 40
0.0
 40
0.0
 40
0.0
 40
0.0
 40
1.0
 40
1.0
 40
1.0
 40
1.0
 10
-236.9234853617051
 20
312.509624338574
 30
0.0
 10
-230.5758260773134
 20
298.8970198776639
 30
0.0
 10
-224.6513680765241
 20
286.191973845086
 30
0.0
 10
-218.3037087921317
 20
272.5793341066617
 30
0.0
  0
ENDBLK
  5
151
330
14E
100
AcDbEntity
  8
0
100
AcDbBlockEnd
  0
BLOCK
  5
155
330
153
100
AcDbEntity
  8
0
100
AcDbBlockBegin
  2
block 52
 70
     0
 10
0.0
 20
0.0
 30
0.0
  3
block 52
  1

  0
SPLINE
  5
157
330
153
100
AcDbEntity
  8
0
  6
AI-Linetype-23
 62
     6
370
    25
100
AcDbSpline
210
0.0
220
0.0
230
1.0
 70
     8
 71
     3
 72
    35
 73
    31
 74
     0
 42
0.0000000001
 43
0.0000000001
 12
1.0
 22
0.0
 32
0.0
 13
1.0
 23
0.0
 33
0.0
 40
0.0
 40
0.0
 40
0.0
 40
0.0
 40
1.0
 40
1.0
 40
1.0
 40
2.0
 40
2.0
 40
2.0
 40
3.0
 40
3.0
 40
3.0
 40
4.0
 40
4.0
 40
4.0
 40
5.0
 40
5.0
 40
5.0
 40
6.0
 40
6.0
 40
6.0
 40
7.0
 40
7.0
 40
7.0
 40
8.0
 40
8.0
 40
8.0
 40
9.0
 40
9.0
 40
9.0
 40
10.0
 40
10.0
 40
10.0
 40
10.0
 10
-88.70026465414024
 20
346.0120171986157
 30
0.0
 10
-88.30371013155255
 20
345.838769332713
 30
0.0
 10
-87.90958975736443
 20
345.6598417872235
 30
0.0
 10
-87.51758603394029
 20
345.4765398301354
 30
0.0
 10
-87.11362323364592
 20
345.2876287485024
 30
0.0
 10
-86.71188291666492
 20
345.0940257576492
 30
0.0
 10
-86.31257674807674
 20
344.8954839149824
 30
0.0
 10
-85.51526967887466
 20
344.4990352248937
 30
0.0
 10
-84.72773448075061
 20
344.0828311275829
 30
0.0
 10
-83.94965365608185
 20
343.6497996566112
 30
0.0
 10
-82.23728317958886
 20
342.6967776453369
 30
0.0
 10
-80.57063235984066
 20
341.6622645792469
 30
0.0
 10
-78.94624400055504
 20
340.5661569756241
 30
0.0
 10
-78.28203898755191
 20
340.1178856190865
 30
0.0
 10
-77.62460725703146
 20
339.660265721623
 30
0.0
 10
-76.97352547882926
 20
339.193120895669
 30
0.0
 10
-73.29789085409817
 20
336.5573967961417
 30
0.0
 10
-69.85074868047685
 20
333.6710965224334
 30
0.0
 10
-66.46837602055962
 20
330.6792812076324
 30
0.0
 10
-65.95046685358457
 20
330.2215554776385
 30
0.0
 10
-65.43693209821443
 20
329.7619600394549
 30
0.0
 10
-64.9247378883269
 20
329.3009182232391
 30
0.0
 10
-64.24811519078467
 20
328.6918872403751
 30
0.0
 10
-63.57375025408241
 20
328.0803162765837
 30
0.0
 10
-62.90114919301498
 20
327.4668050495859
 30
0.0
 10
-60.45892225205145
 20
325.2392064969362
 30
0.0
 10
-58.03976680451525
 20
322.9864903550877
 30
0.0
 10
-55.60265510292357
 20
320.7533179554075
 30
0.0
 10
-54.69595246621365
 20
319.9224972488753
 30
0.0
 10
-53.78678040360035
 20
319.0943576333353
 30
0.0
 10
-52.87305754181772
 20
318.2712627021329
 30
0.0
  0
ENDBLK
  5
156
330
153
100
AcDbEntity
  8
0
100
AcDbBlockEnd
  0
BLOCK
  5
15B
330
159
100
AcDbEntity
  8
0
100
AcDbBlockBegin
  2
block 53
 70
     0
 10
0.0
 20
0.0
 30
0.0
  3
block 53
  1

  0
SPLINE
  5
15D
330
159
100
AcDbEntity
  8
0
 62
   250
370
    25
100
AcDbSpline
210
0.0
220
0.0
230
1.0
 70
     8
 71
     3
 72
     8
 73
     4
 74
     0
 42
0.0000000001
 43
0.0000000001
 12
1.0
 22
0.0
 32
0.0
 13
1.0
 23
0.0
 33
0.0
 40
0.0
 40
0.0
 40
0.0
 40
0.0
 40
1.0
 40
1.0
 40
1.0
 40
1.0
 10
-218.3037087921317
 20
272.5793341066617
 30
0.0
 10
-217.2422084288487
 20
270.303017308752
 30
0.0
 10
-215.1733234069519
 20
268.6573566090404
 30
0.0
 10
-212.7165621305887
 20
268.1351435853549
 30
0.0
  0
ENDBLK
  5
15C
330
159
100
AcDbEntity
  8
0
100
AcDbBlockEnd
  0
BLOCK
  5
160
330
15E
100
AcDbEntity
  8
0
100
AcDbBlockBegin
  2
block 54
 70
     0
 10
0.0
 20
0.0
 30
0.0
  3
block 54
  1

  0
SPLINE
  5
162
330
15E
100
AcDbEntity
  8
0
 62
   250
370
    25
100
AcDbSpline
210
0.0
220
0.0
230
1.0
 70
     8
 71
     3
 72
    23
 73
    19
 74
     0
 42
0.0000000001
 43
0.0000000001
 12
1.0
 22
0.0
 32
0.0
 13
1.0
 23
0.0
 33
0.0
 40
0.0
 40
0.0
 40
0.0
 40
0.0
 40
1.0
 40
1.0
 40
1.0
 40
2.0
 40
2.0
 40
2.0
 40
3.0
 40
3.0
 40
3.0
 40
4.0
 40
4.0
 40
4.0
 40
5.0
 40
5.0
 40
5.0
 40
6.0
 40
6.0
 40
6.0
 40
6.0
 10
19.6586731490271
 20
211.826412185025
 30
0.0
 10
27.62331251566804
 20
212.1330796043695
 30
0.0
 10
35.59116213598222
 20
212.3506713036256
 30
0.0
 10
43.55992897162519
 20
212.5192978149583
 30
0.0
 10
52.88335230291285
 20
212.7166049442352
 30
0.0
 10
62.20801034715077
 20
212.8469200764948
 30
0.0
 10
71.53316227657199
 20
212.9244600494474
 30
0.0
 10
76.55558651169382
 20
212.9662286245053
 30
0.0
 10
81.57818713437428
 20
212.992686758962
 30
0.0
 10
86.60075247954673
 20
213.0123716109429
 30
0.0
 10
90.76579204096407
 20
213.0287050992255
 30
0.0
 10
94.9308316023811
 20
213.0404172333228
 30
0.0
 10
99.09583588628404
 20
213.0515649272182
 30
0.0
 10
104.4144853972939
 20
213.0657817646848
 30
0.0
 10
109.7331349082909
 20
213.0791519418354
 30
0.0
 10
115.0517844193011
 20
213.09104046344
 30
0.0
 10
136.8073560742979
 20
213.1396175977378
 30
0.0
 10
306.4314100043169
 20
212.2420165517082
 30
0.0
 10
328.1870169368153
 20
212.2420871057546
 30
0.0
  0
ENDBLK
  5
161
330
15E
100
AcDbEntity
  8
0
100
AcDbBlockEnd
  0
BLOCK
  5
165
330
163
100
AcDbEntity
  8
0
100
AcDbBlockBegin
  2
block 55
 70
     0
 10
0.0
 20
0.0
 30
0.0
  3
block 55
  1

  0
SPLINE
  5
167
330
163
100
AcDbEntity
  8
0
 62
   250
370
    25
100
AcDbSpline
210
0.0
220
0.0
230
1.0
 70
     8
 71
     3
 72
    11
 73
     7
 74
     0
 42
0.0000000001
 43
0.0000000001
 12
1.0
 22
0.0
 32
0.0
 13
1.0
 23
0.0
 33
0.0
 40
0.0
 40
0.0
 40
0.0
 40
0.0
 40
1.0
 40
1.0
 40
1.0
 40
2.0
 40
2.0
 40
2.0
 40
2.0
 10
485.7061920369682
 20
358.5126744265994
 30
0.0
 10
383.9107060592512
 20
358.9959410804948
 30
0.0
 10
282.1152200815271
 20
359.2856752985675
 30
0.0
 10
180.3186405008932
 20
359.3819123583513
 30
0.0
 10
36.44667710810012
 20
359.5163196889897
 30
0.0
 10
-107.4230638013992
 20
359.2633799279049
 30
0.0
 10
-251.2936513712273
 20
358.6230577975836
 30
0.0
  0
ENDBLK
  5
166
330
163
100
AcDbEntity
  8
0
100
AcDbBlockEnd
  0
BLOCK
  5
16A
330
168
100
AcDbEntity
  8
0
100
AcDbBlockBegin
  2
block 56
 70
     0
 10
0.0
 20
0.0
 30
0.0
  3
block 56
  1

  0
SPLINE
  5
16C
330
168
100
AcDbEntity
  8
0
  6
AI-Linetype-24
 62
     6
370
    25
100
AcDbSpline
210
0.0
220
0.0
230
1.0
 70
     8
 71
     3
 72
     8
 73
     4
 74
     0
 42
0.0000000001
 43
0.0000000001
 12
1.0
 22
0.0
 32
0.0
 13
1.0
 23
0.0
 33
0.0
 40
0.0
 40
0.0
 40
0.0
 40
0.0
 40
1.0
 40
1.0
 40
1.0
 40
1.0
 10
451.943332193251
 20
314.241939664452
 30
0.0
 10
456.4223338975696
 20
316.8898766129834
 30
0.0
 10
461.5216569571356
 20
318.3319792750294
 30
0.0
 10
466.7418477564323
 20
318.4135016108521
 30
0.0
  0
ENDBLK
  5
16B
330
168
100
AcDbEntity
  8
0
100
AcDbBlockEnd
  0
BLOCK
  5
170
330
16E
100
AcDbEntity
  8
0
100
AcDbBlockBegin
  2
block 57
 70
     0
 10
0.0
 20
0.0
 30
0.0
  3
block 57
  1

  0
SPLINE
  5
172
330
16E
100
AcDbEntity
  8
0
 62
   250
370
    25
100
AcDbSpline
210
0.0
220
0.0
230
1.0
 70
     8
 71
     3
 72
    11
 73
     7
 74
     0
 42
0.0000000001
 43
0.0000000001
 12
1.0
 22
0.0
 32
0.0
 13
1.0
 23
0.0
 33
0.0
 40
0.0
 40
0.0
 40
0.0
 40
0.0
 40
1.0
 40
1.0
 40
1.0
 40
2.0
 40
2.0
 40
2.0
 40
2.0
 10
392.3990753756183
 20
205.6505896486601
 30
0.0
 10
411.3307526787291
 20
235.2905796050761
 30
0.0
 10
426.7426866865726
 20
266.070315448671
 30
0.0
 10
439.1334544891216
 20
298.9854697037027
 30
0.0
 10
441.1683144879406
 20
304.3914693682346
 30
0.0
 10
445.6668637058647
 20
309.8335159728585
 30
0.0
 10
450.2883335480019
 20
313.26142843997
 30
0.0
  0
ENDBLK
  5
171
330
16E
100
AcDbEntity
  8
0
100
AcDbBlockEnd
  0
BLOCK
  5
175
330
173
100
AcDbEntity
  8
0
100
AcDbBlockBegin
  2
block 58
 70
     0
 10
0.0
 20
0.0
 30
0.0
  3
block 58
  1

  0
SPLINE
  5
177
330
173
100
AcDbEntity
  8
0
 62
   250
370
    25
100
AcDbSpline
210
0.0
220
0.0
230
1.0
 70
     8
 71
     3
 72
    26
 73
    22
 74
     0
 42
0.0000000001
 43
0.0000000001
 12
1.0
 22
0.0
 32
0.0
 13
1.0
 23
0.0
 33
0.0
 40
0.0
 40
0.0
 40
0.0
 40
0.0
 40
1.0
 40
1.0
 40
1.0
 40
2.0
 40
2.0
 40
2.0
 40
3.0
 40
3.0
 40
3.0
 40
4.0
 40
4.0
 40
4.0
 40
5.0
 40
5.0
 40
5.0
 40
6.0
 40
6.0
 40
6.0
 40
7.0
 40
7.0
 40
7.0
 40
7.0
 10
-54.44858654954446
 20
234.4908384083755
 30
0.0
 10
-50.38733343113432
 20
233.5379222295418
 30
0.0
 10
-46.90614845755001
 20
230.9371934228137
 30
0.0
 10
-44.84057952195666
 20
227.3129228566659
 30
0.0
 10
-40.66164062078428
 20
219.9799626359752
 30
0.0
 10
-36.3047972220162
 20
212.7637709830008
 30
0.0
 10
-31.76179438762206
 20
205.6505896677058
 30
0.0
 10
-30.47617598483003
 20
203.6370197859134
 30
0.0
 10
-28.25231684871519
 20
202.4182522698892
 30
0.0
 10
-25.86332367461804
 20
202.4180053271868
 30
0.0
 10
-16.90244734349099
 20
202.418005326789
 30
0.0
 10
-7.941571012357512
 20
202.4180053263847
 30
0.0
 10
1.019305318775963
 20
202.4180053259804
 30
0.0
 10
4.079347343394168
 20
202.4183933784896
 30
0.0
 10
7.066541303900764
 20
203.3516599823185
 30
0.0
 10
9.582498247027381
 20
205.093381349468
 30
0.0
 10
9.959050419813227
 20
205.3539763373068
 30
0.0
 10
10.33616703280128
 20
205.6137246648227
 30
0.0
 10
10.71388336351175
 20
205.872626332036
 30
0.0
 10
10.69278741079488
 20
205.8581625517386
 30
0.0
 10
10.69105881266132
 20
205.8868784472481
 30
0.0
 10
10.68142805163456
 20
205.8968267058899
 30
0.0
  0
ENDBLK
  5
176
330
173
100
AcDbEntity
  8
0
100
AcDbBlockEnd
  0
BLOCK
  5
17A
330
178
100
AcDbEntity
  8
0
100
AcDbBlockBegin
  2
block 59
 70
     0
 10
0.0
 20
0.0
 30
0.0
  3
block 59
  1

  0
SPLINE
  5
17C
330
178
100
AcDbEntity
  8
0
  6
AI-Linetype-25
 62
     6
370
    25
100
AcDbSpline
210
0.0
220
0.0
230
1.0
 70
     8
 71
     3
 72
     8
 73
     4
 74
     0
 42
0.0000000001
 43
0.0000000001
 12
1.0
 22
0.0
 32
0.0
 13
1.0
 23
0.0
 33
0.0
 40
0.0
 40
0.0
 40
0.0
 40
0.0
 40
1.0
 40
1.0
 40
1.0
 40
1.0
 10
219.0977993341524
 20
239.4762212426614
 30
0.0
 10
216.2859698903516
 20
239.4730462666238
 30
0.0
 10
143.6915510542848
 20
239.4709296191133
 30
0.0
 10
140.879721610484
 20
239.4699065713606
 30
0.0
  0
ENDBLK
  5
17B
330
178
100
AcDbEntity
  8
0
100
AcDbBlockEnd
  0
BLOCK
  5
180
330
17E
100
AcDbEntity
  8
0
100
AcDbBlockBegin
  2
block 60
 70
     0
 10
0.0
 20
0.0
 30
0.0
  3
block 60
  1

  0
SPLINE
  5
182
330
17E
100
AcDbEntity
  8
0
  6
AI-Linetype-26
 62
     6
370
    25
100
AcDbSpline
210
0.0
220
0.0
230
1.0
 70
     8
 71
     3
 72
     8
 73
     4
 74
     0
 42
0.0000000001
 43
0.0000000001
 12
1.0
 22
0.0
 32
0.0
 13
1.0
 23
0.0
 33
0.0
 40
0.0
 40
0.0
 40
0.0
 40
0.0
 40
1.0
 40
1.0
 40
1.0
 40
1.0
 10
-236.9234853617051
 20
312.509624338574
 30
0.0
 10
-238.0001082178433
 20
315.9726113895073
 30
0.0
 10
-241.0895602095665
 20
317.6540619804202
 30
0.0
 10
-242.6948987119256
 20
317.7083187953447
 30
0.0
  0
ENDBLK
  5
181
330
17E
100
AcDbEntity
  8
0
100
AcDbBlockEnd
  0
BLOCK
  5
186
330
184
100
AcDbEntity
  8
0
100
AcDbBlockBegin
  2
block 61
 70
     0
 10
0.0
 20
0.0
 30
0.0
  3
block 61
  1

  0
SPLINE
  5
188
330
184
100
AcDbEntity
  8
0
  6
AI-Linetype-27
 62
     6
370
    25
100
AcDbSpline
210
0.0
220
0.0
230
1.0
 70
     8
 71
     3
 72
    29
 73
    25
 74
     0
 42
0.0000000001
 43
0.0000000001
 12
1.0
 22
0.0
 32
0.0
 13
1.0
 23
0.0
 33
0.0
 40
0.0
 40
0.0
 40
0.0
 40
0.0
 40
1.0
 40
1.0
 40
1.0
 40
2.0
 40
2.0
 40
2.0
 40
3.0
 40
3.0
 40
3.0
 40
4.0
 40
4.0
 40
4.0
 40
5.0
 40
5.0
 40
5.0
 40
6.0
 40
6.0
 40
6.0
 40
7.0
 40
7.0
 40
7.0
 40
8.0
 40
8.0
 40
8.0
 40
8.0
 10
-276.9297494478717
 20
317.7111409979138
 30
0.0
 10
-276.9942367414684
 20
317.7111409979202
 30
0.0
 10
-277.0587240350651
 20
317.7111409979202
 30
0.0
 10
-277.1232466061695
 20
317.7111409979202
 30
0.0
 10
-277.1259276971552
 20
317.7111409979202
 30
0.0
 10
-277.1286440656484
 20
317.7111409979202
 30
0.0
 10
-277.1286440656484
 20
317.7111409979202
 30
0.0
 10
-277.1908030433895
 20
317.7111409979202
 30
0.0
 10
-277.2502456526361
 20
317.7111409979266
 30
0.0
 10
-277.3096882618897
 20
317.7111409979331
 30
0.0
 10
-277.3096882618897
 20
317.7111409979331
 30
0.0
 10
-277.3134276782572
 20
317.7111409979331
 30
0.0
 10
-277.3153326639555
 20
317.7111409979331
 30
0.0
 10
-277.3441896695091
 20
317.7111409979331
 30
0.0
 10
-277.3730466750692
 20
317.7111409979331
 30
0.0
 10
-277.4019036806292
 20
317.7111409979331
 30
0.0
 10
-277.7968707151404
 20
317.7111409979523
 30
0.0
 10
-278.1918730271651
 20
317.7111409979719
 30
0.0
 10
-278.5868400616727
 20
317.7111409979844
 30
0.0
 10
-280.2776912553309
 20
317.7106471128877
 30
0.0
 10
-281.8536083119695
 20
316.8558376976902
 30
0.0
 10
-282.775691944405
 20
315.4384577841379
 30
0.0
 10
-283.8367689777151
 20
313.8074019749091
 30
0.0
 10
-285.6228694562662
 20
312.7925032061557
 30
0.0
 10
-287.5671895801602
 20
312.7158451707001
 30
0.0
  0
ENDBLK
  5
187
330
184
100
AcDbEntity
  8
0
100
AcDbBlockEnd
  0
BLOCK
  5
18C
330
18A
100
AcDbEntity
  8
0
100
AcDbBlockBegin
  2
block 62
 70
     0
 10
0.0
 20
0.0
 30
0.0
  3
block 62
  1

  0
SPLINE
  5
18E
330
18A
100
AcDbEntity
  8
0
  6
AI-Linetype-28
 62
     6
370
    25
100
AcDbSpline
210
0.0
220
0.0
230
1.0
 70
    24
 71
     3
 72
    17
 73
    13
 74
     0
 42
0.0000000001
 43
0.0000000001
 12
1.0
 22
0.0
 32
0.0
 13
1.0
 23
0.0
 33
0.0
 40
0.0
 40
0.0
 40
0.0
 40
0.0
 40
1.0
 40
1.0
 40
1.0
 40
2.0
 40
2.0
 40
2.0
 40
3.0
 40
3.0
 40
3.0
 40
4.0
 40
4.0
 40
4.0
 40
4.0
 10
-242.4404605836419
 20
317.7111409963673
 30
0.0
 10
-242.7527724054085
 20
317.7111409963798
 30
0.0
 10
-263.9204962905082
 20
317.7111409973302
 30
0.0
 10
-264.2328081122777
 20
317.7111409973427
 30
0.0
 10
-264.6987182252465
 20
317.7111409973684
 30
0.0
 10
-265.1645930607015
 20
317.7111409973812
 30
0.0
 10
-265.630503173676
 20
317.7111409974069
 30
0.0
 10
-265.6518107914717
 20
317.7111409974069
 30
0.0
 10
-265.6731184092616
 20
317.7111409974069
 30
0.0
 10
-265.69439074955
 20
317.7111409974069
 30
0.0
 10
-265.7483653442962
 20
317.7111409974069
 30
0.0
 10
-276.6327036106957
 20
317.7111409979013
 30
0.0
 10
-276.6866782054423
 20
317.7111409979013
 30
0.0
  0
ENDBLK
  5
18D
330
18A
100
AcDbEntity
  8
0
100
AcDbBlockEnd
  0
BLOCK
  5
192
330
190
100
AcDbEntity
  8
0
100
AcDbBlockBegin
  2
block 63
 70
     0
 10
0.0
 20
0.0
 30
0.0
  3
block 63
  1

  0
SPLINE
  5
194
330
190
100
AcDbEntity
  8
0
 62
   250
370
    25
100
AcDbSpline
210
0.0
220
0.0
230
1.0
 70
     8
 71
     3
 72
     8
 73
     4
 74
     0
 42
0.0000000001
 43
0.0000000001
 12
1.0
 22
0.0
 32
0.0
 13
1.0
 23
0.0
 33
0.0
 40
0.0
 40
0.0
 40
0.0
 40
0.0
 40
1.0
 40
1.0
 40
1.0
 40
1.0
 10
19.95369779633587
 20
211.8264121850055
 30
0.0
 10
18.56433247712507
 20
211.7669742423162
 30
0.0
 10
11.95162907500332
 20
206.8292731277292
 30
0.0
 10
10.71388336351175
 20
205.872626332036
 30
0.0
  0
ENDBLK
  5
193
330
190
100
AcDbEntity
  8
0
100
AcDbBlockEnd
  0
BLOCK
  5
197
330
195
100
AcDbEntity
  8
0
100
AcDbBlockBegin
  2
block 64
 70
     0
 10
0.0
 20
0.0
 30
0.0
  3
block 64
  1

  0
SPLINE
  5
199
330
195
100
AcDbEntity
  8
0
 62
   250
370
    25
100
AcDbSpline
210
0.0
220
0.0
230
1.0
 70
     8
 71
     3
 72
    17
 73
    13
 74
     0
 42
0.0000000001
 43
0.0000000001
 12
1.0
 22
0.0
 32
0.0
 13
1.0
 23
0.0
 33
0.0
 40
0.0
 40
0.0
 40
0.0
 40
0.0
 40
1.0
 40
1.0
 40
1.0
 40
2.0
 40
2.0
 40
2.0
 40
3.0
 40
3.0
 40
3.0
 40
4.0
 40
4.0
 40
4.0
 40
4.0
 10
-294.7422829285996
 20
352.9627808535272
 30
0.0
 10
-294.7422829285996
 20
352.9627808535272
 30
0.0
 10
-294.2681884330821
 20
343.0603854345668
 30
0.0
 10
-294.2681884330821
 20
343.0603854345668
 30
0.0
 10
-294.2681884330821
 20
343.0603854345668
 30
0.0
 10
-293.2532474260989
 20
320.7582377681587
 30
0.0
 10
-293.0830471901484
 20
318.4669821588336
 30
0.0
 10
-292.912846954198
 20
316.1757265495008
 30
0.0
 10
-293.538274963502
 20
312.5096243411148
 30
0.0
 10
-287.9636509287244
 20
312.5096243408645
 30
0.0
 10
-282.3890268939506
 20
312.5096243406143
 30
0.0
 10
498.2249466528384
 20
313.417182733871
 30
0.0
 10
498.2249466528384
 20
313.417182733871
 30
0.0
  0
ENDBLK
  5
198
330
195
100
AcDbEntity
  8
0
100
AcDbBlockEnd
  0
BLOCK
  5
19C
330
19A
100
AcDbEntity
  8
0
100
AcDbBlockBegin
  2
block 65
 70
     0
 10
0.0
 20
0.0
 30
0.0
  3
block 65
  1

  0
INSERT
  5
19F
330
19A
100
AcDbEntity
  8
0
100
AcDbBlockReference
  2
block 66
 10
0.0
 20
0.0
 30
0.0
  0
ENDBLK
  5
19D
330
19A
100
AcDbEntity
  8
0
100
AcDbBlockEnd
  0
BLOCK
  5
1A0
330
19E
100
AcDbEntity
  8
0
100
AcDbBlockBegin
  2
block 66
 70
     0
 10
0.0
 20
0.0
 30
0.0
  3
block 66
  1

  0
INSERT
  5
1A3
330
19E
100
AcDbEntity
  8
0
100
AcDbBlockReference
  2
block 67
 10
0.0
 20
0.0
 30
0.0
  0
ENDBLK
  5
1A1
330
19E
100
AcDbEntity
  8
0
100
AcDbBlockEnd
  0
BLOCK
  5
1A4
330
1A2
100
AcDbEntity
  8
0
100
AcDbBlockBegin
  2
block 67
 70
     0
 10
0.0
 20
0.0
 30
0.0
  3
block 67
  1

  0
POLYLINE
  5
1A6
330
1A2
100
AcDbEntity
  8
0
 62
     4
370
    25
100
AcDb2dPolyline
 66
     1
 10
0.0
 20
0.0
 30
0.0
  0
VERTEX
  5
1A7
330
1A6
100
AcDbEntity
  8
0
 62
     4
370
    25
100
AcDbVertex
100
AcDb2dVertex
 10
69.70187702555685
 20
298.4175083685922
 30
0.0
  0
VERTEX
  5
1A8
330
1A6
100
AcDbEntity
  8
0
 62
     4
370
    25
100
AcDbVertex
100
AcDb2dVertex
 10
58.4517939103545
 20
298.4175083685922
 30
0.0
  0
SEQEND
  5
1A9
330
1A6
100
AcDbEntity
  8
0
 62
     4
370
    25
  0
POLYLINE
  5
1AA
330
1A2
100
AcDbEntity
  8
0
  6
AI-Linetype-29
 62
     4
370
    25
100
AcDb2dPolyline
 66
     1
 10
0.0
 20
0.0
 30
0.0
  0
VERTEX
  5
1AB
330
1AA
100
AcDbEntity
  8
0
  6
AI-Linetype-29
 62
     4
370
    25
100
AcDbVertex
100
AcDb2dVertex
 10
55.32680700826302
 20
298.4175083685922
 30
0.0
  0
VERTEX
  5
1AC
330
1AA
100
AcDbEntity
  8
0
  6
AI-Linetype-29
 62
     4
370
    25
100
AcDbVertex
100
AcDb2dVertex
 10
50.63932396364497
 20
298.4175083685922
 30
0.0
  0
SEQEND
  5
1AE
330
1AA
100
AcDbEntity
  8
0
  6
AI-Linetype-29
 62
     4
370
    25
  0
POLYLINE
  5
1AF
330
1A2
100
AcDbEntity
  8
0
  6
AI-Linetype-30
 62
     4
370
    25
100
AcDb2dPolyline
 66
     1
 10
0.0
 20
0.0
 30
0.0
  0
VERTEX
  5
1B0
330
1AF
100
AcDbEntity
  8
0
  6
AI-Linetype-30
 62
     4
370
    25
100
AcDbVertex
100
AcDb2dVertex
 10
49.07683320408007
 20
298.4175083685922
 30
0.0
  0
VERTEX
  5
1B1
330
1AF
100
AcDbEntity
  8
0
  6
AI-Linetype-30
 62
     4
370
    25
100
AcDbVertex
100
AcDb2dVertex
 10
22.51429919633676
 20
298.4175083685922
 30
0.0
  0
SEQEND
  5
1B3
330
1AF
100
AcDbEntity
  8
0
  6
AI-Linetype-30
 62
     4
370
    25
  0
POLYLINE
  5
1B4
330
1A2
100
AcDbEntity
  8
0
 62
     4
370
    25
100
AcDb2dPolyline
 66
     1
 10
0.0
 20
0.0
 30
0.0
  0
VERTEX
  5
1B5
330
1B4
100
AcDbEntity
  8
0
 62
     4
370
    25
100
AcDbVertex
100
AcDb2dVertex
 10
20.95180574529102
 20
298.4175083685922
 30
0.0
  0
VERTEX
  5
1B6
330
1B4
100
AcDbEntity
  8
0
 62
     4
370
    25
100
AcDbVertex
100
AcDb2dVertex
 10
9.701722630088677
 20
298.4175083685922
 30
0.0
  0
SEQEND
  5
1B7
330
1B4
100
AcDbEntity
  8
0
 62
     4
370
    25
  0
ENDBLK
  5
1A5
330
1A2
100
AcDbEntity
  8
0
100
AcDbBlockEnd
  0
BLOCK
  5
1BA
330
1B8
100
AcDbEntity
  8
0
100
AcDbBlockBegin
  2
block 68
 70
     0
 10
0.0
 20
0.0
 30
0.0
  3
block 68
  1

  0
INSERT
  5
1BD
330
1B8
100
AcDbEntity
  8
0
100
AcDbBlockReference
  2
block 69
 10
0.0
 20
0.0
 30
0.0
  0
ENDBLK
  5
1BB
330
1B8
100
AcDbEntity
  8
0
100
AcDbBlockEnd
  0
BLOCK
  5
1BE
330
1BC
100
AcDbEntity
  8
0
100
AcDbBlockBegin
  2
block 69
 70
     0
 10
0.0
 20
0.0
 30
0.0
  3
block 69
  1

  0
INSERT
  5
1C1
330
1BC
100
AcDbEntity
  8
0
100
AcDbBlockReference
  2
block 70
 10
0.0
 20
0.0
 30
0.0
  0
ENDBLK
  5
1BF
330
1BC
100
AcDbEntity
  8
0
100
AcDbBlockEnd
  0
BLOCK
  5
1C2
330
1C0
100
AcDbEntity
  8
0
100
AcDbBlockBegin
  2
block 70
 70
     0
 10
0.0
 20
0.0
 30
0.0
  3
block 70
  1

  0
POLYLINE
  5
1C4
330
1C0
100
AcDbEntity
  8
0
 62
     4
370
    25
100
AcDb2dPolyline
 66
     1
 10
0.0
 20
0.0
 30
0.0
  0
VERTEX
  5
1C5
330
1C4
100
AcDbEntity
  8
0
 62
     4
370
    25
100
AcDbVertex
100
AcDb2dVertex
 10
39.70223046475874
 20
268.4174230964156
 30
0.0
  0
VERTEX
  5
1C6
330
1C4
100
AcDbEntity
  8
0
 62
     4
370
    25
100
AcDbVertex
100
AcDb2dVertex
 10
39.70223046475874
 20
279.6675115945797
 30
0.0
  0
SEQEND
  5
1C7
330
1C4
100
AcDbEntity
  8
0
 62
     4
370
    25
  0
POLYLINE
  5
1C8
330
1C0
100
AcDbEntity
  8
0
  6
AI-Linetype-31
 62
     4
370
    25
100
AcDb2dPolyline
 66
     1
 10
0.0
 20
0.0
 30
0.0
  0
VERTEX
  5
1C9
330
1C8
100
AcDbEntity
  8
0
  6
AI-Linetype-31
 62
     4
370
    25
100
AcDbVertex
100
AcDb2dVertex
 10
39.70223046475874
 20
282.7924715818627
 30
0.0
  0
VERTEX
  5
1CA
330
1C8
100
AcDbEntity
  8
0
  6
AI-Linetype-31
 62
     4
370
    25
100
AcDbVertex
100
AcDb2dVertex
 10
39.70223046475874
 20
287.4798900309404
 30
0.0
  0
SEQEND
  5
1CC
330
1C8
100
AcDbEntity
  8
0
  6
AI-Linetype-31
 62
     4
370
    25
  0
POLYLINE
  5
1CD
330
1C0
100
AcDbEntity
  8
0
  6
AI-Linetype-32
 62
     4
370
    25
100
AcDb2dPolyline
 66
     1
 10
0.0
 20
0.0
 30
0.0
  0
VERTEX
  5
1CE
330
1CD
100
AcDbEntity
  8
0
  6
AI-Linetype-32
 62
     4
370
    25
100
AcDbVertex
100
AcDb2dVertex
 10
39.70223046475874
 20
289.0423700245819
 30
0.0
  0
VERTEX
  5
1CF
330
1CD
100
AcDbEntity
  8
0
  6
AI-Linetype-32
 62
     4
370
    25
100
AcDbVertex
100
AcDb2dVertex
 10
39.70223046475874
 20
315.6045945120277
 30
0.0
  0
SEQEND
  5
1D1
330
1CD
100
AcDbEntity
  8
0
  6
AI-Linetype-32
 62
     4
370
    25
  0
POLYLINE
  5
1D2
330
1C0
100
AcDbEntity
  8
0
 62
     4
370
    25
100
AcDb2dPolyline
 66
     1
 10
0.0
 20
0.0
 30
0.0
  0
VERTEX
  5
1D3
330
1D2
100
AcDbEntity
  8
0
 62
     4
370
    25
100
AcDbVertex
100
AcDb2dVertex
 10
39.70223046475874
 20
317.1670745056692
 30
0.0
  0
VERTEX
  5
1D4
330
1D2
100
AcDbEntity
  8
0
 62
     4
370
    25
100
AcDbVertex
100
AcDb2dVertex
 10
39.70223046475874
 20
328.4171414719864
 30
0.0
  0
SEQEND
  5
1D5
330
1D2
100
AcDbEntity
  8
0
 62
     4
370
    25
  0
ENDBLK
  5
1C3
330
1C0
100
AcDbEntity
  8
0
100
AcDbBlockEnd
  0
BLOCK
  5
1D8
330
1D6
100
AcDbEntity
  8
0
100
AcDbBlockBegin
  2
block 71
 70
     0
 10
0.0
 20
0.0
 30
0.0
  3
block 71
  1

  0
INSERT
  5
1DB
330
1D6
100
AcDbEntity
  8
0
100
AcDbBlockReference
  2
block 72
 10
0.0
 20
0.0
 30
0.0
  0
ENDBLK
  5
1D9
330
1D6
100
AcDbEntity
  8
0
100
AcDbBlockEnd
  0
BLOCK
  5
1DC
330
1DA
100
AcDbEntity
  8
0
100
AcDbBlockBegin
  2
block 72
 70
     0
 10
0.0
 20
0.0
 30
0.0
  3
block 72
  1

  0
INSERT
  5
1DF
330
1DA
100
AcDbEntity
  8
0
100
AcDbBlockReference
  2
block 73
 10
0.0
 20
0.0
 30
0.0
  0
ENDBLK
  5
1DD
330
1DA
100
AcDbEntity
  8
0
100
AcDbBlockEnd
  0
BLOCK
  5
1E0
330
1DE
100
AcDbEntity
  8
0
100
AcDbBlockBegin
  2
block 73
 70
     0
 10
0.0
 20
0.0
 30
0.0
  3
block 73
  1

  0
POLYLINE
  5
1E2
330
1DE
100
AcDbEntity
  8
0
 62
     4
370
    25
100
AcDb2dPolyline
 66
     1
 10
0.0
 20
0.0
 30
0.0
  0
VERTEX
  5
1E3
330
1E2
100
AcDbEntity
  8
0
 62
     4
370
    25
100
AcDbVertex
100
AcDb2dVertex
 10
180.0275771644658
 20
162.5434914924316
 30
0.0
  0
VERTEX
  5
1E4
330
1E2
100
AcDbEntity
  8
0
 62
     4
370
    25
100
AcDbVertex
100
AcDb2dVertex
 10
180.0275771644658
 20
173.7935799905957
 30
0.0
  0
SEQEND
  5
1E5
330
1E2
100
AcDbEntity
  8
0
 62
     4
370
    25
  0
POLYLINE
  5
1E6
330
1DE
100
AcDbEntity
  8
0
  6
AI-Linetype-33
 62
     4
370
    25
100
AcDb2dPolyline
 66
     1
 10
0.0
 20
0.0
 30
0.0
  0
VERTEX
  5
1E7
330
1E6
100
AcDbEntity
  8
0
  6
AI-Linetype-33
 62
     4
370
    25
100
AcDbVertex
100
AcDb2dVertex
 10
180.0275771644658
 20
177.4298890412003
 30
0.0
  0
VERTEX
  5
1E8
330
1E6
100
AcDbEntity
  8
0
  6
AI-Linetype-33
 62
     4
370
    25
100
AcDbVertex
100
AcDb2dVertex
 10
180.0275771644658
 20
182.8843580000689
 30
0.0
  0
SEQEND
  5
1EA
330
1E6
100
AcDbEntity
  8
0
  6
AI-Linetype-33
 62
     4
370
    25
  0
POLYLINE
  5
1EB
330
1DE
100
AcDbEntity
  8
0
  6
AI-Linetype-34
 62
     4
370
    25
100
AcDb2dPolyline
 66
     1
 10
0.0
 20
0.0
 30
0.0
  0
VERTEX
  5
1EC
330
1EB
100
AcDbEntity
  8
0
  6
AI-Linetype-34
 62
     4
370
    25
100
AcDbVertex
100
AcDb2dVertex
 10
180.0275771644658
 20
184.7025071424094
 30
0.0
  0
VERTEX
  5
1ED
330
1EB
100
AcDbEntity
  8
0
  6
AI-Linetype-34
 62
     4
370
    25
100
AcDbVertex
100
AcDb2dVertex
 10
180.0275771644658
 20
379.2461017932093
 30
0.0
  0
SEQEND
  5
1EF
330
1EB
100
AcDbEntity
  8
0
  6
AI-Linetype-34
 62
     4
370
    25
  0
POLYLINE
  5
1F0
330
1DE
100
AcDbEntity
  8
0
 62
     4
370
    25
100
AcDb2dPolyline
 66
     1
 10
0.0
 20
0.0
 30
0.0
  0
VERTEX
  5
1F1
330
1F0
100
AcDbEntity
  8
0
 62
     4
370
    25
100
AcDbVertex
100
AcDb2dVertex
 10
180.0275771644658
 20
381.0642509355499
 30
0.0
  0
VERTEX
  5
1F2
330
1F0
100
AcDbEntity
  8
0
 62
     4
370
    25
100
AcDbVertex
100
AcDb2dVertex
 10
180.0275771644658
 20
392.3143394337149
 30
0.0
  0
SEQEND
  5
1F3
330
1F0
100
AcDbEntity
  8
0
 62
     4
370
    25
  0
ENDBLK
  5
1E1
330
1DE
100
AcDbEntity
  8
0
100
AcDbBlockEnd
  0
BLOCK
  5
1F6
330
1F4
100
AcDbEntity
  8
0
100
AcDbBlockBegin
  2
block 74
 70
     0
 10
0.0
 20
0.0
 30
0.0
  3
block 74
  1

  0
SPLINE
  5
1F8
330
1F4
100
AcDbEntity
  8
0
  6
AI-Linetype-35
 62
     6
370
    25
100
AcDbSpline
210
0.0
220
0.0
230
1.0
 70
    11
 71
     3
 72
    23
 73
    19
 74
     0
 42
0.0000000001
 43
0.0000000001
 12
1.0
 22
0.0
 32
0.0
 13
1.0
 23
0.0
 33
0.0
 40
0.0
 40
0.0
 40
0.0
 40
0.0
 40
1.0
 40
1.0
 40
1.0
 40
2.0
 40
2.0
 40
2.0
 40
3.0
 40
3.0
 40
3.0
 40
4.0
 40
4.0
 40
4.0
 40
5.0
 40
5.0
 40
5.0
 40
6.0
 40
6.0
 40
6.0
 40
6.0
 10
44.70188431719306
 20
288.4173362231981
 30
0.0
 10
50.2247578805328
 20
288.4173362229479
 30
0.0
 10
54.70119224259633
 20
292.8937705846135
 30
0.0
 10
54.7011922428466
 20
298.4175054147858
 30
0.0
 10
54.70119224309365
 20
303.939517711293
 30
0.0
 10
50.22475788143117
 20
308.4172439736057
 30
0.0
 10
44.70188431809144
 20
308.4172439738559
 30
0.0
 10
44.70188431809144
 20
308.4172439738559
 30
0.0
 10
34.70171512605457
 20
308.4172439743054
 30
0.0
 10
34.70171512605457
 20
308.4172439743054
 30
0.0
 10
29.17927219613077
 20
308.417243974549
 30
0.0
 10
24.70154593381525
 20
303.9395177126406
 30
0.0
 10
24.7015459335682
 20
298.4175054161334
 30
0.0
 10
24.70154593331794
 20
292.8937705859611
 30
0.0
 10
29.1792721952324
 20
288.4173362238911
 30
0.0
 10
34.7017151251562
 20
288.4173362236473
 30
0.0
 10
40.22415805507936
 20
288.4173362233974
 30
0.0
 10
39.1794413872699
 20
288.417336223442
 30
0.0
 10
44.70188431719306
 20
288.4173362231981
 30
0.0
  0
ENDBLK
  5
1F7
330
1F4
100
AcDbEntity
  8
0
100
AcDbBlockEnd
  0
BLOCK
  5
1FC
330
1FA
100
AcDbEntity
  8
0
100
AcDbBlockBegin
  2
block 75
 70
     0
 10
0.0
 20
0.0
 30
0.0
  3
block 75
  1

  0
INSERT
  5
1FF
330
1FA
100
AcDbEntity
  8
0
100
AcDbBlockReference
  2
block 76
 10
0.0
 20
0.0
 30
0.0
  0
ENDBLK
  5
1FD
330
1FA
100
AcDbEntity
  8
0
100
AcDbBlockEnd
  0
BLOCK
  5
200
330
1FE
100
AcDbEntity
  8
0
100
AcDbBlockBegin
  2
block 76
 70
     0
 10
0.0
 20
0.0
 30
0.0
  3
block 76
  1

  0
INSERT
  5
203
330
1FE
100
AcDbEntity
  8
0
100
AcDbBlockReference
  2
block 77
 10
0.0
 20
0.0
 30
0.0
  0
ENDBLK
  5
201
330
1FE
100
AcDbEntity
  8
0
100
AcDbBlockEnd
  0
BLOCK
  5
204
330
202
100
AcDbEntity
  8
0
100
AcDbBlockBegin
  2
block 77
 70
     0
 10
0.0
 20
0.0
 30
0.0
  3
block 77
  1

  0
POLYLINE
  5
206
330
202
100
AcDbEntity
  8
0
 62
     4
370
    25
100
AcDb2dPolyline
 66
     1
 10
0.0
 20
0.0
 30
0.0
  0
VERTEX
  5
207
330
206
100
AcDbEntity
  8
0
 62
     4
370
    25
100
AcDbVertex
100
AcDb2dVertex
 10
350.2757986252674
 20
298.4175083685922
 30
0.0
  0
VERTEX
  5
208
330
206
100
AcDbEntity
  8
0
 62
     4
370
    25
100
AcDbVertex
100
AcDb2dVertex
 10
339.0257101271034
 20
298.4175083685922
 30
0.0
  0
SEQEND
  5
209
330
206
100
AcDbEntity
  8
0
 62
     4
370
    25
  0
POLYLINE
  5
20A
330
202
100
AcDbEntity
  8
0
  6
AI-Linetype-36
 62
     4
370
    25
100
AcDb2dPolyline
 66
     1
 10
0.0
 20
0.0
 30
0.0
  0
VERTEX
  5
20B
330
20A
100
AcDbEntity
  8
0
  6
AI-Linetype-36
 62
     4
370
    25
100
AcDbVertex
100
AcDb2dVertex
 10
335.900793203514
 20
298.4175083685922
 30
0.0
  0
VERTEX
  5
20C
330
20A
100
AcDbEntity
  8
0
  6
AI-Linetype-36
 62
     4
370
    25
100
AcDbVertex
100
AcDb2dVertex
 10
331.2134178181298
 20
298.4175083685922
 30
0.0
  0
SEQEND
  5
20E
330
20A
100
AcDbEntity
  8
0
  6
AI-Linetype-36
 62
     4
370
    25
  0
POLYLINE
  5
20F
330
202
100
AcDbEntity
  8
0
  6
AI-Linetype-37
 62
     4
370
    25
100
AcDb2dPolyline
 66
     1
 10
0.0
 20
0.0
 30
0.0
  0
VERTEX
  5
210
330
20F
100
AcDbEntity
  8
0
  6
AI-Linetype-37
 62
     4
370
    25
100
AcDbVertex
100
AcDb2dVertex
 10
329.6509593563351
 20
298.4175083685922
 30
0.0
  0
VERTEX
  5
211
330
20F
100
AcDbEntity
  8
0
  6
AI-Linetype-37
 62
     4
370
    25
100
AcDbVertex
100
AcDb2dVertex
 10
303.0890363147442
 20
298.4175083685922
 30
0.0
  0
SEQEND
  5
213
330
20F
100
AcDbEntity
  8
0
  6
AI-Linetype-37
 62
     4
370
    25
  0
POLYLINE
  5
214
330
202
100
AcDbEntity
  8
0
 62
     4
370
    25
100
AcDb2dPolyline
 66
     1
 10
0.0
 20
0.0
 30
0.0
  0
VERTEX
  5
215
330
214
100
AcDbEntity
  8
0
 62
     4
370
    25
100
AcDbVertex
100
AcDb2dVertex
 10
301.5265993847963
 20
298.4175083685922
 30
0.0
  0
VERTEX
  5
216
330
214
100
AcDbEntity
  8
0
 62
     4
370
    25
100
AcDbVertex
100
AcDb2dVertex
 10
290.2765108866323
 20
298.4175083685922
 30
0.0
  0
SEQEND
  5
217
330
214
100
AcDbEntity
  8
0
 62
     4
370
    25
  0
ENDBLK
  5
205
330
202
100
AcDbEntity
  8
0
100
AcDbBlockEnd
  0
BLOCK
  5
21A
330
218
100
AcDbEntity
  8
0
100
AcDbBlockBegin
  2
block 78
 70
     0
 10
0.0
 20
0.0
 30
0.0
  3
block 78
  1

  0
INSERT
  5
21D
330
218
100
AcDbEntity
  8
0
100
AcDbBlockReference
  2
block 79
 10
0.0
 20
0.0
 30
0.0
  0
ENDBLK
  5
21B
330
218
100
AcDbEntity
  8
0
100
AcDbBlockEnd
  0
BLOCK
  5
21E
330
21C
100
AcDbEntity
  8
0
100
AcDbBlockBegin
  2
block 79
 70
     0
 10
0.0
 20
0.0
 30
0.0
  3
block 79
  1

  0
INSERT
  5
221
330
21C
100
AcDbEntity
  8
0
100
AcDbBlockReference
  2
block 80
 10
0.0
 20
0.0
 30
0.0
  0
ENDBLK
  5
21F
330
21C
100
AcDbEntity
  8
0
100
AcDbBlockEnd
  0
BLOCK
  5
222
330
220
100
AcDbEntity
  8
0
100
AcDbBlockBegin
  2
block 80
 70
     0
 10
0.0
 20
0.0
 30
0.0
  3
block 80
  1

  0
POLYLINE
  5
224
330
220
100
AcDbEntity
  8
0
 62
     4
370
    25
100
AcDb2dPolyline
 66
     1
 10
0.0
 20
0.0
 30
0.0
  0
VERTEX
  5
225
330
224
100
AcDbEntity
  8
0
 62
     4
370
    25
100
AcDbVertex
100
AcDb2dVertex
 10
320.2761439900265
 20
268.4174230964156
 30
0.0
  0
VERTEX
  5
226
330
224
100
AcDbEntity
  8
0
 62
     4
370
    25
100
AcDbVertex
100
AcDb2dVertex
 10
320.2761439900265
 20
279.6675115945797
 30
0.0
  0
SEQEND
  5
227
330
224
100
AcDbEntity
  8
0
 62
     4
370
    25
  0
POLYLINE
  5
228
330
220
100
AcDbEntity
  8
0
  6
AI-Linetype-38
 62
     4
370
    25
100
AcDb2dPolyline
 66
     1
 10
0.0
 20
0.0
 30
0.0
  0
VERTEX
  5
229
330
228
100
AcDbEntity
  8
0
  6
AI-Linetype-38
 62
     4
370
    25
100
AcDbVertex
100
AcDb2dVertex
 10
320.2761439900265
 20
282.7924715818627
 30
0.0
  0
VERTEX
  5
22A
330
228
100
AcDbEntity
  8
0
  6
AI-Linetype-38
 62
     4
370
    25
100
AcDbVertex
100
AcDb2dVertex
 10
320.2761439900265
 20
287.4798900309404
 30
0.0
  0
SEQEND
  5
22C
330
228
100
AcDbEntity
  8
0
  6
AI-Linetype-38
 62
     4
370
    25
  0
POLYLINE
  5
22D
330
220
100
AcDbEntity
  8
0
  6
AI-Linetype-39
 62
     4
370
    25
100
AcDb2dPolyline
 66
     1
 10
0.0
 20
0.0
 30
0.0
  0
VERTEX
  5
22E
330
22D
100
AcDbEntity
  8
0
  6
AI-Linetype-39
 62
     4
370
    25
100
AcDbVertex
100
AcDb2dVertex
 10
320.2761439900265
 20
289.0423700245819
 30
0.0
  0
VERTEX
  5
22F
330
22D
100
AcDbEntity
  8
0
  6
AI-Linetype-39
 62
     4
370
    25
100
AcDbVertex
100
AcDb2dVertex
 10
320.2761439900265
 20
315.6045945120277
 30
0.0
  0
SEQEND
  5
231
330
22D
100
AcDbEntity
  8
0
  6
AI-Linetype-39
 62
     4
370
    25
  0
POLYLINE
  5
232
330
220
100
AcDbEntity
  8
0
 62
     4
370
    25
100
AcDb2dPolyline
 66
     1
 10
0.0
 20
0.0
 30
0.0
  0
VERTEX
  5
233
330
232
100
AcDbEntity
  8
0
 62
     4
370
    25
100
AcDbVertex
100
AcDb2dVertex
 10
320.2761439900265
 20
317.1670745056692
 30
0.0
  0
VERTEX
  5
234
330
232
100
AcDbEntity
  8
0
 62
     4
370
    25
100
AcDbVertex
100
AcDb2dVertex
 10
320.2761439900265
 20
328.4171414719864
 30
0.0
  0
SEQEND
  5
235
330
232
100
AcDbEntity
  8
0
 62
     4
370
    25
  0
ENDBLK
  5
223
330
220
100
AcDbEntity
  8
0
100
AcDbBlockEnd
  0
BLOCK
  5
238
330
236
100
AcDbEntity
  8
0
100
AcDbBlockBegin
  2
block 81
 70
     0
 10
0.0
 20
0.0
 30
0.0
  3
block 81
  1

  0
SPLINE
  5
23A
330
236
100
AcDbEntity
  8
0
  6
AI-Linetype-40
 62
     6
370
    25
100
AcDbSpline
210
0.0
220
0.0
230
1.0
 70
    11
 71
     3
 72
    23
 73
    19
 74
     0
 42
0.0000000001
 43
0.0000000001
 12
1.0
 22
0.0
 32
0.0
 13
1.0
 23
0.0
 33
0.0
 40
0.0
 40
0.0
 40
0.0
 40
0.0
 40
1.0
 40
1.0
 40
1.0
 40
2.0
 40
2.0
 40
2.0
 40
3.0
 40
3.0
 40
3.0
 40
4.0
 40
4.0
 40
4.0
 40
5.0
 40
5.0
 40
5.0
 40
6.0
 40
6.0
 40
6.0
 40
6.0
 10
325.2766670907084
 20
288.4173362105952
 30
0.0
 10
330.7986793872157
 20
288.4173362103516
 30
0.0
 10
335.2764056495341
 20
292.8937705720106
 30
0.0
 10
335.2764056497779
 20
298.4175054021828
 30
0.0
 10
335.2764056500282
 20
303.9395176986901
 30
0.0
 10
330.798679388114
 20
308.4172439610091
 30
0.0
 10
325.2766670916068
 20
308.417243961253
 30
0.0
 10
325.2766670916068
 20
308.417243961253
 30
0.0
 10
315.2764978995699
 20
308.4172439617025
 30
0.0
 10
315.2764978995699
 20
308.4172439617025
 30
0.0
 10
309.7531937028136
 20
308.4172439619524
 30
0.0
 10
305.2767593407501
 20
303.9395177000376
 30
0.0
 10
305.2767593404998
 20
298.4175054035304
 30
0.0
 10
305.276759340256
 20
292.8937705733582
 30
0.0
 10
309.7531937019152
 20
288.4173362112943
 30
0.0
 10
315.2764978986716
 20
288.4173362110444
 30
0.0
 10
320.7989408285947
 20
288.4173362108005
 30
0.0
 10
319.7533628939521
 20
288.4173362108454
 30
0.0
 10
325.2766670907084
 20
288.4173362105952
 30
0.0
  0
ENDBLK
  5
239
330
236
100
AcDbEntity
  8
0
100
AcDbBlockEnd
  0
BLOCK
  5
23E
330
23C
100
AcDbEntity
  8
0
100
AcDbBlockBegin
  2
block 82
 70
     0
 10
0.0
 20
0.0
 30
0.0
  3
block 82
  1

  0
SPLINE
  5
240
330
23C
100
AcDbEntity
  8
0
 62
   250
370
    25
100
AcDbSpline
210
0.0
220
0.0
230
1.0
 70
     8
 71
     3
 72
    14
 73
    10
 74
     0
 42
0.0000000001
 43
0.0000000001
 12
1.0
 22
0.0
 32
0.0
 13
1.0
 23
0.0
 33
0.0
 40
0.0
 40
0.0
 40
0.0
 40
0.0
 40
1.0
 40
1.0
 40
1.0
 40
2.0
 40
2.0
 40
2.0
 40
3.0
 40
3.0
 40
3.0
 40
3.0
 10
97.46115816448072
 20
213.0335275024534
 30
0.0
 10
97.46115816448072
 20
213.0335275024534
 30
0.0
 10
104.6687490743587
 20
-53.37225840209705
 30
0.0
 10
104.6687490743587
 20
-53.37225840209705
 30
0.0
 10
104.6687490743587
 20
-60.22105225405267
 30
0.0
 10
106.818471088253
 20
-61.99138622823575
 30
0.0
 10
113.4239570600323
 20
-61.99138622823575
 30
0.0
 10
144.9613952987206
 20
-61.99138622823575
 30
0.0
 10
145.1689606053505
 20
-61.99310876189885
 30
0.0
 10
181.6018395199104
 20
-61.99310876189885
 30
0.0
  0
ENDBLK
  5
23F
330
23C
100
AcDbEntity
  8
0
100
AcDbBlockEnd
  0
BLOCK
  5
243
330
241
100
AcDbEntity
  8
0
100
AcDbBlockBegin
  2
block 83
 70
     0
 10
0.0
 20
0.0
 30
0.0
  3
block 83
  1

  0
SPLINE
  5
245
330
241
100
AcDbEntity
  8
0
  6
AI-Linetype-41
 62
     6
370
    25
100
AcDbSpline
210
0.0
220
0.0
230
1.0
 70
     8
 71
     3
 72
    14
 73
    10
 74
     0
 42
0.0000000001
 43
0.0000000001
 12
1.0
 22
0.0
 32
0.0
 13
1.0
 23
0.0
 33
0.0
 40
0.0
 40
0.0
 40
0.0
 40
0.0
 40
1.0
 40
1.0
 40
1.0
 40
2.0
 40
2.0
 40
2.0
 40
3.0
 40
3.0
 40
3.0
 40
3.0
 10
100.8567348234535
 20
212.9580702433651
 30
0.0
 10
100.8567348234535
 20
212.9580702433651
 30
0.0
 10
107.9725686437888
 20
-52.04073987906757
 30
0.0
 10
107.9725686437888
 20
-52.04073987906757
 30
0.0
 10
107.9725686437888
 20
-57.79012661935124
 30
0.0
 10
108.3175060102039
 20
-58.88996436444042
 30
0.0
 10
114.1909151743641
 20
-58.88996436444042
 30
0.0
 10
114.1909151743641
 20
-58.88996436444042
 30
0.0
 10
181.6018395199104
 20
-58.89125626469015
 30
0.0
 10
181.6018395199104
 20
-58.89125626469015
 30
0.0
  0
ENDBLK
  5
244
330
241
100
AcDbEntity
  8
0
100
AcDbBlockEnd
  0
BLOCK
  5
249
330
247
100
AcDbEntity
  8
0
100
AcDbBlockBegin
  2
block 84
 70
     0
 10
0.0
 20
0.0
 30
0.0
  3
block 84
  1

  0
SPLINE
  5
24B
330
247
100
AcDbEntity
  8
0
 62
   250
370
    25
100
AcDbSpline
210
0.0
220
0.0
230
1.0
 70
     8
 71
     3
 72
    14
 73
    10
 74
     0
 42
0.0000000001
 43
0.0000000001
 12
1.0
 22
0.0
 32
0.0
 13
1.0
 23
0.0
 33
0.0
 40
0.0
 40
0.0
 40
0.0
 40
0.0
 40
1.0
 40
1.0
 40
1.0
 40
2.0
 40
2.0
 40
2.0
 40
3.0
 40
3.0
 40
3.0
 40
3.0
 10
265.6533003359881
 20
212.4471250100993
 30
0.0
 10
265.6533003359881
 20
212.4471250100993
 30
0.0
 10
258.5344993320456
 20
-53.59733827911167
 30
0.0
 10
258.5344993320456
 20
-53.59733827911167
 30
0.0
 10
258.5344993320456
 20
-60.21932972038957
 30
0.0
 10
256.3852079515678
 20
-61.99052496140195
 30
0.0
 10
249.778860712956
 20
-61.99052496140195
 30
0.0
 10
218.2418531076837
 20
-61.99052496140195
 30
0.0
 10
218.0347184344697
 20
-61.99181686165232
 30
0.0
 10
181.6018395199104
 20
-61.99181686165232
 30
0.0
  0
ENDBLK
  5
24A
330
247
100
AcDbEntity
  8
0
100
AcDbBlockEnd
  0
BLOCK
  5
24E
330
24C
100
AcDbEntity
  8
0
100
AcDbBlockBegin
  2
block 85
 70
     0
 10
0.0
 20
0.0
 30
0.0
  3
block 85
  1

  0
SPLINE
  5
250
330
24C
100
AcDbEntity
  8
0
  6
AI-Linetype-42
 62
     6
370
    25
100
AcDbSpline
210
0.0
220
0.0
230
1.0
 70
     8
 71
     3
 72
    14
 73
    10
 74
     0
 42
0.0000000001
 43
0.0000000001
 12
1.0
 22
0.0
 32
0.0
 13
1.0
 23
0.0
 33
0.0
 40
0.0
 40
0.0
 40
0.0
 40
0.0
 40
1.0
 40
1.0
 40
1.0
 40
2.0
 40
2.0
 40
2.0
 40
3.0
 40
3.0
 40
3.0
 40
3.0
 10
262.2598120133107
 20
212.4298694297469
 30
0.0
 10
262.2598120133107
 20
212.4298694297469
 30
0.0
 10
255.2306797626155
 20
-52.03987861223442
 30
0.0
 10
255.2306797626155
 20
-52.03987861223442
 30
0.0
 10
255.2306797626155
 20
-57.78969598593466
 30
0.0
 10
254.8857423962035
 20
-58.88867246419004
 30
0.0
 10
249.0123332320402
 20
-58.88867246419004
 30
0.0
 10
249.0123332320402
 20
-58.88867246419004
 30
0.0
 10
181.6018395199104
 20
-58.89039499785699
 30
0.0
 10
181.6018395199104
 20
-58.89039499785699
 30
0.0
  0
ENDBLK
  5
24F
330
24C
100
AcDbEntity
  8
0
100
AcDbBlockEnd
  0
ENDSEC
  0
SECTION
  2
ENTITIES
  0
INSERT
  5
41
330
1F
100
AcDbEntity
  8
0
100
AcDbBlockReference
  2
block 2
 10
0.0
 20
0.0
 30
0.0
  0
INSERT
  5
46
330
1F
100
AcDbEntity
  8
0
100
AcDbBlockReference
  2
block 3
 10
0.0
 20
0.0
 30
0.0
  0
INSERT
  5
4C
330
1F
100
AcDbEntity
  8
0
100
AcDbBlockReference
  2
block 4
 10
0.0
 20
0.0
 30
0.0
  0
INSERT
  5
51
330
1F
100
AcDbEntity
  8
0
100
AcDbBlockReference
  2
block 5
 10
0.0
 20
0.0
 30
0.0
  0
INSERT
  5
57
330
1F
100
AcDbEntity
  8
0
100
AcDbBlockReference
  2
block 6
 10
0.0
 20
0.0
 30
0.0
  0
INSERT
  5
5D
330
1F
100
AcDbEntity
  8
0
100
AcDbBlockReference
  2
block 7
 10
0.0
 20
0.0
 30
0.0
  0
INSERT
  5
62
330
1F
100
AcDbEntity
  8
0
100
AcDbBlockReference
  2
block 8
 10
0.0
 20
0.0
 30
0.0
  0
INSERT
  5
68
330
1F
100
AcDbEntity
  8
0
100
AcDbBlockReference
  2
block 9
 10
0.0
 20
0.0
 30
0.0
  0
INSERT
  5
78
330
1F
100
AcDbEntity
  8
0
100
AcDbBlockReference
  2
block 12
 10
0.0
 20
0.0
 30
0.0
  0
INSERT
  5
88
330
1F
100
AcDbEntity
  8
0
100
AcDbBlockReference
  2
block 15
 10
0.0
 20
0.0
 30
0.0
  0
INSERT
  5
8E
330
1F
100
AcDbEntity
  8
0
100
AcDbBlockReference
  2
block 16
 10
0.0
 20
0.0
 30
0.0
  0
INSERT
  5
94
330
1F
100
AcDbEntity
  8
0
100
AcDbBlockReference
  2
block 17
 10
0.0
 20
0.0
 30
0.0
  0
INSERT
  5
9A
330
1F
100
AcDbEntity
  8
0
100
AcDbBlockReference
  2
block 18
 10
0.0
 20
0.0
 30
0.0
  0
INSERT
  5
9F
330
1F
100
AcDbEntity
  8
0
100
AcDbBlockReference
  2
block 19
 10
0.0
 20
0.0
 30
0.0
  0
INSERT
  5
A4
330
1F
100
AcDbEntity
  8
0
100
AcDbBlockReference
  2
block 20
 10
0.0
 20
0.0
 30
0.0
  0
INSERT
  5
AA
330
1F
100
AcDbEntity
  8
0
100
AcDbBlockReference
  2
block 21
 10
0.0
 20
0.0
 30
0.0
  0
INSERT
  5
B0
330
1F
100
AcDbEntity
  8
0
100
AcDbBlockReference
  2
block 22
 10
0.0
 20
0.0
 30
0.0
  0
INSERT
  5
B6
330
1F
100
AcDbEntity
  8
0
100
AcDbBlockReference
  2
block 23
 10
0.0
 20
0.0
 30
0.0
  0
INSERT
  5
BC
330
1F
100
AcDbEntity
  8
0
100
AcDbBlockReference
  2
block 24
 10
0.0
 20
0.0
 30
0.0
  0
INSERT
  5
C1
330
1F
100
AcDbEntity
  8
0
100
AcDbBlockReference
  2
block 25
 10
0.0
 20
0.0
 30
0.0
  0
INSERT
  5
C6
330
1F
100
AcDbEntity
  8
0
100
AcDbBlockReference
  2
block 26
 10
0.0
 20
0.0
 30
0.0
  0
INSERT
  5
CC
330
1F
100
AcDbEntity
  8
0
100
AcDbBlockReference
  2
block 27
 10
0.0
 20
0.0
 30
0.0
  0
INSERT
  5
D2
330
1F
100
AcDbEntity
  8
0
100
AcDbBlockReference
  2
block 28
 10
0.0
 20
0.0
 30
0.0
  0
INSERT
  5
D7
330
1F
100
AcDbEntity
  8
0
100
AcDbBlockReference
  2
block 29
 10
0.0
 20
0.0
 30
0.0
  0
INSERT
  5
DC
330
1F
100
AcDbEntity
  8
0
100
AcDbBlockReference
  2
block 30
 10
0.0
 20
0.0
 30
0.0
  0
INSERT
  5
E1
330
1F
100
AcDbEntity
  8
0
100
AcDbBlockReference
  2
block 31
 10
0.0
 20
0.0
 30
0.0
  0
INSERT
  5
E6
330
1F
100
AcDbEntity
  8
0
100
AcDbBlockReference
  2
block 32
 10
0.0
 20
0.0
 30
0.0
  0
INSERT
  5
EB
330
1F
100
AcDbEntity
  8
0
100
AcDbBlockReference
  2
block 33
 10
0.0
 20
0.0
 30
0.0
  0
INSERT
  5
F1
330
1F
100
AcDbEntity
  8
0
100
AcDbBlockReference
  2
block 34
 10
0.0
 20
0.0
 30
0.0
  0
INSERT
  5
F7
330
1F
100
AcDbEntity
  8
0
100
AcDbBlockReference
  2
block 35
 10
0.0
 20
0.0
 30
0.0
  0
INSERT
  5
FC
330
1F
100
AcDbEntity
  8
0
100
AcDbBlockReference
  2
block 36
 10
0.0
 20
0.0
 30
0.0
  0
INSERT
  5
104
330
1F
100
AcDbEntity
  8
0
100
AcDbBlockReference
  2
block 37
 10
0.0
 20
0.0
 30
0.0
  0
INSERT
  5
10A
330
1F
100
AcDbEntity
  8
0
100
AcDbBlockReference
  2
block 38
 10
0.0
 20
0.0
 30
0.0
  0
INSERT
  5
10F
330
1F
100
AcDbEntity
  8
0
100
AcDbBlockReference
  2
block 39
 10
0.0
 20
0.0
 30
0.0
  0
INSERT
  5
115
330
1F
100
AcDbEntity
  8
0
100
AcDbBlockReference
  2
block 40
 10
0.0
 20
0.0
 30
0.0
  0
INSERT
  5
11A
330
1F
100
AcDbEntity
  8
0
100
AcDbBlockReference
  2
block 41
 10
0.0
 20
0.0
 30
0.0
  0
INSERT
  5
120
330
1F
100
AcDbEntity
  8
0
100
AcDbBlockReference
  2
block 42
 10
0.0
 20
0.0
 30
0.0
  0
INSERT
  5
125
330
1F
100
AcDbEntity
  8
0
100
AcDbBlockReference
  2
block 43
 10
0.0
 20
0.0
 30
0.0
  0
INSERT
  5
12A
330
1F
100
AcDbEntity
  8
0
100
AcDbBlockReference
  2
block 44
 10
0.0
 20
0.0
 30
0.0
  0
INSERT
  5
130
330
1F
100
AcDbEntity
  8
0
100
AcDbBlockReference
  2
block 45
 10
0.0
 20
0.0
 30
0.0
  0
INSERT
  5
135
330
1F
100
AcDbEntity
  8
0
100
AcDbBlockReference
  2
block 46
 10
0.0
 20
0.0
 30
0.0
  0
INSERT
  5
13B
330
1F
100
AcDbEntity
  8
0
100
AcDbBlockReference
  2
block 47
 10
0.0
 20
0.0
 30
0.0
  0
INSERT
  5
140
330
1F
100
AcDbEntity
  8
0
100
AcDbBlockReference
  2
block 48
 10
0.0
 20
0.0
 30
0.0
  0
INSERT
  5
145
330
1F
100
AcDbEntity
  8
0
100
AcDbBlockReference
  2
block 49
 10
0.0
 20
0.0
 30
0.0
  0
INSERT
  5
14A
330
1F
100
AcDbEntity
  8
0
100
AcDbBlockReference
  2
block 50
 10
0.0
 20
0.0
 30
0.0
  0
INSERT
  5
14F
330
1F
100
AcDbEntity
  8
0
100
AcDbBlockReference
  2
block 51
 10
0.0
 20
0.0
 30
0.0
  0
INSERT
  5
154
330
1F
100
AcDbEntity
  8
0
100
AcDbBlockReference
  2
block 52
 10
0.0
 20
0.0
 30
0.0
  0
INSERT
  5
15A
330
1F
100
AcDbEntity
  8
0
100
AcDbBlockReference
  2
block 53
 10
0.0
 20
0.0
 30
0.0
  0
INSERT
  5
15F
330
1F
100
AcDbEntity
  8
0
100
AcDbBlockReference
  2
block 54
 10
0.0
 20
0.0
 30
0.0
  0
INSERT
  5
164
330
1F
100
AcDbEntity
  8
0
100
AcDbBlockReference
  2
block 55
 10
0.0
 20
0.0
 30
0.0
  0
INSERT
  5
169
330
1F
100
AcDbEntity
  8
0
100
AcDbBlockReference
  2
block 56
 10
0.0
 20
0.0
 30
0.0
  0
INSERT
  5
16F
330
1F
100
AcDbEntity
  8
0
100
AcDbBlockReference
  2
block 57
 10
0.0
 20
0.0
 30
0.0
  0
INSERT
  5
174
330
1F
100
AcDbEntity
  8
0
100
AcDbBlockReference
  2
block 58
 10
0.0
 20
0.0
 30
0.0
  0
INSERT
  5
179
330
1F
100
AcDbEntity
  8
0
100
AcDbBlockReference
  2
block 59
 10
0.0
 20
0.0
 30
0.0
  0
INSERT
  5
17F
330
1F
100
AcDbEntity
  8
0
100
AcDbBlockReference
  2
block 60
 10
0.0
 20
0.0
 30
0.0
  0
INSERT
  5
185
330
1F
100
AcDbEntity
  8
0
100
AcDbBlockReference
  2
block 61
 10
0.0
 20
0.0
 30
0.0
  0
INSERT
  5
18B
330
1F
100
AcDbEntity
  8
0
100
AcDbBlockReference
  2
block 62
 10
0.0
 20
0.0
 30
0.0
  0
INSERT
  5
191
330
1F
100
AcDbEntity
  8
0
100
AcDbBlockReference
  2
block 63
 10
0.0
 20
0.0
 30
0.0
  0
INSERT
  5
196
330
1F
100
AcDbEntity
  8
0
100
AcDbBlockReference
  2
block 64
 10
0.0
 20
0.0
 30
0.0
  0
INSERT
  5
19B
330
1F
100
AcDbEntity
  8
0
100
AcDbBlockReference
  2
block 65
 10
0.0
 20
0.0
 30
0.0
  0
INSERT
  5
1B9
330
1F
100
AcDbEntity
  8
0
100
AcDbBlockReference
  2
block 68
 10
0.0
 20
0.0
 30
0.0
  0
INSERT
  5
1D7
330
1F
100
AcDbEntity
  8
0
100
AcDbBlockReference
  2
block 71
 10
0.0
 20
0.0
 30
0.0
  0
INSERT
  5
1F5
330
1F
100
AcDbEntity
  8
0
100
AcDbBlockReference
  2
block 74
 10
0.0
 20
0.0
 30
0.0
  0
INSERT
  5
1FB
330
1F
100
AcDbEntity
  8
0
100
AcDbBlockReference
  2
block 75
 10
0.0
 20
0.0
 30
0.0
  0
INSERT
  5
219
330
1F
100
AcDbEntity
  8
0
100
AcDbBlockReference
  2
block 78
 10
0.0
 20
0.0
 30
0.0
  0
INSERT
  5
237
330
1F
100
AcDbEntity
  8
0
100
AcDbBlockReference
  2
block 81
 10
0.0
 20
0.0
 30
0.0
  0
INSERT
  5
23D
330
1F
100
AcDbEntity
  8
0
100
AcDbBlockReference
  2
block 82
 10
0.0
 20
0.0
 30
0.0
  0
INSERT
  5
242
330
1F
100
AcDbEntity
  8
0
100
AcDbBlockReference
  2
block 83
 10
0.0
 20
0.0
 30
0.0
  0
INSERT
  5
248
330
1F
100
AcDbEntity
  8
0
100
AcDbBlockReference
  2
block 84
 10
0.0
 20
0.0
 30
0.0
  0
INSERT
  5
24D
330
1F
100
AcDbEntity
  8
0
100
AcDbBlockReference
  2
block 85
 10
0.0
 20
0.0
 30
0.0
  0
ENDSEC
  0
SECTION
  2
OBJECTS
  0
DICTIONARY
  5
C
330
0
100
AcDbDictionary
281
     1
  3
ACAD_GROUP
350
D
  3
ACAD_LAYOUT
350
1A
  3
ACAD_MATERIAL
350
3B
  3
ACAD_MLEADERSTYLE
350
273
  3
ACAD_MLINESTYLE
350
17
  3
ACAD_PLOTSETTINGS
350
19
  3
ACAD_PLOTSTYLENAME
350
E
  3
ACAD_TABLESTYLE
350
272
  3
ACAD_VISUALSTYLE
350
2A
  0
SUN
  5
3F
330
29
100
AcDbSun
 90
        1
290
     0
 63
     7
421
 16777215
 40
1.0
291
     1
 91
  2455826
 92
 54000000
292
     0
 70
     2
 71
   256
280
     1
  0
DICTIONARY
  5
D
102
{ACAD_REACTORS
330
C
102
}
330
C
100
AcDbDictionary
281
     1
  0
DICTIONARY
  5
1A
102
{ACAD_REACTORS
330
C
102
}
330
C
100
AcDbDictionary
281
     1
  3
Layout1
350
1E
  3
Layout2
350
26
  3
Model
350
22
  0
DICTIONARY
  5
3B
102
{ACAD_REACTORS
330
C
102
}
330
C
100
AcDbDictionary
281
     1
  3
ByBlock
350
3D
  3
ByLayer
350
3C
  3
Global
350
3E
  0
DICTIONARY
  5
273
102
{ACAD_REACTORS
330
C
102
}
330
C
100
AcDbDictionary
281
     1
  0
DICTIONARY
  5
17
102
{ACAD_REACTORS
330
C
102
}
330
C
100
AcDbDictionary
281
     1
  3
Standard
350
18
  0
DICTIONARY
  5
19
102
{ACAD_REACTORS
330
C
102
}
330
C
100
AcDbDictionary
281
     1
  0
ACDBDICTIONARYWDFLT
  5
E
102
{ACAD_REACTORS
330
C
102
}
330
C
100
AcDbDictionary
281
     1
  3
Normal
350
F
100
AcDbDictionaryWithDefault
340
F
  0
DICTIONARY
  5
272
102
{ACAD_REACTORS
330
C
102
}
330
C
100
AcDbDictionary
281
     1
  0
DICTIONARY
  5
2A
102
{ACAD_REACTORS
330
C
102
}
330
C
100
AcDbDictionary
281
     1
  3
2dWireframe
350
2F
  3
3D Hidden
350
31
  3
3dWireframe
350
30
  3
Basic
350
32
  3
Brighten
350
36
  3
ColorChange
350
3A
  3
Conceptual
350
34
  3
Dim
350
35
  3
Facepattern
350
39
  3
Flat
350
2B
  3
FlatWithEdges
350
2C
  3
Gouraud
350
2D
  3
GouraudWithEdges
350
2E
  3
Linepattern
350
38
  3
Realistic
350
33
  3
Thicken
350
37
  0
LAYOUT
  5
1E
102
{ACAD_REACTORS
330
1A
102
}
330
1A
100
AcDbPlotSettings
  1

  2
none_device
  4

  6

 40
0.0
 41
0.0
 42
0.0
 43
0.0
 44
0.0
 45
0.0
 46
0.0
 47
0.0
 48
0.0
 49
0.0
140
0.0
141
0.0
142
1.0
143
1.0
 70
   688
 72
     0
 73
     0
 74
     5
  7

 75
    16
 76
     0
 77
     2
 78
   300
147
1.0
148
0.0
149
0.0
100
AcDbLayout
  1
Layout1
 70
     1
 71
     1
 10
0.0
 20
0.0
 11
12.0
 21
9.0
 12
0.0
 22
0.0
 32
0.0
 14
1.000000000000000E+20
 24
1.000000000000000E+20
 34
1.000000000000000E+20
 15
-1.000000000000000E+20
 25
-1.000000000000000E+20
 35
-1.000000000000000E+20
146
0.0
 13
0.0
 23
0.0
 33
0.0
 16
1.0
 26
0.0
 36
0.0
 17
0.0
 27
1.0
 37
0.0
 76
     0
330
1B
  0
LAYOUT
  5
26
102
{ACAD_REACTORS
330
1A
102
}
330
1A
100
AcDbPlotSettings
  1

  2
none_device
  4

  6

 40
0.0
 41
0.0
 42
0.0
 43
0.0
 44
0.0
 45
0.0
 46
0.0
 47
0.0
 48
0.0
 49
0.0
140
0.0
141
0.0
142
1.0
143
1.0
 70
   688
 72
     0
 73
     0
 74
     5
  7

 75
    16
 76
     0
 77
     2
 78
   300
147
1.0
148
0.0
149
0.0
100
AcDbLayout
  1
Layout2
 70
     1
 71
     2
 10
0.0
 20
0.0
 11
0.0
 21
0.0
 12
0.0
 22
0.0
 32
0.0
 14
0.0
 24
0.0
 34
0.0
 15
0.0
 25
0.0
 35
0.0
146
0.0
 13
0.0
 23
0.0
 33
0.0
 16
1.0
 26
0.0
 36
0.0
 17
0.0
 27
1.0
 37
0.0
 76
     0
330
23
  0
LAYOUT
  5
22
102
{ACAD_REACTORS
330
1A
102
}
330
1A
100
AcDbPlotSettings
  1

  2
none_device
  4

  6

 40
0.0
 41
0.0
 42
0.0
 43
0.0
 44
0.0
 45
0.0
 46
0.0
 47
0.0
 48
0.0
 49
0.0
140
0.0
141
0.0
142
1.0
143
1.0
 70
  1712
 72
     0
 73
     0
 74
     0
  7

 75
     0
 76
     0
 77
     2
 78
   300
147
1.0
148
0.0
149
0.0
100
AcDbLayout
  1
Model
 70
     1
 71
     0
 10
0.0
 20
0.0
 11
12.0
 21
9.0
 12
0.0
 22
0.0
 32
0.0
 14
1.000000000000000E+20
 24
1.000000000000000E+20
 34
1.000000000000000E+20
 15
-1.000000000000000E+20
 25
-1.000000000000000E+20
 35
-1.000000000000000E+20
146
0.0
 13
0.0
 23
0.0
 33
0.0
 16
1.0
 26
0.0
 36
0.0
 17
0.0
 27
1.0
 37
0.0
 76
     0
330
1F
331
29
  0
MATERIAL
  5
3D
102
{ACAD_REACTORS
330
3B
102
}
330
3B
100
AcDbMaterial
  1
ByBlock
 72
     1
 94
      127
  0
MATERIAL
  5
3C
102
{ACAD_REACTORS
330
3B
102
}
330
3B
100
AcDbMaterial
  1
ByLayer
 72
     1
 94
      127
  0
MATERIAL
  5
3E
102
{ACAD_REACTORS
330
3B
102
}
330
3B
100
AcDbMaterial
  1
Global
 72
     1
 94
      127
  0
MLINESTYLE
  5
18
102
{ACAD_REACTORS
330
17
102
}
330
17
100
AcDbMlineStyle
  2
Standard
 70
     0
  3

 62
   256
 51
90.0
 52
90.0
 71
     2
 49
0.5
 62
   256
  6
BYLAYER
 49
-0.5
 62
   256
  6
BYLAYER
  0
ACDBPLACEHOLDER
  5
F
102
{ACAD_REACTORS
330
E
102
}
330
E
  0
VISUALSTYLE
  5
2F
102
{ACAD_REACTORS
330
2A
102
}
102
{ACAD_XDICTIONARY
360
25A
102
}
330
2A
100
AcDbVisualStyle
  2
2dWireframe
 70
     4
 71
     0
 72
     2
 73
     0
 90
        0
 40
-0.6
 41
-30.0
 62
     5
 63
     7
421
 16777215
 74
     1
 91
        4
 64
     7
 65
   257
 75
     1
175
     1
 42
1.0
 92
        0
 66
   257
 43
1.0
 76
     1
 77
     6
 78
     2
 67
     7
 79
     5
170
     0
171
     0
290
     0
174
     0
 93
        1
 44
0.0
173
     0
291
     0
 45
0.0
  0
VISUALSTYLE
  5
31
102
{ACAD_REACTORS
330
2A
102
}
102
{ACAD_XDICTIONARY
360
25E
102
}
330
2A
100
AcDbVisualStyle
  2
3D Hidden
 70
     6
 71
     1
 72
     2
 73
     2
 90
        0
 40
-0.6
 41
-30.0
 62
     5
 63
     7
421
 16777215
 74
     2
 91
        2
 64
     7
 65
   257
 75
     2
175
     1
 42
40.0
 92
        0
 66
   257
 43
1.0
 76
     1
 77
     6
 78
     2
 67
     7
 79
     3
170
     0
171
     0
290
     0
174
     0
 93
        1
 44
0.0
173
     0
291
     0
 45
0.0
  0
VISUALSTYLE
  5
30
102
{ACAD_REACTORS
330
2A
102
}
102
{ACAD_XDICTIONARY
360
25C
102
}
330
2A
100
AcDbVisualStyle
  2
3dWireframe
 70
     5
 71
     0
 72
     2
 73
     0
 90
        0
 40
-0.6
 41
-30.0
 62
     5
 63
     7
421
 16777215
 74
     1
 91
        4
 64
     7
 65
   257
 75
     1
175
     1
 42
1.0
 92
        0
 66
   257
 43
1.0
 76
     1
 77
     6
 78
     2
 67
     7
 79
     5
170
     0
171
     0
290
     0
174
     0
 93
        1
 44
0.0
173
     0
291
     0
 45
0.0
  0
VISUALSTYLE
  5
32
102
{ACAD_REACTORS
330
2A
102
}
102
{ACAD_XDICTIONARY
360
260
102
}
330
2A
100
AcDbVisualStyle
  2
Basic
 70
     7
 71
     1
 72
     0
 73
     1
 90
        0
 40
-0.6
 41
-30.0
 62
     5
 63
     7
421
 16777215
 74
     0
 91
        4
 64
     7
 65
   257
 75
     1
175
     1
 42
1.0
 92
        8
 66
     7
 43
1.0
 76
     1
 77
     6
 78
     2
 67
     7
 79
     5
170
     0
171
     0
290
     0
174
     0
 93
        1
 44
0.0
173
     0
291
     1
 45
0.0
  0
VISUALSTYLE
  5
36
102
{ACAD_REACTORS
330
2A
102
}
102
{ACAD_XDICTIONARY
360
268
102
}
330
2A
100
AcDbVisualStyle
  2
Brighten
 70
    12
 71
     2
 72
     2
 73
     0
 90
        0
 40
-0.6
 41
-30.0
 62
     5
 63
     7
421
 16777215
 74
     1
 91
        4
 64
     7
 65
   257
 75
     1
175
     1
 42
1.0
 92
        8
 66
     7
 43
1.0
 76
     1
 77
     6
 78
     2
 67
     7
 79
     5
170
     0
171
     0
290
     0
174
     0
 93
        1
 44
50.0
173
     0
291
     1
 45
0.0
  0
VISUALSTYLE
  5
3A
102
{ACAD_REACTORS
330
2A
102
}
102
{ACAD_XDICTIONARY
360
270
102
}
330
2A
100
AcDbVisualStyle
  2
ColorChange
 70
    16
 71
     2
 72
     2
 73
     3
 90
        0
 40
-0.6
 41
-30.0
 62
     5
 63
     8
421
  8421504
 74
     1
 91
        4
 64
     7
 65
   257
 75
     1
175
     1
 42
1.0
 92
        8
 66
     8
424
  8421504
 43
1.0
 76
     1
 77
     6
 78
     2
 67
     7
 79
     5
170
     0
171
     0
290
     0
174
     0
 93
        1
 44
0.0
173
     0
291
     1
 45
0.0
  0
VISUALSTYLE
  5
34
102
{ACAD_REACTORS
330
2A
102
}
102
{ACAD_XDICTIONARY
360
264
102
}
330
2A
100
AcDbVisualStyle
  2
Conceptual
 70
     9
 71
     3
 72
     2
 73
     0
 90
        0
 40
-0.6
 41
-30.0
 62
     5
 63
     7
421
 16777215
 74
     2
 91
        2
 64
     7
 65
   257
 75
     1
175
     1
 42
40.0
 92
        8
 66
     7
 43
1.0
 76
     1
 77
     6
 78
     2
 67
     7
 79
     3
170
     0
171
     0
290
     0
174
     0
 93
        1
 44
0.0
173
     0
291
     0
 45
0.0
  0
VISUALSTYLE
  5
35
102
{ACAD_REACTORS
330
2A
102
}
102
{ACAD_XDICTIONARY
360
266
102
}
330
2A
100
AcDbVisualStyle
  2
Dim
 70
    11
 71
     2
 72
     2
 73
     0
 90
        0
 40
-0.6
 41
-30.0
 62
     5
 63
     7
421
 16777215
 74
     1
 91
        4
 64
     7
 65
   257
 75
     1
175
     1
 42
1.0
 92
        8
 66
     7
 43
1.0
 76
     1
 77
     6
 78
     2
 67
     7
 79
     5
170
     0
171
     0
290
     0
174
     0
 93
        1
 44
-50.0
173
     0
291
     1
 45
0.0
  0
VISUALSTYLE
  5
39
102
{ACAD_REACTORS
330
2A
102
}
102
{ACAD_XDICTIONARY
360
26E
102
}
330
2A
100
AcDbVisualStyle
  2
Facepattern
 70
    15
 71
     2
 72
     2
 73
     0
 90
        0
 40
-0.6
 41
-30.0
 62
     5
 63
     7
421
 16777215
 74
     1
 91
        4
 64
     7
 65
   257
 75
     1
175
     1
 42
1.0
 92
        8
 66
     7
 43
1.0
 76
     1
 77
     6
 78
     2
 67
     7
 79
     5
170
     0
171
     0
290
     0
174
     0
 93
        1
 44
0.0
173
     0
291
     1
 45
0.0
  0
VISUALSTYLE
  5
2B
102
{ACAD_REACTORS
330
2A
102
}
102
{ACAD_XDICTIONARY
360
252
102
}
330
2A
100
AcDbVisualStyle
  2
Flat
 70
     0
 71
     2
 72
     1
 73
     1
 90
        2
 40
-0.6
 41
30.0
 62
     5
 63
     7
421
 16777215
 74
     0
 91
        4
 64
     7
 65
   257
 75
     1
175
     1
 42
1.0
 92
        8
 66
     7
 43
1.0
 76
     1
 77
     6
 78
     2
 67
     7
 79
     5
170
     0
171
     0
290
     0
174
     0
 93
       13
 44
0.0
173
     0
291
     1
 45
0.0
  0
VISUALSTYLE
  5
2C
102
{ACAD_REACTORS
330
2A
102
}
102
{ACAD_XDICTIONARY
360
254
102
}
330
2A
100
AcDbVisualStyle
  2
FlatWithEdges
 70
     1
 71
     2
 72
     1
 73
     1
 90
        2
 40
-0.6
 41
30.0
 62
     5
 63
     7
421
 16777215
 74
     1
 91
        4
 64
     7
 65
   257
 75
     1
175
     1
 42
1.0
 92
        0
 66
   257
 43
1.0
 76
     1
 77
     6
 78
     2
 67
     7
 79
     5
170
     0
171
     0
290
     0
174
     0
 93
       13
 44
0.0
173
     0
291
     1
 45
0.0
  0
VISUALSTYLE
  5
2D
102
{ACAD_REACTORS
330
2A
102
}
102
{ACAD_XDICTIONARY
360
256
102
}
330
2A
100
AcDbVisualStyle
  2
Gouraud
 70
     2
 71
     2
 72
     2
 73
     1
 90
        2
 40
-0.6
 41
30.0
 62
     5
 63
     7
421
 16777215
 74
     0
 91
        4
 64
     7
 65
   257
 75
     1
175
     1
 42
1.0
 92
        0
 66
     7
 43
1.0
 76
     1
 77
     6
 78
     2
 67
     7
 79
     5
170
     0
171
     0
290
     0
174
     0
 93
       13
 44
0.0
173
     0
291
     1
 45
0.0
  0
VISUALSTYLE
  5
2E
102
{ACAD_REACTORS
330
2A
102
}
102
{ACAD_XDICTIONARY
360
258
102
}
330
2A
100
AcDbVisualStyle
  2
GouraudWithEdges
 70
     3
 71
     2
 72
     2
 73
     1
 90
        2
 40
-0.6
 41
30.0
 62
     5
 63
     7
421
 16777215
 74
     1
 91
        4
 64
     7
 65
   257
 75
     1
175
     1
 42
1.0
 92
        0
 66
   257
 43
1.0
 76
     1
 77
     6
 78
     2
 67
     7
 79
     5
170
     0
171
     0
290
     0
174
     0
 93
       13
 44
0.0
173
     0
291
     1
 45
0.0
  0
VISUALSTYLE
  5
38
102
{ACAD_REACTORS
330
2A
102
}
102
{ACAD_XDICTIONARY
360
26C
102
}
330
2A
100
AcDbVisualStyle
  2
Linepattern
 70
    14
 71
     2
 72
     2
 73
     0
 90
        0
 40
-0.6
 41
-30.0
 62
     5
 63
     7
421
 16777215
 74
     1
 91
        4
 64
     7
 65
   257
 75
     7
175
     7
 42
1.0
 92
        8
 66
     7
 43
1.0
 76
     1
 77
     6
 78
     2
 67
     7
 79
     5
170
     0
171
     0
290
     0
174
     0
 93
        1
 44
0.0
173
     0
291
     1
 45
0.0
  0
VISUALSTYLE
  5
33
102
{ACAD_REACTORS
330
2A
102
}
102
{ACAD_XDICTIONARY
360
262
102
}
330
2A
100
AcDbVisualStyle
  2
Realistic
 70
     8
 71
     2
 72
     2
 73
     0
 90
        0
 40
-0.6
 41
-30.0
 62
     5
 63
     7
421
 16777215
 74
     1
 91
        0
 64
     7
 65
   257
 75
     1
175
     1
 42
1.0
 92
        8
 66
     8
424
  7895160
 43
1.0
 76
     1
 77
     6
 78
     2
 67
     7
 79
     5
170
     0
171
     0
290
     0
174
     0
 93
       13
 44
0.0
173
     0
291
     0
 45
0.0
  0
VISUALSTYLE
  5
37
102
{ACAD_REACTORS
330
2A
102
}
102
{ACAD_XDICTIONARY
360
26A
102
}
330
2A
100
AcDbVisualStyle
  2
Thicken
 70
    13
 71
     2
 72
     2
 73
     0
 90
        0
 40
-0.6
 41
-30.0
 62
     5
 63
     7
421
 16777215
 74
     1
 91
        4
 64
     7
 65
   257
 75
     1
175
     1
 42
1.0
 92
       12
 66
     7
 43
1.0
 76
     1
 77
     6
 78
     2
 67
     7
 79
     5
170
     0
171
     0
290
     0
174
     0
 93
        1
 44
0.0
173
     0
291
     1
 45
0.0
  0
DICTIONARY
  5
25A
330
2F
100
AcDbDictionary
280
     1
281
     1
  3
ACAD_XREC_ROUNDTRIP
360
25B
  0
DICTIONARY
  5
25E
330
31
100
AcDbDictionary
280
     1
281
     1
  3
ACAD_XREC_ROUNDTRIP
360
25F
  0
DICTIONARY
  5
25C
330
30
100
AcDbDictionary
280
     1
281
     1
  3
ACAD_XREC_ROUNDTRIP
360
25D
  0
DICTIONARY
  5
260
330
32
100
AcDbDictionary
280
     1
281
     1
  3
ACAD_XREC_ROUNDTRIP
360
261
  0
DICTIONARY
  5
268
330
36
100
AcDbDictionary
280
     1
281
     1
  3
ACAD_XREC_ROUNDTRIP
360
269
  0
DICTIONARY
  5
270
330
3A
100
AcDbDictionary
280
     1
281
     1
  3
ACAD_XREC_ROUNDTRIP
360
271
  0
DICTIONARY
  5
264
330
34
100
AcDbDictionary
280
     1
281
     1
  3
ACAD_XREC_ROUNDTRIP
360
265
  0
DICTIONARY
  5
266
330
35
100
AcDbDictionary
280
     1
281
     1
  3
ACAD_XREC_ROUNDTRIP
360
267
  0
DICTIONARY
  5
26E
330
39
100
AcDbDictionary
280
     1
281
     1
  3
ACAD_XREC_ROUNDTRIP
360
26F
  0
DICTIONARY
  5
252
330
2B
100
AcDbDictionary
280
     1
281
     1
  3
ACAD_XREC_ROUNDTRIP
360
253
  0
DICTIONARY
  5
254
330
2C
100
AcDbDictionary
280
     1
281
     1
  3
ACAD_XREC_ROUNDTRIP
360
255
  0
DICTIONARY
  5
256
330
2D
100
AcDbDictionary
280
     1
281
     1
  3
ACAD_XREC_ROUNDTRIP
360
257
  0
DICTIONARY
  5
258
330
2E
100
AcDbDictionary
280
     1
281
     1
  3
ACAD_XREC_ROUNDTRIP
360
259
  0
DICTIONARY
  5
26C
330
38
100
AcDbDictionary
280
     1
281
     1
  3
ACAD_XREC_ROUNDTRIP
360
26D
  0
DICTIONARY
  5
262
330
33
100
AcDbDictionary
280
     1
281
     1
  3
ACAD_XREC_ROUNDTRIP
360
263
  0
DICTIONARY
  5
26A
330
37
100
AcDbDictionary
280
     1
281
     1
  3
ACAD_XREC_ROUNDTRIP
360
26B
  0
XRECORD
  5
25B
102
{ACAD_REACTORS
330
25A
102
}
330
25A
100
AcDbXrecord
280
     1
102
RTVSPropertyOp0
 70
     1
102
RTVSPropertyOp1
 70
     1
102
RTVSPropertyOp2
 70
     1
102
RTVSPropertyOp3
 70
     1
102
RTVSPropertyOp4
 70
     1
102
RTVSPropertyOp5
 70
     1
102
RTVSPropertyOp6
 70
     1
102
RTVSPropertyOp7
 70
     1
102
RTVSPropertyOp8
 70
     1
102
RTVSPropertyOp9
 70
     1
102
RTVSPropertyOp10
 70
     1
102
RTVSPropertyOp11
 70
     1
102
RTVSPropertyOp12
 70
     1
102
RTVSPropertyOp13
 70
     1
102
RTVSPropertyOp14
 70
     1
102
RTVSPropertyOp15
 70
     1
102
RTVSPropertyOp16
 70
     1
102
RTVSPropertyOp17
 70
     1
102
RTVSPropertyOp18
 70
     1
102
RTVSPropertyOp19
 70
     1
102
RTVSPropertyOp20
 70
     1
102
RTVSPropertyOp21
 70
     1
102
RTVSPropertyOp22
 70
     1
102
RTVSPropertyOp23
 70
     1
102
RTVSPropertyOp24
 70
     1
102
RTVSPropertyOp25
 70
     1
102
RTVSPropertyOp26
 70
     1
102
RTVSPropertyOp27
 70
     1
102
RTVSPropertyOp28
 70
     1
102
RTVSPropertyOp29
 70
     1
102
RTVSPropertyOp30
 70
     1
102
RTVSPropertyOp31
 70
     1
102
RTVSPropertyOp32
 70
     1
  0
XRECORD
  5
25F
102
{ACAD_REACTORS
330
25E
102
}
330
25E
100
AcDbXrecord
280
     1
102
RTVSPropertyOp0
 70
     1
102
RTVSPropertyOp1
 70
     1
102
RTVSPropertyOp2
 70
     1
102
RTVSPropertyOp3
 70
     1
102
RTVSPropertyOp4
 70
     1
102
RTVSPropertyOp5
 70
     1
102
RTVSPropertyOp6
 70
     1
102
RTVSPropertyOp7
 70
     1
102
RTVSPropertyOp8
 70
     1
102
RTVSPropertyOp9
 70
     1
102
RTVSPropertyOp10
 70
     1
102
RTVSPropertyOp11
 70
     1
102
RTVSPropertyOp12
 70
     1
102
RTVSPropertyOp13
 70
     1
102
RTVSPropertyOp14
 70
     1
102
RTVSPropertyOp15
 70
     1
102
RTVSPropertyOp16
 70
     1
102
RTVSPropertyOp17
 70
     1
102
RTVSPropertyOp18
 70
     1
102
RTVSPropertyOp19
 70
     1
102
RTVSPropertyOp20
 70
     1
102
RTVSPropertyOp21
 70
     1
102
RTVSPropertyOp22
 70
     1
102
RTVSPropertyOp23
 70
     1
102
RTVSPropertyOp24
 70
     1
102
RTVSPropertyOp25
 70
     1
102
RTVSPropertyOp26
 70
     1
102
RTVSPropertyOp27
 70
     1
102
RTVSPropertyOp28
 70
     1
102
RTVSPropertyOp29
 70
     1
102
RTVSPropertyOp30
 70
     1
102
RTVSPropertyOp31
 70
     1
102
RTVSPropertyOp32
 70
     1
  0
XRECORD
  5
25D
102
{ACAD_REACTORS
330
25C
102
}
330
25C
100
AcDbXrecord
280
     1
102
RTVSPropertyOp0
 70
     1
102
RTVSPropertyOp1
 70
     1
102
RTVSPropertyOp2
 70
     1
102
RTVSPropertyOp3
 70
     1
102
RTVSPropertyOp4
 70
     1
102
RTVSPropertyOp5
 70
     1
102
RTVSPropertyOp6
 70
     1
102
RTVSPropertyOp7
 70
     1
102
RTVSPropertyOp8
 70
     1
102
RTVSPropertyOp9
 70
     1
102
RTVSPropertyOp10
 70
     1
102
RTVSPropertyOp11
 70
     1
102
RTVSPropertyOp12
 70
     1
102
RTVSPropertyOp13
 70
     1
102
RTVSPropertyOp14
 70
     1
102
RTVSPropertyOp15
 70
     1
102
RTVSPropertyOp16
 70
     1
102
RTVSPropertyOp17
 70
     1
102
RTVSPropertyOp18
 70
     1
102
RTVSPropertyOp19
 70
     1
102
RTVSPropertyOp20
 70
     1
102
RTVSPropertyOp21
 70
     1
102
RTVSPropertyOp22
 70
     1
102
RTVSPropertyOp23
 70
     1
102
RTVSPropertyOp24
 70
     1
102
RTVSPropertyOp25
 70
     1
102
RTVSPropertyOp26
 70
     1
102
RTVSPropertyOp27
 70
     1
102
RTVSPropertyOp28
 70
     1
102
RTVSPropertyOp29
 70
     1
102
RTVSPropertyOp30
 70
     1
102
RTVSPropertyOp31
 70
     1
102
RTVSPropertyOp32
 70
     1
  0
XRECORD
  5
261
102
{ACAD_REACTORS
330
260
102
}
330
260
100
AcDbXrecord
280
     1
102
RTVSPropertyOp0
 70
     1
102
RTVSPropertyOp1
 70
     1
102
RTVSPropertyOp2
 70
     1
102
RTVSPropertyOp3
 70
     1
102
RTVSPropertyOp4
 70
     1
102
RTVSPropertyOp5
 70
     1
102
RTVSPropertyOp6
 70
     1
102
RTVSPropertyOp7
 70
     1
102
RTVSPropertyOp8
 70
     1
102
RTVSPropertyOp9
 70
     1
102
RTVSPropertyOp10
 70
     1
102
RTVSPropertyOp11
 70
     1
102
RTVSPropertyOp12
 70
     1
102
RTVSPropertyOp13
 70
     1
102
RTVSPropertyOp14
 70
     1
102
RTVSPropertyOp15
 70
     1
102
RTVSPropertyOp16
 70
     1
102
RTVSPropertyOp17
 70
     1
102
RTVSPropertyOp18
 70
     1
102
RTVSPropertyOp19
 70
     1
102
RTVSPropertyOp20
 70
     1
102
RTVSPropertyOp21
 70
     1
102
RTVSPropertyOp22
 70
     1
102
RTVSPropertyOp23
 70
     1
102
RTVSPropertyOp24
 70
     1
102
RTVSPropertyOp25
 70
     1
102
RTVSPropertyOp26
 70
     1
102
RTVSPropertyOp27
 70
     1
102
RTVSPropertyOp28
 70
     1
102
RTVSPropertyOp29
 70
     1
102
RTVSPropertyOp30
 70
     1
102
RTVSPropertyOp31
 70
     1
102
RTVSPropertyOp32
 70
     1
  0
XRECORD
  5
269
102
{ACAD_REACTORS
330
268
102
}
330
268
100
AcDbXrecord
280
     1
102
RTVSPropertyOp0
 70
     1
102
RTVSPropertyOp1
 70
     1
102
RTVSPropertyOp2
 70
     1
102
RTVSPropertyOp3
 70
     1
102
RTVSPropertyOp4
 70
     1
102
RTVSPropertyOp5
 70
     1
102
RTVSPropertyOp6
 70
     1
102
RTVSPropertyOp7
 70
     1
102
RTVSPropertyOp8
 70
     1
102
RTVSPropertyOp9
 70
     1
102
RTVSPropertyOp10
 70
     1
102
RTVSPropertyOp11
 70
     1
102
RTVSPropertyOp12
 70
     1
102
RTVSPropertyOp13
 70
     1
102
RTVSPropertyOp14
 70
     1
102
RTVSPropertyOp15
 70
     1
102
RTVSPropertyOp16
 70
     1
102
RTVSPropertyOp17
 70
     1
102
RTVSPropertyOp18
 70
     1
102
RTVSPropertyOp19
 70
     1
102
RTVSPropertyOp20
 70
     1
102
RTVSPropertyOp21
 70
     1
102
RTVSPropertyOp22
 70
     1
102
RTVSPropertyOp23
 70
     1
102
RTVSPropertyOp24
 70
     1
102
RTVSPropertyOp25
 70
     1
102
RTVSPropertyOp26
 70
     1
102
RTVSPropertyOp27
 70
     1
102
RTVSPropertyOp28
 70
     1
102
RTVSPropertyOp29
 70
     1
102
RTVSPropertyOp30
 70
     1
102
RTVSPropertyOp31
 70
     1
102
RTVSPropertyOp32
 70
     1
  0
XRECORD
  5
271
102
{ACAD_REACTORS
330
270
102
}
330
270
100
AcDbXrecord
280
     1
102
RTVSPropertyOp0
 70
     1
102
RTVSPropertyOp1
 70
     1
102
RTVSPropertyOp2
 70
     1
102
RTVSPropertyOp3
 70
     1
102
RTVSPropertyOp4
 70
     1
102
RTVSPropertyOp5
 70
     1
102
RTVSPropertyOp6
 70
     1
102
RTVSPropertyOp7
 70
     1
102
RTVSPropertyOp8
 70
     1
102
RTVSPropertyOp9
 70
     1
102
RTVSPropertyOp10
 70
     1
102
RTVSPropertyOp11
 70
     1
102
RTVSPropertyOp12
 70
     1
102
RTVSPropertyOp13
 70
     1
102
RTVSPropertyOp14
 70
     1
102
RTVSPropertyOp15
 70
     1
102
RTVSPropertyOp16
 70
     1
102
RTVSPropertyOp17
 70
     1
102
RTVSPropertyOp18
 70
     1
102
RTVSPropertyOp19
 70
     1
102
RTVSPropertyOp20
 70
     1
102
RTVSPropertyOp21
 70
     1
102
RTVSPropertyOp22
 70
     1
102
RTVSPropertyOp23
 70
     1
102
RTVSPropertyOp24
 70
     1
102
RTVSPropertyOp25
 70
     1
102
RTVSPropertyOp26
 70
     1
102
RTVSPropertyOp27
 70
     1
102
RTVSPropertyOp28
 70
     1
102
RTVSPropertyOp29
 70
     1
102
RTVSPropertyOp30
 70
     1
102
RTVSPropertyOp31
 70
     1
102
RTVSPropertyOp32
 70
     1
  0
XRECORD
  5
265
102
{ACAD_REACTORS
330
264
102
}
330
264
100
AcDbXrecord
280
     1
102
RTVSPropertyOp0
 70
     1
102
RTVSPropertyOp1
 70
     1
102
RTVSPropertyOp2
 70
     1
102
RTVSPropertyOp3
 70
     1
102
RTVSPropertyOp4
 70
     1
102
RTVSPropertyOp5
 70
     1
102
RTVSPropertyOp6
 70
     1
102
RTVSPropertyOp7
 70
     1
102
RTVSPropertyOp8
 70
     1
102
RTVSPropertyOp9
 70
     1
102
RTVSPropertyOp10
 70
     1
102
RTVSPropertyOp11
 70
     1
102
RTVSPropertyOp12
 70
     1
102
RTVSPropertyOp13
 70
     1
102
RTVSPropertyOp14
 70
     1
102
RTVSPropertyOp15
 70
     1
102
RTVSPropertyOp16
 70
     1
102
RTVSPropertyOp17
 70
     1
102
RTVSPropertyOp18
 70
     1
102
RTVSPropertyOp19
 70
     1
102
RTVSPropertyOp20
 70
     1
102
RTVSPropertyOp21
 70
     1
102
RTVSPropertyOp22
 70
     1
102
RTVSPropertyOp23
 70
     1
102
RTVSPropertyOp24
 70
     1
102
RTVSPropertyOp25
 70
     1
102
RTVSPropertyOp26
 70
     1
102
RTVSPropertyOp27
 70
     1
102
RTVSPropertyOp28
 70
     1
102
RTVSPropertyOp29
 70
     1
102
RTVSPropertyOp30
 70
     1
102
RTVSPropertyOp31
 70
     1
102
RTVSPropertyOp32
 70
     1
  0
XRECORD
  5
267
102
{ACAD_REACTORS
330
266
102
}
330
266
100
AcDbXrecord
280
     1
102
RTVSPropertyOp0
 70
     1
102
RTVSPropertyOp1
 70
     1
102
RTVSPropertyOp2
 70
     1
102
RTVSPropertyOp3
 70
     1
102
RTVSPropertyOp4
 70
     1
102
RTVSPropertyOp5
 70
     1
102
RTVSPropertyOp6
 70
     1
102
RTVSPropertyOp7
 70
     1
102
RTVSPropertyOp8
 70
     1
102
RTVSPropertyOp9
 70
     1
102
RTVSPropertyOp10
 70
     1
102
RTVSPropertyOp11
 70
     1
102
RTVSPropertyOp12
 70
     1
102
RTVSPropertyOp13
 70
     1
102
RTVSPropertyOp14
 70
     1
102
RTVSPropertyOp15
 70
     1
102
RTVSPropertyOp16
 70
     1
102
RTVSPropertyOp17
 70
     1
102
RTVSPropertyOp18
 70
     1
102
RTVSPropertyOp19
 70
     1
102
RTVSPropertyOp20
 70
     1
102
RTVSPropertyOp21
 70
     1
102
RTVSPropertyOp22
 70
     1
102
RTVSPropertyOp23
 70
     1
102
RTVSPropertyOp24
 70
     1
102
RTVSPropertyOp25
 70
     1
102
RTVSPropertyOp26
 70
     1
102
RTVSPropertyOp27
 70
     1
102
RTVSPropertyOp28
 70
     1
102
RTVSPropertyOp29
 70
     1
102
RTVSPropertyOp30
 70
     1
102
RTVSPropertyOp31
 70
     1
102
RTVSPropertyOp32
 70
     1
  0
XRECORD
  5
26F
102
{ACAD_REACTORS
330
26E
102
}
330
26E
100
AcDbXrecord
280
     1
102
RTVSPropertyOp0
 70
     1
102
RTVSPropertyOp1
 70
     1
102
RTVSPropertyOp2
 70
     1
102
RTVSPropertyOp3
 70
     1
102
RTVSPropertyOp4
 70
     1
102
RTVSPropertyOp5
 70
     1
102
RTVSPropertyOp6
 70
     1
102
RTVSPropertyOp7
 70
     1
102
RTVSPropertyOp8
 70
     1
102
RTVSPropertyOp9
 70
     1
102
RTVSPropertyOp10
 70
     1
102
RTVSPropertyOp11
 70
     1
102
RTVSPropertyOp12
 70
     1
102
RTVSPropertyOp13
 70
     1
102
RTVSPropertyOp14
 70
     1
102
RTVSPropertyOp15
 70
     1
102
RTVSPropertyOp16
 70
     1
102
RTVSPropertyOp17
 70
     1
102
RTVSPropertyOp18
 70
     1
102
RTVSPropertyOp19
 70
     1
102
RTVSPropertyOp20
 70
     1
102
RTVSPropertyOp21
 70
     1
102
RTVSPropertyOp22
 70
     1
102
RTVSPropertyOp23
 70
     1
102
RTVSPropertyOp24
 70
     1
102
RTVSPropertyOp25
 70
     1
102
RTVSPropertyOp26
 70
     1
102
RTVSPropertyOp27
 70
     1
102
RTVSPropertyOp28
 70
     1
102
RTVSPropertyOp29
 70
     1
102
RTVSPropertyOp30
 70
     1
102
RTVSPropertyOp31
 70
     1
102
RTVSPropertyOp32
 70
     1
  0
XRECORD
  5
253
102
{ACAD_REACTORS
330
252
102
}
330
252
100
AcDbXrecord
280
     1
102
RTVSPropertyOp0
 70
     1
102
RTVSPropertyOp1
 70
     1
102
RTVSPropertyOp2
 70
     1
102
RTVSPropertyOp3
 70
     1
102
RTVSPropertyOp4
 70
     1
102
RTVSPropertyOp5
 70
     1
102
RTVSPropertyOp6
 70
     1
102
RTVSPropertyOp7
 70
     1
102
RTVSPropertyOp8
 70
     1
102
RTVSPropertyOp9
 70
     1
102
RTVSPropertyOp10
 70
     1
102
RTVSPropertyOp11
 70
     1
102
RTVSPropertyOp12
 70
     1
102
RTVSPropertyOp13
 70
     1
102
RTVSPropertyOp14
 70
     1
102
RTVSPropertyOp15
 70
     1
102
RTVSPropertyOp16
 70
     1
102
RTVSPropertyOp17
 70
     1
102
RTVSPropertyOp18
 70
     1
102
RTVSPropertyOp19
 70
     1
102
RTVSPropertyOp20
 70
     1
102
RTVSPropertyOp21
 70
     1
102
RTVSPropertyOp22
 70
     1
102
RTVSPropertyOp23
 70
     1
102
RTVSPropertyOp24
 70
     1
102
RTVSPropertyOp25
 70
     1
102
RTVSPropertyOp26
 70
     1
102
RTVSPropertyOp27
 70
     1
102
RTVSPropertyOp28
 70
     1
102
RTVSPropertyOp29
 70
     1
102
RTVSPropertyOp30
 70
     1
102
RTVSPropertyOp31
 70
     1
102
RTVSPropertyOp32
 70
     1
  0
XRECORD
  5
255
102
{ACAD_REACTORS
330
254
102
}
330
254
100
AcDbXrecord
280
     1
102
RTVSPropertyOp0
 70
     1
102
RTVSPropertyOp1
 70
     1
102
RTVSPropertyOp2
 70
     1
102
RTVSPropertyOp3
 70
     1
102
RTVSPropertyOp4
 70
     1
102
RTVSPropertyOp5
 70
     1
102
RTVSPropertyOp6
 70
     1
102
RTVSPropertyOp7
 70
     1
102
RTVSPropertyOp8
 70
     1
102
RTVSPropertyOp9
 70
     1
102
RTVSPropertyOp10
 70
     1
102
RTVSPropertyOp11
 70
     1
102
RTVSPropertyOp12
 70
     1
102
RTVSPropertyOp13
 70
     1
102
RTVSPropertyOp14
 70
     1
102
RTVSPropertyOp15
 70
     1
102
RTVSPropertyOp16
 70
     1
102
RTVSPropertyOp17
 70
     1
102
RTVSPropertyOp18
 70
     1
102
RTVSPropertyOp19
 70
     1
102
RTVSPropertyOp20
 70
     1
102
RTVSPropertyOp21
 70
     1
102
RTVSPropertyOp22
 70
     1
102
RTVSPropertyOp23
 70
     1
102
RTVSPropertyOp24
 70
     1
102
RTVSPropertyOp25
 70
     1
102
RTVSPropertyOp26
 70
     1
102
RTVSPropertyOp27
 70
     1
102
RTVSPropertyOp28
 70
     1
102
RTVSPropertyOp29
 70
     1
102
RTVSPropertyOp30
 70
     1
102
RTVSPropertyOp31
 70
     1
102
RTVSPropertyOp32
 70
     1
  0
XRECORD
  5
257
102
{ACAD_REACTORS
330
256
102
}
330
256
100
AcDbXrecord
280
     1
102
RTVSPropertyOp0
 70
     1
102
RTVSPropertyOp1
 70
     1
102
RTVSPropertyOp2
 70
     1
102
RTVSPropertyOp3
 70
     1
102
RTVSPropertyOp4
 70
     1
102
RTVSPropertyOp5
 70
     1
102
RTVSPropertyOp6
 70
     1
102
RTVSPropertyOp7
 70
     1
102
RTVSPropertyOp8
 70
     1
102
RTVSPropertyOp9
 70
     1
102
RTVSPropertyOp10
 70
     1
102
RTVSPropertyOp11
 70
     1
102
RTVSPropertyOp12
 70
     1
102
RTVSPropertyOp13
 70
     1
102
RTVSPropertyOp14
 70
     1
102
RTVSPropertyOp15
 70
     1
102
RTVSPropertyOp16
 70
     1
102
RTVSPropertyOp17
 70
     1
102
RTVSPropertyOp18
 70
     1
102
RTVSPropertyOp19
 70
     1
102
RTVSPropertyOp20
 70
     1
102
RTVSPropertyOp21
 70
     1
102
RTVSPropertyOp22
 70
     1
102
RTVSPropertyOp23
 70
     1
102
RTVSPropertyOp24
 70
     1
102
RTVSPropertyOp25
 70
     1
102
RTVSPropertyOp26
 70
     1
102
RTVSPropertyOp27
 70
     1
102
RTVSPropertyOp28
 70
     1
102
RTVSPropertyOp29
 70
     1
102
RTVSPropertyOp30
 70
     1
102
RTVSPropertyOp31
 70
     1
102
RTVSPropertyOp32
 70
     1
  0
XRECORD
  5
259
102
{ACAD_REACTORS
330
258
102
}
330
258
100
AcDbXrecord
280
     1
102
RTVSPropertyOp0
 70
     1
102
RTVSPropertyOp1
 70
     1
102
RTVSPropertyOp2
 70
     1
102
RTVSPropertyOp3
 70
     1
102
RTVSPropertyOp4
 70
     1
102
RTVSPropertyOp5
 70
     1
102
RTVSPropertyOp6
 70
     1
102
RTVSPropertyOp7
 70
     1
102
RTVSPropertyOp8
 70
     1
102
RTVSPropertyOp9
 70
     1
102
RTVSPropertyOp10
 70
     1
102
RTVSPropertyOp11
 70
     1
102
RTVSPropertyOp12
 70
     1
102
RTVSPropertyOp13
 70
     1
102
RTVSPropertyOp14
 70
     1
102
RTVSPropertyOp15
 70
     1
102
RTVSPropertyOp16
 70
     1
102
RTVSPropertyOp17
 70
     1
102
RTVSPropertyOp18
 70
     1
102
RTVSPropertyOp19
 70
     1
102
RTVSPropertyOp20
 70
     1
102
RTVSPropertyOp21
 70
     1
102
RTVSPropertyOp22
 70
     1
102
RTVSPropertyOp23
 70
     1
102
RTVSPropertyOp24
 70
     1
102
RTVSPropertyOp25
 70
     1
102
RTVSPropertyOp26
 70
     1
102
RTVSPropertyOp27
 70
     1
102
RTVSPropertyOp28
 70
     1
102
RTVSPropertyOp29
 70
     1
102
RTVSPropertyOp30
 70
     1
102
RTVSPropertyOp31
 70
     1
102
RTVSPropertyOp32
 70
     1
  0
XRECORD
  5
26D
102
{ACAD_REACTORS
330
26C
102
}
330
26C
100
AcDbXrecord
280
     1
102
RTVSPropertyOp0
 70
     1
102
RTVSPropertyOp1
 70
     1
102
RTVSPropertyOp2
 70
     1
102
RTVSPropertyOp3
 70
     1
102
RTVSPropertyOp4
 70
     1
102
RTVSPropertyOp5
 70
     1
102
RTVSPropertyOp6
 70
     1
102
RTVSPropertyOp7
 70
     1
102
RTVSPropertyOp8
 70
     1
102
RTVSPropertyOp9
 70
     1
102
RTVSPropertyOp10
 70
     1
102
RTVSPropertyOp11
 70
     1
102
RTVSPropertyOp12
 70
     1
102
RTVSPropertyOp13
 70
     1
102
RTVSPropertyOp14
 70
     1
102
RTVSPropertyOp15
 70
     1
102
RTVSPropertyOp16
 70
     1
102
RTVSPropertyOp17
 70
     1
102
RTVSPropertyOp18
 70
     1
102
RTVSPropertyOp19
 70
     1
102
RTVSPropertyOp20
 70
     1
102
RTVSPropertyOp21
 70
     1
102
RTVSPropertyOp22
 70
     1
102
RTVSPropertyOp23
 70
     1
102
RTVSPropertyOp24
 70
     1
102
RTVSPropertyOp25
 70
     1
102
RTVSPropertyOp26
 70
     1
102
RTVSPropertyOp27
 70
     1
102
RTVSPropertyOp28
 70
     1
102
RTVSPropertyOp29
 70
     1
102
RTVSPropertyOp30
 70
     1
102
RTVSPropertyOp31
 70
     1
102
RTVSPropertyOp32
 70
     1
  0
XRECORD
  5
263
102
{ACAD_REACTORS
330
262
102
}
330
262
100
AcDbXrecord
280
     1
102
RTVSPropertyOp0
 70
     1
102
RTVSPropertyOp1
 70
     1
102
RTVSPropertyOp2
 70
     1
102
RTVSPropertyOp3
 70
     1
102
RTVSPropertyOp4
 70
     1
102
RTVSPropertyOp5
 70
     1
102
RTVSPropertyOp6
 70
     1
102
RTVSPropertyOp7
 70
     1
102
RTVSPropertyOp8
 70
     1
102
RTVSPropertyOp9
 70
     1
102
RTVSPropertyOp10
 70
     1
102
RTVSPropertyOp11
 70
     1
102
RTVSPropertyOp12
 70
     1
102
RTVSPropertyOp13
 70
     1
102
RTVSPropertyOp14
 70
     1
102
RTVSPropertyOp15
 70
     1
102
RTVSPropertyOp16
 70
     1
102
RTVSPropertyOp17
 70
     1
102
RTVSPropertyOp18
 70
     1
102
RTVSPropertyOp19
 70
     1
102
RTVSPropertyOp20
 70
     1
102
RTVSPropertyOp21
 70
     1
102
RTVSPropertyOp22
 70
     1
102
RTVSPropertyOp23
 70
     1
102
RTVSPropertyOp24
 70
     1
102
RTVSPropertyOp25
 70
     1
102
RTVSPropertyOp26
 70
     1
102
RTVSPropertyOp27
 70
     1
102
RTVSPropertyOp28
 70
     1
102
RTVSPropertyOp29
 70
     1
102
RTVSPropertyOp30
 70
     1
102
RTVSPropertyOp31
 70
     1
102
RTVSPropertyOp32
 70
     1
  0
XRECORD
  5
26B
102
{ACAD_REACTORS
330
26A
102
}
330
26A
100
AcDbXrecord
280
     1
102
RTVSPropertyOp0
 70
     1
102
RTVSPropertyOp1
 70
     1
102
RTVSPropertyOp2
 70
     1
102
RTVSPropertyOp3
 70
     1
102
RTVSPropertyOp4
 70
     1
102
RTVSPropertyOp5
 70
     1
102
RTVSPropertyOp6
 70
     1
102
RTVSPropertyOp7
 70
     1
102
RTVSPropertyOp8
 70
     1
102
RTVSPropertyOp9
 70
     1
102
RTVSPropertyOp10
 70
     1
102
RTVSPropertyOp11
 70
     1
102
RTVSPropertyOp12
 70
     1
102
RTVSPropertyOp13
 70
     1
102
RTVSPropertyOp14
 70
     1
102
RTVSPropertyOp15
 70
     1
102
RTVSPropertyOp16
 70
     1
102
RTVSPropertyOp17
 70
     1
102
RTVSPropertyOp18
 70
     1
102
RTVSPropertyOp19
 70
     1
102
RTVSPropertyOp20
 70
     1
102
RTVSPropertyOp21
 70
     1
102
RTVSPropertyOp22
 70
     1
102
RTVSPropertyOp23
 70
     1
102
RTVSPropertyOp24
 70
     1
102
RTVSPropertyOp25
 70
     1
102
RTVSPropertyOp26
 70
     1
102
RTVSPropertyOp27
 70
     1
102
RTVSPropertyOp28
 70
     1
102
RTVSPropertyOp29
 70
     1
102
RTVSPropertyOp30
 70
     1
102
RTVSPropertyOp31
 70
     1
102
RTVSPropertyOp32
 70
     1
  0
ENDSEC
  0
EOF
