  0
SECTION
  2
HEADER
  9
$ACADVER
  1
AC1021
  9
$ACADMAINTVER
 70
    25
  9
$DWGCODEPAGE
  3
UNDEFINED
  9
$INSBASE
 10
0.0
 20
0.0
 30
0.0
  9
$EXTMIN
 10
1.000000000000000E+20
 20
1.000000000000000E+20
 30
1.000000000000000E+20
  9
$EXTMAX
 10
-1.000000000000000E+20
 20
-1.000000000000000E+20
 30
-1.000000000000000E+20
  9
$LIMMIN
 10
0.0
 20
0.0
  9
$LIMMAX
 10
12.0
 20
9.0
  9
$ORTHOMODE
 70
     0
  9
$REGENMODE
 70
     1
  9
$FILLMODE
 70
     1
  9
$QTEXTMODE
 70
     0
  9
$MIRRTEXT
 70
     1
  9
$LTSCALE
 40
1.0
  9
$ATTMODE
 70
     1
  9
$TEXTSIZE
 40
0.2
  9
$TRACEWID
 40
0.05
  9
$TEXTSTYLE
  7
Standard
  9
$CLAYER
  8
0
  9
$CELTYPE
  6
ByLayer
  9
$CECOLOR
 62
   256
  9
$CELTSCALE
 40
1.0
  9
$DISPSILH
 70
     0
  9
$DIMSCALE
 40
1.0
  9
$DIMASZ
 40
0.18
  9
$DIMEXO
 40
0.0625
  9
$DIMDLI
 40
0.38
  9
$DIMRND
 40
0.0
  9
$DIMDLE
 40
0.0
  9
$DIMEXE
 40
0.18
  9
$DIMTP
 40
0.0
  9
$DIMTM
 40
0.0
  9
$DIMTXT
 40
0.18
  9
$DIMCEN
 40
0.09
  9
$DIMTSZ
 40
0.0
  9
$DIMTOL
 70
     0
  9
$DIMLIM
 70
     0
  9
$DIMTIH
 70
     1
  9
$DIMTOH
 70
     1
  9
$DIMSE1
 70
     0
  9
$DIMSE2
 70
     0
  9
$DIMTAD
 70
     0
  9
$DIMZIN
 70
     0
  9
$DIMBLK
  1

  9
$DIMASO
 70
     1
  9
$DIMSHO
 70
     1
  9
$DIMPOST
  1

  9
$DIMAPOST
  1

  9
$DIMALT
 70
     0
  9
$DIMALTD
 70
     2
  9
$DIMALTF
 40
25.4
  9
$DIMLFAC
 40
1.0
  9
$DIMTOFL
 70
     0
  9
$DIMTVP
 40
0.0
  9
$DIMTIX
 70
     0
  9
$DIMSOXD
 70
     0
  9
$DIMSAH
 70
     0
  9
$DIMBLK1
  1

  9
$DIMBLK2
  1

  9
$DIMSTYLE
  2
Standard
  9
$DIMCLRD
 70
     0
  9
$DIMCLRE
 70
     0
  9
$DIMCLRT
 70
     0
  9
$DIMTFAC
 40
1.0
  9
$DIMGAP
 40
0.09
  9
$DIMJUST
 70
     0
  9
$DIMSD1
 70
     0
  9
$DIMSD2
 70
     0
  9
$DIMTOLJ
 70
     1
  9
$DIMTZIN
 70
     0
  9
$DIMALTZ
 70
     0
  9
$DIMALTTZ
 70
     0
  9
$DIMUPT
 70
     0
  9
$DIMDEC
 70
     4
  9
$DIMTDEC
 70
     4
  9
$DIMALTU
 70
     2
  9
$DIMALTTD
 70
     2
  9
$DIMTXSTY
  7
Standard
  9
$DIMAUNIT
 70
     0
  9
$DIMADEC
 70
     0
  9
$DIMALTRND
 40
0.0
  9
$DIMAZIN
 70
     0
  9
$DIMDSEP
 70
    46
  9
$DIMATFIT
 70
     3
  9
$DIMFRAC
 70
     0
  9
$DIMLDRBLK
  1

  9
$DIMLUNIT
 70
     2
  9
$DIMLWD
 70
    -2
  9
$DIMLWE
 70
    -2
  9
$DIMTMOVE
 70
     0
  9
$DIMFXL
 40
1.0
  9
$DIMFXLON
 70
     0
  9
$DIMJOGANG
 40
0.7853981633974483
  9
$DIMTFILL
 70
     0
  9
$DIMTFILLCLR
 70
     0
  9
$DIMARCSYM
 70
     0
  9
$DIMLTYPE
  6

  9
$DIMLTEX1
  6

  9
$DIMLTEX2
  6

  9
$LUNITS
 70
     2
  9
$LUPREC
 70
     4
  9
$SKETCHINC
 40
0.1
  9
$FILLETRAD
 40
0.5
  9
$AUNITS
 70
     0
  9
$AUPREC
 70
     0
  9
$MENU
  1
.
  9
$ELEVATION
 40
0.0
  9
$PELEVATION
 40
0.0
  9
$THICKNESS
 40
0.0
  9
$LIMCHECK
 70
     0
  9
$CHAMFERA
 40
0.5
  9
$CHAMFERB
 40
0.5
  9
$CHAMFERC
 40
1.0
  9
$CHAMFERD
 40
0.0
  9
$SKPOLY
 70
     0
  9
$TDCREATE
 40
2459380.409942118
  9
$TDUCREATE
 40
2459380.368275463
  9
$TDUPDATE
 40
2459380.409942118
  9
$TDUUPDATE
 40
2459380.368275463
  9
$TDINDWG
 40
0.0000000116
  9
$TDUSRTIMER
 40
0.0000000116
  9
$USRTIMER
 70
     1
  9
$ANGBASE
 50
0.0
  9
$ANGDIR
 70
     0
  9
$PDMODE
 70
     0
  9
$PDSIZE
 40
0.0
  9
$PLINEWID
 40
0.0
  9
$SPLFRAME
 70
     0
  9
$SPLINETYPE
 70
     6
  9
$SPLINESEGS
 70
     8
  9
$HANDSEED
  5
298
  9
$SURFTAB1
 70
     6
  9
$SURFTAB2
 70
     6
  9
$SURFTYPE
 70
     6
  9
$SURFU
 70
     6
  9
$SURFV
 70
     6
  9
$UCSBASE
  2

  9
$UCSNAME
  2

  9
$UCSORG
 10
0.0
 20
0.0
 30
0.0
  9
$UCSXDIR
 10
1.0
 20
0.0
 30
0.0
  9
$UCSYDIR
 10
0.0
 20
1.0
 30
0.0
  9
$UCSORTHOREF
  2

  9
$UCSORTHOVIEW
 70
     0
  9
$UCSORGTOP
 10
0.0
 20
0.0
 30
0.0
  9
$UCSORGBOTTOM
 10
0.0
 20
0.0
 30
0.0
  9
$UCSORGLEFT
 10
0.0
 20
0.0
 30
0.0
  9
$UCSORGRIGHT
 10
0.0
 20
0.0
 30
0.0
  9
$UCSORGFRONT
 10
0.0
 20
0.0
 30
0.0
  9
$UCSORGBACK
 10
0.0
 20
0.0
 30
0.0
  9
$PUCSBASE
  2

  9
$PUCSNAME
  2

  9
$PUCSORG
 10
0.0
 20
0.0
 30
0.0
  9
$PUCSXDIR
 10
1.0
 20
0.0
 30
0.0
  9
$PUCSYDIR
 10
0.0
 20
1.0
 30
0.0
  9
$PUCSORTHOREF
  2

  9
$PUCSORTHOVIEW
 70
     0
  9
$PUCSORGTOP
 10
0.0
 20
0.0
 30
0.0
  9
$PUCSORGBOTTOM
 10
0.0
 20
0.0
 30
0.0
  9
$PUCSORGLEFT
 10
0.0
 20
0.0
 30
0.0
  9
$PUCSORGRIGHT
 10
0.0
 20
0.0
 30
0.0
  9
$PUCSORGFRONT
 10
0.0
 20
0.0
 30
0.0
  9
$PUCSORGBACK
 10
0.0
 20
0.0
 30
0.0
  9
$USERI1
 70
     0
  9
$USERI2
 70
     0
  9
$USERI3
 70
     0
  9
$USERI4
 70
     0
  9
$USERI5
 70
     0
  9
$USERR1
 40
0.0
  9
$USERR2
 40
0.0
  9
$USERR3
 40
0.0
  9
$USERR4
 40
0.0
  9
$USERR5
 40
0.0
  9
$WORLDVIEW
 70
     1
  9
$SHADEDGE
 70
     3
  9
$SHADEDIF
 70
    70
  9
$TILEMODE
 70
     1
  9
$MAXACTVP
 70
    64
  9
$PINSBASE
 10
0.0
 20
0.0
 30
0.0
  9
$PLIMCHECK
 70
     0
  9
$PEXTMIN
 10
1.000000000000000E+20
 20
1.000000000000000E+20
 30
1.000000000000000E+20
  9
$PEXTMAX
 10
-1.000000000000000E+20
 20
-1.000000000000000E+20
 30
-1.000000000000000E+20
  9
$PLIMMIN
 10
0.0
 20
0.0
  9
$PLIMMAX
 10
12.0
 20
9.0
  9
$UNITMODE
 70
     0
  9
$VISRETAIN
 70
     1
  9
$PLINEGEN
 70
     0
  9
$PSLTSCALE
 70
     1
  9
$TREEDEPTH
 70
  3020
  9
$CMLSTYLE
  2
Standard
  9
$CMLJUST
 70
     0
  9
$CMLSCALE
 40
1.0
  9
$PROXYGRAPHICS
 70
     1
  9
$MEASUREMENT
 70
     0
  9
$CELWEIGHT
370
    -1
  9
$ENDCAPS
280
     0
  9
$JOINSTYLE
280
     0
  9
$LWDISPLAY
290
     1
  9
$INSUNITS
 70
     1
  9
$HYPERLINKBASE
  1

  9
$STYLESHEET
  1

  9
$XEDIT
290
     1
  9
$CEPSNTYPE
380
     0
  9
$PSTYLEMODE
290
     1
  9
$FINGERPRINTGUID
  2
{48380F4B-B21A-7A0B-DAF1-1BE266BCB020}
  9
$VERSIONGUID
  2
{FAEB1C32-E019-11D5-929B-00C0DF256EC4}
  9
$EXTNAMES
290
     1
  9
$PSVPSCALE
 40
0.0
  9
$OLESTARTUP
290
     0
  9
$SORTENTS
280
   127
  9
$INDEXCTL
280
     0
  9
$HIDETEXT
280
     1
  9
$XCLIPFRAME
290
     0
  9
$HALOGAP
280
     0
  9
$OBSCOLOR
 70
   257
  9
$OBSLTYPE
280
     0
  9
$INTERSECTIONDISPLAY
280
     0
  9
$INTERSECTIONCOLOR
 70
   257
  9
$DIMASSOC
280
     2
  9
$PROJECTNAME
  1

  9
$CAMERADISPLAY
290
     0
  9
$LENSLENGTH
 40
50.0
  9
$CAMERAHEIGHT
 40
0.0
  9
$STEPSPERSEC
 40
2.0
  9
$STEPSIZE
 40
6.0
  9
$3DDWFPREC
 40
2.0
  9
$PSOLWIDTH
 40
0.25
  9
$PSOLHEIGHT
 40
4.0
  9
$LOFTANG1
 40
1.570796326794897
  9
$LOFTANG2
 40
1.570796326794897
  9
$LOFTMAG1
 40
0.0
  9
$LOFTMAG2
 40
0.0
  9
$LOFTPARAM
 70
     7
  9
$LOFTNORMALS
280
     1
  9
$LATITUDE
 40
37.795
  9
$LONGITUDE
 40
-122.394
  9
$NORTHDIRECTION
 40
0.0
  9
$TIMEZONE
 70
 -8000
  9
$LIGHTGLYPHDISPLAY
280
     1
  9
$TILEMODELIGHTSYNCH
280
     1
  9
$CMATERIAL
347
3C
  9
$SOLIDHIST
280
     1
  9
$SHOWHIST
280
     1
  9
$DWFFRAME
280
     2
  9
$DGNFRAME
280
     2
  9
$REALWORLDSCALE
290
     1
  9
$INTERFERECOLOR
 62
   256
  9
$CSHADOW
280
     0
  9
$SHADOWPLANELOCATION
 40
0.0
  0
ENDSEC
  0
SECTION
  2
CLASSES
  0
CLASS
  1
ACDBDICTIONARYWDFLT
  2
AcDbDictionaryWithDefault
  3
ObjectDBX Classes
 90
        0
 91
        4
280
     0
281
     0
  0
CLASS
  1
VISUALSTYLE
  2
AcDbVisualStyle
  3
ObjectDBX Classes
 90
     4095
 91
        4
280
     0
281
     0
  0
CLASS
  1
MATERIAL
  2
AcDbMaterial
  3
ObjectDBX Classes
 90
     1153
 91
        4
280
     0
281
     0
  0
CLASS
  1
SUN
  2
AcDbSun
  3
SCENEOE
 90
     1024
 91
        4
280
     0
281
     0
  0
ENDSEC
  0
SECTION
  2
TABLES
  0
TABLE
  2
VPORT
  5
8
330
0
100
AcDbSymbolTable
 70
     1
  0
VPORT
  5
29
330
8
100
AcDbSymbolTableRecord
100
AcDbViewportTableRecord
  2
*Active
 70
     0
 10
0.0
 20
0.0
 11
1.0
 21
1.0
 12
0.0
 22
0.0
 13
0.0
 23
0.0
 14
0.5
 24
0.5
 15
0.5
 25
0.5
 16
0.0
 26
0.0
 36
1.0
 17
105.0007777515277
 27
148.5000416295417
 37
0.0
 40
297.0000832590835
 41
0.7070757462376325
 42
50.0
 43
0.0
 44
0.0
 50
0.0
 51
0.0
 71
     0
 72
   100
 73
     1
 74
     3
 75
     0
 76
     0
 77
     0
 78
     0
281
     0
 65
     1
110
0.0
120
0.0
130
0.0
111
1.0
121
0.0
131
0.0
112
0.0
122
1.0
132
0.0
 79
     0
146
0.0
 60
     3
 61
     5
292
     1
282
     1
141
0.0
142
0.0
 63
   250
361
3F
  0
ENDTAB
  0
TABLE
  2
LTYPE
  5
5
330
0
100
AcDbSymbolTable
 70
    41
  0
LTYPE
  5
14
330
5
100
AcDbSymbolTableRecord
100
AcDbLinetypeTableRecord
  2
ByBlock
 70
     0
  3

 72
    65
 73
     0
 40
0.0
  0
LTYPE
  5
15
330
5
100
AcDbSymbolTableRecord
100
AcDbLinetypeTableRecord
  2
ByLayer
 70
     0
  3

 72
    65
 73
     0
 40
0.0
  0
LTYPE
  5
16
330
5
100
AcDbSymbolTableRecord
100
AcDbLinetypeTableRecord
  2
Continuous
 70
     0
  3
Solid line
 72
    65
 73
     0
 40
0.0
  0
LTYPE
  5
4A
330
5
100
AcDbSymbolTableRecord
100
AcDbLinetypeTableRecord
  2
AI-Linetype-1
 70
     0
  3
Adobe Illustrator Linetype No. 1
 72
    65
 73
     2
 40
7.270862246391072
 49
3.635375106750391
 74
     0
 49
-3.635487139640682
 74
     0
  0
LTYPE
  5
55
330
5
100
AcDbSymbolTableRecord
100
AcDbLinetypeTableRecord
  2
AI-Linetype-2
 70
     0
  3
Adobe Illustrator Linetype No. 2
 72
    65
 73
     2
 40
7.270862246391072
 49
3.635375106750391
 74
     0
 49
-3.635487139640682
 74
     0
  0
LTYPE
  5
5B
330
5
100
AcDbSymbolTableRecord
100
AcDbLinetypeTableRecord
  2
AI-Linetype-3
 70
     0
  3
Adobe Illustrator Linetype No. 3
 72
    65
 73
     2
 40
7.270862246391072
 49
3.635375106750391
 74
     0
 49
-3.635487139640682
 74
     0
  0
LTYPE
  5
66
330
5
100
AcDbSymbolTableRecord
100
AcDbLinetypeTableRecord
  2
AI-Linetype-4
 70
     0
  3
Adobe Illustrator Linetype No. 4
 72
    65
 73
     2
 40
7.270862246391072
 49
3.635375106750391
 74
     0
 49
-3.635487139640682
 74
     0
  0
LTYPE
  5
75
330
5
100
AcDbSymbolTableRecord
100
AcDbLinetypeTableRecord
  2
AI-Linetype-5
 70
     0
  3
Adobe Illustrator Linetype No. 5
 72
    65
 73
     2
 40
7.177426815887697
 49
3.588658064368915
 74
     0
 49
-3.588768751518783
 74
     0
  0
LTYPE
  5
85
330
5
100
AcDbSymbolTableRecord
100
AcDbLinetypeTableRecord
  2
AI-Linetype-6
 70
     0
  3
Adobe Illustrator Linetype No. 6
 72
    65
 73
     2
 40
7.177381060713285
 49
3.588635186781708
 74
     0
 49
-3.588745873931576
 74
     0
  0
LTYPE
  5
8C
330
5
100
AcDbSymbolTableRecord
100
AcDbLinetypeTableRecord
  2
AI-Linetype-7
 70
     0
  3
Adobe Illustrator Linetype No. 7
 72
    65
 73
     2
 40
7.270862246391072
 49
3.635375106750391
 74
     0
 49
-3.635487139640682
 74
     0
  0
LTYPE
  5
97
330
5
100
AcDbSymbolTableRecord
100
AcDbLinetypeTableRecord
  2
AI-Linetype-8
 70
     0
  3
Adobe Illustrator Linetype No. 8
 72
    65
 73
     2
 40
7.270862246391072
 49
3.635375106750391
 74
     0
 49
-3.635487139640682
 74
     0
  0
LTYPE
  5
9D
330
5
100
AcDbSymbolTableRecord
100
AcDbLinetypeTableRecord
  2
AI-Linetype-9
 70
     0
  3
Adobe Illustrator Linetype No. 9
 72
    65
 73
     2
 40
7.270862246391072
 49
3.635375106750391
 74
     0
 49
-3.635487139640682
 74
     0
  0
LTYPE
  5
AD
330
5
100
AcDbSymbolTableRecord
100
AcDbLinetypeTableRecord
  2
AI-Linetype-10
 70
     0
  3
Adobe Illustrator Linetype No. 10
 72
    65
 73
     2
 40
7.270862246391072
 49
3.635375106750391
 74
     0
 49
-3.635487139640682
 74
     0
  0
LTYPE
  5
B3
330
5
100
AcDbSymbolTableRecord
100
AcDbLinetypeTableRecord
  2
AI-Linetype-11
 70
     0
  3
Adobe Illustrator Linetype No. 11
 72
    65
 73
     2
 40
7.270862246391072
 49
3.635375106750391
 74
     0
 49
-3.635487139640682
 74
     0
  0
LTYPE
  5
B9
330
5
100
AcDbSymbolTableRecord
100
AcDbLinetypeTableRecord
  2
AI-Linetype-12
 70
     0
  3
Adobe Illustrator Linetype No. 12
 72
    65
 73
     2
 40
7.270862246391072
 49
3.635375106750391
 74
     0
 49
-3.635487139640682
 74
     0
  0
LTYPE
  5
BF
330
5
100
AcDbSymbolTableRecord
100
AcDbLinetypeTableRecord
  2
AI-Linetype-13
 70
     0
  3
Adobe Illustrator Linetype No. 13
 72
    65
 73
     2
 40
7.270862246391072
 49
3.635375106750391
 74
     0
 49
-3.635487139640682
 74
     0
  0
LTYPE
  5
CF
330
5
100
AcDbSymbolTableRecord
100
AcDbLinetypeTableRecord
  2
AI-Linetype-14
 70
     0
  3
Adobe Illustrator Linetype No. 14
 72
    65
 73
     2
 40
7.270862246391072
 49
3.635375106750391
 74
     0
 49
-3.635487139640682
 74
     0
  0
LTYPE
  5
D5
330
5
100
AcDbSymbolTableRecord
100
AcDbLinetypeTableRecord
  2
AI-Linetype-15
 70
     0
  3
Adobe Illustrator Linetype No. 15
 72
    65
 73
     2
 40
7.270862246391072
 49
3.635375106750391
 74
     0
 49
-3.635487139640682
 74
     0
  0
LTYPE
  5
FE
330
5
100
AcDbSymbolTableRecord
100
AcDbLinetypeTableRecord
  2
AI-Linetype-16
 70
     0
  3
Adobe Illustrator Linetype No. 16
 72
    65
 73
     2
 40
7.270862246391072
 49
3.635375106750391
 74
     0
 49
-3.635487139640682
 74
     0
  0
LTYPE
  5
104
330
5
100
AcDbSymbolTableRecord
100
AcDbLinetypeTableRecord
  2
AI-Linetype-17
 70
     0
  3
Adobe Illustrator Linetype No. 17
 72
    65
 73
     2
 40
7.270862246391072
 49
3.635375106750391
 74
     0
 49
-3.635487139640682
 74
     0
  0
LTYPE
  5
117
330
5
100
AcDbSymbolTableRecord
100
AcDbLinetypeTableRecord
  2
AI-Linetype-18
 70
     0
  3
Adobe Illustrator Linetype No. 18
 72
    65
 73
     2
 40
7.270862246391072
 49
3.635375106750391
 74
     0
 49
-3.635487139640682
 74
     0
  0
LTYPE
  5
122
330
5
100
AcDbSymbolTableRecord
100
AcDbLinetypeTableRecord
  2
AI-Linetype-19
 70
     0
  3
Adobe Illustrator Linetype No. 19
 72
    65
 73
     2
 40
7.270862246391072
 49
3.635375106750391
 74
     0
 49
-3.635487139640682
 74
     0
  0
LTYPE
  5
132
330
5
100
AcDbSymbolTableRecord
100
AcDbLinetypeTableRecord
  2
AI-Linetype-20
 70
     0
  3
Adobe Illustrator Linetype No. 20
 72
    65
 73
     2
 40
7.270862246391072
 49
3.635375106750391
 74
     0
 49
-3.635487139640682
 74
     0
  0
LTYPE
  5
142
330
5
100
AcDbSymbolTableRecord
100
AcDbLinetypeTableRecord
  2
AI-Linetype-21
 70
     0
  3
Adobe Illustrator Linetype No. 21
 72
    65
 73
     2
 40
7.270862246391072
 49
3.635375106750391
 74
     0
 49
-3.635487139640682
 74
     0
  0
LTYPE
  5
14D
330
5
100
AcDbSymbolTableRecord
100
AcDbLinetypeTableRecord
  2
AI-Linetype-22
 70
     0
  3
Adobe Illustrator Linetype No. 22
 72
    65
 73
     2
 40
7.270862246391072
 49
3.635375106750391
 74
     0
 49
-3.635487139640682
 74
     0
  0
LTYPE
  5
16C
330
5
100
AcDbSymbolTableRecord
100
AcDbLinetypeTableRecord
  2
AI-Linetype-23
 70
     0
  3
Adobe Illustrator Linetype No. 23
 72
    65
 73
     2
 40
7.270862246391072
 49
3.635375106750391
 74
     0
 49
-3.635487139640682
 74
     0
  0
LTYPE
  5
181
330
5
100
AcDbSymbolTableRecord
100
AcDbLinetypeTableRecord
  2
AI-Linetype-24
 70
     0
  3
Adobe Illustrator Linetype No. 24
 72
    65
 73
     2
 40
7.270862246391072
 49
3.635375106750391
 74
     0
 49
-3.635487139640682
 74
     0
  0
LTYPE
  5
191
330
5
100
AcDbSymbolTableRecord
100
AcDbLinetypeTableRecord
  2
AI-Linetype-25
 70
     0
  3
Adobe Illustrator Linetype No. 25
 72
    65
 73
     2
 40
7.270862246391072
 49
3.635375106750391
 74
     0
 49
-3.635487139640682
 74
     0
  0
LTYPE
  5
197
330
5
100
AcDbSymbolTableRecord
100
AcDbLinetypeTableRecord
  2
AI-Linetype-26
 70
     0
  3
Adobe Illustrator Linetype No. 26
 72
    65
 73
     2
 40
7.270862246391072
 49
3.635375106750391
 74
     0
 49
-3.635487139640682
 74
     0
  0
LTYPE
  5
19D
330
5
100
AcDbSymbolTableRecord
100
AcDbLinetypeTableRecord
  2
AI-Linetype-27
 70
     0
  3
Adobe Illustrator Linetype No. 27
 72
    65
 73
     2
 40
7.270862246391072
 49
3.635375106750391
 74
     0
 49
-3.635487139640682
 74
     0
  0
LTYPE
  5
1A3
330
5
100
AcDbSymbolTableRecord
100
AcDbLinetypeTableRecord
  2
AI-Linetype-28
 70
     0
  3
Adobe Illustrator Linetype No. 28
 72
    65
 73
     2
 40
7.270862246391072
 49
3.635375106750391
 74
     0
 49
-3.635487139640682
 74
     0
  0
LTYPE
  5
1C1
330
5
100
AcDbSymbolTableRecord
100
AcDbLinetypeTableRecord
  2
AI-Linetype-29
 70
     0
  3
Adobe Illustrator Linetype No. 29
 72
    65
 73
     2
 40
6.250115106927462
 49
3.125057553463731
 74
     0
 49
-3.125057553463731
 74
     0
  0
LTYPE
  5
1C6
330
5
100
AcDbSymbolTableRecord
100
AcDbLinetypeTableRecord
  2
AI-Linetype-30
 70
     0
  3
Adobe Illustrator Linetype No. 30
 72
    65
 73
     4
 40
28.12565659243724
 49
18.75048393204605
 74
     0
 49
-3.125057553463731
 74
     0
 49
3.125057553463731
 74
     0
 49
-3.125057553463731
 74
     0
  0
LTYPE
  5
1DF
330
5
100
AcDbSymbolTableRecord
100
AcDbLinetypeTableRecord
  2
AI-Linetype-31
 70
     0
  3
Adobe Illustrator Linetype No. 31
 72
    65
 73
     2
 40
6.250043109814782
 49
3.125021554907391
 74
     0
 49
-3.125021554907391
 74
     0
  0
LTYPE
  5
1E4
330
5
100
AcDbSymbolTableRecord
100
AcDbLinetypeTableRecord
  2
AI-Linetype-32
 70
     0
  3
Adobe Illustrator Linetype No. 32
 72
    65
 73
     4
 40
28.1253332783004
 49
18.75026861357822
 74
     0
 49
-3.125021554907391
 74
     0
 49
3.125021554907391
 74
     0
 49
-3.125021554907391
 74
     0
  0
LTYPE
  5
1F9
330
5
100
AcDbSymbolTableRecord
100
AcDbLinetypeTableRecord
  2
AI-Linetype-33
 70
     0
  3
Adobe Illustrator Linetype No. 33
 72
    65
 73
     2
 40
8.154794012786063
 49
4.077397006393031
 74
     0
 49
-4.077397006393031
 74
     0
  0
LTYPE
  5
1FE
330
5
100
AcDbSymbolTableRecord
100
AcDbLinetypeTableRecord
  2
AI-Linetype-34
 70
     0
  3
Adobe Illustrator Linetype No. 34
 72
    65
 73
     4
 40
36.69675338675408
 49
24.464562367575
 74
     0
 49
-4.077397006393031
 74
     0
 49
4.077397006393031
 74
     0
 49
-4.077397006393031
 74
     0
  0
LTYPE
  5
209
330
5
100
AcDbSymbolTableRecord
100
AcDbLinetypeTableRecord
  2
AI-Linetype-35
 70
     0
  3
Adobe Illustrator Linetype No. 35
 72
    65
 73
     2
 40
7.270862246391072
 49
3.635375106750391
 74
     0
 49
-3.635487139640682
 74
     0
  0
LTYPE
  5
21D
330
5
100
AcDbSymbolTableRecord
100
AcDbLinetypeTableRecord
  2
AI-Linetype-36
 70
     0
  3
Adobe Illustrator Linetype No. 36
 72
    65
 73
     2
 40
6.249971112702101
 49
3.124985556351051
 74
     0
 49
-3.124985556351051
 74
     0
  0
LTYPE
  5
222
330
5
100
AcDbSymbolTableRecord
100
AcDbLinetypeTableRecord
  2
AI-Linetype-37
 70
     0
  3
Adobe Illustrator Linetype No. 37
 72
    65
 73
     4
 40
28.12500996416354
 49
18.75005329511039
 74
     0
 49
-3.124985556351051
 74
     0
 49
3.124985556351051
 74
     0
 49
-3.124985556351051
 74
     0
  0
LTYPE
  5
23B
330
5
100
AcDbSymbolTableRecord
100
AcDbLinetypeTableRecord
  2
AI-Linetype-38
 70
     0
  3
Adobe Illustrator Linetype No. 38
 72
    65
 73
     2
 40
6.250043109814782
 49
3.125021554907391
 74
     0
 49
-3.125021554907391
 74
     0
  0
LTYPE
  5
240
330
5
100
AcDbSymbolTableRecord
100
AcDbLinetypeTableRecord
  2
AI-Linetype-39
 70
     0
  3
Adobe Illustrator Linetype No. 39
 72
    65
 73
     4
 40
28.1253332783004
 49
18.75026861357822
 74
     0
 49
-3.125021554907391
 74
     0
 49
3.125021554907391
 74
     0
 49
-3.125021554907391
 74
     0
  0
LTYPE
  5
24B
330
5
100
AcDbSymbolTableRecord
100
AcDbLinetypeTableRecord
  2
AI-Linetype-40
 70
     0
  3
Adobe Illustrator Linetype No. 40
 72
    65
 73
     2
 40
7.270862246391072
 49
3.635375106750391
 74
     0
 49
-3.635487139640682
 74
     0
  0
ENDTAB
  0
TABLE
  2
LAYER
  5
2
330
0
100
AcDbSymbolTable
 70
     1
  0
LAYER
  5
10
330
2
100
AcDbSymbolTableRecord
100
AcDbLayerTableRecord
  2
0
 70
     0
 62
     7
  6
Continuous
370
    -3
390
F
347
3E
  0
ENDTAB
  0
TABLE
  2
STYLE
  5
3
330
0
100
AcDbSymbolTable
 70
     1
  0
STYLE
  5
11
330
3
100
AcDbSymbolTableRecord
100
AcDbTextStyleTableRecord
  2
Standard
 70
     0
 40
0.0
 41
1.0
 50
0.0
 71
     0
 42
0.2
  3
txt
  4

  0
ENDTAB
  0
TABLE
  2
VIEW
  5
6
330
0
100
AcDbSymbolTable
 70
     0
  0
ENDTAB
  0
TABLE
  2
UCS
  5
7
330
0
100
AcDbSymbolTable
 70
     0
  0
ENDTAB
  0
TABLE
  2
APPID
  5
9
330
0
100
AcDbSymbolTable
 70
     1
  0
APPID
  5
12
330
9
100
AcDbSymbolTableRecord
100
AcDbRegAppTableRecord
  2
ACAD
 70
     0
  0
ENDTAB
  0
TABLE
  2
DIMSTYLE
  5
A
330
0
100
AcDbSymbolTable
 70
     1
100
AcDbDimStyleTable
  0
DIMSTYLE
105
27
330
A
100
AcDbSymbolTableRecord
100
AcDbDimStyleTableRecord
  2
Standard
 70
     0
178
     0
340
11
  0
ENDTAB
  0
TABLE
  2
BLOCK_RECORD
  5
1
330
0
100
AcDbSymbolTable
 70
    90
  0
BLOCK_RECORD
  5
1F
330
1
100
AcDbSymbolTableRecord
100
AcDbBlockTableRecord
  2
*Model_Space
340
22
 70
     0
280
     1
281
     0
  0
BLOCK_RECORD
  5
1B
330
1
100
AcDbSymbolTableRecord
100
AcDbBlockTableRecord
  2
*Paper_Space
340
1E
 70
     0
280
     1
281
     0
  0
BLOCK_RECORD
  5
23
330
1
100
AcDbSymbolTableRecord
100
AcDbBlockTableRecord
  2
*Paper_Space0
340
26
 70
     0
280
     1
281
     0
  0
BLOCK_RECORD
  5
40
330
1
100
AcDbSymbolTableRecord
100
AcDbBlockTableRecord
  2
block 2
340
0
102
{BLKREFS
331
41
102
}
 70
     0
280
     1
281
     0
  0
BLOCK_RECORD
  5
45
330
1
100
AcDbSymbolTableRecord
100
AcDbBlockTableRecord
  2
block 3
340
0
102
{BLKREFS
331
46
102
}
 70
     0
280
     1
281
     0
  0
BLOCK_RECORD
  5
4B
330
1
100
AcDbSymbolTableRecord
100
AcDbBlockTableRecord
  2
block 4
340
0
102
{BLKREFS
331
4C
102
}
 70
     0
280
     1
281
     0
  0
BLOCK_RECORD
  5
50
330
1
100
AcDbSymbolTableRecord
100
AcDbBlockTableRecord
  2
block 5
340
0
102
{BLKREFS
331
51
102
}
 70
     0
280
     1
281
     0
  0
BLOCK_RECORD
  5
56
330
1
100
AcDbSymbolTableRecord
100
AcDbBlockTableRecord
  2
block 6
340
0
102
{BLKREFS
331
57
102
}
 70
     0
280
     1
281
     0
  0
BLOCK_RECORD
  5
5C
330
1
100
AcDbSymbolTableRecord
100
AcDbBlockTableRecord
  2
block 7
340
0
102
{BLKREFS
331
5D
102
}
 70
     0
280
     1
281
     0
  0
BLOCK_RECORD
  5
61
330
1
100
AcDbSymbolTableRecord
100
AcDbBlockTableRecord
  2
block 8
340
0
102
{BLKREFS
331
62
102
}
 70
     0
280
     1
281
     0
  0
BLOCK_RECORD
  5
67
330
1
100
AcDbSymbolTableRecord
100
AcDbBlockTableRecord
  2
block 9
340
0
102
{BLKREFS
331
68
102
}
 70
     0
280
     1
281
     0
  0
BLOCK_RECORD
  5
6B
330
1
100
AcDbSymbolTableRecord
100
AcDbBlockTableRecord
  2
block 10
340
0
102
{BLKREFS
331
6C
102
}
 70
     0
280
     1
281
     0
  0
BLOCK_RECORD
  5
6F
330
1
100
AcDbSymbolTableRecord
100
AcDbBlockTableRecord
  2
block 11
340
0
102
{BLKREFS
331
70
102
}
 70
     0
280
     1
281
     0
  0
BLOCK_RECORD
  5
77
330
1
100
AcDbSymbolTableRecord
100
AcDbBlockTableRecord
  2
block 12
340
0
102
{BLKREFS
331
78
102
}
 70
     0
280
     1
281
     0
  0
BLOCK_RECORD
  5
7B
330
1
100
AcDbSymbolTableRecord
100
AcDbBlockTableRecord
  2
block 13
340
0
102
{BLKREFS
331
7C
102
}
 70
     0
280
     1
281
     0
  0
BLOCK_RECORD
  5
7F
330
1
100
AcDbSymbolTableRecord
100
AcDbBlockTableRecord
  2
block 14
340
0
102
{BLKREFS
331
80
102
}
 70
     0
280
     1
281
     0
  0
BLOCK_RECORD
  5
87
330
1
100
AcDbSymbolTableRecord
100
AcDbBlockTableRecord
  2
block 15
340
0
102
{BLKREFS
331
88
102
}
 70
     0
280
     1
281
     0
  0
BLOCK_RECORD
  5
8D
330
1
100
AcDbSymbolTableRecord
100
AcDbBlockTableRecord
  2
block 16
340
0
102
{BLKREFS
331
8E
102
}
 70
     0
280
     1
281
     0
  0
BLOCK_RECORD
  5
92
330
1
100
AcDbSymbolTableRecord
100
AcDbBlockTableRecord
  2
block 17
340
0
102
{BLKREFS
331
93
102
}
 70
     0
280
     1
281
     0
  0
BLOCK_RECORD
  5
98
330
1
100
AcDbSymbolTableRecord
100
AcDbBlockTableRecord
  2
block 18
340
0
102
{BLKREFS
331
99
102
}
 70
     0
280
     1
281
     0
  0
BLOCK_RECORD
  5
9E
330
1
100
AcDbSymbolTableRecord
100
AcDbBlockTableRecord
  2
block 19
340
0
102
{BLKREFS
331
9F
102
}
 70
     0
280
     1
281
     0
  0
BLOCK_RECORD
  5
A3
330
1
100
AcDbSymbolTableRecord
100
AcDbBlockTableRecord
  2
block 20
340
0
102
{BLKREFS
331
A4
102
}
 70
     0
280
     1
281
     0
  0
BLOCK_RECORD
  5
A8
330
1
100
AcDbSymbolTableRecord
100
AcDbBlockTableRecord
  2
block 21
340
0
102
{BLKREFS
331
A9
102
}
 70
     0
280
     1
281
     0
  0
BLOCK_RECORD
  5
AE
330
1
100
AcDbSymbolTableRecord
100
AcDbBlockTableRecord
  2
block 22
340
0
102
{BLKREFS
331
AF
102
}
 70
     0
280
     1
281
     0
  0
BLOCK_RECORD
  5
B4
330
1
100
AcDbSymbolTableRecord
100
AcDbBlockTableRecord
  2
block 23
340
0
102
{BLKREFS
331
B5
102
}
 70
     0
280
     1
281
     0
  0
BLOCK_RECORD
  5
BA
330
1
100
AcDbSymbolTableRecord
100
AcDbBlockTableRecord
  2
block 24
340
0
102
{BLKREFS
331
BB
102
}
 70
     0
280
     1
281
     0
  0
BLOCK_RECORD
  5
C0
330
1
100
AcDbSymbolTableRecord
100
AcDbBlockTableRecord
  2
block 25
340
0
102
{BLKREFS
331
C1
102
}
 70
     0
280
     1
281
     0
  0
BLOCK_RECORD
  5
C5
330
1
100
AcDbSymbolTableRecord
100
AcDbBlockTableRecord
  2
block 26
340
0
102
{BLKREFS
331
C6
102
}
 70
     0
280
     1
281
     0
  0
BLOCK_RECORD
  5
CA
330
1
100
AcDbSymbolTableRecord
100
AcDbBlockTableRecord
  2
block 27
340
0
102
{BLKREFS
331
CB
102
}
 70
     0
280
     1
281
     0
  0
BLOCK_RECORD
  5
D0
330
1
100
AcDbSymbolTableRecord
100
AcDbBlockTableRecord
  2
block 28
340
0
102
{BLKREFS
331
D1
102
}
 70
     0
280
     1
281
     0
  0
BLOCK_RECORD
  5
D6
330
1
100
AcDbSymbolTableRecord
100
AcDbBlockTableRecord
  2
block 29
340
0
102
{BLKREFS
331
D7
102
}
 70
     0
280
     1
281
     0
  0
BLOCK_RECORD
  5
DB
330
1
100
AcDbSymbolTableRecord
100
AcDbBlockTableRecord
  2
block 30
340
0
102
{BLKREFS
331
DC
102
}
 70
     0
280
     1
281
     0
  0
BLOCK_RECORD
  5
E0
330
1
100
AcDbSymbolTableRecord
100
AcDbBlockTableRecord
  2
block 31
340
0
102
{BLKREFS
331
E1
102
}
 70
     0
280
     1
281
     0
  0
BLOCK_RECORD
  5
E5
330
1
100
AcDbSymbolTableRecord
100
AcDbBlockTableRecord
  2
block 32
340
0
102
{BLKREFS
331
E6
102
}
 70
     0
280
     1
281
     0
  0
BLOCK_RECORD
  5
EA
330
1
100
AcDbSymbolTableRecord
100
AcDbBlockTableRecord
  2
block 33
340
0
102
{BLKREFS
331
EB
102
}
 70
     0
280
     1
281
     0
  0
BLOCK_RECORD
  5
EF
330
1
100
AcDbSymbolTableRecord
100
AcDbBlockTableRecord
  2
block 34
340
0
102
{BLKREFS
331
F0
102
}
 70
     0
280
     1
281
     0
  0
BLOCK_RECORD
  5
F4
330
1
100
AcDbSymbolTableRecord
100
AcDbBlockTableRecord
  2
block 35
340
0
102
{BLKREFS
331
F5
102
}
 70
     0
280
     1
281
     0
  0
BLOCK_RECORD
  5
F9
330
1
100
AcDbSymbolTableRecord
100
AcDbBlockTableRecord
  2
block 36
340
0
102
{BLKREFS
331
FA
102
}
 70
     0
280
     1
281
     0
  0
BLOCK_RECORD
  5
FF
330
1
100
AcDbSymbolTableRecord
100
AcDbBlockTableRecord
  2
block 37
340
0
102
{BLKREFS
331
100
102
}
 70
     0
280
     1
281
     0
  0
BLOCK_RECORD
  5
105
330
1
100
AcDbSymbolTableRecord
100
AcDbBlockTableRecord
  2
block 38
340
0
102
{BLKREFS
331
106
102
}
 70
     0
280
     1
281
     0
  0
BLOCK_RECORD
  5
10A
330
1
100
AcDbSymbolTableRecord
100
AcDbBlockTableRecord
  2
block 39
340
0
102
{BLKREFS
331
10B
102
}
 70
     0
280
     1
281
     0
  0
BLOCK_RECORD
  5
112
330
1
100
AcDbSymbolTableRecord
100
AcDbBlockTableRecord
  2
block 40
340
0
102
{BLKREFS
331
113
102
}
 70
     0
280
     1
281
     0
  0
BLOCK_RECORD
  5
118
330
1
100
AcDbSymbolTableRecord
100
AcDbBlockTableRecord
  2
block 41
340
0
102
{BLKREFS
331
119
102
}
 70
     0
280
     1
281
     0
  0
BLOCK_RECORD
  5
11D
330
1
100
AcDbSymbolTableRecord
100
AcDbBlockTableRecord
  2
block 42
340
0
102
{BLKREFS
331
11E
102
}
 70
     0
280
     1
281
     0
  0
BLOCK_RECORD
  5
123
330
1
100
AcDbSymbolTableRecord
100
AcDbBlockTableRecord
  2
block 43
340
0
102
{BLKREFS
331
124
102
}
 70
     0
280
     1
281
     0
  0
BLOCK_RECORD
  5
128
330
1
100
AcDbSymbolTableRecord
100
AcDbBlockTableRecord
  2
block 44
340
0
102
{BLKREFS
331
129
102
}
 70
     0
280
     1
281
     0
  0
BLOCK_RECORD
  5
12D
330
1
100
AcDbSymbolTableRecord
100
AcDbBlockTableRecord
  2
block 45
340
0
102
{BLKREFS
331
12E
102
}
 70
     0
280
     1
281
     0
  0
BLOCK_RECORD
  5
133
330
1
100
AcDbSymbolTableRecord
100
AcDbBlockTableRecord
  2
block 46
340
0
102
{BLKREFS
331
134
102
}
 70
     0
280
     1
281
     0
  0
BLOCK_RECORD
  5
138
330
1
100
AcDbSymbolTableRecord
100
AcDbBlockTableRecord
  2
block 47
340
0
102
{BLKREFS
331
139
102
}
 70
     0
280
     1
281
     0
  0
BLOCK_RECORD
  5
13D
330
1
100
AcDbSymbolTableRecord
100
AcDbBlockTableRecord
  2
block 48
340
0
102
{BLKREFS
331
13E
102
}
 70
     0
280
     1
281
     0
  0
BLOCK_RECORD
  5
143
330
1
100
AcDbSymbolTableRecord
100
AcDbBlockTableRecord
  2
block 49
340
0
102
{BLKREFS
331
144
102
}
 70
     0
280
     1
281
     0
  0
BLOCK_RECORD
  5
148
330
1
100
AcDbSymbolTableRecord
100
AcDbBlockTableRecord
  2
block 50
340
0
102
{BLKREFS
331
149
102
}
 70
     0
280
     1
281
     0
  0
BLOCK_RECORD
  5
14E
330
1
100
AcDbSymbolTableRecord
100
AcDbBlockTableRecord
  2
block 51
340
0
102
{BLKREFS
331
14F
102
}
 70
     0
280
     1
281
     0
  0
BLOCK_RECORD
  5
153
330
1
100
AcDbSymbolTableRecord
100
AcDbBlockTableRecord
  2
block 52
340
0
102
{BLKREFS
331
154
102
}
 70
     0
280
     1
281
     0
  0
BLOCK_RECORD
  5
158
330
1
100
AcDbSymbolTableRecord
100
AcDbBlockTableRecord
  2
block 53
340
0
102
{BLKREFS
331
159
102
}
 70
     0
280
     1
281
     0
  0
BLOCK_RECORD
  5
15D
330
1
100
AcDbSymbolTableRecord
100
AcDbBlockTableRecord
  2
block 54
340
0
102
{BLKREFS
331
15E
102
}
 70
     0
280
     1
281
     0
  0
BLOCK_RECORD
  5
162
330
1
100
AcDbSymbolTableRecord
100
AcDbBlockTableRecord
  2
block 55
340
0
102
{BLKREFS
331
163
102
}
 70
     0
280
     1
281
     0
  0
BLOCK_RECORD
  5
167
330
1
100
AcDbSymbolTableRecord
100
AcDbBlockTableRecord
  2
block 56
340
0
102
{BLKREFS
331
168
102
}
 70
     0
280
     1
281
     0
  0
BLOCK_RECORD
  5
16D
330
1
100
AcDbSymbolTableRecord
100
AcDbBlockTableRecord
  2
block 57
340
0
102
{BLKREFS
331
16E
102
}
 70
     0
280
     1
281
     0
  0
BLOCK_RECORD
  5
172
330
1
100
AcDbSymbolTableRecord
100
AcDbBlockTableRecord
  2
block 58
340
0
102
{BLKREFS
331
173
102
}
 70
     0
280
     1
281
     0
  0
BLOCK_RECORD
  5
177
330
1
100
AcDbSymbolTableRecord
100
AcDbBlockTableRecord
  2
block 59
340
0
102
{BLKREFS
331
178
102
}
 70
     0
280
     1
281
     0
  0
BLOCK_RECORD
  5
17C
330
1
100
AcDbSymbolTableRecord
100
AcDbBlockTableRecord
  2
block 60
340
0
102
{BLKREFS
331
17D
102
}
 70
     0
280
     1
281
     0
  0
BLOCK_RECORD
  5
182
330
1
100
AcDbSymbolTableRecord
100
AcDbBlockTableRecord
  2
block 61
340
0
102
{BLKREFS
331
183
102
}
 70
     0
280
     1
281
     0
  0
BLOCK_RECORD
  5
187
330
1
100
AcDbSymbolTableRecord
100
AcDbBlockTableRecord
  2
block 62
340
0
102
{BLKREFS
331
188
102
}
 70
     0
280
     1
281
     0
  0
BLOCK_RECORD
  5
18C
330
1
100
AcDbSymbolTableRecord
100
AcDbBlockTableRecord
  2
block 63
340
0
102
{BLKREFS
331
18D
102
}
 70
     0
280
     1
281
     0
  0
BLOCK_RECORD
  5
192
330
1
100
AcDbSymbolTableRecord
100
AcDbBlockTableRecord
  2
block 64
340
0
102
{BLKREFS
331
193
102
}
 70
     0
280
     1
281
     0
  0
BLOCK_RECORD
  5
198
330
1
100
AcDbSymbolTableRecord
100
AcDbBlockTableRecord
  2
block 65
340
0
102
{BLKREFS
331
199
102
}
 70
     0
280
     1
281
     0
  0
BLOCK_RECORD
  5
19E
330
1
100
AcDbSymbolTableRecord
100
AcDbBlockTableRecord
  2
block 66
340
0
102
{BLKREFS
331
19F
102
}
 70
     0
280
     1
281
     0
  0
BLOCK_RECORD
  5
1A4
330
1
100
AcDbSymbolTableRecord
100
AcDbBlockTableRecord
  2
block 67
340
0
102
{BLKREFS
331
1A5
102
}
 70
     0
280
     1
281
     0
  0
BLOCK_RECORD
  5
1A9
330
1
100
AcDbSymbolTableRecord
100
AcDbBlockTableRecord
  2
block 68
340
0
102
{BLKREFS
331
1AA
102
}
 70
     0
280
     1
281
     0
  0
BLOCK_RECORD
  5
1AE
330
1
100
AcDbSymbolTableRecord
100
AcDbBlockTableRecord
  2
block 69
340
0
102
{BLKREFS
331
1AF
102
}
 70
     0
280
     1
281
     0
  0
BLOCK_RECORD
  5
1B2
330
1
100
AcDbSymbolTableRecord
100
AcDbBlockTableRecord
  2
block 70
340
0
102
{BLKREFS
331
1B3
102
}
 70
     0
280
     1
281
     0
  0
BLOCK_RECORD
  5
1B6
330
1
100
AcDbSymbolTableRecord
100
AcDbBlockTableRecord
  2
block 71
340
0
102
{BLKREFS
331
1B7
102
}
 70
     0
280
     1
281
     0
  0
BLOCK_RECORD
  5
1CC
330
1
100
AcDbSymbolTableRecord
100
AcDbBlockTableRecord
  2
block 72
340
0
102
{BLKREFS
331
1CD
102
}
 70
     0
280
     1
281
     0
  0
BLOCK_RECORD
  5
1D0
330
1
100
AcDbSymbolTableRecord
100
AcDbBlockTableRecord
  2
block 73
340
0
102
{BLKREFS
331
1D1
102
}
 70
     0
280
     1
281
     0
  0
BLOCK_RECORD
  5
1D4
330
1
100
AcDbSymbolTableRecord
100
AcDbBlockTableRecord
  2
block 74
340
0
102
{BLKREFS
331
1D5
102
}
 70
     0
280
     1
281
     0
  0
BLOCK_RECORD
  5
1EA
330
1
100
AcDbSymbolTableRecord
100
AcDbBlockTableRecord
  2
block 75
340
0
102
{BLKREFS
331
1EB
102
}
 70
     0
280
     1
281
     0
  0
BLOCK_RECORD
  5
1EE
330
1
100
AcDbSymbolTableRecord
100
AcDbBlockTableRecord
  2
block 76
340
0
102
{BLKREFS
331
1EF
102
}
 70
     0
280
     1
281
     0
  0
BLOCK_RECORD
  5
204
330
1
100
AcDbSymbolTableRecord
100
AcDbBlockTableRecord
  2
block 77
340
0
102
{BLKREFS
331
205
102
}
 70
     0
280
     1
281
     0
  0
BLOCK_RECORD
  5
20A
330
1
100
AcDbSymbolTableRecord
100
AcDbBlockTableRecord
  2
block 78
340
0
102
{BLKREFS
331
20B
102
}
 70
     0
280
     1
281
     0
  0
BLOCK_RECORD
  5
20E
330
1
100
AcDbSymbolTableRecord
100
AcDbBlockTableRecord
  2
block 79
340
0
102
{BLKREFS
331
20F
102
}
 70
     0
280
     1
281
     0
  0
BLOCK_RECORD
  5
212
330
1
100
AcDbSymbolTableRecord
100
AcDbBlockTableRecord
  2
block 80
340
0
102
{BLKREFS
331
213
102
}
 70
     0
280
     1
281
     0
  0
BLOCK_RECORD
  5
228
330
1
100
AcDbSymbolTableRecord
100
AcDbBlockTableRecord
  2
block 81
340
0
102
{BLKREFS
331
229
102
}
 70
     0
280
     1
281
     0
  0
BLOCK_RECORD
  5
22C
330
1
100
AcDbSymbolTableRecord
100
AcDbBlockTableRecord
  2
block 82
340
0
102
{BLKREFS
331
22D
102
}
 70
     0
280
     1
281
     0
  0
BLOCK_RECORD
  5
230
330
1
100
AcDbSymbolTableRecord
100
AcDbBlockTableRecord
  2
block 83
340
0
102
{BLKREFS
331
231
102
}
 70
     0
280
     1
281
     0
  0
BLOCK_RECORD
  5
246
330
1
100
AcDbSymbolTableRecord
100
AcDbBlockTableRecord
  2
block 84
340
0
102
{BLKREFS
331
247
102
}
 70
     0
280
     1
281
     0
  0
BLOCK_RECORD
  5
24C
330
1
100
AcDbSymbolTableRecord
100
AcDbBlockTableRecord
  2
block 85
340
0
102
{BLKREFS
331
24D
102
}
 70
     0
280
     1
281
     0
  0
BLOCK_RECORD
  5
254
330
1
100
AcDbSymbolTableRecord
100
AcDbBlockTableRecord
  2
block 86
340
0
102
{BLKREFS
331
255
102
}
 70
     0
280
     1
281
     0
  0
BLOCK_RECORD
  5
25C
330
1
100
AcDbSymbolTableRecord
100
AcDbBlockTableRecord
  2
block 87
340
0
102
{BLKREFS
331
25D
102
}
 70
     0
280
     1
281
     0
  0
BLOCK_RECORD
  5
264
330
1
100
AcDbSymbolTableRecord
100
AcDbBlockTableRecord
  2
block 88
340
0
102
{BLKREFS
331
265
102
}
 70
     0
280
     1
281
     0
  0
BLOCK_RECORD
  5
26C
330
1
100
AcDbSymbolTableRecord
100
AcDbBlockTableRecord
  2
block 89
340
0
102
{BLKREFS
331
26D
102
}
 70
     0
280
     1
281
     0
  0
BLOCK_RECORD
  5
271
330
1
100
AcDbSymbolTableRecord
100
AcDbBlockTableRecord
  2
block 90
340
0
102
{BLKREFS
331
272
102
}
 70
     0
280
     1
281
     0
  0
ENDTAB
  0
ENDSEC
  0
SECTION
  2
BLOCKS
  0
BLOCK
  5
20
330
1F
100
AcDbEntity
  8
0
100
AcDbBlockBegin
  2
*Model_Space
 70
     0
 10
0.0
 20
0.0
 30
0.0
  3
*Model_Space
  1

  0
ENDBLK
  5
21
330
1F
100
AcDbEntity
  8
0
100
AcDbBlockEnd
  0
BLOCK
  5
1C
330
1B
100
AcDbEntity
 67
     1
  8
0
100
AcDbBlockBegin
  2
*Paper_Space
 70
     0
 10
0.0
 20
0.0
 30
0.0
  3
*Paper_Space
  1

  0
ENDBLK
  5
1D
330
1B
100
AcDbEntity
 67
     1
  8
0
100
AcDbBlockEnd
  0
BLOCK
  5
24
330
23
100
AcDbEntity
  8
0
100
AcDbBlockBegin
  2
*Paper_Space0
 70
     0
 10
0.0
 20
0.0
 30
0.0
  3
*Paper_Space0
  1

  0
ENDBLK
  5
25
330
23
100
AcDbEntity
  8
0
100
AcDbBlockEnd
  0
BLOCK
  5
42
330
40
100
AcDbEntity
  8
0
100
AcDbBlockBegin
  2
block 2
 70
     0
 10
0.0
 20
0.0
 30
0.0
  3
block 2
  1

  0
SPLINE
  5
44
330
40
100
AcDbEntity
  8
0
 62
   250
370
    25
100
AcDbSpline
210
0.0
220
0.0
230
1.0
 70
     8
 71
     3
 72
    11
 73
     7
 74
     0
 42
0.0000000001
 43
0.0000000001
 12
1.0
 22
0.0
 32
0.0
 13
1.0
 23
0.0
 33
0.0
 40
0.0
 40
0.0
 40
0.0
 40
0.0
 40
1.0
 40
1.0
 40
1.0
 40
2.0
 40
2.0
 40
2.0
 40
2.0
 10
-294.5554503797435
 20
571.0250368324696
 30
0.0
 10
-294.5308616084951
 20
571.1143254695182
 30
0.0
 10
-294.5041914347973
 20
571.2029085464179
 30
0.0
 10
-294.4755104146685
 20
571.2909624532012
 30
0.0
 10
-294.3502734879384
 20
571.6744696730298
 30
0.0
 10
-294.1909227279189
 20
572.0365631422782
 30
0.0
 10
-293.9921311554892
 20
572.3876851511956
 30
0.0
  0
ENDBLK
  5
43
330
40
100
AcDbEntity
  8
0
100
AcDbBlockEnd
  0
BLOCK
  5
47
330
45
100
AcDbEntity
  8
0
100
AcDbBlockBegin
  2
block 3
 70
     0
 10
0.0
 20
0.0
 30
0.0
  3
block 3
  1

  0
SPLINE
  5
49
330
45
100
AcDbEntity
  8
0
  6
AI-Linetype-1
 62
     6
370
    25
100
AcDbSpline
210
0.0
220
0.0
230
1.0
 70
     8
 71
     3
 72
     8
 73
     4
 74
     0
 42
0.0000000001
 43
0.0000000001
 12
1.0
 22
0.0
 32
0.0
 13
1.0
 23
0.0
 33
0.0
 40
0.0
 40
0.0
 40
0.0
 40
0.0
 40
1.0
 40
1.0
 40
1.0
 40
1.0
 10
118.7983026055651
 20
457.6167937756219
 30
0.0
 10
124.7008424349841
 20
457.3080406534797
 30
0.0
 10
134.7758550987137
 20
456.7866992198464
 30
0.0
 10
140.6784302061489
 20
456.4779460977041
 30
0.0
  0
ENDBLK
  5
48
330
45
100
AcDbEntity
  8
0
100
AcDbBlockEnd
  0
BLOCK
  5
4D
330
4B
100
AcDbEntity
  8
0
100
AcDbBlockBegin
  2
block 4
 70
     0
 10
0.0
 20
0.0
 30
0.0
  3
block 4
  1

  0
SPLINE
  5
4F
330
4B
100
AcDbEntity
  8
0
 62
   250
370
    25
100
AcDbSpline
210
0.0
220
0.0
230
1.0
 70
     8
 71
     3
 72
    11
 73
     7
 74
     0
 42
0.0000000001
 43
0.0000000001
 12
1.0
 22
0.0
 32
0.0
 13
1.0
 23
0.0
 33
0.0
 40
0.0
 40
0.0
 40
0.0
 40
0.0
 40
1.0
 40
1.0
 40
1.0
 40
2.0
 40
2.0
 40
2.0
 40
2.0
 10
-293.0875677644219
 20
573.5808579217487
 30
0.0
 10
-293.0875677644219
 20
573.5808579217487
 30
0.0
 10
-293.088626104648
 20
573.584315166488
 30
0.0
 10
-293.088626104648
 20
573.584315166488
 30
0.0
 10
-292.4359124093522
 20
574.2607709607917
 30
0.0
 10
-291.7211799768186
 20
574.7267581621903
 30
0.0
 10
-290.8387358965152
 20
575.0508219393006
 30
0.0
  0
ENDBLK
  5
4E
330
4B
100
AcDbEntity
  8
0
100
AcDbBlockEnd
  0
BLOCK
  5
52
330
50
100
AcDbEntity
  8
0
100
AcDbBlockBegin
  2
block 5
 70
     0
 10
0.0
 20
0.0
 30
0.0
  3
block 5
  1

  0
SPLINE
  5
54
330
50
100
AcDbEntity
  8
0
  6
AI-Linetype-2
 62
     6
370
    25
100
AcDbSpline
210
0.0
220
0.0
230
1.0
 70
     8
 71
     3
 72
     8
 73
     4
 74
     0
 42
0.0000000001
 43
0.0000000001
 12
1.0
 22
0.0
 32
0.0
 13
1.0
 23
0.0
 33
0.0
 40
0.0
 40
0.0
 40
0.0
 40
0.0
 40
1.0
 40
1.0
 40
1.0
 40
1.0
 10
498.2304557273113
 20
530.4146525977266
 30
0.0
 10
496.2792644089834
 20
530.4858436170048
 30
0.0
 10
494.4846016101086
 20
531.5018502338813
 30
0.0
 10
493.4192410608592
 20
533.1379736670228
 30
0.0
  0
ENDBLK
  5
53
330
50
100
AcDbEntity
  8
0
100
AcDbBlockEnd
  0
BLOCK
  5
58
330
56
100
AcDbEntity
  8
0
100
AcDbBlockBegin
  2
block 6
 70
     0
 10
0.0
 20
0.0
 30
0.0
  3
block 6
  1

  0
SPLINE
  5
5A
330
56
100
AcDbEntity
  8
0
  6
AI-Linetype-3
 62
     6
370
    25
100
AcDbSpline
210
0.0
220
0.0
230
1.0
 70
     8
 71
     3
 72
    29
 73
    25
 74
     0
 42
0.0000000001
 43
0.0000000001
 12
1.0
 22
0.0
 32
0.0
 13
1.0
 23
0.0
 33
0.0
 40
0.0
 40
0.0
 40
0.0
 40
0.0
 40
1.0
 40
1.0
 40
1.0
 40
2.0
 40
2.0
 40
2.0
 40
3.0
 40
3.0
 40
3.0
 40
4.0
 40
4.0
 40
4.0
 40
5.0
 40
5.0
 40
5.0
 40
6.0
 40
6.0
 40
6.0
 40
7.0
 40
7.0
 40
7.0
 40
8.0
 40
8.0
 40
8.0
 40
8.0
 10
210.1146507438134
 20
409.0480408163394
 30
0.0
 10
211.5000533774246
 20
409.0480408162829
 30
0.0
 10
212.8854560110287
 20
409.0480408162194
 30
0.0
 10
214.2708586446334
 20
409.0480408161526
 30
0.0
 10
214.3523508420218
 20
409.0540027994186
 30
0.0
 10
214.4344074875391
 20
409.0561547578748
 30
0.0
 10
214.5157585728921
 20
409.0647625917106
 30
0.0
 10
214.5640894432014
 20
409.0698779028033
 30
0.0
 10
214.6122086454704
 20
409.0772862843773
 30
0.0
 10
214.6599397896551
 20
409.0865291223506
 30
0.0
 10
214.7832364259709
 20
409.1104123334363
 30
0.0
 10
214.9040988797597
 20
409.146642847157
 30
0.0
 10
215.0205163045993
 20
409.1938095432258
 30
0.0
 10
215.2521517020282
 20
409.287684321247
 30
0.0
 10
215.4661128176887
 20
409.4250216045344
 30
0.0
 10
215.6474064983811
 20
409.596966613217
 30
0.0
 10
215.8328277059427
 20
409.7727922027199
 30
0.0
 10
215.984064524233
 20
409.9848483059614
 30
0.0
 10
216.0902160488935
 20
410.2173303755633
 30
0.0
 10
216.1962617395279
 20
410.4495302211085
 30
0.0
 10
216.2573632485802
 20
410.7021207550044
 30
0.0
 10
216.268793323026
 20
410.9572513054374
 30
0.0
 10
216.5590607692475
 20
417.3490618212647
 30
0.0
 10
216.8295263405255
 20
423.30556907563
 30
0.0
 10
217.1197937867472
 20
429.6973443134465
 30
0.0
  0
ENDBLK
  5
59
330
56
100
AcDbEntity
  8
0
100
AcDbBlockEnd
  0
BLOCK
  5
5E
330
5C
100
AcDbEntity
  8
0
100
AcDbBlockBegin
  2
block 7
 70
     0
 10
0.0
 20
0.0
 30
0.0
  3
block 7
  1

  0
SPLINE
  5
60
330
5C
100
AcDbEntity
  8
0
 62
   250
370
    25
100
AcDbSpline
210
0.0
220
0.0
230
1.0
 70
     8
 71
     3
 72
    17
 73
    13
 74
     0
 42
0.0000000001
 43
0.0000000001
 12
1.0
 22
0.0
 32
0.0
 13
1.0
 23
0.0
 33
0.0
 40
0.0
 40
0.0
 40
0.0
 40
0.0
 40
1.0
 40
1.0
 40
1.0
 40
2.0
 40
2.0
 40
2.0
 40
3.0
 40
3.0
 40
3.0
 40
4.0
 40
4.0
 40
4.0
 40
4.0
 10
505.3656444195511
 20
570.136736567008
 30
0.0
 10
504.9702485106757
 20
558.8146833872185
 30
0.0
 10
504.615140086359
 20
546.558256900052
 30
0.0
 10
504.2197441774829
 20
535.2362037202485
 30
0.0
 10
504.174447215761
 20
533.941112785913
 30
0.0
 10
503.628167269146
 20
532.7141789621417
 30
0.0
 10
502.6959811982006
 20
531.8139900441101
 30
0.0
 10
501.7636892932304
 20
530.9136600140397
 30
0.0
 10
500.5182345154663
 20
530.4106661827755
 30
0.0
 10
499.2222616309397
 20
530.4106661828283
 30
0.0
 10
498.892518094581
 20
530.410666182846
 30
0.0
 10
498.5609401018332
 20
530.4106661828602
 30
0.0
 10
498.2304557273113
 20
530.4106661828778
 30
0.0
  0
ENDBLK
  5
5F
330
5C
100
AcDbEntity
  8
0
100
AcDbBlockEnd
  0
BLOCK
  5
63
330
61
100
AcDbEntity
  8
0
100
AcDbBlockBegin
  2
block 8
 70
     0
 10
0.0
 20
0.0
 30
0.0
  3
block 8
  1

  0
SPLINE
  5
65
330
61
100
AcDbEntity
  8
0
  6
AI-Linetype-4
 62
     6
370
    25
100
AcDbSpline
210
0.0
220
0.0
230
1.0
 70
     8
 71
     3
 72
     8
 73
     4
 74
     0
 42
0.0000000001
 43
0.0000000001
 12
1.0
 22
0.0
 32
0.0
 13
1.0
 23
0.0
 33
0.0
 40
0.0
 40
0.0
 40
0.0
 40
0.0
 40
1.0
 40
1.0
 40
1.0
 40
1.0
 10
466.9593948525604
 20
566.9058002493449
 30
0.0
 10
456.5190096368662
 20
566.7448972574904
 30
0.0
 10
447.0308836781777
 20
562.7374567148282
 30
0.0
 10
438.5816597630911
 20
557.1678707208123
 30
0.0
  0
ENDBLK
  5
64
330
61
100
AcDbEntity
  8
0
100
AcDbBlockEnd
  0
BLOCK
  5
69
330
67
100
AcDbEntity
  8
0
100
AcDbBlockBegin
  2
block 9
 70
     0
 10
0.0
 20
0.0
 30
0.0
  3
block 9
  1

  0
INSERT
  5
6C
330
67
100
AcDbEntity
  8
0
100
AcDbBlockReference
  2
block 10
 10
0.0
 20
0.0
 30
0.0
  0
ENDBLK
  5
6A
330
67
100
AcDbEntity
  8
0
100
AcDbBlockEnd
  0
BLOCK
  5
6D
330
6B
100
AcDbEntity
  8
0
100
AcDbBlockBegin
  2
block 10
 70
     0
 10
0.0
 20
0.0
 30
0.0
  3
block 10
  1

  0
INSERT
  5
70
330
6B
100
AcDbEntity
  8
0
100
AcDbBlockReference
  2
block 11
 10
0.0
 20
0.0
 30
0.0
  0
ENDBLK
  5
6E
330
6B
100
AcDbEntity
  8
0
100
AcDbBlockEnd
  0
BLOCK
  5
71
330
6F
100
AcDbEntity
  8
0
100
AcDbBlockBegin
  2
block 11
 70
     0
 10
0.0
 20
0.0
 30
0.0
  3
block 11
  1

  0
SPLINE
  5
73
330
6F
100
AcDbEntity
  8
0
 62
     6
370
    25
100
AcDbSpline
210
0.0
220
0.0
230
1.0
 70
     8
 71
     3
 72
     8
 73
     4
 74
     0
 42
0.0000000001
 43
0.0000000001
 12
1.0
 22
0.0
 32
0.0
 13
1.0
 23
0.0
 33
0.0
 40
0.0
 40
0.0
 40
0.0
 40
0.0
 40
1.0
 40
1.0
 40
1.0
 40
1.0
 10
145.4493260337874
 20
454.4205829755895
 30
0.0
 10
145.8777128914548
 20
453.9920992246097
 30
0.0
 10
146.3061105150456
 20
453.5636154736336
 30
0.0
 10
146.7345081386365
 20
453.1351317226537
 30
0.0
  0
SPLINE
  5
74
330
6F
100
AcDbEntity
  8
0
  6
AI-Linetype-5
 62
     6
370
    25
100
AcDbSpline
210
0.0
220
0.0
230
1.0
 70
     8
 71
     3
 72
    11
 73
     7
 74
     0
 42
0.0000000001
 43
0.0000000001
 12
1.0
 22
0.0
 32
0.0
 13
1.0
 23
0.0
 33
0.0
 40
0.0
 40
0.0
 40
0.0
 40
0.0
 40
1.0
 40
1.0
 40
1.0
 40
2.0
 40
2.0
 40
2.0
 40
2.0
 10
149.2719393886803
 20
450.5973021334444
 30
0.0
 10
151.9544737541935
 20
447.9142617695319
 30
0.0
 10
154.6370081197066
 20
445.2312644693119
 30
0.0
 10
157.319520953373
 20
442.5482671690958
 30
0.0
 10
157.319520953373
 20
432.5855247263796
 30
0.0
 10
157.319520953373
 20
422.6228253473598
 30
0.0
 10
157.319520953373
 20
412.6600829046475
 30
0.0
  0
SPLINE
  5
76
330
6F
100
AcDbEntity
  8
0
 62
     6
370
    25
100
AcDbSpline
210
0.0
220
0.0
230
1.0
 70
    24
 71
     3
 72
     8
 73
     4
 74
     0
 42
0.0000000001
 43
0.0000000001
 12
1.0
 22
0.0
 32
0.0
 13
1.0
 23
0.0
 33
0.0
 40
0.0
 40
0.0
 40
0.0
 40
0.0
 40
1.0
 40
1.0
 40
1.0
 40
1.0
 10
157.319520953373
 20
410.8657479848477
 30
0.0
 10
157.319520953373
 20
410.2598418163813
 30
0.0
 10
157.319520953373
 20
409.6539356479111
 30
0.0
 10
157.319520953373
 20
409.0480294794447
 30
0.0
  0
ENDBLK
  5
72
330
6F
100
AcDbEntity
  8
0
100
AcDbBlockEnd
  0
BLOCK
  5
79
330
77
100
AcDbEntity
  8
0
100
AcDbBlockBegin
  2
block 12
 70
     0
 10
0.0
 20
0.0
 30
0.0
  3
block 12
  1

  0
INSERT
  5
7C
330
77
100
AcDbEntity
  8
0
100
AcDbBlockReference
  2
block 13
 10
0.0
 20
0.0
 30
0.0
  0
ENDBLK
  5
7A
330
77
100
AcDbEntity
  8
0
100
AcDbBlockEnd
  0
BLOCK
  5
7D
330
7B
100
AcDbEntity
  8
0
100
AcDbBlockBegin
  2
block 13
 70
     0
 10
0.0
 20
0.0
 30
0.0
  3
block 13
  1

  0
INSERT
  5
80
330
7B
100
AcDbEntity
  8
0
100
AcDbBlockReference
  2
block 14
 10
0.0
 20
0.0
 30
0.0
  0
ENDBLK
  5
7E
330
7B
100
AcDbEntity
  8
0
100
AcDbBlockEnd
  0
BLOCK
  5
81
330
7F
100
AcDbEntity
  8
0
100
AcDbBlockBegin
  2
block 14
 70
     0
 10
0.0
 20
0.0
 30
0.0
  3
block 14
  1

  0
SPLINE
  5
83
330
7F
100
AcDbEntity
  8
0
 62
     6
370
    25
100
AcDbSpline
210
0.0
220
0.0
230
1.0
 70
     8
 71
     3
 72
     8
 73
     4
 74
     0
 42
0.0000000001
 43
0.0000000001
 12
1.0
 22
0.0
 32
0.0
 13
1.0
 23
0.0
 33
0.0
 40
0.0
 40
0.0
 40
0.0
 40
0.0
 40
1.0
 40
1.0
 40
1.0
 40
1.0
 10
215.1898150435875
 20
454.4203676571188
 30
0.0
 10
214.7614174199967
 20
453.9918839061428
 30
0.0
 10
214.3330197964059
 20
453.5634001551629
 30
0.0
 10
213.9046221728151
 20
453.1349594678795
 30
0.0
  0
SPLINE
  5
84
330
7F
100
AcDbEntity
  8
0
  6
AI-Linetype-6
 62
     6
370
    25
100
AcDbSpline
210
0.0
220
0.0
230
1.0
 70
     8
 71
     3
 72
    11
 73
     7
 74
     0
 42
0.0000000001
 43
0.0000000001
 12
1.0
 22
0.0
 32
0.0
 13
1.0
 23
0.0
 33
0.0
 40
0.0
 40
0.0
 40
0.0
 40
0.0
 40
1.0
 40
1.0
 40
1.0
 40
2.0
 40
2.0
 40
2.0
 40
2.0
 10
211.3672232205415
 20
450.5970868149776
 30
0.0
 10
208.684764216492
 20
447.9141756421467
 30
0.0
 10
206.0023052124426
 20
445.2312214056193
 30
0.0
 10
203.3198246765463
 20
442.5482671690958
 30
0.0
 10
203.3198246765463
 20
432.5855247263796
 30
0.0
 10
203.3198246765463
 20
422.6228253473598
 30
0.0
 10
203.3198246765463
 20
412.6601259683401
 30
0.0
  0
SPLINE
  5
86
330
7F
100
AcDbEntity
  8
0
 62
     6
370
    25
100
AcDbSpline
210
0.0
220
0.0
230
1.0
 70
    24
 71
     3
 72
     8
 73
     4
 74
     0
 42
0.0000000001
 43
0.0000000001
 12
1.0
 22
0.0
 32
0.0
 13
1.0
 23
0.0
 33
0.0
 40
0.0
 40
0.0
 40
0.0
 40
0.0
 40
1.0
 40
1.0
 40
1.0
 40
1.0
 10
203.3198246765463
 20
410.8657479848477
 30
0.0
 10
203.3198246765463
 20
410.2598418163813
 30
0.0
 10
203.3198246765463
 20
409.6539356479111
 30
0.0
 10
203.3198246765463
 20
409.0480294794447
 30
0.0
  0
ENDBLK
  5
82
330
7F
100
AcDbEntity
  8
0
100
AcDbBlockEnd
  0
BLOCK
  5
89
330
87
100
AcDbEntity
  8
0
100
AcDbBlockBegin
  2
block 15
 70
     0
 10
0.0
 20
0.0
 30
0.0
  3
block 15
  1

  0
SPLINE
  5
8B
330
87
100
AcDbEntity
  8
0
  6
AI-Linetype-7
 62
     6
370
    25
100
AcDbSpline
210
0.0
220
0.0
230
1.0
 70
    24
 71
     3
 72
    11
 73
     7
 74
     0
 42
0.0000000001
 43
0.0000000001
 12
1.0
 22
0.0
 32
0.0
 13
1.0
 23
0.0
 33
0.0
 40
0.0
 40
0.0
 40
0.0
 40
0.0
 40
1.0
 40
1.0
 40
1.0
 40
2.0
 40
2.0
 40
2.0
 40
2.0
 10
158.2711187421352
 20
442.5482484346978
 30
0.0
 10
164.9992697817359
 20
442.5482484343943
 30
0.0
 10
173.5915059422809
 20
442.5482484340134
 30
0.0
 10
180.3196922598844
 20
442.5482484337028
 30
0.0
 10
187.0478785775007
 20
442.5482484334102
 30
0.0
 10
196.066053560546
 20
442.5482484329938
 30
0.0
 10
202.7942398781558
 20
442.5482484327011
 30
0.0
  0
ENDBLK
  5
8A
330
87
100
AcDbEntity
  8
0
100
AcDbBlockEnd
  0
BLOCK
  5
8F
330
8D
100
AcDbEntity
  8
0
100
AcDbBlockBegin
  2
block 16
 70
     0
 10
0.0
 20
0.0
 30
0.0
  3
block 16
  1

  0
SPLINE
  5
91
330
8D
100
AcDbEntity
  8
0
 62
   250
370
    25
100
AcDbSpline
210
0.0
220
0.0
230
1.0
 70
    24
 71
     3
 72
     8
 73
     4
 74
     0
 42
0.0000000001
 43
0.0000000001
 12
1.0
 22
0.0
 32
0.0
 13
1.0
 23
0.0
 33
0.0
 40
0.0
 40
0.0
 40
0.0
 40
0.0
 40
1.0
 40
1.0
 40
1.0
 40
1.0
 10
499.2216971848477
 20
575.4431486255388
 30
0.0
 10
499.1914639323932
 20
575.4432897375635
 30
0.0
 10
499.1612306799387
 20
575.443430849599
 30
0.0
 10
499.1309974274913
 20
575.4435719616345
 30
0.0
  0
ENDBLK
  5
90
330
8D
100
AcDbEntity
  8
0
100
AcDbBlockEnd
  0
BLOCK
  5
94
330
92
100
AcDbEntity
  8
0
100
AcDbBlockBegin
  2
block 17
 70
     0
 10
0.0
 20
0.0
 30
0.0
  3
block 17
  1

  0
SPLINE
  5
96
330
92
100
AcDbEntity
  8
0
  6
AI-Linetype-8
 62
     6
370
    25
100
AcDbSpline
210
0.0
220
0.0
230
1.0
 70
     8
 71
     3
 72
     8
 73
     4
 74
     0
 42
0.0000000001
 43
0.0000000001
 12
1.0
 22
0.0
 32
0.0
 13
1.0
 23
0.0
 33
0.0
 40
0.0
 40
0.0
 40
0.0
 40
0.0
 40
1.0
 40
1.0
 40
1.0
 40
1.0
 10
438.5816597630911
 20
557.1678707208123
 30
0.0
 10
429.9297636947371
 20
551.1052392936048
 30
0.0
 10
416.1567709413677
 20
537.8940488113036
 30
0.0
 10
408.6495051051974
 20
530.6358809869558
 30
0.0
  0
ENDBLK
  5
95
330
92
100
AcDbEntity
  8
0
100
AcDbBlockEnd
  0
BLOCK
  5
9A
330
98
100
AcDbEntity
  8
0
100
AcDbBlockBegin
  2
block 18
 70
     0
 10
0.0
 20
0.0
 30
0.0
  3
block 18
  1

  0
SPLINE
  5
9C
330
98
100
AcDbEntity
  8
0
  6
AI-Linetype-9
 62
     6
370
    25
100
AcDbSpline
210
0.0
220
0.0
230
1.0
 70
     8
 71
     3
 72
     8
 73
     4
 74
     0
 42
0.0000000001
 43
0.0000000001
 12
1.0
 22
0.0
 32
0.0
 13
1.0
 23
0.0
 33
0.0
 40
0.0
 40
0.0
 40
0.0
 40
0.0
 40
1.0
 40
1.0
 40
1.0
 40
1.0
 10
494.2034385195102
 20
572.7894134265252
 30
0.0
 10
495.1985605559264
 20
574.6647570286273
 30
0.0
 10
496.9706428025238
 20
575.3094096990966
 30
0.0
 10
499.0914860590568
 20
575.4056833815458
 30
0.0
  0
ENDBLK
  5
9B
330
98
100
AcDbEntity
  8
0
100
AcDbBlockEnd
  0
BLOCK
  5
A0
330
9E
100
AcDbEntity
  8
0
100
AcDbBlockBegin
  2
block 19
 70
     0
 10
0.0
 20
0.0
 30
0.0
  3
block 19
  1

  0
SPLINE
  5
A2
330
9E
100
AcDbEntity
  8
0
 62
   250
370
    25
100
AcDbSpline
210
0.0
220
0.0
230
1.0
 70
     8
 71
     3
 72
    14
 73
    10
 74
     0
 42
0.0000000001
 43
0.0000000001
 12
1.0
 22
0.0
 32
0.0
 13
1.0
 23
0.0
 33
0.0
 40
0.0
 40
0.0
 40
0.0
 40
0.0
 40
1.0
 40
1.0
 40
1.0
 40
2.0
 40
2.0
 40
2.0
 40
3.0
 40
3.0
 40
3.0
 40
3.0
 10
-288.7509128550092
 20
575.5058024022769
 30
0.0
 10
-136.9534917675477
 20
576.2097750356786
 30
0.0
 10
28.52071894614039
 20
576.4924929805637
 30
0.0
 10
180.3196922658907
 20
576.3540267942133
 30
0.0
 10
282.1176638408027
 20
576.2601167336021
 30
0.0
 10
383.9145770754761
 20
575.977398776705
 30
0.0
 10
485.7115255881414
 20
575.5058023675109
 30
0.0
 10
489.7281736911864
 20
575.4872108573699
 30
0.0
 10
495.0259426375892
 20
575.4331296715899
 30
0.0
 10
499.0425907406271
 20
575.4135150992292
 30
0.0
  0
ENDBLK
  5
A1
330
9E
100
AcDbEntity
  8
0
100
AcDbBlockEnd
  0
BLOCK
  5
A5
330
A3
100
AcDbEntity
  8
0
100
AcDbBlockBegin
  2
block 20
 70
     0
 10
0.0
 20
0.0
 30
0.0
  3
block 20
  1

  0
SPLINE
  5
A7
330
A3
100
AcDbEntity
  8
0
 62
   250
370
    25
100
AcDbSpline
210
0.0
220
0.0
230
1.0
 70
     8
 71
     3
 72
     8
 73
     4
 74
     0
 42
0.0000000001
 43
0.0000000001
 12
1.0
 22
0.0
 32
0.0
 13
1.0
 23
0.0
 33
0.0
 40
0.0
 40
0.0
 40
0.0
 40
0.0
 40
1.0
 40
1.0
 40
1.0
 40
1.0
 10
-288.78163999957
 20
575.4228285285795
 30
0.0
 10
-288.7879547629139
 20
575.4292844039585
 30
0.0
 10
-288.7952220324666
 20
575.4346466611045
 30
0.0
 10
-288.8006548456232
 20
575.4420903206889
 30
0.0
  0
ENDBLK
  5
A6
330
A3
100
AcDbEntity
  8
0
100
AcDbBlockEnd
  0
BLOCK
  5
AA
330
A8
100
AcDbEntity
  8
0
100
AcDbBlockBegin
  2
block 21
 70
     0
 10
0.0
 20
0.0
 30
0.0
  3
block 21
  1

  0
SPLINE
  5
AC
330
A8
100
AcDbEntity
  8
0
  6
AI-Linetype-10
 62
     6
370
    25
100
AcDbSpline
210
0.0
220
0.0
230
1.0
 70
     8
 71
     3
 72
    41
 73
    37
 74
     0
 42
0.0000000001
 43
0.0000000001
 12
1.0
 22
0.0
 32
0.0
 13
1.0
 23
0.0
 33
0.0
 40
0.0
 40
0.0
 40
0.0
 40
0.0
 40
1.0
 40
1.0
 40
1.0
 40
2.0
 40
2.0
 40
2.0
 40
3.0
 40
3.0
 40
3.0
 40
4.0
 40
4.0
 40
4.0
 40
5.0
 40
5.0
 40
5.0
 40
6.0
 40
6.0
 40
6.0
 40
7.0
 40
7.0
 40
7.0
 40
8.0
 40
8.0
 40
8.0
 40
9.0
 40
9.0
 40
9.0
 40
10.0
 40
10.0
 40
10.0
 40
11.0
 40
11.0
 40
11.0
 40
12.0
 40
12.0
 40
12.0
 40
12.0
 10
52.9520797184134
 20
471.4102800157983
 30
0.0
 10
45.09164574932379
 20
474.0051538598261
 30
0.0
 10
37.3827308225891
 20
476.9317820866268
 30
0.0
 10
29.78067298066026
 20
480.2071334178497
 30
0.0
 10
29.77054819249707
 20
480.2115078907798
 30
0.0
 10
29.76045868234946
 20
480.2158470857066
 30
0.0
 10
29.75036917219576
 20
480.2201862806295
 30
0.0
 10
29.71840729737906
 20
480.2339447035649
 30
0.0
 10
29.68648070056512
 20
480.2477384045146
 30
0.0
 10
29.65455410375117
 20
480.2614968274535
 30
0.0
 10
29.64446459359972
 20
480.2658360223767
 30
0.0
 10
29.63437508344954
 20
480.270210495314
 30
0.0
 10
29.6242855732952
 20
480.2745496902369
 30
0.0
 10
29.59235897648126
 20
480.2883433911795
 30
0.0
 10
29.56043237966731
 20
480.3021370921292
 30
0.0
 10
29.528505782863
 20
480.3159307930644
 30
0.0
 10
29.51841627270544
 20
480.3202699879982
 30
0.0
 10
29.50832676255174
 20
480.3246444609319
 30
0.0
 10
29.4982372523974
 20
480.3289836558584
 30
0.0
 10
29.46631065559019
 20
480.342777356801
 30
0.0
 10
29.43438405877593
 20
480.3565710577507
 30
0.0
 10
29.40249273997694
 20
480.3704000366967
 30
0.0
 10
29.39240322982323
 20
480.3747392316196
 30
0.0
 10
29.38231371967242
 20
480.3791137045604
 30
0.0
 10
29.3722242095216
 20
480.3834881774941
 30
0.0
 10
29.34033289070977
 20
480.3972818784367
 30
0.0
 10
29.30840629390225
 20
480.4111108573862
 30
0.0
 10
29.27647969708831
 20
480.4249045583359
 30
0.0
 10
21.5960341224406
 20
483.7504212162537
 30
0.0
 10
14.39457924658146
 20
487.9915728937721
 30
0.0
 10
6.753870795871663
 20
491.4074069167099
 30
0.0
 10
0.1289272113753311
 20
494.3691359032327
 30
0.0
 10
-31.08350279597142
 20
515.4015825861474
 30
0.0
 10
-37.75460829622516
 20
520.9487107313839
 30
0.0
 10
-44.42571379647249
 20
526.4958388766275
 30
0.0
 10
-50.55357727339682
 20
533.1252384391169
 30
0.0
 10
-52.87527531739012
 20
535.2648142093576
 30
0.0
  0
ENDBLK
  5
AB
330
A8
100
AcDbEntity
  8
0
100
AcDbBlockEnd
  0
BLOCK
  5
B0
330
AE
100
AcDbEntity
  8
0
100
AcDbBlockBegin
  2
block 22
 70
     0
 10
0.0
 20
0.0
 30
0.0
  3
block 22
  1

  0
SPLINE
  5
B2
330
AE
100
AcDbEntity
  8
0
  6
AI-Linetype-11
 62
     6
370
    25
100
AcDbSpline
210
0.0
220
0.0
230
1.0
 70
     8
 71
     3
 72
    20
 73
    16
 74
     0
 42
0.0000000001
 43
0.0000000001
 12
1.0
 22
0.0
 32
0.0
 13
1.0
 23
0.0
 33
0.0
 40
0.0
 40
0.0
 40
0.0
 40
0.0
 40
1.0
 40
1.0
 40
1.0
 40
2.0
 40
2.0
 40
2.0
 40
3.0
 40
3.0
 40
3.0
 40
4.0
 40
4.0
 40
4.0
 40
5.0
 40
5.0
 40
5.0
 40
5.0
 10
-288.5020617899167
 20
575.4078706533788
 30
0.0
 10
-286.3605808989911
 20
575.3303648707493
 30
0.0
 10
-284.4235713397401
 20
574.116483909645
 30
0.0
 10
-283.4200531376961
 20
572.2231132456036
 30
0.0
 10
-281.6864918479493
 20
568.9558405783818
 30
0.0
 10
-278.2913364036113
 20
566.9126442162662
 30
0.0
 10
-274.5926137044018
 20
566.9109155937327
 30
0.0
 10
-122.9578947876892
 20
566.9109155869278
 30
0.0
 10
28.68313889237135
 20
566.910915580112
 30
0.0
 10
180.3196922654672
 20
566.9109155733138
 30
0.0
 10
281.9568314040656
 20
566.910915568742
 30
0.0
 10
383.5940058206604
 20
566.910915564184
 30
0.0
 10
485.2311802372603
 20
566.9109155596154
 30
0.0
 10
488.9307496086524
 20
566.9125030697966
 30
0.0
 10
491.5474958351957
 20
567.8914854175655
 30
0.0
 10
493.2817626853871
 20
571.1593930887664
 30
0.0
  0
ENDBLK
  5
B1
330
AE
100
AcDbEntity
  8
0
100
AcDbBlockEnd
  0
BLOCK
  5
B6
330
B4
100
AcDbEntity
  8
0
100
AcDbBlockBegin
  2
block 23
 70
     0
 10
0.0
 20
0.0
 30
0.0
  3
block 23
  1

  0
SPLINE
  5
B8
330
B4
100
AcDbEntity
  8
0
  6
AI-Linetype-12
 62
     6
370
    25
100
AcDbSpline
210
0.0
220
0.0
230
1.0
 70
    24
 71
     3
 72
    17
 73
    13
 74
     0
 42
0.0000000001
 43
0.0000000001
 12
1.0
 22
0.0
 32
0.0
 13
1.0
 23
0.0
 33
0.0
 40
0.0
 40
0.0
 40
0.0
 40
0.0
 40
1.0
 40
1.0
 40
1.0
 40
2.0
 40
2.0
 40
2.0
 40
3.0
 40
3.0
 40
3.0
 40
4.0
 40
4.0
 40
4.0
 40
4.0
 10
489.1749190614534
 20
535.4106887461564
 30
0.0
 10
489.1597847962248
 20
535.4106887461564
 30
0.0
 10
480.0733944233181
 20
535.4106887465656
 30
0.0
 10
480.0582601580927
 20
535.4106887465656
 30
0.0
 10
479.997299761088
 20
535.4106887465656
 30
0.0
 10
479.9363393640768
 20
535.4106887465656
 30
0.0
 10
479.8753436890547
 20
535.4106887465726
 30
0.0
 10
478.2613748446836
 20
535.4106887466432
 30
0.0
 10
476.64740600031
 20
535.4106887467208
 30
0.0
 10
475.0334018779214
 20
535.4106887467843
 30
0.0
 10
474.9610114064767
 20
535.4106887467914
 30
0.0
 10
466.8193411612676
 20
535.4106887471581
 30
0.0
 10
466.7469154118086
 20
535.4106887471581
 30
0.0
  0
ENDBLK
  5
B7
330
B4
100
AcDbEntity
  8
0
100
AcDbBlockEnd
  0
BLOCK
  5
BC
330
BA
100
AcDbEntity
  8
0
100
AcDbBlockBegin
  2
block 24
 70
     0
 10
0.0
 20
0.0
 30
0.0
  3
block 24
  1

  0
SPLINE
  5
BE
330
BA
100
AcDbEntity
  8
0
  6
AI-Linetype-13
 62
     6
370
    25
100
AcDbSpline
210
0.0
220
0.0
230
1.0
 70
     8
 71
     3
 72
     8
 73
     4
 74
     0
 42
0.0000000001
 43
0.0000000001
 12
1.0
 22
0.0
 32
0.0
 13
1.0
 23
0.0
 33
0.0
 40
0.0
 40
0.0
 40
0.0
 40
0.0
 40
1.0
 40
1.0
 40
1.0
 40
1.0
 10
493.4204757911174
 20
533.1395964553728
 30
0.0
 10
492.497673670286
 20
534.556149569664
 30
0.0
 10
490.921593406025
 20
535.4104418000153
 30
0.0
 10
489.2310007293049
 20
535.4106887461564
 30
0.0
  0
ENDBLK
  5
BD
330
BA
100
AcDbEntity
  8
0
100
AcDbBlockEnd
  0
BLOCK
  5
C2
330
C0
100
AcDbEntity
  8
0
100
AcDbBlockBegin
  2
block 25
 70
     0
 10
0.0
 20
0.0
 30
0.0
  3
block 25
  1

  0
SPLINE
  5
C4
330
C0
100
AcDbEntity
  8
0
 62
   250
370
    25
100
AcDbSpline
210
0.0
220
0.0
230
1.0
 70
     8
 71
     3
 72
    14
 73
    10
 74
     0
 42
0.0000000001
 43
0.0000000001
 12
1.0
 22
0.0
 32
0.0
 13
1.0
 23
0.0
 33
0.0
 40
0.0
 40
0.0
 40
0.0
 40
0.0
 40
1.0
 40
1.0
 40
1.0
 40
2.0
 40
2.0
 40
2.0
 40
3.0
 40
3.0
 40
3.0
 40
3.0
 10
505.3656444195511
 20
570.136736567008
 30
0.0
 10
505.3548140712484
 20
570.2263427061381
 30
0.0
 10
505.3405264782072
 20
570.315454953144
 30
0.0
 10
505.3295197398555
 20
570.4050610922739
 30
0.0
 10
505.1226142257671
 20
571.6838535871434
 30
0.0
 10
504.6337668755089
 20
572.665217200554
 30
0.0
 10
503.7359415839726
 20
573.5995199519522
 30
0.0
 10
502.6117020401493
 20
574.7694092376279
 30
0.0
 10
501.0615511114162
 20
575.4341174555303
 30
0.0
 10
499.4390449892207
 20
575.4420902853018
 30
0.0
  0
ENDBLK
  5
C3
330
C0
100
AcDbEntity
  8
0
100
AcDbBlockEnd
  0
BLOCK
  5
C7
330
C5
100
AcDbEntity
  8
0
100
AcDbBlockBegin
  2
block 26
 70
     0
 10
0.0
 20
0.0
 30
0.0
  3
block 26
  1

  0
SPLINE
  5
C9
330
C5
100
AcDbEntity
  8
0
 62
   250
370
    25
100
AcDbSpline
210
0.0
220
0.0
230
1.0
 70
     8
 71
     3
 72
     8
 73
     4
 74
     0
 42
0.0000000001
 43
0.0000000001
 12
1.0
 22
0.0
 32
0.0
 13
1.0
 23
0.0
 33
0.0
 40
0.0
 40
0.0
 40
0.0
 40
0.0
 40
1.0
 40
1.0
 40
1.0
 40
1.0
 10
-54.37547259125471
 20
451.4706209960414
 30
0.0
 10
-57.8626330792863
 20
452.2118119343432
 30
0.0
 10
-61.34979356732109
 20
452.9530381506555
 30
0.0
 10
-64.83695405535268
 20
453.6942643669712
 30
0.0
  0
ENDBLK
  5
C8
330
C5
100
AcDbEntity
  8
0
100
AcDbBlockEnd
  0
BLOCK
  5
CC
330
CA
100
AcDbEntity
  8
0
100
AcDbBlockBegin
  2
block 27
 70
     0
 10
0.0
 20
0.0
 30
0.0
  3
block 27
  1

  0
SPLINE
  5
CE
330
CA
100
AcDbEntity
  8
0
  6
AI-Linetype-14
 62
     6
370
    25
100
AcDbSpline
210
0.0
220
0.0
230
1.0
 70
     8
 71
     3
 72
     8
 73
     4
 74
     0
 42
0.0000000001
 43
0.0000000001
 12
1.0
 22
0.0
 32
0.0
 13
1.0
 23
0.0
 33
0.0
 40
0.0
 40
0.0
 40
0.0
 40
0.0
 40
1.0
 40
1.0
 40
1.0
 40
1.0
 10
-88.56741137388026
 20
562.9540284270911
 30
0.0
 10
-93.68737916224013
 20
565.2179945603923
 30
0.0
 10
-98.7892140547733
 20
566.5207055445875
 30
0.0
 10
-104.3944661147597
 20
566.8381723345655
 30
0.0
  0
ENDBLK
  5
CD
330
CA
100
AcDbEntity
  8
0
100
AcDbBlockEnd
  0
BLOCK
  5
D2
330
D0
100
AcDbEntity
  8
0
100
AcDbBlockBegin
  2
block 28
 70
     0
 10
0.0
 20
0.0
 30
0.0
  3
block 28
  1

  0
SPLINE
  5
D4
330
D0
100
AcDbEntity
  8
0
  6
AI-Linetype-15
 62
     6
370
    25
100
AcDbSpline
210
0.0
220
0.0
230
1.0
 70
     8
 71
     3
 72
     8
 73
     4
 74
     0
 42
0.0000000001
 43
0.0000000001
 12
1.0
 22
0.0
 32
0.0
 13
1.0
 23
0.0
 33
0.0
 40
0.0
 40
0.0
 40
0.0
 40
0.0
 40
1.0
 40
1.0
 40
1.0
 40
1.0
 10
219.757400211445
 20
456.4610832065547
 30
0.0
 10
219.7802603603232
 20
456.4623532148233
 30
0.0
 10
219.8031205092019
 20
456.4635173890782
 30
0.0
 10
219.8260159360822
 20
456.4646462853079
 30
0.0
  0
ENDBLK
  5
D3
330
D0
100
AcDbEntity
  8
0
100
AcDbBlockEnd
  0
BLOCK
  5
D8
330
D6
100
AcDbEntity
  8
0
100
AcDbBlockBegin
  2
block 29
 70
     0
 10
0.0
 20
0.0
 30
0.0
  3
block 29
  1

  0
SPLINE
  5
DA
330
D6
100
AcDbEntity
  8
0
 62
   250
370
    25
100
AcDbSpline
210
0.0
220
0.0
230
1.0
 70
     8
 71
     3
 72
    14
 73
    10
 74
     0
 42
0.0000000001
 43
0.0000000001
 12
1.0
 22
0.0
 32
0.0
 13
1.0
 23
0.0
 33
0.0
 40
0.0
 40
0.0
 40
0.0
 40
0.0
 40
1.0
 40
1.0
 40
1.0
 40
2.0
 40
2.0
 40
2.0
 40
3.0
 40
3.0
 40
3.0
 40
3.0
 10
498.8199865131293
 20
575.4145381614488
 30
0.0
 10
499.0130630483246
 20
575.4323888332506
 30
0.0
 10
499.20585735946
 20
575.4408555550542
 30
0.0
 10
499.3997452888316
 20
575.4399383268385
 30
0.0
 10
499.3909610649577
 20
575.4315774390598
 30
0.0
 10
499.3810126668316
 20
575.4246982275885
 30
0.0
 10
499.3720520529221
 20
575.4166195638693
 30
0.0
 10
499.3527197047944
 20
575.4208882027749
 30
0.0
 10
499.3337401367488
 20
575.4190890244037
 30
0.0
 10
499.3144783446465
 20
575.4189126343609
 30
0.0
  0
ENDBLK
  5
D9
330
D6
100
AcDbEntity
  8
0
100
AcDbBlockEnd
  0
BLOCK
  5
DD
330
DB
100
AcDbEntity
  8
0
100
AcDbBlockBegin
  2
block 30
 70
     0
 10
0.0
 20
0.0
 30
0.0
  3
block 30
  1

  0
SPLINE
  5
DF
330
DB
100
AcDbEntity
  8
0
 62
   250
370
    25
100
AcDbSpline
210
0.0
220
0.0
230
1.0
 70
     8
 71
     3
 72
     8
 73
     4
 74
     0
 42
0.0000000001
 43
0.0000000001
 12
1.0
 22
0.0
 32
0.0
 13
1.0
 23
0.0
 33
0.0
 40
0.0
 40
0.0
 40
0.0
 40
0.0
 40
1.0
 40
1.0
 40
1.0
 40
1.0
 10
328.1901419388095
 20
429.2341519962
 30
0.0
 10
331.9917353079634
 20
429.1288471435622
 30
0.0
 10
361.8890000151869
 20
428.2866199905153
 30
0.0
 10
365.7315511510296
 20
427.0691759505694
 30
0.0
  0
ENDBLK
  5
DE
330
DB
100
AcDbEntity
  8
0
100
AcDbBlockEnd
  0
BLOCK
  5
E2
330
E0
100
AcDbEntity
  8
0
100
AcDbBlockBegin
  2
block 31
 70
     0
 10
0.0
 20
0.0
 30
0.0
  3
block 31
  1

  0
SPLINE
  5
E4
330
E0
100
AcDbEntity
  8
0
 62
   250
370
    25
100
AcDbSpline
210
0.0
220
0.0
230
1.0
 70
     8
 71
     3
 72
    11
 73
     7
 74
     0
 42
0.0000000001
 43
0.0000000001
 12
1.0
 22
0.0
 32
0.0
 13
1.0
 23
0.0
 33
0.0
 40
0.0
 40
0.0
 40
0.0
 40
0.0
 40
1.0
 40
1.0
 40
1.0
 40
2.0
 40
2.0
 40
2.0
 40
2.0
 10
-83.359574484275
 20
529.6324265320258
 30
0.0
 10
-72.98032605694202
 20
500.1428344792844
 30
0.0
 10
-59.80334682852828
 20
471.3075857409508
 30
0.0
 10
-44.16023161992856
 20
444.2399347387429
 30
0.0
 10
-44.38770421246087
 20
444.2618423814324
 30
0.0
 10
-44.61517680499929
 20
444.2836089120903
 30
0.0
 10
-44.84268467554013
 20
444.3051990526985
 30
0.0
  0
ENDBLK
  5
E3
330
E0
100
AcDbEntity
  8
0
100
AcDbBlockEnd
  0
BLOCK
  5
E7
330
E5
100
AcDbEntity
  8
0
100
AcDbBlockBegin
  2
block 32
 70
     0
 10
0.0
 20
0.0
 30
0.0
  3
block 32
  1

  0
SPLINE
  5
E9
330
E5
100
AcDbEntity
  8
0
 62
   250
370
    25
100
AcDbSpline
210
0.0
220
0.0
230
1.0
 70
     8
 71
     3
 72
     8
 73
     4
 74
     0
 42
0.0000000001
 43
0.0000000001
 12
1.0
 22
0.0
 32
0.0
 13
1.0
 23
0.0
 33
0.0
 40
0.0
 40
0.0
 40
0.0
 40
0.0
 40
1.0
 40
1.0
 40
1.0
 40
1.0
 10
-288.7420580751208
 20
575.4274146695519
 30
0.0
 10
-288.6137166837397
 20
575.4276616156052
 30
0.0
 10
-288.4856927944225
 20
575.4237810347669
 30
0.0
 10
-288.3575630710804
 20
575.4158082050621
 30
0.0
  0
ENDBLK
  5
E8
330
E5
100
AcDbEntity
  8
0
100
AcDbBlockEnd
  0
BLOCK
  5
EC
330
EA
100
AcDbEntity
  8
0
100
AcDbBlockBegin
  2
block 33
 70
     0
 10
0.0
 20
0.0
 30
0.0
  3
block 33
  1

  0
SPLINE
  5
EE
330
EA
100
AcDbEntity
  8
0
 62
   250
370
    25
100
AcDbSpline
210
0.0
220
0.0
230
1.0
 70
     8
 71
     3
 72
     8
 73
     4
 74
     0
 42
0.0000000001
 43
0.0000000001
 12
1.0
 22
0.0
 32
0.0
 13
1.0
 23
0.0
 33
0.0
 40
0.0
 40
0.0
 40
0.0
 40
0.0
 40
1.0
 40
1.0
 40
1.0
 40
1.0
 10
-294.7478919108574
 20
569.9568187645442
 30
0.0
 10
-294.7432704918637
 20
570.0093477177554
 30
0.0
 10
-294.7379787907354
 20
570.0617708369385
 30
0.0
 10
-294.7319815294552
 20
570.1141586781252
 30
0.0
  0
ENDBLK
  5
ED
330
EA
100
AcDbEntity
  8
0
100
AcDbBlockEnd
  0
BLOCK
  5
F1
330
EF
100
AcDbEntity
  8
0
100
AcDbBlockBegin
  2
block 34
 70
     0
 10
0.0
 20
0.0
 30
0.0
  3
block 34
  1

  0
SPLINE
  5
F3
330
EF
100
AcDbEntity
  8
0
 62
   250
370
    25
100
AcDbSpline
210
0.0
220
0.0
230
1.0
 70
     8
 71
     3
 72
     8
 73
     4
 74
     0
 42
0.0000000001
 43
0.0000000001
 12
1.0
 22
0.0
 32
0.0
 13
1.0
 23
0.0
 33
0.0
 40
0.0
 40
0.0
 40
0.0
 40
0.0
 40
1.0
 40
1.0
 40
1.0
 40
1.0
 10
-294.6321800461255
 20
570.7143081421708
 30
0.0
 10
-294.6112601876621
 20
570.8100173765987
 30
0.0
 10
-294.5879767026931
 20
570.905091606885
 30
0.0
 10
-294.5623648692186
 20
570.9997072230617
 30
0.0
  0
ENDBLK
  5
F2
330
EF
100
AcDbEntity
  8
0
100
AcDbBlockEnd
  0
BLOCK
  5
F6
330
F4
100
AcDbEntity
  8
0
100
AcDbBlockBegin
  2
block 35
 70
     0
 10
0.0
 20
0.0
 30
0.0
  3
block 35
  1

  0
SPLINE
  5
F8
330
F4
100
AcDbEntity
  8
0
 62
   250
370
    25
100
AcDbSpline
210
0.0
220
0.0
230
1.0
 70
     8
 71
     3
 72
     8
 73
     4
 74
     0
 42
0.0000000001
 43
0.0000000001
 12
1.0
 22
0.0
 32
0.0
 13
1.0
 23
0.0
 33
0.0
 40
0.0
 40
0.0
 40
0.0
 40
0.0
 40
1.0
 40
1.0
 40
1.0
 40
1.0
 10
-291.1226180230951
 20
574.9426595682311
 30
0.0
 10
-290.6555372034169
 20
575.1416628086678
 30
0.0
 10
-290.1821416204058
 20
575.2765306314282
 30
0.0
 10
-289.6802766853222
 20
575.3535072438315
 30
0.0
  0
ENDBLK
  5
F7
330
F4
100
AcDbEntity
  8
0
100
AcDbBlockEnd
  0
BLOCK
  5
FB
330
F9
100
AcDbEntity
  8
0
100
AcDbBlockBegin
  2
block 36
 70
     0
 10
0.0
 20
0.0
 30
0.0
  3
block 36
  1

  0
SPLINE
  5
FD
330
F9
100
AcDbEntity
  8
0
  6
AI-Linetype-16
 62
     6
370
    25
100
AcDbSpline
210
0.0
220
0.0
230
1.0
 70
     8
 71
     3
 72
     8
 73
     4
 74
     0
 42
0.0000000001
 43
0.0000000001
 12
1.0
 22
0.0
 32
0.0
 13
1.0
 23
0.0
 33
0.0
 40
0.0
 40
0.0
 40
0.0
 40
0.0
 40
1.0
 40
1.0
 40
1.0
 40
1.0
 10
140.8094527261091
 20
456.4648226788959
 30
0.0
 10
140.8330537131478
 20
456.4636937826589
 30
0.0
 10
140.8566194221773
 20
456.4624590523937
 30
0.0
 10
140.8802204092031
 20
456.461189044125
 30
0.0
  0
ENDBLK
  5
FC
330
F9
100
AcDbEntity
  8
0
100
AcDbBlockEnd
  0
BLOCK
  5
101
330
FF
100
AcDbEntity
  8
0
100
AcDbBlockBegin
  2
block 37
 70
     0
 10
0.0
 20
0.0
 30
0.0
  3
block 37
  1

  0
SPLINE
  5
103
330
FF
100
AcDbEntity
  8
0
  6
AI-Linetype-17
 62
     6
370
    25
100
AcDbSpline
210
0.0
220
0.0
230
1.0
 70
     8
 71
     3
 72
     8
 73
     4
 74
     0
 42
0.0000000001
 43
0.0000000001
 12
1.0
 22
0.0
 32
0.0
 13
1.0
 23
0.0
 33
0.0
 40
0.0
 40
0.0
 40
0.0
 40
0.0
 40
1.0
 40
1.0
 40
1.0
 40
1.0
 10
56.85607793594745
 20
469.9016316460886
 30
0.0
 10
74.12829625514213
 20
464.909193854063
 30
0.0
 10
98.04827424218594
 20
459.8533105818374
 30
0.0
 10
115.9320721000195
 20
458.0431607367881
 30
0.0
  0
ENDBLK
  5
102
330
FF
100
AcDbEntity
  8
0
100
AcDbBlockEnd
  0
BLOCK
  5
107
330
105
100
AcDbEntity
  8
0
100
AcDbBlockBegin
  2
block 38
 70
     0
 10
0.0
 20
0.0
 30
0.0
  3
block 38
  1

  0
SPLINE
  5
109
330
105
100
AcDbEntity
  8
0
 62
   250
370
    25
100
AcDbSpline
210
0.0
220
0.0
230
1.0
 70
     8
 71
     3
 72
    17
 73
    13
 74
     0
 42
0.0000000001
 43
0.0000000001
 12
1.0
 22
0.0
 32
0.0
 13
1.0
 23
0.0
 33
0.0
 40
0.0
 40
0.0
 40
0.0
 40
0.0
 40
1.0
 40
1.0
 40
1.0
 40
2.0
 40
2.0
 40
2.0
 40
3.0
 40
3.0
 40
3.0
 40
4.0
 40
4.0
 40
4.0
 40
4.0
 10
-2.783961878115424
 20
427.442029228676
 30
0.0
 10
-1.989218924533411
 20
427.5374562389979
 30
0.0
 10
-1.193135406666038
 20
427.6172198139776
 30
0.0
 10
-0.3960288265804607
 20
427.6895397293799
 30
0.0
 10
1.178569761398612
 20
427.8324509377957
 30
0.0
 10
2.754650025698131
 20
427.9502794828675
 30
0.0
 10
4.332423634358375
 20
428.0513509743637
 30
0.0
 10
7.487653349606253
 20
428.2534939573595
 30
0.0
 10
10.64411779511262
 20
428.4258975799999
 30
0.0
 10
13.80259308705327
 20
428.568597120299
 30
0.0
 10
20.1195789489367
 20
428.853996200915
 30
0.0
 10
26.43836398920741
 20
429.067181200125
 30
0.0
 10
32.75912459789426
 20
429.2428303993178
 30
0.0
  0
ENDBLK
  5
108
330
105
100
AcDbEntity
  8
0
100
AcDbBlockEnd
  0
BLOCK
  5
10C
330
10A
100
AcDbEntity
  8
0
100
AcDbBlockBegin
  2
block 39
 70
     0
 10
0.0
 20
0.0
 30
0.0
  3
block 39
  1

  0
POLYLINE
  5
10E
330
10A
100
AcDbEntity
  8
0
 62
   250
370
    25
100
AcDb2dPolyline
 66
     1
 10
0.0
 20
0.0
 30
0.0
  0
VERTEX
  5
10F
330
10E
100
AcDbEntity
  8
0
 62
   250
370
    25
100
AcDbVertex
100
AcDb2dVertex
 10
-64.83695405535268
 20
453.6942643669712
 30
0.0
  0
VERTEX
  5
110
330
10E
100
AcDbEntity
  8
0
 62
   250
370
    25
100
AcDbVertex
100
AcDb2dVertex
 10
-212.7210210443643
 20
485.127992142704
 30
0.0
  0
SEQEND
  5
111
330
10E
100
AcDbEntity
  8
0
 62
   250
370
    25
  0
ENDBLK
  5
10D
330
10A
100
AcDbEntity
  8
0
100
AcDbBlockEnd
  0
BLOCK
  5
114
330
112
100
AcDbEntity
  8
0
100
AcDbBlockBegin
  2
block 40
 70
     0
 10
0.0
 20
0.0
 30
0.0
  3
block 40
  1

  0
SPLINE
  5
116
330
112
100
AcDbEntity
  8
0
  6
AI-Linetype-18
 62
     6
370
    25
100
AcDbSpline
210
0.0
220
0.0
230
1.0
 70
     8
 71
     3
 72
    74
 73
    70
 74
     0
 42
0.0000000001
 43
0.0000000001
 12
1.0
 22
0.0
 32
0.0
 13
1.0
 23
0.0
 33
0.0
 40
0.0
 40
0.0
 40
0.0
 40
0.0
 40
1.0
 40
1.0
 40
1.0
 40
2.0
 40
2.0
 40
2.0
 40
3.0
 40
3.0
 40
3.0
 40
4.0
 40
4.0
 40
4.0
 40
5.0
 40
5.0
 40
5.0
 40
6.0
 40
6.0
 40
6.0
 40
7.0
 40
7.0
 40
7.0
 40
8.0
 40
8.0
 40
8.0
 40
9.0
 40
9.0
 40
9.0
 40
10.0
 40
10.0
 40
10.0
 40
11.0
 40
11.0
 40
11.0
 40
12.0
 40
12.0
 40
12.0
 40
13.0
 40
13.0
 40
13.0
 40
14.0
 40
14.0
 40
14.0
 40
15.0
 40
15.0
 40
15.0
 40
16.0
 40
16.0
 40
16.0
 40
17.0
 40
17.0
 40
17.0
 40
18.0
 40
18.0
 40
18.0
 40
19.0
 40
19.0
 40
19.0
 40
20.0
 40
20.0
 40
20.0
 40
21.0
 40
21.0
 40
21.0
 40
22.0
 40
22.0
 40
22.0
 40
23.0
 40
23.0
 40
23.0
 40
23.0
 10
167.8196005787864
 20
533.3219132128886
 30
0.0
 10
167.8196005787993
 20
533.5537955563667
 30
0.0
 10
167.8196005788121
 20
533.7856426218378
 30
0.0
 10
167.8196005788185
 20
534.0175249653158
 30
0.0
 10
167.819600578832
 20
534.315835796966
 30
0.0
 10
167.8304309271584
 20
534.6131588444067
 30
0.0
 10
167.8521621798046
 20
534.9106935598974
 30
0.0
 10
167.9626176214431
 20
536.4470155096985
 30
0.0
 10
168.3685969321347
 20
537.9610064807221
 30
0.0
 10
169.0376090669438
 20
539.3481730146718
 30
0.0
 10
169.7169929359711
 20
540.7568238552158
 30
0.0
 10
170.667594126862
 20
542.0346638438272
 30
0.0
 10
171.8210791390306
 20
543.0905346090717
 30
0.0
 10
172.9716713545888
 20
544.1437595237502
 30
0.0
 10
174.3241243291931
 20
544.9761088332848
 30
0.0
 10
175.7808238160436
 20
545.5343833023443
 30
0.0
 10
176.502858796115
 20
545.8111039933573
 30
0.0
 10
177.250505609653
 20
546.0204789679973
 30
0.0
 10
178.0109583399245
 20
546.1608854379213
 30
0.0
 10
178.7719755183114
 20
546.3013624638629
 30
0.0
 10
179.545833891427
 20
546.372765151064
 30
0.0
 10
180.3196922645431
 20
546.3723770929403
 30
0.0
 10
181.0935506376722
 20
546.3727651510004
 30
0.0
 10
181.8674090107884
 20
546.3013624637221
 30
0.0
 10
182.6284261891624
 20
546.1608854377098
 30
0.0
 10
183.3888789194141
 20
546.0204789677188
 30
0.0
 10
184.1365257329328
 20
545.8111039930117
 30
0.0
 10
184.8585607129785
 20
545.534383301942
 30
0.0
 10
186.3152601997783
 20
544.9761088327451
 30
0.0
 10
187.6677131743185
 20
544.1437595230906
 30
0.0
 10
188.8183053897734
 20
543.0905346083061
 30
0.0
 10
189.9717551238435
 20
542.0346638429592
 30
0.0
 10
190.9223915926211
 20
540.7568238542597
 30
0.0
 10
191.6017754615264
 20
539.3481730136663
 30
0.0
 10
192.2707875962072
 20
537.9610064796494
 30
0.0
 10
192.6767669067711
 20
536.4470155085875
 30
0.0
 10
192.7871870702586
 20
534.9106935587719
 30
0.0
 10
192.8089183228798
 20
534.6131588432921
 30
0.0
 10
192.8197839491833
 20
534.315835795844
 30
0.0
 10
192.8197839491705
 20
534.0175249641942
 30
0.0
 10
192.8198545051497
 20
533.2062013470771
 30
0.0
 10
192.738291751705
 20
532.3953363440658
 30
0.0
 10
192.5783765435517
 20
531.6000642203827
 30
0.0
 10
192.41839077938
 20
530.8044393166323
 30
0.0
 10
192.179946726472
 20
530.0244425702031
 30
0.0
 10
191.8664310735441
 20
529.2759843625219
 30
0.0
 10
191.238976431595
 20
527.7780448849293
 30
0.0
 10
190.3107414974646
 20
526.4065065083249
 30
0.0
 10
189.1558806429954
 20
525.2646985167463
 30
0.0
 10
187.9977742118402
 20
524.1196449484743
 30
0.0
 10
186.6117012960477
 20
523.2056623295177
 30
0.0
 10
185.1045895364488
 20
522.5882971978506
 30
0.0
 10
183.5910219014729
 20
521.9682509376279
 30
0.0
 10
181.9553570824494
 20
521.6473974592351
 30
0.0
 10
180.3196922634394
 20
521.6475385713411
 30
0.0
 10
178.6837099423623
 20
521.6473974593833
 30
0.0
 10
177.0477276213108
 20
521.9683920499452
 30
0.0
 10
175.533913040331
 20
522.5886499783588
 30
0.0
 10
174.0271187828435
 20
523.20601511016
 30
0.0
 10
172.641363369208
 20
524.1198918952116
 30
0.0
 10
171.4834686061957
 20
525.2646985175401
 30
0.0
 10
170.3286077518292
 20
526.4065065092211
 30
0.0
 10
169.4003728178272
 20
527.7780801639205
 30
0.0
 10
168.7729181760192
 20
529.2760196415626
 30
0.0
 10
168.4594025231555
 20
530.024477849279
 30
0.0
 10
168.2209584703117
 20
530.804474595719
 30
0.0
 10
168.0609727062106
 20
531.6000994994905
 30
0.0
 10
167.9010574981272
 20
532.3953363451772
 30
0.0
 10
167.8195300227687
 20
533.2062013482023
 30
0.0
 10
167.8196005788185
 20
534.0175249653158
 30
0.0
  0
ENDBLK
  5
115
330
112
100
AcDbEntity
  8
0
100
AcDbBlockEnd
  0
BLOCK
  5
11A
330
118
100
AcDbEntity
  8
0
100
AcDbBlockBegin
  2
block 41
 70
     0
 10
0.0
 20
0.0
 30
0.0
  3
block 41
  1

  0
SPLINE
  5
11C
330
118
100
AcDbEntity
  8
0
 62
   250
370
    25
100
AcDbSpline
210
0.0
220
0.0
230
1.0
 70
     8
 71
     3
 72
    14
 73
    10
 74
     0
 42
0.0000000001
 43
0.0000000001
 12
1.0
 22
0.0
 32
0.0
 13
1.0
 23
0.0
 33
0.0
 40
0.0
 40
0.0
 40
0.0
 40
0.0
 40
1.0
 40
1.0
 40
1.0
 40
2.0
 40
2.0
 40
2.0
 40
3.0
 40
3.0
 40
3.0
 40
3.0
 10
502.5587497508361
 20
574.5244740313665
 30
0.0
 10
501.5628868763729
 20
575.138769976489
 30
0.0
 10
500.5854038438212
 20
575.4165490077991
 30
0.0
 10
499.415302890153
 20
575.417819016117
 30
0.0
 10
499.4228523837656
 20
575.4262857379316
 30
0.0
 10
499.432201055753
 20
575.4328121693179
 30
0.0
 10
499.4390449892207
 20
575.4420902853018
 30
0.0
 10
499.3894441106389
 20
575.442337231348
 30
0.0
 10
499.3398432320502
 20
575.4425488994008
 30
0.0
 10
499.2902423534723
 20
575.4427958454577
 30
0.0
  0
ENDBLK
  5
11B
330
118
100
AcDbEntity
  8
0
100
AcDbBlockEnd
  0
BLOCK
  5
11F
330
11D
100
AcDbEntity
  8
0
100
AcDbBlockBegin
  2
block 42
 70
     0
 10
0.0
 20
0.0
 30
0.0
  3
block 42
  1

  0
SPLINE
  5
121
330
11D
100
AcDbEntity
  8
0
  6
AI-Linetype-19
 62
     6
370
    25
100
AcDbSpline
210
0.0
220
0.0
230
1.0
 70
     8
 71
     3
 72
     8
 73
     4
 74
     0
 42
0.0000000001
 43
0.0000000001
 12
1.0
 22
0.0
 32
0.0
 13
1.0
 23
0.0
 33
0.0
 40
0.0
 40
0.0
 40
0.0
 40
0.0
 40
1.0
 40
1.0
 40
1.0
 40
1.0
 10
-89.33156829491058
 20
563.2758696898017
 30
0.0
 10
-89.28842329170716
 20
563.2577015159147
 30
0.0
 10
-89.24527828850727
 20
563.2394627860207
 30
0.0
 10
-89.20220384131545
 20
563.2211535001057
 30
0.0
  0
ENDBLK
  5
120
330
11D
100
AcDbEntity
  8
0
100
AcDbBlockEnd
  0
BLOCK
  5
125
330
123
100
AcDbEntity
  8
0
100
AcDbBlockBegin
  2
block 43
 70
     0
 10
0.0
 20
0.0
 30
0.0
  3
block 43
  1

  0
SPLINE
  5
127
330
123
100
AcDbEntity
  8
0
 62
   250
370
    25
100
AcDbSpline
210
0.0
220
0.0
230
1.0
 70
     8
 71
     3
 72
    11
 73
     7
 74
     0
 42
0.0000000001
 43
0.0000000001
 12
1.0
 22
0.0
 32
0.0
 13
1.0
 23
0.0
 33
0.0
 40
0.0
 40
0.0
 40
0.0
 40
0.0
 40
1.0
 40
1.0
 40
1.0
 40
2.0
 40
2.0
 40
2.0
 40
2.0
 10
-288.7288641003129
 20
575.4118570682383
 30
0.0
 10
-288.7387419424171
 20
575.4218407443708
 30
0.0
 10
-288.7506659089636
 20
575.4308013582734
 30
0.0
 10
-288.7613551452412
 20
575.4399383622185
 30
0.0
 10
-288.5677141619254
 20
575.4408555904201
 30
0.0
 10
-288.3751315188329
 20
575.4324241466094
 30
0.0
 10
-288.182301929687
 20
575.4146087528043
 30
0.0
  0
ENDBLK
  5
126
330
123
100
AcDbEntity
  8
0
100
AcDbBlockEnd
  0
BLOCK
  5
12A
330
128
100
AcDbEntity
  8
0
100
AcDbBlockBegin
  2
block 44
 70
     0
 10
0.0
 20
0.0
 30
0.0
  3
block 44
  1

  0
SPLINE
  5
12C
330
128
100
AcDbEntity
  8
0
 62
   250
370
    25
100
AcDbSpline
210
0.0
220
0.0
230
1.0
 70
     8
 71
     3
 72
    11
 73
     7
 74
     0
 42
0.0000000001
 43
0.0000000001
 12
1.0
 22
0.0
 32
0.0
 13
1.0
 23
0.0
 33
0.0
 40
0.0
 40
0.0
 40
0.0
 40
0.0
 40
1.0
 40
1.0
 40
1.0
 40
2.0
 40
2.0
 40
2.0
 40
2.0
 10
-288.7613551452412
 20
575.4422667107281
 30
0.0
 10
-288.7744785640419
 20
575.4422314327172
 30
0.0
 10
-288.7875667048326
 20
575.4421608767066
 30
0.0
 10
-288.8006548456232
 20
575.4420903206889
 30
0.0
 10
-291.0613401239985
 20
575.4310483044396
 30
0.0
 10
-293.1239041121495
 20
574.1502449632407
 30
0.0
 10
-294.1361712602267
 20
572.1288504099704
 30
0.0
  0
ENDBLK
  5
12B
330
128
100
AcDbEntity
  8
0
100
AcDbBlockEnd
  0
BLOCK
  5
12F
330
12D
100
AcDbEntity
  8
0
100
AcDbBlockBegin
  2
block 45
 70
     0
 10
0.0
 20
0.0
 30
0.0
  3
block 45
  1

  0
SPLINE
  5
131
330
12D
100
AcDbEntity
  8
0
  6
AI-Linetype-20
 62
     6
370
    25
100
AcDbSpline
210
0.0
220
0.0
230
1.0
 70
     8
 71
     3
 72
   758
 73
   754
 74
     0
 42
0.0000000001
 43
0.0000000001
 12
1.0
 22
0.0
 32
0.0
 13
1.0
 23
0.0
 33
0.0
 40
0.0
 40
0.0
 40
0.0
 40
0.0
 40
1.0
 40
1.0
 40
1.0
 40
2.0
 40
2.0
 40
2.0
 40
3.0
 40
3.0
 40
3.0
 40
4.0
 40
4.0
 40
4.0
 40
5.0
 40
5.0
 40
5.0
 40
6.0
 40
6.0
 40
6.0
 40
7.0
 40
7.0
 40
7.0
 40
8.0
 40
8.0
 40
8.0
 40
9.0
 40
9.0
 40
9.0
 40
10.0
 40
10.0
 40
10.0
 40
11.0
 40
11.0
 40
11.0
 40
12.0
 40
12.0
 40
12.0
 40
13.0
 40
13.0
 40
13.0
 40
14.0
 40
14.0
 40
14.0
 40
15.0
 40
15.0
 40
15.0
 40
16.0
 40
16.0
 40
16.0
 40
17.0
 40
17.0
 40
17.0
 40
18.0
 40
18.0
 40
18.0
 40
19.0
 40
19.0
 40
19.0
 40
20.0
 40
20.0
 40
20.0
 40
21.0
 40
21.0
 40
21.0
 40
22.0
 40
22.0
 40
22.0
 40
23.0
 40
23.0
 40
23.0
 40
24.0
 40
24.0
 40
24.0
 40
25.0
 40
25.0
 40
25.0
 40
26.0
 40
26.0
 40
26.0
 40
27.0
 40
27.0
 40
27.0
 40
28.0
 40
28.0
 40
28.0
 40
29.0
 40
29.0
 40
29.0
 40
30.0
 40
30.0
 40
30.0
 40
31.0
 40
31.0
 40
31.0
 40
32.0
 40
32.0
 40
32.0
 40
33.0
 40
33.0
 40
33.0
 40
34.0
 40
34.0
 40
34.0
 40
35.0
 40
35.0
 40
35.0
 40
36.0
 40
36.0
 40
36.0
 40
37.0
 40
37.0
 40
37.0
 40
38.0
 40
38.0
 40
38.0
 40
39.0
 40
39.0
 40
39.0
 40
40.0
 40
40.0
 40
40.0
 40
41.0
 40
41.0
 40
41.0
 40
42.0
 40
42.0
 40
42.0
 40
43.0
 40
43.0
 40
43.0
 40
44.0
 40
44.0
 40
44.0
 40
45.0
 40
45.0
 40
45.0
 40
46.0
 40
46.0
 40
46.0
 40
47.0
 40
47.0
 40
47.0
 40
48.0
 40
48.0
 40
48.0
 40
49.0
 40
49.0
 40
49.0
 40
50.0
 40
50.0
 40
50.0
 40
51.0
 40
51.0
 40
51.0
 40
52.0
 40
52.0
 40
52.0
 40
53.0
 40
53.0
 40
53.0
 40
54.0
 40
54.0
 40
54.0
 40
55.0
 40
55.0
 40
55.0
 40
56.0
 40
56.0
 40
56.0
 40
57.0
 40
57.0
 40
57.0
 40
58.0
 40
58.0
 40
58.0
 40
59.0
 40
59.0
 40
59.0
 40
60.0
 40
60.0
 40
60.0
 40
61.0
 40
61.0
 40
61.0
 40
62.0
 40
62.0
 40
62.0
 40
63.0
 40
63.0
 40
63.0
 40
64.0
 40
64.0
 40
64.0
 40
65.0
 40
65.0
 40
65.0
 40
66.0
 40
66.0
 40
66.0
 40
67.0
 40
67.0
 40
67.0
 40
68.0
 40
68.0
 40
68.0
 40
69.0
 40
69.0
 40
69.0
 40
70.0
 40
70.0
 40
70.0
 40
71.0
 40
71.0
 40
71.0
 40
72.0
 40
72.0
 40
72.0
 40
73.0
 40
73.0
 40
73.0
 40
74.0
 40
74.0
 40
74.0
 40
75.0
 40
75.0
 40
75.0
 40
76.0
 40
76.0
 40
76.0
 40
77.0
 40
77.0
 40
77.0
 40
78.0
 40
78.0
 40
78.0
 40
79.0
 40
79.0
 40
79.0
 40
80.0
 40
80.0
 40
80.0
 40
81.0
 40
81.0
 40
81.0
 40
82.0
 40
82.0
 40
82.0
 40
83.0
 40
83.0
 40
83.0
 40
84.0
 40
84.0
 40
84.0
 40
85.0
 40
85.0
 40
85.0
 40
86.0
 40
86.0
 40
86.0
 40
87.0
 40
87.0
 40
87.0
 40
88.0
 40
88.0
 40
88.0
 40
89.0
 40
89.0
 40
89.0
 40
90.0
 40
90.0
 40
90.0
 40
91.0
 40
91.0
 40
91.0
 40
92.0
 40
92.0
 40
92.0
 40
93.0
 40
93.0
 40
93.0
 40
94.0
 40
94.0
 40
94.0
 40
95.0
 40
95.0
 40
95.0
 40
96.0
 40
96.0
 40
96.0
 40
97.0
 40
97.0
 40
97.0
 40
98.0
 40
98.0
 40
98.0
 40
99.0
 40
99.0
 40
99.0
 40
100.0
 40
100.0
 40
100.0
 40
101.0
 40
101.0
 40
101.0
 40
102.0
 40
102.0
 40
102.0
 40
103.0
 40
103.0
 40
103.0
 40
104.0
 40
104.0
 40
104.0
 40
105.0
 40
105.0
 40
105.0
 40
106.0
 40
106.0
 40
106.0
 40
107.0
 40
107.0
 40
107.0
 40
108.0
 40
108.0
 40
108.0
 40
109.0
 40
109.0
 40
109.0
 40
110.0
 40
110.0
 40
110.0
 40
111.0
 40
111.0
 40
111.0
 40
112.0
 40
112.0
 40
112.0
 40
113.0
 40
113.0
 40
113.0
 40
114.0
 40
114.0
 40
114.0
 40
115.0
 40
115.0
 40
115.0
 40
116.0
 40
116.0
 40
116.0
 40
117.0
 40
117.0
 40
117.0
 40
118.0
 40
118.0
 40
118.0
 40
119.0
 40
119.0
 40
119.0
 40
120.0
 40
120.0
 40
120.0
 40
121.0
 40
121.0
 40
121.0
 40
122.0
 40
122.0
 40
122.0
 40
123.0
 40
123.0
 40
123.0
 40
124.0
 40
124.0
 40
124.0
 40
125.0
 40
125.0
 40
125.0
 40
126.0
 40
126.0
 40
126.0
 40
127.0
 40
127.0
 40
127.0
 40
128.0
 40
128.0
 40
128.0
 40
129.0
 40
129.0
 40
129.0
 40
130.0
 40
130.0
 40
130.0
 40
131.0
 40
131.0
 40
131.0
 40
132.0
 40
132.0
 40
132.0
 40
133.0
 40
133.0
 40
133.0
 40
134.0
 40
134.0
 40
134.0
 40
135.0
 40
135.0
 40
135.0
 40
136.0
 40
136.0
 40
136.0
 40
137.0
 40
137.0
 40
137.0
 40
138.0
 40
138.0
 40
138.0
 40
139.0
 40
139.0
 40
139.0
 40
140.0
 40
140.0
 40
140.0
 40
141.0
 40
141.0
 40
141.0
 40
142.0
 40
142.0
 40
142.0
 40
143.0
 40
143.0
 40
143.0
 40
144.0
 40
144.0
 40
144.0
 40
145.0
 40
145.0
 40
145.0
 40
146.0
 40
146.0
 40
146.0
 40
147.0
 40
147.0
 40
147.0
 40
148.0
 40
148.0
 40
148.0
 40
149.0
 40
149.0
 40
149.0
 40
150.0
 40
150.0
 40
150.0
 40
151.0
 40
151.0
 40
151.0
 40
152.0
 40
152.0
 40
152.0
 40
153.0
 40
153.0
 40
153.0
 40
154.0
 40
154.0
 40
154.0
 40
155.0
 40
155.0
 40
155.0
 40
156.0
 40
156.0
 40
156.0
 40
157.0
 40
157.0
 40
157.0
 40
158.0
 40
158.0
 40
158.0
 40
159.0
 40
159.0
 40
159.0
 40
160.0
 40
160.0
 40
160.0
 40
161.0
 40
161.0
 40
161.0
 40
162.0
 40
162.0
 40
162.0
 40
163.0
 40
163.0
 40
163.0
 40
164.0
 40
164.0
 40
164.0
 40
165.0
 40
165.0
 40
165.0
 40
166.0
 40
166.0
 40
166.0
 40
167.0
 40
167.0
 40
167.0
 40
168.0
 40
168.0
 40
168.0
 40
169.0
 40
169.0
 40
169.0
 40
170.0
 40
170.0
 40
170.0
 40
171.0
 40
171.0
 40
171.0
 40
172.0
 40
172.0
 40
172.0
 40
173.0
 40
173.0
 40
173.0
 40
174.0
 40
174.0
 40
174.0
 40
175.0
 40
175.0
 40
175.0
 40
176.0
 40
176.0
 40
176.0
 40
177.0
 40
177.0
 40
177.0
 40
178.0
 40
178.0
 40
178.0
 40
179.0
 40
179.0
 40
179.0
 40
180.0
 40
180.0
 40
180.0
 40
181.0
 40
181.0
 40
181.0
 40
182.0
 40
182.0
 40
182.0
 40
183.0
 40
183.0
 40
183.0
 40
184.0
 40
184.0
 40
184.0
 40
185.0
 40
185.0
 40
185.0
 40
186.0
 40
186.0
 40
186.0
 40
187.0
 40
187.0
 40
187.0
 40
188.0
 40
188.0
 40
188.0
 40
189.0
 40
189.0
 40
189.0
 40
190.0
 40
190.0
 40
190.0
 40
191.0
 40
191.0
 40
191.0
 40
192.0
 40
192.0
 40
192.0
 40
193.0
 40
193.0
 40
193.0
 40
194.0
 40
194.0
 40
194.0
 40
195.0
 40
195.0
 40
195.0
 40
196.0
 40
196.0
 40
196.0
 40
197.0
 40
197.0
 40
197.0
 40
198.0
 40
198.0
 40
198.0
 40
199.0
 40
199.0
 40
199.0
 40
200.0
 40
200.0
 40
200.0
 40
201.0
 40
201.0
 40
201.0
 40
202.0
 40
202.0
 40
202.0
 40
203.0
 40
203.0
 40
203.0
 40
204.0
 40
204.0
 40
204.0
 40
205.0
 40
205.0
 40
205.0
 40
206.0
 40
206.0
 40
206.0
 40
207.0
 40
207.0
 40
207.0
 40
208.0
 40
208.0
 40
208.0
 40
209.0
 40
209.0
 40
209.0
 40
210.0
 40
210.0
 40
210.0
 40
211.0
 40
211.0
 40
211.0
 40
212.0
 40
212.0
 40
212.0
 40
213.0
 40
213.0
 40
213.0
 40
214.0
 40
214.0
 40
214.0
 40
215.0
 40
215.0
 40
215.0
 40
216.0
 40
216.0
 40
216.0
 40
217.0
 40
217.0
 40
217.0
 40
218.0
 40
218.0
 40
218.0
 40
219.0
 40
219.0
 40
219.0
 40
220.0
 40
220.0
 40
220.0
 40
221.0
 40
221.0
 40
221.0
 40
222.0
 40
222.0
 40
222.0
 40
223.0
 40
223.0
 40
223.0
 40
224.0
 40
224.0
 40
224.0
 40
225.0
 40
225.0
 40
225.0
 40
226.0
 40
226.0
 40
226.0
 40
227.0
 40
227.0
 40
227.0
 40
228.0
 40
228.0
 40
228.0
 40
229.0
 40
229.0
 40
229.0
 40
230.0
 40
230.0
 40
230.0
 40
231.0
 40
231.0
 40
231.0
 40
232.0
 40
232.0
 40
232.0
 40
233.0
 40
233.0
 40
233.0
 40
234.0
 40
234.0
 40
234.0
 40
235.0
 40
235.0
 40
235.0
 40
236.0
 40
236.0
 40
236.0
 40
237.0
 40
237.0
 40
237.0
 40
238.0
 40
238.0
 40
238.0
 40
239.0
 40
239.0
 40
239.0
 40
240.0
 40
240.0
 40
240.0
 40
241.0
 40
241.0
 40
241.0
 40
242.0
 40
242.0
 40
242.0
 40
243.0
 40
243.0
 40
243.0
 40
244.0
 40
244.0
 40
244.0
 40
245.0
 40
245.0
 40
245.0
 40
246.0
 40
246.0
 40
246.0
 40
247.0
 40
247.0
 40
247.0
 40
248.0
 40
248.0
 40
248.0
 40
249.0
 40
249.0
 40
249.0
 40
250.0
 40
250.0
 40
250.0
 40
251.0
 40
251.0
 40
251.0
 40
251.0
 10
143.4998241349765
 20
430.1326123002069
 30
0.0
 10
143.7900563026114
 20
423.7408370623548
 30
0.0
 10
144.0803237482689
 20
417.3490618245136
 30
0.0
 10
144.3705559159044
 20
410.9572865866688
 30
0.0
 10
144.3763062311295
 20
410.829227419348
 30
0.0
 10
144.3945802390172
 20
410.7016974221368
 30
0.0
 10
144.4247429354528
 20
410.5771307775549
 30
0.0
 10
144.4546939638416
 20
410.4535871951961
 30
0.0
 10
144.4963220127122
 20
410.3329716874491
 30
0.0
 10
144.5491331899791
 20
410.2173656567878
 30
0.0
 10
144.6553199926226
 20
409.9848835871717
 30
0.0
 10
144.8065568108807
 20
409.7727922059091
 30
0.0
 10
144.9919780184423
 20
409.5969666163921
 30
0.0
 10
145.1732716991091
 20
409.4250216076919
 30
0.0
 10
145.3872328147695
 20
409.2877196023867
 30
0.0
 10
145.6188682121927
 20
409.1938095463444
 30
0.0
 10
145.7352856370195
 20
409.1466428502615
 30
0.0
 10
145.8561480908076
 20
409.1104123365338
 30
0.0
 10
145.9794447271176
 20
409.086529125434
 30
0.0
 10
146.0271758713017
 20
409.0772862874603
 30
0.0
 10
146.0752950735707
 20
409.0698779058796
 30
0.0
 10
146.12362594388
 20
409.0647625947831
 30
0.0
 10
146.204977029233
 20
409.056154760937
 30
0.0
 10
146.2869983967417
 20
409.0540028024808
 30
0.0
 10
146.3685258721387
 20
409.0480408192007
 30
0.0
 10
146.3727239550255
 20
409.0480408192007
 30
0.0
 10
146.3769220379252
 20
409.0480408192007
 30
0.0
 10
146.3811201208249
 20
409.0480408192007
 30
0.0
 10
146.4052149999619
 20
409.0480408192007
 30
0.0
 10
146.4292746010902
 20
409.0480408192007
 30
0.0
 10
146.45336948024
 20
409.0480408191969
 30
0.0
 10
146.4648701106907
 20
409.0480408191969
 30
0.0
 10
146.4763707411407
 20
409.0480408191969
 30
0.0
 10
146.4878713716042
 20
409.0480408191969
 30
0.0
 10
146.4923516785491
 20
409.0480408191969
 30
0.0
 10
146.4968319855067
 20
409.0480408191969
 30
0.0
 10
146.50134757048
 20
409.0480408191969
 30
0.0
 10
146.5140476531867
 20
409.0480408191969
 30
0.0
 10
146.526783013902
 20
409.0480408191969
 30
0.0
 10
146.5394830966087
 20
409.0480408191969
 30
0.0
 10
146.5463623080791
 20
409.0480408191969
 30
0.0
 10
146.5532415195489
 20
409.0480408191969
 30
0.0
 10
146.5600854530101
 20
409.0480408191969
 30
0.0
 10
146.5734910958618
 20
409.0480408191969
 30
0.0
 10
146.5868967387263
 20
409.0480408191969
 30
0.0
 10
146.6003023815908
 20
409.0480408191969
 30
0.0
 10
146.6100743896716
 20
409.0480408191969
 30
0.0
 10
146.6198816757609
 20
409.0480408191969
 30
0.0
 10
146.6296889618636
 20
409.0480408191969
 30
0.0
 10
146.6432004387416
 20
409.0480408191969
 30
0.0
 10
146.6567119156201
 20
409.0480408191898
 30
0.0
 10
146.6702233925108
 20
409.0480408191898
 30
0.0
 10
146.6835232013491
 20
409.0480408191898
 30
0.0
 10
146.6967877321776
 20
409.0480408191898
 30
0.0
 10
146.7100875410159
 20
409.0480408191898
 30
0.0
 10
146.7231404037919
 20
409.0480408191827
 30
0.0
 10
146.7361932665807
 20
409.0480408191827
 30
0.0
 10
146.7492461293695
 20
409.0480408191827
 30
0.0
 10
146.766602909072
 20
409.0480408191827
 30
0.0
 10
146.783959688774
 20
409.0480408191827
 30
0.0
 10
146.8013517464851
 20
409.0480408191827
 30
0.0
 10
146.8133109910376
 20
409.0480408191827
 30
0.0
 10
146.8253055136001
 20
409.0480408191827
 30
0.0
 10
146.8373000361612
 20
409.0480408191827
 30
0.0
 10
146.8643582679262
 20
409.0480408191827
 30
0.0
 10
146.8914517777132
 20
409.0480408191827
 30
0.0
 10
146.9185452874873
 20
409.0480408191827
 30
0.0
 10
146.9238017106205
 20
409.0480408191827
 30
0.0
 10
146.9290228557323
 20
409.0480408191827
 30
0.0
 10
146.9342792788462
 20
409.0480408191827
 30
0.0
 10
147.0077986465415
 20
409.0480408191757
 30
0.0
 10
147.0813532922324
 20
409.0480408191686
 30
0.0
 10
147.1548726599148
 20
409.0480408191686
 30
0.0
 10
147.239998492087
 20
409.0480408191616
 30
0.0
 10
147.3251243242464
 20
409.0480408191584
 30
0.0
 10
147.4102501564057
 20
409.0480408191584
 30
0.0
 10
147.4102501564057
 20
409.0480408191584
 30
0.0
 10
147.416529641751
 20
409.0480408191584
 30
0.0
 10
147.4196341064144
 20
409.0480408191584
 30
0.0
 10
147.4633435577434
 20
409.0480408191584
 30
0.0
 10
147.5070882870681
 20
409.0480408191584
 30
0.0
 10
147.5507977383972
 20
409.0480408191513
 30
0.0
 10
147.5590175141526
 20
409.0480408191513
 30
0.0
 10
147.5672372899081
 20
409.0480408191513
 30
0.0
 10
147.5754570656629
 20
409.0480408191513
 30
0.0
 10
147.6168734464932
 20
409.0480408191443
 30
0.0
 10
147.6582898273363
 20
409.0480408191443
 30
0.0
 10
147.6997414861765
 20
409.0480408191443
 30
0.0
 10
147.7998957495427
 20
409.0480408191372
 30
0.0
 10
147.9000500129224
 20
409.0480408191301
 30
0.0
 10
148.0001689982807
 20
409.0480408191301
 30
0.0
 10
148.0338242174581
 20
409.0480408191301
 30
0.0
 10
148.0674794366484
 20
409.0480408191301
 30
0.0
 10
148.1010993778166
 20
409.0480408191263
 30
0.0
 10
148.1211020080808
 20
409.0480408191263
 30
0.0
 10
148.1410693603479
 20
409.0480408191263
 30
0.0
 10
148.161071990612
 20
409.0480408191193
 30
0.0
 10
148.1726784550889
 20
409.0480408191193
 30
0.0
 10
148.1842849195658
 20
409.0480408191193
 30
0.0
 10
148.1958561060342
 20
409.0480408191193
 30
0.0
 10
148.3771145087046
 20
409.0480408191121
 30
0.0
 10
148.5583729113891
 20
409.0480408191051
 30
0.0
 10
148.7396313140589
 20
409.048040819091
 30
0.0
 10
148.7643611973423
 20
409.048040819091
 30
0.0
 10
148.7890558026044
 20
409.048040819091
 30
0.0
 10
148.8137856858878
 20
409.048040819091
 30
0.0
 10
148.849698697542
 20
409.048040819091
 30
0.0
 10
148.8856469872181
 20
409.048040819091
 30
0.0
 10
148.921559998885
 20
409.048040819091
 30
0.0
 10
148.9503115750114
 20
409.0480408190878
 30
0.0
 10
148.9790631511506
 20
409.0480408190878
 30
0.0
 10
149.0078147272897
 20
409.0480408190878
 30
0.0
 10
149.0485961039857
 20
409.0480408190807
 30
0.0
 10
149.0893774806824
 20
409.0480408190807
 30
0.0
 10
149.1301588573919
 20
409.0480408190807
 30
0.0
 10
149.1465631308936
 20
409.0480408190807
 30
0.0
 10
149.1630026824045
 20
409.0480408190807
 30
0.0
 10
149.1794069558935
 20
409.0480408190807
 30
0.0
 10
149.3223887204062
 20
409.0480408190666
 30
0.0
 10
149.4653704849189
 20
409.0480408190666
 30
0.0
 10
149.6083522494195
 20
409.0480408190525
 30
0.0
 10
149.613679228564
 20
409.0480408190525
 30
0.0
 10
149.6190062076956
 20
409.0480408190525
 30
0.0
 10
149.6243684648428
 20
409.0480408190525
 30
0.0
 10
149.6821538411727
 20
409.0480408190525
 30
0.0
 10
149.7399392174956
 20
409.0480408190525
 30
0.0
 10
149.7977598718405
 20
409.0480408190489
 30
0.0
 10
149.8175861120729
 20
409.0480408190489
 30
0.0
 10
149.8374123523046
 20
409.0480408190489
 30
0.0
 10
149.8572738705333
 20
409.0480408190489
 30
0.0
 10
149.9160823090875
 20
409.0480408190419
 30
0.0
 10
149.9748907476289
 20
409.0480408190419
 30
0.0
 10
150.0336991861838
 20
409.0480408190419
 30
0.0
 10
150.0547601566743
 20
409.0480408190419
 30
0.0
 10
150.0758211271649
 20
409.0480408190419
 30
0.0
 10
150.096882097656
 20
409.0480408190348
 30
0.0
 10
150.1566077644019
 20
409.0480408190278
 30
0.0
 10
150.216368709157
 20
409.0480408190278
 30
0.0
 10
150.2760943759029
 20
409.0480408190278
 30
0.0
 10
150.2984253546614
 20
409.0480408190278
 30
0.0
 10
150.3207563334327
 20
409.0480408190278
 30
0.0
 10
150.3430873121912
 20
409.0480408190278
 30
0.0
 10
150.4992630515154
 20
409.0480408190172
 30
0.0
 10
150.655403512831
 20
409.0480408190101
 30
0.0
 10
150.8115792521551
 20
409.0480408190031
 30
0.0
 10
150.8259021232113
 20
409.0480408190031
 30
0.0
 10
150.8402249942674
 20
409.0480408190031
 30
0.0
 10
150.8545478653236
 20
409.0480408190031
 30
0.0
 10
150.9234105360166
 20
409.0480408190031
 30
0.0
 10
150.9923084847188
 20
409.048040818996
 30
0.0
 10
151.0611711554182
 20
409.0480408189925
 30
0.0
 10
151.0806093375593
 20
409.0480408189925
 30
0.0
 10
151.1000122416982
 20
409.0480408189925
 30
0.0
 10
151.1194504238457
 20
409.0480408189925
 30
0.0
 10
151.1627365390814
 20
409.0480408189925
 30
0.0
 10
151.2060579323262
 20
409.0480408189925
 30
0.0
 10
151.2493440475611
 20
409.0480408189819
 30
0.0
 10
151.2966871336739
 20
409.0480408189784
 30
0.0
 10
151.3440302197738
 20
409.0480408189784
 30
0.0
 10
151.3913733058737
 20
409.0480408189784
 30
0.0
 10
151.4191723757992
 20
409.0480408189784
 30
0.0
 10
151.4469714457382
 20
409.0480408189784
 30
0.0
 10
151.4747705156631
 20
409.0480408189784
 30
0.0
 10
151.5403170536524
 20
409.0480408189713
 30
0.0
 10
151.6058283136325
 20
409.0480408189642
 30
0.0
 10
151.6713748516217
 20
409.0480408189642
 30
0.0
 10
151.7603812646136
 20
409.0480408189642
 30
0.0
 10
151.849352399604
 20
409.0480408189572
 30
0.0
 10
151.9383588125894
 20
409.0480408189501
 30
0.0
 10
151.9453791360818
 20
409.0480408189501
 30
0.0
 10
151.9523994595748
 20
409.0480408189501
 30
0.0
 10
151.95941978308
 20
409.0480408189501
 30
0.0
 10
152.0317396985128
 20
409.0480408189501
 30
0.0
 10
152.1040596139449
 20
409.0480408189466
 30
0.0
 10
152.1763795293649
 20
409.0480408189396
 30
0.0
 10
152.2027322009913
 20
409.0480408189396
 30
0.0
 10
152.2291201506269
 20
409.0480408189396
 30
0.0
 10
152.2555081002497
 20
409.0480408189396
 30
0.0
 10
152.3098009538371
 20
409.0480408189396
 30
0.0
 10
152.3640938074251
 20
409.0480408189396
 30
0.0
 10
152.4183866610125
 20
409.0480408189325
 30
0.0
 10
152.4654475230545
 20
409.0480408189254
 30
0.0
 10
152.5125436631049
 20
409.0480408189254
 30
0.0
 10
152.559604525134
 20
409.0480408189254
 30
0.0
 10
152.5945297525916
 20
409.0480408189254
 30
0.0
 10
152.6294549800492
 20
409.0480408189254
 30
0.0
 10
152.6643449294854
 20
409.0480408189219
 30
0.0
 10
152.7358887287492
 20
409.0480408189113
 30
0.0
 10
152.8073972500159
 20
409.0480408189113
 30
0.0
 10
152.8789057712704
 20
409.0480408189113
 30
0.0
 10
152.9751794538176
 20
409.0480408189078
 30
0.0
 10
153.0714884143604
 20
409.0480408189007
 30
0.0
 10
153.1677620969076
 20
409.0480408189007
 30
0.0
 10
153.1825083040565
 20
409.0480408189007
 30
0.0
 10
153.1972192331847
 20
409.0480408189007
 30
0.0
 10
153.2119654403348
 20
409.0480408189007
 30
0.0
 10
153.2829800694905
 20
409.0480408188937
 30
0.0
 10
153.3540299766431
 20
409.0480408188866
 30
0.0
 10
153.4250446057994
 20
409.0480408188866
 30
0.0
 10
153.4678721069453
 20
409.0480408188866
 30
0.0
 10
153.5106996080783
 20
409.0480408188866
 30
0.0
 10
153.5534918312029
 20
409.0480408188795
 30
0.0
 10
153.5976598966338
 20
409.048040818876
 30
0.0
 10
153.6417926840434
 20
409.048040818876
 30
0.0
 10
153.6859254714658
 20
409.048040818876
 30
0.0
 10
153.7424055615128
 20
409.048040818876
 30
0.0
 10
153.7989209295812
 20
409.048040818869
 30
0.0
 10
153.8554010196282
 20
409.048040818869
 30
0.0
 10
153.8870453923777
 20
409.0480408188619
 30
0.0
 10
153.9186544871187
 20
409.0480408188619
 30
0.0
 10
153.9502988598811
 20
409.0480408188619
 30
0.0
 10
154.0332021775723
 20
409.0480408188619
 30
0.0
 10
154.1160702172421
 20
409.0480408188549
 30
0.0
 10
154.1989382569241
 20
409.0480408188513
 30
0.0
 10
154.2957058315824
 20
409.0480408188513
 30
0.0
 10
154.3924734062271
 20
409.0480408188442
 30
0.0
 10
154.4892409808725
 20
409.0480408188372
 30
0.0
 10
154.5355962827631
 20
409.0480408188372
 30
0.0
 10
154.5819515846536
 20
409.0480408188372
 30
0.0
 10
154.6283068865436
 20
409.0480408188372
 30
0.0
 10
154.6733921801668
 20
409.0480408188301
 30
0.0
 10
154.7185127517985
 20
409.0480408188301
 30
0.0
 10
154.7635980454089
 20
409.0480408188231
 30
0.0
 10
154.8121053057621
 20
409.0480408188231
 30
0.0
 10
154.860612566116
 20
409.0480408188231
 30
0.0
 10
154.9091198264563
 20
409.0480408188231
 30
0.0
 10
154.9531115018497
 20
409.048040818816
 30
0.0
 10
154.9971031772303
 20
409.048040818816
 30
0.0
 10
155.0410948526173
 20
409.0480408188089
 30
0.0
 10
155.119270917302
 20
409.0480408188089
 30
0.0
 10
155.1974117039775
 20
409.0480408188089
 30
0.0
 10
155.2755877686616
 20
409.0480408188054
 30
0.0
 10
155.3854434840979
 20
409.0480408187984
 30
0.0
 10
155.4953344775434
 20
409.0480408187984
 30
0.0
 10
155.6051901929862
 20
409.0480408187843
 30
0.0
 10
155.6623405651754
 20
409.0480408187843
 30
0.0
 10
155.7194909373774
 20
409.0480408187843
 30
0.0
 10
155.7766060315645
 20
409.0480408187843
 30
0.0
 10
155.8149532257463
 20
409.0480408187807
 30
0.0
 10
155.8532651419132
 20
409.0480408187807
 30
0.0
 10
155.8915770580922
 20
409.0480408187701
 30
0.0
 10
155.9380029160069
 20
409.0480408187701
 30
0.0
 10
155.9844287739087
 20
409.0480408187701
 30
0.0
 10
156.0308193538078
 20
409.0480408187701
 30
0.0
 10
156.0808082904693
 20
409.0480408187701
 30
0.0
 10
156.1307972271308
 20
409.0480408187666
 30
0.0
 10
156.1807508857959
 20
409.0480408187595
 30
0.0
 10
156.2603027927741
 20
409.0480408187595
 30
0.0
 10
156.3398546997395
 20
409.0480408187595
 30
0.0
 10
156.4194066067178
 20
409.0480408187525
 30
0.0
 10
156.4371514445052
 20
409.0480408187525
 30
0.0
 10
156.454896282292
 20
409.0480408187454
 30
0.0
 10
156.4726058420696
 20
409.0480408187454
 30
0.0
 10
156.5868007524346
 20
409.0480408187454
 30
0.0
 10
156.7009956628003
 20
409.0480408187384
 30
0.0
 10
156.8151552951562
 20
409.0480408187349
 30
0.0
 10
156.8980938908565
 20
409.0480408187349
 30
0.0
 10
156.9810324865568
 20
409.0480408187278
 30
0.0
 10
157.0640063602529
 20
409.0480408187207
 30
0.0
 10
157.2518970283443
 20
409.0480408187137
 30
0.0
 10
157.4397876964363
 20
409.0480408187101
 30
0.0
 10
157.6277136425362
 20
409.0480408186961
 30
0.0
 10
157.6529726959271
 20
409.0480408186961
 30
0.0
 10
157.6782317493179
 20
409.0480408186961
 30
0.0
 10
157.7035260807174
 20
409.0480408186961
 30
0.0
 10
157.8225893561121
 20
409.0480408186889
 30
0.0
 10
157.9416879095282
 20
409.0480408186819
 30
0.0
 10
158.0607864629449
 20
409.0480408186819
 30
0.0
 10
158.1344822206713
 20
409.0480408186748
 30
0.0
 10
158.2081427003891
 20
409.0480408186678
 30
0.0
 10
158.2818384581026
 20
409.0480408186678
 30
0.0
 10
158.64897668245
 20
409.0480408186572
 30
0.0
 10
159.0161149067846
 20
409.048040818629
 30
0.0
 10
159.3832531311192
 20
409.0480408186184
 30
0.0
 10
159.4282325907156
 20
409.0480408186184
 30
0.0
 10
159.4731767723034
 20
409.0480408186184
 30
0.0
 10
159.518120953904
 20
409.0480408186113
 30
0.0
 10
159.6417703702827
 20
409.0480408186042
 30
0.0
 10
159.7653845086534
 20
409.0480408186042
 30
0.0
 10
159.8890339250385
 20
409.0480408185937
 30
0.0
 10
159.9803686865254
 20
409.0480408185937
 30
0.0
 10
160.0717387260208
 20
409.0480408185937
 30
0.0
 10
160.1631087655163
 20
409.0480408185796
 30
0.0
 10
160.3348068281597
 20
409.0480408185796
 30
0.0
 10
160.5065048907896
 20
409.0480408185654
 30
0.0
 10
160.6782382314294
 20
409.0480408185619
 30
0.0
 10
160.7148568032477
 20
409.0480408185619
 30
0.0
 10
160.7514753750532
 20
409.0480408185549
 30
0.0
 10
160.7880939468721
 20
409.0480408185549
 30
0.0
 10
160.9047935957761
 20
409.0480408185549
 30
0.0
 10
161.0215285226758
 20
409.0480408185408
 30
0.0
 10
161.1382281715798
 20
409.0480408185408
 30
0.0
 10
161.2359129744297
 20
409.0480408185337
 30
0.0
 10
161.3335977772668
 20
409.0480408185266
 30
0.0
 10
161.4312473021075
 20
409.0480408185266
 30
0.0
 10
161.5341885280713
 20
409.0480408185231
 30
0.0
 10
161.6371297540351
 20
409.048040818516
 30
0.0
 10
161.7400709799989
 20
409.048040818516
 30
0.0
 10
161.8584992512735
 20
409.048040818509
 30
0.0
 10
161.9769628005424
 20
409.0480408185019
 30
0.0
 10
162.0953910718163
 20
409.0480408184948
 30
0.0
 10
162.2472276162054
 20
409.0480408184878
 30
0.0
 10
162.3990288825987
 20
409.0480408184846
 30
0.0
 10
162.5508301489914
 20
409.0480408184775
 30
0.0
 10
162.6107322057819
 20
409.0480408184775
 30
0.0
 10
162.6706342625595
 20
409.0480408184705
 30
0.0
 10
162.7305363193371
 20
409.0480408184705
 30
0.0
 10
162.899165195325
 20
409.0480408184634
 30
0.0
 10
163.0677940713006
 20
409.0480408184525
 30
0.0
 10
163.2363876692799
 20
409.0480408184454
 30
0.0
 10
163.2860238258657
 20
409.0480408184454
 30
0.0
 10
163.3356599824514
 20
409.0480408184384
 30
0.0
 10
163.3852961390494
 20
409.0480408184384
 30
0.0
 10
163.4704219712094
 20
409.0480408184384
 30
0.0
 10
163.5555125253717
 20
409.0480408184313
 30
0.0
 10
163.6406030795225
 20
409.0480408184243
 30
0.0
 10
163.7791045370776
 20
409.0480408184243
 30
0.0
 10
163.9176059946333
 20
409.048040818414
 30
0.0
 10
164.0561074521756
 20
409.048040818414
 30
0.0
 10
164.2114012413172
 20
409.0480408183999
 30
0.0
 10
164.3666950304454
 20
409.0480408183999
 30
0.0
 10
164.5219535415779
 20
409.0480408183857
 30
0.0
 10
164.5839722788097
 20
409.0480408183857
 30
0.0
 10
164.6459557380329
 20
409.0480408183857
 30
0.0
 10
164.7079744752775
 20
409.0480408183819
 30
0.0
 10
164.81828880481
 20
409.0480408183748
 30
0.0
 10
164.9286384123509
 20
409.0480408183748
 30
0.0
 10
165.0389527418956
 20
409.0480408183607
 30
0.0
 10
165.1549821086446
 20
409.0480408183607
 30
0.0
 10
165.2710467534149
 20
409.0480408183537
 30
0.0
 10
165.3870761201761
 20
409.0480408183466
 30
0.0
 10
165.595498588639
 20
409.0480408183363
 30
0.0
 10
165.8039210571142
 20
409.0480408183293
 30
0.0
 10
166.0123435255899
 20
409.0480408183222
 30
0.0
 10
166.0366147947708
 20
409.0480408183222
 30
0.0
 10
166.060921341948
 20
409.0480408183222
 30
0.0
 10
166.0852278891381
 20
409.0480408183222
 30
0.0
 10
166.2615120927525
 20
409.0480408183081
 30
0.0
 10
166.4377610183585
 20
409.0480408183046
 30
0.0
 10
166.614045221973
 20
409.0480408182975
 30
0.0
 10
166.6712661501805
 20
409.0480408182905
 30
0.0
 10
166.7284518003918
 20
409.0480408182905
 30
0.0
 10
166.7856727285987
 20
409.0480408182834
 30
0.0
 10
166.9385323352062
 20
409.0480408182834
 30
0.0
 10
167.0913919418266
 20
409.0480408182729
 30
0.0
 10
167.2442515484464
 20
409.0480408182657
 30
0.0
 10
167.3310354469579
 20
409.0480408182587
 30
0.0
 10
167.4178193454823
 20
409.0480408182587
 30
0.0
 10
167.5046032439938
 20
409.0480408182587
 30
0.0
 10
167.6941167004282
 20
409.0480408182481
 30
0.0
 10
167.8836301568633
 20
409.048040818234
 30
0.0
 10
168.0731436133111
 20
409.048040818234
 30
0.0
 10
168.1275070229034
 20
409.0480408182269
 30
0.0
 10
168.1818704325085
 20
409.0480408182199
 30
0.0
 10
168.2362338421014
 20
409.0480408182199
 30
0.0
 10
168.4112480374486
 20
409.0480408182128
 30
0.0
 10
168.5862975108042
 20
409.0480408182058
 30
0.0
 10
168.7613469841477
 20
409.0480408181952
 30
0.0
 10
168.834266625705
 20
409.0480408181952
 30
0.0
 10
168.9071862672623
 20
409.0480408181952
 30
0.0
 10
168.9801411868288
 20
409.0480408181881
 30
0.0
 10
169.2026395803112
 20
409.0480408181811
 30
0.0
 10
169.4251379737809
 20
409.048040818167
 30
0.0
 10
169.6476716452725
 20
409.0480408181564
 30
0.0
 10
169.683725768962
 20
409.0480408181564
 30
0.0
 10
169.7197798926516
 20
409.0480408181564
 30
0.0
 10
169.7558340163411
 20
409.0480408181564
 30
0.0
 10
169.9701126340687
 20
409.0480408181422
 30
0.0
 10
170.1843559737866
 20
409.0480408181317
 30
0.0
 10
170.3985993134929
 20
409.0480408181246
 30
0.0
 10
170.4334892629413
 20
409.0480408181246
 30
0.0
 10
170.4683792123897
 20
409.0480408181176
 30
0.0
 10
170.5032691618259
 20
409.0480408181176
 30
0.0
 10
170.7489099282445
 20
409.0480408181069
 30
0.0
 10
170.9945859726594
 20
409.0480408180999
 30
0.0
 10
171.2402267390787
 20
409.0480408180858
 30
0.0
 10
171.2681316430304
 20
409.0480408180858
 30
0.0
 10
171.2960365469828
 20
409.0480408180858
 30
0.0
 10
171.3239414509346
 20
409.0480408180787
 30
0.0
 10
171.5004373226028
 20
409.0480408180787
 30
0.0
 10
171.6769331942576
 20
409.0480408180646
 30
0.0
 10
171.8534643439209
 20
409.0480408180611
 30
0.0
 10
171.9257842593537
 20
409.048040818054
 30
0.0
 10
171.9981041747865
 20
409.048040818054
 30
0.0
 10
172.0704240902186
 20
409.048040818054
 30
0.0
 10
172.336702491035
 20
409.0480408180399
 30
0.0
 10
172.6029808918513
 20
409.0480408180258
 30
0.0
 10
172.8692592926677
 20
409.0480408180152
 30
0.0
 10
173.0035979453322
 20
409.0480408180081
 30
0.0
 10
173.1379365979961
 20
409.0480408180011
 30
0.0
 10
173.2722752506607
 20
409.048040817994
 30
0.0
 10
173.3330945356428
 20
409.0480408179905
 30
0.0
 10
173.3939490986206
 20
409.0480408179905
 30
0.0
 10
173.4547683836027
 20
409.0480408179905
 30
0.0
 10
173.5408114439537
 20
409.0480408179834
 30
0.0
 10
173.6268897823267
 20
409.0480408179764
 30
0.0
 10
173.7129328426777
 20
409.0480408179764
 30
0.0
 10
173.7813721772901
 20
409.0480408179764
 30
0.0
 10
173.8497762338806
 20
409.0480408179693
 30
0.0
 10
173.9182155684802
 20
409.0480408179658
 30
0.0
 10
174.2475710467553
 20
409.0480408179516
 30
0.0
 10
174.5769618030397
 20
409.0480408179375
 30
0.0
 10
174.9063172813148
 20
409.0480408179234
 30
0.0
 10
174.958881512533
 20
409.0480408179199
 30
0.0
 10
175.0114457437504
 20
409.0480408179199
 30
0.0
 10
175.0640452529778
 20
409.0480408179128
 30
0.0
 10
175.1682564872089
 20
409.0480408179128
 30
0.0
 10
175.2725029994492
 20
409.0480408179058
 30
0.0
 10
175.3767495117017
 20
409.0480408178987
 30
0.0
 10
175.4511155515581
 20
409.0480408178987
 30
0.0
 10
175.5254815914273
 20
409.0480408178952
 30
0.0
 10
175.5998123532873
 20
409.0480408178846
 30
0.0
 10
175.7552472544516
 20
409.0480408178846
 30
0.0
 10
175.9106821556286
 20
409.048040817874
 30
0.0
 10
176.0661170567923
 20
409.048040817874
 30
0.0
 10
176.0889066496533
 20
409.048040817874
 30
0.0
 10
176.1116962425137
 20
409.0480408178669
 30
0.0
 10
176.1345211133833
 20
409.0480408178669
 30
0.0
 10
176.2903440726318
 20
409.0480408178599
 30
0.0
 10
176.4462023098894
 20
409.0480408178528
 30
0.0
 10
176.6020605471471
 20
409.0480408178493
 30
0.0
 10
176.6238976338066
 20
409.0480408178493
 30
0.0
 10
176.6457699984761
 20
409.0480408178493
 30
0.0
 10
176.6676070851357
 20
409.0480408178423
 30
0.0
 10
176.7905509413636
 20
409.0480408178352
 30
0.0
 10
176.9135300756
 20
409.0480408178352
 30
0.0
 10
177.0364739318401
 20
409.0480408178211
 30
0.0
 10
177.0905551173744
 20
409.0480408178211
 30
0.0
 10
177.144601024913
 20
409.0480408178211
 30
0.0
 10
177.1986822104479
 20
409.0480408178211
 30
0.0
 10
177.2707199018221
 20
409.048040817814
 30
0.0
 10
177.3427575931841
 20
409.0480408178105
 30
0.0
 10
177.4147952845582
 20
409.0480408178105
 30
0.0
 10
177.5189359627852
 20
409.0480408178105
 30
0.0
 10
177.6231119190071
 20
409.0480408177964
 30
0.0
 10
177.7272878752426
 20
409.0480408177964
 30
0.0
 10
177.7643297831414
 20
409.0480408177964
 30
0.0
 10
177.8014069690495
 20
409.0480408177964
 30
0.0
 10
177.8384488769618
 20
409.0480408177893
 30
0.0
 10
177.9766328324369
 20
409.0480408177826
 30
0.0
 10
178.1148167879255
 20
409.0480408177787
 30
0.0
 10
178.2530360214226
 20
409.0480408177717
 30
0.0
 10
178.4139037357453
 20
409.0480408177646
 30
0.0
 10
178.5747714500674
 20
409.0480408177576
 30
0.0
 10
178.7356391643901
 20
409.0480408177505
 30
0.0
 10
178.7489389732278
 20
409.0480408177473
 30
0.0
 10
178.7622035040569
 20
409.0480408177473
 30
0.0
 10
178.7755033128952
 20
409.0480408177473
 30
0.0
 10
178.9278690274038
 20
409.0480408177473
 30
0.0
 10
179.0802347419131
 20
409.0480408177332
 30
0.0
 10
179.2326357344438
 20
409.0480408177332
 30
0.0
 10
179.2532028128238
 20
409.0480408177261
 30
0.0
 10
179.2737698912161
 20
409.0480408177261
 30
0.0
 10
179.294336969609
 20
409.0480408177261
 30
0.0
 10
179.4553105179452
 20
409.048040817719
 30
0.0
 10
179.6162840662948
 20
409.0480408177081
 30
0.0
 10
179.7772576146431
 20
409.0480408177081
 30
0.0
 10
179.7878762949107
 20
409.0480408177081
 30
0.0
 10
179.7985302531874
 20
409.0480408177081
 30
0.0
 10
179.8091842114635
 20
409.0480408177081
 30
0.0
 10
180.1546970171787
 20
409.048040817687
 30
0.0
 10
180.5002451009154
 20
409.0480408176696
 30
0.0
 10
180.8457931846385
 20
409.0480408176555
 30
0.0
 10
180.9208647846591
 20
409.0480408176555
 30
0.0
 10
180.9959363846797
 20
409.0480408176484
 30
0.0
 10
181.0710432627094
 20
409.0480408176414
 30
0.0
 10
181.1623780241963
 20
409.0480408176414
 30
0.0
 10
181.2537127856832
 20
409.0480408176376
 30
0.0
 10
181.3450475471695
 20
409.0480408176305
 30
0.0
 10
181.4635816524574
 20
409.0480408176305
 30
0.0
 10
181.5821510357667
 20
409.0480408176234
 30
0.0
 10
181.700685141054
 20
409.0480408176164
 30
0.0
 10
181.7550838286555
 20
409.0480408176164
 30
0.0
 10
181.8094825162697
 20
409.0480408176164
 30
0.0
 10
181.8638812038712
 20
409.0480408176093
 30
0.0
 10
181.9537342890498
 20
409.0480408176026
 30
0.0
 10
182.0435873742163
 20
409.0480408176026
 30
0.0
 10
182.1334757373913
 20
409.048040817599
 30
0.0
 10
182.2177548973766
 20
409.048040817592
 30
0.0
 10
182.3020693353706
 20
409.048040817592
 30
0.0
 10
182.3863484953559
 20
409.0480408175849
 30
0.0
 10
182.4248015235582
 20
409.0480408175849
 30
0.0
 10
182.4632545517598
 20
409.0480408175779
 30
0.0
 10
182.5017075799627
 20
409.0480408175779
 30
0.0
 10
182.6850121070824
 20
409.0480408175708
 30
0.0
 10
182.8683166341892
 20
409.0480408175637
 30
0.0
 10
183.0516211613095
 20
409.0480408175532
 30
0.0
 10
183.1789042124597
 20
409.0480408175532
 30
0.0
 10
183.3061872636221
 20
409.0480408175461
 30
0.0
 10
183.433435036776
 20
409.0480408175391
 30
0.0
 10
183.489915126823
 20
409.0480408175391
 30
0.0
 10
183.5464304948785
 20
409.048040817532
 30
0.0
 10
183.6029105849384
 20
409.0480408175284
 30
0.0
 10
183.6909292137209
 20
409.0480408175284
 30
0.0
 10
183.7789478424912
 20
409.0480408175284
 30
0.0
 10
183.8669664712737
 20
409.0480408175214
 30
0.0
 10
183.9237640634001
 20
409.0480408175143
 30
0.0
 10
183.9805263775051
 20
409.0480408175143
 30
0.0
 10
184.0373239696321
 20
409.0480408175143
 30
0.0
 10
184.1250250963346
 20
409.0480408175073
 30
0.0
 10
184.2127262230506
 20
409.0480408175038
 30
0.0
 10
184.3004273497666
 20
409.0480408175038
 30
0.0
 10
184.3913740531687
 20
409.0480408174932
 30
0.0
 10
184.4823207565714
 20
409.0480408174896
 30
0.0
 10
184.5732674599863
 20
409.0480408174896
 30
0.0
 10
184.6183880316052
 20
409.0480408174896
 30
0.0
 10
184.6635086032369
 20
409.0480408174896
 30
0.0
 10
184.7086291748687
 20
409.0480408174826
 30
0.0
 10
184.8932742662612
 20
409.0480408174755
 30
0.0
 10
185.0779546356623
 20
409.0480408174614
 30
0.0
 10
185.2626350050768
 20
409.0480408174579
 30
0.0
 10
185.3668462393079
 20
409.0480408174508
 30
0.0
 10
185.4710927515482
 20
409.0480408174508
 30
0.0
 10
185.5753392638014
 20
409.0480408174437
 30
0.0
 10
185.6559142329853
 20
409.0480408174367
 30
0.0
 10
185.7364892021815
 20
409.0480408174367
 30
0.0
 10
185.8170994493868
 20
409.0480408174332
 30
0.0
 10
185.8884668586066
 20
409.0480408174226
 30
0.0
 10
185.9598342678379
 20
409.0480408174226
 30
0.0
 10
186.031236955079
 20
409.0480408174226
 30
0.0
 10
186.0821431199321
 20
409.0480408174226
 30
0.0
 10
186.1330845628066
 20
409.0480408174191
 30
0.0
 10
186.1839907276726
 20
409.048040817412
 30
0.0
 10
186.2768777214848
 20
409.048040817412
 30
0.0
 10
186.3697647153098
 20
409.048040817412
 30
0.0
 10
186.462651709122
 20
409.0480408173979
 30
0.0
 10
186.8020614195488
 20
409.0480408173873
 30
0.0
 10
187.1414711299633
 20
409.0480408173732
 30
0.0
 10
187.4808808403895
 20
409.0480408173626
 30
0.0
 10
187.5605738593903
 20
409.048040817352
 30
0.0
 10
187.6402668783918
 20
409.0480408173485
 30
0.0
 10
187.7199598974054
 20
409.0480408173485
 30
0.0
 10
187.8249119697971
 20
409.0480408173414
 30
0.0
 10
187.9298640421882
 20
409.0480408173344
 30
0.0
 10
188.0348161145799
 20
409.0480408173344
 30
0.0
 10
188.0831469848891
 20
409.0480408173344
 30
0.0
 10
188.1314778552112
 20
409.0480408173273
 30
0.0
 10
188.1798440035297
 20
409.0480408173202
 30
0.0
 10
188.230009330235
 20
409.0480408173202
 30
0.0
 10
188.2802099349368
 20
409.0480408173202
 30
0.0
 10
188.3303752616422
 20
409.0480408173202
 30
0.0
 10
188.416241931962
 20
409.0480408173167
 30
0.0
 10
188.5021438803033
 20
409.0480408173096
 30
0.0
 10
188.5880105506232
 20
409.0480408173096
 30
0.0
 10
188.9557485010822
 20
409.0480408172955
 30
0.0
 10
189.3234864515548
 20
409.0480408172708
 30
0.0
 10
189.6912244020145
 20
409.0480408172567
 30
0.0
 10
189.7414602847376
 20
409.0480408172567
 30
0.0
 10
189.7916961674479
 20
409.0480408172567
 30
0.0
 10
189.8419320501716
 20
409.0480408172496
 30
0.0
 10
189.9748595825328
 20
409.0480408172461
 30
0.0
 10
190.1078223929031
 20
409.048040817239
 30
0.0
 10
190.2407499252649
 20
409.048040817232
 30
0.0
 10
190.2602233854209
 20
409.048040817232
 30
0.0
 10
190.2796968455776
 20
409.048040817232
 30
0.0
 10
190.2991703057343
 20
409.048040817232
 30
0.0
 10
190.6442244973598
 20
409.0480408172214
 30
0.0
 10
190.9893139669939
 20
409.0480408172002
 30
0.0
 10
191.3344034366286
 20
409.0480408171791
 30
0.0
 10
191.3958930037401
 20
409.0480408171791
 30
0.0
 10
191.4573472928559
 20
409.0480408171791
 30
0.0
 10
191.5188368599808
 20
409.0480408171791
 30
0.0
 10
191.6385704175306
 20
409.0480408171684
 30
0.0
 10
191.7583039750682
 20
409.0480408171684
 30
0.0
 10
191.8780022546094
 20
409.0480408171614
 30
0.0
 10
191.9068596647748
 20
409.0480408171543
 30
0.0
 10
191.9357170749274
 20
409.0480408171543
 30
0.0
 10
191.9645392070843
 20
409.0480408171543
 30
0.0
 10
192.1127421167025
 20
409.0480408171473
 30
0.0
 10
192.2609097483114
 20
409.0480408171402
 30
0.0
 10
192.409112657943
 20
409.0480408171367
 30
0.0
 10
192.412464068656
 20
409.0480408171367
 30
0.0
 10
192.4158154793689
 20
409.0480408171367
 30
0.0
 10
192.4191668900818
 20
409.0480408171367
 30
0.0
 10
192.5813046126841
 20
409.0480408171296
 30
0.0
 10
192.7434423352741
 20
409.0480408171226
 30
0.0
 10
192.905580057877
 20
409.0480408171155
 30
0.0
 10
192.9657290607035
 20
409.0480408171085
 30
0.0
 10
193.0258427855343
 20
409.0480408171085
 30
0.0
 10
193.0859917883607
 20
409.0480408171049
 30
0.0
 10
193.1890388483514
 20
409.0480408171049
 30
0.0
 10
193.2920859083414
 20
409.0480408170979
 30
0.0
 10
193.3951329683321
 20
409.0480408170908
 30
0.0
 10
193.4620906266113
 20
409.0480408170908
 30
0.0
 10
193.5290835629118
 20
409.0480408170908
 30
0.0
 10
193.5960412211903
 20
409.0480408170837
 30
0.0
 10
193.9154130233451
 20
409.0480408170661
 30
0.0
 10
194.2347848254863
 20
409.0480408170523
 30
0.0
 10
194.5541213496191
 20
409.0480408170382
 30
0.0
 10
194.6339554806553
 20
409.0480408170382
 30
0.0
 10
194.7137896116916
 20
409.0480408170343
 30
0.0
 10
194.7936237427278
 20
409.0480408170273
 30
0.0
 10
194.8888390850473
 20
409.0480408170273
 30
0.0
 10
194.9840544273545
 20
409.0480408170203
 30
0.0
 10
195.0792344916654
 20
409.0480408170131
 30
0.0
 10
195.0974732215633
 20
409.0480408170131
 30
0.0
 10
195.1156766734392
 20
409.0480408170131
 30
0.0
 10
195.1339154033377
 20
409.0480408170131
 30
0.0
 10
195.2894208605196
 20
409.0480408170061
 30
0.0
 10
195.4448910396918
 20
409.0480408170029
 30
0.0
 10
195.6003964968737
 20
409.0480408169959
 30
0.0
 10
195.6126026874757
 20
409.0480408169888
 30
0.0
 10
195.6248088780778
 20
409.0480408169888
 30
0.0
 10
195.6369797906706
 20
409.0480408169888
 30
0.0
 10
195.7971419448548
 20
409.0480408169888
 30
0.0
 10
195.957268821017
 20
409.0480408169747
 30
0.0
 10
196.1173956971786
 20
409.0480408169676
 30
0.0
 10
196.1952542597961
 20
409.0480408169637
 30
0.0
 10
196.2731128224137
 20
409.0480408169637
 30
0.0
 10
196.3509713850184
 20
409.0480408169637
 30
0.0
 10
196.4284066115425
 20
409.0480408169567
 30
0.0
 10
196.5058065600575
 20
409.0480408169497
 30
0.0
 10
196.5832417865816
 20
409.0480408169497
 30
0.0
 10
196.6330543332113
 20
409.0480408169497
 30
0.0
 10
196.6828668798417
 20
409.0480408169426
 30
0.0
 10
196.7326794264714
 20
409.0480408169426
 30
0.0
 10
197.0242521586871
 20
409.0480408169284
 30
0.0
 10
197.3158248909029
 20
409.0480408169182
 30
0.0
 10
197.6074329011143
 20
409.048040816897
 30
0.0
 10
197.6701219204889
 20
409.048040816897
 30
0.0
 10
197.7327756618672
 20
409.048040816897
 30
0.0
 10
197.7954646812418
 20
409.048040816897
 30
0.0
 10
197.8931494840788
 20
409.0480408168861
 30
0.0
 10
197.990834286928
 20
409.0480408168861
 30
0.0
 10
198.0885190897651
 20
409.0480408168861
 30
0.0
 10
198.1176587239892
 20
409.0480408168794
 30
0.0
 10
198.1467983581997
 20
409.0480408168794
 30
0.0
 10
198.1759379924231
 20
409.0480408168794
 30
0.0
 10
198.4902297614823
 20
409.0480408168582
 30
0.0
 10
198.8045215305407
 20
409.0480408168476
 30
0.0
 10
199.1188485776083
 20
409.0480408168335
 30
0.0
 10
199.1597710663404
 20
409.0480408168335
 30
0.0
 10
199.2006935550725
 20
409.0480408168335
 30
0.0
 10
199.2416160438045
 20
409.0480408168335
 30
0.0
 10
199.3281177182638
 20
409.0480408168229
 30
0.0
 10
199.4146193927238
 20
409.0480408168229
 30
0.0
 10
199.5011210671773
 20
409.0480408168229
 30
0.0
 10
199.5554139207647
 20
409.0480408168158
 30
0.0
 10
199.6096714963436
 20
409.0480408168088
 30
0.0
 10
199.663929071916
 20
409.0480408168088
 30
0.0
 10
199.9576537625886
 20
409.0480408167947
 30
0.0
 10
200.2513784532613
 20
409.0480408167841
 30
0.0
 10
200.5451384219424
 20
409.04804081677
 30
0.0
 10
200.5975615411251
 20
409.04804081677
 30
0.0
 10
200.6499846603136
 20
409.04804081677
 30
0.0
 10
200.7024077795028
 20
409.0480408167629
 30
0.0
 10
200.7562067409791
 20
409.0480408167594
 30
0.0
 10
200.810005702456
 20
409.0480408167594
 30
0.0
 10
200.8638046639323
 20
409.0480408167594
 30
0.0
 10
200.9227542145155
 20
409.0480408167594
 30
0.0
 10
200.9817390431015
 20
409.0480408167488
 30
0.0
 10
201.0406885936783
 20
409.0480408167452
 30
0.0
 10
201.1820475698416
 20
409.0480408167452
 30
0.0
 10
201.32337126799
 20
409.0480408167311
 30
0.0
 10
201.4646949661506
 20
409.0480408167311
 30
0.0
 10
201.5447760432363
 20
409.0480408167241
 30
0.0
 10
201.6248571203219
 20
409.048040816717
 30
0.0
 10
201.7049381974134
 20
409.048040816717
 30
0.0
 10
201.7726366938595
 20
409.048040816717
 30
0.0
 10
201.84029991229
 20
409.0480408167135
 30
0.0
 10
201.9079984087419
 20
409.0480408167064
 30
0.0
 10
201.9490620094966
 20
409.0480408167064
 30
0.0
 10
201.9901256102576
 20
409.0480408167064
 30
0.0
 10
202.0311892110251
 20
409.0480408167064
 30
0.0
 10
202.2852966992422
 20
409.0480408166923
 30
0.0
 10
202.539404187465
 20
409.0480408166782
 30
0.0
 10
202.7935116756885
 20
409.0480408166676
 30
0.0
 10
202.8409605958082
 20
409.0480408166676
 30
0.0
 10
202.8884095159286
 20
409.0480408166676
 30
0.0
 10
202.9358584360548
 20
409.0480408166676
 30
0.0
 10
203.3098053158485
 20
409.0480408166464
 30
0.0
 10
203.6837874736443
 20
409.0480408166288
 30
0.0
 10
204.057734353438
 20
409.0480408166182
 30
0.0
 10
204.1032429831411
 20
409.0480408166182
 30
0.0
 10
204.1487516128578
 20
409.0480408166076
 30
0.0
 10
204.1942249645588
 20
409.0480408166041
 30
0.0
 10
204.2027975203835
 20
409.0480408166041
 30
0.0
 10
204.211370076214
 20
409.0480408166041
 30
0.0
 10
204.2199426320451
 20
409.0480408166041
 30
0.0
 10
204.3085609869528
 20
409.0480408166041
 30
0.0
 10
204.3971440638513
 20
409.0480408165971
 30
0.0
 10
204.4857624187595
 20
409.0480408165899
 30
0.0
 10
204.5266849074916
 20
409.0480408165899
 30
0.0
 10
204.5676073962237
 20
409.0480408165899
 30
0.0
 10
204.6085298849557
 20
409.0480408165899
 30
0.0
 10
204.7356365460799
 20
409.0480408165829
 30
0.0
 10
204.8627432072055
 20
409.0480408165758
 30
0.0
 10
204.9898498683239
 20
409.0480408165723
 30
0.0
 10
205.0777626630802
 20
409.0480408165653
 30
0.0
 10
205.1656401798273
 20
409.0480408165653
 30
0.0
 10
205.2535176965872
 20
409.0480408165582
 30
0.0
 10
205.3713462417238
 20
409.0480408165511
 30
0.0
 10
205.489139508857
 20
409.0480408165511
 30
0.0
 10
205.6069680539993
 20
409.0480408165476
 30
0.0
 10
205.6167400620801
 20
409.0480408165405
 30
0.0
 10
205.6265473481764
 20
409.0480408165405
 30
0.0
 10
205.636319356263
 20
409.0480408165405
 30
0.0
 10
205.8043485061141
 20
409.0480408165405
 30
0.0
 10
205.9723423779555
 20
409.0480408165265
 30
0.0
 10
206.1403362497974
 20
409.0480408165194
 30
0.0
 10
206.219429542686
 20
409.0480408165123
 30
0.0
 10
206.2985228355623
 20
409.0480408165123
 30
0.0
 10
206.377616128438
 20
409.0480408165123
 30
0.0
 10
206.4702208981929
 20
409.0480408165017
 30
0.0
 10
206.5627903899379
 20
409.0480408165017
 30
0.0
 10
206.655395159705
 20
409.0480408165017
 30
0.0
 10
206.6822417234297
 20
409.0480408164947
 30
0.0
 10
206.7090882871615
 20
409.0480408164947
 30
0.0
 10
206.7358995728841
 20
409.0480408164947
 30
0.0
 10
206.874647976488
 20
409.0480408164876
 30
0.0
 10
207.013361102084
 20
409.0480408164806
 30
0.0
 10
207.1520742276793
 20
409.0480408164771
 30
0.0
 10
207.2438676032688
 20
409.0480408164771
 30
0.0
 10
207.3356257008484
 20
409.0480408164629
 30
0.0
 10
207.4274190764379
 20
409.0480408164629
 30
0.0
 10
207.4950470168592
 20
409.0480408164629
 30
0.0
 10
207.5626749572941
 20
409.0480408164559
 30
0.0
 10
207.6303381757304
 20
409.0480408164488
 30
0.0
 10
207.6736948469773
 20
409.0480408164488
 30
0.0
 10
207.7170867962398
 20
409.0480408164488
 30
0.0
 10
207.7604787455017
 20
409.0480408164488
 30
0.0
 10
207.8703697389472
 20
409.0480408164418
 30
0.0
 10
207.9802607323921
 20
409.0480408164347
 30
0.0
 10
208.0901517258433
 20
409.0480408164347
 30
0.0
 10
208.1880481967335
 20
409.0480408164241
 30
0.0
 10
208.2859799456264
 20
409.0480408164241
 30
0.0
 10
208.383876416516
 20
409.0480408164241
 30
0.0
 10
208.4330892370147
 20
409.048040816417
 30
0.0
 10
208.4823373355285
 20
409.04804081641
 30
0.0
 10
208.5315501560209
 20
409.04804081641
 30
0.0
 10
208.5810099225749
 20
409.04804081641
 30
0.0
 10
208.6305049671381
 20
409.04804081641
 30
0.0
 10
208.6799647336921
 20
409.04804081641
 30
0.0
 10
208.7715111632257
 20
409.0480408163959
 30
0.0
 10
208.8630575927593
 20
409.0480408163959
 30
0.0
 10
208.9546040222929
 20
409.0480408163959
 30
0.0
 10
208.9720313580125
 20
409.0480408163923
 30
0.0
 10
208.9894939717349
 20
409.0480408163923
 30
0.0
 10
209.0069213074488
 20
409.0480408163923
 30
0.0
 10
209.1243970725219
 20
409.0480408163853
 30
0.0
 10
209.2419081155977
 20
409.0480408163853
 30
0.0
 10
209.3593838806579
 20
409.0480408163712
 30
0.0
 10
209.4129006180763
 20
409.0480408163712
 30
0.0
 10
209.4664173555016
 20
409.0480408163712
 30
0.0
 10
209.5198988149044
 20
409.0480408163712
 30
0.0
 10
209.5952879169985
 20
409.0480408163641
 30
0.0
 10
209.670641741077
 20
409.0480408163606
 30
0.0
 10
209.7460308431577
 20
409.0480408163606
 30
0.0
 10
209.7809207926068
 20
409.0480408163606
 30
0.0
 10
209.8158460200515
 20
409.0480408163606
 30
0.0
 10
209.8507712475091
 20
409.0480408163535
 30
0.0
 10
209.9387193202739
 20
409.0480408163464
 30
0.0
 10
210.0266673930394
 20
409.0480408163464
 30
0.0
 10
210.1146507438134
 20
409.0480408163394
 30
0.0
  0
ENDBLK
  5
130
330
12D
100
AcDbEntity
  8
0
100
AcDbBlockEnd
  0
BLOCK
  5
135
330
133
100
AcDbEntity
  8
0
100
AcDbBlockBegin
  2
block 46
 70
     0
 10
0.0
 20
0.0
 30
0.0
  3
block 46
  1

  0
SPLINE
  5
137
330
133
100
AcDbEntity
  8
0
 62
   250
370
    25
100
AcDbSpline
210
0.0
220
0.0
230
1.0
 70
     8
 71
     3
 72
    11
 73
     7
 74
     0
 42
0.0000000001
 43
0.0000000001
 12
1.0
 22
0.0
 32
0.0
 13
1.0
 23
0.0
 33
0.0
 40
0.0
 40
0.0
 40
0.0
 40
0.0
 40
1.0
 40
1.0
 40
1.0
 40
2.0
 40
2.0
 40
2.0
 40
2.0
 10
359.6215413589769
 20
419.4099324585709
 30
0.0
 10
368.5825433290045
 20
419.409932458165
 30
0.0
 10
377.5435452990391
 20
419.40993245777
 30
0.0
 10
386.5045472690737
 20
419.4099324573642
 30
0.0
 10
388.8935739388266
 20
419.4101794033151
 30
0.0
 10
391.1174642554003
 20
420.6289640072653
 30
0.0
 10
392.4031006838077
 20
422.6425621208594
 30
0.0
  0
ENDBLK
  5
136
330
133
100
AcDbEntity
  8
0
100
AcDbBlockEnd
  0
BLOCK
  5
13A
330
138
100
AcDbEntity
  8
0
100
AcDbBlockBegin
  2
block 47
 70
     0
 10
0.0
 20
0.0
 30
0.0
  3
block 47
  1

  0
SPLINE
  5
13C
330
138
100
AcDbEntity
  8
0
 62
   250
370
    25
100
AcDbSpline
210
0.0
220
0.0
230
1.0
 70
     8
 71
     3
 72
    11
 73
     7
 74
     0
 42
0.0000000001
 43
0.0000000001
 12
1.0
 22
0.0
 32
0.0
 13
1.0
 23
0.0
 33
0.0
 40
0.0
 40
0.0
 40
0.0
 40
0.0
 40
1.0
 40
1.0
 40
1.0
 40
2.0
 40
2.0
 40
2.0
 40
2.0
 10
359.6215413589769
 20
419.4099324585709
 30
0.0
 10
356.5614564300305
 20
419.4102852387826
 30
0.0
 10
353.5742205866807
 20
420.3436002060567
 30
0.0
 10
351.0581930899094
 20
422.0853459938152
 30
0.0
 10
350.6816709155783
 20
422.3459446354399
 30
0.0
 10
350.3045490151291
 20
422.6056966048776
 30
0.0
 10
349.9268273885425
 20
422.8646019021381
 30
0.0
  0
ENDBLK
  5
13B
330
138
100
AcDbEntity
  8
0
100
AcDbBlockEnd
  0
BLOCK
  5
13F
330
13D
100
AcDbEntity
  8
0
100
AcDbBlockBegin
  2
block 48
 70
     0
 10
0.0
 20
0.0
 30
0.0
  3
block 48
  1

  0
SPLINE
  5
141
330
13D
100
AcDbEntity
  8
0
  6
AI-Linetype-21
 62
     6
370
    25
100
AcDbSpline
210
0.0
220
0.0
230
1.0
 70
     8
 71
     3
 72
    14
 73
    10
 74
     0
 42
0.0000000001
 43
0.0000000001
 12
1.0
 22
0.0
 32
0.0
 13
1.0
 23
0.0
 33
0.0
 40
0.0
 40
0.0
 40
0.0
 40
0.0
 40
1.0
 40
1.0
 40
1.0
 40
2.0
 40
2.0
 40
2.0
 40
3.0
 40
3.0
 40
3.0
 40
3.0
 10
237.7587796684935
 20
457.4102027202679
 30
0.0
 10
261.7754121890703
 20
459.3421322454068
 30
0.0
 10
284.7771317112117
 20
463.8397607020494
 30
0.0
 10
307.6773916838445
 20
471.406999149661
 30
0.0
 10
313.614889610625
 20
473.5310895443943
 30
0.0
 10
345.7829347705
 20
486.8284435309193
 30
0.0
 10
353.8910523754772
 20
491.4104055317609
 30
0.0
 10
373.7320431686758
 20
502.6227078567495
 30
0.0
 10
391.9638894942487
 20
515.058347593881
 30
0.0
 10
408.6495051051974
 20
530.6358809869558
 30
0.0
  0
ENDBLK
  5
140
330
13D
100
AcDbEntity
  8
0
100
AcDbBlockEnd
  0
BLOCK
  5
145
330
143
100
AcDbEntity
  8
0
100
AcDbBlockBegin
  2
block 49
 70
     0
 10
0.0
 20
0.0
 30
0.0
  3
block 49
  1

  0
SPLINE
  5
147
330
143
100
AcDbEntity
  8
0
 62
   250
370
    25
100
AcDbSpline
210
0.0
220
0.0
230
1.0
 70
     8
 71
     3
 72
     8
 73
     4
 74
     0
 42
0.0000000001
 43
0.0000000001
 12
1.0
 22
0.0
 32
0.0
 13
1.0
 23
0.0
 33
0.0
 40
0.0
 40
0.0
 40
0.0
 40
0.0
 40
1.0
 40
1.0
 40
1.0
 40
1.0
 10
349.9268273885425
 20
422.8646019021381
 30
0.0
 10
346.9497516114039
 20
424.9050818576558
 30
0.0
 10
343.9383150549372
 20
426.8902106193683
 30
0.0
 10
340.8896249225179
 20
428.8219990336888
 30
0.0
  0
ENDBLK
  5
146
330
143
100
AcDbEntity
  8
0
100
AcDbBlockEnd
  0
BLOCK
  5
14A
330
148
100
AcDbEntity
  8
0
100
AcDbBlockBegin
  2
block 50
 70
     0
 10
0.0
 20
0.0
 30
0.0
  3
block 50
  1

  0
SPLINE
  5
14C
330
148
100
AcDbEntity
  8
0
  6
AI-Linetype-22
 62
     6
370
    25
100
AcDbSpline
210
0.0
220
0.0
230
1.0
 70
     8
 71
     3
 72
    20
 73
    16
 74
     0
 42
0.0000000001
 43
0.0000000001
 12
1.0
 22
0.0
 32
0.0
 13
1.0
 23
0.0
 33
0.0
 40
0.0
 40
0.0
 40
0.0
 40
0.0
 40
1.0
 40
1.0
 40
1.0
 40
2.0
 40
2.0
 40
2.0
 40
3.0
 40
3.0
 40
3.0
 40
4.0
 40
4.0
 40
4.0
 40
5.0
 40
5.0
 40
5.0
 40
5.0
 10
215.1280083956561
 20
456.455050667479
 30
0.0
 10
216.7385552733042
 20
456.4518050907153
 30
0.0
 10
218.3490315949353
 20
456.4566734556809
 30
0.0
 10
219.9595079165728
 20
456.4695852063585
 30
0.0
 10
219.9595079165728
 20
456.4695852063585
 30
0.0
 10
219.961624597014
 20
456.4699027084363
 30
0.0
 10
219.961624597014
 20
456.4699027084363
 30
0.0
 10
221.7482792882462
 20
456.5159405081695
 30
0.0
 10
223.5342989753376
 20
456.5763364569831
 30
0.0
 10
225.319965882347
 20
456.6510552768453
 30
0.0
 10
229.4417777258432
 20
456.8231766753831
 30
0.0
 10
233.5564634118188
 20
457.0741444207453
 30
0.0
 10
237.6686443592562
 20
457.4042054589877
 30
0.0
 10
231.7657164717203
 20
457.0954523373674
 30
0.0
 10
225.8628238621936
 20
456.7866639377509
 30
0.0
 10
219.9599312526597
 20
456.4779108161374
 30
0.0
  0
ENDBLK
  5
14B
330
148
100
AcDbEntity
  8
0
100
AcDbBlockEnd
  0
BLOCK
  5
150
330
14E
100
AcDbEntity
  8
0
100
AcDbBlockBegin
  2
block 51
 70
     0
 10
0.0
 20
0.0
 30
0.0
  3
block 51
  1

  0
SPLINE
  5
152
330
14E
100
AcDbEntity
  8
0
 62
   250
370
    25
100
AcDbSpline
210
0.0
220
0.0
230
1.0
 70
     8
 71
     3
 72
    11
 73
     7
 74
     0
 42
0.0000000001
 43
0.0000000001
 12
1.0
 22
0.0
 32
0.0
 13
1.0
 23
0.0
 33
0.0
 40
0.0
 40
0.0
 40
0.0
 40
0.0
 40
1.0
 40
1.0
 40
1.0
 40
2.0
 40
2.0
 40
2.0
 40
2.0
 10
-293.8352498560005
 20
572.6490246309517
 30
0.0
 10
-293.6186428897653
 20
572.9899512956836
 30
0.0
 10
-293.3739546295392
 20
573.301279712106
 30
0.0
 10
-293.0938472497585
 20
573.5922879961855
 30
0.0
 10
-293.0938472497585
 20
573.5922879961855
 30
0.0
 10
-293.0964931003281
 20
573.5967683031369
 30
0.0
 10
-293.0974103285191
 20
573.5992377636672
 30
0.0
  0
ENDBLK
  5
151
330
14E
100
AcDbEntity
  8
0
100
AcDbBlockEnd
  0
BLOCK
  5
155
330
153
100
AcDbEntity
  8
0
100
AcDbBlockBegin
  2
block 52
 70
     0
 10
0.0
 20
0.0
 30
0.0
  3
block 52
  1

  0
SPLINE
  5
157
330
153
100
AcDbEntity
  8
0
 62
   250
370
    25
100
AcDbSpline
210
0.0
220
0.0
230
1.0
 70
     8
 71
     3
 72
    14
 73
    10
 74
     0
 42
0.0000000001
 43
0.0000000001
 12
1.0
 22
0.0
 32
0.0
 13
1.0
 23
0.0
 33
0.0
 40
0.0
 40
0.0
 40
0.0
 40
0.0
 40
1.0
 40
1.0
 40
1.0
 40
2.0
 40
2.0
 40
2.0
 40
3.0
 40
3.0
 40
3.0
 40
3.0
 10
-288.7906711694976
 20
575.4314363624151
 30
0.0
 10
-290.4148706360572
 20
575.4261093833537
 30
0.0
 10
-291.9674910253739
 20
574.7624947838226
 30
0.0
 10
-293.0938472497585
 20
573.5922879961855
 30
0.0
 10
-293.0938472497585
 20
573.5922879961855
 30
0.0
 10
-293.0904958390478
 20
573.586855183022
 30
0.0
 10
-293.0904958390478
 20
573.586855183022
 30
0.0
 10
-294.1549038822091
 20
572.4825477134397
 30
0.0
 10
-294.6551107509957
 20
571.3529459124393
 30
0.0
 10
-294.7573111388699
 20
569.8225859459114
 30
0.0
  0
ENDBLK
  5
156
330
153
100
AcDbEntity
  8
0
100
AcDbBlockEnd
  0
BLOCK
  5
15A
330
158
100
AcDbEntity
  8
0
100
AcDbBlockBegin
  2
block 53
 70
     0
 10
0.0
 20
0.0
 30
0.0
  3
block 53
  1

  0
SPLINE
  5
15C
330
158
100
AcDbEntity
  8
0
 62
   250
370
    25
100
AcDbSpline
210
0.0
220
0.0
230
1.0
 70
     8
 71
     3
 72
    11
 73
     7
 74
     0
 42
0.0000000001
 43
0.0000000001
 12
1.0
 22
0.0
 32
0.0
 13
1.0
 23
0.0
 33
0.0
 40
0.0
 40
0.0
 40
0.0
 40
0.0
 40
1.0
 40
1.0
 40
1.0
 40
2.0
 40
2.0
 40
2.0
 40
2.0
 10
503.7271220820946
 20
573.5834331805218
 30
0.0
 10
503.7271220820946
 20
573.5834331805218
 30
0.0
 10
503.7297326546534
 20
573.5883368235686
 30
0.0
 10
503.7297326546534
 20
573.5883368235686
 30
0.0
 10
503.7998653336131
 20
573.515558294032
 30
0.0
 10
503.868022444156
 20
573.4411216981522
 30
0.0
 10
503.934380376303
 20
573.3649212018801
 30
0.0
  0
ENDBLK
  5
15B
330
158
100
AcDbEntity
  8
0
100
AcDbBlockEnd
  0
BLOCK
  5
15F
330
15D
100
AcDbEntity
  8
0
100
AcDbBlockBegin
  2
block 54
 70
     0
 10
0.0
 20
0.0
 30
0.0
  3
block 54
  1

  0
SPLINE
  5
161
330
15D
100
AcDbEntity
  8
0
 62
   250
370
    25
100
AcDbSpline
210
0.0
220
0.0
230
1.0
 70
     8
 71
     3
 72
    11
 73
     7
 74
     0
 42
0.0000000001
 43
0.0000000001
 12
1.0
 22
0.0
 32
0.0
 13
1.0
 23
0.0
 33
0.0
 40
0.0
 40
0.0
 40
0.0
 40
0.0
 40
1.0
 40
1.0
 40
1.0
 40
2.0
 40
2.0
 40
2.0
 40
2.0
 10
503.7358357499579
 20
573.599202449885
 30
0.0
 10
503.734318795629
 20
573.5952513130469
 30
0.0
 10
503.7318493350985
 20
573.5918999023289
 30
0.0
 10
503.7297326546534
 20
573.5883368235686
 30
0.0
 10
502.6019653100662
 20
574.7587200013432
 30
0.0
 10
501.0476162984385
 20
575.4215232068318
 30
0.0
 10
499.4222879356381
 20
575.4251215636838
 30
0.0
  0
ENDBLK
  5
160
330
15D
100
AcDbEntity
  8
0
100
AcDbBlockEnd
  0
BLOCK
  5
164
330
162
100
AcDbEntity
  8
0
100
AcDbBlockBegin
  2
block 55
 70
     0
 10
0.0
 20
0.0
 30
0.0
  3
block 55
  1

  0
SPLINE
  5
166
330
162
100
AcDbEntity
  8
0
 62
   250
370
    25
100
AcDbSpline
210
0.0
220
0.0
230
1.0
 70
     8
 71
     3
 72
     8
 73
     4
 74
     0
 42
0.0000000001
 43
0.0000000001
 12
1.0
 22
0.0
 32
0.0
 13
1.0
 23
0.0
 33
0.0
 40
0.0
 40
0.0
 40
0.0
 40
0.0
 40
1.0
 40
1.0
 40
1.0
 40
1.0
 10
-236.9282836765749
 20
529.503095062862
 30
0.0
 10
-230.5805353927471
 20
515.8902997419744
 30
0.0
 10
-224.6559943261544
 20
503.185075574137
 30
0.0
 10
-218.3082460423263
 20
489.572244975239
 30
0.0
  0
ENDBLK
  5
165
330
162
100
AcDbEntity
  8
0
100
AcDbBlockEnd
  0
BLOCK
  5
169
330
167
100
AcDbEntity
  8
0
100
AcDbBlockBegin
  2
block 56
 70
     0
 10
0.0
 20
0.0
 30
0.0
  3
block 56
  1

  0
SPLINE
  5
16B
330
167
100
AcDbEntity
  8
0
  6
AI-Linetype-23
 62
     6
370
    25
100
AcDbSpline
210
0.0
220
0.0
230
1.0
 70
     8
 71
     3
 72
    35
 73
    31
 74
     0
 42
0.0000000001
 43
0.0000000001
 12
1.0
 22
0.0
 32
0.0
 13
1.0
 23
0.0
 33
0.0
 40
0.0
 40
0.0
 40
0.0
 40
0.0
 40
1.0
 40
1.0
 40
1.0
 40
2.0
 40
2.0
 40
2.0
 40
3.0
 40
3.0
 40
3.0
 40
4.0
 40
4.0
 40
4.0
 40
5.0
 40
5.0
 40
5.0
 40
6.0
 40
6.0
 40
6.0
 40
7.0
 40
7.0
 40
7.0
 40
8.0
 40
8.0
 40
8.0
 40
9.0
 40
9.0
 40
9.0
 40
10.0
 40
10.0
 40
10.0
 40
10.0
 10
-88.70298475680265
 20
563.0059576541748
 30
0.0
 10
-88.3064246741931
 20
562.8327073591953
 30
0.0
 10
-87.9122987741106
 20
562.6537773049923
 30
0.0
 10
-87.52028955447001
 20
562.4704727778588
 30
0.0
 10
-87.11632109028292
 20
562.281559047537
 30
0.0
 10
-86.71457514057042
 20
562.0879533422074
 30
0.0
 10
-86.31526337337887
 20
561.8894087158238
 30
0.0
 10
-85.51794512527226
 20
561.4929544671946
 30
0.0
 10
-84.73039888525285
 20
561.0767445343565
 30
0.0
 10
-83.95230715124673
 20
560.6437069919256
 30
0.0
 10
-82.23991266590278
 20
559.6906716184953
 30
0.0
 10
-80.57323847833145
 20
558.6561440476758
 30
0.0
 10
-78.94882734377688
 20
557.5600210757171
 30
0.0
 10
-78.2846130180696
 20
557.1117434340429
 30
0.0
 10
-77.6271720698126
 20
556.6541171203703
 30
0.0
 10
-76.97608116290543
 20
556.1869657446606
 30
0.0
 10
-73.30039500273477
 20
553.551204690098
 30
0.0
 10
-69.8532044973281
 20
550.6648639480716
 30
0.0
 10
-66.47078441374707
 20
547.673006685548
 30
0.0
 10
-65.95286798525692
 20
547.2152745378579
 30
0.0
 10
-65.43932602970432
 20
546.7556726557644
 30
0.0
 10
-64.92712463843033
 20
546.2946243753631
 30
0.0
 10
-64.25049245407784
 20
545.685584853383
 30
0.0
 10
-63.5761180622213
 20
545.0740053148584
 30
0.0
 10
-62.90350757073035
 20
544.4604854859232
 30
0.0
 10
-60.46124638772427
 20
542.232855700501
 30
0.0
 10
-58.04205702162697
 20
539.9801079737066
 30
0.0
 10
-55.60491114971256
 20
537.7469042631034
 30
0.0
 10
-54.69819580028116
 20
536.9160719077775
 30
0.0
 10
-53.7890109903235
 20
536.0879206810354
 30
0.0
 10
-52.87527531739012
 20
535.2648142093576
 30
0.0
  0
ENDBLK
  5
16A
330
167
100
AcDbEntity
  8
0
100
AcDbBlockEnd
  0
BLOCK
  5
16F
330
16D
100
AcDbEntity
  8
0
100
AcDbBlockBegin
  2
block 57
 70
     0
 10
0.0
 20
0.0
 30
0.0
  3
block 57
  1

  0
SPLINE
  5
171
330
16D
100
AcDbEntity
  8
0
 62
   250
370
    25
100
AcDbSpline
210
0.0
220
0.0
230
1.0
 70
     8
 71
     3
 72
     8
 73
     4
 74
     0
 42
0.0000000001
 43
0.0000000001
 12
1.0
 22
0.0
 32
0.0
 13
1.0
 23
0.0
 33
0.0
 40
0.0
 40
0.0
 40
0.0
 40
0.0
 40
1.0
 40
1.0
 40
1.0
 40
1.0
 10
-218.3082460423263
 20
489.572244975239
 30
0.0
 10
-217.2467307959292
 20
487.2958962614858
 30
0.0
 10
-215.1778167665531
 20
485.6502124882471
 30
0.0
 10
-212.7210210443643
 20
485.127992142704
 30
0.0
  0
ENDBLK
  5
170
330
16D
100
AcDbEntity
  8
0
100
AcDbBlockEnd
  0
BLOCK
  5
174
330
172
100
AcDbEntity
  8
0
100
AcDbBlockBegin
  2
block 58
 70
     0
 10
0.0
 20
0.0
 30
0.0
  3
block 58
  1

  0
SPLINE
  5
176
330
172
100
AcDbEntity
  8
0
 62
   250
370
    25
100
AcDbSpline
210
0.0
220
0.0
230
1.0
 70
     8
 71
     3
 72
    23
 73
    19
 74
     0
 42
0.0000000001
 43
0.0000000001
 12
1.0
 22
0.0
 32
0.0
 13
1.0
 23
0.0
 33
0.0
 40
0.0
 40
0.0
 40
0.0
 40
0.0
 40
1.0
 40
1.0
 40
1.0
 40
2.0
 40
2.0
 40
2.0
 40
3.0
 40
3.0
 40
3.0
 40
4.0
 40
4.0
 40
4.0
 40
5.0
 40
5.0
 40
5.0
 40
6.0
 40
6.0
 40
6.0
 40
6.0
 10
19.6574723283379
 20
428.8184712473641
 30
0.0
 10
27.62222336581324
 20
429.1251429664399
 30
0.0
 10
35.59018470197314
 20
429.3427377165132
 30
0.0
 10
43.55906326632085
 20
429.5113665921286
 30
0.0
 10
52.88261731971862
 20
429.7086764878131
 30
0.0
 10
62.2074061033784
 20
429.8389934471987
 30
0.0
 10
71.53268877914607
 20
429.9165345073271
 30
0.0
 10
76.55518343281184
 20
429.9583036680136
 30
0.0
 10
81.57785447650872
 20
429.984762173436
 30
0.0
 10
86.6004902422038
 20
430.0044473014154
 30
0.0
 10
90.76558820092215
 20
430.020781018705
 30
0.0
 10
94.93068615964049
 20
430.0324933170185
 30
0.0
 10
99.09574884034966
 20
430.0436411672115
 30
0.0
 10
104.414472923227
 20
430.0578582040134
 30
0.0
 10
109.7331970060915
 20
430.0712285686239
 30
0.0
 10
115.0519210889689
 20
430.0831172569198
 30
0.0
 10
136.8077977750824
 20
430.131695072305
 30
0.0
 10
306.4342299746996
 20
429.2340814411667
 30
0.0
 10
328.1901419388095
 20
429.2341519962
 30
0.0
  0
ENDBLK
  5
175
330
172
100
AcDbEntity
  8
0
100
AcDbBlockEnd
  0
BLOCK
  5
179
330
177
100
AcDbEntity
  8
0
100
AcDbBlockBegin
  2
block 59
 70
     0
 10
0.0
 20
0.0
 30
0.0
  3
block 59
  1

  0
SPLINE
  5
17B
330
177
100
AcDbEntity
  8
0
 62
   250
370
    25
100
AcDbSpline
210
0.0
220
0.0
230
1.0
 70
     8
 71
     3
 72
    11
 73
     7
 74
     0
 42
0.0000000001
 43
0.0000000001
 12
1.0
 22
0.0
 32
0.0
 13
1.0
 23
0.0
 33
0.0
 40
0.0
 40
0.0
 40
0.0
 40
0.0
 40
1.0
 40
1.0
 40
1.0
 40
2.0
 40
2.0
 40
2.0
 40
2.0
 10
485.7115255881414
 20
575.5067901517193
 30
0.0
 10
383.9146123534763
 20
575.9900635814105
 30
0.0
 10
282.1176991188055
 20
576.2798018617967
 30
0.0
 10
180.3196922658907
 20
576.3760402709062
 30
0.0
 10
36.44571166911835
 20
576.510449486041
 30
0.0
 10
-107.4260464131987
 20
576.2575061785341
 30
0.0
 10
-251.2986511677157
 20
575.617175070368
 30
0.0
  0
ENDBLK
  5
17A
330
177
100
AcDbEntity
  8
0
100
AcDbBlockEnd
  0
BLOCK
  5
17E
330
17C
100
AcDbEntity
  8
0
100
AcDbBlockBegin
  2
block 60
 70
     0
 10
0.0
 20
0.0
 30
0.0
  3
block 60
  1

  0
SPLINE
  5
180
330
17C
100
AcDbEntity
  8
0
  6
AI-Linetype-24
 62
     6
370
    25
100
AcDbSpline
210
0.0
220
0.0
230
1.0
 70
     8
 71
     3
 72
     8
 73
     4
 74
     0
 42
0.0000000001
 43
0.0000000001
 12
1.0
 22
0.0
 32
0.0
 13
1.0
 23
0.0
 33
0.0
 40
0.0
 40
0.0
 40
0.0
 40
0.0
 40
1.0
 40
1.0
 40
1.0
 40
1.0
 10
451.9481923611883
 20
531.2354346772341
 30
0.0
 10
456.4272568648238
 20
533.8834087520329
 30
0.0
 10
461.5266514211178
 20
535.3255316335535
 30
0.0
 10
466.7469154118086
 20
535.4070551123873
 30
0.0
  0
ENDBLK
  5
17F
330
17C
100
AcDbEntity
  8
0
100
AcDbBlockEnd
  0
BLOCK
  5
184
330
182
100
AcDbEntity
  8
0
100
AcDbBlockBegin
  2
block 61
 70
     0
 10
0.0
 20
0.0
 30
0.0
  3
block 61
  1

  0
SPLINE
  5
186
330
182
100
AcDbEntity
  8
0
 62
   250
370
    25
100
AcDbSpline
210
0.0
220
0.0
230
1.0
 70
     8
 71
     3
 72
    11
 73
     7
 74
     0
 42
0.0000000001
 43
0.0000000001
 12
1.0
 22
0.0
 32
0.0
 13
1.0
 23
0.0
 33
0.0
 40
0.0
 40
0.0
 40
0.0
 40
0.0
 40
1.0
 40
1.0
 40
1.0
 40
2.0
 40
2.0
 40
2.0
 40
2.0
 10
392.4031006838077
 20
422.6425621208594
 30
0.0
 10
411.3350434247008
 20
452.2829676544583
 30
0.0
 10
426.7471935206101
 20
483.0631350554195
 30
0.0
 10
439.1381350519764
 20
515.9787508081532
 30
0.0
 10
441.1730235812191
 20
521.3848262692741
 30
0.0
 10
444.7209495710624
 20
526.0776600037141
 30
0.0
 10
449.3424842100351
 20
529.5056205329959
 30
0.0
  0
ENDBLK
  5
185
330
182
100
AcDbEntity
  8
0
100
AcDbBlockEnd
  0
BLOCK
  5
189
330
187
100
AcDbEntity
  8
0
100
AcDbBlockBegin
  2
block 62
 70
     0
 10
0.0
 20
0.0
 30
0.0
  3
block 62
  1

  0
SPLINE
  5
18B
330
187
100
AcDbEntity
  8
0
 62
   250
370
    25
100
AcDbSpline
210
0.0
220
0.0
230
1.0
 70
     8
 71
     3
 72
    26
 73
    22
 74
     0
 42
0.0000000001
 43
0.0000000001
 12
1.0
 22
0.0
 32
0.0
 13
1.0
 23
0.0
 33
0.0
 40
0.0
 40
0.0
 40
0.0
 40
0.0
 40
1.0
 40
1.0
 40
1.0
 40
2.0
 40
2.0
 40
2.0
 40
3.0
 40
3.0
 40
3.0
 40
4.0
 40
4.0
 40
4.0
 40
5.0
 40
5.0
 40
5.0
 40
6.0
 40
6.0
 40
6.0
 40
7.0
 40
7.0
 40
7.0
 40
7.0
 10
-54.45082641533646
 20
451.4832152447257
 30
0.0
 10
-50.38951635479791
 20
450.5302857052184
 30
0.0
 10
-46.90828257211934
 20
447.9295204341217
 30
0.0
 10
-44.84268467554013
 20
444.3051990526985
 30
0.0
 10
-40.66368718218661
 20
436.9721360178396
 30
0.0
 10
-36.30678269686852
 20
429.7558431878861
 30
0.0
 10
-31.76371616581579
 20
422.6425621399025
 30
0.0
 10
-30.47807973758993
 20
420.6289640261951
 30
0.0
 10
-28.25418942112947
 20
419.4101794220405
 30
0.0
 10
-25.86516275137175
 20
419.4099324758781
 30
0.0
 10
-16.90416078134325
 20
419.4099324754793
 30
0.0
 10
-7.943158811308337
 20
419.4099324750738
 30
0.0
 10
1.017843158726258
 20
419.4099324746715
 30
0.0
 10
4.077928087665654
 20
419.4103205326225
 30
0.0
 10
7.06516393110397
 20
420.343600221618
 30
0.0
 10
9.581156150028464
 20
422.0853460091434
 30
0.0
 10
9.957713602387383
 20
422.34594465074
 30
0.0
 10
10.33483550286226
 20
422.6056966201423
 30
0.0
 10
10.71255712946838
 20
422.8646019173714
 30
0.0
 10
10.69146088096868
 20
422.8501379342802
 30
0.0
 10
10.6897322585991
 20
422.8788542324092
 30
0.0
 10
10.68010136254058
 20
422.8888026305349
 30
0.0
  0
ENDBLK
  5
18A
330
187
100
AcDbEntity
  8
0
100
AcDbBlockEnd
  0
BLOCK
  5
18E
330
18C
100
AcDbEntity
  8
0
100
AcDbBlockBegin
  2
block 63
 70
     0
 10
0.0
 20
0.0
 30
0.0
  3
block 63
  1

  0
SPLINE
  5
190
330
18C
100
AcDbEntity
  8
0
  6
AI-Linetype-25
 62
     6
370
    25
100
AcDbSpline
210
0.0
220
0.0
230
1.0
 70
     8
 71
     3
 72
     8
 73
     4
 74
     0
 42
0.0000000001
 43
0.0000000001
 12
1.0
 22
0.0
 32
0.0
 13
1.0
 23
0.0
 33
0.0
 40
0.0
 40
0.0
 40
0.0
 40
0.0
 40
1.0
 40
1.0
 40
1.0
 40
1.0
 10
219.0993948150461
 20
456.4686679782028
 30
0.0
 10
216.2875259470691
 20
456.4654929576506
 30
0.0
 10
143.6920892771801
 20
456.4633762804611
 30
0.0
 10
140.8802204092031
 20
456.4623532183655
 30
0.0
  0
ENDBLK
  5
18F
330
18C
100
AcDbEntity
  8
0
100
AcDbBlockEnd
  0
BLOCK
  5
194
330
192
100
AcDbEntity
  8
0
100
AcDbBlockBegin
  2
block 64
 70
     0
 10
0.0
 20
0.0
 30
0.0
  3
block 64
  1

  0
SPLINE
  5
196
330
192
100
AcDbEntity
  8
0
  6
AI-Linetype-26
 62
     6
370
    25
100
AcDbSpline
210
0.0
220
0.0
230
1.0
 70
     8
 71
     3
 72
     8
 73
     4
 74
     0
 42
0.0000000001
 43
0.0000000001
 12
1.0
 22
0.0
 32
0.0
 13
1.0
 23
0.0
 33
0.0
 40
0.0
 40
0.0
 40
0.0
 40
0.0
 40
1.0
 40
1.0
 40
1.0
 40
1.0
 10
-236.9282836765749
 20
529.503095062862
 30
0.0
 10
-238.0049216278564
 20
532.9661306677388
 30
0.0
 10
-241.0944169362531
 20
534.6476048339827
 30
0.0
 10
-242.6997779467858
 20
534.7018624096324
 30
0.0
  0
ENDBLK
  5
195
330
192
100
AcDbEntity
  8
0
100
AcDbBlockEnd
  0
BLOCK
  5
19A
330
198
100
AcDbEntity
  8
0
100
AcDbBlockBegin
  2
block 65
 70
     0
 10
0.0
 20
0.0
 30
0.0
  3
block 65
  1

  0
SPLINE
  5
19C
330
198
100
AcDbEntity
  8
0
  6
AI-Linetype-27
 62
     6
370
    25
100
AcDbSpline
210
0.0
220
0.0
230
1.0
 70
     8
 71
     3
 72
    29
 73
    25
 74
     0
 42
0.0000000001
 43
0.0000000001
 12
1.0
 22
0.0
 32
0.0
 13
1.0
 23
0.0
 33
0.0
 40
0.0
 40
0.0
 40
0.0
 40
0.0
 40
1.0
 40
1.0
 40
1.0
 40
2.0
 40
2.0
 40
2.0
 40
3.0
 40
3.0
 40
3.0
 40
4.0
 40
4.0
 40
4.0
 40
5.0
 40
5.0
 40
5.0
 40
6.0
 40
6.0
 40
6.0
 40
7.0
 40
7.0
 40
7.0
 40
8.0
 40
8.0
 40
8.0
 40
8.0
 10
-276.9351086836685
 20
534.7046846517716
 30
0.0
 10
-276.9995968814294
 20
534.7046846517751
 30
0.0
 10
-277.064085079191
 20
534.7046846517751
 30
0.0
 10
-277.1286085549556
 20
534.7046846517751
 30
0.0
 10
-277.1312896835321
 20
534.7046846517751
 30
0.0
 10
-277.1340060901123
 20
534.7046846517751
 30
0.0
 10
-277.1340060901123
 20
534.7046846517751
 30
0.0
 10
-277.1961659393747
 20
534.7046846517751
 30
0.0
 10
-277.2556093820539
 20
534.7046846517821
 30
0.0
 10
-277.3150528247434
 20
534.7046846517892
 30
0.0
 10
-277.3150528247434
 20
534.7046846517892
 30
0.0
 10
-277.3187922935389
 20
534.7046846517892
 30
0.0
 10
-277.3206973059492
 20
534.7046846517892
 30
0.0
 10
-277.3495547160996
 20
534.7046846517892
 30
0.0
 10
-277.3784121262605
 20
534.7046846517892
 30
0.0
 10
-277.4072695364179
 20
534.7046846517892
 30
0.0
 10
-277.8022421086936
 20
534.7046846518103
 30
0.0
 10
-278.1972499589798
 20
534.7046846518281
 30
0.0
 10
-278.592222531252
 20
534.7046846518422
 30
0.0
 10
-280.2830974320397
 20
534.7041907598209
 30
0.0
 10
-281.8590365843398
 20
533.8493693594869
 30
0.0
 10
-282.7811331451526
 20
532.4319695730967
 30
0.0
 10
-283.8422250556418
 20
530.8008908951149
 30
0.0
 10
-285.6283505767973
 20
529.7859778966414
 30
0.0
 10
-287.5726979616717
 20
529.7093187863759
 30
0.0
  0
ENDBLK
  5
19B
330
198
100
AcDbEntity
  8
0
100
AcDbBlockEnd
  0
BLOCK
  5
1A0
330
19E
100
AcDbEntity
  8
0
100
AcDbBlockBegin
  2
block 66
 70
     0
 10
0.0
 20
0.0
 30
0.0
  3
block 66
  1

  0
SPLINE
  5
1A2
330
19E
100
AcDbEntity
  8
0
  6
AI-Linetype-28
 62
     6
370
    25
100
AcDbSpline
210
0.0
220
0.0
230
1.0
 70
    24
 71
     3
 72
    17
 73
    13
 74
     0
 42
0.0000000001
 43
0.0000000001
 12
1.0
 22
0.0
 32
0.0
 13
1.0
 23
0.0
 33
0.0
 40
0.0
 40
0.0
 40
0.0
 40
0.0
 40
1.0
 40
1.0
 40
1.0
 40
2.0
 40
2.0
 40
2.0
 40
3.0
 40
3.0
 40
3.0
 40
4.0
 40
4.0
 40
4.0
 40
4.0
 10
-242.4453362510696
 20
534.7046846502228
 30
0.0
 10
-242.7576524517062
 20
534.7046846502369
 30
0.0
 10
-263.925673125811
 20
534.704684651186
 30
0.0
 10
-264.2379893264508
 20
534.7046846512002
 30
0.0
 10
-264.7039059718651
 20
534.7046846512249
 30
0.0
 10
-265.1697873392699
 20
534.704684651239
 30
0.0
 10
-265.6357039846903
 20
534.7046846512636
 30
0.0
 10
-265.6570119012367
 20
534.7046846512636
 30
0.0
 10
-265.6783198177766
 20
534.7046846512636
 30
0.0
 10
-265.6995924563209
 20
534.7046846512636
 30
0.0
 10
-265.7535678078353
 20
534.7046846512636
 30
0.0
 10
-276.6380586816659
 20
534.7046846517578
 30
0.0
 10
-276.6920340331778
 20
534.7046846517578
 30
0.0
  0
ENDBLK
  5
1A1
330
19E
100
AcDbEntity
  8
0
100
AcDbBlockEnd
  0
BLOCK
  5
1A6
330
1A4
100
AcDbEntity
  8
0
100
AcDbBlockBegin
  2
block 67
 70
     0
 10
0.0
 20
0.0
 30
0.0
  3
block 67
  1

  0
SPLINE
  5
1A8
330
1A4
100
AcDbEntity
  8
0
 62
   250
370
    25
100
AcDbSpline
210
0.0
220
0.0
230
1.0
 70
     8
 71
     3
 72
     8
 73
     4
 74
     0
 42
0.0000000001
 43
0.0000000001
 12
1.0
 22
0.0
 32
0.0
 13
1.0
 23
0.0
 33
0.0
 40
0.0
 40
0.0
 40
0.0
 40
0.0
 40
1.0
 40
1.0
 40
1.0
 40
1.0
 10
19.95250111213654
 20
428.8184712473464
 30
0.0
 10
18.56311631287442
 20
428.7590324712861
 30
0.0
 10
11.95032019517882
 20
423.8212621260457
 30
0.0
 10
10.71255712946838
 20
422.8646019173714
 30
0.0
  0
ENDBLK
  5
1A7
330
1A4
100
AcDbEntity
  8
0
100
AcDbBlockEnd
  0
BLOCK
  5
1AB
330
1A9
100
AcDbEntity
  8
0
100
AcDbBlockBegin
  2
block 68
 70
     0
 10
0.0
 20
0.0
 30
0.0
  3
block 68
  1

  0
SPLINE
  5
1AD
330
1A9
100
AcDbEntity
  8
0
 62
   250
370
    25
100
AcDbSpline
210
0.0
220
0.0
230
1.0
 70
     8
 71
     3
 72
    17
 73
    13
 74
     0
 42
0.0000000001
 43
0.0000000001
 12
1.0
 22
0.0
 32
0.0
 13
1.0
 23
0.0
 33
0.0
 40
0.0
 40
0.0
 40
0.0
 40
0.0
 40
1.0
 40
1.0
 40
1.0
 40
2.0
 40
2.0
 40
2.0
 40
3.0
 40
3.0
 40
3.0
 40
4.0
 40
4.0
 40
4.0
 40
4.0
 10
-294.7478919108574
 20
569.9568187645442
 30
0.0
 10
-294.7478919108574
 20
569.9568187645442
 30
0.0
 10
-294.2737907681387
 20
560.0542845058056
 30
0.0
 10
-294.2737907681387
 20
560.0542845058056
 30
0.0
 10
-294.2737907681387
 20
560.0542845058056
 30
0.0
 10
-293.2588355308442
 20
537.7518241448321
 30
0.0
 10
-293.0886329085463
 20
535.4605364102069
 30
0.0
 10
-292.9184302862481
 20
533.1692486755744
 30
0.0
 10
-293.5438670645703
 20
529.5030950654054
 30
0.0
 10
-287.9691648689519
 20
529.5030950651513
 30
0.0
 10
-282.3944626733331
 20
529.503095064901
 30
0.0
 10
498.2304557273113
 20
530.4106661828778
 30
0.0
 10
498.2304557273113
 20
530.4106661828778
 30
0.0
  0
ENDBLK
  5
1AC
330
1A9
100
AcDbEntity
  8
0
100
AcDbBlockEnd
  0
BLOCK
  5
1B0
330
1AE
100
AcDbEntity
  8
0
100
AcDbBlockBegin
  2
block 69
 70
     0
 10
0.0
 20
0.0
 30
0.0
  3
block 69
  1

  0
INSERT
  5
1B3
330
1AE
100
AcDbEntity
  8
0
100
AcDbBlockReference
  2
block 70
 10
0.0
 20
0.0
 30
0.0
  0
ENDBLK
  5
1B1
330
1AE
100
AcDbEntity
  8
0
100
AcDbBlockEnd
  0
BLOCK
  5
1B4
330
1B2
100
AcDbEntity
  8
0
100
AcDbBlockBegin
  2
block 70
 70
     0
 10
0.0
 20
0.0
 30
0.0
  3
block 70
  1

  0
INSERT
  5
1B7
330
1B2
100
AcDbEntity
  8
0
100
AcDbBlockReference
  2
block 71
 10
0.0
 20
0.0
 30
0.0
  0
ENDBLK
  5
1B5
330
1B2
100
AcDbEntity
  8
0
100
AcDbBlockEnd
  0
BLOCK
  5
1B8
330
1B6
100
AcDbEntity
  8
0
100
AcDbBlockBegin
  2
block 71
 70
     0
 10
0.0
 20
0.0
 30
0.0
  3
block 71
  1

  0
POLYLINE
  5
1BA
330
1B6
100
AcDbEntity
  8
0
 62
     4
370
    25
100
AcDb2dPolyline
 66
     1
 10
0.0
 20
0.0
 30
0.0
  0
VERTEX
  5
1BB
330
1BA
100
AcDbEntity
  8
0
 62
     4
370
    25
100
AcDbVertex
100
AcDb2dVertex
 10
69.70137641011915
 20
515.4107878350136
 30
0.0
  0
VERTEX
  5
1BC
330
1BA
100
AcDbEntity
  8
0
 62
     4
370
    25
100
AcDbVertex
100
AcDb2dVertex
 10
58.4512932949168
 20
515.4107878350136
 30
0.0
  0
SEQEND
  5
1BD
330
1BA
100
AcDbEntity
  8
0
 62
     4
370
    25
  0
POLYLINE
  5
1BE
330
1B6
100
AcDbEntity
  8
0
  6
AI-Linetype-29
 62
     4
370
    25
100
AcDb2dPolyline
 66
     1
 10
0.0
 20
0.0
 30
0.0
  0
VERTEX
  5
1BF
330
1BE
100
AcDbEntity
  8
0
  6
AI-Linetype-29
 62
     4
370
    25
100
AcDbVertex
100
AcDb2dVertex
 10
55.32623641432328
 20
515.4107878350136
 30
0.0
  0
VERTEX
  5
1C0
330
1BE
100
AcDbEntity
  8
0
  6
AI-Linetype-29
 62
     4
370
    25
100
AcDbVertex
100
AcDb2dVertex
 10
50.638651093433
 20
515.4107878350136
 30
0.0
  0
SEQEND
  5
1C2
330
1BE
100
AcDbEntity
  8
0
  6
AI-Linetype-29
 62
     4
370
    25
  0
POLYLINE
  5
1C3
330
1B6
100
AcDbEntity
  8
0
  6
AI-Linetype-30
 62
     4
370
    25
100
AcDb2dPolyline
 66
     1
 10
0.0
 20
0.0
 30
0.0
  0
VERTEX
  5
1C4
330
1C3
100
AcDbEntity
  8
0
  6
AI-Linetype-30
 62
     4
370
    25
100
AcDbVertex
100
AcDb2dVertex
 10
49.07612265313625
 20
515.4107878350136
 30
0.0
  0
VERTEX
  5
1C5
330
1C3
100
AcDbEntity
  8
0
  6
AI-Linetype-30
 62
     4
370
    25
100
AcDbVertex
100
AcDb2dVertex
 10
22.51299382812555
 20
515.4107878350136
 30
0.0
  0
SEQEND
  5
1C7
330
1C3
100
AcDbEntity
  8
0
  6
AI-Linetype-30
 62
     4
370
    25
  0
POLYLINE
  5
1C8
330
1B6
100
AcDbEntity
  8
0
 62
     4
370
    25
100
AcDb2dPolyline
 66
     1
 10
0.0
 20
0.0
 30
0.0
  0
VERTEX
  5
1C9
330
1C8
100
AcDbEntity
  8
0
 62
     4
370
    25
100
AcDbVertex
100
AcDb2dVertex
 10
20.95046538782879
 20
515.4107878350136
 30
0.0
  0
VERTEX
  5
1CA
330
1C8
100
AcDbEntity
  8
0
 62
     4
370
    25
100
AcDbVertex
100
AcDb2dVertex
 10
9.700382272626445
 20
515.4107878350136
 30
0.0
  0
SEQEND
  5
1CB
330
1C8
100
AcDbEntity
  8
0
 62
     4
370
    25
  0
ENDBLK
  5
1B9
330
1B6
100
AcDbEntity
  8
0
100
AcDbBlockEnd
  0
BLOCK
  5
1CE
330
1CC
100
AcDbEntity
  8
0
100
AcDbBlockBegin
  2
block 72
 70
     0
 10
0.0
 20
0.0
 30
0.0
  3
block 72
  1

  0
INSERT
  5
1D1
330
1CC
100
AcDbEntity
  8
0
100
AcDbBlockReference
  2
block 73
 10
0.0
 20
0.0
 30
0.0
  0
INSERT
  5
1EB
330
1CC
100
AcDbEntity
  8
0
100
AcDbBlockReference
  2
block 75
 10
0.0
 20
0.0
 30
0.0
  0
ENDBLK
  5
1CF
330
1CC
100
AcDbEntity
  8
0
100
AcDbBlockEnd
  0
BLOCK
  5
1D2
330
1D0
100
AcDbEntity
  8
0
100
AcDbBlockBegin
  2
block 73
 70
     0
 10
0.0
 20
0.0
 30
0.0
  3
block 73
  1

  0
INSERT
  5
1D5
330
1D0
100
AcDbEntity
  8
0
100
AcDbBlockReference
  2
block 74
 10
0.0
 20
0.0
 30
0.0
  0
ENDBLK
  5
1D3
330
1D0
100
AcDbEntity
  8
0
100
AcDbBlockEnd
  0
BLOCK
  5
1D6
330
1D4
100
AcDbEntity
  8
0
100
AcDbBlockBegin
  2
block 74
 70
     0
 10
0.0
 20
0.0
 30
0.0
  3
block 74
  1

  0
POLYLINE
  5
1D8
330
1D4
100
AcDbEntity
  8
0
 62
     4
370
    25
100
AcDb2dPolyline
 66
     1
 10
0.0
 20
0.0
 30
0.0
  0
VERTEX
  5
1D9
330
1D8
100
AcDbEntity
  8
0
 62
     4
370
    25
100
AcDbVertex
100
AcDb2dVertex
 10
39.70130997830845
 20
485.41029345775
 30
0.0
  0
VERTEX
  5
1DA
330
1D8
100
AcDbEntity
  8
0
 62
     4
370
    25
100
AcDbVertex
100
AcDb2dVertex
 10
39.70130997830845
 20
496.660381955915
 30
0.0
  0
SEQEND
  5
1DB
330
1D8
100
AcDbEntity
  8
0
 62
     4
370
    25
  0
POLYLINE
  5
1DC
330
1D4
100
AcDbEntity
  8
0
  6
AI-Linetype-31
 62
     4
370
    25
100
AcDb2dPolyline
 66
     1
 10
0.0
 20
0.0
 30
0.0
  0
VERTEX
  5
1DD
330
1DC
100
AcDbEntity
  8
0
  6
AI-Linetype-31
 62
     4
370
    25
100
AcDbVertex
100
AcDb2dVertex
 10
39.70130997830845
 20
499.7853850068886
 30
0.0
  0
VERTEX
  5
1DE
330
1DC
100
AcDbEntity
  8
0
  6
AI-Linetype-31
 62
     4
370
    25
100
AcDbVertex
100
AcDb2dVertex
 10
39.70130997830845
 20
504.4729111152012
 30
0.0
  0
SEQEND
  5
1E0
330
1DC
100
AcDbEntity
  8
0
  6
AI-Linetype-31
 62
     4
370
    25
  0
POLYLINE
  5
1E1
330
1D4
100
AcDbEntity
  8
0
  6
AI-Linetype-32
 62
     4
370
    25
100
AcDb2dPolyline
 66
     1
 10
0.0
 20
0.0
 30
0.0
  0
VERTEX
  5
1E2
330
1E1
100
AcDbEntity
  8
0
  6
AI-Linetype-32
 62
     4
370
    25
100
AcDbVertex
100
AcDb2dVertex
 10
39.70130997830845
 20
506.0354341725363
 30
0.0
  0
VERTEX
  5
1E3
330
1E1
100
AcDbEntity
  8
0
  6
AI-Linetype-32
 62
     4
370
    25
100
AcDbVertex
100
AcDb2dVertex
 10
39.70130997830845
 20
532.5982400198471
 30
0.0
  0
SEQEND
  5
1E5
330
1E1
100
AcDbEntity
  8
0
  6
AI-Linetype-32
 62
     4
370
    25
  0
POLYLINE
  5
1E6
330
1D4
100
AcDbEntity
  8
0
 62
     4
370
    25
100
AcDb2dPolyline
 66
     1
 10
0.0
 20
0.0
 30
0.0
  0
VERTEX
  5
1E7
330
1E6
100
AcDbEntity
  8
0
 62
     4
370
    25
100
AcDbVertex
100
AcDb2dVertex
 10
39.70130997830845
 20
534.1607630771822
 30
0.0
  0
VERTEX
  5
1E8
330
1E6
100
AcDbEntity
  8
0
 62
     4
370
    25
100
AcDbVertex
100
AcDb2dVertex
 10
39.70130997830845
 20
545.4108515753434
 30
0.0
  0
SEQEND
  5
1E9
330
1E6
100
AcDbEntity
  8
0
 62
     4
370
    25
  0
ENDBLK
  5
1D7
330
1D4
100
AcDbEntity
  8
0
100
AcDbBlockEnd
  0
BLOCK
  5
1EC
330
1EA
100
AcDbEntity
  8
0
100
AcDbBlockBegin
  2
block 75
 70
     0
 10
0.0
 20
0.0
 30
0.0
  3
block 75
  1

  0
INSERT
  5
1EF
330
1EA
100
AcDbEntity
  8
0
100
AcDbBlockReference
  2
block 76
 10
0.0
 20
0.0
 30
0.0
  0
ENDBLK
  5
1ED
330
1EA
100
AcDbEntity
  8
0
100
AcDbBlockEnd
  0
BLOCK
  5
1F0
330
1EE
100
AcDbEntity
  8
0
100
AcDbBlockBegin
  2
block 76
 70
     0
 10
0.0
 20
0.0
 30
0.0
  3
block 76
  1

  0
POLYLINE
  5
1F2
330
1EE
100
AcDbEntity
  8
0
 62
     4
370
    25
100
AcDb2dPolyline
 66
     1
 10
0.0
 20
0.0
 30
0.0
  0
VERTEX
  5
1F3
330
1F2
100
AcDbEntity
  8
0
 62
     4
370
    25
100
AcDbVertex
100
AcDb2dVertex
 10
180.217014352461
 20
390.4486910373705
 30
0.0
  0
VERTEX
  5
1F4
330
1F2
100
AcDbEntity
  8
0
 62
     4
370
    25
100
AcDbVertex
100
AcDb2dVertex
 10
180.217014352461
 20
401.6987795355355
 30
0.0
  0
SEQEND
  5
1F5
330
1F2
100
AcDbEntity
  8
0
 62
     4
370
    25
  0
POLYLINE
  5
1F6
330
1EE
100
AcDbEntity
  8
0
  6
AI-Linetype-33
 62
     4
370
    25
100
AcDb2dPolyline
 66
     1
 10
0.0
 20
0.0
 30
0.0
  0
VERTEX
  5
1F7
330
1F6
100
AcDbEntity
  8
0
  6
AI-Linetype-33
 62
     4
370
    25
100
AcDbVertex
100
AcDb2dVertex
 10
180.217014352461
 20
405.7761792334103
 30
0.0
  0
VERTEX
  5
1F8
330
1F6
100
AcDbEntity
  8
0
  6
AI-Linetype-33
 62
     4
370
    25
100
AcDbVertex
100
AcDb2dVertex
 10
180.217014352461
 20
411.8922572483744
 30
0.0
  0
SEQEND
  5
1FA
330
1F6
100
AcDbEntity
  8
0
  6
AI-Linetype-33
 62
     4
370
    25
  0
POLYLINE
  5
1FB
330
1EE
100
AcDbEntity
  8
0
  6
AI-Linetype-34
 62
     4
370
    25
100
AcDb2dPolyline
 66
     1
 10
0.0
 20
0.0
 30
0.0
  0
VERTEX
  5
1FC
330
1FB
100
AcDbEntity
  8
0
  6
AI-Linetype-34
 62
     4
370
    25
100
AcDbVertex
100
AcDb2dVertex
 10
180.217014352461
 20
413.9309786291562
 30
0.0
  0
VERTEX
  5
1FD
330
1FB
100
AcDbEntity
  8
0
  6
AI-Linetype-34
 62
     4
370
    25
100
AcDbVertex
100
AcDb2dVertex
 10
180.217014352461
 20
595.3760187991821
 30
0.0
  0
SEQEND
  5
1FF
330
1FB
100
AcDbEntity
  8
0
  6
AI-Linetype-34
 62
     4
370
    25
  0
POLYLINE
  5
200
330
1EE
100
AcDbEntity
  8
0
 62
     4
370
    25
100
AcDb2dPolyline
 66
     1
 10
0.0
 20
0.0
 30
0.0
  0
VERTEX
  5
201
330
200
100
AcDbEntity
  8
0
 62
     4
370
    25
100
AcDbVertex
100
AcDb2dVertex
 10
180.217014352461
 20
597.4147401799639
 30
0.0
  0
VERTEX
  5
202
330
200
100
AcDbEntity
  8
0
 62
     4
370
    25
100
AcDbVertex
100
AcDb2dVertex
 10
180.217014352461
 20
608.664828678129
 30
0.0
  0
SEQEND
  5
203
330
200
100
AcDbEntity
  8
0
 62
     4
370
    25
  0
ENDBLK
  5
1F1
330
1EE
100
AcDbEntity
  8
0
100
AcDbBlockEnd
  0
BLOCK
  5
206
330
204
100
AcDbEntity
  8
0
100
AcDbBlockBegin
  2
block 77
 70
     0
 10
0.0
 20
0.0
 30
0.0
  3
block 77
  1

  0
SPLINE
  5
208
330
204
100
AcDbEntity
  8
0
  6
AI-Linetype-35
 62
     6
370
    25
100
AcDbSpline
210
0.0
220
0.0
230
1.0
 70
    11
 71
     3
 72
    23
 73
    19
 74
     0
 42
0.0000000001
 43
0.0000000001
 12
1.0
 22
0.0
 32
0.0
 13
1.0
 23
0.0
 33
0.0
 40
0.0
 40
0.0
 40
0.0
 40
0.0
 40
1.0
 40
1.0
 40
1.0
 40
2.0
 40
2.0
 40
2.0
 40
3.0
 40
3.0
 40
3.0
 40
4.0
 40
4.0
 40
4.0
 40
5.0
 40
5.0
 40
5.0
 40
6.0
 40
6.0
 40
6.0
 40
6.0
 10
44.70103462304754
 20
505.4104691536704
 30
0.0
 10
50.22398562164488
 20
505.4104691534198
 30
0.0
 10
54.70048274702219
 20
509.8869662784028
 30
0.0
 10
54.70048274727245
 20
515.4107785559069
 30
0.0
 10
54.7004827475195
 20
520.9328682755964
 30
0.0
 10
50.22398562254358
 20
525.4106573193361
 30
0.0
 10
44.70103462394592
 20
525.4106573195832
 30
0.0
 10
44.70103462394592
 20
525.4106573195832
 30
0.0
 10
34.70072522126187
 20
525.4106573200346
 30
0.0
 10
34.70072522126187
 20
525.4106573200346
 30
0.0
 10
29.17820486211885
 20
525.4106573202781
 30
0.0
 10
24.70041581837569
 20
520.9328682769406
 30
0.0
 10
24.70041581812863
 20
515.4107785572544
 30
0.0
 10
24.70041581787837
 20
509.8869662797468
 30
0.0
 10
29.17820486122047
 20
505.4104691543653
 30
0.0
 10
34.70072522036349
 20
505.4104691541183
 30
0.0
 10
40.22324557950651
 20
505.4104691538751
 30
0.0
 10
39.17851426390452
 20
505.4104691539136
 30
0.0
 10
44.70103462304754
 20
505.4104691536704
 30
0.0
  0
ENDBLK
  5
207
330
204
100
AcDbEntity
  8
0
100
AcDbBlockEnd
  0
BLOCK
  5
20C
330
20A
100
AcDbEntity
  8
0
100
AcDbBlockBegin
  2
block 78
 70
     0
 10
0.0
 20
0.0
 30
0.0
  3
block 78
  1

  0
INSERT
  5
20F
330
20A
100
AcDbEntity
  8
0
100
AcDbBlockReference
  2
block 79
 10
0.0
 20
0.0
 30
0.0
  0
ENDBLK
  5
20D
330
20A
100
AcDbEntity
  8
0
100
AcDbBlockEnd
  0
BLOCK
  5
210
330
20E
100
AcDbEntity
  8
0
100
AcDbBlockBegin
  2
block 79
 70
     0
 10
0.0
 20
0.0
 30
0.0
  3
block 79
  1

  0
INSERT
  5
213
330
20E
100
AcDbEntity
  8
0
100
AcDbBlockReference
  2
block 80
 10
0.0
 20
0.0
 30
0.0
  0
ENDBLK
  5
211
330
20E
100
AcDbEntity
  8
0
100
AcDbBlockEnd
  0
BLOCK
  5
214
330
212
100
AcDbEntity
  8
0
100
AcDbBlockBegin
  2
block 80
 70
     0
 10
0.0
 20
0.0
 30
0.0
  3
block 80
  1

  0
POLYLINE
  5
216
330
212
100
AcDbEntity
  8
0
 62
     4
370
    25
100
AcDb2dPolyline
 66
     1
 10
0.0
 20
0.0
 30
0.0
  0
VERTEX
  5
217
330
216
100
AcDbEntity
  8
0
 62
     4
370
    25
100
AcDbVertex
100
AcDb2dVertex
 10
350.2792221889059
 20
515.4107878350136
 30
0.0
  0
VERTEX
  5
218
330
216
100
AcDbEntity
  8
0
 62
     4
370
    25
100
AcDbVertex
100
AcDb2dVertex
 10
339.0291552225887
 20
515.4107878350136
 30
0.0
  0
SEQEND
  5
219
330
216
100
AcDbEntity
  8
0
 62
     4
370
    25
  0
POLYLINE
  5
21A
330
212
100
AcDbEntity
  8
0
  6
AI-Linetype-36
 62
     4
370
    25
100
AcDb2dPolyline
 66
     1
 10
0.0
 20
0.0
 30
0.0
  0
VERTEX
  5
21B
330
21A
100
AcDbEntity
  8
0
  6
AI-Linetype-36
 62
     4
370
    25
100
AcDbVertex
100
AcDb2dVertex
 10
335.9041737034589
 20
515.4107878350136
 30
0.0
  0
VERTEX
  5
21C
330
21A
100
AcDbEntity
  8
0
  6
AI-Linetype-36
 62
     4
370
    25
100
AcDbVertex
100
AcDb2dVertex
 10
331.2166906588408
 20
515.4107878350136
 30
0.0
  0
SEQEND
  5
21E
330
21A
100
AcDbEntity
  8
0
  6
AI-Linetype-36
 62
     4
370
    25
  0
POLYLINE
  5
21F
330
212
100
AcDbEntity
  8
0
  6
AI-Linetype-37
 62
     4
370
    25
100
AcDb2dPolyline
 66
     1
 10
0.0
 20
0.0
 30
0.0
  0
VERTEX
  5
220
330
21F
100
AcDbEntity
  8
0
  6
AI-Linetype-37
 62
     4
370
    25
100
AcDbVertex
100
AcDb2dVertex
 10
329.6541891333525
 20
515.4107878350136
 30
0.0
  0
VERTEX
  5
221
330
21F
100
AcDbEntity
  8
0
  6
AI-Linetype-37
 62
     4
370
    25
100
AcDbVertex
100
AcDb2dVertex
 10
303.0916847318985
 20
515.4107878350136
 30
0.0
  0
SEQEND
  5
223
330
21F
100
AcDbEntity
  8
0
  6
AI-Linetype-37
 62
     4
370
    25
  0
POLYLINE
  5
224
330
212
100
AcDbEntity
  8
0
 62
     4
370
    25
100
AcDb2dPolyline
 66
     1
 10
0.0
 20
0.0
 30
0.0
  0
VERTEX
  5
225
330
224
100
AcDbEntity
  8
0
 62
     4
370
    25
100
AcDbVertex
100
AcDb2dVertex
 10
301.5291832064103
 20
515.4107878350136
 30
0.0
  0
VERTEX
  5
226
330
224
100
AcDbEntity
  8
0
 62
     4
370
    25
100
AcDbVertex
100
AcDb2dVertex
 10
290.2790947082462
 20
515.4107878350136
 30
0.0
  0
SEQEND
  5
227
330
224
100
AcDbEntity
  8
0
 62
     4
370
    25
  0
ENDBLK
  5
215
330
212
100
AcDbEntity
  8
0
100
AcDbBlockEnd
  0
BLOCK
  5
22A
330
228
100
AcDbEntity
  8
0
100
AcDbBlockBegin
  2
block 81
 70
     0
 10
0.0
 20
0.0
 30
0.0
  3
block 81
  1

  0
INSERT
  5
22D
330
228
100
AcDbEntity
  8
0
100
AcDbBlockReference
  2
block 82
 10
0.0
 20
0.0
 30
0.0
  0
ENDBLK
  5
22B
330
228
100
AcDbEntity
  8
0
100
AcDbBlockEnd
  0
BLOCK
  5
22E
330
22C
100
AcDbEntity
  8
0
100
AcDbBlockBegin
  2
block 82
 70
     0
 10
0.0
 20
0.0
 30
0.0
  3
block 82
  1

  0
INSERT
  5
231
330
22C
100
AcDbEntity
  8
0
100
AcDbBlockReference
  2
block 83
 10
0.0
 20
0.0
 30
0.0
  0
ENDBLK
  5
22F
330
22C
100
AcDbEntity
  8
0
100
AcDbBlockEnd
  0
BLOCK
  5
232
330
230
100
AcDbEntity
  8
0
100
AcDbBlockBegin
  2
block 83
 70
     0
 10
0.0
 20
0.0
 30
0.0
  3
block 83
  1

  0
POLYLINE
  5
234
330
230
100
AcDbEntity
  8
0
 62
     4
370
    25
100
AcDb2dPolyline
 66
     1
 10
0.0
 20
0.0
 30
0.0
  0
VERTEX
  5
235
330
234
100
AcDbEntity
  8
0
 62
     4
370
    25
100
AcDbVertex
100
AcDb2dVertex
 10
320.2791584485761
 20
485.41029345775
 30
0.0
  0
VERTEX
  5
236
330
234
100
AcDbEntity
  8
0
 62
     4
370
    25
100
AcDbVertex
100
AcDb2dVertex
 10
320.2791584485761
 20
496.660381955915
 30
0.0
  0
SEQEND
  5
237
330
234
100
AcDbEntity
  8
0
 62
     4
370
    25
  0
POLYLINE
  5
238
330
230
100
AcDbEntity
  8
0
  6
AI-Linetype-38
 62
     4
370
    25
100
AcDb2dPolyline
 66
     1
 10
0.0
 20
0.0
 30
0.0
  0
VERTEX
  5
239
330
238
100
AcDbEntity
  8
0
  6
AI-Linetype-38
 62
     4
370
    25
100
AcDbVertex
100
AcDb2dVertex
 10
320.2791584485761
 20
499.7853850068886
 30
0.0
  0
VERTEX
  5
23A
330
238
100
AcDbEntity
  8
0
  6
AI-Linetype-38
 62
     4
370
    25
100
AcDbVertex
100
AcDb2dVertex
 10
320.2791584485761
 20
504.4729111152012
 30
0.0
  0
SEQEND
  5
23C
330
238
100
AcDbEntity
  8
0
  6
AI-Linetype-38
 62
     4
370
    25
  0
POLYLINE
  5
23D
330
230
100
AcDbEntity
  8
0
  6
AI-Linetype-39
 62
     4
370
    25
100
AcDb2dPolyline
 66
     1
 10
0.0
 20
0.0
 30
0.0
  0
VERTEX
  5
23E
330
23D
100
AcDbEntity
  8
0
  6
AI-Linetype-39
 62
     4
370
    25
100
AcDbVertex
100
AcDb2dVertex
 10
320.2791584485761
 20
506.0354341725363
 30
0.0
  0
VERTEX
  5
23F
330
23D
100
AcDbEntity
  8
0
  6
AI-Linetype-39
 62
     4
370
    25
100
AcDbVertex
100
AcDb2dVertex
 10
320.2791584485761
 20
532.5982400198471
 30
0.0
  0
SEQEND
  5
241
330
23D
100
AcDbEntity
  8
0
  6
AI-Linetype-39
 62
     4
370
    25
  0
POLYLINE
  5
242
330
230
100
AcDbEntity
  8
0
 62
     4
370
    25
100
AcDb2dPolyline
 66
     1
 10
0.0
 20
0.0
 30
0.0
  0
VERTEX
  5
243
330
242
100
AcDbEntity
  8
0
 62
     4
370
    25
100
AcDbVertex
100
AcDb2dVertex
 10
320.2791584485761
 20
534.1607630771822
 30
0.0
  0
VERTEX
  5
244
330
242
100
AcDbEntity
  8
0
 62
     4
370
    25
100
AcDbVertex
100
AcDb2dVertex
 10
320.2791584485761
 20
545.4108515753434
 30
0.0
  0
SEQEND
  5
245
330
242
100
AcDbEntity
  8
0
 62
     4
370
    25
  0
ENDBLK
  5
233
330
230
100
AcDbEntity
  8
0
100
AcDbBlockEnd
  0
BLOCK
  5
248
330
246
100
AcDbEntity
  8
0
100
AcDbBlockBegin
  2
block 84
 70
     0
 10
0.0
 20
0.0
 30
0.0
  3
block 84
  1

  0
SPLINE
  5
24A
330
246
100
AcDbEntity
  8
0
  6
AI-Linetype-40
 62
     6
370
    25
100
AcDbSpline
210
0.0
220
0.0
230
1.0
 70
    11
 71
     3
 72
    23
 73
    19
 74
     0
 42
0.0000000001
 43
0.0000000001
 12
1.0
 22
0.0
 32
0.0
 13
1.0
 23
0.0
 33
0.0
 40
0.0
 40
0.0
 40
0.0
 40
0.0
 40
1.0
 40
1.0
 40
1.0
 40
2.0
 40
2.0
 40
2.0
 40
3.0
 40
3.0
 40
3.0
 40
4.0
 40
4.0
 40
4.0
 40
5.0
 40
5.0
 40
5.0
 40
6.0
 40
6.0
 40
6.0
 40
6.0
 10
325.279751287189
 20
505.410469141069
 30
0.0
 10
330.8018410068786
 20
505.4104691408293
 30
0.0
 10
335.2796300506247
 20
509.8869662657979
 30
0.0
 10
335.2796300508685
 20
515.410778543302
 30
0.0
 10
335.2796300511188
 20
520.9328682629919
 30
0.0
 10
330.8018410077771
 20
525.4106573067386
 30
0.0
 10
325.2797512880874
 20
525.4106573069818
 30
0.0
 10
325.2797512880874
 20
525.4106573069818
 30
0.0
 10
315.279441885404
 20
525.4106573074297
 30
0.0
 10
315.279441885404
 20
525.4106573074297
 30
0.0
 10
309.7560602473527
 20
525.4106573076803
 30
0.0
 10
305.2795631219747
 20
520.9328682643395
 30
0.0
 10
305.2795631217244
 20
515.4107785446498
 30
0.0
 10
305.2795631214806
 20
509.8869662671455
 30
0.0
 10
309.7560602464542
 20
505.4104691417675
 30
0.0
 10
315.2794418845056
 20
505.4104691415172
 30
0.0
 10
320.8019622436483
 20
505.4104691412737
 30
0.0
 10
319.7563696491383
 20
505.4104691413196
 30
0.0
 10
325.279751287189
 20
505.410469141069
 30
0.0
  0
ENDBLK
  5
249
330
246
100
AcDbEntity
  8
0
100
AcDbBlockEnd
  0
BLOCK
  5
24E
330
24C
100
AcDbEntity
  8
0
100
AcDbBlockBegin
  2
block 85
 70
     0
 10
0.0
 20
0.0
 30
0.0
  3
block 85
  1

  0
POLYLINE
  5
250
330
24C
100
AcDbEntity
  8
0
 62
   250
370
    25
100
AcDb2dPolyline
 66
     1
 10
0.0
 20
0.0
 30
0.0
  0
VERTEX
  5
251
330
250
100
AcDbEntity
  8
0
 62
   250
370
    25
100
AcDbVertex
100
AcDb2dVertex
 10
101.1544396545296
 20
13.32559710909252
 30
0.0
  0
VERTEX
  5
252
330
250
100
AcDbEntity
  8
0
 62
   250
370
    25
100
AcDbVertex
100
AcDb2dVertex
 10
104.353367921214
 20
-270.7064750870637
 30
0.0
  0
SEQEND
  5
253
330
250
100
AcDbEntity
  8
0
 62
   250
370
    25
  0
ENDBLK
  5
24F
330
24C
100
AcDbEntity
  8
0
100
AcDbBlockEnd
  0
BLOCK
  5
256
330
254
100
AcDbEntity
  8
0
100
AcDbBlockBegin
  2
block 86
 70
     0
 10
0.0
 20
0.0
 30
0.0
  3
block 86
  1

  0
POLYLINE
  5
258
330
254
100
AcDbEntity
  8
0
 62
   250
370
    25
100
AcDb2dPolyline
 66
     1
 10
0.0
 20
0.0
 30
0.0
  0
VERTEX
  5
259
330
258
100
AcDbEntity
  8
0
 62
   250
370
    25
100
AcDbVertex
100
AcDb2dVertex
 10
96.06601701300613
 20
429.5255121758517
 30
0.0
  0
VERTEX
  5
25A
330
258
100
AcDbEntity
  8
0
 62
   250
370
    25
100
AcDbVertex
100
AcDb2dVertex
 10
100.9128630030069
 20
11.52111158464608
 30
0.0
  0
SEQEND
  5
25B
330
258
100
AcDbEntity
  8
0
 62
   250
370
    25
  0
ENDBLK
  5
257
330
254
100
AcDbEntity
  8
0
100
AcDbBlockEnd
  0
BLOCK
  5
25E
330
25C
100
AcDbEntity
  8
0
100
AcDbBlockBegin
  2
block 87
 70
     0
 10
0.0
 20
0.0
 30
0.0
  3
block 87
  1

  0
POLYLINE
  5
260
330
25C
100
AcDbEntity
  8
0
 62
   250
370
    25
100
AcDb2dPolyline
 66
     1
 10
0.0
 20
0.0
 30
0.0
  0
VERTEX
  5
261
330
260
100
AcDbEntity
  8
0
 62
   250
370
    25
100
AcDbVertex
100
AcDb2dVertex
 10
260.3015213128662
 20
13.32947286332734
 30
0.0
  0
VERTEX
  5
262
330
260
100
AcDbEntity
  8
0
 62
   250
370
    25
100
AcDbVertex
100
AcDb2dVertex
 10
258.1693114737137
 20
-270.5714896166355
 30
0.0
  0
SEQEND
  5
263
330
260
100
AcDbEntity
  8
0
 62
   250
370
    25
  0
ENDBLK
  5
25F
330
25C
100
AcDbEntity
  8
0
100
AcDbBlockEnd
  0
BLOCK
  5
266
330
264
100
AcDbEntity
  8
0
100
AcDbBlockBegin
  2
block 88
 70
     0
 10
0.0
 20
0.0
 30
0.0
  3
block 88
  1

  0
POLYLINE
  5
268
330
264
100
AcDbEntity
  8
0
 62
   250
370
    25
100
AcDb2dPolyline
 66
     1
 10
0.0
 20
0.0
 30
0.0
  0
VERTEX
  5
269
330
268
100
AcDbEntity
  8
0
 62
   250
370
    25
100
AcDbVertex
100
AcDb2dVertex
 10
266.0583202983713
 20
429.5293879300795
 30
0.0
  0
VERTEX
  5
26A
330
268
100
AcDbEntity
  8
0
 62
   250
370
    25
100
AcDbVertex
100
AcDb2dVertex
 10
261.2123355870896
 20
11.52498733888091
 30
0.0
  0
SEQEND
  5
26B
330
268
100
AcDbEntity
  8
0
 62
   250
370
    25
  0
ENDBLK
  5
267
330
264
100
AcDbEntity
  8
0
100
AcDbBlockEnd
  0
BLOCK
  5
26E
330
26C
100
AcDbEntity
  8
0
100
AcDbBlockBegin
  2
block 89
 70
     0
 10
0.0
 20
0.0
 30
0.0
  3
block 89
  1

  0
SPLINE
  5
270
330
26C
100
AcDbEntity
  8
0
 62
   250
370
    25
100
AcDbSpline
210
0.0
220
0.0
230
1.0
 70
     8
 71
     3
 72
    11
 73
     7
 74
     0
 42
0.0000000001
 43
0.0000000001
 12
1.0
 22
0.0
 32
0.0
 13
1.0
 23
0.0
 33
0.0
 40
0.0
 40
0.0
 40
0.0
 40
0.0
 40
1.0
 40
1.0
 40
1.0
 40
2.0
 40
2.0
 40
2.0
 40
2.0
 10
104.315639968069
 20
-270.3662673788418
 30
0.0
 10
104.315639968069
 20
-277.215155750675
 30
0.0
 10
106.4653916501737
 20
-278.9855141571562
 30
0.0
 10
113.0709687839471
 20
-278.9855141571562
 30
0.0
 10
144.6088422693041
 20
-278.9855141571562
 30
0.0
 10
144.8164104405324
 20
-278.987236714593
 30
0.0
 10
181.2497921635012
 20
-278.987236714593
 30
0.0
  0
ENDBLK
  5
26F
330
26C
100
AcDbEntity
  8
0
100
AcDbBlockEnd
  0
BLOCK
  5
273
330
271
100
AcDbEntity
  8
0
100
AcDbBlockBegin
  2
block 90
 70
     0
 10
0.0
 20
0.0
 30
0.0
  3
block 90
  1

  0
SPLINE
  5
275
330
271
100
AcDbEntity
  8
0
 62
   250
370
    25
100
AcDbSpline
210
0.0
220
0.0
230
1.0
 70
     8
 71
     3
 72
    11
 73
     7
 74
     0
 42
0.0000000001
 43
0.0000000001
 12
1.0
 22
0.0
 32
0.0
 13
1.0
 23
0.0
 33
0.0
 40
0.0
 40
0.0
 40
0.0
 40
0.0
 40
1.0
 40
1.0
 40
1.0
 40
2.0
 40
2.0
 40
2.0
 40
2.0
 10
258.1835137195712
 20
-270.3649754607695
 30
0.0
 10
258.1835137195712
 20
-277.2134331932421
 30
0.0
 10
256.0341926768267
 20
-278.9846528784343
 30
0.0
 10
249.4277542643346
 20
-278.9846528784343
 30
0.0
 10
217.890311418337
 20
-278.9846528784343
 30
0.0
 10
217.6831738864681
 20
-278.9859447965136
 30
0.0
 10
181.2497921635012
 20
-278.9859447965136
 30
0.0
  0
ENDBLK
  5
274
330
271
100
AcDbEntity
  8
0
100
AcDbBlockEnd
  0
ENDSEC
  0
SECTION
  2
ENTITIES
  0
INSERT
  5
41
330
1F
100
AcDbEntity
  8
0
100
AcDbBlockReference
  2
block 2
 10
0.0
 20
0.0
 30
0.0
  0
INSERT
  5
46
330
1F
100
AcDbEntity
  8
0
100
AcDbBlockReference
  2
block 3
 10
0.0
 20
0.0
 30
0.0
  0
INSERT
  5
4C
330
1F
100
AcDbEntity
  8
0
100
AcDbBlockReference
  2
block 4
 10
0.0
 20
0.0
 30
0.0
  0
INSERT
  5
51
330
1F
100
AcDbEntity
  8
0
100
AcDbBlockReference
  2
block 5
 10
0.0
 20
0.0
 30
0.0
  0
INSERT
  5
57
330
1F
100
AcDbEntity
  8
0
100
AcDbBlockReference
  2
block 6
 10
0.0
 20
0.0
 30
0.0
  0
INSERT
  5
5D
330
1F
100
AcDbEntity
  8
0
100
AcDbBlockReference
  2
block 7
 10
0.0
 20
0.0
 30
0.0
  0
INSERT
  5
62
330
1F
100
AcDbEntity
  8
0
100
AcDbBlockReference
  2
block 8
 10
0.0
 20
0.0
 30
0.0
  0
INSERT
  5
68
330
1F
100
AcDbEntity
  8
0
100
AcDbBlockReference
  2
block 9
 10
0.0
 20
0.0
 30
0.0
  0
INSERT
  5
78
330
1F
100
AcDbEntity
  8
0
100
AcDbBlockReference
  2
block 12
 10
0.0
 20
0.0
 30
0.0
  0
INSERT
  5
88
330
1F
100
AcDbEntity
  8
0
100
AcDbBlockReference
  2
block 15
 10
0.0
 20
0.0
 30
0.0
  0
INSERT
  5
8E
330
1F
100
AcDbEntity
  8
0
100
AcDbBlockReference
  2
block 16
 10
0.0
 20
0.0
 30
0.0
  0
INSERT
  5
93
330
1F
100
AcDbEntity
  8
0
100
AcDbBlockReference
  2
block 17
 10
0.0
 20
0.0
 30
0.0
  0
INSERT
  5
99
330
1F
100
AcDbEntity
  8
0
100
AcDbBlockReference
  2
block 18
 10
0.0
 20
0.0
 30
0.0
  0
INSERT
  5
9F
330
1F
100
AcDbEntity
  8
0
100
AcDbBlockReference
  2
block 19
 10
0.0
 20
0.0
 30
0.0
  0
INSERT
  5
A4
330
1F
100
AcDbEntity
  8
0
100
AcDbBlockReference
  2
block 20
 10
0.0
 20
0.0
 30
0.0
  0
INSERT
  5
A9
330
1F
100
AcDbEntity
  8
0
100
AcDbBlockReference
  2
block 21
 10
0.0
 20
0.0
 30
0.0
  0
INSERT
  5
AF
330
1F
100
AcDbEntity
  8
0
100
AcDbBlockReference
  2
block 22
 10
0.0
 20
0.0
 30
0.0
  0
INSERT
  5
B5
330
1F
100
AcDbEntity
  8
0
100
AcDbBlockReference
  2
block 23
 10
0.0
 20
0.0
 30
0.0
  0
INSERT
  5
BB
330
1F
100
AcDbEntity
  8
0
100
AcDbBlockReference
  2
block 24
 10
0.0
 20
0.0
 30
0.0
  0
INSERT
  5
C1
330
1F
100
AcDbEntity
  8
0
100
AcDbBlockReference
  2
block 25
 10
0.0
 20
0.0
 30
0.0
  0
INSERT
  5
C6
330
1F
100
AcDbEntity
  8
0
100
AcDbBlockReference
  2
block 26
 10
0.0
 20
0.0
 30
0.0
  0
INSERT
  5
CB
330
1F
100
AcDbEntity
  8
0
100
AcDbBlockReference
  2
block 27
 10
0.0
 20
0.0
 30
0.0
  0
INSERT
  5
D1
330
1F
100
AcDbEntity
  8
0
100
AcDbBlockReference
  2
block 28
 10
0.0
 20
0.0
 30
0.0
  0
INSERT
  5
D7
330
1F
100
AcDbEntity
  8
0
100
AcDbBlockReference
  2
block 29
 10
0.0
 20
0.0
 30
0.0
  0
INSERT
  5
DC
330
1F
100
AcDbEntity
  8
0
100
AcDbBlockReference
  2
block 30
 10
0.0
 20
0.0
 30
0.0
  0
INSERT
  5
E1
330
1F
100
AcDbEntity
  8
0
100
AcDbBlockReference
  2
block 31
 10
0.0
 20
0.0
 30
0.0
  0
INSERT
  5
E6
330
1F
100
AcDbEntity
  8
0
100
AcDbBlockReference
  2
block 32
 10
0.0
 20
0.0
 30
0.0
  0
INSERT
  5
EB
330
1F
100
AcDbEntity
  8
0
100
AcDbBlockReference
  2
block 33
 10
0.0
 20
0.0
 30
0.0
  0
INSERT
  5
F0
330
1F
100
AcDbEntity
  8
0
100
AcDbBlockReference
  2
block 34
 10
0.0
 20
0.0
 30
0.0
  0
INSERT
  5
F5
330
1F
100
AcDbEntity
  8
0
100
AcDbBlockReference
  2
block 35
 10
0.0
 20
0.0
 30
0.0
  0
INSERT
  5
FA
330
1F
100
AcDbEntity
  8
0
100
AcDbBlockReference
  2
block 36
 10
0.0
 20
0.0
 30
0.0
  0
INSERT
  5
100
330
1F
100
AcDbEntity
  8
0
100
AcDbBlockReference
  2
block 37
 10
0.0
 20
0.0
 30
0.0
  0
INSERT
  5
106
330
1F
100
AcDbEntity
  8
0
100
AcDbBlockReference
  2
block 38
 10
0.0
 20
0.0
 30
0.0
  0
INSERT
  5
10B
330
1F
100
AcDbEntity
  8
0
100
AcDbBlockReference
  2
block 39
 10
0.0
 20
0.0
 30
0.0
  0
INSERT
  5
113
330
1F
100
AcDbEntity
  8
0
100
AcDbBlockReference
  2
block 40
 10
0.0
 20
0.0
 30
0.0
  0
INSERT
  5
119
330
1F
100
AcDbEntity
  8
0
100
AcDbBlockReference
  2
block 41
 10
0.0
 20
0.0
 30
0.0
  0
INSERT
  5
11E
330
1F
100
AcDbEntity
  8
0
100
AcDbBlockReference
  2
block 42
 10
0.0
 20
0.0
 30
0.0
  0
INSERT
  5
124
330
1F
100
AcDbEntity
  8
0
100
AcDbBlockReference
  2
block 43
 10
0.0
 20
0.0
 30
0.0
  0
INSERT
  5
129
330
1F
100
AcDbEntity
  8
0
100
AcDbBlockReference
  2
block 44
 10
0.0
 20
0.0
 30
0.0
  0
INSERT
  5
12E
330
1F
100
AcDbEntity
  8
0
100
AcDbBlockReference
  2
block 45
 10
0.0
 20
0.0
 30
0.0
  0
INSERT
  5
134
330
1F
100
AcDbEntity
  8
0
100
AcDbBlockReference
  2
block 46
 10
0.0
 20
0.0
 30
0.0
  0
INSERT
  5
139
330
1F
100
AcDbEntity
  8
0
100
AcDbBlockReference
  2
block 47
 10
0.0
 20
0.0
 30
0.0
  0
INSERT
  5
13E
330
1F
100
AcDbEntity
  8
0
100
AcDbBlockReference
  2
block 48
 10
0.0
 20
0.0
 30
0.0
  0
INSERT
  5
144
330
1F
100
AcDbEntity
  8
0
100
AcDbBlockReference
  2
block 49
 10
0.0
 20
0.0
 30
0.0
  0
INSERT
  5
149
330
1F
100
AcDbEntity
  8
0
100
AcDbBlockReference
  2
block 50
 10
0.0
 20
0.0
 30
0.0
  0
INSERT
  5
14F
330
1F
100
AcDbEntity
  8
0
100
AcDbBlockReference
  2
block 51
 10
0.0
 20
0.0
 30
0.0
  0
INSERT
  5
154
330
1F
100
AcDbEntity
  8
0
100
AcDbBlockReference
  2
block 52
 10
0.0
 20
0.0
 30
0.0
  0
INSERT
  5
159
330
1F
100
AcDbEntity
  8
0
100
AcDbBlockReference
  2
block 53
 10
0.0
 20
0.0
 30
0.0
  0
INSERT
  5
15E
330
1F
100
AcDbEntity
  8
0
100
AcDbBlockReference
  2
block 54
 10
0.0
 20
0.0
 30
0.0
  0
INSERT
  5
163
330
1F
100
AcDbEntity
  8
0
100
AcDbBlockReference
  2
block 55
 10
0.0
 20
0.0
 30
0.0
  0
INSERT
  5
168
330
1F
100
AcDbEntity
  8
0
100
AcDbBlockReference
  2
block 56
 10
0.0
 20
0.0
 30
0.0
  0
INSERT
  5
16E
330
1F
100
AcDbEntity
  8
0
100
AcDbBlockReference
  2
block 57
 10
0.0
 20
0.0
 30
0.0
  0
INSERT
  5
173
330
1F
100
AcDbEntity
  8
0
100
AcDbBlockReference
  2
block 58
 10
0.0
 20
0.0
 30
0.0
  0
INSERT
  5
178
330
1F
100
AcDbEntity
  8
0
100
AcDbBlockReference
  2
block 59
 10
0.0
 20
0.0
 30
0.0
  0
INSERT
  5
17D
330
1F
100
AcDbEntity
  8
0
100
AcDbBlockReference
  2
block 60
 10
0.0
 20
0.0
 30
0.0
  0
INSERT
  5
183
330
1F
100
AcDbEntity
  8
0
100
AcDbBlockReference
  2
block 61
 10
0.0
 20
0.0
 30
0.0
  0
INSERT
  5
188
330
1F
100
AcDbEntity
  8
0
100
AcDbBlockReference
  2
block 62
 10
0.0
 20
0.0
 30
0.0
  0
INSERT
  5
18D
330
1F
100
AcDbEntity
  8
0
100
AcDbBlockReference
  2
block 63
 10
0.0
 20
0.0
 30
0.0
  0
INSERT
  5
193
330
1F
100
AcDbEntity
  8
0
100
AcDbBlockReference
  2
block 64
 10
0.0
 20
0.0
 30
0.0
  0
INSERT
  5
199
330
1F
100
AcDbEntity
  8
0
100
AcDbBlockReference
  2
block 65
 10
0.0
 20
0.0
 30
0.0
  0
INSERT
  5
19F
330
1F
100
AcDbEntity
  8
0
100
AcDbBlockReference
  2
block 66
 10
0.0
 20
0.0
 30
0.0
  0
INSERT
  5
1A5
330
1F
100
AcDbEntity
  8
0
100
AcDbBlockReference
  2
block 67
 10
0.0
 20
0.0
 30
0.0
  0
INSERT
  5
1AA
330
1F
100
AcDbEntity
  8
0
100
AcDbBlockReference
  2
block 68
 10
0.0
 20
0.0
 30
0.0
  0
INSERT
  5
1AF
330
1F
100
AcDbEntity
  8
0
100
AcDbBlockReference
  2
block 69
 10
0.0
 20
0.0
 30
0.0
  0
INSERT
  5
1CD
330
1F
100
AcDbEntity
  8
0
100
AcDbBlockReference
  2
block 72
 10
0.0
 20
0.0
 30
0.0
  0
INSERT
  5
205
330
1F
100
AcDbEntity
  8
0
100
AcDbBlockReference
  2
block 77
 10
0.0
 20
0.0
 30
0.0
  0
INSERT
  5
20B
330
1F
100
AcDbEntity
  8
0
100
AcDbBlockReference
  2
block 78
 10
0.0
 20
0.0
 30
0.0
  0
INSERT
  5
229
330
1F
100
AcDbEntity
  8
0
100
AcDbBlockReference
  2
block 81
 10
0.0
 20
0.0
 30
0.0
  0
INSERT
  5
247
330
1F
100
AcDbEntity
  8
0
100
AcDbBlockReference
  2
block 84
 10
0.0
 20
0.0
 30
0.0
  0
INSERT
  5
24D
330
1F
100
AcDbEntity
  8
0
100
AcDbBlockReference
  2
block 85
 10
0.0
 20
0.0
 30
0.0
  0
INSERT
  5
255
330
1F
100
AcDbEntity
  8
0
100
AcDbBlockReference
  2
block 86
 10
0.0
 20
0.0
 30
0.0
  0
INSERT
  5
25D
330
1F
100
AcDbEntity
  8
0
100
AcDbBlockReference
  2
block 87
 10
0.0
 20
0.0
 30
0.0
  0
INSERT
  5
265
330
1F
100
AcDbEntity
  8
0
100
AcDbBlockReference
  2
block 88
 10
0.0
 20
0.0
 30
0.0
  0
INSERT
  5
26D
330
1F
100
AcDbEntity
  8
0
100
AcDbBlockReference
  2
block 89
 10
0.0
 20
0.0
 30
0.0
  0
INSERT
  5
272
330
1F
100
AcDbEntity
  8
0
100
AcDbBlockReference
  2
block 90
 10
0.0
 20
0.0
 30
0.0
  0
ENDSEC
  0
SECTION
  2
OBJECTS
  0
DICTIONARY
  5
C
330
0
100
AcDbDictionary
281
     1
  3
ACAD_GROUP
350
D
  3
ACAD_LAYOUT
350
1A
  3
ACAD_MATERIAL
350
3B
  3
ACAD_MLEADERSTYLE
350
297
  3
ACAD_MLINESTYLE
350
17
  3
ACAD_PLOTSETTINGS
350
19
  3
ACAD_PLOTSTYLENAME
350
E
  3
ACAD_TABLESTYLE
350
296
  3
ACAD_VISUALSTYLE
350
2A
  0
SUN
  5
3F
330
29
100
AcDbSun
 90
        1
290
     0
 63
     7
421
 16777215
 40
1.0
291
     1
 91
  2455826
 92
 54000000
292
     0
 70
     2
 71
   256
280
     1
  0
DICTIONARY
  5
D
102
{ACAD_REACTORS
330
C
102
}
330
C
100
AcDbDictionary
281
     1
  0
DICTIONARY
  5
1A
102
{ACAD_REACTORS
330
C
102
}
330
C
100
AcDbDictionary
281
     1
  3
Layout1
350
1E
  3
Layout2
350
26
  3
Model
350
22
  0
DICTIONARY
  5
3B
102
{ACAD_REACTORS
330
C
102
}
330
C
100
AcDbDictionary
281
     1
  3
ByBlock
350
3D
  3
ByLayer
350
3C
  3
Global
350
3E
  0
DICTIONARY
  5
297
102
{ACAD_REACTORS
330
C
102
}
330
C
100
AcDbDictionary
281
     1
  0
DICTIONARY
  5
17
102
{ACAD_REACTORS
330
C
102
}
330
C
100
AcDbDictionary
281
     1
  3
Standard
350
18
  0
DICTIONARY
  5
19
102
{ACAD_REACTORS
330
C
102
}
330
C
100
AcDbDictionary
281
     1
  0
ACDBDICTIONARYWDFLT
  5
E
102
{ACAD_REACTORS
330
C
102
}
330
C
100
AcDbDictionary
281
     1
  3
Normal
350
F
100
AcDbDictionaryWithDefault
340
F
  0
DICTIONARY
  5
296
102
{ACAD_REACTORS
330
C
102
}
330
C
100
AcDbDictionary
281
     1
  0
DICTIONARY
  5
2A
102
{ACAD_REACTORS
330
C
102
}
330
C
100
AcDbDictionary
281
     1
  3
2dWireframe
350
2F
  3
3D Hidden
350
31
  3
3dWireframe
350
30
  3
Basic
350
32
  3
Brighten
350
36
  3
ColorChange
350
3A
  3
Conceptual
350
34
  3
Dim
350
35
  3
Facepattern
350
39
  3
Flat
350
2B
  3
FlatWithEdges
350
2C
  3
Gouraud
350
2D
  3
GouraudWithEdges
350
2E
  3
Linepattern
350
38
  3
Realistic
350
33
  3
Thicken
350
37
  0
LAYOUT
  5
1E
102
{ACAD_REACTORS
330
1A
102
}
330
1A
100
AcDbPlotSettings
  1

  2
none_device
  4

  6

 40
0.0
 41
0.0
 42
0.0
 43
0.0
 44
0.0
 45
0.0
 46
0.0
 47
0.0
 48
0.0
 49
0.0
140
0.0
141
0.0
142
1.0
143
1.0
 70
   688
 72
     0
 73
     0
 74
     5
  7

 75
    16
 76
     0
 77
     2
 78
   300
147
1.0
148
0.0
149
0.0
100
AcDbLayout
  1
Layout1
 70
     1
 71
     1
 10
0.0
 20
0.0
 11
12.0
 21
9.0
 12
0.0
 22
0.0
 32
0.0
 14
1.000000000000000E+20
 24
1.000000000000000E+20
 34
1.000000000000000E+20
 15
-1.000000000000000E+20
 25
-1.000000000000000E+20
 35
-1.000000000000000E+20
146
0.0
 13
0.0
 23
0.0
 33
0.0
 16
1.0
 26
0.0
 36
0.0
 17
0.0
 27
1.0
 37
0.0
 76
     0
330
1B
  0
LAYOUT
  5
26
102
{ACAD_REACTORS
330
1A
102
}
330
1A
100
AcDbPlotSettings
  1

  2
none_device
  4

  6

 40
0.0
 41
0.0
 42
0.0
 43
0.0
 44
0.0
 45
0.0
 46
0.0
 47
0.0
 48
0.0
 49
0.0
140
0.0
141
0.0
142
1.0
143
1.0
 70
   688
 72
     0
 73
     0
 74
     5
  7

 75
    16
 76
     0
 77
     2
 78
   300
147
1.0
148
0.0
149
0.0
100
AcDbLayout
  1
Layout2
 70
     1
 71
     2
 10
0.0
 20
0.0
 11
0.0
 21
0.0
 12
0.0
 22
0.0
 32
0.0
 14
0.0
 24
0.0
 34
0.0
 15
0.0
 25
0.0
 35
0.0
146
0.0
 13
0.0
 23
0.0
 33
0.0
 16
1.0
 26
0.0
 36
0.0
 17
0.0
 27
1.0
 37
0.0
 76
     0
330
23
  0
LAYOUT
  5
22
102
{ACAD_REACTORS
330
1A
102
}
330
1A
100
AcDbPlotSettings
  1

  2
none_device
  4

  6

 40
0.0
 41
0.0
 42
0.0
 43
0.0
 44
0.0
 45
0.0
 46
0.0
 47
0.0
 48
0.0
 49
0.0
140
0.0
141
0.0
142
1.0
143
1.0
 70
  1712
 72
     0
 73
     0
 74
     0
  7

 75
     0
 76
     0
 77
     2
 78
   300
147
1.0
148
0.0
149
0.0
100
AcDbLayout
  1
Model
 70
     1
 71
     0
 10
0.0
 20
0.0
 11
12.0
 21
9.0
 12
0.0
 22
0.0
 32
0.0
 14
1.000000000000000E+20
 24
1.000000000000000E+20
 34
1.000000000000000E+20
 15
-1.000000000000000E+20
 25
-1.000000000000000E+20
 35
-1.000000000000000E+20
146
0.0
 13
0.0
 23
0.0
 33
0.0
 16
1.0
 26
0.0
 36
0.0
 17
0.0
 27
1.0
 37
0.0
 76
     0
330
1F
331
29
  0
MATERIAL
  5
3D
102
{ACAD_REACTORS
330
3B
102
}
330
3B
100
AcDbMaterial
  1
ByBlock
 72
     1
 94
      127
  0
MATERIAL
  5
3C
102
{ACAD_REACTORS
330
3B
102
}
330
3B
100
AcDbMaterial
  1
ByLayer
 72
     1
 94
      127
  0
MATERIAL
  5
3E
102
{ACAD_REACTORS
330
3B
102
}
330
3B
100
AcDbMaterial
  1
Global
 72
     1
 94
      127
  0
MLINESTYLE
  5
18
102
{ACAD_REACTORS
330
17
102
}
330
17
100
AcDbMlineStyle
  2
Standard
 70
     0
  3

 62
   256
 51
90.0
 52
90.0
 71
     2
 49
0.5
 62
   256
  6
BYLAYER
 49
-0.5
 62
   256
  6
BYLAYER
  0
ACDBPLACEHOLDER
  5
F
102
{ACAD_REACTORS
330
E
102
}
330
E
  0
VISUALSTYLE
  5
2F
102
{ACAD_REACTORS
330
2A
102
}
102
{ACAD_XDICTIONARY
360
27E
102
}
330
2A
100
AcDbVisualStyle
  2
2dWireframe
 70
     4
 71
     0
 72
     2
 73
     0
 90
        0
 40
-0.6
 41
-30.0
 62
     5
 63
     7
421
 16777215
 74
     1
 91
        4
 64
     7
 65
   257
 75
     1
175
     1
 42
1.0
 92
        0
 66
   257
 43
1.0
 76
     1
 77
     6
 78
     2
 67
     7
 79
     5
170
     0
171
     0
290
     0
174
     0
 93
        1
 44
0.0
173
     0
291
     0
 45
0.0
  0
VISUALSTYLE
  5
31
102
{ACAD_REACTORS
330
2A
102
}
102
{ACAD_XDICTIONARY
360
282
102
}
330
2A
100
AcDbVisualStyle
  2
3D Hidden
 70
     6
 71
     1
 72
     2
 73
     2
 90
        0
 40
-0.6
 41
-30.0
 62
     5
 63
     7
421
 16777215
 74
     2
 91
        2
 64
     7
 65
   257
 75
     2
175
     1
 42
40.0
 92
        0
 66
   257
 43
1.0
 76
     1
 77
     6
 78
     2
 67
     7
 79
     3
170
     0
171
     0
290
     0
174
     0
 93
        1
 44
0.0
173
     0
291
     0
 45
0.0
  0
VISUALSTYLE
  5
30
102
{ACAD_REACTORS
330
2A
102
}
102
{ACAD_XDICTIONARY
360
280
102
}
330
2A
100
AcDbVisualStyle
  2
3dWireframe
 70
     5
 71
     0
 72
     2
 73
     0
 90
        0
 40
-0.6
 41
-30.0
 62
     5
 63
     7
421
 16777215
 74
     1
 91
        4
 64
     7
 65
   257
 75
     1
175
     1
 42
1.0
 92
        0
 66
   257
 43
1.0
 76
     1
 77
     6
 78
     2
 67
     7
 79
     5
170
     0
171
     0
290
     0
174
     0
 93
        1
 44
0.0
173
     0
291
     0
 45
0.0
  0
VISUALSTYLE
  5
32
102
{ACAD_REACTORS
330
2A
102
}
102
{ACAD_XDICTIONARY
360
284
102
}
330
2A
100
AcDbVisualStyle
  2
Basic
 70
     7
 71
     1
 72
     0
 73
     1
 90
        0
 40
-0.6
 41
-30.0
 62
     5
 63
     7
421
 16777215
 74
     0
 91
        4
 64
     7
 65
   257
 75
     1
175
     1
 42
1.0
 92
        8
 66
     7
 43
1.0
 76
     1
 77
     6
 78
     2
 67
     7
 79
     5
170
     0
171
     0
290
     0
174
     0
 93
        1
 44
0.0
173
     0
291
     1
 45
0.0
  0
VISUALSTYLE
  5
36
102
{ACAD_REACTORS
330
2A
102
}
102
{ACAD_XDICTIONARY
360
28C
102
}
330
2A
100
AcDbVisualStyle
  2
Brighten
 70
    12
 71
     2
 72
     2
 73
     0
 90
        0
 40
-0.6
 41
-30.0
 62
     5
 63
     7
421
 16777215
 74
     1
 91
        4
 64
     7
 65
   257
 75
     1
175
     1
 42
1.0
 92
        8
 66
     7
 43
1.0
 76
     1
 77
     6
 78
     2
 67
     7
 79
     5
170
     0
171
     0
290
     0
174
     0
 93
        1
 44
50.0
173
     0
291
     1
 45
0.0
  0
VISUALSTYLE
  5
3A
102
{ACAD_REACTORS
330
2A
102
}
102
{ACAD_XDICTIONARY
360
294
102
}
330
2A
100
AcDbVisualStyle
  2
ColorChange
 70
    16
 71
     2
 72
     2
 73
     3
 90
        0
 40
-0.6
 41
-30.0
 62
     5
 63
     8
421
  8421504
 74
     1
 91
        4
 64
     7
 65
   257
 75
     1
175
     1
 42
1.0
 92
        8
 66
     8
424
  8421504
 43
1.0
 76
     1
 77
     6
 78
     2
 67
     7
 79
     5
170
     0
171
     0
290
     0
174
     0
 93
        1
 44
0.0
173
     0
291
     1
 45
0.0
  0
VISUALSTYLE
  5
34
102
{ACAD_REACTORS
330
2A
102
}
102
{ACAD_XDICTIONARY
360
288
102
}
330
2A
100
AcDbVisualStyle
  2
Conceptual
 70
     9
 71
     3
 72
     2
 73
     0
 90
        0
 40
-0.6
 41
-30.0
 62
     5
 63
     7
421
 16777215
 74
     2
 91
        2
 64
     7
 65
   257
 75
     1
175
     1
 42
40.0
 92
        8
 66
     7
 43
1.0
 76
     1
 77
     6
 78
     2
 67
     7
 79
     3
170
     0
171
     0
290
     0
174
     0
 93
        1
 44
0.0
173
     0
291
     0
 45
0.0
  0
VISUALSTYLE
  5
35
102
{ACAD_REACTORS
330
2A
102
}
102
{ACAD_XDICTIONARY
360
28A
102
}
330
2A
100
AcDbVisualStyle
  2
Dim
 70
    11
 71
     2
 72
     2
 73
     0
 90
        0
 40
-0.6
 41
-30.0
 62
     5
 63
     7
421
 16777215
 74
     1
 91
        4
 64
     7
 65
   257
 75
     1
175
     1
 42
1.0
 92
        8
 66
     7
 43
1.0
 76
     1
 77
     6
 78
     2
 67
     7
 79
     5
170
     0
171
     0
290
     0
174
     0
 93
        1
 44
-50.0
173
     0
291
     1
 45
0.0
  0
VISUALSTYLE
  5
39
102
{ACAD_REACTORS
330
2A
102
}
102
{ACAD_XDICTIONARY
360
292
102
}
330
2A
100
AcDbVisualStyle
  2
Facepattern
 70
    15
 71
     2
 72
     2
 73
     0
 90
        0
 40
-0.6
 41
-30.0
 62
     5
 63
     7
421
 16777215
 74
     1
 91
        4
 64
     7
 65
   257
 75
     1
175
     1
 42
1.0
 92
        8
 66
     7
 43
1.0
 76
     1
 77
     6
 78
     2
 67
     7
 79
     5
170
     0
171
     0
290
     0
174
     0
 93
        1
 44
0.0
173
     0
291
     1
 45
0.0
  0
VISUALSTYLE
  5
2B
102
{ACAD_REACTORS
330
2A
102
}
102
{ACAD_XDICTIONARY
360
276
102
}
330
2A
100
AcDbVisualStyle
  2
Flat
 70
     0
 71
     2
 72
     1
 73
     1
 90
        2
 40
-0.6
 41
30.0
 62
     5
 63
     7
421
 16777215
 74
     0
 91
        4
 64
     7
 65
   257
 75
     1
175
     1
 42
1.0
 92
        8
 66
     7
 43
1.0
 76
     1
 77
     6
 78
     2
 67
     7
 79
     5
170
     0
171
     0
290
     0
174
     0
 93
       13
 44
0.0
173
     0
291
     1
 45
0.0
  0
VISUALSTYLE
  5
2C
102
{ACAD_REACTORS
330
2A
102
}
102
{ACAD_XDICTIONARY
360
278
102
}
330
2A
100
AcDbVisualStyle
  2
FlatWithEdges
 70
     1
 71
     2
 72
     1
 73
     1
 90
        2
 40
-0.6
 41
30.0
 62
     5
 63
     7
421
 16777215
 74
     1
 91
        4
 64
     7
 65
   257
 75
     1
175
     1
 42
1.0
 92
        0
 66
   257
 43
1.0
 76
     1
 77
     6
 78
     2
 67
     7
 79
     5
170
     0
171
     0
290
     0
174
     0
 93
       13
 44
0.0
173
     0
291
     1
 45
0.0
  0
VISUALSTYLE
  5
2D
102
{ACAD_REACTORS
330
2A
102
}
102
{ACAD_XDICTIONARY
360
27A
102
}
330
2A
100
AcDbVisualStyle
  2
Gouraud
 70
     2
 71
     2
 72
     2
 73
     1
 90
        2
 40
-0.6
 41
30.0
 62
     5
 63
     7
421
 16777215
 74
     0
 91
        4
 64
     7
 65
   257
 75
     1
175
     1
 42
1.0
 92
        0
 66
     7
 43
1.0
 76
     1
 77
     6
 78
     2
 67
     7
 79
     5
170
     0
171
     0
290
     0
174
     0
 93
       13
 44
0.0
173
     0
291
     1
 45
0.0
  0
VISUALSTYLE
  5
2E
102
{ACAD_REACTORS
330
2A
102
}
102
{ACAD_XDICTIONARY
360
27C
102
}
330
2A
100
AcDbVisualStyle
  2
GouraudWithEdges
 70
     3
 71
     2
 72
     2
 73
     1
 90
        2
 40
-0.6
 41
30.0
 62
     5
 63
     7
421
 16777215
 74
     1
 91
        4
 64
     7
 65
   257
 75
     1
175
     1
 42
1.0
 92
        0
 66
   257
 43
1.0
 76
     1
 77
     6
 78
     2
 67
     7
 79
     5
170
     0
171
     0
290
     0
174
     0
 93
       13
 44
0.0
173
     0
291
     1
 45
0.0
  0
VISUALSTYLE
  5
38
102
{ACAD_REACTORS
330
2A
102
}
102
{ACAD_XDICTIONARY
360
290
102
}
330
2A
100
AcDbVisualStyle
  2
Linepattern
 70
    14
 71
     2
 72
     2
 73
     0
 90
        0
 40
-0.6
 41
-30.0
 62
     5
 63
     7
421
 16777215
 74
     1
 91
        4
 64
     7
 65
   257
 75
     7
175
     7
 42
1.0
 92
        8
 66
     7
 43
1.0
 76
     1
 77
     6
 78
     2
 67
     7
 79
     5
170
     0
171
     0
290
     0
174
     0
 93
        1
 44
0.0
173
     0
291
     1
 45
0.0
  0
VISUALSTYLE
  5
33
102
{ACAD_REACTORS
330
2A
102
}
102
{ACAD_XDICTIONARY
360
286
102
}
330
2A
100
AcDbVisualStyle
  2
Realistic
 70
     8
 71
     2
 72
     2
 73
     0
 90
        0
 40
-0.6
 41
-30.0
 62
     5
 63
     7
421
 16777215
 74
     1
 91
        0
 64
     7
 65
   257
 75
     1
175
     1
 42
1.0
 92
        8
 66
     8
424
  7895160
 43
1.0
 76
     1
 77
     6
 78
     2
 67
     7
 79
     5
170
     0
171
     0
290
     0
174
     0
 93
       13
 44
0.0
173
     0
291
     0
 45
0.0
  0
VISUALSTYLE
  5
37
102
{ACAD_REACTORS
330
2A
102
}
102
{ACAD_XDICTIONARY
360
28E
102
}
330
2A
100
AcDbVisualStyle
  2
Thicken
 70
    13
 71
     2
 72
     2
 73
     0
 90
        0
 40
-0.6
 41
-30.0
 62
     5
 63
     7
421
 16777215
 74
     1
 91
        4
 64
     7
 65
   257
 75
     1
175
     1
 42
1.0
 92
       12
 66
     7
 43
1.0
 76
     1
 77
     6
 78
     2
 67
     7
 79
     5
170
     0
171
     0
290
     0
174
     0
 93
        1
 44
0.0
173
     0
291
     1
 45
0.0
  0
DICTIONARY
  5
27E
330
2F
100
AcDbDictionary
280
     1
281
     1
  3
ACAD_XREC_ROUNDTRIP
360
27F
  0
DICTIONARY
  5
282
330
31
100
AcDbDictionary
280
     1
281
     1
  3
ACAD_XREC_ROUNDTRIP
360
283
  0
DICTIONARY
  5
280
330
30
100
AcDbDictionary
280
     1
281
     1
  3
ACAD_XREC_ROUNDTRIP
360
281
  0
DICTIONARY
  5
284
330
32
100
AcDbDictionary
280
     1
281
     1
  3
ACAD_XREC_ROUNDTRIP
360
285
  0
DICTIONARY
  5
28C
330
36
100
AcDbDictionary
280
     1
281
     1
  3
ACAD_XREC_ROUNDTRIP
360
28D
  0
DICTIONARY
  5
294
330
3A
100
AcDbDictionary
280
     1
281
     1
  3
ACAD_XREC_ROUNDTRIP
360
295
  0
DICTIONARY
  5
288
330
34
100
AcDbDictionary
280
     1
281
     1
  3
ACAD_XREC_ROUNDTRIP
360
289
  0
DICTIONARY
  5
28A
330
35
100
AcDbDictionary
280
     1
281
     1
  3
ACAD_XREC_ROUNDTRIP
360
28B
  0
DICTIONARY
  5
292
330
39
100
AcDbDictionary
280
     1
281
     1
  3
ACAD_XREC_ROUNDTRIP
360
293
  0
DICTIONARY
  5
276
330
2B
100
AcDbDictionary
280
     1
281
     1
  3
ACAD_XREC_ROUNDTRIP
360
277
  0
DICTIONARY
  5
278
330
2C
100
AcDbDictionary
280
     1
281
     1
  3
ACAD_XREC_ROUNDTRIP
360
279
  0
DICTIONARY
  5
27A
330
2D
100
AcDbDictionary
280
     1
281
     1
  3
ACAD_XREC_ROUNDTRIP
360
27B
  0
DICTIONARY
  5
27C
330
2E
100
AcDbDictionary
280
     1
281
     1
  3
ACAD_XREC_ROUNDTRIP
360
27D
  0
DICTIONARY
  5
290
330
38
100
AcDbDictionary
280
     1
281
     1
  3
ACAD_XREC_ROUNDTRIP
360
291
  0
DICTIONARY
  5
286
330
33
100
AcDbDictionary
280
     1
281
     1
  3
ACAD_XREC_ROUNDTRIP
360
287
  0
DICTIONARY
  5
28E
330
37
100
AcDbDictionary
280
     1
281
     1
  3
ACAD_XREC_ROUNDTRIP
360
28F
  0
XRECORD
  5
27F
102
{ACAD_REACTORS
330
27E
102
}
330
27E
100
AcDbXrecord
280
     1
102
RTVSPropertyOp0
 70
     1
102
RTVSPropertyOp1
 70
     1
102
RTVSPropertyOp2
 70
     1
102
RTVSPropertyOp3
 70
     1
102
RTVSPropertyOp4
 70
     1
102
RTVSPropertyOp5
 70
     1
102
RTVSPropertyOp6
 70
     1
102
RTVSPropertyOp7
 70
     1
102
RTVSPropertyOp8
 70
     1
102
RTVSPropertyOp9
 70
     1
102
RTVSPropertyOp10
 70
     1
102
RTVSPropertyOp11
 70
     1
102
RTVSPropertyOp12
 70
     1
102
RTVSPropertyOp13
 70
     1
102
RTVSPropertyOp14
 70
     1
102
RTVSPropertyOp15
 70
     1
102
RTVSPropertyOp16
 70
     1
102
RTVSPropertyOp17
 70
     1
102
RTVSPropertyOp18
 70
     1
102
RTVSPropertyOp19
 70
     1
102
RTVSPropertyOp20
 70
     1
102
RTVSPropertyOp21
 70
     1
102
RTVSPropertyOp22
 70
     1
102
RTVSPropertyOp23
 70
     1
102
RTVSPropertyOp24
 70
     1
102
RTVSPropertyOp25
 70
     1
102
RTVSPropertyOp26
 70
     1
102
RTVSPropertyOp27
 70
     1
102
RTVSPropertyOp28
 70
     1
102
RTVSPropertyOp29
 70
     1
102
RTVSPropertyOp30
 70
     1
102
RTVSPropertyOp31
 70
     1
102
RTVSPropertyOp32
 70
     1
  0
XRECORD
  5
283
102
{ACAD_REACTORS
330
282
102
}
330
282
100
AcDbXrecord
280
     1
102
RTVSPropertyOp0
 70
     1
102
RTVSPropertyOp1
 70
     1
102
RTVSPropertyOp2
 70
     1
102
RTVSPropertyOp3
 70
     1
102
RTVSPropertyOp4
 70
     1
102
RTVSPropertyOp5
 70
     1
102
RTVSPropertyOp6
 70
     1
102
RTVSPropertyOp7
 70
     1
102
RTVSPropertyOp8
 70
     1
102
RTVSPropertyOp9
 70
     1
102
RTVSPropertyOp10
 70
     1
102
RTVSPropertyOp11
 70
     1
102
RTVSPropertyOp12
 70
     1
102
RTVSPropertyOp13
 70
     1
102
RTVSPropertyOp14
 70
     1
102
RTVSPropertyOp15
 70
     1
102
RTVSPropertyOp16
 70
     1
102
RTVSPropertyOp17
 70
     1
102
RTVSPropertyOp18
 70
     1
102
RTVSPropertyOp19
 70
     1
102
RTVSPropertyOp20
 70
     1
102
RTVSPropertyOp21
 70
     1
102
RTVSPropertyOp22
 70
     1
102
RTVSPropertyOp23
 70
     1
102
RTVSPropertyOp24
 70
     1
102
RTVSPropertyOp25
 70
     1
102
RTVSPropertyOp26
 70
     1
102
RTVSPropertyOp27
 70
     1
102
RTVSPropertyOp28
 70
     1
102
RTVSPropertyOp29
 70
     1
102
RTVSPropertyOp30
 70
     1
102
RTVSPropertyOp31
 70
     1
102
RTVSPropertyOp32
 70
     1
  0
XRECORD
  5
281
102
{ACAD_REACTORS
330
280
102
}
330
280
100
AcDbXrecord
280
     1
102
RTVSPropertyOp0
 70
     1
102
RTVSPropertyOp1
 70
     1
102
RTVSPropertyOp2
 70
     1
102
RTVSPropertyOp3
 70
     1
102
RTVSPropertyOp4
 70
     1
102
RTVSPropertyOp5
 70
     1
102
RTVSPropertyOp6
 70
     1
102
RTVSPropertyOp7
 70
     1
102
RTVSPropertyOp8
 70
     1
102
RTVSPropertyOp9
 70
     1
102
RTVSPropertyOp10
 70
     1
102
RTVSPropertyOp11
 70
     1
102
RTVSPropertyOp12
 70
     1
102
RTVSPropertyOp13
 70
     1
102
RTVSPropertyOp14
 70
     1
102
RTVSPropertyOp15
 70
     1
102
RTVSPropertyOp16
 70
     1
102
RTVSPropertyOp17
 70
     1
102
RTVSPropertyOp18
 70
     1
102
RTVSPropertyOp19
 70
     1
102
RTVSPropertyOp20
 70
     1
102
RTVSPropertyOp21
 70
     1
102
RTVSPropertyOp22
 70
     1
102
RTVSPropertyOp23
 70
     1
102
RTVSPropertyOp24
 70
     1
102
RTVSPropertyOp25
 70
     1
102
RTVSPropertyOp26
 70
     1
102
RTVSPropertyOp27
 70
     1
102
RTVSPropertyOp28
 70
     1
102
RTVSPropertyOp29
 70
     1
102
RTVSPropertyOp30
 70
     1
102
RTVSPropertyOp31
 70
     1
102
RTVSPropertyOp32
 70
     1
  0
XRECORD
  5
285
102
{ACAD_REACTORS
330
284
102
}
330
284
100
AcDbXrecord
280
     1
102
RTVSPropertyOp0
 70
     1
102
RTVSPropertyOp1
 70
     1
102
RTVSPropertyOp2
 70
     1
102
RTVSPropertyOp3
 70
     1
102
RTVSPropertyOp4
 70
     1
102
RTVSPropertyOp5
 70
     1
102
RTVSPropertyOp6
 70
     1
102
RTVSPropertyOp7
 70
     1
102
RTVSPropertyOp8
 70
     1
102
RTVSPropertyOp9
 70
     1
102
RTVSPropertyOp10
 70
     1
102
RTVSPropertyOp11
 70
     1
102
RTVSPropertyOp12
 70
     1
102
RTVSPropertyOp13
 70
     1
102
RTVSPropertyOp14
 70
     1
102
RTVSPropertyOp15
 70
     1
102
RTVSPropertyOp16
 70
     1
102
RTVSPropertyOp17
 70
     1
102
RTVSPropertyOp18
 70
     1
102
RTVSPropertyOp19
 70
     1
102
RTVSPropertyOp20
 70
     1
102
RTVSPropertyOp21
 70
     1
102
RTVSPropertyOp22
 70
     1
102
RTVSPropertyOp23
 70
     1
102
RTVSPropertyOp24
 70
     1
102
RTVSPropertyOp25
 70
     1
102
RTVSPropertyOp26
 70
     1
102
RTVSPropertyOp27
 70
     1
102
RTVSPropertyOp28
 70
     1
102
RTVSPropertyOp29
 70
     1
102
RTVSPropertyOp30
 70
     1
102
RTVSPropertyOp31
 70
     1
102
RTVSPropertyOp32
 70
     1
  0
XRECORD
  5
28D
102
{ACAD_REACTORS
330
28C
102
}
330
28C
100
AcDbXrecord
280
     1
102
RTVSPropertyOp0
 70
     1
102
RTVSPropertyOp1
 70
     1
102
RTVSPropertyOp2
 70
     1
102
RTVSPropertyOp3
 70
     1
102
RTVSPropertyOp4
 70
     1
102
RTVSPropertyOp5
 70
     1
102
RTVSPropertyOp6
 70
     1
102
RTVSPropertyOp7
 70
     1
102
RTVSPropertyOp8
 70
     1
102
RTVSPropertyOp9
 70
     1
102
RTVSPropertyOp10
 70
     1
102
RTVSPropertyOp11
 70
     1
102
RTVSPropertyOp12
 70
     1
102
RTVSPropertyOp13
 70
     1
102
RTVSPropertyOp14
 70
     1
102
RTVSPropertyOp15
 70
     1
102
RTVSPropertyOp16
 70
     1
102
RTVSPropertyOp17
 70
     1
102
RTVSPropertyOp18
 70
     1
102
RTVSPropertyOp19
 70
     1
102
RTVSPropertyOp20
 70
     1
102
RTVSPropertyOp21
 70
     1
102
RTVSPropertyOp22
 70
     1
102
RTVSPropertyOp23
 70
     1
102
RTVSPropertyOp24
 70
     1
102
RTVSPropertyOp25
 70
     1
102
RTVSPropertyOp26
 70
     1
102
RTVSPropertyOp27
 70
     1
102
RTVSPropertyOp28
 70
     1
102
RTVSPropertyOp29
 70
     1
102
RTVSPropertyOp30
 70
     1
102
RTVSPropertyOp31
 70
     1
102
RTVSPropertyOp32
 70
     1
  0
XRECORD
  5
295
102
{ACAD_REACTORS
330
294
102
}
330
294
100
AcDbXrecord
280
     1
102
RTVSPropertyOp0
 70
     1
102
RTVSPropertyOp1
 70
     1
102
RTVSPropertyOp2
 70
     1
102
RTVSPropertyOp3
 70
     1
102
RTVSPropertyOp4
 70
     1
102
RTVSPropertyOp5
 70
     1
102
RTVSPropertyOp6
 70
     1
102
RTVSPropertyOp7
 70
     1
102
RTVSPropertyOp8
 70
     1
102
RTVSPropertyOp9
 70
     1
102
RTVSPropertyOp10
 70
     1
102
RTVSPropertyOp11
 70
     1
102
RTVSPropertyOp12
 70
     1
102
RTVSPropertyOp13
 70
     1
102
RTVSPropertyOp14
 70
     1
102
RTVSPropertyOp15
 70
     1
102
RTVSPropertyOp16
 70
     1
102
RTVSPropertyOp17
 70
     1
102
RTVSPropertyOp18
 70
     1
102
RTVSPropertyOp19
 70
     1
102
RTVSPropertyOp20
 70
     1
102
RTVSPropertyOp21
 70
     1
102
RTVSPropertyOp22
 70
     1
102
RTVSPropertyOp23
 70
     1
102
RTVSPropertyOp24
 70
     1
102
RTVSPropertyOp25
 70
     1
102
RTVSPropertyOp26
 70
     1
102
RTVSPropertyOp27
 70
     1
102
RTVSPropertyOp28
 70
     1
102
RTVSPropertyOp29
 70
     1
102
RTVSPropertyOp30
 70
     1
102
RTVSPropertyOp31
 70
     1
102
RTVSPropertyOp32
 70
     1
  0
XRECORD
  5
289
102
{ACAD_REACTORS
330
288
102
}
330
288
100
AcDbXrecord
280
     1
102
RTVSPropertyOp0
 70
     1
102
RTVSPropertyOp1
 70
     1
102
RTVSPropertyOp2
 70
     1
102
RTVSPropertyOp3
 70
     1
102
RTVSPropertyOp4
 70
     1
102
RTVSPropertyOp5
 70
     1
102
RTVSPropertyOp6
 70
     1
102
RTVSPropertyOp7
 70
     1
102
RTVSPropertyOp8
 70
     1
102
RTVSPropertyOp9
 70
     1
102
RTVSPropertyOp10
 70
     1
102
RTVSPropertyOp11
 70
     1
102
RTVSPropertyOp12
 70
     1
102
RTVSPropertyOp13
 70
     1
102
RTVSPropertyOp14
 70
     1
102
RTVSPropertyOp15
 70
     1
102
RTVSPropertyOp16
 70
     1
102
RTVSPropertyOp17
 70
     1
102
RTVSPropertyOp18
 70
     1
102
RTVSPropertyOp19
 70
     1
102
RTVSPropertyOp20
 70
     1
102
RTVSPropertyOp21
 70
     1
102
RTVSPropertyOp22
 70
     1
102
RTVSPropertyOp23
 70
     1
102
RTVSPropertyOp24
 70
     1
102
RTVSPropertyOp25
 70
     1
102
RTVSPropertyOp26
 70
     1
102
RTVSPropertyOp27
 70
     1
102
RTVSPropertyOp28
 70
     1
102
RTVSPropertyOp29
 70
     1
102
RTVSPropertyOp30
 70
     1
102
RTVSPropertyOp31
 70
     1
102
RTVSPropertyOp32
 70
     1
  0
XRECORD
  5
28B
102
{ACAD_REACTORS
330
28A
102
}
330
28A
100
AcDbXrecord
280
     1
102
RTVSPropertyOp0
 70
     1
102
RTVSPropertyOp1
 70
     1
102
RTVSPropertyOp2
 70
     1
102
RTVSPropertyOp3
 70
     1
102
RTVSPropertyOp4
 70
     1
102
RTVSPropertyOp5
 70
     1
102
RTVSPropertyOp6
 70
     1
102
RTVSPropertyOp7
 70
     1
102
RTVSPropertyOp8
 70
     1
102
RTVSPropertyOp9
 70
     1
102
RTVSPropertyOp10
 70
     1
102
RTVSPropertyOp11
 70
     1
102
RTVSPropertyOp12
 70
     1
102
RTVSPropertyOp13
 70
     1
102
RTVSPropertyOp14
 70
     1
102
RTVSPropertyOp15
 70
     1
102
RTVSPropertyOp16
 70
     1
102
RTVSPropertyOp17
 70
     1
102
RTVSPropertyOp18
 70
     1
102
RTVSPropertyOp19
 70
     1
102
RTVSPropertyOp20
 70
     1
102
RTVSPropertyOp21
 70
     1
102
RTVSPropertyOp22
 70
     1
102
RTVSPropertyOp23
 70
     1
102
RTVSPropertyOp24
 70
     1
102
RTVSPropertyOp25
 70
     1
102
RTVSPropertyOp26
 70
     1
102
RTVSPropertyOp27
 70
     1
102
RTVSPropertyOp28
 70
     1
102
RTVSPropertyOp29
 70
     1
102
RTVSPropertyOp30
 70
     1
102
RTVSPropertyOp31
 70
     1
102
RTVSPropertyOp32
 70
     1
  0
XRECORD
  5
293
102
{ACAD_REACTORS
330
292
102
}
330
292
100
AcDbXrecord
280
     1
102
RTVSPropertyOp0
 70
     1
102
RTVSPropertyOp1
 70
     1
102
RTVSPropertyOp2
 70
     1
102
RTVSPropertyOp3
 70
     1
102
RTVSPropertyOp4
 70
     1
102
RTVSPropertyOp5
 70
     1
102
RTVSPropertyOp6
 70
     1
102
RTVSPropertyOp7
 70
     1
102
RTVSPropertyOp8
 70
     1
102
RTVSPropertyOp9
 70
     1
102
RTVSPropertyOp10
 70
     1
102
RTVSPropertyOp11
 70
     1
102
RTVSPropertyOp12
 70
     1
102
RTVSPropertyOp13
 70
     1
102
RTVSPropertyOp14
 70
     1
102
RTVSPropertyOp15
 70
     1
102
RTVSPropertyOp16
 70
     1
102
RTVSPropertyOp17
 70
     1
102
RTVSPropertyOp18
 70
     1
102
RTVSPropertyOp19
 70
     1
102
RTVSPropertyOp20
 70
     1
102
RTVSPropertyOp21
 70
     1
102
RTVSPropertyOp22
 70
     1
102
RTVSPropertyOp23
 70
     1
102
RTVSPropertyOp24
 70
     1
102
RTVSPropertyOp25
 70
     1
102
RTVSPropertyOp26
 70
     1
102
RTVSPropertyOp27
 70
     1
102
RTVSPropertyOp28
 70
     1
102
RTVSPropertyOp29
 70
     1
102
RTVSPropertyOp30
 70
     1
102
RTVSPropertyOp31
 70
     1
102
RTVSPropertyOp32
 70
     1
  0
XRECORD
  5
277
102
{ACAD_REACTORS
330
276
102
}
330
276
100
AcDbXrecord
280
     1
102
RTVSPropertyOp0
 70
     1
102
RTVSPropertyOp1
 70
     1
102
RTVSPropertyOp2
 70
     1
102
RTVSPropertyOp3
 70
     1
102
RTVSPropertyOp4
 70
     1
102
RTVSPropertyOp5
 70
     1
102
RTVSPropertyOp6
 70
     1
102
RTVSPropertyOp7
 70
     1
102
RTVSPropertyOp8
 70
     1
102
RTVSPropertyOp9
 70
     1
102
RTVSPropertyOp10
 70
     1
102
RTVSPropertyOp11
 70
     1
102
RTVSPropertyOp12
 70
     1
102
RTVSPropertyOp13
 70
     1
102
RTVSPropertyOp14
 70
     1
102
RTVSPropertyOp15
 70
     1
102
RTVSPropertyOp16
 70
     1
102
RTVSPropertyOp17
 70
     1
102
RTVSPropertyOp18
 70
     1
102
RTVSPropertyOp19
 70
     1
102
RTVSPropertyOp20
 70
     1
102
RTVSPropertyOp21
 70
     1
102
RTVSPropertyOp22
 70
     1
102
RTVSPropertyOp23
 70
     1
102
RTVSPropertyOp24
 70
     1
102
RTVSPropertyOp25
 70
     1
102
RTVSPropertyOp26
 70
     1
102
RTVSPropertyOp27
 70
     1
102
RTVSPropertyOp28
 70
     1
102
RTVSPropertyOp29
 70
     1
102
RTVSPropertyOp30
 70
     1
102
RTVSPropertyOp31
 70
     1
102
RTVSPropertyOp32
 70
     1
  0
XRECORD
  5
279
102
{ACAD_REACTORS
330
278
102
}
330
278
100
AcDbXrecord
280
     1
102
RTVSPropertyOp0
 70
     1
102
RTVSPropertyOp1
 70
     1
102
RTVSPropertyOp2
 70
     1
102
RTVSPropertyOp3
 70
     1
102
RTVSPropertyOp4
 70
     1
102
RTVSPropertyOp5
 70
     1
102
RTVSPropertyOp6
 70
     1
102
RTVSPropertyOp7
 70
     1
102
RTVSPropertyOp8
 70
     1
102
RTVSPropertyOp9
 70
     1
102
RTVSPropertyOp10
 70
     1
102
RTVSPropertyOp11
 70
     1
102
RTVSPropertyOp12
 70
     1
102
RTVSPropertyOp13
 70
     1
102
RTVSPropertyOp14
 70
     1
102
RTVSPropertyOp15
 70
     1
102
RTVSPropertyOp16
 70
     1
102
RTVSPropertyOp17
 70
     1
102
RTVSPropertyOp18
 70
     1
102
RTVSPropertyOp19
 70
     1
102
RTVSPropertyOp20
 70
     1
102
RTVSPropertyOp21
 70
     1
102
RTVSPropertyOp22
 70
     1
102
RTVSPropertyOp23
 70
     1
102
RTVSPropertyOp24
 70
     1
102
RTVSPropertyOp25
 70
     1
102
RTVSPropertyOp26
 70
     1
102
RTVSPropertyOp27
 70
     1
102
RTVSPropertyOp28
 70
     1
102
RTVSPropertyOp29
 70
     1
102
RTVSPropertyOp30
 70
     1
102
RTVSPropertyOp31
 70
     1
102
RTVSPropertyOp32
 70
     1
  0
XRECORD
  5
27B
102
{ACAD_REACTORS
330
27A
102
}
330
27A
100
AcDbXrecord
280
     1
102
RTVSPropertyOp0
 70
     1
102
RTVSPropertyOp1
 70
     1
102
RTVSPropertyOp2
 70
     1
102
RTVSPropertyOp3
 70
     1
102
RTVSPropertyOp4
 70
     1
102
RTVSPropertyOp5
 70
     1
102
RTVSPropertyOp6
 70
     1
102
RTVSPropertyOp7
 70
     1
102
RTVSPropertyOp8
 70
     1
102
RTVSPropertyOp9
 70
     1
102
RTVSPropertyOp10
 70
     1
102
RTVSPropertyOp11
 70
     1
102
RTVSPropertyOp12
 70
     1
102
RTVSPropertyOp13
 70
     1
102
RTVSPropertyOp14
 70
     1
102
RTVSPropertyOp15
 70
     1
102
RTVSPropertyOp16
 70
     1
102
RTVSPropertyOp17
 70
     1
102
RTVSPropertyOp18
 70
     1
102
RTVSPropertyOp19
 70
     1
102
RTVSPropertyOp20
 70
     1
102
RTVSPropertyOp21
 70
     1
102
RTVSPropertyOp22
 70
     1
102
RTVSPropertyOp23
 70
     1
102
RTVSPropertyOp24
 70
     1
102
RTVSPropertyOp25
 70
     1
102
RTVSPropertyOp26
 70
     1
102
RTVSPropertyOp27
 70
     1
102
RTVSPropertyOp28
 70
     1
102
RTVSPropertyOp29
 70
     1
102
RTVSPropertyOp30
 70
     1
102
RTVSPropertyOp31
 70
     1
102
RTVSPropertyOp32
 70
     1
  0
XRECORD
  5
27D
102
{ACAD_REACTORS
330
27C
102
}
330
27C
100
AcDbXrecord
280
     1
102
RTVSPropertyOp0
 70
     1
102
RTVSPropertyOp1
 70
     1
102
RTVSPropertyOp2
 70
     1
102
RTVSPropertyOp3
 70
     1
102
RTVSPropertyOp4
 70
     1
102
RTVSPropertyOp5
 70
     1
102
RTVSPropertyOp6
 70
     1
102
RTVSPropertyOp7
 70
     1
102
RTVSPropertyOp8
 70
     1
102
RTVSPropertyOp9
 70
     1
102
RTVSPropertyOp10
 70
     1
102
RTVSPropertyOp11
 70
     1
102
RTVSPropertyOp12
 70
     1
102
RTVSPropertyOp13
 70
     1
102
RTVSPropertyOp14
 70
     1
102
RTVSPropertyOp15
 70
     1
102
RTVSPropertyOp16
 70
     1
102
RTVSPropertyOp17
 70
     1
102
RTVSPropertyOp18
 70
     1
102
RTVSPropertyOp19
 70
     1
102
RTVSPropertyOp20
 70
     1
102
RTVSPropertyOp21
 70
     1
102
RTVSPropertyOp22
 70
     1
102
RTVSPropertyOp23
 70
     1
102
RTVSPropertyOp24
 70
     1
102
RTVSPropertyOp25
 70
     1
102
RTVSPropertyOp26
 70
     1
102
RTVSPropertyOp27
 70
     1
102
RTVSPropertyOp28
 70
     1
102
RTVSPropertyOp29
 70
     1
102
RTVSPropertyOp30
 70
     1
102
RTVSPropertyOp31
 70
     1
102
RTVSPropertyOp32
 70
     1
  0
XRECORD
  5
291
102
{ACAD_REACTORS
330
290
102
}
330
290
100
AcDbXrecord
280
     1
102
RTVSPropertyOp0
 70
     1
102
RTVSPropertyOp1
 70
     1
102
RTVSPropertyOp2
 70
     1
102
RTVSPropertyOp3
 70
     1
102
RTVSPropertyOp4
 70
     1
102
RTVSPropertyOp5
 70
     1
102
RTVSPropertyOp6
 70
     1
102
RTVSPropertyOp7
 70
     1
102
RTVSPropertyOp8
 70
     1
102
RTVSPropertyOp9
 70
     1
102
RTVSPropertyOp10
 70
     1
102
RTVSPropertyOp11
 70
     1
102
RTVSPropertyOp12
 70
     1
102
RTVSPropertyOp13
 70
     1
102
RTVSPropertyOp14
 70
     1
102
RTVSPropertyOp15
 70
     1
102
RTVSPropertyOp16
 70
     1
102
RTVSPropertyOp17
 70
     1
102
RTVSPropertyOp18
 70
     1
102
RTVSPropertyOp19
 70
     1
102
RTVSPropertyOp20
 70
     1
102
RTVSPropertyOp21
 70
     1
102
RTVSPropertyOp22
 70
     1
102
RTVSPropertyOp23
 70
     1
102
RTVSPropertyOp24
 70
     1
102
RTVSPropertyOp25
 70
     1
102
RTVSPropertyOp26
 70
     1
102
RTVSPropertyOp27
 70
     1
102
RTVSPropertyOp28
 70
     1
102
RTVSPropertyOp29
 70
     1
102
RTVSPropertyOp30
 70
     1
102
RTVSPropertyOp31
 70
     1
102
RTVSPropertyOp32
 70
     1
  0
XRECORD
  5
287
102
{ACAD_REACTORS
330
286
102
}
330
286
100
AcDbXrecord
280
     1
102
RTVSPropertyOp0
 70
     1
102
RTVSPropertyOp1
 70
     1
102
RTVSPropertyOp2
 70
     1
102
RTVSPropertyOp3
 70
     1
102
RTVSPropertyOp4
 70
     1
102
RTVSPropertyOp5
 70
     1
102
RTVSPropertyOp6
 70
     1
102
RTVSPropertyOp7
 70
     1
102
RTVSPropertyOp8
 70
     1
102
RTVSPropertyOp9
 70
     1
102
RTVSPropertyOp10
 70
     1
102
RTVSPropertyOp11
 70
     1
102
RTVSPropertyOp12
 70
     1
102
RTVSPropertyOp13
 70
     1
102
RTVSPropertyOp14
 70
     1
102
RTVSPropertyOp15
 70
     1
102
RTVSPropertyOp16
 70
     1
102
RTVSPropertyOp17
 70
     1
102
RTVSPropertyOp18
 70
     1
102
RTVSPropertyOp19
 70
     1
102
RTVSPropertyOp20
 70
     1
102
RTVSPropertyOp21
 70
     1
102
RTVSPropertyOp22
 70
     1
102
RTVSPropertyOp23
 70
     1
102
RTVSPropertyOp24
 70
     1
102
RTVSPropertyOp25
 70
     1
102
RTVSPropertyOp26
 70
     1
102
RTVSPropertyOp27
 70
     1
102
RTVSPropertyOp28
 70
     1
102
RTVSPropertyOp29
 70
     1
102
RTVSPropertyOp30
 70
     1
102
RTVSPropertyOp31
 70
     1
102
RTVSPropertyOp32
 70
     1
  0
XRECORD
  5
28F
102
{ACAD_REACTORS
330
28E
102
}
330
28E
100
AcDbXrecord
280
     1
102
RTVSPropertyOp0
 70
     1
102
RTVSPropertyOp1
 70
     1
102
RTVSPropertyOp2
 70
     1
102
RTVSPropertyOp3
 70
     1
102
RTVSPropertyOp4
 70
     1
102
RTVSPropertyOp5
 70
     1
102
RTVSPropertyOp6
 70
     1
102
RTVSPropertyOp7
 70
     1
102
RTVSPropertyOp8
 70
     1
102
RTVSPropertyOp9
 70
     1
102
RTVSPropertyOp10
 70
     1
102
RTVSPropertyOp11
 70
     1
102
RTVSPropertyOp12
 70
     1
102
RTVSPropertyOp13
 70
     1
102
RTVSPropertyOp14
 70
     1
102
RTVSPropertyOp15
 70
     1
102
RTVSPropertyOp16
 70
     1
102
RTVSPropertyOp17
 70
     1
102
RTVSPropertyOp18
 70
     1
102
RTVSPropertyOp19
 70
     1
102
RTVSPropertyOp20
 70
     1
102
RTVSPropertyOp21
 70
     1
102
RTVSPropertyOp22
 70
     1
102
RTVSPropertyOp23
 70
     1
102
RTVSPropertyOp24
 70
     1
102
RTVSPropertyOp25
 70
     1
102
RTVSPropertyOp26
 70
     1
102
RTVSPropertyOp27
 70
     1
102
RTVSPropertyOp28
 70
     1
102
RTVSPropertyOp29
 70
     1
102
RTVSPropertyOp30
 70
     1
102
RTVSPropertyOp31
 70
     1
102
RTVSPropertyOp32
 70
     1
  0
ENDSEC
  0
EOF
