  0
SECTION
  2
HEADER
  9
$ACADVER
  1
AC1009
  9
$DWGCODEPAGE
  3
ansi_1252
  9
$INSBASE
 10
0.0
 20
0.0
 30
0.0
  9
$EXTMIN
 10
0.0
 20
0.0
 30
0.0
  9
$EXTMAX
 10
3000.0
 20
4500.0
 30
0.0
  9
$LIMMIN
 10
0.0
 20
0.0
  9
$LIMMAX
 10
3000.0
 20
4500.0
  9
$ORTHOMODE
 70
     0
  9
$REGENMODE
 70
     1
  9
$FILLMODE
 70
     1
  9
$QTEXTMODE
 70
     0
  9
$MIRRTEXT
 70
     1
  9
$DRAGMODE
 70
     2
  9
$LTSCALE
 40
1.0
  9
$OSMODE
 70
    37
  9
$ATTMODE
 70
     1
  9
$TEXTSIZE
 40
2.5
  9
$TRACEWID
 40
1.0
  9
$TEXTSTYLE
  7
STANDARD
  9
$CLAYER
  8
0
  9
$CELTYPE
  6
BYLAYER
  9
$CECOLOR
 62
   256
  9
$DIMSCALE
 40
1.0
  9
$DIMASZ
 40
2.5
  9
$DIMEXO
 40
0.625
  9
$DIMDLI
 40
3.75
  9
$DIMRND
 40
0.0
  9
$DIMDLE
 40
0.0
  9
$DIMEXE
 40
1.25
  9
$DIMTP
 40
0.0
  9
$DIMTM
 40
0.0
  9
$DIMTXT
 40
2.5
  9
$DIMCEN
 40
2.5
  9
$DIMTSZ
 40
0.0
  9
$DIMTOL
 70
     0
  9
$DIMLIM
 70
     0
  9
$DIMTIH
 70
     0
  9
$DIMTOH
 70
     0
  9
$DIMSE1
 70
     0
  9
$DIMSE2
 70
     0
  9
$DIMTAD
 70
     1
  9
$DIMZIN
 70
     8
  9
$DIMBLK
  1

  9
$DIMASO
 70
     1
  9
$DIMSHO
 70
     1
  9
$DIMPOST
  1

  9
$DIMAPOST
  1

  9
$DIMALT
 70
     0
  9
$DIMALTD
 70
     3
  9
$DIMALTF
 40
0.0393700787
  9
$DIMLFAC
 40
1.0
  9
$DIMTOFL
 70
     1
  9
$DIMTVP
 40
0.0
  9
$DIMTIX
 70
     0
  9
$DIMSOXD
 70
     0
  9
$DIMSAH
 70
     0
  9
$DIMBLK1
  1

  9
$DIMBLK2
  1

  9
$DIMSTYLE
  2
ISO-25
  9
$DIMCLRD
 70
     0
  9
$DIMCLRE
 70
     0
  9
$DIMCLRT
 70
     0
  9
$DIMTFAC
 40
1.0
  9
$DIMGAP
 40
0.625
  9
$LUNITS
 70
     2
  9
$LUPREC
 70
     4
  9
$SKETCHINC
 40
1.0
  9
$FILLETRAD
 40
10.0
  9
$AUNITS
 70
     0
  9
$AUPREC
 70
     0
  9
$MENU
  1
.
  9
$ELEVATION
 40
0.0
  9
$PELEVATION
 40
0.0
  9
$THICKNESS
 40
0.0
  9
$LIMCHECK
 70
     0
  9
$CHAMFERA
 40
0.0
  9
$CHAMFERB
 40
0.0
  9
$SKPOLY
 70
     0
  9
$TDCREATE
 40
2459639.415487801
  9
$TDUPDATE
 40
2459639.415488518
  9
$TDINDWG
 40
0.0000000116
  9
$TDUSRTIMER
 40
0.0000000116
  9
$USRTIMER
 70
     1
  9
$ANGBASE
 50
0.0
  9
$ANGDIR
 70
     0
  9
$PDMODE
 70
     0
  9
$PDSIZE
 40
0.0
  9
$PLINEWID
 40
0.0
  9
$COORDS
 70
     1
  9
$SPLFRAME
 70
     0
  9
$SPLINETYPE
 70
     6
  9
$SPLINESEGS
 70
     8
  9
$ATTDIA
 70
     0
  9
$ATTREQ
 70
     1
  9
$HANDLING
 70
     1
  9
$HANDSEED
  5
FD
  9
$SURFTAB1
 70
     6
  9
$SURFTAB2
 70
     6
  9
$SURFTYPE
 70
     6
  9
$SURFU
 70
     6
  9
$SURFV
 70
     6
  9
$UCSNAME
  2

  9
$UCSORG
 10
0.0
 20
0.0
 30
0.0
  9
$UCSXDIR
 10
1.0
 20
0.0
 30
0.0
  9
$UCSYDIR
 10
0.0
 20
1.0
 30
0.0
  9
$PUCSNAME
  2

  9
$PUCSORG
 10
0.0
 20
0.0
 30
0.0
  9
$PUCSXDIR
 10
1.0
 20
0.0
 30
0.0
  9
$PUCSYDIR
 10
0.0
 20
1.0
 30
0.0
  9
$USERI1
 70
     0
  9
$USERI2
 70
     0
  9
$USERI3
 70
     0
  9
$USERI4
 70
     0
  9
$USERI5
 70
     0
  9
$USERR1
 40
0.0
  9
$USERR2
 40
0.0
  9
$USERR3
 40
0.0
  9
$USERR4
 40
0.0
  9
$USERR5
 40
0.0
  9
$WORLDVIEW
 70
     1
  9
$SHADEDGE
 70
     3
  9
$SHADEDIF
 70
    70
  9
$TILEMODE
 70
     1
  9
$MAXACTVP
 70
    64
  9
$PLIMCHECK
 70
     0
  9
$PEXTMIN
 10
0.0
 20
0.0
 30
0.0
  9
$PEXTMAX
 10
3000.0
 20
4500.0
 30
0.0
  9
$PLIMMIN
 10
0.0
 20
0.0
  9
$PLIMMAX
 10
3000.0
 20
4500.0
  9
$UNITMODE
 70
     0
  9
$VISRETAIN
 70
     1
  9
$PLINEGEN
 70
     0
  9
$PSLTSCALE
 70
     1
  0
ENDSEC
  0
SECTION
  2
TABLES
  0
TABLE
  2
VPORT
 70
     1
  0
VPORT
  2
*ACTIVE
 70
     0
 10
0.0
 20
0.0
 11
1.0
 21
1.0
 12
344.1869158879
 22
148.5
 13
0.0
 23
0.0
 14
10.0
 24
10.0
 15
10.0
 25
10.0
 16
0.0
 26
0.0
 36
1.0
 17
0.0
 27
0.0
 37
0.0
 40
297.0
 41
1.9729729729
 42
50.0
 43
0.0
 44
0.0
 50
0.0
 51
0.0
 71
     0
 72
   100
 73
     1
 74
     3
 75
     0
 76
     0
 77
     0
 78
     0
  0
ENDTAB
  0
TABLE
  2
LTYPE
 70
     2
  0
LTYPE
  2
CONTINUOUS
 70
     0
  3
Solid line
 72
    65
 73
     0
 40
0.0
  0
LTYPE
  2
CENTER2
 70
     0
  3
Center (.5x) ___ _ ___ _ ___ _ ___ _ ___ _ ___
 72
    65
 73
     4
 40
28.575
 49
19.05
 49
-3.175
 49
3.175
 49
-3.175
  0
ENDTAB
  0
TABLE
  2
LAYER
 70
     3
  0
LAYER
  2
0
 70
     0
 62
     7
  6
CONTINUOUS
  0
LAYER
  2
DEFAULT
 70
     0
 62
     7
  6
CONTINUOUS
  0
LAYER
  2
MITTELLINIE
 70
     0
 62
     7
  6
CONTINUOUS
  0
ENDTAB
  0
TABLE
  2
STYLE
 70
     1
  0
STYLE
  2
STANDARD
 70
     0
 40
0.0
 41
1.0
 50
0.0
 71
     0
 42
2.5
  3
txt
  4

  0
ENDTAB
  0
TABLE
  2
VIEW
 70
     0
  0
ENDTAB
  0
TABLE
  2
UCS
 70
     0
  0
ENDTAB
  0
TABLE
  2
APPID
 70
     1
  0
APPID
  2
ACAD
 70
     0
  0
ENDTAB
  0
TABLE
  2
DIMSTYLE
 70
     1
  0
DIMSTYLE
  2
ISO-25
 70
     0
  3

  4

  5

  6

  7

 40
1.0
 41
2.5
 42
0.625
 43
3.75
 44
1.25
 45
0.0
 46
0.0
 47
0.0
 48
0.0
140
2.5
141
2.5
142
0.0
143
0.0393700787
144
1.0
145
0.0
146
1.0
147
0.625
 71
     0
 72
     0
 73
     0
 74
     0
 75
     0
 76
     0
 77
     1
 78
     8
170
     0
171
     3
172
     1
173
     0
174
     0
175
     0
176
     0
177
     0
178
     0
  0
ENDTAB
  0
ENDSEC
  0
SECTION
  2
BLOCKS
  0
BLOCK
  8
0
  2
$MODEL_SPACE
 70
     0
 10
0.0
 20
0.0
 30
0.0
  3
$MODEL_SPACE
  1

  0
ENDBLK
  5
21
  8
0
  0
BLOCK
 67
     1
  8
0
  2
$PAPER_SPACE
 70
     0
 10
0.0
 20
0.0
 30
0.0
  3
$PAPER_SPACE
  1

  0
ENDBLK
  5
1D
 67
     1
  8
0
  0
BLOCK
  8
0
  2
SEANNOT_GROUP
 70
     0
 10
0.0
 20
0.0
 30
0.0
  3
SEANNOT_GROUP
  1

  0
LINE
  5
77
  8
MITTELLINIE
  6
CENTER2
 62
   136
 10
53.349999553
 20
256.45125
 30
0.0
 11
13.350000447
 21
256.45125
 31
0.0
  0
LINE
  5
78
  8
MITTELLINIE
  6
CENTER2
 62
   136
 10
33.35
 20
276.451249553
 30
0.0
 11
33.35
 21
236.451250447
 31
0.0
  0
ENDBLK
  5
7A
  8
0
  0
BLOCK
  8
0
  2
SEANNOT_GROUP1
 70
     0
 10
0.0
 20
0.0
 30
0.0
  3
SEANNOT_GROUP1
  1

  0
LINE
  5
7D
  8
MITTELLINIE
  6
CENTER2
 62
   136
 10
611.349999553
 20
256.45125
 30
0.0
 11
571.3500004471
 21
256.45125
 31
0.0
  0
LINE
  5
7E
  8
MITTELLINIE
  6
CENTER2
 62
   136
 10
591.35
 20
276.451249553
 30
0.0
 11
591.35
 21
236.451250447
 31
0.0
  0
ENDBLK
  5
80
  8
0
  0
BLOCK
  8
0
  2
SEANNOT_GROUP2
 70
     0
 10
0.0
 20
0.0
 30
0.0
  3
SEANNOT_GROUP2
  1

  0
LINE
  5
83
  8
MITTELLINIE
  6
CENTER2
 62
   136
 10
53.349999553
 20
166.35
 30
0.0
 11
13.350000447
 21
166.35
 31
0.0
  0
LINE
  5
84
  8
MITTELLINIE
  6
CENTER2
 62
   136
 10
33.35
 20
186.349999553
 30
0.0
 11
33.35
 21
146.350000447
 31
0.0
  0
ENDBLK
  5
86
  8
0
  0
BLOCK
  8
0
  2
SEANNOT_GROUP3
 70
     0
 10
0.0
 20
0.0
 30
0.0
  3
SEANNOT_GROUP3
  1

  0
LINE
  5
89
  8
MITTELLINIE
  6
CENTER2
 62
   136
 10
611.349999553
 20
166.35
 30
0.0
 11
571.3500004471
 21
166.35
 31
0.0
  0
LINE
  5
8A
  8
MITTELLINIE
  6
CENTER2
 62
   136
 10
591.35
 20
186.349999553
 30
0.0
 11
591.35
 21
146.350000447
 31
0.0
  0
ENDBLK
  5
8C
  8
0
  0
BLOCK
  8
0
  2
SEANNOT_GROUP4
 70
     0
 10
0.0
 20
0.0
 30
0.0
  3
SEANNOT_GROUP4
  1

  0
LINE
  5
8F
  8
MITTELLINIE
  6
CENTER2
 62
   136
 10
701.451249553
 20
256.45125
 30
0.0
 11
661.4512504471
 21
256.45125
 31
0.0
  0
LINE
  5
90
  8
MITTELLINIE
  6
CENTER2
 62
   136
 10
681.45125
 20
276.451249553
 30
0.0
 11
681.45125
 21
236.451250447
 31
0.0
  0
ENDBLK
  5
92
  8
0
  0
ENDSEC
  0
SECTION
  2
ENTITIES
  0
LINE
  5
6F
  8
DEFAULT
  6
CONTINUOUS
 62
     7
 10
591.0549078826
 20
256.45125
 30
0.0
 11
591.6450921174
 21
256.45125
 31
0.0
  0
LINE
  5
70
  8
DEFAULT
  6
CONTINUOUS
 62
     7
 10
591.35
 20
256.7463421174
 30
0.0
 11
591.35
 21
256.1561578826
 31
0.0
  0
LINE
  5
71
  8
DEFAULT
  6
CONTINUOUS
 62
     7
 10
33.0549078826
 20
256.45125
 30
0.0
 11
33.6450921174
 21
256.45125
 31
0.0
  0
LINE
  5
72
  8
DEFAULT
  6
CONTINUOUS
 62
     7
 10
33.35
 20
256.7463421174
 30
0.0
 11
33.35
 21
256.1561578826
 31
0.0
  0
INSERT
  5
74
  8
DEFAULT
  2
SEANNOT_GROUP
 10
0.0
 20
0.0
 30
0.0
  0
INSERT
  5
7C
  8
DEFAULT
  2
SEANNOT_GROUP1
 10
0.0
 20
0.0
 30
0.0
  0
INSERT
  5
82
  8
DEFAULT
  2
SEANNOT_GROUP2
 10
0.0
 20
0.0
 30
0.0
  0
INSERT
  5
88
  8
DEFAULT
  2
SEANNOT_GROUP3
 10
0.0
 20
0.0
 30
0.0
  0
INSERT
  5
8E
  8
DEFAULT
  2
SEANNOT_GROUP4
 10
0.0
 20
0.0
 30
0.0
  0
LINE
  5
93
  8
DEFAULT
  6
CONTINUOUS
 62
     7
 10
610.3500305288
 20
251.45125
 30
0.0
 11
610.3500305288
 21
261.45125
 31
0.0
  0
LINE
  5
94
  8
DEFAULT
  6
CONTINUOUS
 62
     7
 10
611.8500305288
 20
251.45125
 30
0.0
 11
611.8500305288
 21
261.45125
 31
0.0
  0
LINE
  5
95
  8
DEFAULT
  6
CONTINUOUS
 62
     7
 10
611.8500305288
 20
261.45125
 30
0.0
 11
610.3500305288
 21
261.45125
 31
0.0
  0
LINE
  5
96
  8
DEFAULT
  6
CONTINUOUS
 62
     7
 10
610.3500305288
 20
251.45125
 30
0.0
 11
611.8500305288
 21
251.45125
 31
0.0
  0
ARC
  5
97
  8
DEFAULT
  6
CONTINUOUS
 62
     7
 10
587.1000305288
 20
256.45125
 30
0.0
 40
25.25000000000005
 50
348.578813725
 51
11.421186275
  0
LINE
  5
98
  8
DEFAULT
  6
CONTINUOUS
 62
     7
 10
14.3500305288
 20
261.45125
 30
0.0
 11
14.3500305288
 21
251.45125
 31
0.0
  0
LINE
  5
99
  8
DEFAULT
  6
CONTINUOUS
 62
     7
 10
12.8500305288
 20
261.45125
 30
0.0
 11
12.8500305288
 21
251.45125
 31
0.0
  0
LINE
  5
9A
  8
DEFAULT
  6
CONTINUOUS
 62
     7
 10
12.8500305288
 20
251.45125
 30
0.0
 11
14.3500305288
 21
251.45125
 31
0.0
  0
LINE
  5
9B
  8
DEFAULT
  6
CONTINUOUS
 62
     7
 10
14.3500305288
 20
261.45125
 30
0.0
 11
12.8500305288
 21
261.45125
 31
0.0
  0
ARC
  5
9C
  8
DEFAULT
  6
CONTINUOUS
 62
     7
 10
37.6000305288
 20
256.45125
 30
0.0
 40
25.25
 50
168.578813725
 51
191.421186275
  0
LINE
  5
9D
  8
DEFAULT
  6
CONTINUOUS
 62
     7
 10
610.3500305288
 20
261.45125
 30
0.0
 11
610.3500305288
 21
251.45125
 31
0.0
  0
LINE
  5
9E
  8
DEFAULT
  6
CONTINUOUS
 62
     7
 10
14.3500305288
 20
251.45125
 30
0.0
 11
14.3500305288
 21
261.45125
 31
0.0
  0
LINE
  5
9F
  8
DEFAULT
  6
CONTINUOUS
 62
     7
 10
14.3500305288
 20
251.45125
 30
0.0
 11
610.3500305288
 21
251.45125
 31
0.0
  0
LINE
  5
A0
  8
DEFAULT
  6
CONTINUOUS
 62
     7
 10
610.3500305288
 20
261.45125
 30
0.0
 11
14.3500305288
 21
261.45125
 31
0.0
  0
LINE
  5
A1
  8
DEFAULT
  6
CONTINUOUS
 62
     7
 10
598.35
 20
263.45125
 30
0.0
 11
598.35
 21
261.45125
 31
0.0
  0
LINE
  5
A2
  8
DEFAULT
  6
CONTINUOUS
 62
     7
 10
584.35
 20
263.45125
 30
0.0
 11
598.35
 21
263.45125
 31
0.0
  0
LINE
  5
A3
  8
DEFAULT
  6
CONTINUOUS
 62
     7
 10
584.35
 20
261.45125
 30
0.0
 11
584.35
 21
263.45125
 31
0.0
  0
LINE
  5
A4
  8
DEFAULT
  6
CONTINUOUS
 62
     7
 10
598.35
 20
261.45125
 30
0.0
 11
584.35
 21
261.45125
 31
0.0
  0
LINE
  5
A5
  8
DEFAULT
  6
CONTINUOUS
 62
     7
 10
584.35
 20
251.45125
 30
0.0
 11
598.35
 21
251.45125
 31
0.0
  0
LINE
  5
A6
  8
DEFAULT
  6
CONTINUOUS
 62
     7
 10
584.35
 20
249.45125
 30
0.0
 11
584.35
 21
251.45125
 31
0.0
  0
LINE
  5
A7
  8
DEFAULT
  6
CONTINUOUS
 62
     7
 10
598.35
 20
249.45125
 30
0.0
 11
584.35
 21
249.45125
 31
0.0
  0
LINE
  5
A8
  8
DEFAULT
  6
CONTINUOUS
 62
     7
 10
598.35
 20
251.45125
 30
0.0
 11
598.35
 21
249.45125
 31
0.0
  0
LINE
  5
A9
  8
DEFAULT
  6
CONTINUOUS
 62
     7
 10
618.35
 20
229.45125
 30
0.0
 11
618.35
 21
283.45125
 31
0.0
  0
LINE
  5
AA
  8
DEFAULT
  6
CONTINUOUS
 62
     7
 10
618.35
 20
283.45125
 30
0.0
 11
564.35
 21
283.45125
 31
0.0
  0
LINE
  5
AB
  8
DEFAULT
  6
CONTINUOUS
 62
     7
 10
564.35
 20
283.45125
 30
0.0
 11
564.35
 21
261.45125
 31
0.0
  0
LINE
  5
AC
  8
DEFAULT
  6
CONTINUOUS
 62
     7
 10
564.35
 20
251.45125
 30
0.0
 11
564.35
 21
229.45125
 31
0.0
  0
LINE
  5
AD
  8
DEFAULT
  6
CONTINUOUS
 62
     7
 10
564.35
 20
229.45125
 30
0.0
 11
618.35
 21
229.45125
 31
0.0
  0
LINE
  5
AE
  8
DEFAULT
  6
CONTINUOUS
 62
     7
 10
60.35
 20
229.45125
 30
0.0
 11
60.35
 21
251.45125
 31
0.0
  0
LINE
  5
AF
  8
DEFAULT
  6
CONTINUOUS
 62
     7
 10
60.35
 20
261.45125
 30
0.0
 11
60.35
 21
283.45125
 31
0.0
  0
LINE
  5
B0
  8
DEFAULT
  6
CONTINUOUS
 62
     7
 10
60.35
 20
283.45125
 30
0.0
 11
6.35
 21
283.45125
 31
0.0
  0
LINE
  5
B1
  8
DEFAULT
  6
CONTINUOUS
 62
     7
 10
6.35
 20
283.45125
 30
0.0
 11
6.35
 21
229.45125
 31
0.0
  0
LINE
  5
B2
  8
DEFAULT
  6
CONTINUOUS
 62
     7
 10
6.35
 20
229.45125
 30
0.0
 11
60.35
 21
229.45125
 31
0.0
  0
LINE
  5
B3
  8
DEFAULT
  6
CONTINUOUS
 62
     7
 10
40.35
 20
263.45125
 30
0.0
 11
40.35
 21
261.45125
 31
0.0
  0
LINE
  5
B4
  8
DEFAULT
  6
CONTINUOUS
 62
     7
 10
26.35
 20
263.45125
 30
0.0
 11
40.35
 21
263.45125
 31
0.0
  0
LINE
  5
B5
  8
DEFAULT
  6
CONTINUOUS
 62
     7
 10
26.35
 20
261.45125
 30
0.0
 11
26.35
 21
263.45125
 31
0.0
  0
LINE
  5
B6
  8
DEFAULT
  6
CONTINUOUS
 62
     7
 10
40.35
 20
261.45125
 30
0.0
 11
26.35
 21
261.45125
 31
0.0
  0
LINE
  5
B7
  8
DEFAULT
  6
CONTINUOUS
 62
     7
 10
26.35
 20
251.45125
 30
0.0
 11
40.35
 21
251.45125
 31
0.0
  0
LINE
  5
B8
  8
DEFAULT
  6
CONTINUOUS
 62
     7
 10
26.35
 20
249.45125
 30
0.0
 11
26.35
 21
251.45125
 31
0.0
  0
LINE
  5
B9
  8
DEFAULT
  6
CONTINUOUS
 62
     7
 10
40.35
 20
249.45125
 30
0.0
 11
26.35
 21
249.45125
 31
0.0
  0
LINE
  5
BA
  8
DEFAULT
  6
CONTINUOUS
 62
     7
 10
40.35
 20
251.45125
 30
0.0
 11
40.35
 21
249.45125
 31
0.0
  0
CIRCLE
  5
BB
  8
DEFAULT
  6
CONTINUOUS
 62
     7
 10
736.45125
 20
256.45125
 30
0.0
 40
5.0
  0
LINE
  5
BC
  8
DEFAULT
  6
CONTINUOUS
 62
     7
 10
681.45125
 20
283.45125
 30
0.0
 11
681.45125
 21
229.45125
 31
0.0
  0
LINE
  5
BD
  8
DEFAULT
  6
CONTINUOUS
 62
     7
 10
691.45125
 20
283.45125
 30
0.0
 11
691.45125
 21
229.45125
 31
0.0
  0
LINE
  5
BE
  8
DEFAULT
  6
CONTINUOUS
 62
     7
 10
691.45125
 20
229.45125
 30
0.0
 11
681.45125
 21
229.45125
 31
0.0
  0
LINE
  5
BF
  8
DEFAULT
  6
CONTINUOUS
 62
     7
 10
691.45125
 20
283.45125
 30
0.0
 11
681.45125
 21
283.45125
 31
0.0
  0
LINE
  5
C0
  8
DEFAULT
  6
CONTINUOUS
 62
     7
 10
736.45125
 20
261.45125
 30
0.0
 11
736.45125
 21
263.45125
 31
0.0
  0
LINE
  5
C1
  8
DEFAULT
  6
CONTINUOUS
 62
     7
 10
691.45125
 20
263.45125
 30
0.0
 11
736.45125
 21
263.45125
 31
0.0
  0
LINE
  5
C2
  8
DEFAULT
  6
CONTINUOUS
 62
     7
 10
691.45125
 20
249.45125
 30
0.0
 11
736.45125
 21
249.45125
 31
0.0
  0
LINE
  5
C3
  8
DEFAULT
  6
CONTINUOUS
 62
     7
 10
736.45125
 20
249.45125
 30
0.0
 11
736.45125
 21
251.45125
 31
0.0
  0
LINE
  5
C4
  8
DEFAULT
  6
CONTINUOUS
 62
     7
 10
610.3500305288
 20
116.35
 30
0.0
 11
610.3500305288
 21
106.35
 31
0.0
  0
LINE
  5
C5
  8
DEFAULT
  6
CONTINUOUS
 62
     7
 10
611.8500305288
 20
116.35
 30
0.0
 11
611.8500305288
 21
106.35
 31
0.0
  0
LINE
  5
C6
  8
DEFAULT
  6
CONTINUOUS
 62
     7
 10
611.8500305288
 20
116.35
 30
0.0
 11
610.3500305288
 21
116.35
 31
0.0
  0
LINE
  5
C7
  8
DEFAULT
  6
CONTINUOUS
 62
     7
 10
610.3500305288
 20
106.35
 30
0.0
 11
611.8500305288
 21
106.35
 31
0.0
  0
ARC
  5
C8
  8
DEFAULT
  6
CONTINUOUS
 62
     7
 10
587.1000305288
 20
111.35
 30
0.0
 40
25.25000000000005
 50
348.578813725
 51
11.421186275
  0
LINE
  5
C9
  8
DEFAULT
  6
CONTINUOUS
 62
     7
 10
14.3500305288
 20
116.35
 30
0.0
 11
14.3500305288
 21
106.35
 31
0.0
  0
LINE
  5
CA
  8
DEFAULT
  6
CONTINUOUS
 62
     7
 10
12.8500305288
 20
116.35
 30
0.0
 11
12.8500305288
 21
106.35
 31
0.0
  0
LINE
  5
CB
  8
DEFAULT
  6
CONTINUOUS
 62
     7
 10
12.8500305288
 20
106.35
 30
0.0
 11
14.3500305288
 21
106.35
 31
0.0
  0
LINE
  5
CC
  8
DEFAULT
  6
CONTINUOUS
 62
     7
 10
14.3500305288
 20
116.35
 30
0.0
 11
12.8500305288
 21
116.35
 31
0.0
  0
ARC
  5
CD
  8
DEFAULT
  6
CONTINUOUS
 62
     7
 10
37.6000305288
 20
111.35
 30
0.0
 40
25.25
 50
168.578813725
 51
191.421186275
  0
LINE
  5
CE
  8
DEFAULT
  6
CONTINUOUS
 62
     7
 10
610.3500305288
 20
116.35
 30
0.0
 11
610.3500305288
 21
106.35
 31
0.0
  0
LINE
  5
CF
  8
DEFAULT
  6
CONTINUOUS
 62
     7
 10
14.3500305288
 20
106.35
 30
0.0
 11
14.3500305288
 21
116.35
 31
0.0
  0
LINE
  5
D0
  8
DEFAULT
  6
CONTINUOUS
 62
     7
 10
14.3500305288
 20
106.35
 30
0.0
 11
610.3500305288
 21
106.35
 31
0.0
  0
LINE
  5
D1
  8
DEFAULT
  6
CONTINUOUS
 62
     7
 10
26.35
 20
116.35
 30
0.0
 11
14.3500305288
 21
116.35
 31
0.0
  0
LINE
  5
D2
  8
DEFAULT
  6
CONTINUOUS
 62
     7
 10
584.35
 20
116.35
 30
0.0
 11
40.35
 21
116.35
 31
0.0
  0
LINE
  5
D3
  8
DEFAULT
  6
CONTINUOUS
 62
     7
 10
610.3500305288
 20
116.35
 30
0.0
 11
598.35
 21
116.35
 31
0.0
  0
LINE
  5
D4
  8
DEFAULT
  6
CONTINUOUS
 62
     7
 10
592.6
 20
161.2283121635
 30
0.0
 11
592.6
 21
162.6716878365
 31
0.0
  0
LINE
  5
D5
  8
DEFAULT
  6
CONTINUOUS
 62
     7
 10
591.35
 20
160.506624327
 30
0.0
 11
592.6
 21
161.2283121635
 31
0.0
  0
LINE
  5
D6
  8
DEFAULT
  6
CONTINUOUS
 62
     7
 10
590.1
 20
161.2283121635
 30
0.0
 11
591.35
 21
160.506624327
 31
0.0
  0
LINE
  5
D7
  8
DEFAULT
  6
CONTINUOUS
 62
     7
 10
590.1
 20
162.6716878365
 30
0.0
 11
590.1
 21
161.2283121635
 31
0.0
  0
LINE
  5
D8
  8
DEFAULT
  6
CONTINUOUS
 62
     7
 10
591.35
 20
163.393375673
 30
0.0
 11
590.1
 21
162.6716878365
 31
0.0
  0
LINE
  5
D9
  8
DEFAULT
  6
CONTINUOUS
 62
     7
 10
592.6
 20
162.6716878365
 30
0.0
 11
591.35
 21
163.393375673
 31
0.0
  0
CIRCLE
  5
DA
  8
DEFAULT
  6
CONTINUOUS
 62
     7
 10
591.35
 20
161.95
 30
0.0
 40
2.5
  0
LINE
  5
DB
  8
DEFAULT
  6
CONTINUOUS
 62
     7
 10
584.35
 20
111.35
 30
0.0
 11
598.35
 21
111.35
 31
0.0
  0
LINE
  5
DC
  8
DEFAULT
  6
CONTINUOUS
 62
     7
 10
584.35
 20
156.35
 30
0.0
 11
584.35
 21
111.35
 31
0.0
  0
LINE
  5
DD
  8
DEFAULT
  6
CONTINUOUS
 62
     7
 10
598.35
 20
156.35
 30
0.0
 11
598.35
 21
111.35
 31
0.0
  0
LINE
  5
DE
  8
DEFAULT
  6
CONTINUOUS
 62
     7
 10
618.35
 20
166.35
 30
0.0
 11
564.35
 21
166.35
 31
0.0
  0
LINE
  5
DF
  8
DEFAULT
  6
CONTINUOUS
 62
     7
 10
618.35
 20
156.35
 30
0.0
 11
564.35
 21
156.35
 31
0.0
  0
LINE
  5
E0
  8
DEFAULT
  6
CONTINUOUS
 62
     7
 10
618.35
 20
156.35
 30
0.0
 11
618.35
 21
166.35
 31
0.0
  0
CIRCLE
  5
E1
  8
DEFAULT
  6
CONTINUOUS
 62
     7
 10
591.35
 20
161.95
 30
0.0
 40
2.1
  0
LINE
  5
E2
  8
DEFAULT
  6
CONTINUOUS
 62
     7
 10
564.35
 20
156.35
 30
0.0
 11
564.35
 21
166.35
 31
0.0
  0
LINE
  5
E3
  8
DEFAULT
  6
CONTINUOUS
 62
     7
 10
32.1
 20
162.6716878365
 30
0.0
 11
32.1
 21
161.2283121635
 31
0.0
  0
LINE
  5
E4
  8
DEFAULT
  6
CONTINUOUS
 62
     7
 10
33.35
 20
163.393375673
 30
0.0
 11
32.1
 21
162.6716878365
 31
0.0
  0
LINE
  5
E5
  8
DEFAULT
  6
CONTINUOUS
 62
     7
 10
34.6
 20
162.6716878365
 30
0.0
 11
33.35
 21
163.393375673
 31
0.0
  0
LINE
  5
E6
  8
DEFAULT
  6
CONTINUOUS
 62
     7
 10
34.6
 20
161.2283121635
 30
0.0
 11
34.6
 21
162.6716878365
 31
0.0
  0
LINE
  5
E7
  8
DEFAULT
  6
CONTINUOUS
 62
     7
 10
33.35
 20
160.506624327
 30
0.0
 11
34.6
 21
161.2283121635
 31
0.0
  0
LINE
  5
E8
  8
DEFAULT
  6
CONTINUOUS
 62
     7
 10
32.1
 20
161.2283121635
 30
0.0
 11
33.35
 21
160.506624327
 31
0.0
  0
CIRCLE
  5
E9
  8
DEFAULT
  6
CONTINUOUS
 62
     7
 10
33.35
 20
161.95
 30
0.0
 40
2.5
  0
LINE
  5
EA
  8
DEFAULT
  6
CONTINUOUS
 62
     7
 10
60.35
 20
166.35
 30
0.0
 11
6.35
 21
166.35
 31
0.0
  0
LINE
  5
EB
  8
DEFAULT
  6
CONTINUOUS
 62
     7
 10
60.35
 20
156.35
 30
0.0
 11
6.35
 21
156.35
 31
0.0
  0
LINE
  5
EC
  8
DEFAULT
  6
CONTINUOUS
 62
     7
 10
60.35
 20
156.35
 30
0.0
 11
60.35
 21
166.35
 31
0.0
  0
CIRCLE
  5
ED
  8
DEFAULT
  6
CONTINUOUS
 62
     7
 10
33.35
 20
161.95
 30
0.0
 40
2.1
  0
LINE
  5
EE
  8
DEFAULT
  6
CONTINUOUS
 62
     7
 10
6.35
 20
156.35
 30
0.0
 11
6.35
 21
166.35
 31
0.0
  0
LINE
  5
EF
  8
DEFAULT
  6
CONTINUOUS
 62
     7
 10
26.35
 20
111.35
 30
0.0
 11
40.35
 21
111.35
 31
0.0
  0
LINE
  5
F0
  8
DEFAULT
  6
CONTINUOUS
 62
     7
 10
26.35
 20
156.35
 30
0.0
 11
26.35
 21
111.35
 31
0.0
  0
LINE
  5
F1
  8
DEFAULT
  6
CONTINUOUS
 62
     7
 10
40.35
 20
156.35
 30
0.0
 11
40.35
 21
111.35
 31
0.0
  0
ENDSEC
  0
EOF
