  0
SECTION
  2
HEADER
  9
$ACADVER
  1
AC1021
  9
$ACADMAINTVER
 70
    25
  9
$DWGCODEPAGE
  3
ANSI_1252
  9
$INSBASE
 10
0.0
 20
0.0
 30
0.0
  9
$EXTMIN
 10
0.0
 20
0.0
 30
0.0
  9
$EXTMAX
 10
3000.0
 20
4500.0
 30
0.0
  9
$LIMMIN
 10
0.0
 20
0.0
  9
$LIMMAX
 10
3000.0
 20
4500.0
  9
$ORTHOMODE
 70
     0
  9
$REGENMODE
 70
     1
  9
$FILLMODE
 70
     1
  9
$QTEXTMODE
 70
     0
  9
$MIRRTEXT
 70
     1
  9
$LTSCALE
 40
1.0
  9
$ATTMODE
 70
     1
  9
$TEXTSIZE
 40
10.0
  9
$TRACEWID
 40
1.0
  9
$TEXTSTYLE
  7
Standard
  9
$CLAYER
  8
0
  9
$CELTYPE
  6
ByLayer
  9
$CECOLOR
 62
   256
  9
$CELTSCALE
 40
1.0
  9
$DISPSILH
 70
     0
  9
$DIMSCALE
 40
1.0
  9
$DIMASZ
 40
2.5
  9
$DIMEXO
 40
0.625
  9
$DIMDLI
 40
3.75
  9
$DIMRND
 40
0.0
  9
$DIMDLE
 40
0.0
  9
$DIMEXE
 40
1.25
  9
$DIMTP
 40
0.0
  9
$DIMTM
 40
0.0
  9
$DIMTXT
 40
2.5
  9
$DIMCEN
 40
2.5
  9
$DIMTSZ
 40
0.0
  9
$DIMTOL
 70
     0
  9
$DIMLIM
 70
     0
  9
$DIMTIH
 70
     0
  9
$DIMTOH
 70
     0
  9
$DIMSE1
 70
     0
  9
$DIMSE2
 70
     0
  9
$DIMTAD
 70
     1
  9
$DIMZIN
 70
     8
  9
$DIMBLK
  1

  9
$DIMASO
 70
     1
  9
$DIMSHO
 70
     1
  9
$DIMPOST
  1

  9
$DIMAPOST
  1

  9
$DIMALT
 70
     0
  9
$DIMALTD
 70
     3
  9
$DIMALTF
 40
0.0393700787
  9
$DIMLFAC
 40
1.0
  9
$DIMTOFL
 70
     1
  9
$DIMTVP
 40
0.0
  9
$DIMTIX
 70
     0
  9
$DIMSOXD
 70
     0
  9
$DIMSAH
 70
     0
  9
$DIMBLK1
  1

  9
$DIMBLK2
  1

  9
$DIMSTYLE
  2
ISO-25
  9
$DIMCLRD
 70
     0
  9
$DIMCLRE
 70
     0
  9
$DIMCLRT
 70
     0
  9
$DIMTFAC
 40
1.0
  9
$DIMGAP
 40
0.625
  9
$DIMJUST
 70
     0
  9
$DIMSD1
 70
     0
  9
$DIMSD2
 70
     0
  9
$DIMTOLJ
 70
     0
  9
$DIMTZIN
 70
     8
  9
$DIMALTZ
 70
     0
  9
$DIMALTTZ
 70
     0
  9
$DIMUPT
 70
     0
  9
$DIMDEC
 70
     2
  9
$DIMTDEC
 70
     2
  9
$DIMALTU
 70
     2
  9
$DIMALTTD
 70
     3
  9
$DIMTXSTY
  7
Standard
  9
$DIMAUNIT
 70
     0
  9
$DIMADEC
 70
     0
  9
$DIMALTRND
 40
0.0
  9
$DIMAZIN
 70
     0
  9
$DIMDSEP
 70
    44
  9
$DIMATFIT
 70
     3
  9
$DIMFRAC
 70
     0
  9
$DIMLDRBLK
  1

  9
$DIMLUNIT
 70
     2
  9
$DIMLWD
 70
    -2
  9
$DIMLWE
 70
    -2
  9
$DIMTMOVE
 70
     0
  9
$DIMFXL
 40
1.0
  9
$DIMFXLON
 70
     0
  9
$DIMJOGANG
 40
0.7853981634
  9
$DIMTFILL
 70
     0
  9
$DIMTFILLCLR
 70
     0
  9
$DIMARCSYM
 70
     0
  9
$DIMLTYPE
  6

  9
$DIMLTEX1
  6

  9
$DIMLTEX2
  6

  9
$LUNITS
 70
     2
  9
$LUPREC
 70
     4
  9
$SKETCHINC
 40
1.0
  9
$FILLETRAD
 40
10.0
  9
$AUNITS
 70
     0
  9
$AUPREC
 70
     0
  9
$MENU
  1
.
  9
$ELEVATION
 40
0.0
  9
$PELEVATION
 40
0.0
  9
$THICKNESS
 40
0.0
  9
$LIMCHECK
 70
     0
  9
$CHAMFERA
 40
0.0
  9
$CHAMFERB
 40
0.0
  9
$CHAMFERC
 40
0.0
  9
$CHAMFERD
 40
0.0
  9
$SKPOLY
 70
     0
  9
$TDCREATE
 40
2459555.667771435
  9
$TDUCREATE
 40
2459555.626104768
  9
$TDUPDATE
 40
2459555.66777331
  9
$TDUUPDATE
 40
2459555.626106644
  9
$TDINDWG
 40
0.0000000116
  9
$TDUSRTIMER
 40
0.0000000116
  9
$USRTIMER
 70
     1
  9
$ANGBASE
 50
0.0
  9
$ANGDIR
 70
     0
  9
$PDMODE
 70
     0
  9
$PDSIZE
 40
0.0
  9
$PLINEWID
 40
0.0
  9
$SPLFRAME
 70
     0
  9
$SPLINETYPE
 70
     6
  9
$SPLINESEGS
 70
     8
  9
$HANDSEED
  5
19A
  9
$SURFTAB1
 70
     6
  9
$SURFTAB2
 70
     6
  9
$SURFTYPE
 70
     6
  9
$SURFU
 70
     6
  9
$SURFV
 70
     6
  9
$UCSBASE
  2

  9
$UCSNAME
  2

  9
$UCSORG
 10
0.0
 20
0.0
 30
0.0
  9
$UCSXDIR
 10
1.0
 20
0.0
 30
0.0
  9
$UCSYDIR
 10
0.0
 20
1.0
 30
0.0
  9
$UCSORTHOREF
  2

  9
$UCSORTHOVIEW
 70
     0
  9
$UCSORGTOP
 10
0.0
 20
0.0
 30
0.0
  9
$UCSORGBOTTOM
 10
0.0
 20
0.0
 30
0.0
  9
$UCSORGLEFT
 10
0.0
 20
0.0
 30
0.0
  9
$UCSORGRIGHT
 10
0.0
 20
0.0
 30
0.0
  9
$UCSORGFRONT
 10
0.0
 20
0.0
 30
0.0
  9
$UCSORGBACK
 10
0.0
 20
0.0
 30
0.0
  9
$PUCSBASE
  2

  9
$PUCSNAME
  2

  9
$PUCSORG
 10
0.0
 20
0.0
 30
0.0
  9
$PUCSXDIR
 10
1.0
 20
0.0
 30
0.0
  9
$PUCSYDIR
 10
0.0
 20
1.0
 30
0.0
  9
$PUCSORTHOREF
  2

  9
$PUCSORTHOVIEW
 70
     0
  9
$PUCSORGTOP
 10
0.0
 20
0.0
 30
0.0
  9
$PUCSORGBOTTOM
 10
0.0
 20
0.0
 30
0.0
  9
$PUCSORGLEFT
 10
0.0
 20
0.0
 30
0.0
  9
$PUCSORGRIGHT
 10
0.0
 20
0.0
 30
0.0
  9
$PUCSORGFRONT
 10
0.0
 20
0.0
 30
0.0
  9
$PUCSORGBACK
 10
0.0
 20
0.0
 30
0.0
  9
$USERI1
 70
     0
  9
$USERI2
 70
     0
  9
$USERI3
 70
     0
  9
$USERI4
 70
     0
  9
$USERI5
 70
     0
  9
$USERR1
 40
0.0
  9
$USERR2
 40
0.0
  9
$USERR3
 40
0.0
  9
$USERR4
 40
0.0
  9
$USERR5
 40
0.0
  9
$WORLDVIEW
 70
     1
  9
$SHADEDGE
 70
     3
  9
$SHADEDIF
 70
    70
  9
$TILEMODE
 70
     1
  9
$MAXACTVP
 70
    64
  9
$PINSBASE
 10
0.0
 20
0.0
 30
0.0
  9
$PLIMCHECK
 70
     0
  9
$PEXTMIN
 10
0.0
 20
0.0
 30
0.0
  9
$PEXTMAX
 10
3000.0
 20
4500.0
 30
0.0
  9
$PLIMMIN
 10
0.0
 20
0.0
  9
$PLIMMAX
 10
3000.0
 20
4500.0
  9
$UNITMODE
 70
     0
  9
$VISRETAIN
 70
     1
  9
$PLINEGEN
 70
     0
  9
$PSLTSCALE
 70
     1
  9
$TREEDEPTH
 70
  3020
  9
$CMLSTYLE
  2
Standard
  9
$CMLJUST
 70
     0
  9
$CMLSCALE
 40
20.0
  9
$PROXYGRAPHICS
 70
     1
  9
$MEASUREMENT
 70
     1
  9
$CELWEIGHT
370
    -1
  9
$ENDCAPS
280
     0
  9
$JOINSTYLE
280
     0
  9
$LWDISPLAY
290
     0
  9
$INSUNITS
 70
     4
  9
$HYPERLINKBASE
  1

  9
$STYLESHEET
  1

  9
$XEDIT
290
     1
  9
$CEPSNTYPE
380
     0
  9
$PSTYLEMODE
290
     1
  9
$FINGERPRINTGUID
  2
{F24A999E-D54C-4045-8045-0CDFA5DF4749}
  9
$VERSIONGUID
  2
{FAEB1C32-E019-11D5-929B-00C0DF256EC4}
  9
$EXTNAMES
290
     1
  9
$PSVPSCALE
 40
0.0
  9
$OLESTARTUP
290
     0
  9
$SORTENTS
280
   127
  9
$INDEXCTL
280
     0
  9
$HIDETEXT
280
     1
  9
$XCLIPFRAME
290
     0
  9
$HALOGAP
280
     0
  9
$OBSCOLOR
 70
   257
  9
$OBSLTYPE
280
     0
  9
$INTERSECTIONDISPLAY
280
     0
  9
$INTERSECTIONCOLOR
 70
   257
  9
$DIMASSOC
280
     2
  9
$PROJECTNAME
  1

  9
$CAMERADISPLAY
290
     0
  9
$LENSLENGTH
 40
50.0
  9
$CAMERAHEIGHT
 40
0.0
  9
$STEPSPERSEC
 40
2.0
  9
$STEPSIZE
 40
6.0
  9
$3DDWFPREC
 40
2.0
  9
$PSOLWIDTH
 40
5.0
  9
$PSOLHEIGHT
 40
80.0
  9
$LOFTANG1
 40
1.5707963268
  9
$LOFTANG2
 40
1.5707963268
  9
$LOFTMAG1
 40
0.0
  9
$LOFTMAG2
 40
0.0
  9
$LOFTPARAM
 70
     7
  9
$LOFTNORMALS
280
     1
  9
$LATITUDE
 40
37.795
  9
$LONGITUDE
 40
-122.394
  9
$NORTHDIRECTION
 40
0.0
  9
$TIMEZONE
 70
 -8000
  9
$LIGHTGLYPHDISPLAY
280
     1
  9
$TILEMODELIGHTSYNCH
280
     1
  9
$CMATERIAL
347
44
  9
$SOLIDHIST
280
     0
  9
$SHOWHIST
280
     1
  9
$DWFFRAME
280
     2
  9
$DGNFRAME
280
     2
  9
$REALWORLDSCALE
290
     1
  9
$INTERFERECOLOR
 62
   256
  9
$CSHADOW
280
     0
  9
$SHADOWPLANELOCATION
 40
0.0
  0
ENDSEC
  0
SECTION
  2
CLASSES
  0
CLASS
  1
ACDBDICTIONARYWDFLT
  2
AcDbDictionaryWithDefault
  3
ObjectDBX Classes
 90
        0
 91
        4
280
     0
281
     0
  0
CLASS
  1
VISUALSTYLE
  2
AcDbVisualStyle
  3
ObjectDBX Classes
 90
     4095
 91
        4
280
     0
281
     0
  0
CLASS
  1
MATERIAL
  2
AcDbMaterial
  3
ObjectDBX Classes
 90
     1153
 91
        4
280
     0
281
     0
  0
CLASS
  1
SCALE
  2
AcDbScale
  3
ObjectDBX Classes
 90
     1153
 91
        4
280
     0
281
     0
  0
CLASS
  1
TABLESTYLE
  2
AcDbTableStyle
  3
ObjectDBX Classes
 90
     4095
 91
        4
280
     0
281
     0
  0
CLASS
  1
MLEADERSTYLE
  2
AcDbMLeaderStyle
  3
ACDB_MLEADERSTYLE_CLASS
 90
     4095
 91
        4
280
     0
281
     0
  0
CLASS
  1
SUN
  2
AcDbSun
  3
SCENEOE
 90
     1153
 91
        4
280
     0
281
     0
  0
CLASS
  1
DICTIONARYVAR
  2
AcDbDictionaryVar
  3
ObjectDBX Classes
 90
        0
 91
        4
280
     0
281
     0
  0
CLASS
  1
CELLSTYLEMAP
  2
AcDbCellStyleMap
  3
ObjectDBX Classes
 90
     1152
 91
        4
280
     0
281
     0
  0
ENDSEC
  0
SECTION
  2
TABLES
  0
TABLE
  2
VPORT
  5
8
330
0
100
AcDbSymbolTable
 70
     1
  0
VPORT
  5
29
330
8
100
AcDbSymbolTableRecord
100
AcDbViewportTableRecord
  2
*Active
 70
     0
 10
0.0
 20
0.0
 11
1.0
 21
1.0
 12
344.1869158879
 22
148.5
 13
0.0
 23
0.0
 14
10.0
 24
10.0
 15
10.0
 25
10.0
 16
0.0
 26
0.0
 36
1.0
 17
0.0
 27
0.0
 37
0.0
 40
297.0
 41
1.9729729729
 42
50.0
 43
0.0
 44
0.0
 50
0.0
 51
0.0
 71
     0
 72
   100
 73
     1
 74
     3
 75
     0
 76
     0
 77
     0
 78
     0
281
     0
 65
     1
110
0.0
120
0.0
130
0.0
111
1.0
121
0.0
131
0.0
112
0.0
122
1.0
132
0.0
 79
     0
146
0.0
348
2F
 60
     3
 61
     5
292
     1
282
     1
141
0.0
142
0.0
 63
   250
361
6D
  0
ENDTAB
  0
TABLE
  2
LTYPE
  5
5
330
0
100
AcDbSymbolTable
 70
     1
  0
LTYPE
  5
14
330
5
100
AcDbSymbolTableRecord
100
AcDbLinetypeTableRecord
  2
ByBlock
 70
     0
  3

 72
    65
 73
     0
 40
0.0
  0
LTYPE
  5
15
330
5
100
AcDbSymbolTableRecord
100
AcDbLinetypeTableRecord
  2
ByLayer
 70
     0
  3

 72
    65
 73
     0
 40
0.0
  0
LTYPE
  5
16
330
5
100
AcDbSymbolTableRecord
100
AcDbLinetypeTableRecord
  2
Continuous
 70
     0
  3
Solid line
 72
    65
 73
     0
 40
0.0
  0
ENDTAB
  0
TABLE
  2
LAYER
  5
2
330
0
100
AcDbSymbolTable
 70
     5
  0
LAYER
  5
10
330
2
100
AcDbSymbolTableRecord
100
AcDbLayerTableRecord
  2
0
 70
     0
 62
     7
  6
Continuous
370
    -3
390
F
347
46
  0
LAYER
  5
6E
330
2
100
AcDbSymbolTableRecord
100
AcDbLayerTableRecord
  2
Default
 70
     0
 62
     7
  6
Continuous
370
    -3
390
F
347
46
  0
LAYER
  5
71
330
2
100
AcDbSymbolTableRecord
100
AcDbLayerTableRecord
  2
DV1_Default
 70
     0
 62
     7
  6
Continuous
370
    -3
390
F
347
46
  0
LAYER
  5
93
330
2
100
AcDbSymbolTableRecord
100
AcDbLayerTableRecord
  2
DV2_Default
 70
     0
 62
     7
  6
Continuous
370
    -3
390
F
347
46
  0
LAYER
  5
BC
330
2
100
AcDbSymbolTableRecord
100
AcDbLayerTableRecord
  2
DV3_Default
 70
     0
 62
     7
  6
Continuous
370
    -3
390
F
347
46
  0
ENDTAB
  0
TABLE
  2
STYLE
  5
3
330
0
100
AcDbSymbolTable
 70
     1
  0
STYLE
  5
11
330
3
100
AcDbSymbolTableRecord
100
AcDbTextStyleTableRecord
  2
Standard
 70
     0
 40
0.0
 41
1.0
 50
0.0
 71
     0
 42
10.0
  3
txt
  4

  0
ENDTAB
  0
TABLE
  2
VIEW
  5
6
330
0
100
AcDbSymbolTable
 70
     0
  0
ENDTAB
  0
TABLE
  2
UCS
  5
7
330
0
100
AcDbSymbolTable
 70
     0
  0
ENDTAB
  0
TABLE
  2
APPID
  5
9
330
0
100
AcDbSymbolTable
 70
     2
  0
APPID
  5
12
330
9
100
AcDbSymbolTableRecord
100
AcDbRegAppTableRecord
  2
ACAD
 70
     0
  0
APPID
  5
190
330
9
100
AcDbSymbolTableRecord
100
AcDbRegAppTableRecord
  2
ACAD_MLEADERVER
 70
     0
  0
ENDTAB
  0
TABLE
  2
DIMSTYLE
  5
A
330
0
100
AcDbSymbolTable
 70
     1
100
AcDbDimStyleTable
  0
DIMSTYLE
105
27
330
A
100
AcDbSymbolTableRecord
100
AcDbDimStyleTableRecord
  2
ISO-25
 70
     0
 41
2.5
 42
0.625
 43
3.75
 44
1.25
 73
     0
 74
     0
 77
     1
 78
     8
140
2.5
141
2.5
143
0.0393700787
147
0.625
171
     3
172
     1
178
     0
271
     2
272
     2
274
     3
278
    44
283
     0
284
     8
340
11
  0
ENDTAB
  0
TABLE
  2
BLOCK_RECORD
  5
1
330
0
100
AcDbSymbolTable
 70
     4
  0
BLOCK_RECORD
  5
1F
330
1
100
AcDbSymbolTableRecord
100
AcDbBlockTableRecord
  2
*Model_Space
340
22
 70
     0
280
     1
281
     0
  0
BLOCK_RECORD
  5
1B
330
1
100
AcDbSymbolTableRecord
100
AcDbBlockTableRecord
  2
*Paper_Space
340
1E
 70
     0
280
     1
281
     0
  0
BLOCK_RECORD
  5
6F
330
1
100
AcDbSymbolTableRecord
100
AcDbBlockTableRecord
  2
SE
340
0
102
{BLKREFS
331
70
102
}
 70
     0
280
     1
281
     0
  0
BLOCK_RECORD
  5
91
330
1
100
AcDbSymbolTableRecord
100
AcDbBlockTableRecord
  2
SE1
340
0
102
{BLKREFS
331
92
102
}
 70
     0
280
     1
281
     0
  0
BLOCK_RECORD
  5
BA
330
1
100
AcDbSymbolTableRecord
100
AcDbBlockTableRecord
  2
SE2
340
0
102
{BLKREFS
331
BB
102
}
 70
     0
280
     1
281
     0
  0
ENDTAB
  0
ENDSEC
  0
SECTION
  2
BLOCKS
  0
BLOCK
  5
20
330
1F
100
AcDbEntity
  8
0
100
AcDbBlockBegin
  2
*Model_Space
 70
     0
 10
0.0
 20
0.0
 30
0.0
  3
*Model_Space
  1

  0
ENDBLK
  5
21
330
1F
100
AcDbEntity
  8
0
100
AcDbBlockEnd
  0
BLOCK
  5
1C
330
1B
100
AcDbEntity
 67
     1
  8
0
100
AcDbBlockBegin
  2
*Paper_Space
 70
     0
 10
0.0
 20
0.0
 30
0.0
  3
*Paper_Space
  1

  0
ENDBLK
  5
1D
330
1B
100
AcDbEntity
 67
     1
  8
0
100
AcDbBlockEnd
  0
BLOCK
  5
8F
330
6F
100
AcDbEntity
  8
0
100
AcDbBlockBegin
  2
SE
 70
     0
 10
0.0
 20
0.0
 30
0.0
  3
SE
  1

  0
LINE
  5
72
330
6F
100
AcDbEntity
  8
DV1_Default
 62
     7
100
AcDbLine
 10
246.35
 20
668.049707185
 30
0.0
 11
236.35
 21
668.049707185
 31
0.0
  0
LINE
  5
73
330
6F
100
AcDbEntity
  8
DV1_Default
 62
     7
100
AcDbLine
 10
16.35
 20
668.049707185
 30
0.0
 11
236.35
 21
668.049707185
 31
0.0
  0
LINE
  5
74
330
6F
100
AcDbEntity
  8
DV1_Default
 62
     7
100
AcDbLine
 10
16.35
 20
668.049707185
 30
0.0
 11
6.35
 21
668.049707185
 31
0.0
  0
LINE
  5
75
330
6F
100
AcDbEntity
  8
DV1_Default
 62
     7
100
AcDbLine
 10
246.35
 20
687.049707185
 30
0.0
 11
246.35
 21
668.049707185
 31
0.0
  0
LINE
  5
76
330
6F
100
AcDbEntity
  8
DV1_Default
 62
     7
100
AcDbLine
 10
236.35
 20
687.049707185
 30
0.0
 11
246.35
 21
687.049707185
 31
0.0
  0
LINE
  5
77
330
6F
100
AcDbEntity
  8
DV1_Default
 62
     7
100
AcDbLine
 10
16.35
 20
687.049707185
 30
0.0
 11
236.35
 21
687.049707185
 31
0.0
  0
LINE
  5
78
330
6F
100
AcDbEntity
  8
DV1_Default
 62
     7
100
AcDbLine
 10
6.35
 20
687.049707185
 30
0.0
 11
16.35
 21
687.049707185
 31
0.0
  0
LINE
  5
79
330
6F
100
AcDbEntity
  8
DV1_Default
 62
     7
100
AcDbLine
 10
6.35
 20
687.049707185
 30
0.0
 11
6.35
 21
668.049707185
 31
0.0
  0
LINE
  5
7A
330
6F
100
AcDbEntity
  8
DV1_Default
 62
     7
100
AcDbLine
 10
26.35
 20
659.049707185
 30
0.0
 11
26.35
 21
668.049707185
 31
0.0
  0
LINE
  5
7B
330
6F
100
AcDbEntity
  8
DV1_Default
 62
     7
100
AcDbLine
 10
36.35
 20
659.049707185
 30
0.0
 11
26.35
 21
659.049707185
 31
0.0
  0
LINE
  5
7C
330
6F
100
AcDbEntity
  8
DV1_Default
 62
     7
100
AcDbLine
 10
216.35
 20
659.049707185
 30
0.0
 11
36.35
 21
659.049707185
 31
0.0
  0
LINE
  5
7D
330
6F
100
AcDbEntity
  8
DV1_Default
 62
     7
100
AcDbLine
 10
226.35
 20
659.049707185
 30
0.0
 11
216.35
 21
659.049707185
 31
0.0
  0
LINE
  5
7E
330
6F
100
AcDbEntity
  8
DV1_Default
 62
     7
100
AcDbLine
 10
226.35
 20
659.049707185
 30
0.0
 11
226.35
 21
668.049707185
 31
0.0
  0
LINE
  5
7F
330
6F
100
AcDbEntity
  8
DV1_Default
 62
     7
100
AcDbLine
 10
122.3170088854
 20
687.049707185
 30
0.0
 11
122.3170088854
 21
687.055332185
 31
0.0
  0
LINE
  5
80
330
6F
100
AcDbEntity
  8
DV1_Default
 62
     7
100
AcDbLine
 10
115.962182969
 20
687.055332185
 30
0.0
 11
115.962182969
 21
687.049707185
 31
0.0
  0
ARC
  5
81
330
6F
100
AcDbEntity
  8
DV1_Default
 62
     7
100
AcDbCircle
 10
16.45
 20
667.949707185
 30
0.0
 40
0.1000000000000011
100
AcDbArc
 50
90.0
 51
180.0
  0
ARC
  5
82
330
6F
100
AcDbEntity
  8
DV1_Default
 62
     7
100
AcDbCircle
 10
24.25
 20
667.949707185
 30
0.0
 40
0.1000000000000011
100
AcDbArc
 50
0.0
 51
90.0
  0
LINE
  5
83
330
6F
100
AcDbEntity
  8
DV1_Default
 62
     7
100
AcDbLine
 10
24.35
 20
667.949707185
 30
0.0
 11
24.35
 21
666.749707185
 31
0.0
  0
ARC
  5
84
330
6F
100
AcDbEntity
  8
DV1_Default
 62
     7
100
AcDbCircle
 10
24.15
 20
666.749707185
 30
0.0
 40
0.1999999999999988
100
AcDbArc
 50
284.9917152795
 51
0.0
  0
SPLINE
  5
85
330
6F
100
AcDbEntity
  8
DV1_Default
 62
     7
100
AcDbSpline
210
0.0
220
0.0
230
1.0
 70
     8
 71
     5
 72
    21
 73
    15
 74
     0
 42
0.000000001
 43
0.0000000001
 40
0.0
 40
0.0
 40
0.0
 40
0.0
 40
0.0
 40
0.0
 40
0.0625
 40
0.125
 40
0.25
 40
0.375
 40
0.5
 40
0.625
 40
0.75
 40
0.875
 40
0.9375
 40
1.0
 40
1.0
 40
1.0
 40
1.0
 40
1.0
 40
1.0
 10
16.49826412525503
 20
666.5565145369457
 30
0.0
 10
16.59234990732371
 20
666.5313189082027
 30
0.0
 10
16.78093402854016
 20
666.4824684892461
 30
0.0
 10
17.15968430873038
 20
666.390944160603
 30
0.0
 10
17.73214746004448
 20
666.2722735123072
 30
0.0
 10
18.50246855830914
 20
666.1515741930239
 30
0.0
 10
19.37564538025883
 20
666.0656968348106
 30
0.0
 10
20.35000000000002
 20
666.0337332507136
 30
0.0
 10
21.3243546197413
 20
666.0656968348105
 30
0.0
 10
22.19753144169104
 20
666.1515741930233
 30
0.0
 10
22.96785253995519
 20
666.2722735123075
 30
0.0
 10
23.54031569126932
 20
666.3909441606031
 30
0.0
 10
23.91906597145965
 20
666.482468489246
 30
0.0
 10
24.10765009267633
 20
666.5313189082027
 30
0.0
 10
24.20173587474502
 20
666.5565145369457
 30
0.0
  0
ARC
  5
86
330
6F
100
AcDbEntity
  8
DV1_Default
 62
     7
100
AcDbCircle
 10
16.55
 20
666.749707185
 30
0.0
 40
0.1999999999999988
100
AcDbArc
 50
180.0
 51
255.0082847205
  0
LINE
  5
87
330
6F
100
AcDbEntity
  8
DV1_Default
 62
     7
100
AcDbLine
 10
16.35
 20
667.949707185
 30
0.0
 11
16.35
 21
666.749707185
 31
0.0
  0
ARC
  5
88
330
6F
100
AcDbEntity
  8
DV1_Default
 62
     7
100
AcDbCircle
 10
228.45
 20
667.949707185
 30
0.0
 40
0.1000000000000011
100
AcDbArc
 50
90.0
 51
180.0
  0
ARC
  5
89
330
6F
100
AcDbEntity
  8
DV1_Default
 62
     7
100
AcDbCircle
 10
236.25
 20
667.949707185
 30
0.0
 40
0.1000000000000011
100
AcDbArc
 50
0.0
 51
90.0
  0
LINE
  5
8A
330
6F
100
AcDbEntity
  8
DV1_Default
 62
     7
100
AcDbLine
 10
236.35
 20
667.949707185
 30
0.0
 11
236.35
 21
666.749707185
 31
0.0
  0
ARC
  5
8B
330
6F
100
AcDbEntity
  8
DV1_Default
 62
     7
100
AcDbCircle
 10
236.15
 20
666.749707185
 30
0.0
 40
0.1999999999999988
100
AcDbArc
 50
284.9917152795
 51
0.0
  0
SPLINE
  5
8C
330
6F
100
AcDbEntity
  8
DV1_Default
 62
     7
100
AcDbSpline
210
0.0
220
0.0
230
1.0
 70
     8
 71
     5
 72
    21
 73
    15
 74
     0
 42
0.000000001
 43
0.0000000001
 40
0.0
 40
0.0
 40
0.0
 40
0.0
 40
0.0
 40
0.0
 40
0.0625
 40
0.125
 40
0.25
 40
0.375
 40
0.5
 40
0.625
 40
0.75
 40
0.875
 40
0.9375
 40
1.0
 40
1.0
 40
1.0
 40
1.0
 40
1.0
 40
1.0
 10
228.498264125255
 20
666.5565145369457
 30
0.0
 10
228.5923499073237
 20
666.5313189082027
 30
0.0
 10
228.7809340285402
 20
666.4824684892461
 30
0.0
 10
229.1596843087304
 20
666.390944160603
 30
0.0
 10
229.7321474600445
 20
666.2722735123072
 30
0.0
 10
230.5024685583091
 20
666.1515741930239
 30
0.0
 10
231.3756453802588
 20
666.0656968348106
 30
0.0
 10
232.35
 20
666.0337332507136
 30
0.0
 10
233.3243546197413
 20
666.0656968348105
 30
0.0
 10
234.197531441691
 20
666.1515741930233
 30
0.0
 10
234.9678525399552
 20
666.2722735123075
 30
0.0
 10
235.5403156912693
 20
666.3909441606031
 30
0.0
 10
235.9190659714596
 20
666.482468489246
 30
0.0
 10
236.1076500926763
 20
666.5313189082027
 30
0.0
 10
236.201735874745
 20
666.5565145369457
 30
0.0
  0
ARC
  5
8D
330
6F
100
AcDbEntity
  8
DV1_Default
 62
     7
100
AcDbCircle
 10
228.55
 20
666.749707185
 30
0.0
 40
0.1999999999999988
100
AcDbArc
 50
180.0
 51
255.0082847205
  0
LINE
  5
8E
330
6F
100
AcDbEntity
  8
DV1_Default
 62
     7
100
AcDbLine
 10
228.35
 20
667.949707185
 30
0.0
 11
228.35
 21
666.749707185
 31
0.0
  0
ENDBLK
  5
90
330
6F
100
AcDbEntity
  8
0
100
AcDbBlockEnd
  0
BLOCK
  5
B8
330
91
100
AcDbEntity
  8
0
100
AcDbBlockBegin
  2
SE1
 70
     0
 10
0.0
 20
0.0
 30
0.0
  3
SE1
  1

  0
LINE
  5
94
330
91
100
AcDbEntity
  8
DV2_Default
 62
     7
100
AcDbLine
 10
799.05
 20
668.049707185
 30
0.0
 11
789.05
 21
668.049707185
 31
0.0
  0
LINE
  5
95
330
91
100
AcDbEntity
  8
DV2_Default
 62
     7
100
AcDbLine
 10
319.05
 20
668.049707185
 30
0.0
 11
789.05
 21
668.049707185
 31
0.0
  0
LINE
  5
96
330
91
100
AcDbEntity
  8
DV2_Default
 62
     7
100
AcDbLine
 10
319.05
 20
668.049707185
 30
0.0
 11
309.05
 21
668.049707185
 31
0.0
  0
LINE
  5
97
330
91
100
AcDbEntity
  8
DV2_Default
 62
     7
100
AcDbLine
 10
309.05
 20
687.049707185
 30
0.0
 11
319.05
 21
687.049707185
 31
0.0
  0
LINE
  5
98
330
91
100
AcDbEntity
  8
DV2_Default
 62
     7
100
AcDbLine
 10
309.05
 20
687.049707185
 30
0.0
 11
309.05
 21
668.049707185
 31
0.0
  0
LINE
  5
99
330
91
100
AcDbEntity
  8
DV2_Default
 62
     7
100
AcDbLine
 10
799.05
 20
687.049707185
 30
0.0
 11
799.05
 21
668.049707185
 31
0.0
  0
LINE
  5
9A
330
91
100
AcDbEntity
  8
DV2_Default
 62
     7
100
AcDbLine
 10
789.05
 20
687.049707185
 30
0.0
 11
799.05
 21
687.049707185
 31
0.0
  0
LINE
  5
9B
330
91
100
AcDbEntity
  8
DV2_Default
 62
     7
100
AcDbLine
 10
319.05
 20
687.049707185
 30
0.0
 11
789.05
 21
687.049707185
 31
0.0
  0
LINE
  5
9C
330
91
100
AcDbEntity
  8
DV2_Default
 62
     7
100
AcDbLine
 10
346.55
 20
659.049707185
 30
0.0
 11
346.55
 21
668.049707185
 31
0.0
  0
LINE
  5
9D
330
91
100
AcDbEntity
  8
DV2_Default
 62
     7
100
AcDbLine
 10
356.55
 20
659.049707185
 30
0.0
 11
346.55
 21
659.049707185
 31
0.0
  0
LINE
  5
9E
330
91
100
AcDbEntity
  8
DV2_Default
 62
     7
100
AcDbLine
 10
751.55
 20
659.049707185
 30
0.0
 11
356.55
 21
659.049707185
 31
0.0
  0
LINE
  5
9F
330
91
100
AcDbEntity
  8
DV2_Default
 62
     7
100
AcDbLine
 10
761.55
 20
659.049707185
 30
0.0
 11
751.55
 21
659.049707185
 31
0.0
  0
LINE
  5
A0
330
91
100
AcDbEntity
  8
DV2_Default
 62
     7
100
AcDbLine
 10
761.55
 20
659.049707185
 30
0.0
 11
761.55
 21
668.049707185
 31
0.0
  0
LINE
  5
A1
330
91
100
AcDbEntity
  8
DV2_Default
 62
     7
100
AcDbLine
 10
775.6225705271
 20
687.055332185
 30
0.0
 11
775.6225705271
 21
687.049707185
 31
0.0
  0
LINE
  5
A2
330
91
100
AcDbEntity
  8
DV2_Default
 62
     7
100
AcDbLine
 10
778.4472846322
 20
687.049707185
 30
0.0
 11
778.4472846322
 21
687.055332185
 31
0.0
  0
LINE
  5
A3
330
91
100
AcDbEntity
  8
DV2_Default
 62
     7
100
AcDbLine
 10
783.4943538497
 20
687.055332185
 30
0.0
 11
783.4943538497
 21
687.049707185
 31
0.0
  0
LINE
  5
A4
330
91
100
AcDbEntity
  8
DV2_Default
 62
     7
100
AcDbLine
 10
782.6078195638
 20
687.049707185
 30
0.0
 11
782.6078195638
 21
687.055332185
 31
0.0
  0
LINE
  5
A5
330
91
100
AcDbEntity
  8
DV2_Default
 62
     7
100
AcDbLine
 10
781.031254111
 20
687.049707185
 30
0.0
 11
781.031254111
 21
687.055332185
 31
0.0
  0
LINE
  5
A6
330
91
100
AcDbEntity
  8
DV2_Default
 62
     7
100
AcDbLine
 10
762.05
 20
667.949707185
 30
0.0
 11
762.05
 21
666.749707185
 31
0.0
  0
ARC
  5
A7
330
91
100
AcDbEntity
  8
DV2_Default
 62
     7
100
AcDbCircle
 10
762.15
 20
667.949707185
 30
0.0
 40
0.1000000000000011
100
AcDbArc
 50
90.0
 51
180.0
  0
ARC
  5
A8
330
91
100
AcDbEntity
  8
DV2_Default
 62
     7
100
AcDbCircle
 10
788.95
 20
667.949707185
 30
0.0
 40
0.099999999999989
100
AcDbArc
 50
0.0
 51
90.0
  0
ARC
  5
A9
330
91
100
AcDbEntity
  8
DV2_Default
 62
     7
100
AcDbCircle
 10
762.25
 20
666.749707185
 30
0.0
 40
0.2000000000000057
100
AcDbArc
 50
180.0
 51
255.0094417286
  0
SPLINE
  5
AA
330
91
100
AcDbEntity
  8
DV2_Default
 62
     7
100
AcDbSpline
210
0.0
220
0.0
230
1.0
 70
     8
 71
     3
 72
    11
 73
     7
 74
     0
 42
0.000000001
 43
0.0000000001
 40
0.0
 40
0.0
 40
0.0
 40
0.0
 40
0.2433831684249003
 40
0.4958124770503504
 40
0.748252231643029
 40
1.0
 40
1.0
 40
1.0
 40
1.0
 10
762.2072698265903
 20
666.5551819761411
 30
0.0
 10
762.5436158288219
 20
666.4706477766896
 30
0.0
 10
763.1233625800124
 20
666.327824675865
 30
0.0
 10
764.0947030402402
 20
666.1689331771917
 30
0.0
 10
765.084522851862
 20
666.0687705575646
 30
0.0
 10
765.6913247901088
 20
666.0557095306178
 30
0.0
 10
766.0499999999655
 20
666.0497071850056
 30
0.0
  0
LINE
  5
AB
330
91
100
AcDbEntity
  8
DV2_Default
 62
     7
100
AcDbLine
 10
766.0475
 20
666.049707185
 30
0.0
 11
785.0525
 21
666.049707185
 31
0.0
  0
LINE
  5
AC
330
91
100
AcDbEntity
  8
DV2_Default
 62
     7
100
AcDbLine
 10
789.05
 20
666.749707185
 30
0.0
 11
789.05
 21
667.949707185
 31
0.0
  0
ARC
  5
AD
330
91
100
AcDbEntity
  8
DV2_Default
 62
     7
100
AcDbCircle
 10
788.85
 20
666.749707185
 30
0.0
 40
0.1999999999999956
100
AcDbArc
 50
284.9905582719
 51
0.0
  0
SPLINE
  5
AE
330
91
100
AcDbEntity
  8
DV2_Default
 62
     7
100
AcDbSpline
210
0.0
220
0.0
230
1.0
 70
     8
 71
     3
 72
    11
 73
     7
 74
     0
 42
0.000000001
 43
0.0000000001
 40
0.0
 40
0.0
 40
0.0
 40
0.0
 40
0.2517477683567076
 40
0.504187522950041
 40
0.7566168315758539
 40
1.0
 40
1.0
 40
1.0
 40
1.0
 10
785.050000000035
 20
666.0497071850056
 30
0.0
 10
785.4086752098915
 20
666.0557095306181
 30
0.0
 10
786.015477148139
 20
666.068770557565
 30
0.0
 10
787.0052969597624
 20
666.168933177192
 30
0.0
 10
787.9766374199908
 20
666.327824675865
 30
0.0
 10
788.5563841711808
 20
666.4706477766908
 30
0.0
 10
788.8927301734115
 20
666.5551819761428
 30
0.0
  0
LINE
  5
AF
330
91
100
AcDbEntity
  8
DV2_Default
 62
     7
100
AcDbLine
 10
346.05
 20
666.749707185
 30
0.0
 11
346.05
 21
667.949707185
 31
0.0
  0
ARC
  5
B0
330
91
100
AcDbEntity
  8
DV2_Default
 62
     7
100
AcDbCircle
 10
345.95
 20
667.949707185
 30
0.0
 40
0.099999999999989
100
AcDbArc
 50
0.0
 51
90.0
  0
ARC
  5
B1
330
91
100
AcDbEntity
  8
DV2_Default
 62
     7
100
AcDbCircle
 10
319.15
 20
667.949707185
 30
0.0
 40
0.1000000000000011
100
AcDbArc
 50
90.0
 51
180.0
  0
ARC
  5
B2
330
91
100
AcDbEntity
  8
DV2_Default
 62
     7
100
AcDbCircle
 10
345.85
 20
666.749707185
 30
0.0
 40
0.1999999999999972
100
AcDbArc
 50
284.9905582714
 51
0.0
  0
SPLINE
  5
B3
330
91
100
AcDbEntity
  8
DV2_Default
 62
     7
100
AcDbSpline
210
0.0
220
0.0
230
1.0
 70
     8
 71
     3
 72
    11
 73
     7
 74
     0
 42
0.000000001
 43
0.0000000001
 40
0.0
 40
0.0
 40
0.0
 40
0.0
 40
0.251747768356971
 40
0.5041875229496496
 40
0.7566168315750997
 40
1.0
 40
1.0
 40
1.0
 40
1.0
 10
342.0500000000346
 20
666.0497071850056
 30
0.0
 10
342.4086752098914
 20
666.0557095306178
 30
0.0
 10
343.0154771481381
 20
666.0687705575646
 30
0.0
 10
344.0052969597601
 20
666.1689331771917
 30
0.0
 10
344.9766374199878
 20
666.327824675865
 30
0.0
 10
345.5563841711782
 20
666.4706477766896
 30
0.0
 10
345.8927301734098
 20
666.5551819761411
 30
0.0
  0
LINE
  5
B4
330
91
100
AcDbEntity
  8
DV2_Default
 62
     7
100
AcDbLine
 10
323.0475
 20
666.049707185
 30
0.0
 11
342.0525
 21
666.049707185
 31
0.0
  0
LINE
  5
B5
330
91
100
AcDbEntity
  8
DV2_Default
 62
     7
100
AcDbLine
 10
319.05
 20
667.949707185
 30
0.0
 11
319.05
 21
666.749707185
 31
0.0
  0
ARC
  5
B6
330
91
100
AcDbEntity
  8
DV2_Default
 62
     7
100
AcDbCircle
 10
319.25
 20
666.749707185
 30
0.0
 40
0.2000000000000057
100
AcDbArc
 50
180.0
 51
255.0094417281
  0
SPLINE
  5
B7
330
91
100
AcDbEntity
  8
DV2_Default
 62
     7
100
AcDbSpline
210
0.0
220
0.0
230
1.0
 70
     8
 71
     3
 72
    11
 73
     7
 74
     0
 42
0.000000001
 43
0.0000000001
 40
0.0
 40
0.0
 40
0.0
 40
0.0
 40
0.2433831684241461
 40
0.495812477049959
 40
0.7482522316432924
 40
1.0
 40
1.0
 40
1.0
 40
1.0
 10
319.2072698265886
 20
666.5551819761428
 30
0.0
 10
319.5436158288193
 20
666.4706477766908
 30
0.0
 10
320.1233625800094
 20
666.327824675865
 30
0.0
 10
321.0947030402377
 20
666.168933177192
 30
0.0
 10
322.084522851861
 20
666.068770557565
 30
0.0
 10
322.6913247901085
 20
666.0557095306181
 30
0.0
 10
323.0499999999651
 20
666.0497071850056
 30
0.0
  0
ENDBLK
  5
B9
330
91
100
AcDbEntity
  8
0
100
AcDbBlockEnd
  0
BLOCK
  5
152
330
BA
100
AcDbEntity
  8
0
100
AcDbBlockBegin
  2
SE2
 70
     0
 10
0.0
 20
0.0
 30
0.0
  3
SE2
  1

  0
ARC
  5
BD
330
BA
100
AcDbEntity
  8
DV3_Default
 62
     7
100
AcDbCircle
 10
16.35
 20
586.35
 30
0.0
 40
10.00000000000001
100
AcDbArc
 50
90.0
 51
180.0
  0
LINE
  5
BE
330
BA
100
AcDbEntity
  8
DV3_Default
 62
     7
100
AcDbLine
 10
236.35
 20
596.35
 30
0.0
 11
16.35
 21
596.35
 31
0.0
  0
ARC
  5
BF
330
BA
100
AcDbEntity
  8
DV3_Default
 62
     7
100
AcDbCircle
 10
236.35
 20
586.35
 30
0.0
 40
9.999999999999995
100
AcDbArc
 50
0.0
 51
90.0
  0
LINE
  5
C0
330
BA
100
AcDbEntity
  8
DV3_Default
 62
     7
100
AcDbLine
 10
246.35
 20
116.35
 30
0.0
 11
246.35
 21
586.35
 31
0.0
  0
ARC
  5
C1
330
BA
100
AcDbEntity
  8
DV3_Default
 62
     7
100
AcDbCircle
 10
236.35
 20
116.35
 30
0.0
 40
10.00000000000001
100
AcDbArc
 50
270.0
 51
0.0
  0
LINE
  5
C2
330
BA
100
AcDbEntity
  8
DV3_Default
 62
     7
100
AcDbLine
 10
16.35
 20
106.35
 30
0.0
 11
236.35
 21
106.35
 31
0.0
  0
ARC
  5
C3
330
BA
100
AcDbEntity
  8
DV3_Default
 62
     7
100
AcDbCircle
 10
16.35
 20
116.35
 30
0.0
 40
9.999999999999995
100
AcDbArc
 50
180.0
 51
270.0
  0
LINE
  5
C4
330
BA
100
AcDbEntity
  8
DV3_Default
 62
     7
100
AcDbLine
 10
6.35
 20
586.35
 30
0.0
 11
6.35
 21
116.35
 31
0.0
  0
SPLINE
  5
C5
330
BA
100
AcDbEntity
  8
DV3_Default
 62
     7
100
AcDbSpline
210
0.0
220
0.0
230
1.0
 70
     8
 71
     3
 72
    62
 73
    58
 74
     0
 42
0.000000001
 43
0.0000000001
 40
0.0
 40
0.0
 40
0.0
 40
0.0
 40
0.0172300593322
 40
0.03426598870603
 40
0.05100328924853
 40
0.06750107330896
 40
0.08381797105837
 40
0.1000076322966
 40
0.1161196127036
 40
0.1322115151261
 40
0.1483465570604
 40
0.1645443033779
 40
0.180838318142
 40
0.1973262093642
 40
0.2140610499293
 40
0.2310157759649
 40
0.248200441086
 40
0.2657165574735
 40
0.2836166085893
 40
0.3018713215329
 40
0.3205213323385
 40
0.3396332965612
 40
0.3592221163704
 40
0.3793017486285
 40
0.3999121765962
 40
0.4210850439659
 40
0.4428428046687
 40
0.4652188298338
 40
0.4882590112328
 40
0.5116944731508
 40
0.5347281313645
 40
0.5570980570715
 40
0.5788497202962
 40
0.6000164733017
 40
0.6206207506786
 40
0.6406942776067
 40
0.6602770940757
 40
0.6793828465018
 40
0.6980273068169
 40
0.7162768737946
 40
0.7341711756861
 40
0.7516809397806
 40
0.7688599324425
 40
0.78580996349
 40
0.802539546808
 40
0.8190227149358
 40
0.8353126960971
 40
0.8515063743156
 40
0.8676374412153
 40
0.8837250125554
 40
0.8998334393479
 40
0.9160211653823
 40
0.9323358489291
 40
0.9488323472879
 40
0.9655665976722
 40
0.9826081315677
 40
1.0
 40
1.0
 40
1.0
 40
1.0
 10
128.989784855479
 20
128.3670425173001
 30
0.0
 10
128.989740985872
 20
128.4093485002001
 30
0.0
 10
128.98725741731
 20
128.4935016583001
 30
0.0
 10
128.976361838416
 20
128.6183256248001
 30
0.0
 10
128.958452703542
 20
128.7405253759001
 30
0.0
 10
128.933752164911
 20
128.8597312613001
 30
0.0
 10
128.902414293336
 20
128.9759745819001
 30
0.0
 10
128.864555795291
 20
129.0892620281001
 30
0.0
 10
128.820253101131
 20
129.1995929722001
 30
0.0
 10
128.769535194392
 20
129.3069774235001
 30
0.0
 10
128.712441831491
 20
129.4113524413
 30
0.0
 10
128.649002875363
 20
129.5125830458001
 30
0.0
 10
128.579186525802
 20
129.6105916578001
 30
0.0
 10
128.502865087879
 20
129.7053240505001
 30
0.0
 10
128.420033664561
 20
129.7966223696
 30
0.0
 10
128.330801837207
 20
129.8841382320001
 30
0.0
 10
128.235173912697
 20
129.9675651946
 30
0.0
 10
128.133034407528
 20
130.0467281844001
 30
0.0
 10
128.024359168005
 20
130.1213936623001
 30
0.0
 10
127.909225426544
 20
130.1911907372001
 30
0.0
 10
127.787688792187
 20
130.2557396305
 30
0.0
 10
127.659741008588
 20
130.3147266706
 30
0.0
 10
127.525440464231
 20
130.3677842464
 30
0.0
 10
127.384918633432
 20
130.4144927294001
 30
0.0
 10
127.2382939293879
 20
130.4544485068
 30
0.0
 10
127.0856855293729
 20
130.4872435847001
 30
0.0
 10
126.9272505548063
 20
130.5124535422001
 30
0.0
 10
126.7631352768048
 20
130.5296544404
 30
0.0
 10
126.5942261009529
 20
130.5383540529
 30
0.0
 10
126.4234795725969
 20
130.5383071696
 30
0.0
 10
126.2546062645087
 20
130.5295139504001
 30
0.0
 10
126.0905464929102
 20
130.5122247869
 30
0.0
 10
125.9321703899785
 20
130.4869311626001
 30
0.0
 10
125.7796250314629
 20
130.4540574888001
 30
0.0
 10
125.633067159173
 20
130.4140281401
 30
0.0
 10
125.4926153848394
 20
130.3672511400001
 30
0.0
 10
125.3583881698613
 20
130.3141304724001
 30
0.0
 10
125.23051533936
 20
130.2550851175
 30
0.0
 10
125.109054517926
 20
130.1904820467001
 30
0.0
 10
124.993998115782
 20
130.1206353484
 30
0.0
 10
124.885403972821
 20
130.0459266821001
 30
0.0
 10
124.783348430893
 20
129.9667266467
 30
0.0
 10
124.687804323293
 20
129.8832661140001
 30
0.0
 10
124.598655462595
 20
129.7957205041
 30
0.0
 10
124.515906715144
 20
129.7043958693
 30
0.0
 10
124.439668343797
 20
129.6096407715
 30
0.0
 10
124.36993468408
 20
129.511611951
 30
0.0
 10
124.306578500816
 20
129.4103645118001
 30
0.0
 10
124.249569207444
 20
129.3059781748001
 30
0.0
 10
124.198935740987
 20
129.1985860917001
 30
0.0
 10
124.154716039895
 20
129.0882478458001
 30
0.0
 10
124.116940112357
 20
128.9749527690001
 30
0.0
 10
124.085684600837
 20
128.8587011130001
 30
0.0
 10
124.061068606606
 20
128.7394941169001
 30
0.0
 10
124.043243018194
 20
128.6172791338001
 30
0.0
 10
124.032395006263
 20
128.4920454613001
 30
0.0
 10
124.029991878187
 20
128.4074776472
 30
0.0
 10
124.029992948488
 20
128.3647743419
 30
0.0
  0
SPLINE
  5
C6
330
BA
100
AcDbEntity
  8
DV3_Default
 62
     7
100
AcDbSpline
210
0.0
220
0.0
230
1.0
 70
     8
 71
     3
 72
    62
 73
    58
 74
     0
 42
0.000000001
 43
0.0000000001
 40
0.0
 40
0.0
 40
0.0
 40
0.0
 40
0.01736180387283
 40
0.0343410498866
 40
0.05102183905172
 40
0.06747628580548
 40
0.08375891795626
 40
0.09992419799007
 40
0.1160204662302
 40
0.1321049380704
 40
0.1482406705133
 40
0.1644474105271
 40
0.1807575048139
 40
0.1972667051847
 40
0.2140277305495
 40
0.2310140900184
 40
0.2482341931184
 40
0.2657871682616
 40
0.2837244816755
 40
0.302016878381
 40
0.3207028682365
 40
0.3398464366397
 40
0.3594612990313
 40
0.3795599437848
 40
0.4001806393449
 40
0.4213531151292
 40
0.4430981627525
 40
0.4654477812323
 40
0.4884449703338
 40
0.5118284196827
 40
0.5348199864646
 40
0.5571605437398
 40
0.5788952813105
 40
0.6000560664744
 40
0.6206639358105
 40
0.6407493340847
 40
0.6603506987136
 40
0.6794801226128
 40
0.6981528672865
 40
0.7164335143647
 40
0.7343587755456
 40
0.7518992463897
 40
0.7691094521914
 40
0.7860885878493
 40
0.8028421952416
 40
0.8193453234129
 40
0.8356522655296
 40
0.8518579619275
 40
0.8679936372748
 40
0.8840794071859
 40
0.9001797230069
 40
0.9163521812143
 40
0.9326438588214
 40
0.9491084122936
 40
0.9658044453702
 40
0.9827918429915
 40
1.0
 40
1.0
 40
1.0
 40
1.0
 10
124.029992948488
 20
128.3647743419
 30
0.0
 10
124.029994016938
 20
128.3221449222
 30
0.0
 10
124.032399535448
 20
128.2378038538
 30
0.0
 10
124.043259150561
 20
128.1129306256001
 30
0.0
 10
124.061081571601
 20
127.9911069744001
 30
0.0
 10
124.08569650827
 20
127.8722197578001
 30
0.0
 10
124.116960387606
 20
127.7562160221
 30
0.0
 10
124.154759861658
 20
127.6431014964
 30
0.0
 10
124.199024692385
 20
127.5328812363001
 30
0.0
 10
124.249729056775
 20
127.4255514930001
 30
0.0
 10
124.306838861417
 20
127.3211792832001
 30
0.0
 10
124.370327273812
 20
127.2199051372
 30
0.0
 10
124.44022664733
 20
127.1218159598
 30
0.0
 10
124.516662903797
 20
127.0269757306
 30
0.0
 10
124.599641813772
 20
126.9355489852001
 30
0.0
 10
124.689053315328
 20
126.8478894272
 30
0.0
 10
124.784887838786
 20
126.7643112379
 30
0.0
 10
124.88725259206
 20
126.6849998696
 30
0.0
 10
124.996165444953
 20
126.6101955872001
 30
0.0
 10
125.111542155907
 20
126.5402740864
 30
0.0
 10
125.23331569891
 20
126.475620421
 30
0.0
 10
125.3614799426756
 20
126.4165540604
 30
0.0
 10
125.4959625573629
 20
126.3634453811001
 30
0.0
 10
125.6366198239823
 20
126.3167141162
 30
0.0
 10
125.783319151693
 20
126.2767629492
 30
0.0
 10
125.9359265871056
 20
126.2439973177001
 30
0.0
 10
126.0942710707589
 20
126.2188371866
 30
0.0
 10
126.2581901490527
 20
126.2017005450001
 30
0.0
 10
126.4268041465926
 20
126.1930697299
 30
0.0
 10
126.5972138378664
 20
126.193184055
 30
0.0
 10
126.7657800026564
 20
126.2020414611
 30
0.0
 10
126.9296145507798
 20
126.2193948617
 30
0.0
 10
127.0878490783454
 20
126.2447599595
 30
0.0
 10
127.2403275938123
 20
126.2777179044
 30
0.0
 10
127.386881789259
 20
126.3178485173001
 30
0.0
 10
127.527381177289
 20
126.3647463028001
 30
0.0
 10
127.661695230384
 20
126.4180080372001
 30
0.0
 10
127.789683924109
 20
126.4772150793
 30
0.0
 10
127.911279170426
 20
126.5419993011
 30
0.0
 10
128.026476073787
 20
126.6120416829001
 30
0.0
 10
128.135205544521
 20
126.686955215
 30
0.0
 10
128.237385847993
 20
126.7663662932001
 30
0.0
 10
128.333039869714
 20
126.8500405377001
 30
0.0
 10
128.422276626651
 20
126.9377920215
 30
0.0
 10
128.505083289653
 20
127.0293062249001
 30
0.0
 10
128.581349305332
 20
127.1242310023
 30
0.0
 10
128.651083585309
 20
127.2224066937
 30
0.0
 10
128.714410989024
 20
127.3237692707001
 30
0.0
 10
128.771361097349
 20
127.4282292614
 30
0.0
 10
128.821906244175
 20
127.535648419
 30
0.0
 10
128.866014615014
 20
127.6459645094
 30
0.0
 10
128.903657543337
 20
127.7591836887001
 30
0.0
 10
128.93476335936
 20
127.8752968723001
 30
0.0
 10
128.959216566869
 20
127.9943036402001
 30
0.0
 10
128.976870961886
 20
128.1162350385001
 30
0.0
 10
128.987516623093
 20
128.2408051711
 30
0.0
 10
128.989828669253
 20
128.3247903782
 30
0.0
 10
128.989784855479
 20
128.3670425173001
 30
0.0
  0
SPLINE
  5
C7
330
BA
100
AcDbEntity
  8
DV3_Default
 62
     7
100
AcDbSpline
210
0.0
220
0.0
230
1.0
 70
     8
 71
     3
 72
    31
 73
    27
 74
     0
 42
0.000000001
 43
0.0000000001
 40
0.0
 40
0.0
 40
0.0
 40
0.0
 40
0.04669434950501
 40
0.08866601937425
 40
0.1270952269268
 40
0.1627446380447
 40
0.1960302314652
 40
0.2273238724568
 40
0.2573511197352
 40
0.286744452889
 40
0.3155271571208
 40
0.343776031146
 40
0.3722627162936
 40
0.4016016530058
 40
0.4317689742642
 40
0.4629365832754
 40
0.4959402418109
 40
0.5314001583185
 40
0.5697851206256
 40
0.6115421241551
 40
0.6576960793948
 40
0.7097041388706
 40
0.7679748526129
 40
0.8345186439864
 40
0.9113292309947
 40
1.0
 40
1.0
 40
1.0
 40
1.0
 10
123.374458013483
 20
129.1186156708
 30
0.0
 10
123.374458013483
 20
129.1564007373001
 30
0.0
 10
123.37242300071
 20
129.2281739412001
 30
0.0
 10
123.363039716124
 20
129.3306577412
 30
0.0
 10
123.34841205804
 20
129.423488457
 30
0.0
 10
123.329193894845
 20
129.5082825347
 30
0.0
 10
123.30590419399
 20
129.5860384037001
 30
0.0
 10
123.27886649619
 20
129.6577286745
 30
0.0
 10
123.248070092315
 20
129.7244317378
 30
0.0
 10
123.21355264728
 20
129.7869739982
 30
0.0
 10
123.175425335468
 20
129.8456738848
 30
0.0
 10
123.13357795455
 20
129.9008667494001
 30
0.0
 10
123.087457075473
 20
129.9531436116
 30
0.0
 10
123.036582030164
 20
130.0030470501001
 30
0.0
 10
122.980629624053
 20
130.0506083670001
 30
0.0
 10
122.919044897302
 20
130.095826054
 30
0.0
 10
122.850812370434
 20
130.1388906917001
 30
0.0
 10
122.774658858187
 20
130.1799710106
 30
0.0
 10
122.689494882651
 20
130.2188341842001
 30
0.0
 10
122.59390183301
 20
130.2551768669001
 30
0.0
 10
122.485668138027
 20
130.2886598543001
 30
0.0
 10
122.362625745384
 20
130.3187116869001
 30
0.0
 10
122.221816020699
 20
130.3445604992
 30
0.0
 10
122.059855514569
 20
130.3649269764001
 30
0.0
 10
121.872516752479
 20
130.3785678011
 30
0.0
 10
121.738576469068
 20
130.3814563882001
 30
0.0
 10
121.666824084937
 20
130.3814563882001
 30
0.0
  0
SPLINE
  5
C8
330
BA
100
AcDbEntity
  8
DV3_Default
 62
     7
100
AcDbSpline
210
0.0
220
0.0
230
1.0
 70
     8
 71
     3
 72
    24
 73
    20
 74
     0
 42
0.000000001
 43
0.0000000001
 40
0.0
 40
0.0
 40
0.0
 40
0.0
 40
0.07211166022781
 40
0.1397563849001
 40
0.2034062707907
 40
0.2635656560698
 40
0.3215034461258
 40
0.3780070954542
 40
0.4328947994143
 40
0.4861928743151
 40
0.5386619410196
 40
0.5915795446925
 40
0.6454169855824
 40
0.6998710192528
 40
0.7549432812034
 40
0.8117548707961
 40
0.8713876484134
 40
0.9341069250534
 40
1.0
 40
1.0
 40
1.0
 40
1.0
 10
122.611495472723
 20
127.9707141454
 30
0.0
 10
122.64360498339
 20
127.9852045518
 30
0.0
 10
122.705010101828
 20
128.015169674
 30
0.0
 10
122.791419979087
 20
128.0643648846001
 30
0.0
 10
122.869580880397
 20
128.1158537805001
 30
0.0
 10
122.94037987129
 20
128.16954105
 30
0.0
 10
123.004740995568
 20
128.2256133457001
 30
0.0
 10
123.06333241219
 20
128.2840962634
 30
0.0
 10
123.116293012201
 20
128.3447437173
 30
0.0
 10
123.163750265236
 20
128.4073326166001
 30
0.0
 10
123.206129380799
 20
128.4723204347
 30
0.0
 10
123.243954800478
 20
128.5403596850001
 30
0.0
 10
123.277387904805
 20
128.6117333937001
 30
0.0
 10
123.306197543885
 20
128.6862254827001
 30
0.0
 10
123.330233004421
 20
128.7639162022001
 30
0.0
 10
123.349395840108
 20
128.8455513246001
 30
0.0
 10
123.363611594454
 20
128.9319803383001
 30
0.0
 10
123.372487003527
 20
129.02357563
 30
0.0
 10
123.374458013483
 20
129.0864258271
 30
0.0
 10
123.374458013483
 20
129.1186156708
 30
0.0
  0
LINE
  5
C9
330
BA
100
AcDbEntity
  8
DV3_Default
 62
     7
100
AcDbLine
 10
123.9517770668
 20
126.35
 30
0.0
 11
122.6114954727
 21
127.9707141454
 31
0.0
  0
LINE
  5
CA
330
BA
100
AcDbEntity
  8
DV3_Default
 62
     7
100
AcDbLine
 10
122.6068454432
 20
126.35
 30
0.0
 11
123.9517770668
 21
126.35
 31
0.0
  0
LINE
  5
CB
330
BA
100
AcDbEntity
  8
DV3_Default
 62
     7
100
AcDbLine
 10
121.1455438492
 20
128.3358010808
 30
0.0
 11
122.6068454431
 21
126.35
 31
0.0
  0
LINE
  5
CC
330
BA
100
AcDbEntity
  8
DV3_Default
 62
     7
100
AcDbLine
 10
121.2633445978
 20
128.3358010808
 30
0.0
 11
121.1455438492
 21
128.3358010808
 31
0.0
  0
LINE
  5
CD
330
BA
100
AcDbEntity
  8
DV3_Default
 62
     7
100
AcDbLine
 10
121.4953691492
 20
128.329720273
 30
0.0
 11
121.2633445978
 21
128.3358010809
 31
0.0
  0
SPLINE
  5
CE
330
BA
100
AcDbEntity
  8
DV3_Default
 62
     7
100
AcDbSpline
210
0.0
220
0.0
230
1.0
 70
     8
 71
     3
 72
    48
 73
    44
 74
     0
 42
0.000000001
 43
0.0000000001
 40
0.0
 40
0.0
 40
0.0
 40
0.0
 40
0.05048770979903
 40
0.09449312917334
 40
0.1327633323857
 40
0.1659702764325
 40
0.1947927101738
 40
0.2200559325769
 40
0.2425958733649
 40
0.2628375079002
 40
0.281380498922
 40
0.2989208683361
 40
0.315822176837
 40
0.3320425484654
 40
0.3480242206874
 40
0.3643314812505
 40
0.3811363476482
 40
0.3987510629342
 40
0.4175932614382
 40
0.4381189613555
 40
0.4608956800768
 40
0.4866866111469
 40
0.5142583807676
 40
0.5399106037563
 40
0.563672361165
 40
0.5859102033926
 40
0.6069400988008
 40
0.62704609717
 40
0.6465336822539
 40
0.6655875184714
 40
0.6844382581101
 40
0.7035004101396
 40
0.7229218115522
 40
0.7427211965155
 40
0.7633911947659
 40
0.7852261078401
 40
0.8084040138527
 40
0.8333530306474
 40
0.8604959215164
 40
0.8901244530559
 40
0.9228954869321
 40
0.9593087488535
 40
1.0
 40
1.0
 40
1.0
 40
1.0
 10
121.455545819235
 20
129.620878478
 30
0.0
 10
121.496270044943
 20
129.620878478
 30
0.0
 10
121.572509290347
 20
129.6192478637001
 30
0.0
 10
121.679354515113
 20
129.6112918572001
 30
0.0
 10
121.771753209505
 20
129.5990238207
 30
0.0
 10
121.851150914776
 20
129.5831833098001
 30
0.0
 10
121.919165220506
 20
129.5647395572001
 30
0.0
 10
121.977514372654
 20
129.5441791336
 30
0.0
 10
122.027792948569
 20
129.5220298479001
 30
0.0
 10
122.071385046415
 20
129.4985382671001
 30
0.0
 10
122.109515990801
 20
129.4737391258001
 30
0.0
 10
122.143269247174
 20
129.4474391527
 30
0.0
 10
122.173297311619
 20
129.419649259
 30
0.0
 10
122.199984702887
 20
129.3903144379001
 30
0.0
 10
122.223680607283
 20
129.3591137807001
 30
0.0
 10
122.244818077989
 20
129.3255684323001
 30
0.0
 10
122.263580877865
 20
129.2891498594001
 30
0.0
 10
122.27992995658
 20
129.2493647803001
 30
0.0
 10
122.293790118832
 20
129.2054861205
 30
0.0
 10
122.30494318403
 20
129.1565607882
 30
0.0
 10
122.313009534323
 20
129.1013582215
 30
0.0
 10
122.317204222954
 20
129.0400323481001
 30
0.0
 10
122.317215772319
 20
128.9762455325001
 30
0.0
 10
122.31277177449
 20
128.9142498302
 30
0.0
 10
122.304274295212
 20
128.8570250319001
 30
0.0
 10
122.292208811433
 20
128.8042649573001
 30
0.0
 10
122.276894573169
 20
128.7554377260001
 30
0.0
 10
122.258537180005
 20
128.7100566823001
 30
0.0
 10
122.237258010215
 20
128.6677477943001
 30
0.0
 10
122.213113478597
 20
128.6281881076
 30
0.0
 10
122.185976411275
 20
128.5910412914
 30
0.0
 10
122.155650003795
 20
128.5560569488001
 30
0.0
 10
122.12203130234
 20
128.5231204969
 30
0.0
 10
122.084831533966
 20
128.4922153285
 30
0.0
 10
122.043645827517
 20
128.4633224412001
 30
0.0
 10
121.997956535296
 20
128.4363924974
 30
0.0
 10
121.947203906396
 20
128.4115909239001
 30
0.0
 10
121.890726212951
 20
128.3891543873
 30
0.0
 10
121.827775590494
 20
128.3694059432001
 30
0.0
 10
121.757425300647
 20
128.3527850741
 30
0.0
 10
121.678699914397
 20
128.3399353909001
 30
0.0
 10
121.590408666646
 20
128.3315431534
 30
0.0
 10
121.528191388591
 20
128.329720273
 30
0.0
 10
121.495369149226
 20
128.329720273
 30
0.0
  0
LINE
  5
CF
330
BA
100
AcDbEntity
  8
DV3_Default
 62
     7
100
AcDbLine
 10
121.0017506278
 20
129.620878478
 30
0.0
 11
121.4555458192
 21
129.620878478
 31
0.0
  0
LINE
  5
D0
330
BA
100
AcDbEntity
  8
DV3_Default
 62
     7
100
AcDbLine
 10
121.0017506278
 20
126.35
 30
0.0
 11
121.0017506278
 21
129.620878478
 31
0.0
  0
LINE
  5
D1
330
BA
100
AcDbEntity
  8
DV3_Default
 62
     7
100
AcDbLine
 10
119.9494131712
 20
126.35
 30
0.0
 11
121.0017506278
 21
126.35
 31
0.0
  0
LINE
  5
D2
330
BA
100
AcDbEntity
  8
DV3_Default
 62
     7
100
AcDbLine
 10
119.9494131712
 20
130.3814563882
 30
0.0
 11
119.9494131712
 21
126.35
 31
0.0
  0
LINE
  5
D3
330
BA
100
AcDbEntity
  8
DV3_Default
 62
     7
100
AcDbLine
 10
121.6668240849
 20
130.3814563882
 30
0.0
 11
119.9494131712
 21
130.3814563882
 31
0.0
  0
SPLINE
  5
D4
330
BA
100
AcDbEntity
  8
DV3_Default
 62
     7
100
AcDbSpline
210
0.0
220
0.0
230
1.0
 70
     8
 71
     3
 72
    16
 73
    12
 74
     0
 42
0.000000001
 43
0.0000000001
 40
0.0
 40
0.0
 40
0.0
 40
0.0
 40
0.08975243716138
 40
0.1801320160246
 40
0.2717757834128
 40
0.3673574694651
 40
0.4689853214113
 40
0.5789269161654
 40
0.7012363260405
 40
0.8401929157784
 40
1.0
 40
1.0
 40
1.0
 40
1.0
 10
117.41097396306
 20
129.7394542315
 30
0.0
 10
117.458778885957
 20
129.7394542315
 30
0.0
 10
117.55474395859
 20
129.736730837
 30
0.0
 10
117.699056253204
 20
129.72450489
 30
0.0
 10
117.845522801718
 20
129.7036699882001
 30
0.0
 10
117.996456302973
 20
129.6734426579
 30
0.0
 10
118.154950855714
 20
129.6325753116
 30
0.0
 10
118.324582108647
 20
129.5789106156001
 30
0.0
 10
118.509804476535
 20
129.5094952725001
 30
0.0
 10
118.7157090874
 20
129.4203781974001
 30
0.0
 10
118.858625034286
 20
129.3502476069
 30
0.0
 10
118.934275950988
 20
129.3112342026
 30
0.0
  0
SPLINE
  5
D5
330
BA
100
AcDbEntity
  8
DV3_Default
 62
     7
100
AcDbSpline
210
0.0
220
0.0
230
1.0
 70
     8
 71
     3
 72
    55
 73
    51
 74
     0
 42
0.000000001
 43
0.0000000001
 40
0.0
 40
0.0
 40
0.0
 40
0.0
 40
0.02051439064448
 40
0.04042315755699
 40
0.05968349700198
 40
0.0784707373615
 40
0.09693615245623
 40
0.1150649688856
 40
0.1329891533033
 40
0.1508401784249
 40
0.1686269348449
 40
0.186414566059
 40
0.2043303079742
 40
0.2224097284377
 40
0.2407184344648
 40
0.2593901772225
 40
0.2784282145312
 40
0.2978732626987
 40
0.3178665506745
 40
0.3384621981326
 40
0.3597095090344
 40
0.3817030833476
 40
0.4045086424142
 40
0.4281902033625
 40
0.4529051434394
 40
0.4781278765515
 40
0.5025791539668
 40
0.5261728059914
 40
0.5489855448209
 40
0.5711402850678
 40
0.5927096100195
 40
0.6137944719225
 40
0.6344932678062
 40
0.6548412236571
 40
0.6749335514642
 40
0.6949268571175
 40
0.7148600874579
 40
0.7347089356667
 40
0.7546068205049
 40
0.7746920224802
 40
0.7949506174106
 40
0.8154802071444
 40
0.836436525372
 40
0.8577912323279
 40
0.8796290193633
 40
0.9021279567896
 40
0.925312878913
 40
0.9492796046513
 40
0.9741663922402
 40
1.0
 40
1.0
 40
1.0
 40
1.0
 10
117.168457037305
 20
126.9920021567
 30
0.0
 10
117.13914042576
 20
126.9920021567
 30
0.0
 10
117.081353680884
 20
126.9938624471
 30
0.0
 10
116.996411714964
 20
127.0022136162
 30
0.0
 10
116.91464450398
 20
127.0157918814
 30
0.0
 10
116.835991621714
 20
127.0343945053
 30
0.0
 10
116.760322435844
 20
127.0577954054
 30
0.0
 10
116.687571927027
 20
127.0858490940001
 30
0.0
 10
116.617726179835
 20
127.1184840701
 30
0.0
 10
116.550711713711
 20
127.1555949455001
 30
0.0
 10
116.486563097623
 20
127.1971087018001
 30
0.0
 10
116.425373608575
 20
127.2430268555001
 30
0.0
 10
116.367171807538
 20
127.2933178979001
 30
0.0
 10
116.31201234694
 20
127.3479924922
 30
0.0
 10
116.26002604088
 20
127.4071397382
 30
0.0
 10
116.21135173253
 20
127.4707740671001
 30
0.0
 10
116.16616944479
 20
127.5388917175001
 30
0.0
 10
116.12473127296
 20
127.6115332858
 30
0.0
 10
116.08725049323
 20
127.6887757551
 30
0.0
 10
116.05395988523
 20
127.7707021568
 30
0.0
 10
116.02518255671
 20
127.8573391064
 30
0.0
 10
116.00125178446
 20
127.9487072723001
 30
0.0
 10
115.98252607795
 20
128.0448296625001
 30
0.0
 10
115.96938039548
 20
128.1457974304001
 30
0.0
 10
115.96232278209
 20
128.2508339898
 30
0.0
 10
115.96157847754
 20
128.3572035092
 30
0.0
 10
115.96719866837
 20
128.4618238307
 30
0.0
 10
115.97893700649
 20
128.562469285
 30
0.0
 10
115.99640701824
 20
128.6589447085001
 30
0.0
 10
116.01928714542
 20
128.7513039751001
 30
0.0
 10
116.04731169066
 20
128.8396467211001
 30
0.0
 10
116.08024930611
 20
128.9240475909
 30
0.0
 10
116.11788836226
 20
129.0045359201
 30
0.0
 10
116.16003841777
 20
129.0811408853
 30
0.0
 10
116.20661539781
 20
129.1539441143001
 30
0.0
 10
116.25757558855
 20
129.2230135801001
 30
0.0
 10
116.31275836296
 20
129.2883026235
 30
0.0
 10
116.372051892469
 20
129.34969449
 30
0.0
 10
116.435476399917
 20
129.4071324353
 30
0.0
 10
116.503015610739
 20
129.4606175654
 30
0.0
 10
116.574675412928
 20
129.5100505664001
 30
0.0
 10
116.65051613167
 20
129.5552754268001
 30
0.0
 10
116.730543475063
 20
129.59616249
 30
0.0
 10
116.814768667425
 20
129.6325206303001
 30
0.0
 10
116.903246898215
 20
129.6640937423001
 30
0.0
 10
116.996077612088
 20
129.6906647803
 30
0.0
 10
117.093375153929
 20
129.7119648114
 30
0.0
 10
117.195193235012
 20
129.72762926
 30
0.0
 10
117.301551706416
 20
129.7373044917001
 30
0.0
 10
117.374055789051
 20
129.7394542315
 30
0.0
 10
117.41097396306
 20
129.7394542315
 30
0.0
  0
SPLINE
  5
D6
330
BA
100
AcDbEntity
  8
DV3_Default
 62
     7
100
AcDbSpline
210
0.0
220
0.0
230
1.0
 70
     8
 71
     3
 72
    14
 73
    10
 74
     0
 42
0.000000001
 43
0.0000000001
 40
0.0
 40
0.0
 40
0.0
 40
0.0
 40
0.1577109120698
 40
0.3089623067639
 40
0.4539879586235
 40
0.5942930549151
 40
0.7320959749218
 40
0.8674684613659
 40
1.0
 40
1.0
 40
1.0
 40
1.0
 10
117.994254592752
 20
127.1656628757001
 30
0.0
 10
117.953073769625
 20
127.148403266
 30
0.0
 10
117.871478705617
 20
127.1167325626001
 30
0.0
 10
117.7492107619
 20
127.0768859400001
 30
0.0
 10
117.629666681187
 20
127.0451975394
 30
0.0
 10
117.512241026843
 20
127.0211460466001
 30
0.0
 10
117.396334088429
 20
127.0042590169001
 30
0.0
 10
117.281846808607
 20
126.9942384828001
 30
0.0
 10
117.205979671317
 20
126.9920021567
 30
0.0
 10
117.168457037305
 20
126.9920021567
 30
0.0
  0
LINE
  5
D7
330
BA
100
AcDbEntity
  8
DV3_Default
 62
     7
100
AcDbLine
 10
117.9942545928
 20
128.3741936325
 30
0.0
 11
117.9942545928
 21
127.1656628757
 31
0.0
  0
LINE
  5
D8
330
BA
100
AcDbEntity
  8
DV3_Default
 62
     7
100
AcDbLine
 10
119.062807537
 20
128.3741936325
 30
0.0
 11
117.9942545928
 21
128.3741936325
 31
0.0
  0
LINE
  5
D9
330
BA
100
AcDbEntity
  8
DV3_Default
 62
     7
100
AcDbLine
 10
119.062807537
 20
126.7456102063
 30
0.0
 11
119.062807537
 21
128.3741936325
 31
0.0
  0
SPLINE
  5
DA
330
BA
100
AcDbEntity
  8
DV3_Default
 62
     7
100
AcDbSpline
210
0.0
220
0.0
230
1.0
 70
     8
 71
     3
 72
    18
 73
    14
 74
     0
 42
0.000000001
 43
0.0000000001
 40
0.0
 40
0.0
 40
0.0
 40
0.0
 40
0.07868720173737
 40
0.1631473426224
 40
0.2544208879285
 40
0.350491135886
 40
0.4493474547029
 40
0.5498418676191
 40
0.6487724971154
 40
0.7449680941833
 40
0.8364227263799
 40
0.9210937921022
 40
1.0
 40
1.0
 40
1.0
 40
1.0
 10
117.168933963413
 20
126.2329146406
 30
0.0
 10
117.220932793913
 20
126.2329146406
 30
0.0
 10
117.328762200785
 20
126.2357504841001
 30
0.0
 10
117.496466913891
 20
126.2485624240001
 30
0.0
 10
117.674753915494
 20
126.2709309509
 30
0.0
 10
117.861182635079
 20
126.303184315
 30
0.0
 10
118.051840289571
 20
126.3454853280001
 30
0.0
 10
118.242176737725
 20
126.3969909635001
 30
0.0
 10
118.428275343523
 20
126.4566447789001
 30
0.0
 10
118.605766478897
 20
126.5228877445
 30
0.0
 10
118.771322649481
 20
126.5936037439
 30
0.0
 10
118.922973536554
 20
126.6672721096
 30
0.0
 10
119.017775016874
 20
126.7193228978001
 30
0.0
 10
119.062807537008
 20
126.7456102063001
 30
0.0
  0
SPLINE
  5
DB
330
BA
100
AcDbEntity
  8
DV3_Default
 62
     7
100
AcDbSpline
210
0.0
220
0.0
230
1.0
 70
     8
 71
     3
 72
    61
 73
    57
 74
     0
 42
0.000000001
 43
0.0000000001
 40
0.0
 40
0.0
 40
0.0
 40
0.0
 40
0.0270382210911
 40
0.05256172982126
 40
0.07675007490686
 40
0.09970087905136
 40
0.121497899102
 40
0.1422811276646
 40
0.1621959552118
 40
0.181324696861
 40
0.1997057444922
 40
0.2174639763509
 40
0.2347618924586
 40
0.2516149352434
 40
0.2680514889167
 40
0.2842691159342
 40
0.300404525623
 40
0.3164014843403
 40
0.3322946766925
 40
0.3482455617921
 40
0.3643807953033
 40
0.3807348171724
 40
0.3973800921099
 40
0.4144198407579
 40
0.4319515187991
 40
0.4500653030356
 40
0.4688649798627
 40
0.4884516432321
 40
0.5088505124968
 40
0.5287981621983
 40
0.5477681799221
 40
0.5660937795549
 40
0.5838177506707
 40
0.6010376651184
 40
0.6178291094866
 40
0.634266435003
 40
0.650445295424
 40
0.6664407761445
 40
0.6822727366147
 40
0.6980404681067
 40
0.7138846674418
 40
0.7298484183161
 40
0.7458680423987
 40
0.7620595743426
 40
0.7786017524986
 40
0.7955056555431
 40
0.8127874851391
 40
0.8305758421744
 40
0.8489679667675
 40
0.867978114866
 40
0.8876812065805
 40
0.9081987230154
 40
0.9296113488653
 40
0.9519875431135
 40
0.9754192608466
 40
1.0
 40
1.0
 40
1.0
 40
1.0
 10
117.299611716917
 20
130.4991379053
 30
0.0
 10
117.234648701202
 20
130.4991379053
 30
0.0
 10
117.108335096798
 20
130.4960415283001
 30
0.0
 10
116.924386998314
 20
130.4820151804001
 30
0.0
 10
116.751166261475
 20
130.4596041825
 30
0.0
 10
116.588196160173
 20
130.4296033063
 30
0.0
 10
116.435053910221
 20
130.3926977337001
 30
0.0
 10
116.2911755642
 20
130.3494738640001
 30
0.0
 10
116.15598019939
 20
130.3004226427001
 30
0.0
 10
116.02909894146
 20
130.2460369969
 30
0.0
 10
115.9102000227
 20
130.1867426022
 30
0.0
 10
115.79879373673
 20
130.1227763421001
 30
0.0
 10
115.69442739489
 20
130.0543609147001
 30
0.0
 10
115.59685706722
 20
129.9817634727
 30
0.0
 10
115.50580945201
 20
129.9051068957
 30
0.0
 10
115.42084936264
 20
129.8242362160001
 30
0.0
 10
115.34165292505
 20
129.7391524652
 30
0.0
 10
115.26824829426
 20
129.6500312640001
 30
0.0
 10
115.20068800445
 20
129.5569484515001
 30
0.0
 10
115.13877984403
 20
129.4596209352001
 30
0.0
 10
115.08236569382
 20
129.3577421804
 30
0.0
 10
115.03149698583
 20
129.2511319677
 30
0.0
 10
114.98634060898
 20
129.1396307491001
 30
0.0
 10
114.94703081505
 20
129.0229463726
 30
0.0
 10
114.913792989
 20
128.9007284230001
 30
0.0
 10
114.88691075413
 20
128.772632653
 30
0.0
 10
114.86678243917
 20
128.6383077459001
 30
0.0
 10
114.85387832023
 20
128.4975825017
 30
0.0
 10
114.84879020033
 20
128.3536020524
 30
0.0
 10
114.85144898863
 20
128.2110365653
 30
0.0
 10
114.86195040143
 20
128.0738262751001
 30
0.0
 10
114.87962666851
 20
127.9427465372
 30
0.0
 10
114.90414501395
 20
127.8170544305001
 30
0.0
 10
114.93512334675
 20
127.6965999168
 30
0.0
 10
114.97228748181
 20
127.5811520004
 30
0.0
 10
115.01540834915
 20
127.4704748888001
 30
0.0
 10
115.06435324291
 20
127.3643501064
 30
0.0
 10
115.11895503664
 20
127.2626704833
 30
0.0
 10
115.17913247316
 20
127.1653473625001
 30
0.0
 10
115.24495411771
 20
127.0721934094001
 30
0.0
 10
115.31656345269
 20
126.9830055747
 30
0.0
 10
115.39386560407
 20
126.8978855789001
 30
0.0
 10
115.47678657096
 20
126.817027599
 30
0.0
 10
115.5655445847
 20
126.740477649
 30
0.0
 10
115.66045251231
 20
126.6681394072
 30
0.0
 10
115.76169168914
 20
126.6001452991001
 30
0.0
 10
115.8693825407
 20
126.5367831355001
 30
0.0
 10
115.98381785399
 20
126.4782760169001
 30
0.0
 10
116.10527075764
 20
126.4248675506001
 30
0.0
 10
116.23391439272
 20
126.3769474924
 30
0.0
 10
116.369967945804
 20
126.3349553710001
 30
0.0
 10
116.51377552723
 20
126.2993091708001
 30
0.0
 10
116.66565214706
 20
126.270510343
 30
0.0
 10
116.825820521784
 20
126.2491453736
 30
0.0
 10
116.994493330919
 20
126.2358567737
 30
0.0
 10
117.109875383393
 20
126.2329146406
 30
0.0
 10
117.168933963413
 20
126.2329146406
 30
0.0
  0
SPLINE
  5
DC
330
BA
100
AcDbEntity
  8
DV3_Default
 62
     7
100
AcDbSpline
210
0.0
220
0.0
230
1.0
 70
     8
 71
     3
 72
    16
 73
    12
 74
     0
 42
0.000000001
 43
0.0000000001
 40
0.0
 40
0.0
 40
0.0
 40
0.0
 40
0.1522758380873
 40
0.2884284979762
 40
0.4091620807735
 40
0.5150927617451
 40
0.6105675004453
 40
0.701676431865
 40
0.7923954644925
 40
0.889725535784
 40
1.0
 40
1.0
 40
1.0
 40
1.0
 10
118.934275950988
 20
130.1147354625001
 30
0.0
 10
118.854768712229
 20
130.1472423283001
 30
0.0
 10
118.703737233122
 20
130.2077750179
 30
0.0
 10
118.487287283322
 20
130.2879842555
 30
0.0
 10
118.293077007672
 20
130.3526929529
 30
0.0
 10
118.118294577306
 20
130.4026522600001
 30
0.0
 10
117.957449328192
 20
130.4397919517
 30
0.0
 10
117.803324787074
 20
130.4669106106001
 30
0.0
 10
117.646932373115
 20
130.4859385305001
 30
0.0
 10
117.478943420471
 20
130.4970049728001
 30
0.0
 10
117.361815406915
 20
130.4991379053
 30
0.0
 10
117.299611716917
 20
130.4991379053
 30
0.0
  0
LINE
  5
DD
330
BA
100
AcDbEntity
  8
DV3_Default
 62
     7
100
AcDbLine
 10
118.934275951
 20
129.3112342026
 30
0.0
 11
118.934275951
 21
130.1147354625
 31
0.0
  0
LINE
  5
DE
330
BA
100
AcDbEntity
  8
DV3_Default
 62
     7
100
AcDbLine
 10
130.7910166825
 20
128.8909430702
 30
0.0
 11
130.7910166825
 21
130.3814563882
 31
0.0
  0
LINE
  5
DF
330
BA
100
AcDbEntity
  8
DV3_Default
 62
     7
100
AcDbLine
 10
132.6499554187
 20
128.8909430702
 30
0.0
 11
130.7910166825
 21
128.8909430702
 31
0.0
  0
LINE
  5
E0
330
BA
100
AcDbEntity
  8
DV3_Default
 62
     7
100
AcDbLine
 10
132.6499554187
 20
130.3814563882
 30
0.0
 11
132.6499554187
 21
128.8909430702
 31
0.0
  0
LINE
  5
E1
330
BA
100
AcDbEntity
  8
DV3_Default
 62
     7
100
AcDbLine
 10
133.7016967176
 20
130.3814563882
 30
0.0
 11
132.6499554187
 21
130.3814563882
 31
0.0
  0
LINE
  5
E2
330
BA
100
AcDbEntity
  8
DV3_Default
 62
     7
100
AcDbLine
 10
133.7016967176
 20
126.35
 30
0.0
 11
133.7016967176
 21
130.3814563882
 31
0.0
  0
LINE
  5
E3
330
BA
100
AcDbEntity
  8
DV3_Default
 62
     7
100
AcDbLine
 10
132.6499554187
 20
126.35
 30
0.0
 11
133.7016967176
 21
126.35
 31
0.0
  0
LINE
  5
E4
330
BA
100
AcDbEntity
  8
DV3_Default
 62
     7
100
AcDbLine
 10
132.6499554187
 20
128.0734917216
 30
0.0
 11
132.6499554187
 21
126.35
 31
0.0
  0
LINE
  5
E5
330
BA
100
AcDbEntity
  8
DV3_Default
 62
     7
100
AcDbLine
 10
130.7910166825
 20
128.0734917216
 30
0.0
 11
132.6499554187
 21
128.0734917216
 31
0.0
  0
LINE
  5
E6
330
BA
100
AcDbEntity
  8
DV3_Default
 62
     7
100
AcDbLine
 10
130.7910166825
 20
126.35
 30
0.0
 11
130.7910166825
 21
128.0734917216
 31
0.0
  0
LINE
  5
E7
330
BA
100
AcDbEntity
  8
DV3_Default
 62
     7
100
AcDbLine
 10
129.7390369205
 20
126.35
 30
0.0
 11
130.7910166825
 21
126.35
 31
0.0
  0
LINE
  5
E8
330
BA
100
AcDbEntity
  8
DV3_Default
 62
     7
100
AcDbLine
 10
129.7390369205
 20
130.3814563882
 30
0.0
 11
129.7390369205
 21
126.35
 31
0.0
  0
LINE
  5
E9
330
BA
100
AcDbEntity
  8
DV3_Default
 62
     7
100
AcDbLine
 10
130.7910166825
 20
130.3814563882
 30
0.0
 11
129.7390369205
 21
130.3814563882
 31
0.0
  0
SPLINE
  5
EA
330
BA
100
AcDbEntity
  8
DV3_Default
 62
     7
100
AcDbSpline
210
0.0
220
0.0
230
1.0
 70
     8
 71
     3
 72
    15
 73
    11
 74
     0
 42
0.000000001
 43
0.0000000001
 40
0.0
 40
0.0
 40
0.0
 40
0.0
 40
0.1831574882743
 40
0.3460187100291
 40
0.4906175116765
 40
0.618790306753
 40
0.7322905182326
 40
0.8326833736975
 40
0.9214131441705
 40
1.0
 40
1.0
 40
1.0
 40
1.0
 10
133.383229309241
 20
121.9808799275
 30
0.0
 10
133.268002480578
 20
122.0156297869001
 30
0.0
 10
133.049524551718
 20
122.0787028825
 30
0.0
 10
132.737373673872
 20
122.1594605233001
 30
0.0
 10
132.458149057354
 20
122.2227280475001
 30
0.0
 10
132.208827419071
 20
122.2705664607001
 30
0.0
 10
131.986643063118
 20
122.3049223805001
 30
0.0
 10
131.789024552245
 20
122.3275407577
 30
0.0
 10
131.613513698708
 20
122.3401878840001
 30
0.0
 10
131.503556426677
 20
122.3429860748
 30
0.0
 10
131.451917036194
 20
122.3429860748
 30
0.0
  0
LINE
  5
EB
330
BA
100
AcDbEntity
  8
DV3_Default
 62
     7
100
AcDbLine
 10
133.658773368
 20
121.8889524203
 30
0.0
 11
133.3832293093
 21
121.9808799275
 31
0.0
  0
LINE
  5
EC
330
BA
100
AcDbEntity
  8
DV3_Default
 62
     7
100
AcDbLine
 10
133.7601201658
 20
121.8521098785
 30
0.0
 11
133.658773368
 21
121.8889524203
 31
0.0
  0
LINE
  5
ED
330
BA
100
AcDbEntity
  8
DV3_Default
 62
     7
100
AcDbLine
 10
133.2052166396
 20
121.5639272779
 30
0.0
 11
133.7601201658
 21
121.8521098785
 31
0.0
  0
LINE
  5
EE
330
BA
100
AcDbEntity
  8
DV3_Default
 62
     7
100
AcDbLine
 10
133.0807389254
 20
121.6022005981
 30
0.0
 11
133.2052166396
 21
121.563927278
 31
0.0
  0
SPLINE
  5
EF
330
BA
100
AcDbEntity
  8
DV3_Default
 62
     7
100
AcDbSpline
210
0.0
220
0.0
230
1.0
 70
     8
 71
     3
 72
    21
 73
    17
 74
     0
 42
0.000000001
 43
0.0000000001
 40
0.0
 40
0.0
 40
0.0
 40
0.0
 40
0.1014298305476
 40
0.1911540773267
 40
0.2702088837526
 40
0.3396396024864
 40
0.4004853115891
 40
0.4538507972978
 40
0.5020809519847
 40
0.5500901041147
 40
0.6028711636353
 40
0.6629997118331
 40
0.7315393882144
 40
0.8096301981496
 40
0.8986035403854
 40
1.0
 40
1.0
 40
1.0
 40
1.0
 10
129.797937294762
 20
121.6022005981
 30
0.0
 10
129.906497665605
 20
121.6344449779
 30
0.0
 10
130.111815056447
 20
121.6928315831001
 30
0.0
 10
130.404425551051
 20
121.766509269
 30
0.0
 10
130.664519600916
 20
121.822382249
 30
0.0
 10
130.89488972502
 20
121.8622326442
 30
0.0
 10
131.098358402046
 20
121.8881510206
 30
0.0
 10
131.27923600791
 20
121.9024181419001
 30
0.0
 10
131.446282455062
 20
121.9071414503001
 30
0.0
 10
131.612686933886
 20
121.9025829151001
 30
0.0
 10
131.791846056611
 20
121.8881331186001
 30
0.0
 10
131.992878086834
 20
121.8625249249
 30
0.0
 10
132.220466594531
 20
121.8234626026
 30
0.0
 10
132.477798756675
 20
121.7685740331
 30
0.0
 10
132.768449999299
 20
121.6950599763001
 30
0.0
 10
132.972563209321
 20
121.6355866874001
 30
0.0
 10
133.080738925446
 20
121.6022005981
 30
0.0
  0
LINE
  5
F0
330
BA
100
AcDbEntity
  8
DV3_Default
 62
     7
100
AcDbLine
 10
129.5232278567
 20
121.5131942632
 30
0.0
 11
129.7979372948
 21
121.6022005981
 31
0.0
  0
LINE
  5
F1
330
BA
100
AcDbEntity
  8
DV3_Default
 62
     7
100
AcDbLine
 10
129.2452991675
 20
121.4214456032
 30
0.0
 11
129.5232278567
 21
121.5131942632
 31
0.0
  0
LINE
  5
F2
330
BA
100
AcDbEntity
  8
DV3_Default
 62
     7
100
AcDbLine
 10
128.9692781827
 20
121.3261796132
 30
0.0
 11
129.2452991675
 21
121.4214456032
 31
0.0
  0
LINE
  5
F3
330
BA
100
AcDbEntity
  8
DV3_Default
 62
     7
100
AcDbLine
 10
128.6950456708
 20
121.2325828646
 30
0.0
 11
128.9692781827
 21
121.3261796132
 31
0.0
  0
LINE
  5
F4
330
BA
100
AcDbEntity
  8
DV3_Default
 62
     7
100
AcDbLine
 10
128.4193823805
 20
121.1406553573
 30
0.0
 11
128.6950456708
 21
121.2325828646
 31
0.0
  0
LINE
  5
F5
330
BA
100
AcDbEntity
  8
DV3_Default
 62
     7
100
AcDbLine
 10
128.1430037011
 20
121.0579086777
 30
0.0
 11
128.4193823805
 21
121.1406553574
 31
0.0
  0
SPLINE
  5
F6
330
BA
100
AcDbEntity
  8
DV3_Default
 62
     7
100
AcDbSpline
210
0.0
220
0.0
230
1.0
 70
     8
 71
     3
 72
    15
 73
    11
 74
     0
 42
0.000000001
 43
0.0000000001
 40
0.0
 40
0.0
 40
0.0
 40
0.0
 40
0.08118207849272
 40
0.1727608782557
 40
0.2755643795206
 40
0.3907762663253
 40
0.5199971432608
 40
0.665279497867
 40
0.8293058730114
 40
1.0
 40
1.0
 40
1.0
 40
1.0
 10
126.4881893389942
 20
120.7694876140001
 30
0.0
 10
126.5337762312955
 20
120.7695132896
 30
0.0
 10
126.6307980548119
 20
120.7721195901001
 30
0.0
 10
126.7851726534759
 20
120.7833183139
 30
0.0
 10
126.9580284129422
 20
120.8021810272
 30
0.0
 10
127.1511114646969
 20
120.8295934887001
 30
0.0
 10
127.366739019067
 20
120.8671576402
 30
0.0
 10
127.607957209946
 20
120.9168928058
 30
0.0
 10
127.870076921747
 20
120.979918391
 30
0.0
 10
128.051193164034
 20
121.0303711307001
 30
0.0
 10
128.143003701115
 20
121.0579086777001
 30
0.0
  0
SPLINE
  5
F7
330
BA
100
AcDbEntity
  8
DV3_Default
 62
     7
100
AcDbSpline
210
0.0
220
0.0
230
1.0
 70
     8
 71
     3
 72
    15
 73
    11
 74
     0
 42
0.000000001
 43
0.0000000001
 40
0.0
 40
0.0
 40
0.0
 40
0.0
 40
0.1829504778485
 40
0.3460407181812
 40
0.4909434035711
 40
0.6192549920868
 40
0.7326497406725
 40
0.8327058024652
 40
0.9209785804392
 40
1.0
 40
1.0
 40
1.0
 40
1.0
 10
124.556042445258
 20
121.1406553573001
 30
0.0
 10
124.671161439351
 20
121.1054047165
 30
0.0
 10
124.889606403597
 20
121.0409811527001
 30
0.0
 10
125.201833008892
 20
120.9577924148001
 30
0.0
 10
125.4814255174694
 20
120.8922516951
 30
0.0
 10
125.7310459443328
 20
120.8427890186001
 30
0.0
 10
125.9532301464137
 20
120.8075204248001
 30
0.0
 10
126.150531986947
 20
120.7846783218
 30
0.0
 10
126.3260799261908
 20
120.7721669941
 30
0.0
 10
126.4361873212034
 20
120.7694624862
 30
0.0
 10
126.4881893389942
 20
120.7694876140001
 30
0.0
  0
LINE
  5
F8
330
BA
100
AcDbEntity
  8
DV3_Default
 62
     7
100
AcDbLine
 10
124.2800214604
 20
121.2325828646
 30
0.0
 11
124.5560424453
 21
121.1406553573
 31
0.0
  0
LINE
  5
F9
330
BA
100
AcDbEntity
  8
DV3_Default
 62
     7
100
AcDbLine
 10
124.0055504855
 20
121.3261796132
 30
0.0
 11
124.2800214604
 21
121.2325828646
 31
0.0
  0
LINE
  5
FA
330
BA
100
AcDbEntity
  8
DV3_Default
 62
     7
100
AcDbLine
 10
123.7295295007
 20
121.4214456032
 30
0.0
 11
124.0055504855
 21
121.3261796132
 31
0.0
  0
LINE
  5
FB
330
BA
100
AcDbEntity
  8
DV3_Default
 62
     7
100
AcDbLine
 10
123.451958506
 20
121.5131942632
 30
0.0
 11
123.7295295007
 21
121.4214456032
 31
0.0
  0
LINE
  5
FC
330
BA
100
AcDbEntity
  8
DV3_Default
 62
     7
100
AcDbLine
 10
123.177487531
 20
121.6022005981
 30
0.0
 11
123.451958506
 21
121.5131942632
 31
0.0
  0
LINE
  5
FD
330
BA
100
AcDbEntity
  8
DV3_Default
 62
     7
100
AcDbLine
 10
122.9014665462
 20
121.6819664896
 30
0.0
 11
123.177487531
 21
121.6022005981
 31
0.0
  0
SPLINE
  5
FE
330
BA
100
AcDbEntity
  8
DV3_Default
 62
     7
100
AcDbSpline
210
0.0
220
0.0
230
1.0
 70
     8
 71
     3
 72
    14
 73
    10
 74
     0
 42
0.000000001
 43
0.0000000001
 40
0.0
 40
0.0
 40
0.0
 40
0.0
 40
0.09785097981466
 40
0.2090924693676
 40
0.3348177054496
 40
0.4768342226021
 40
0.6376634734624
 40
0.8199556287534
 40
1.0
 40
1.0
 40
1.0
 40
1.0
 10
121.524461641795
 20
121.9060025286001
 30
0.0
 10
121.570085253639
 20
121.9060025286001
 30
0.0
 10
121.667587847575
 20
121.9031159427001
 30
0.0
 10
121.82326292025
 20
121.8909273072001
 30
0.0
 10
121.998858899408
 20
121.8708747408
 30
0.0
 10
122.196533973651
 20
121.8413944157001
 30
0.0
 10
122.419080508815
 20
121.8006735169
 30
0.0
 10
122.657361284091
 20
121.7482220880001
 30
0.0
 10
122.820817066706
 20
121.7052629066001
 30
0.0
 10
122.901466546192
 20
121.6819664896001
 30
0.0
  0
SPLINE
  5
FF
330
BA
100
AcDbEntity
  8
DV3_Default
 62
     7
100
AcDbSpline
210
0.0
220
0.0
230
1.0
 70
     8
 71
     3
 72
    14
 73
    10
 74
     0
 42
0.000000001
 43
0.0000000001
 40
0.0
 40
0.0
 40
0.0
 40
0.0
 40
0.2057511040751
 40
0.3858263123801
 40
0.5434424811945
 40
0.6813986625413
 40
0.8021049075494
 40
0.9076743916653
 40
1.0
 40
1.0
 40
1.0
 40
1.0
 10
119.894328205747
 20
121.6022005981
 30
0.0
 10
120.003361745101
 20
121.6358467252001
 30
0.0
 10
120.208859523256
 20
121.6956604671001
 30
0.0
 10
120.501131108452
 20
121.7694881494001
 30
0.0
 10
120.759221454955
 20
121.8243366888
 30
0.0
 10
120.986838776956
 20
121.863308334
 30
0.0
 10
121.187304283476
 20
121.8886878316
 30
0.0
 10
121.363493041759
 20
121.9028513227001
 30
0.0
 10
121.473259073818
 20
121.9060025286001
 30
0.0
 10
121.524461641795
 20
121.9060025286001
 30
0.0
  0
LINE
  5
100
330
BA
100
AcDbEntity
  8
DV3_Default
 62
     7
100
AcDbLine
 10
119.7700889547
 20
121.5639272779
 30
0.0
 11
119.8943282058
 21
121.602200598
 31
0.0
  0
LINE
  5
101
330
BA
100
AcDbEntity
  8
DV3_Default
 62
     7
100
AcDbLine
 10
119.2149469654
 20
121.8521098785
 30
0.0
 11
119.7700889547
 21
121.5639272779
 31
0.0
  0
SPLINE
  5
102
330
BA
100
AcDbEntity
  8
DV3_Default
 62
     7
100
AcDbSpline
210
0.0
220
0.0
230
1.0
 70
     8
 71
     3
 72
    10
 73
     6
 74
     0
 42
0.000000001
 43
0.0000000001
 40
0.0
 40
0.0
 40
0.0
 40
0.0
 40
0.3453537590796
 40
0.6734702491369
 40
1.0
 40
1.0
 40
1.0
 40
1.0
 10
119.592195516532
 20
121.9808799275
 30
0.0
 10
119.548513228653
 20
121.9668086771
 30
0.0
 10
119.463264125766
 20
121.9395674609001
 30
0.0
 10
119.337403791769
 20
121.8968939212
 30
0.0
 10
119.255681572852
 20
121.8670596166
 30
0.0
 10
119.214946965357
 20
121.8521098785
 30
0.0
  0
LINE
  5
103
330
BA
100
AcDbEntity
  8
DV3_Default
 62
     7
100
AcDbLine
 10
119.8664280284
 20
122.0623150604
 30
0.0
 11
119.5921955165
 21
121.9808799275
 31
0.0
  0
SPLINE
  5
104
330
BA
100
AcDbEntity
  8
DV3_Default
 62
     7
100
AcDbSpline
210
0.0
220
0.0
230
1.0
 70
     8
 71
     3
 72
    15
 73
    11
 74
     0
 42
0.000000001
 43
0.0000000001
 40
0.0
 40
0.0
 40
0.0
 40
0.0
 40
0.08181570268931
 40
0.1743858608283
 40
0.278371387258
 40
0.3948966555881
 40
0.5256334957702
 40
0.6728079900523
 40
0.838371227135
 40
1.0
 40
1.0
 40
1.0
 40
1.0
 10
121.522792400418
 20
122.3429860748
 30
0.0
 10
121.476855581086
 20
122.3429528258
 30
0.0
 10
121.3789339287
 20
122.3401476896001
 30
0.0
 10
121.223042863391
 20
122.3283709076001
 30
0.0
 10
121.048282130135
 20
122.3091765373001
 30
0.0
 10
120.85293099266
 20
122.2819375404001
 30
0.0
 10
120.634532672692
 20
122.2450380171
 30
0.0
 10
120.390282704203
 20
122.1964634403001
 30
0.0
 10
120.130780805561
 20
122.1362705476
 30
0.0
 10
119.953443269731
 20
122.0880788765
 30
0.0
 10
119.866428028448
 20
122.0623150604001
 30
0.0
  0
SPLINE
  5
105
330
BA
100
AcDbEntity
  8
DV3_Default
 62
     7
100
AcDbSpline
210
0.0
220
0.0
230
1.0
 70
     8
 71
     3
 72
    15
 73
    11
 74
     0
 42
0.000000001
 43
0.0000000001
 40
0.0
 40
0.0
 40
0.0
 40
0.0
 40
0.1832791556066
 40
0.3461876230153
 40
0.4907945793207
 40
0.6189587220965
 40
0.732444525014
 40
0.8328194444094
 40
0.9215239900289
 40
1.0
 40
1.0
 40
1.0
 40
1.0
 10
123.451958505981
 20
121.9808799275
 30
0.0
 10
123.336791551638
 20
122.0156567069
 30
0.0
 10
123.11845624599
 20
122.0787438709
 30
0.0
 10
122.806535819609
 20
122.1594732272
 30
0.0
 10
122.527584745411
 20
122.2226937615001
 30
0.0
 10
122.278545664314
 20
122.2705031926
 30
0.0
 10
122.056633130289
 20
122.3048572833
 30
0.0
 10
121.859270984373
 20
122.3275001909001
 30
0.0
 10
121.684053292766
 20
122.3401786593001
 30
0.0
 10
121.574303508845
 20
122.3429860748
 30
0.0
 10
121.522792400418
 20
122.3429860748
 30
0.0
  0
LINE
  5
106
330
BA
100
AcDbEntity
  8
DV3_Default
 62
     7
100
AcDbLine
 10
123.7295294999
 20
121.8889524206
 30
0.0
 11
123.451958506
 21
121.9808799275
 31
0.0
  0
LINE
  5
107
330
BA
100
AcDbEntity
  8
DV3_Default
 62
     7
100
AcDbLine
 10
124.0055509343
 20
121.7938055071
 30
0.0
 11
123.7295294999
 21
121.8889524206
 31
0.0
  0
LINE
  5
108
330
BA
100
AcDbEntity
  8
DV3_Default
 62
     7
100
AcDbLine
 10
124.0054267388
 20
121.7934412577
 30
0.0
 11
124.5560424451
 21
121.6067313961
 31
0.0
  0
LINE
  5
109
330
BA
100
AcDbEntity
  8
DV3_Default
 62
     7
100
AcDbLine
 10
124.8320634301
 20
121.5194539184
 30
0.0
 11
124.5560424451
 21
121.6067313961
 31
0.0
  0
SPLINE
  5
10A
330
BA
100
AcDbEntity
  8
DV3_Default
 62
     7
100
AcDbSpline
210
0.0
220
0.0
230
1.0
 70
     8
 71
     3
 72
    15
 73
    11
 74
     0
 42
0.000000001
 43
0.0000000001
 40
0.0
 40
0.0
 40
0.0
 40
0.0
 40
0.08031144506177
 40
0.1711417709865
 40
0.2734460037884
 40
0.3885241740994
 40
0.5180940502525
 40
0.6643245464387
 40
0.8291346657921
 40
1.0
 40
1.0
 40
1.0
 40
1.0
 10
126.4875931813596
 20
121.214340441
 30
0.0
 10
126.4423793466118
 20
121.214340441
 30
0.0
 10
126.3460176437412
 20
121.2169307151001
 30
0.0
 10
126.1924507618947
 20
121.2283292387
 30
0.0
 10
126.0199992472507
 20
121.2478794732
 30
0.0
 10
125.8267671340543
 20
121.2766757851
 30
0.0
 10
125.6103053154239
 20
121.3165207472001
 30
0.0
 10
125.367937036106
 20
121.3695561934001
 30
0.0
 10
125.105035440371
 20
121.4367832026
 30
0.0
 10
124.923755890078
 20
121.4903717376001
 30
0.0
 10
124.832063430078
 20
121.5194539184
 30
0.0
  0
SPLINE
  5
10B
330
BA
100
AcDbEntity
  8
DV3_Default
 62
     7
100
AcDbSpline
210
0.0
220
0.0
230
1.0
 70
     8
 71
     3
 72
    15
 73
    11
 74
     0
 42
0.000000001
 43
0.0000000001
 40
0.0
 40
0.0
 40
0.0
 40
0.0
 40
0.1840989251550178
 40
0.34755994397252
 40
0.4921595122137052
 40
0.6198176722070375
 40
0.732263794023539
 40
0.8311370989235414
 40
0.9194009679183655
 40
1.0
 40
1.0
 40
1.0
 40
1.0
 10
128.419419757963
 20
121.6066213112001
 30
0.0
 10
128.3038375129659
 20
121.5693825646747
 30
0.0
 10
128.084952082206
 20
121.5011369620001
 30
0.0
 10
127.772475579482
 20
121.4129811163001
 30
0.0
 10
127.49349157771
 20
121.3437024273001
 30
0.0
 10
127.2450921502374
 20
121.2915605447001
 30
0.0
 10
127.0245383454926
 20
121.2544271449001
 30
0.0
 10
126.8283255989611
 20
121.2304074644001
 30
0.0
 10
126.6521548150749
 20
121.2172295998
 30
0.0
 10
126.5407565052996
 20
121.2143404409509
 30
0.0
 10
126.4875931813596
 20
121.214340441
 30
0.0
  0
LINE
  5
10C
330
BA
100
AcDbEntity
  8
DV3_Default
 62
     7
100
AcDbLine
 10
128.4194947765
 20
121.6064012312
 30
0.0
 11
128.9692781803
 21
121.793805661
 31
0.0
  0
LINE
  5
10D
330
BA
100
AcDbEntity
  8
DV3_Default
 62
     7
100
AcDbLine
 10
129.2452991675
 20
121.8889524203
 30
0.0
 11
128.9692781803
 21
121.793805661
 31
0.0
  0
SPLINE
  5
10E
330
BA
100
AcDbEntity
  8
DV3_Default
 62
     7
100
AcDbSpline
210
0.0
220
0.0
230
1.0
 70
     8
 71
     3
 72
    10
 73
     6
 74
     0
 42
0.000000001
 43
0.0000000001
 40
0.0
 40
0.0
 40
0.0
 40
0.0
 40
0.3435254391056
 40
0.6770277539531
 40
1.0
 40
1.0
 40
1.0
 40
1.0
 10
129.523227856739
 20
121.9808799275
 30
0.0
 10
129.49136500255
 20
121.9704674078
 30
0.0
 10
129.428592387371
 20
121.9498745255001
 30
0.0
 10
129.335863537193
 20
121.9194916395001
 30
0.0
 10
129.275118622859
 20
121.899151764
 30
0.0
 10
129.245299167488
 20
121.8889524203001
 30
0.0
  0
LINE
  5
10F
330
BA
100
AcDbEntity
  8
DV3_Default
 62
     7
100
AcDbLine
 10
129.7979372948
 20
122.0623150604
 30
0.0
 11
129.5232278567
 21
121.9808799275
 31
0.0
  0
SPLINE
  5
110
330
BA
100
AcDbEntity
  8
DV3_Default
 62
     7
100
AcDbSpline
210
0.0
220
0.0
230
1.0
 70
     8
 71
     3
 72
    15
 73
    11
 74
     0
 42
0.000000001
 43
0.0000000001
 40
0.0
 40
0.0
 40
0.0
 40
0.0
 40
0.08149217783439
 40
0.1738129157414
 40
0.2775758291457
 40
0.3939140781037
 40
0.5244766038431
 40
0.6714931614357
 40
0.8371601373169
 40
1.0
 40
1.0
 40
1.0
 40
1.0
 10
131.451917036194
 20
122.3429860748
 30
0.0
 10
131.406225679659
 20
122.3429860748
 30
0.0
 10
131.308759713402
 20
122.3402372395001
 30
0.0
 10
131.153530329491
 20
122.3285107056001
 30
0.0
 10
130.979384510807
 20
122.309348128
 30
0.0
 10
130.784635886997
 20
122.2821514988001
 30
0.0
 10
130.566837584749
 20
122.2453036194001
 30
0.0
 10
130.323060331598
 20
122.1967915086
 30
0.0
 10
130.063288469041
 20
122.1365387893001
 30
0.0
 10
129.885481978613
 20
122.0882366425
 30
0.0
 10
129.797937294762
 20
122.0623150604001
 30
0.0
  0
SPLINE
  5
111
330
BA
100
AcDbEntity
  8
DV3_Default
 62
     7
100
AcDbSpline
210
0.0
220
0.0
230
1.0
 70
     8
 71
     3
 72
    11
 73
     7
 74
     0
 42
0.000000001
 43
0.0000000001
 40
0.0
 40
0.0
 40
0.0
 40
0.0
 40
0.2777301014813
 40
0.5324774879068
 40
0.765092330964
 40
1.0
 40
1.0
 40
1.0
 40
1.0
 10
133.951963692649
 20
123.3916273541001
 30
0.0
 10
133.824482092072
 20
123.4308346735
 30
0.0
 10
133.579934350998
 20
123.5055723654001
 30
0.0
 10
133.227610377779
 20
123.6098456142001
 30
0.0
 10
132.892908430712
 20
123.7010618834
 30
0.0
 10
132.674255493268
 20
123.7522587072001
 30
0.0
 10
132.564108719302
 20
123.7766259545
 30
0.0
  0
LINE
  5
112
330
BA
100
AcDbEntity
  8
DV3_Default
 62
     7
100
AcDbLine
 10
135.5589662125
 20
122.8978896011
 30
0.0
 11
133.9519636926
 21
123.3916273541
 31
0.0
  0
SPLINE
  5
113
330
BA
100
AcDbEntity
  8
DV3_Default
 62
     7
100
AcDbSpline
210
0.0
220
0.0
230
1.0
 70
     8
 71
     3
 72
    11
 73
     7
 74
     0
 42
0.000000001
 43
0.0000000001
 40
0.0
 40
0.0
 40
0.0
 40
0.0
 40
0.2625682708086
 40
0.4997577665359
 40
0.737078084584
 40
1.0
 40
1.0
 40
1.0
 40
1.0
 10
135.1492866859822
 20
122.576083709914
 30
0.0
 10
135.18694653258
 20
122.6018781254
 30
0.0
 10
135.258663706103
 20
122.6509180815
 30
0.0
 10
135.361965866719
 20
122.7268397812001
 30
0.0
 10
135.460328590949
 20
122.8091588045001
 30
0.0
 10
135.524998642231
 20
122.8673046934001
 30
0.0
 10
135.558966212474
 20
122.8978896011
 30
0.0
  0
LINE
  5
114
330
BA
100
AcDbEntity
  8
DV3_Default
 62
     7
100
AcDbLine
 10
134.2555293343
 20
122.8474540051
 30
0.0
 11
135.149286686
 21
122.5760837099
 31
0.0
  0
LINE
  5
115
330
BA
100
AcDbEntity
  8
DV3_Default
 62
     7
100
AcDbLine
 10
134.255279988
 20
122.8466194067
 30
0.0
 11
133.2220282848
 21
123.1528066056
 31
0.0
  0
SPLINE
  5
116
330
BA
100
AcDbEntity
  8
DV3_Default
 62
     7
100
AcDbSpline
210
0.0
220
0.0
230
1.0
 70
     8
 71
     3
 72
    14
 73
    10
 74
     0
 42
0.000000001
 43
0.0000000001
 40
0.0
 40
0.0
 40
0.0
 40
0.0
 40
0.0951452741577
 40
0.2007847363877
 40
0.3211589794248
 40
0.459394933426
 40
0.6173027091665
 40
0.7968940471098
 40
1.0
 40
1.0
 40
1.0
 40
1.0
 10
131.452155499248
 20
123.4836740928
 30
0.0
 10
131.509445588988
 20
123.4836590954
 30
0.0
 10
131.630362651615
 20
123.4802665548
 30
0.0
 10
131.823205135227
 20
123.4648344831
 30
0.0
 10
132.040773999451
 20
123.4364439959
 30
0.0
 10
132.287780943586
 20
123.3925416103001
 30
0.0
 10
132.567612498353
 20
123.3309855986001
 30
0.0
 10
132.883043017728
 20
123.2503928735001
 30
0.0
 10
133.104720827246
 20
123.1873819966
 30
0.0
 10
133.222028284846
 20
123.1528066056001
 30
0.0
  0
SPLINE
  5
117
330
BA
100
AcDbEntity
  8
DV3_Default
 62
     7
100
AcDbSpline
210
0.0
220
0.0
230
1.0
 70
     8
 71
     3
 72
    16
 73
    12
 74
     0
 42
0.000000001
 43
0.0000000001
 40
0.0
 40
0.0
 40
0.0
 40
0.0
 40
0.1253252189076
 40
0.268648106079
 40
0.4139053989667
 40
0.5422676078898
 40
0.656329563745
 40
0.7579124456744
 40
0.8483952980942
 40
0.928872890268
 40
1.0
 40
1.0
 40
1.0
 40
1.0
 10
129.797937294762
 20
123.1799913938
 30
0.0
 10
129.864740832761
 20
123.2024578681001
 30
0.0
 10
130.009206490049
 20
123.2469001600001
 30
0.0
 10
130.234489306406
 20
123.3056768435001
 30
0.0
 10
130.463241887891
 20
123.3573652772
 30
0.0
 10
130.677290093799
 20
123.3989533364001
 30
0.0
 10
130.868124395528
 20
123.4308770027001
 30
0.0
 10
131.038694706064
 20
123.4543870608001
 30
0.0
 10
131.191096274408
 20
123.4709319123
 30
0.0
 10
131.326890240302
 20
123.4810752729001
 30
0.0
 10
131.412155167451
 20
123.4836973556001
 30
0.0
 10
131.452155499248
 20
123.4836740928
 30
0.0
  0
LINE
  5
118
330
BA
100
AcDbEntity
  8
DV3_Default
 62
     7
100
AcDbLine
 10
128.4193823805
 20
122.7171346063
 30
0.0
 11
129.7979372948
 21
123.1799913938
 31
0.0
  0
SPLINE
  5
119
330
BA
100
AcDbEntity
  8
DV3_Default
 62
     7
100
AcDbSpline
210
0.0
220
0.0
230
1.0
 70
     8
 71
     3
 72
    25
 73
    21
 74
     0
 42
0.000000001
 43
0.0000000001
 40
0.0
 40
0.0
 40
0.0
 40
0.0
 40
0.07482314422608
 40
0.1525850760132
 40
0.2217315783624
 40
0.2828955687216
 40
0.3371555551453
 40
0.3853873382515
 40
0.4284067485771
 40
0.4662362807818
 40
0.5003126248669
 40
0.5344261449515
 40
0.5723511059556
 40
0.615454497488
 40
0.6637650955717
 40
0.7180929559503
 40
0.7793156677956
 40
0.8485151529914
 40
0.9261556836109
 40
1.0
 40
1.0
 40
1.0
 40
1.0
 10
124.545311607836
 20
122.7171346063
 30
0.0
 10
124.638883142881
 20
122.6857225384
 30
0.0
 10
124.83116991693
 20
122.6259770339
 30
0.0
 10
125.113794184534
 20
122.5503675795
 30
0.0
 10
125.3812373395841
 20
122.4884091974
 30
0.0
 10
125.6200511840534
 20
122.4408006645001
 30
0.0
 10
125.8329472480199
 20
122.4048018767
 30
0.0
 10
126.0231115799091
 20
122.3784514503
 30
0.0
 10
126.1924718856442
 20
122.3604813159
 30
0.0
 10
126.3437389116517
 20
122.3498939323001
 30
0.0
 10
126.4836025689726
 20
122.3459907322
 30
0.0
 10
126.6235864897977
 20
122.3501027725
 30
0.0
 10
126.7751217248724
 20
122.3609467451001
 30
0.0
 10
126.9447968332353
 20
122.3791711237001
 30
0.0
 10
127.1352364733739
 20
122.4057466213001
 30
0.0
 10
127.3483778304919
 20
122.4419151019001
 30
0.0
 10
127.587412113606
 20
122.4896261922
 30
0.0
 10
127.854842329878
 20
122.5515806461
 30
0.0
 10
128.136144158567
 20
122.6267876728
 30
0.0
 10
128.327043226274
 20
122.6861087878
 30
0.0
 10
128.419382380515
 20
122.7171346063
 30
0.0
  0
LINE
  5
11A
330
BA
100
AcDbEntity
  8
DV3_Default
 62
     7
100
AcDbLine
 10
123.1653259153
 20
123.1799913938
 30
0.0
 11
124.5453116078
 21
122.7171346063
 31
0.0
  0
SPLINE
  5
11B
330
BA
100
AcDbEntity
  8
DV3_Default
 62
     7
100
AcDbSpline
210
0.0
220
0.0
230
1.0
 70
     8
 71
     3
 72
    16
 73
    12
 74
     0
 42
0.000000001
 43
0.0000000001
 40
0.0
 40
0.0
 40
0.0
 40
0.0
 40
0.07138451146301
 40
0.1520861195525
 40
0.2427644194723
 40
0.3445117360822
 40
0.4586977366882
 40
0.5869673384922
 40
0.7316410182421
 40
0.8748071307083
 40
1.0
 40
1.0
 40
1.0
 40
1.0
 10
121.51110771078
 20
123.4836740928
 30
0.0
 10
121.551253359978
 20
123.4836740928
 30
0.0
 10
121.636788837747
 20
123.4810342969
 30
0.0
 10
121.772966443184
 20
123.4708909465
 30
0.0
 10
121.925700309647
 20
123.4543437117
 30
0.0
 10
122.096545359108
 20
123.4308145413
 30
0.0
 10
122.287490682162
 20
123.3988689776
 30
0.0
 10
122.501228947158
 20
123.3572963209
 30
0.0
 10
122.729509654045
 20
123.3056293319001
 30
0.0
 10
122.954290991159
 20
123.2468616323
 30
0.0
 10
123.098590035492
 20
123.2024285947
 30
0.0
 10
123.165325915265
 20
123.1799913938
 30
0.0
  0
SPLINE
  5
11C
330
BA
100
AcDbEntity
  8
DV3_Default
 62
     7
100
AcDbSpline
210
0.0
220
0.0
230
1.0
 70
     8
 71
     3
 72
    14
 73
    10
 74
     0
 42
0.000000001
 43
0.0000000001
 40
0.0
 40
0.0
 40
0.0
 40
0.0
 40
0.2033008200473522
 40
0.3829544687457803
 40
0.5408611013675203
 40
0.6791076740341297
 40
0.7995033181723852
 40
0.9050703694381665
 40
1.0
 40
1.0
 40
1.0
 40
1.0
 10
119.741020594711
 20
123.1527251028
 30
0.0
 10
119.85842097834
 20
123.1874555849529
 30
0.0
 10
120.080271215375
 20
123.2505374583001
 30
0.0
 10
120.395914217618
 20
123.3310937227
 30
0.0
 10
120.675847858683
 20
123.3925534525
 30
0.0
 10
120.922904507291
 20
123.4364575013001
 30
0.0
 10
121.140473381135
 20
123.4648756729001
 30
0.0
 10
121.333180254419
 20
123.4803032236001
 30
0.0
 10
121.4539401675159
 20
123.4836740928134
 30
0.0
 10
121.51110771078
 20
123.4836740928
 30
0.0
  0
LINE
  5
11D
330
BA
100
AcDbEntity
  8
DV3_Default
 62
     7
100
AcDbLine
 10
119.7410687253
 20
123.1525620574
 30
0.0
 11
118.7074975885
 21
122.8474546657
 31
0.0
  0
LINE
  5
11E
330
BA
100
AcDbEntity
  8
DV3_Default
 62
     7
100
AcDbLine
 10
117.8149303763
 20
122.5760837099
 30
0.0
 11
118.7074975885
 21
122.8474546657
 31
0.0
  0
SPLINE
  5
11F
330
BA
100
AcDbEntity
  8
DV3_Default
 62
     7
100
AcDbSpline
210
0.0
220
0.0
230
1.0
 70
     8
 71
     3
 72
    12
 73
     8
 74
     0
 42
0.000000001
 43
0.0000000001
 40
0.0
 40
0.0
 40
0.0
 40
0.0
 40
0.213895916988
 40
0.4069760608194
 40
0.5930212254516
 40
0.786102139966
 40
1.0
 40
1.0
 40
1.0
 40
1.0
 10
117.405489312822
 20
122.8978896011
 30
0.0
 10
117.432976760772
 20
122.8728522878
 30
0.0
 10
117.485286908962
 20
122.8252250947
 30
0.0
 10
117.563189978457
 20
122.7576804226001
 30
0.0
 10
117.641429015111
 20
122.6961914866
 30
0.0
 10
117.725466786344
 20
122.6364512496
 30
0.0
 10
117.784105598282
 20
122.5968751753
 30
0.0
 10
117.814930376265
 20
122.5760837099001
 30
0.0
  0
LINE
  5
120
330
BA
100
AcDbEntity
  8
DV3_Default
 62
     7
100
AcDbLine
 10
119.0108225913
 20
123.3916273541
 30
0.0
 11
117.4054893128
 21
122.8978896011
 31
0.0
  0
SPLINE
  5
121
330
BA
100
AcDbEntity
  8
DV3_Default
 62
     7
100
AcDbSpline
210
0.0
220
0.0
230
1.0
 70
     8
 71
     3
 72
    11
 73
     7
 74
     0
 42
0.000000001
 43
0.0000000001
 40
0.0
 40
0.0
 40
0.0
 40
0.0
 40
0.2354331257141
 40
0.4680929133843
 40
0.7226130723579
 40
1.0
 40
1.0
 40
1.0
 40
1.0
 10
120.398916027671
 20
123.7766259545
 30
0.0
 10
120.288498438961
 20
123.7522345848001
 30
0.0
 10
120.069604617803
 20
123.7007087837
 30
0.0
 10
119.73469244569
 20
123.6094553113001
 30
0.0
 10
119.382489973435
 20
123.5054599544
 30
0.0
 10
119.138161621733
 20
123.4308069374
 30
0.0
 10
119.010822591271
 20
123.3916273541001
 30
0.0
  0
SPLINE
  5
122
330
BA
100
AcDbEntity
  8
DV3_Default
 62
     7
100
AcDbSpline
210
0.0
220
0.0
230
1.0
 70
     8
 71
     3
 72
    13
 73
     9
 74
     0
 42
0.000000001
 43
0.0000000001
 40
0.0
 40
0.0
 40
0.0
 40
0.0
 40
0.1221512534831
 40
0.2596032530789
 40
0.4136999866033
 40
0.5864717674419
 40
0.7807259119074
 40
1.0
 40
1.0
 40
1.0
 40
1.0
 10
121.510392321618
 20
123.9195249395001
 30
0.0
 10
121.464685625696
 20
123.9195249395001
 30
0.0
 10
121.367539085779
 20
123.9169452256
 30
0.0
 10
121.21307344998
 20
123.9062939913001
 30
0.0
 10
121.040230975903
 20
123.8883519163
 30
0.0
 10
120.846985337827
 20
123.8620551834001
 30
0.0
 10
120.630628651057
 20
123.8255158611
 30
0.0
 10
120.479001554275
 20
123.794464687
 30
0.0
 10
120.398916027671
 20
123.7766259545
 30
0.0
  0
SPLINE
  5
123
330
BA
100
AcDbEntity
  8
DV3_Default
 62
     7
100
AcDbSpline
210
0.0
220
0.0
230
1.0
 70
     8
 71
     3
 72
    17
 73
    13
 74
     0
 42
0.000000001
 43
0.0000000001
 40
0.0
 40
0.0
 40
0.0
 40
0.0
 40
0.113384684616
 40
0.2424364786814
 40
0.3778564716986
 40
0.4991606882117
 40
0.607263208162
 40
0.7041123751893
 40
0.7909041534171
 40
0.8686844046983
 40
0.938227420382
 40
1.0
 40
1.0
 40
1.0
 40
1.0
 10
123.441585363139
 20
123.5589091863001
 30
0.0
 10
123.371047316243
 20
123.5828186451
 30
0.0
 10
123.218985671716
 20
123.6303313313001
 30
0.0
 10
122.979209172432
 20
123.6946576709
 30
0.0
 10
122.732514880906
 20
123.7527680065
 30
0.0
 10
122.497776258189
 20
123.8011506584001
 30
0.0
 10
122.286897519267
 20
123.8394588492
 30
0.0
 10
122.097544330901
 20
123.8691100536
 30
0.0
 10
121.927245869963
 20
123.8913208144
 30
0.0
 10
121.774257602711
 20
123.9071660098001
 30
0.0
 10
121.637232829299
 20
123.9169898396001
 30
0.0
 10
121.550969450827
 20
123.9195249395001
 30
0.0
 10
121.510392321618
 20
123.9195249395001
 30
0.0
  0
LINE
  5
124
330
BA
100
AcDbEntity
  8
DV3_Default
 62
     7
100
AcDbLine
 10
124.5453116078
 20
123.1846414233
 30
0.0
 11
123.4415853631
 21
123.5589091863
 31
0.0
  0
SPLINE
  5
125
330
BA
100
AcDbEntity
  8
DV3_Default
 62
     7
100
AcDbSpline
210
0.0
220
0.0
230
1.0
 70
     8
 71
     3
 72
    22
 73
    18
 74
     0
 42
0.000000001
 43
0.0000000001
 40
0.0
 40
0.0
 40
0.0
 40
0.0
 40
0.09989813871854
 40
0.1867998268394
 40
0.2624188922847
 40
0.3283553349253
 40
0.3858846426014
 40
0.4362280266402
 40
0.4796739416576
 40
0.51996272823
 40
0.5633570068773
 40
0.6136537744191
 40
0.6711588970642
 40
0.7371033037243
 40
0.8127676411503
 40
0.8997437801554
 40
1.0
 40
1.0
 40
1.0
 40
1.0
 10
128.419382380515
 20
123.1846414233001
 30
0.0
 10
128.294225265307
 20
123.1422501413001
 30
0.0
 10
128.058681460602
 20
123.0673405853001
 30
0.0
 10
127.723935773646
 20
122.9751815897001
 30
0.0
 10
127.429608553126
 20
122.9063325841001
 30
0.0
 10
127.1709297938103
 20
122.8566161908
 30
0.0
 10
126.9434755143258
 20
122.8226302225
 30
0.0
 10
126.7443254692993
 20
122.8018991958
 30
0.0
 10
126.5671776604287
 20
122.7918740998001
 30
0.0
 10
126.3989277829501
 20
122.7917729140001
 30
0.0
 10
126.2218952624109
 20
122.8015191761
 30
0.0
 10
126.022878590107
 20
122.8219791771001
 30
0.0
 10
125.7954768985049
 20
122.8557649278
 30
0.0
 10
125.5367447348691
 20
122.9054175698001
 30
0.0
 10
125.242265870105
 20
122.9743670572001
 30
0.0
 10
124.906956681857
 20
123.0668636346001
 30
0.0
 10
124.670906197466
 20
123.1420652962001
 30
0.0
 10
124.545311607836
 20
123.1846414233001
 30
0.0
  0
LINE
  5
126
330
BA
100
AcDbEntity
  8
DV3_Default
 62
     7
100
AcDbLine
 10
129.5232278567
 20
123.5589091863
 30
0.0
 11
128.4193823805
 21
123.1846414233
 31
0.0
  0
SPLINE
  5
127
330
BA
100
AcDbEntity
  8
DV3_Default
 62
     7
100
AcDbSpline
210
0.0
220
0.0
230
1.0
 70
     8
 71
     3
 72
    17
 73
    13
 74
     0
 42
0.000000001
 43
0.0000000001
 40
0.0
 40
0.0
 40
0.0
 40
0.0
 40
0.06178700752225
 40
0.1313381568056
 40
0.209122922594
 40
0.2959160194514
 40
0.392762846304
 40
0.5008127339961
 40
0.6216463490252
 40
0.7563816140539
 40
0.8861045216033
 40
1.0
 40
1.0
 40
1.0
 40
1.0
 10
131.452155499248
 20
123.9195249395001
 30
0.0
 10
131.411614526749
 20
123.9195249395001
 30
0.0
 10
131.325433271609
 20
123.9169988423
 30
0.0
 10
131.18854401097
 20
123.9071945267
 30
0.0
 10
131.0357187796
 20
123.8913635587001
 30
0.0
 10
130.865611829564
 20
123.8691587470001
 30
0.0
 10
130.676512140006
 20
123.8395083195001
 30
0.0
 10
130.46622033229
 20
123.8012464713001
 30
0.0
 10
130.232536281954
 20
123.7530091521
 30
0.0
 10
129.986442342658
 20
123.6949808625001
 30
0.0
 10
129.746630878701
 20
123.6306022991001
 30
0.0
 10
129.594004158315
 20
123.5828989065
 30
0.0
 10
129.523227856739
 20
123.5589091863001
 30
0.0
  0
SPLINE
  5
128
330
BA
100
AcDbEntity
  8
DV3_Default
 62
     7
100
AcDbSpline
210
0.0
220
0.0
230
1.0
 70
     8
 71
     3
 72
    13
 73
     9
 74
     0
 42
0.000000001
 43
0.0000000001
 40
0.0
 40
0.0
 40
0.0
 40
0.0
 40
0.2189145129034
 40
0.4131417106194
 40
0.5860056082958
 40
0.7402128435609
 40
0.8777580237952
 40
1.0
 40
1.0
 40
1.0
 40
1.0
 10
132.564108719302
 20
123.7766259545
 30
0.0
 10
132.48409769507
 20
123.794335997
 30
0.0
 10
132.332535956734
 20
123.8252900744
 30
0.0
 10
132.116210433113
 20
123.8618925497001
 30
0.0
 10
131.922831747103
 20
123.8882986201
 30
0.0
 10
131.749811879025
 20
123.9063072841
 30
0.0
 10
131.595170853713
 20
123.9169578606001
 30
0.0
 10
131.497915082649
 20
123.9195249395001
 30
0.0
 10
131.452155499248
 20
123.9195249395001
 30
0.0
  0
LINE
  5
129
330
BA
100
AcDbEntity
  8
DV3_Default
 62
     7
100
AcDbLine
 10
134.4867170909
 20
124.7612399038
 30
0.0
 11
133.3832293093
 21
125.135448051
 31
0.0
  0
SPLINE
  5
12A
330
BA
100
AcDbEntity
  8
DV3_Default
 62
     7
100
AcDbSpline
210
0.0
220
0.0
230
1.0
 70
     8
 71
     3
 72
    15
 73
    11
 74
     0
 42
0.000000001
 43
0.0000000001
 40
0.0
 40
0.0
 40
0.0
 40
0.0
 40
0.07603802948716
 40
0.1628560148055
 40
0.2616191007283
 40
0.3738620941183
 40
0.5014860185873
 40
0.6467853850114
 40
0.812585434577
 40
1.0
 40
1.0
 40
1.0
 40
1.0
 10
136.4174332063
 20
124.3687297172
 30
0.0
 10
136.36730620196
 20
124.3687297172
 30
0.0
 10
136.259930372664
 20
124.3717527667
 30
0.0
 10
136.087935000878
 20
124.3853065835
 30
0.0
 10
135.893003223605
 20
124.409205611
 30
0.0
 10
135.672614221251
 20
124.4450960188
 30
0.0
 10
135.423672967019
 20
124.4953993958001
 30
0.0
 10
135.142362454573
 20
124.5628518322
 30
0.0
 10
134.825689706051
 20
124.6509800776001
 30
0.0
 10
134.603744344718
 20
124.7216251468001
 30
0.0
 10
134.486717090884
 20
124.7612399038001
 30
0.0
  0
SPLINE
  5
12B
330
BA
100
AcDbEntity
  8
DV3_Default
 62
     7
100
AcDbSpline
210
0.0
220
0.0
230
1.0
 70
     8
 71
     3
 72
    12
 73
     8
 74
     0
 42
0.000000001
 43
0.0000000001
 40
0.0
 40
0.0
 40
0.0
 40
0.0
 40
0.2410009609573
 40
0.4612874167771
 40
0.6606576050417
 40
0.8391484948975
 40
1.0
 40
1.0
 40
1.0
 40
1.0
 10
137.20591129382
 20
124.4515956284001
 30
0.0
 10
137.14299007061
 20
124.4412892202
 30
0.0
 10
137.02244212908
 20
124.4222412879001
 30
0.0
 10
136.84933676527
 20
124.3979716708
 30
0.0
 10
136.69200978312
 20
124.3806002626
 30
0.0
 10
136.54977577145
 20
124.3708691766001
 30
0.0
 10
136.45998842059
 20
124.3687297172
 30
0.0
 10
136.4174332063
 20
124.3687297172
 30
0.0
  0
LINE
  5
12C
330
BA
100
AcDbEntity
  8
DV3_Default
 62
     7
100
AcDbLine
 10
137.1596494614
 20
124.3746912935
 30
0.0
 11
137.2059112938
 21
124.4515956284
 31
0.0
  0
SPLINE
  5
12D
330
BA
100
AcDbEntity
  8
DV3_Default
 62
     7
100
AcDbSpline
210
0.0
220
0.0
230
1.0
 70
     8
 71
     3
 72
    11
 73
     7
 74
     0
 42
0.000000001
 43
0.0000000001
 40
0.0
 40
0.0
 40
0.0
 40
0.0
 40
0.261402283168
 40
0.4970221217206
 40
0.7336149670106
 40
1.0
 40
1.0
 40
1.0
 40
1.0
 10
136.85608599384
 20
123.9561886340001
 30
0.0
 10
136.88515403968
 20
123.9906928986001
 30
0.0
 10
136.94045412213
 20
124.0562707441001
 30
0.0
 10
137.01878606587
 20
124.1558311050001
 30
0.0
 10
137.09074935346
 20
124.2611574989
 30
0.0
 10
137.13604713482
 20
124.3352354321001
 30
0.0
 10
137.15964946137
 20
124.3746912935001
 30
0.0
  0
SPLINE
  5
12E
330
BA
100
AcDbEntity
  8
DV3_Default
 62
     7
100
AcDbSpline
210
0.0
220
0.0
230
1.0
 70
     8
 71
     3
 72
    11
 73
     7
 74
     0
 42
0.000000001
 43
0.0000000001
 40
0.0
 40
0.0
 40
0.0
 40
0.0
 40
0.2643990119093
 40
0.5034688906542
 40
0.7414876786992
 40
1.0
 40
1.0
 40
1.0
 40
1.0
 10
136.42744865456
 20
123.9237576587001
 30
0.0
 10
136.46537085631
 20
123.9237576587001
 30
0.0
 10
136.53759277271
 20
123.9246214311001
 30
0.0
 10
136.64382664659
 20
123.9304714893001
 30
0.0
 10
136.74876394382
 20
123.9417066016001
 30
0.0
 10
136.81934551747
 20
123.9511979405
 30
0.0
 10
136.85608599384
 20
123.9561886340001
 30
0.0
  0
SPLINE
  5
12F
330
BA
100
AcDbEntity
  8
DV3_Default
 62
     7
100
AcDbSpline
210
0.0
220
0.0
230
1.0
 70
     8
 71
     3
 72
    16
 73
    12
 74
     0
 42
0.000000001
 43
0.0000000001
 40
0.0
 40
0.0
 40
0.0
 40
0.0
 40
0.140916823659
 40
0.2936383973584
 40
0.4338905637056
 40
0.5579507065673
 40
0.6682585327553
 40
0.7663741627919
 40
0.8536797537962
 40
0.9312970498544
 40
1.0
 40
1.0
 40
1.0
 40
1.0
 10
134.486717090884
 20
124.2951638651001
 30
0.0
 10
134.574965486101
 20
124.2653937158001
 30
0.0
 10
134.76021872013
 20
124.2073475676001
 30
0.0
 10
135.037075067723
 20
124.1323666402
 30
0.0
 10
135.305460013568
 20
124.0693905279001
 30
0.0
 10
135.548196881421
 20
124.0204121376001
 30
0.0
 10
135.764795731032
 20
123.9831672581001
 30
0.0
 10
135.958399430623
 20
123.9561143694
 30
0.0
 10
136.131279624437
 20
123.9374993090001
 30
0.0
 10
136.285328639243
 20
123.9264753485
 30
0.0
 10
136.38204160563
 20
123.9237576587001
 30
0.0
 10
136.42744865456
 20
123.9237576587001
 30
0.0
  0
LINE
  5
130
330
BA
100
AcDbEntity
  8
DV3_Default
 62
     7
100
AcDbLine
 10
133.3832293092
 20
124.6675835394
 30
0.0
 11
134.4867170909
 21
124.2951638651
 31
0.0
  0
SPLINE
  5
131
330
BA
100
AcDbEntity
  8
DV3_Default
 62
     7
100
AcDbSpline
210
0.0
220
0.0
230
1.0
 70
     8
 71
     3
 72
    15
 73
    11
 74
     0
 42
0.000000001
 43
0.0000000001
 40
0.0
 40
0.0
 40
0.0
 40
0.0
 40
0.07641076845162
 40
0.163350042967
 40
0.2621472219015
 40
0.3743390296604
 40
0.5017899539229
 40
0.6467039007818
 40
0.8117177430704
 40
1.0
 40
1.0
 40
1.0
 40
1.0
 10
131.452155499248
 20
125.0603918048
 30
0.0
 10
131.502540655608
 20
125.0603554169001
 30
0.0
 10
131.610266186433
 20
125.0573372699
 30
0.0
 10
131.782666062437
 20
125.0439538523001
 30
0.0
 10
131.977738298899
 20
125.0202211807
 30
0.0
 10
132.198061753107
 20
124.9843503735001
 30
0.0
 10
132.446641850125
 20
124.9339637941
 30
0.0
 10
132.727084988898
 20
124.8663878151
 30
0.0
 10
133.043554097499
 20
124.7779800330001
 30
0.0
 10
133.265593015341
 20
124.7072785450001
 30
0.0
 10
133.383229309241
 20
124.6675835394001
 30
0.0
  0
SPLINE
  5
132
330
BA
100
AcDbEntity
  8
DV3_Default
 62
     7
100
AcDbSpline
210
0.0
220
0.0
230
1.0
 70
     8
 71
     3
 72
    16
 73
    12
 74
     0
 42
0.000000001
 43
0.0000000001
 40
0.0
 40
0.0
 40
0.0
 40
0.0
 40
0.1265709259964
 40
0.2705298855158
 40
0.4146810915038
 40
0.5422175062017
 40
0.6558636581589
 40
0.7572573594074
 40
0.8477638656876
 40
0.9284596319063
 40
1.0
 40
1.0
 40
1.0
 40
1.0
 10
129.797937294762
 20
124.7565898742
 30
0.0
 10
129.865428014007
 20
124.7792298705
 30
0.0
 10
130.010890269446
 20
124.8240603575001
 30
0.0
 10
130.236521725697
 20
124.8833084118
 30
0.0
 10
130.464531714569
 20
124.9350737664001
 30
0.0
 10
130.677284125933
 20
124.9765120018
 30
0.0
 10
130.867351159138
 20
125.0082523557
 30
0.0
 10
131.037633520557
 20
125.0315717259
 30
0.0
 10
131.190101941962
 20
125.0479016143001
 30
0.0
 10
131.326292737695
 20
125.0578395585
 30
0.0
 10
131.411919300363
 20
125.0603918048
 30
0.0
 10
131.452155499248
 20
125.0603918048
 30
0.0
  0
LINE
  5
133
330
BA
100
AcDbEntity
  8
DV3_Default
 62
     7
100
AcDbLine
 10
128.4193823805
 20
124.2951638651
 30
0.0
 11
129.7979372947
 21
124.7565898743
 31
0.0
  0
SPLINE
  5
134
330
BA
100
AcDbEntity
  8
DV3_Default
 62
     7
100
AcDbSpline
210
0.0
220
0.0
230
1.0
 70
     8
 71
     3
 72
    25
 73
    21
 74
     0
 42
0.000000001
 43
0.0000000001
 40
0.0
 40
0.0
 40
0.0
 40
0.0
 40
0.07755960684866
 40
0.1553499124827
 40
0.2240488023556
 40
0.2847655767439
 40
0.3385896129629
 40
0.3863830469939
 40
0.4289692979089
 40
0.4663617472149
 40
0.5000098567608
 40
0.5336582465599
 40
0.5710504193174
 40
0.6136332150918
 40
0.6614191158421
 40
0.7152298555243
 40
0.7759245461841
 40
0.8445911884108
 40
0.9223530804229
 40
1.0
 40
1.0
 40
1.0
 40
1.0
 10
124.556042445258
 20
124.2951638651001
 30
0.0
 10
124.652800349421
 20
124.2627162968001
 30
0.0
 10
124.848105647215
 20
124.2021369594001
 30
0.0
 10
125.132970149483
 20
124.1259851282001
 30
0.0
 10
125.3986031427874
 20
124.0643566437001
 30
0.0
 10
125.6350590132275
 20
124.0170420826001
 30
0.0
 10
125.8456661799192
 20
123.9812258256001
 30
0.0
 10
126.0336155276992
 20
123.9549774551001
 30
0.0
 10
126.2008138069529
 20
123.9370475230001
 30
0.0
 10
126.3499810730843
 20
123.9264502153001
 30
0.0
 10
126.4877367864526
 20
123.9224711598
 30
0.0
 10
126.625490723323
 20
123.9264966732001
 30
0.0
 10
126.7746502941643
 20
123.9371364626001
 30
0.0
 10
126.9418296927863
 20
123.9551021324
 30
0.0
 10
127.1297433753287
 20
123.9813737284001
 30
0.0
 10
127.3402921859576
 20
124.0171952979001
 30
0.0
 10
127.576661330968
 20
124.0644885856001
 30
0.0
 10
127.842194735156
 20
124.1260632899001
 30
0.0
 10
128.1271088683
 20
124.2021636119001
 30
0.0
 10
128.32250579473
 20
124.2627088769
 30
0.0
 10
128.419382380515
 20
124.2951638651001
 30
0.0
  0
LINE
  5
135
330
BA
100
AcDbEntity
  8
DV3_Default
 62
     7
100
AcDbLine
 10
123.177487531
 20
124.7565898742
 30
0.0
 11
124.5560424452
 21
124.295163865
 31
0.0
  0
SPLINE
  5
136
330
BA
100
AcDbEntity
  8
DV3_Default
 62
     7
100
AcDbSpline
210
0.0
220
0.0
230
1.0
 70
     8
 71
     3
 72
    16
 73
    12
 74
     0
 42
0.000000001
 43
0.0000000001
 40
0.0
 40
0.0
 40
0.0
 40
0.0
 40
0.07159756792622
 40
0.1523442671189
 40
0.2428984539848
 40
0.3443363403278
 40
0.4580213513198
 40
0.5855619967832
 40
0.7293257495047
 40
0.8732773643872
 40
1.0
 40
1.0
 40
1.0
 40
1.0
 10
121.522911631945
 20
125.0603918048
 30
0.0
 10
121.563188569436
 20
125.0603918048
 30
0.0
 10
121.648894258131
 20
125.0578476027001
 30
0.0
 10
121.785203093701
 20
125.0479221656001
 30
0.0
 10
121.937785569272
 20
125.0315954676001
 30
0.0
 10
122.108177867826
 20
125.0082664237001
 30
0.0
 10
122.298332861858
 20
124.9765050813
 30
0.0
 10
122.510936586416
 20
124.9350750469
 30
0.0
 10
122.738776235631
 20
124.8833281266
 30
0.0
 10
122.964321411975
 20
124.8240954208001
 30
0.0
 10
123.109896712677
 20
124.7792474367
 30
0.0
 10
123.177487531011
 20
124.7565898742
 30
0.0
  0
SPLINE
  5
137
330
BA
100
AcDbEntity
  8
DV3_Default
 62
     7
100
AcDbSpline
210
0.0
220
0.0
230
1.0
 70
     8
 71
     3
 72
    15
 73
    11
 74
     0
 42
0.000000001
 43
0.0000000001
 40
0.0
 40
0.0
 40
0.0
 40
0.0
 40
0.1884189312349
 40
0.3535666737039
 40
0.4985349833995
 40
0.6259888426311
 40
0.7381479268617
 40
0.8368858567015
 40
0.9237410859227
 40
1.0
 40
1.0
 40
1.0
 40
1.0
 10
119.592195516532
 20
124.6675835394001
 30
0.0
 10
119.709882599186
 20
124.7073464864
 30
0.0
 10
119.932039910353
 20
124.7781417657
 30
0.0
 10
120.248659391361
 20
124.8666100859
 30
0.0
 10
120.529181676534
 20
124.9341955663001
 30
0.0
 10
120.777739599447
 20
124.9845651401
 30
0.0
 10
120.997971842181
 20
125.0204043560001
 30
0.0
 10
121.19289911065
 20
125.0441028703001
 30
0.0
 10
121.365080082434
 20
125.0574339449
 30
0.0
 10
121.472634798138
 20
125.0603918048
 30
0.0
 10
121.522911631945
 20
125.0603918048
 30
0.0
  0
LINE
  5
138
330
BA
100
AcDbEntity
  8
DV3_Default
 62
     7
100
AcDbLine
 10
118.4881115773
 20
124.2951638651
 30
0.0
 11
119.5921955165
 21
124.6675835394
 31
0.0
  0
SPLINE
  5
139
330
BA
100
AcDbEntity
  8
DV3_Default
 62
     7
100
AcDbSpline
210
0.0
220
0.0
230
1.0
 70
     8
 71
     3
 72
    16
 73
    12
 74
     0
 42
0.000000001
 43
0.0000000001
 40
0.0
 40
0.0
 40
0.0
 40
0.0
 40
0.06877766155291
 40
0.1464697325669
 40
0.2338527843436
 40
0.3320498513202
 40
0.4424439280126
 40
0.5665976364358
 40
0.7069589430028
 40
0.859447528295
 40
1.0
 40
1.0
 40
1.0
 40
1.0
 10
116.546545392892
 20
123.9237576587001
 30
0.0
 10
116.592020938002
 20
123.9237576587001
 30
0.0
 10
116.688873452007
 20
123.9264710361001
 30
0.0
 10
116.843138477704
 20
123.9374892562
 30
0.0
 10
117.016247401073
 20
123.9561070796001
 30
0.0
 10
117.210095538115
 20
123.9831768328001
 30
0.0
 10
117.426957518082
 20
124.0204570292001
 30
0.0
 10
117.669983177939
 20
124.0694976301001
 30
0.0
 10
117.938456227208
 20
124.1325192195
 30
0.0
 10
118.215107898605
 20
124.2074823085001
 30
0.0
 10
118.400056002231
 20
124.2654532618
 30
0.0
 10
118.488111577254
 20
124.2951638651001
 30
0.0
  0
SPLINE
  5
13A
330
BA
100
AcDbEntity
  8
DV3_Default
 62
     7
100
AcDbSpline
210
0.0
220
0.0
230
1.0
 70
     8
 71
     3
 72
    11
 73
     7
 74
     0
 42
0.000000001
 43
0.0000000001
 40
0.0
 40
0.0
 40
0.0
 40
0.0
 40
0.2586440604545
 40
0.496606632222
 40
0.7355954031408
 40
1.0
 40
1.0
 40
1.0
 40
1.0
 10
116.12017345263
 20
123.9561886340001
 30
0.0
 10
116.15673488048
 20
123.9511825308001
 30
0.0
 10
116.22694737149
 20
123.941663679
 30
0.0
 10
116.3313278627
 20
123.9304167768001
 30
0.0
 10
116.436987964059
 20
123.9246028841
 30
0.0
 10
116.508820934853
 20
123.9237576587001
 30
0.0
 10
116.546545392892
 20
123.9237576587001
 30
0.0
  0
SPLINE
  5
13B
330
BA
100
AcDbEntity
  8
DV3_Default
 62
     7
100
AcDbSpline
210
0.0
220
0.0
230
1.0
 70
     8
 71
     3
 72
    12
 73
     8
 74
     0
 42
0.000000001
 43
0.0000000001
 40
0.0
 40
0.0
 40
0.0
 40
0.0
 40
0.2157311357496
 40
0.4085017755256
 40
0.5935114336695
 40
0.7858520677278
 40
1.0
 40
1.0
 40
1.0
 40
1.0
 10
115.81482151218
 20
124.3746912935001
 30
0.0
 10
115.83402749493
 20
124.3426956765001
 30
0.0
 10
115.87085905112
 20
124.282382642
 30
0.0
 10
115.92726901542
 20
124.1965639936001
 30
0.0
 10
115.98560185816
 20
124.1169888421001
 30
0.0
 10
116.05002974942
 20
124.0374689683001
 30
0.0
 10
116.09588327974
 20
123.9841566867001
 30
0.0
 10
116.12017345263
 20
123.9561886340001
 30
0.0
  0
LINE
  5
13C
330
BA
100
AcDbEntity
  8
DV3_Default
 62
     7
100
AcDbLine
 10
115.7690366059
 20
124.4515956284
 30
0.0
 11
115.8148215122
 21
124.3746912935
 31
0.0
  0
SPLINE
  5
13D
330
BA
100
AcDbEntity
  8
DV3_Default
 62
     7
100
AcDbSpline
210
0.0
220
0.0
230
1.0
 70
     8
 71
     3
 72
    19
 73
    15
 74
     0
 42
0.000000001
 43
0.0000000001
 40
0.0
 40
0.0
 40
0.0
 40
0.0
 40
0.138227057947
 40
0.2598697381401
 40
0.3660123935169
 40
0.4588420140678
 40
0.5401512500469
 40
0.611401928837
 40
0.6734538992108
 40
0.7291739132154
 40
0.7857111139986
 40
0.8489253630496
 40
0.9203977064257
 40
1.0
 40
1.0
 40
1.0
 40
1.0
 10
118.488111577254
 20
124.7612399038001
 30
0.0
 10
118.367171769188
 20
124.7202808393
 30
0.0
 10
118.138315479951
 20
124.6475751115001
 30
0.0
 10
117.812356647128
 20
124.5574857282
 30
0.0
 10
117.524071829885
 20
124.4893019559
 30
0.0
 10
117.269988890944
 20
124.4392168403
 30
0.0
 10
117.04598730291
 20
124.4040767038
 30
0.0
 10
116.848952434695
 20
124.3816269746
 30
0.0
 10
116.674672228373
 20
124.3697937612001
 30
0.0
 10
116.513585217275
 20
124.3675570529001
 30
0.0
 10
116.351564895054
 20
124.3746620124001
 30
0.0
 10
116.17567283898
 20
124.3915891187
 30
0.0
 10
115.97946165887
 20
124.4179723705001
 30
0.0
 10
115.84160110207
 20
124.4397020853
 30
0.0
 10
115.76903660585
 20
124.4515956284001
 30
0.0
  0
LINE
  5
13E
330
BA
100
AcDbEntity
  8
DV3_Default
 62
     7
100
AcDbLine
 10
119.5921955165
 20
125.135448051
 30
0.0
 11
118.4881115773
 21
124.7612399038
 31
0.0
  0
SPLINE
  5
13F
330
BA
100
AcDbEntity
  8
DV3_Default
 62
     7
100
AcDbSpline
210
0.0
220
0.0
230
1.0
 70
     8
 71
     3
 72
    26
 73
    22
 74
     0
 42
0.000000001
 43
0.0000000001
 40
0.0
 40
0.0
 40
0.0
 40
0.0
 40
0.06091971340462
 40
0.1300185554409
 40
0.1998272699005
 40
0.2617726513669
 40
0.3168788501786
 40
0.3660476832166
 40
0.4100356031657
 40
0.4492417800275
 40
0.4837636692444
 40
0.5164714008947
 40
0.5510100014986
 40
0.5902317076085
 40
0.6342258196155
 40
0.6834003261777
 40
0.7385121254836
 40
0.8004056028479
 40
0.8698797020083
 40
0.9389669092629
 40
1.0
 40
1.0
 40
1.0
 40
1.0
 10
123.451958505981
 20
125.1354480510001
 30
0.0
 10
123.376209459053
 20
125.1611394865
 30
0.0
 10
123.21317540789
 20
125.2119937941
 30
0.0
 10
122.959611331487
 20
125.2796247663001
 30
0.0
 10
122.702712217323
 20
125.3393964391001
 30
0.0
 10
122.462187671247
 20
125.3879563534001
 30
0.0
 10
122.247180101671
 20
125.4255545642
 30
0.0
 10
122.054601223822
 20
125.4541507244001
 30
0.0
 10
121.88203336817
 20
125.4749560165
 30
0.0
 10
121.728058552631
 20
125.4886780407001
 30
0.0
 10
121.588458275512
 20
125.4960917485
 30
0.0
 10
121.454767018096
 20
125.4959798074001
 30
0.0
 10
121.315131124344
 20
125.4884827153001
 30
0.0
 10
121.161109749098
 20
125.4747135066
 30
0.0
 10
120.988508061957
 20
125.4538916523001
 30
0.0
 10
120.795906346355
 20
125.4252931718001
 30
0.0
 10
120.580950521996
 20
125.3877088096
 30
0.0
 10
120.340916046889
 20
125.3392487287001
 30
0.0
 10
120.084524230907
 20
125.2796051505001
 30
0.0
 10
119.831252069965
 20
125.2120661818001
 30
0.0
 10
119.668087304249
 20
125.1611820972001
 30
0.0
 10
119.592195516532
 20
125.1354480510001
 30
0.0
  0
LINE
  5
140
330
BA
100
AcDbEntity
  8
DV3_Default
 62
     7
100
AcDbLine
 10
124.5560424453
 20
124.7612399038
 30
0.0
 11
123.451958506
 21
125.135448051
 31
0.0
  0
SPLINE
  5
141
330
BA
100
AcDbEntity
  8
DV3_Default
 62
     7
100
AcDbSpline
210
0.0
220
0.0
230
1.0
 70
     8
 71
     3
 72
    23
 73
    19
 74
     0
 42
0.000000001
 43
0.0000000001
 40
0.0
 40
0.0
 40
0.0
 40
0.0
 40
0.09493456814174
 40
0.1778328448283
 40
0.2503593253032
 40
0.3139838489591
 40
0.3698551336005
 40
0.4190374315528
 40
0.4619626876612
 40
0.4999885327506
 40
0.5380131339349
 40
0.5809360337915
 40
0.6301176689454
 40
0.6859895778753
 40
0.7496161570571
 40
0.8221458017563
 40
0.9050475970671
 40
1.0
 40
1.0
 40
1.0
 40
1.0
 10
128.419382380515
 20
124.7612399038001
 30
0.0
 10
128.300770457165
 20
124.7210754260001
 30
0.0
 10
128.077165994925
 20
124.6499380047001
 30
0.0
 10
127.75887224395
 20
124.5616319118001
 30
0.0
 10
127.477787382727
 20
124.4944174872001
 30
0.0
 10
127.2294070868521
 20
124.4444718631001
 30
0.0
 10
127.0097287930124
 20
124.4087921623
 30
0.0
 10
126.8159022132881
 20
124.385216773
 30
0.0
 10
126.6447067598322
 20
124.3718809113001
 30
0.0
 10
126.4877570677624
 20
124.3672538535001
 30
0.0
 10
126.330809864028
 20
124.3718622870001
 30
0.0
 10
126.1596189216013
 20
124.3851850056001
 30
0.0
 10
125.9657943378863
 20
124.4087512011
 30
0.0
 10
125.7461127297444
 20
124.4444275717001
 30
0.0
 10
125.4977250313425
 20
124.4943757641001
 30
0.0
 10
125.216630115447
 20
124.5615978464001
 30
0.0
 10
124.898307040337
 20
124.6499192050001
 30
0.0
 10
124.674676651523
 20
124.7210678806001
 30
0.0
 10
124.556042445258
 20
124.7612399038001
 30
0.0
  0
LINE
  5
142
330
BA
100
AcDbEntity
  8
DV3_Default
 62
     7
100
AcDbLine
 10
129.5232278567
 20
125.135448051
 30
0.0
 11
128.4193823805
 21
124.7612399038
 31
0.0
  0
SPLINE
  5
143
330
BA
100
AcDbEntity
  8
DV3_Default
 62
     7
100
AcDbSpline
210
0.0
220
0.0
230
1.0
 70
     8
 71
     3
 72
    26
 73
    22
 74
     0
 42
0.000000001
 43
0.0000000001
 40
0.0
 40
0.0
 40
0.0
 40
0.0
 40
0.06225421567967
 40
0.1326139119765
 40
0.2022508500446
 40
0.2638072321419
 40
0.3185315000348
 40
0.3673172658574
 40
0.4109304440564
 40
0.4497630545174
 40
0.4839466009746
 40
0.5163503876998
 40
0.5505790869738
 40
0.5894840716662
 40
0.6331762800505
 40
0.6820532068985
 40
0.7368753803953
 40
0.7984867864093
 40
0.8678646930948
 40
0.9379348345889
 40
1.0
 40
1.0
 40
1.0
 40
1.0
 10
133.383229309241
 20
125.1354480510001
 30
0.0
 10
133.305810818237
 20
125.1616857207
 30
0.0
 10
133.139479726955
 20
125.213454943
 30
0.0
 10
132.88275513729
 20
125.2816441872
 30
0.0
 10
132.624877740238
 20
125.3413264883
 30
0.0
 10
132.385500031835
 20
125.3893741537
 30
0.0
 10
132.171934641917
 20
125.426486336
 30
0.0
 10
131.980797546417
 20
125.4546696452001
 30
0.0
 10
131.809678000395
 20
125.4751456493001
 30
0.0
 10
131.657108512166
 20
125.4886487418001
 30
0.0
 10
131.518836209476
 20
125.4959866112
 30
0.0
 10
131.386389471497
 20
125.4960592570001
 30
0.0
 10
131.247961699896
 20
125.4886874586001
 30
0.0
 10
131.095141905724
 20
125.4750875373001
 30
0.0
 10
130.923719058144
 20
125.4544626852001
 30
0.0
 10
130.732252133067
 20
125.4261040183
 30
0.0
 10
130.518392594715
 20
125.3888134500001
 30
0.0
 10
130.279173745651
 20
125.3406838233001
 30
0.0
 10
130.021944027888
 20
125.2810814443
 30
0.0
 10
129.766153677521
 20
125.2131519717
 30
0.0
 10
129.600414714756
 20
125.1615958104001
 30
0.0
 10
129.523227856739
 20
125.1354480510001
 30
0.0
  0
LINE
  5
144
330
BA
100
AcDbEntity
  8
DV3_Default
 62
     7
100
AcDbLine
 10
137.6198831553
 20
130.3814563882
 30
0.0
 11
134.8247384697
 21
130.3814563882
 31
0.0
  0
LINE
  5
145
330
BA
100
AcDbEntity
  8
DV3_Default
 62
     7
100
AcDbLine
 10
137.6198831553
 20
129.5917263697
 30
0.0
 11
137.6198831553
 21
130.3814563882
 31
0.0
  0
LINE
  5
146
330
BA
100
AcDbEntity
  8
DV3_Default
 62
     7
100
AcDbLine
 10
135.8749297588
 20
129.5917263697
 30
0.0
 11
137.6198831553
 21
129.5917263697
 31
0.0
  0
LINE
  5
147
330
BA
100
AcDbEntity
  8
DV3_Default
 62
     7
100
AcDbLine
 10
135.8749297588
 20
128.8573197796
 30
0.0
 11
135.8749297588
 21
129.5917263697
 31
0.0
  0
LINE
  5
148
330
BA
100
AcDbEntity
  8
DV3_Default
 62
     7
100
AcDbLine
 10
137.3272889882
 20
128.8573197796
 30
0.0
 11
135.8749297588
 21
128.8573197796
 31
0.0
  0
LINE
  5
149
330
BA
100
AcDbEntity
  8
DV3_Default
 62
     7
100
AcDbLine
 10
137.3272889882
 20
128.0979341846
 30
0.0
 11
137.3272889882
 21
128.8573197796
 31
0.0
  0
LINE
  5
14A
330
BA
100
AcDbEntity
  8
DV3_Default
 62
     7
100
AcDbLine
 10
135.8749297588
 20
128.0979341846
 30
0.0
 11
137.3272889882
 21
128.0979341846
 31
0.0
  0
LINE
  5
14B
330
BA
100
AcDbEntity
  8
DV3_Default
 62
     7
100
AcDbLine
 10
135.8749297588
 20
127.1397300186
 30
0.0
 11
135.8749297588
 21
128.0979341846
 31
0.0
  0
LINE
  5
14C
330
BA
100
AcDbEntity
  8
DV3_Default
 62
     7
100
AcDbLine
 10
137.8500000022
 20
127.1397300186
 30
0.0
 11
135.8749297588
 21
127.1397300186
 31
0.0
  0
LINE
  5
14D
330
BA
100
AcDbEntity
  8
DV3_Default
 62
     7
100
AcDbLine
 10
137.8500000022
 20
126.35
 30
0.0
 11
137.8500000022
 21
127.1397300186
 31
0.0
  0
LINE
  5
14E
330
BA
100
AcDbEntity
  8
DV3_Default
 62
     7
100
AcDbLine
 10
134.8247384697
 20
126.35
 30
0.0
 11
137.8500000022
 21
126.35
 31
0.0
  0
LINE
  5
14F
330
BA
100
AcDbEntity
  8
DV3_Default
 62
     7
100
AcDbLine
 10
134.8247384697
 20
130.3814563882
 30
0.0
 11
134.8247384697
 21
126.35
 31
0.0
  0
SPLINE
  5
150
330
BA
100
AcDbEntity
  8
DV3_Default
 62
     7
100
AcDbSpline
210
0.0
220
0.0
230
1.0
 70
     8
 71
     3
 72
    55
 73
    51
 74
     0
 42
0.000000001
 43
0.0000000001
 40
0.0
 40
0.0
 40
0.0
 40
0.0
 40
0.02490313707593
 40
0.0488289030803
 40
0.07190833865225
 40
0.09423365280121
 40
0.1158863171453
 40
0.13694568223
 40
0.1575093502301
 40
0.177628638483
 40
0.1973515250372
 40
0.2168472812575
 40
0.2361480904817
 40
0.2552190169633
 40
0.2742484723078
 40
0.2933419222402
 40
0.3124448986991
 40
0.3316572431956
 40
0.3511150513994
 40
0.3708665589299
 40
0.3909773233118
 40
0.4115340735092
 40
0.4326362444337
 40
0.454369300214
 40
0.4768183863515
 40
0.5001151436311
 40
0.5234076363895
 40
0.5458522741878
 40
0.5675822939596
 40
0.5886824573296
 40
0.6092385582371
 40
0.6293494943452
 40
0.6491020055314
 40
0.6685622090889
 40
0.6877772278432
 40
0.7068840952319
 40
0.7259830057836
 40
0.7450172540235
 40
0.7640942675631
 40
0.783403241647
 40
0.8029063566571
 40
0.8226376974995
 40
0.8427669555822
 40
0.8633409073288
 40
0.884411381796
 40
0.9060746906301
 40
0.9284115592586
 40
0.9514988105055
 40
0.9754496596591
 40
1.0
 40
1.0
 40
1.0
 40
1.0
 10
127.880574776691
 20
128.3656985696001
 30
0.0
 10
127.880596890617
 20
128.3290349142001
 30
0.0
 10
127.878484474883
 20
128.2571236385
 30
0.0
 10
127.868803914209
 20
128.1516341094
 30
0.0
 10
127.853099829483
 20
128.0507078771001
 30
0.0
 10
127.831736022661
 20
127.9542530967001
 30
0.0
 10
127.805049548383
 20
127.8622264555001
 30
0.0
 10
127.773331161196
 20
127.7745645665
 30
0.0
 10
127.736848129812
 20
127.6912355744
 30
0.0
 10
127.6958641758
 20
127.6122364686001
 30
0.0
 10
127.650537710568
 20
127.5374790677
 30
0.0
 10
127.601003434227
 20
127.4669087812001
 30
0.0
 10
127.547474036391
 20
127.4005483563
 30
0.0
 10
127.490074022507
 20
127.338436528
 30
0.0
 10
127.428815650897
 20
127.280570591
 30
0.0
 10
127.363774234206
 20
127.2269191329001
 30
0.0
 10
127.2950564819878
 20
127.1776001715
 30
0.0
 10
127.2227067314141
 20
127.1327550053001
 30
0.0
 10
127.1466692573611
 20
127.0924154576001
 30
0.0
 10
127.0669035178683
 20
127.0566949552001
 30
0.0
 10
126.9834215360334
 20
127.0257950595
 30
0.0
 10
126.8961767230074
 20
126.9999028312
 30
0.0
 10
126.8050954403377
 20
126.9792431853
 30
0.0
 10
126.7101142663363
 20
126.9640950368
 30
0.0
 10
126.6111394129067
 20
126.9547664893001
 30
0.0
 10
126.5094789012802
 20
126.9516616951001
 30
0.0
 10
126.4078260428421
 20
126.9548023978001
 30
0.0
 10
126.308871825776
 20
126.9641655385001
 30
0.0
 10
126.213910043794
 20
126.9793464622001
 30
0.0
 10
126.1228446028484
 20
127.0000380287
 30
0.0
 10
126.0356129703342
 20
127.0259617950001
 30
0.0
 10
125.9521418417602
 20
127.0568932271001
 30
0.0
 10
125.8723846439294
 20
127.0926456483001
 30
0.0
 10
125.796354251392
 20
127.1330176217
 30
0.0
 10
125.7240098327664
 20
127.1778964197001
 30
0.0
 10
125.6552955715393
 20
127.2272505957
 30
0.0
 10
125.5902571059403
 20
127.2809383592001
 30
0.0
 10
125.529001392196
 20
127.3388421367001
 30
0.0
 10
125.4716033230882
 20
127.4009939291001
 30
0.0
 10
125.4180755328219
 20
127.4673965328001
 30
0.0
 10
125.3685432735134
 20
127.5380113641
 30
0.0
 10
125.323219870172
 20
127.6128150117001
 30
0.0
 10
125.28223947802
 20
127.6918635856001
 30
0.0
 10
125.245761332195
 20
127.7752451338
 30
0.0
 10
125.2140506845
 20
127.8629599894001
 30
0.0
 10
125.187374438469
 20
127.9550406803
 30
0.0
 10
125.166025439882
 20
128.0515439517
 30
0.0
 10
125.150333770072
 20
128.1525384949001
 30
0.0
 10
125.14072647173
 20
128.2575612822
 30
0.0
 10
125.138598357582
 20
128.3289877809001
 30
0.0
 10
125.138607685789
 20
128.3651320365001
 30
0.0
  0
SPLINE
  5
151
330
BA
100
AcDbEntity
  8
DV3_Default
 62
     7
100
AcDbSpline
210
0.0
220
0.0
230
1.0
 70
     8
 71
     3
 72
    55
 73
    51
 74
     0
 42
0.000000001
 43
0.0000000001
 40
0.0
 40
0.0
 40
0.0
 40
0.0
 40
0.02462411855137
 40
0.04869134891559
 40
0.07185863358659
 40
0.0942467920534
 40
0.1159353187443
 40
0.1370077016316
 40
0.1575647527757
 40
0.1776600025149
 40
0.1973445745935
 40
0.2167926625656
 40
0.2360388320803
 40
0.2550483005086
 40
0.274014709319
 40
0.293049151537
 40
0.3120959682541
 40
0.3312574998566
 40
0.3506756601223
 40
0.3704003132956
 40
0.3905000224228
 40
0.4110644493995
 40
0.4321956424649
 40
0.4539828437139
 40
0.4765136457081
 40
0.4999208205327
 40
0.5233244416306
 40
0.5458476396796
 40
0.5676284602213
 40
0.5887544343038
 40
0.6093149352686
 40
0.6294105128134
 40
0.6491313372371
 40
0.6685472518358
 40
0.6877056733624
 40
0.7067473070415
 40
0.725778648991
 40
0.7447427488788
 40
0.7637460412727
 40
0.7829858365905
 40
0.8024291380915
 40
0.8221063258068
 40
0.8421920225687
 40
0.8627394959153
 40
0.8838006008391
 40
0.9054747926927
 40
0.9278459722128
 40
0.9509976361045
 40
0.9750287573073
 40
1.0
 40
1.0
 40
1.0
 40
1.0
 10
125.138607685789
 20
128.3651320365001
 30
0.0
 10
125.138617042051
 20
128.4013849991001
 30
0.0
 10
125.140784264671
 20
128.4730902711001
 30
0.0
 10
125.150443182119
 20
128.5785079775
 30
0.0
 10
125.1661950534
 20
128.6798625068
 30
0.0
 10
125.187588229915
 20
128.7765922581
 30
0.0
 10
125.214284925597
 20
128.8687874225
 30
0.0
 10
125.245985498002
 20
128.9565220931001
 30
0.0
 10
125.282418100703
 20
129.0398449665001
 30
0.0
 10
125.323316024871
 20
129.1187744377
 30
0.0
 10
125.3685216354252
 20
129.1934158044
 30
0.0
 10
125.4179035327832
 20
129.2638402056
 30
0.0
 10
125.4712515601511
 20
129.3300372438001
 30
0.0
 10
125.5284464728437
 20
129.3919795895
 30
0.0
 10
125.5894871299231
 20
129.4496826682
 30
0.0
 10
125.6543083702186
 20
129.5031888056
 30
0.0
 10
125.7228125736846
 20
129.5523863383
 30
0.0
 10
125.7949668677262
 20
129.5971372872
 30
0.0
 10
125.8708418970061
 20
129.6374147040001
 30
0.0
 10
125.9504948393932
 20
129.6731079839001
 30
0.0
 10
126.033927326489
 20
129.7040137612001
 30
0.0
 10
126.1212010920983
 20
129.729941705
 30
0.0
 10
126.2124060553204
 20
129.7506615239
 30
0.0
 10
126.3076208762199
 20
129.7658872908
 30
0.0
 10
126.4069521657746
 20
129.7753007024
 30
0.0
 10
126.5090571135558
 20
129.7784847063
 30
0.0
 10
126.6111543916529
 20
129.7754149485
 30
0.0
 10
126.7104702024141
 20
129.7661124581001
 30
0.0
 10
126.8056736199654
 20
129.7509948528001
 30
0.0
 10
126.8968786091537
 20
129.7303785788
 30
0.0
 10
126.9841614777887
 20
129.7045501164
 30
0.0
 10
127.0676106049665
 20
129.6737397934
 30
0.0
 10
127.1472878214707
 20
129.6381375538
 30
0.0
 10
127.2231936059383
 20
129.5979470303
 30
0.0
 10
127.2953822932564
 20
129.5532810960001
 30
0.0
 10
127.363925100386
 20
129.5041661483
 30
0.0
 10
127.428790362743
 20
129.4507379115001
 30
0.0
 10
127.489879525644
 20
129.3931110957
 30
0.0
 10
127.547125544994
 20
129.3312457867
 30
0.0
 10
127.600526612035
 20
129.2651243214
 30
0.0
 10
127.649966303384
 20
129.1947738902001
 30
0.0
 10
127.695233653747
 20
129.1202073797
 30
0.0
 10
127.736195208483
 20
129.0413548977
 30
0.0
 10
127.772695120058
 20
128.9581103875001
 30
0.0
 10
127.804467121379
 20
128.8704566710001
 30
0.0
 10
127.831238460716
 20
128.7783484836
 30
0.0
 10
127.852712245546
 20
128.6817073426
 30
0.0
 10
127.868545240687
 20
128.580467995
 30
0.0
 10
127.878350775353
 20
128.4746265555
 30
0.0
 10
127.880552602234
 20
128.4024625817001
 30
0.0
 10
127.880574776691
 20
128.3656985696001
 30
0.0
  0
ENDBLK
  5
153
330
BA
100
AcDbEntity
  8
0
100
AcDbBlockEnd
  0
ENDSEC
  0
SECTION
  2
ENTITIES
  0
INSERT
  5
70
330
1F
100
AcDbEntity
  8
Default
100
AcDbBlockReference
  2
SE
 10
0.0
 20
0.0
 30
0.0
  0
INSERT
  5
92
330
1F
100
AcDbEntity
  8
Default
100
AcDbBlockReference
  2
SE1
 10
0.0
 20
0.0
 30
0.0
  0
INSERT
  5
BB
330
1F
100
AcDbEntity
  8
Default
100
AcDbBlockReference
  2
SE2
 10
0.0
 20
0.0
 30
0.0
  0
MTEXT
  5
154
330
1F
100
AcDbEntity
  8
Default
100
AcDbMText
 10
5.9362635081
 20
63.4225120485
 30
0.0
 40
10.0
 41
113.8626497168
 46
65.4545454545
 71
     1
 72
     1
  1
{\fArial Narrow|b0||i0||c0|p34;\C7;\H10.;\W1.;Grohe AG\P}{\fArial Narrow|b0||i0||c0|p34;\C7;\H10.;\W1.;\P}{\fArial Narrow|b0||i0||c0|p34;\C7;\H10.;\W1.;ecn:\P}{\fArial Narrow|b0||i0||c0|p34;\C7;\H10.;\W1.;unit: mm}
 73
     1
 44
1.0
1001
ACAD
1000
ACAD_MTEXT_DEFINED_HEIGHT_BEGIN
1070
    46
1040
65.4545454545
1000
ACAD_MTEXT_DEFINED_HEIGHT_END
  0
LINE
  5
155
330
1F
100
AcDbEntity
  8
Default
 62
     7
100
AcDbLine
 10
0.0
 20
0.0
 30
0.0
 11
100.0
 21
0.0
 31
0.0
  0
LINE
  5
156
330
1F
100
AcDbEntity
  8
Default
 62
     7
100
AcDbLine
 10
0.0
 20
0.0
 30
0.0
 11
0.0
 21
100.0
 31
0.0
  0
MTEXT
  5
157
330
1F
100
AcDbEntity
  8
Default
100
AcDbMText
 10
24.3923665681
 20
-8.2375342018
 30
0.0
 40
10.0
 41
35.00001
 46
16.3636363636
 71
     1
 72
     1
  1
{\fArial Narrow|b0||i0||c0|p34;\C7;\H10.;\W0.82;100 mm}
 73
     1
 44
1.0
1001
ACAD
1000
ACAD_MTEXT_DEFINED_HEIGHT_BEGIN
1070
    46
1040
16.3636363636
1000
ACAD_MTEXT_DEFINED_HEIGHT_END
  0
MTEXT
  5
158
330
1F
100
AcDbEntity
  8
Default
100
AcDbMText
 10
-17.6150308803
 20
24.6231930421
 30
0.0
 40
10.0
 41
35.00001
 46
16.3636363636
 71
     1
 72
     1
  1
{\fArial Narrow|b0||i0||c0|p34;\C7;\H10.;\W0.82;100 mm}
 11
6.123233995736766E-17
 21
1.0
 31
0.0
 73
     1
 44
1.0
1001
ACAD
1000
ACAD_MTEXT_DEFINED_HEIGHT_BEGIN
1070
    46
1040
16.3636363636
1000
ACAD_MTEXT_DEFINED_HEIGHT_END
  0
MTEXT
  5
159
330
1F
100
AcDbEntity
  8
Default
100
AcDbMText
 10
28.4878128572
 20
24.8634936442
 30
0.0
 40
10.0
 41
86.691737001
 46
16.3636363636
 71
     4
 72
     1
  1
{\fArial Narrow|b0||i0||c0|p34;\C7;\H10.;\W1.;251281}
 73
     1
 44
1.0
1001
ACAD
1000
ACAD_MTEXT_DEFINED_HEIGHT_BEGIN
1070
    46
1040
16.3636363636
1000
ACAD_MTEXT_DEFINED_HEIGHT_END
  0
MTEXT
  5
15A
330
1F
100
AcDbEntity
  8
Default
100
AcDbMText
 10
5.9012241913
 20
41.4970052916
 30
0.0
 40
10.0
 41
109.9146987306
 46
16.3636363636
 71
     4
 72
     1
  1
{\fArial Narrow|b0||i0||c0|p34;\C7;\H10.;\W1.;40751HW0}
 73
     1
 44
1.0
1001
ACAD
1000
ACAD_MTEXT_DEFINED_HEIGHT_BEGIN
1070
    46
1040
16.3636363636
1000
ACAD_MTEXT_DEFINED_HEIGHT_END
  0
ENDSEC
  0
SECTION
  2
OBJECTS
  0
DICTIONARY
  5
C
330
0
100
AcDbDictionary
281
     1
  3
ACAD_DETAILVIEWSTYLE
350
196
  3
ACAD_GROUP
350
D
  3
ACAD_LAYOUT
350
1A
  3
ACAD_MATERIAL
350
43
  3
ACAD_MLEADERSTYLE
350
6B
  3
ACAD_MLINESTYLE
350
17
  3
ACAD_PLOTSETTINGS
350
19
  3
ACAD_PLOTSTYLENAME
350
E
  3
ACAD_SCALELIST
350
47
  3
ACAD_SECTIONVIEWSTYLE
350
197
  3
ACAD_TABLESTYLE
350
69
  3
ACAD_VISUALSTYLE
350
2A
  3
ACDB_RECOMPOSE_DATA
350
193
  3
AcDbVariableDictionary
350
15B
  0
SUN
  5
6D
330
29
100
AcDbSun
 90
        1
290
     0
 63
     7
421
 16777215
 40
1.0
291
     1
 91
  2455826
 92
 54000000
292
     0
 70
     2
 71
   256
280
     1
  0
DICTIONARY
  5
196
102
{ACAD_REACTORS
330
C
102
}
330
C
100
AcDbDictionary
281
     1
  0
DICTIONARY
  5
D
102
{ACAD_REACTORS
330
C
102
}
330
C
100
AcDbDictionary
281
     1
  0
DICTIONARY
  5
1A
102
{ACAD_REACTORS
330
C
102
}
330
C
100
AcDbDictionary
281
     1
  3
Layout1
350
1E
  3
Model
350
22
  0
DICTIONARY
  5
43
102
{ACAD_REACTORS
330
C
102
}
330
C
100
AcDbDictionary
281
     1
  3
ByBlock
350
45
  3
ByLayer
350
44
  3
Global
350
46
  0
DICTIONARY
  5
6B
102
{ACAD_REACTORS
330
C
102
}
330
C
100
AcDbDictionary
281
     1
  3
Standard
350
6C
  0
DICTIONARY
  5
17
102
{ACAD_REACTORS
330
C
102
}
330
C
100
AcDbDictionary
281
     1
  3
Standard
350
18
  0
DICTIONARY
  5
19
102
{ACAD_REACTORS
330
C
102
}
330
C
100
AcDbDictionary
281
     1
  0
ACDBDICTIONARYWDFLT
  5
E
102
{ACAD_REACTORS
330
C
102
}
330
C
100
AcDbDictionary
281
     1
  3
Normal
350
F
100
AcDbDictionaryWithDefault
340
F
  0
DICTIONARY
  5
47
102
{ACAD_REACTORS
330
C
102
}
330
C
100
AcDbDictionary
281
     1
  3
A0
350
48
  3
A1
350
49
  3
A2
350
4A
  3
A3
350
4B
  3
A4
350
4C
  3
A5
350
4D
  3
A6
350
4E
  3
A7
350
4F
  3
A8
350
50
  3
A9
350
51
  3
B0
350
52
  3
B1
350
53
  3
B2
350
54
  3
B3
350
55
  3
B4
350
56
  3
B5
350
57
  3
B6
350
58
  3
B7
350
59
  3
B8
350
5A
  3
B9
350
5B
  3
C0
350
5C
  3
C1
350
5D
  3
C2
350
5E
  3
C3
350
5F
  3
C4
350
60
  3
C5
350
61
  3
C6
350
62
  3
C7
350
63
  3
C8
350
64
  3
C9
350
65
  3
D0
350
66
  3
D1
350
67
  3
D2
350
68
  0
DICTIONARY
  5
197
102
{ACAD_REACTORS
330
C
102
}
330
C
100
AcDbDictionary
281
     1
  0
DICTIONARY
  5
69
102
{ACAD_REACTORS
330
C
102
}
330
C
100
AcDbDictionary
281
     1
  3
Standard
350
6A
  0
DICTIONARY
  5
2A
102
{ACAD_REACTORS
330
C
102
}
330
C
100
AcDbDictionary
281
     1
  3
2dWireframe
350
2F
  3
Basic
350
32
  3
Brighten
350
36
  3
ColorChange
350
3A
  3
Conceptual
350
34
  3
Dim
350
35
  3
EdgeColorOff
350
3D
  3
Facepattern
350
39
  3
Flat
350
2B
  3
FlatWithEdges
350
2C
  3
Gouraud
350
2D
  3
GouraudWithEdges
350
2E
  3
Hidden
350
31
  3
JitterOff
350
3B
  3
Linepattern
350
38
  3
OverhangOff
350
3C
  3
Realistic
350
33
  3
Shaded
350
42
  3
Shaded with edges
350
41
  3
Shades of Gray
350
3E
  3
Sketchy
350
3F
  3
Thicken
350
37
  3
Wireframe
350
30
  3
X-Ray
350
40
  0
XRECORD
  5
193
102
{ACAD_REACTORS
330
C
102
}
330
C
100
AcDbXrecord
280
     1
 90
        1
330
6A
  0
DICTIONARY
  5
15B
102
{ACAD_REACTORS
330
C
102
}
330
C
100
AcDbDictionary
281
     1
  3
CANNOSCALE
350
15C
  3
CENTEREXE
350
198
  3
CENTERLTYPEFILE
350
199
  3
CMLEADERSTYLE
350
195
  3
CTABLESTYLE
350
194
  3
XCLIPFRAME
350
15D
  0
LAYOUT
  5
1E
102
{ACAD_REACTORS
330
1A
102
}
330
1A
100
AcDbPlotSettings
  1

  2
none_device
  4

  6

 40
0.0
 41
0.0
 42
0.0
 43
0.0
 44
0.0
 45
0.0
 46
0.0
 47
0.0
 48
0.0
 49
0.0
140
0.0
141
0.0
142
1.0
143
1.0
 70
   688
 72
     1
 73
     0
 74
     5
  7

 75
    16
 76
     0
 77
     2
 78
   300
147
1.0
148
0.0
149
0.0
100
AcDbLayout
  1
Layout1
 70
     1
 71
     1
 10
0.0
 20
0.0
 11
3000.0
 21
4500.0
 12
0.0
 22
0.0
 32
0.0
 14
0.0
 24
0.0
 34
0.0
 15
3000.0
 25
4500.0
 35
0.0
146
0.0
 13
0.0
 23
0.0
 33
0.0
 16
1.0
 26
0.0
 36
0.0
 17
0.0
 27
1.0
 37
0.0
 76
     0
330
1B
  0
LAYOUT
  5
22
102
{ACAD_REACTORS
330
1A
102
}
330
1A
100
AcDbPlotSettings
  1

  2
none_device
  4
Letter_(8.50_x_11.00_Inches)
  6

 40
6.35
 41
6.35
 42
6.35000508
 43
6.35000508
 44
215.9
 45
279.4
 46
0.0
 47
0.0
 48
0.0
 49
0.0
140
0.0
141
0.0
142
1.0
143
1.0
 70
  1712
 72
     1
 73
     0
 74
     0
  7

 75
     0
 76
     0
 77
     2
 78
   300
147
1.0
148
0.0
149
0.0
100
AcDbLayout
  1
Model
 70
     1
 71
     0
 10
0.0
 20
0.0
 11
3000.0
 21
4500.0
 12
0.0
 22
0.0
 32
0.0
 14
0.0
 24
0.0
 34
0.0
 15
3000.0
 25
4500.0
 35
0.0
146
0.0
 13
0.0
 23
0.0
 33
0.0
 16
1.0
 26
0.0
 36
0.0
 17
0.0
 27
1.0
 37
0.0
 76
     0
330
1F
331
29
  0
MATERIAL
  5
45
102
{ACAD_REACTORS
330
43
102
}
330
43
100
AcDbMaterial
  1
ByBlock
 72
     1
 94
      127
  0
MATERIAL
  5
44
102
{ACAD_REACTORS
330
43
102
}
330
43
100
AcDbMaterial
  1
ByLayer
 72
     1
 94
      127
  0
MATERIAL
  5
46
102
{ACAD_REACTORS
330
43
102
}
330
43
100
AcDbMaterial
  1
Global
 72
     1
 94
      127
  0
MLEADERSTYLE
  5
6C
102
{ACAD_REACTORS
330
6B
102
}
102
{ACAD_XDICTIONARY
360
191
102
}
330
6B
100
AcDbMLeaderStyle
170
     2
171
     1
172
     0
 90
        2
 40
0.0
 41
0.0
173
     1
 91
-1056964608
340
14
 92
       -2
290
     1
 42
2.0
291
     1
 43
8.0
  3
Standard
341
0
 44
4.0
300

342
11
174
     1
178
     6
175
     1
176
     0
 93
-1056964608
 45
4.0
292
     0
297
     0
 46
4.0
343
0
 94
-1056964608
 47
1.0
 49
1.0
140
1.0
293
     1
141
0.0
294
     1
177
     0
142
1.0
295
     0
296
     0
143
3.75
1001
ACAD_MLEADERVER
1070
     2
  0
MLINESTYLE
  5
18
102
{ACAD_REACTORS
330
17
102
}
330
17
100
AcDbMlineStyle
  2
Standard
 70
     0
  3

 62
   256
 51
90.0
 52
90.0
 71
     2
 49
0.5
 62
   256
  6
BYLAYER
 49
-0.5
 62
   256
  6
BYLAYER
  0
ACDBPLACEHOLDER
  5
F
102
{ACAD_REACTORS
330
E
102
}
330
E
  0
SCALE
  5
48
102
{ACAD_REACTORS
330
47
102
}
330
47
100
AcDbScale
 70
     0
300
1:1
140
1.0
141
1.0
290
     1
  0
SCALE
  5
49
102
{ACAD_REACTORS
330
47
102
}
330
47
100
AcDbScale
 70
     0
300
1:2
140
1.0
141
2.0
290
     0
  0
SCALE
  5
4A
102
{ACAD_REACTORS
330
47
102
}
330
47
100
AcDbScale
 70
     0
300
1:4
140
1.0
141
4.0
290
     0
  0
SCALE
  5
4B
102
{ACAD_REACTORS
330
47
102
}
330
47
100
AcDbScale
 70
     0
300
1:5
140
1.0
141
5.0
290
     0
  0
SCALE
  5
4C
102
{ACAD_REACTORS
330
47
102
}
330
47
100
AcDbScale
 70
     0
300
1:8
140
1.0
141
8.0
290
     0
  0
SCALE
  5
4D
102
{ACAD_REACTORS
330
47
102
}
330
47
100
AcDbScale
 70
     0
300
1:10
140
1.0
141
10.0
290
     0
  0
SCALE
  5
4E
102
{ACAD_REACTORS
330
47
102
}
330
47
100
AcDbScale
 70
     0
300
1:16
140
1.0
141
16.0
290
     0
  0
SCALE
  5
4F
102
{ACAD_REACTORS
330
47
102
}
330
47
100
AcDbScale
 70
     0
300
1:20
140
1.0
141
20.0
290
     0
  0
SCALE
  5
50
102
{ACAD_REACTORS
330
47
102
}
330
47
100
AcDbScale
 70
     0
300
1:30
140
1.0
141
30.0
290
     0
  0
SCALE
  5
51
102
{ACAD_REACTORS
330
47
102
}
330
47
100
AcDbScale
 70
     0
300
1:40
140
1.0
141
40.0
290
     0
  0
SCALE
  5
52
102
{ACAD_REACTORS
330
47
102
}
330
47
100
AcDbScale
 70
     0
300
1:50
140
1.0
141
50.0
290
     0
  0
SCALE
  5
53
102
{ACAD_REACTORS
330
47
102
}
330
47
100
AcDbScale
 70
     0
300
1:100
140
1.0
141
100.0
290
     0
  0
SCALE
  5
54
102
{ACAD_REACTORS
330
47
102
}
330
47
100
AcDbScale
 70
     0
300
2:1
140
2.0
141
1.0
290
     0
  0
SCALE
  5
55
102
{ACAD_REACTORS
330
47
102
}
330
47
100
AcDbScale
 70
     0
300
4:1
140
4.0
141
1.0
290
     0
  0
SCALE
  5
56
102
{ACAD_REACTORS
330
47
102
}
330
47
100
AcDbScale
 70
     0
300
8:1
140
8.0
141
1.0
290
     0
  0
SCALE
  5
57
102
{ACAD_REACTORS
330
47
102
}
330
47
100
AcDbScale
 70
     0
300
10:1
140
10.0
141
1.0
290
     0
  0
SCALE
  5
58
102
{ACAD_REACTORS
330
47
102
}
330
47
100
AcDbScale
 70
     0
300
100:1
140
100.0
141
1.0
290
     0
  0
SCALE
  5
59
102
{ACAD_REACTORS
330
47
102
}
330
47
100
AcDbScale
 70
     0
300
1/128" = 1'-0"
140
0.0078125
141
12.0
290
     0
  0
SCALE
  5
5A
102
{ACAD_REACTORS
330
47
102
}
330
47
100
AcDbScale
 70
     0
300
1/64" = 1'-0"
140
0.015625
141
12.0
290
     0
  0
SCALE
  5
5B
102
{ACAD_REACTORS
330
47
102
}
330
47
100
AcDbScale
 70
     0
300
1/32" = 1'-0"
140
0.03125
141
12.0
290
     0
  0
SCALE
  5
5C
102
{ACAD_REACTORS
330
47
102
}
330
47
100
AcDbScale
 70
     0
300
1/16" = 1'-0"
140
0.0625
141
12.0
290
     0
  0
SCALE
  5
5D
102
{ACAD_REACTORS
330
47
102
}
330
47
100
AcDbScale
 70
     0
300
3/32" = 1'-0"
140
0.09375
141
12.0
290
     0
  0
SCALE
  5
5E
102
{ACAD_REACTORS
330
47
102
}
330
47
100
AcDbScale
 70
     0
300
1/8" = 1'-0"
140
0.125
141
12.0
290
     0
  0
SCALE
  5
5F
102
{ACAD_REACTORS
330
47
102
}
330
47
100
AcDbScale
 70
     0
300
3/16" = 1'-0"
140
0.1875
141
12.0
290
     0
  0
SCALE
  5
60
102
{ACAD_REACTORS
330
47
102
}
330
47
100
AcDbScale
 70
     0
300
1/4" = 1'-0"
140
0.25
141
12.0
290
     0
  0
SCALE
  5
61
102
{ACAD_REACTORS
330
47
102
}
330
47
100
AcDbScale
 70
     0
300
3/8" = 1'-0"
140
0.375
141
12.0
290
     0
  0
SCALE
  5
62
102
{ACAD_REACTORS
330
47
102
}
330
47
100
AcDbScale
 70
     0
300
1/2" = 1'-0"
140
0.5
141
12.0
290
     0
  0
SCALE
  5
63
102
{ACAD_REACTORS
330
47
102
}
330
47
100
AcDbScale
 70
     0
300
3/4" = 1'-0"
140
0.75
141
12.0
290
     0
  0
SCALE
  5
64
102
{ACAD_REACTORS
330
47
102
}
330
47
100
AcDbScale
 70
     0
300
1" = 1'-0"
140
1.0
141
12.0
290
     0
  0
SCALE
  5
65
102
{ACAD_REACTORS
330
47
102
}
330
47
100
AcDbScale
 70
     0
300
1-1/2" = 1'-0"
140
1.5
141
12.0
290
     0
  0
SCALE
  5
66
102
{ACAD_REACTORS
330
47
102
}
330
47
100
AcDbScale
 70
     0
300
3" = 1'-0"
140
3.0
141
12.0
290
     0
  0
SCALE
  5
67
102
{ACAD_REACTORS
330
47
102
}
330
47
100
AcDbScale
 70
     0
300
6" = 1'-0"
140
6.0
141
12.0
290
     0
  0
SCALE
  5
68
102
{ACAD_REACTORS
330
47
102
}
330
47
100
AcDbScale
 70
     0
300
1'-0" = 1'-0"
140
12.0
141
12.0
290
     0
  0
TABLESTYLE
  5
6A
102
{ACAD_REACTORS
330
69
102
}
102
{ACAD_XDICTIONARY
360
18E
102
}
330
69
100
AcDbTableStyle
  3
Standard
 70
     0
 71
     0
 40
0.06
 41
0.06
280
     0
281
     0
  7
Standard
140
4.5
170
     2
 62
     0
 63
   257
283
     0
 90
        4
 91
        0
  1

274
    -2
284
     1
 64
     0
275
    -2
285
     1
 65
     0
276
    -2
286
     1
 66
     0
277
    -2
287
     1
 67
     0
278
    -2
288
     1
 68
     0
279
    -2
289
     1
 69
     0
  7
Standard
140
6.0
170
     5
 62
     0
 63
   257
283
     0
 90
        4
 91
        0
  1

274
    -2
284
     1
 64
     0
275
    -2
285
     1
 65
     0
276
    -2
286
     1
 66
     0
277
    -2
287
     1
 67
     0
278
    -2
288
     1
 68
     0
279
    -2
289
     1
 69
     0
  7
Standard
140
4.5
170
     5
 62
     0
 63
   257
283
     0
 90
        4
 91
        0
  1

274
    -2
284
     1
 64
     0
275
    -2
285
     1
 65
     0
276
    -2
286
     1
 66
     0
277
    -2
287
     1
 67
     0
278
    -2
288
     1
 68
     0
279
    -2
289
     1
 69
     0
  0
VISUALSTYLE
  5
2F
102
{ACAD_REACTORS
330
2A
102
}
102
{ACAD_XDICTIONARY
360
166
102
}
330
2A
100
AcDbVisualStyle
  2
2dWireframe
 70
     4
 71
     0
 72
     2
 73
     0
 90
        0
 40
0.6
 41
30.0
 62
     5
 63
     7
421
 16777215
 74
     1
 91
        4
 64
     7
 65
   257
 75
     1
175
     1
 42
1.0
 92
        0
 66
   257
 43
1.0
 76
     1
 77
     6
 78
     2
 67
     7
 79
     5
170
     0
171
     0
290
     0
174
     0
 93
        1
 44
0.0
173
     0
291
     0
 45
0.0
  0
VISUALSTYLE
  5
32
102
{ACAD_REACTORS
330
2A
102
}
102
{ACAD_XDICTIONARY
360
16C
102
}
330
2A
100
AcDbVisualStyle
  2
Basic
 70
     7
 71
     1
 72
     0
 73
     1
 90
        0
 40
0.6
 41
30.0
 62
     5
 63
     7
421
 16777215
 74
     0
 91
        4
 64
     7
 65
   257
 75
     1
175
     1
 42
1.0
 92
        8
 66
     7
 43
1.0
 76
     1
 77
     6
 78
     2
 67
     7
 79
     5
170
     0
171
     0
290
     0
174
     0
 93
        1
 44
0.0
173
     0
291
     1
 45
0.0
  0
VISUALSTYLE
  5
36
102
{ACAD_REACTORS
330
2A
102
}
102
{ACAD_XDICTIONARY
360
174
102
}
330
2A
100
AcDbVisualStyle
  2
Brighten
 70
    12
 71
     2
 72
     2
 73
     0
 90
        0
 40
0.6
 41
30.0
 62
     5
 63
     7
421
 16777215
 74
     1
 91
        4
 64
     7
 65
   257
 75
     1
175
     1
 42
1.0
 92
        8
 66
     7
 43
1.0
 76
     1
 77
     6
 78
     2
 67
     7
 79
     5
170
     0
171
     0
290
     0
174
     0
 93
        1
 44
50.0
173
     0
291
     1
 45
0.0
  0
VISUALSTYLE
  5
3A
102
{ACAD_REACTORS
330
2A
102
}
102
{ACAD_XDICTIONARY
360
17C
102
}
330
2A
100
AcDbVisualStyle
  2
ColorChange
 70
    16
 71
     2
 72
     2
 73
     3
 90
        0
 40
0.6
 41
30.0
 62
     5
 63
     8
421
  8421504
 74
     1
 91
        4
 64
     7
 65
   257
 75
     1
175
     1
 42
1.0
 92
        8
 66
     8
424
  8421504
 43
1.0
 76
     1
 77
     6
 78
     2
 67
     7
 79
     5
170
     0
171
     0
290
     0
174
     0
 93
        1
 44
0.0
173
     0
291
     1
 45
0.0
  0
VISUALSTYLE
  5
34
102
{ACAD_REACTORS
330
2A
102
}
102
{ACAD_XDICTIONARY
360
170
102
}
330
2A
100
AcDbVisualStyle
  2
Conceptual
 70
     9
 71
     3
 72
     2
 73
     0
 90
        0
 40
0.6
 41
30.0
 62
     5
 63
     7
421
 16777215
 74
     2
 91
        2
 64
     7
 65
   257
 75
     1
175
     1
 42
179.0
 92
        8
 66
     7
 43
1.0
 76
     1
 77
     6
 78
     2
 67
     7
 79
     3
170
     0
171
     0
290
     0
174
     0
 93
        1
 44
0.0
173
     0
291
     0
 45
0.0
  0
VISUALSTYLE
  5
35
102
{ACAD_REACTORS
330
2A
102
}
102
{ACAD_XDICTIONARY
360
172
102
}
330
2A
100
AcDbVisualStyle
  2
Dim
 70
    11
 71
     2
 72
     2
 73
     0
 90
        0
 40
0.6
 41
30.0
 62
     5
 63
     7
421
 16777215
 74
     1
 91
        4
 64
     7
 65
   257
 75
     1
175
     1
 42
1.0
 92
        8
 66
     7
 43
1.0
 76
     1
 77
     6
 78
     2
 67
     7
 79
     5
170
     0
171
     0
290
     0
174
     0
 93
        1
 44
-50.0
173
     0
291
     1
 45
0.0
  0
VISUALSTYLE
  5
3D
102
{ACAD_REACTORS
330
2A
102
}
102
{ACAD_XDICTIONARY
360
182
102
}
330
2A
100
AcDbVisualStyle
  2
EdgeColorOff
 70
    22
 71
     2
 72
     2
 73
     0
 90
        0
 40
0.6
 41
30.0
 62
     5
 63
     7
421
 16777215
 74
     1
 91
        4
 64
     7
 65
   257
 75
     1
175
     1
 42
1.0
 92
        8
 66
     7
 43
1.0
 76
     1
 77
     6
 78
     2
 67
     7
 79
     5
170
     0
171
     0
290
     0
174
     0
 93
        1
 44
0.0
173
     0
291
     1
 45
0.0
  0
VISUALSTYLE
  5
39
102
{ACAD_REACTORS
330
2A
102
}
102
{ACAD_XDICTIONARY
360
17A
102
}
330
2A
100
AcDbVisualStyle
  2
Facepattern
 70
    15
 71
     2
 72
     2
 73
     0
 90
        0
 40
0.6
 41
30.0
 62
     5
 63
     7
421
 16777215
 74
     1
 91
        4
 64
     7
 65
   257
 75
     1
175
     1
 42
1.0
 92
        8
 66
     7
 43
1.0
 76
     1
 77
     6
 78
     2
 67
     7
 79
     5
170
     0
171
     0
290
     0
174
     0
 93
        1
 44
0.0
173
     0
291
     1
 45
0.0
  0
VISUALSTYLE
  5
2B
102
{ACAD_REACTORS
330
2A
102
}
102
{ACAD_XDICTIONARY
360
15E
102
}
330
2A
100
AcDbVisualStyle
  2
Flat
 70
     0
 71
     2
 72
     1
 73
     1
 90
        2
 40
0.6
 41
30.0
 62
     5
 63
     7
421
 16777215
 74
     0
 91
        0
 64
     7
 65
   257
 75
     1
175
     1
 42
1.0
 92
        8
 66
     7
 43
1.0
 76
     1
 77
     6
 78
     2
 67
     7
 79
     5
170
     0
171
     0
290
     0
174
     0
 93
       13
 44
0.0
173
     0
291
     1
 45
0.0
  0
VISUALSTYLE
  5
2C
102
{ACAD_REACTORS
330
2A
102
}
102
{ACAD_XDICTIONARY
360
160
102
}
330
2A
100
AcDbVisualStyle
  2
FlatWithEdges
 70
     1
 71
     2
 72
     1
 73
     1
 90
        2
 40
0.6
 41
30.0
 62
     5
 63
     7
421
 16777215
 74
     1
 91
        0
 64
     7
 65
   257
 75
     1
175
     1
 42
1.0
 92
        0
 66
   257
 43
1.0
 76
     1
 77
     6
 78
     2
 67
     7
 79
     5
170
     0
171
     0
290
     0
174
     0
 93
       13
 44
0.0
173
     0
291
     1
 45
0.0
  0
VISUALSTYLE
  5
2D
102
{ACAD_REACTORS
330
2A
102
}
102
{ACAD_XDICTIONARY
360
162
102
}
330
2A
100
AcDbVisualStyle
  2
Gouraud
 70
     2
 71
     2
 72
     2
 73
     1
 90
        2
 40
0.6
 41
30.0
 62
     5
 63
     7
421
 16777215
 74
     0
 91
        0
 64
     7
 65
   257
 75
     1
175
     1
 42
1.0
 92
        0
 66
     7
 43
1.0
 76
     1
 77
     6
 78
     2
 67
     7
 79
     5
170
     0
171
     0
290
     0
174
     0
 93
       13
 44
0.0
173
     0
291
     1
 45
0.0
  0
VISUALSTYLE
  5
2E
102
{ACAD_REACTORS
330
2A
102
}
102
{ACAD_XDICTIONARY
360
164
102
}
330
2A
100
AcDbVisualStyle
  2
GouraudWithEdges
 70
     3
 71
     2
 72
     2
 73
     1
 90
        2
 40
0.6
 41
30.0
 62
     5
 63
     7
421
 16777215
 74
     1
 91
        0
 64
     7
 65
   257
 75
     1
175
     1
 42
1.0
 92
        0
 66
   257
 43
1.0
 76
     1
 77
     6
 78
     2
 67
     7
 79
     5
170
     0
171
     0
290
     0
174
     0
 93
       13
 44
0.0
173
     0
291
     1
 45
0.0
  0
VISUALSTYLE
  5
31
102
{ACAD_REACTORS
330
2A
102
}
102
{ACAD_XDICTIONARY
360
16A
102
}
330
2A
100
AcDbVisualStyle
  2
Hidden
 70
     6
 71
     1
 72
     2
 73
     2
 90
        0
 40
0.6
 41
30.0
 62
     5
 63
     7
421
 16777215
 74
     2
 91
        2
 64
     7
 65
   257
 75
     2
175
     1
 42
40.0
 92
        0
 66
   257
 43
1.0
 76
     1
 77
     6
 78
     2
 67
     7
 79
     3
170
     0
171
     0
290
     0
174
     0
 93
        1
 44
0.0
173
     0
291
     0
 45
0.0
  0
VISUALSTYLE
  5
3B
102
{ACAD_REACTORS
330
2A
102
}
102
{ACAD_XDICTIONARY
360
17E
102
}
330
2A
100
AcDbVisualStyle
  2
JitterOff
 70
    20
 71
     2
 72
     2
 73
     0
 90
        0
 40
0.6
 41
30.0
 62
     5
 63
     7
421
 16777215
 74
     1
 91
        4
 64
     7
 65
   257
 75
     1
175
     1
 42
1.0
 92
       10
 66
     7
 43
1.0
 76
     1
 77
     6
 78
     2
 67
     7
 79
     5
170
     0
171
     0
290
     0
174
     0
 93
        1
 44
0.0
173
     0
291
     1
 45
0.0
  0
VISUALSTYLE
  5
38
102
{ACAD_REACTORS
330
2A
102
}
102
{ACAD_XDICTIONARY
360
178
102
}
330
2A
100
AcDbVisualStyle
  2
Linepattern
 70
    14
 71
     2
 72
     2
 73
     0
 90
        0
 40
0.6
 41
30.0
 62
     5
 63
     7
421
 16777215
 74
     1
 91
        4
 64
     7
 65
   257
 75
     7
175
     7
 42
1.0
 92
        8
 66
     7
 43
1.0
 76
     1
 77
     6
 78
     2
 67
     7
 79
     5
170
     0
171
     0
290
     0
174
     0
 93
        1
 44
0.0
173
     0
291
     1
 45
0.0
  0
VISUALSTYLE
  5
3C
102
{ACAD_REACTORS
330
2A
102
}
102
{ACAD_XDICTIONARY
360
180
102
}
330
2A
100
AcDbVisualStyle
  2
OverhangOff
 70
    21
 71
     2
 72
     2
 73
     0
 90
        0
 40
0.6
 41
30.0
 62
     5
 63
     7
421
 16777215
 74
     1
 91
        4
 64
     7
 65
   257
 75
     1
175
     1
 42
1.0
 92
        9
 66
     7
 43
1.0
 76
     1
 77
     6
 78
     2
 67
     7
 79
     5
170
     0
171
     0
290
     0
174
     0
 93
        1
 44
0.0
173
     0
291
     1
 45
0.0
  0
VISUALSTYLE
  5
33
102
{ACAD_REACTORS
330
2A
102
}
102
{ACAD_XDICTIONARY
360
16E
102
}
330
2A
100
AcDbVisualStyle
  2
Realistic
 70
     8
 71
     2
 72
     3
 73
     0
 90
        2
 40
0.6
 41
30.0
 62
     5
 63
     7
421
 16777215
 74
     0
 91
        0
 64
     7
 65
   257
 75
     1
175
     1
 42
1.0
 92
        8
 66
   257
 43
1.0
 76
     1
 77
     6
 78
     2
 67
     7
 79
     3
170
     0
171
     0
290
     0
174
     0
 93
       13
 44
0.0
173
     0
291
     0
 45
0.0
  0
VISUALSTYLE
  5
42
102
{ACAD_REACTORS
330
2A
102
}
102
{ACAD_XDICTIONARY
360
18C
102
}
330
2A
100
AcDbVisualStyle
  2
Shaded
 70
    27
 71
     2
 72
     2
 73
     1
 90
        2
 40
0.6
 41
30.0
 62
     5
 63
     7
421
 16777215
 74
     0
 91
        4
 64
     7
 65
   257
 75
     1
175
     1
 42
1.0
 92
        8
 66
   257
 43
1.0
 76
     1
 77
     6
 78
     2
 67
     8
425
  7895160
 79
     3
170
     0
171
     0
290
     0
174
     0
 93
        5
 44
0.0
173
     0
291
     0
 45
0.0
  0
VISUALSTYLE
  5
41
102
{ACAD_REACTORS
330
2A
102
}
102
{ACAD_XDICTIONARY
360
18A
102
}
330
2A
100
AcDbVisualStyle
  2
Shaded with edges
 70
    26
 71
     2
 72
     2
 73
     1
 90
        2
 40
0.6
 41
30.0
 62
     5
 63
     7
421
 16777215
 74
     1
 91
       10
 64
     7
 65
   257
 75
     2
175
     1
 42
1.0
 92
        8
 66
   257
 43
1.0
 76
     1
 77
     6
 78
     2
 67
     7
 79
     3
170
     0
171
     0
290
     0
174
     0
 93
        5
 44
0.0
173
     0
291
     0
 45
0.0
  0
VISUALSTYLE
  5
3E
102
{ACAD_REACTORS
330
2A
102
}
102
{ACAD_XDICTIONARY
360
184
102
}
330
2A
100
AcDbVisualStyle
  2
Shades of Gray
 70
    23
 71
     2
 72
     2
 73
     3
 90
        0
 40
0.6
 41
30.0
 62
     5
 63
     7
421
 16777215
 74
     2
 91
        2
 64
     7
 65
     7
 75
     1
175
     1
 42
40.0
 92
        8
 66
     7
 43
1.0
 76
     1
 77
     6
 78
     2
 67
     7
 79
     3
170
     0
171
     0
290
     0
174
     0
 93
        1
 44
0.0
173
     0
291
     0
 45
0.0
  0
VISUALSTYLE
  5
3F
102
{ACAD_REACTORS
330
2A
102
}
102
{ACAD_XDICTIONARY
360
186
102
}
330
2A
100
AcDbVisualStyle
  2
Sketchy
 70
    24
 71
     1
 72
     2
 73
     2
 90
        0
 40
0.6
 41
30.0
 62
     5
 63
     7
421
 16777215
 74
     2
 91
        2
 64
     7
 65
     7
 75
     1
175
     1
 42
40.0
 92
       11
 66
     7
 43
1.0
 76
     1
 77
     6
 78
     2
 67
     7
 79
     6
170
     0
171
     0
290
     0
174
     0
 93
        1
 44
0.0
173
     0
291
     0
 45
0.0
  0
VISUALSTYLE
  5
37
102
{ACAD_REACTORS
330
2A
102
}
102
{ACAD_XDICTIONARY
360
176
102
}
330
2A
100
AcDbVisualStyle
  2
Thicken
 70
    13
 71
     2
 72
     2
 73
     0
 90
        0
 40
0.6
 41
30.0
 62
     5
 63
     7
421
 16777215
 74
     1
 91
        4
 64
     7
 65
   257
 75
     1
175
     1
 42
1.0
 92
       12
 66
     7
 43
1.0
 76
     1
 77
     6
 78
     2
 67
     7
 79
     5
170
     0
171
     0
290
     0
174
     0
 93
        1
 44
0.0
173
     0
291
     1
 45
0.0
  0
VISUALSTYLE
  5
30
102
{ACAD_REACTORS
330
2A
102
}
102
{ACAD_XDICTIONARY
360
168
102
}
330
2A
100
AcDbVisualStyle
  2
Wireframe
 70
     5
 71
     0
 72
     2
 73
     0
 90
        0
 40
0.6
 41
30.0
 62
     5
 63
     7
421
 16777215
 74
     1
 91
        4
 64
     7
 65
   257
 75
     1
175
     1
 42
1.0
 92
        0
 66
   257
 43
1.0
 76
     1
 77
     6
 78
     2
 67
     7
 79
     3
170
     0
171
     0
290
     0
174
     0
 93
        1
 44
0.0
173
     0
291
     0
 45
0.0
  0
VISUALSTYLE
  5
40
102
{ACAD_REACTORS
330
2A
102
}
102
{ACAD_XDICTIONARY
360
188
102
}
330
2A
100
AcDbVisualStyle
  2
X-Ray
 70
    25
 71
     2
 72
     2
 73
     1
 90
        1
 40
0.5
 41
30.0
 62
     5
 63
     7
421
 16777215
 74
     1
 91
        0
 64
     7
 65
   257
 75
     1
175
     1
 42
1.0
 92
        8
 66
     7
 43
1.0
 76
     1
 77
     6
 78
     2
 67
     7
 79
     3
170
     0
171
     0
290
     0
174
     0
 93
       13
 44
0.0
173
     0
291
     0
 45
0.0
  0
DICTIONARYVAR
  5
15C
102
{ACAD_REACTORS
330
15B
102
}
330
15B
100
DictionaryVariables
280
     0
  1
1:1
  0
DICTIONARYVAR
  5
198
102
{ACAD_REACTORS
330
15B
102
}
330
15B
100
DictionaryVariables
280
     0
  1
3.500000
  0
DICTIONARYVAR
  5
199
102
{ACAD_REACTORS
330
15B
102
}
330
15B
100
DictionaryVariables
280
     0
  1
acadiso.lin
  0
DICTIONARYVAR
  5
195
102
{ACAD_REACTORS
330
15B
102
}
330
15B
100
DictionaryVariables
280
     0
  1
Standard
  0
DICTIONARYVAR
  5
194
102
{ACAD_REACTORS
330
15B
102
}
330
15B
100
DictionaryVariables
280
     0
  1
Standard
  0
DICTIONARYVAR
  5
15D
102
{ACAD_REACTORS
330
15B
102
}
330
15B
100
DictionaryVariables
280
     0
  1
2
  0
DICTIONARY
  5
191
330
6C
100
AcDbDictionary
280
     1
281
     1
  3
ACAD_XREC_ROUNDTRIP
360
192
  0
DICTIONARY
  5
18E
330
6A
100
AcDbDictionary
280
     1
281
     1
  3
ACAD_ROUNDTRIP_2008_TABLESTYLE_CELLSTYLEMAP
360
18F
  0
DICTIONARY
  5
166
330
2F
100
AcDbDictionary
280
     1
281
     1
  3
ACAD_XREC_ROUNDTRIP
360
167
  0
DICTIONARY
  5
16C
330
32
100
AcDbDictionary
280
     1
281
     1
  3
ACAD_XREC_ROUNDTRIP
360
16D
  0
DICTIONARY
  5
174
330
36
100
AcDbDictionary
280
     1
281
     1
  3
ACAD_XREC_ROUNDTRIP
360
175
  0
DICTIONARY
  5
17C
330
3A
100
AcDbDictionary
280
     1
281
     1
  3
ACAD_XREC_ROUNDTRIP
360
17D
  0
DICTIONARY
  5
170
330
34
100
AcDbDictionary
280
     1
281
     1
  3
ACAD_XREC_ROUNDTRIP
360
171
  0
DICTIONARY
  5
172
330
35
100
AcDbDictionary
280
     1
281
     1
  3
ACAD_XREC_ROUNDTRIP
360
173
  0
DICTIONARY
  5
182
330
3D
100
AcDbDictionary
280
     1
281
     1
  3
ACAD_XREC_ROUNDTRIP
360
183
  0
DICTIONARY
  5
17A
330
39
100
AcDbDictionary
280
     1
281
     1
  3
ACAD_XREC_ROUNDTRIP
360
17B
  0
DICTIONARY
  5
15E
330
2B
100
AcDbDictionary
280
     1
281
     1
  3
ACAD_XREC_ROUNDTRIP
360
15F
  0
DICTIONARY
  5
160
330
2C
100
AcDbDictionary
280
     1
281
     1
  3
ACAD_XREC_ROUNDTRIP
360
161
  0
DICTIONARY
  5
162
330
2D
100
AcDbDictionary
280
     1
281
     1
  3
ACAD_XREC_ROUNDTRIP
360
163
  0
DICTIONARY
  5
164
330
2E
100
AcDbDictionary
280
     1
281
     1
  3
ACAD_XREC_ROUNDTRIP
360
165
  0
DICTIONARY
  5
16A
330
31
100
AcDbDictionary
280
     1
281
     1
  3
ACAD_XREC_ROUNDTRIP
360
16B
  0
DICTIONARY
  5
17E
330
3B
100
AcDbDictionary
280
     1
281
     1
  3
ACAD_XREC_ROUNDTRIP
360
17F
  0
DICTIONARY
  5
178
330
38
100
AcDbDictionary
280
     1
281
     1
  3
ACAD_XREC_ROUNDTRIP
360
179
  0
DICTIONARY
  5
180
330
3C
100
AcDbDictionary
280
     1
281
     1
  3
ACAD_XREC_ROUNDTRIP
360
181
  0
DICTIONARY
  5
16E
330
33
100
AcDbDictionary
280
     1
281
     1
  3
ACAD_XREC_ROUNDTRIP
360
16F
  0
DICTIONARY
  5
18C
330
42
100
AcDbDictionary
280
     1
281
     1
  3
ACAD_XREC_ROUNDTRIP
360
18D
  0
DICTIONARY
  5
18A
330
41
100
AcDbDictionary
280
     1
281
     1
  3
ACAD_XREC_ROUNDTRIP
360
18B
  0
DICTIONARY
  5
184
330
3E
100
AcDbDictionary
280
     1
281
     1
  3
ACAD_XREC_ROUNDTRIP
360
185
  0
DICTIONARY
  5
186
330
3F
100
AcDbDictionary
280
     1
281
     1
  3
ACAD_XREC_ROUNDTRIP
360
187
  0
DICTIONARY
  5
176
330
37
100
AcDbDictionary
280
     1
281
     1
  3
ACAD_XREC_ROUNDTRIP
360
177
  0
DICTIONARY
  5
168
330
30
100
AcDbDictionary
280
     1
281
     1
  3
ACAD_XREC_ROUNDTRIP
360
169
  0
DICTIONARY
  5
188
330
40
100
AcDbDictionary
280
     1
281
     1
  3
ACAD_XREC_ROUNDTRIP
360
189
  0
XRECORD
  5
192
102
{ACAD_REACTORS
330
191
102
}
330
191
100
AcDbXrecord
280
     1
102
ACAD_ROUNDTRIP_2010_MLEADER_STYLE
  0
CELLSTYLEMAP
  5
18F
102
{ACAD_REACTORS
330
18E
102
}
330
18E
100
AcDbCellStyleMap
 90
        3
300
CELLSTYLE
  1
TABLEFORMAT_BEGIN
 90
        5
170
     1
 91
        0
 92
    32768
 62
   257
 93
        1
300
CONTENTFORMAT
  1
CONTENTFORMAT_BEGIN
 90
        0
 91
        0
 92
        4
 93
        0
300

 40
0.0
140
1.0
 94
        5
 62
     0
340
11
144
6.0
309
CONTENTFORMAT_END
171
     1
301
MARGIN
  1
CELLMARGIN_BEGIN
 40
1.5
 40
1.5
 40
1.5
 40
1.5
 40
1.5
 40
1.5
309
CELLMARGIN_END
 94
        6
 95
        1
302
GRIDFORMAT
  1
GRIDFORMAT_BEGIN
 90
        0
 91
        1
 62
     0
 92
       -2
340
14
 93
        0
 40
0.045
309
GRIDFORMAT_END
 95
        2
302
GRIDFORMAT
  1
GRIDFORMAT_BEGIN
 90
        0
 91
        1
 62
     0
 92
       -2
340
14
 93
        0
 40
0.045
309
GRIDFORMAT_END
 95
        4
302
GRIDFORMAT
  1
GRIDFORMAT_BEGIN
 90
        0
 91
        1
 62
     0
 92
       -2
340
14
 93
        0
 40
0.045
309
GRIDFORMAT_END
 95
        8
302
GRIDFORMAT
  1
GRIDFORMAT_BEGIN
 90
        0
 91
        1
 62
     0
 92
       -2
340
14
 93
        0
 40
0.045
309
GRIDFORMAT_END
 95
       16
302
GRIDFORMAT
  1
GRIDFORMAT_BEGIN
 90
        0
 91
        1
 62
     0
 92
       -2
340
14
 93
        0
 40
0.045
309
GRIDFORMAT_END
 95
       32
302
GRIDFORMAT
  1
GRIDFORMAT_BEGIN
 90
        0
 91
        1
 62
     0
 92
       -2
340
14
 93
        0
 40
0.045
309
GRIDFORMAT_END
309
TABLEFORMAT_END
  1
CELLSTYLE_BEGIN
 90
        1
 91
        1
300
_TITLE
309
CELLSTYLE_END
300
CELLSTYLE
  1
TABLEFORMAT_BEGIN
 90
        5
170
     1
 91
        0
 92
        0
 62
   257
 93
        1
300
CONTENTFORMAT
  1
CONTENTFORMAT_BEGIN
 90
        0
 91
        0
 92
        4
 93
        0
300

 40
0.0
140
1.0
 94
        5
 62
     0
340
11
144
4.5
309
CONTENTFORMAT_END
171
     1
301
MARGIN
  1
CELLMARGIN_BEGIN
 40
1.5
 40
1.5
 40
1.5
 40
1.5
 40
1.5
 40
1.5
309
CELLMARGIN_END
 94
        6
 95
        1
302
GRIDFORMAT
  1
GRIDFORMAT_BEGIN
 90
        0
 91
        1
 62
     0
 92
       -2
340
14
 93
        0
 40
0.045
309
GRIDFORMAT_END
 95
        2
302
GRIDFORMAT
  1
GRIDFORMAT_BEGIN
 90
        0
 91
        1
 62
     0
 92
       -2
340
14
 93
        0
 40
0.045
309
GRIDFORMAT_END
 95
        4
302
GRIDFORMAT
  1
GRIDFORMAT_BEGIN
 90
        0
 91
        1
 62
     0
 92
       -2
340
14
 93
        0
 40
0.045
309
GRIDFORMAT_END
 95
        8
302
GRIDFORMAT
  1
GRIDFORMAT_BEGIN
 90
        0
 91
        1
 62
     0
 92
       -2
340
14
 93
        0
 40
0.045
309
GRIDFORMAT_END
 95
       16
302
GRIDFORMAT
  1
GRIDFORMAT_BEGIN
 90
        0
 91
        1
 62
     0
 92
       -2
340
14
 93
        0
 40
0.045
309
GRIDFORMAT_END
 95
       32
302
GRIDFORMAT
  1
GRIDFORMAT_BEGIN
 90
        0
 91
        1
 62
     0
 92
       -2
340
14
 93
        0
 40
0.045
309
GRIDFORMAT_END
309
TABLEFORMAT_END
  1
CELLSTYLE_BEGIN
 90
        2
 91
        1
300
_HEADER
309
CELLSTYLE_END
300
CELLSTYLE
  1
TABLEFORMAT_BEGIN
 90
        5
170
     1
 91
        0
 92
        0
 62
   257
 93
        1
300
CONTENTFORMAT
  1
CONTENTFORMAT_BEGIN
 90
        0
 91
        0
 92
        4
 93
        0
300

 40
0.0
140
1.0
 94
        2
 62
     0
340
11
144
4.5
309
CONTENTFORMAT_END
171
     1
301
MARGIN
  1
CELLMARGIN_BEGIN
 40
1.5
 40
1.5
 40
1.5
 40
1.5
 40
1.5
 40
1.5
309
CELLMARGIN_END
 94
        6
 95
        1
302
GRIDFORMAT
  1
GRIDFORMAT_BEGIN
 90
        0
 91
        1
 62
     0
 92
       -2
340
14
 93
        0
 40
0.045
309
GRIDFORMAT_END
 95
        2
302
GRIDFORMAT
  1
GRIDFORMAT_BEGIN
 90
        0
 91
        1
 62
     0
 92
       -2
340
14
 93
        0
 40
0.045
309
GRIDFORMAT_END
 95
        4
302
GRIDFORMAT
  1
GRIDFORMAT_BEGIN
 90
        0
 91
        1
 62
     0
 92
       -2
340
14
 93
        0
 40
0.045
309
GRIDFORMAT_END
 95
        8
302
GRIDFORMAT
  1
GRIDFORMAT_BEGIN
 90
        0
 91
        1
 62
     0
 92
       -2
340
14
 93
        0
 40
0.045
309
GRIDFORMAT_END
 95
       16
302
GRIDFORMAT
  1
GRIDFORMAT_BEGIN
 90
        0
 91
        1
 62
     0
 92
       -2
340
14
 93
        0
 40
0.045
309
GRIDFORMAT_END
 95
       32
302
GRIDFORMAT
  1
GRIDFORMAT_BEGIN
 90
        0
 91
        1
 62
     0
 92
       -2
340
14
 93
        0
 40
0.045
309
GRIDFORMAT_END
309
TABLEFORMAT_END
  1
CELLSTYLE_BEGIN
 90
        3
 91
        2
300
_DATA
309
CELLSTYLE_END
  0
XRECORD
  5
167
102
{ACAD_REACTORS
330
166
102
}
330
166
100
AcDbXrecord
280
     1
102
RTVSPropertyOp0
 70
     1
102
RTVSPropertyOp1
 70
     1
102
RTVSPropertyOp2
 70
     1
102
RTVSPropertyOp3
 70
     1
102
RTVSPropertyOp4
 70
     1
102
RTVSPropertyOp5
 70
     1
102
RTVSPropertyOp6
 70
     1
102
RTVSPropertyOp7
 70
     1
102
RTVSPropertyOp8
 70
     1
102
RTVSPropertyOp9
 70
     1
102
RTVSPropertyOp10
 70
     1
102
RTVSPropertyOp11
 70
     1
102
RTVSPropertyOp12
 70
     1
102
RTVSPropertyOp13
 70
     1
102
RTVSPropertyOp14
 70
     1
102
RTVSPropertyOp15
 70
     1
102
RTVSPropertyOp16
 70
     1
102
RTVSPropertyOp17
 70
     1
102
RTVSPropertyOp18
 70
     1
102
RTVSPropertyOp19
 70
     1
102
RTVSPropertyOp20
 70
     1
102
RTVSPropertyOp21
 70
     1
102
RTVSPropertyOp22
 70
     1
102
RTVSPropertyOp23
 70
     1
102
RTVSPropertyOp24
 70
     1
102
RTVSPropertyOp25
 70
     1
102
RTVSPropertyOp26
 70
     1
102
RTVSPropertyOp27
 70
     1
102
RTVSPropertyOp28
 70
     1
102
RTVSPropertyOp29
 70
     1
102
RTVSPropertyOp30
 70
     1
102
RTVSPropertyOp31
 70
     1
102
RTVSPropertyOp32
 70
     1
102
RTVSPropertyOp33
 70
     1
102
RTVSPropertyOp34
 70
     1
102
RTVSPropertyOp35
 70
     1
102
RTVSPropertyOp36
 70
     1
102
RTVSPropertyOp37
 70
     1
102
RTVSPropertyOp38
 70
     1
102
RTVSPropertyOp39
 70
     1
102
RTVSPropertyOp40
 70
     1
102
RTVSPropertyOp41
 70
     1
102
RTVSPropertyOp42
 70
     1
102
RTVSPropertyOp43
 70
     1
102
RTVSPropertyOp44
 70
     1
102
RTVSPropertyOp45
 70
     1
102
RTVSPropertyOp46
 70
     1
102
RTVSPropertyOp47
 70
     1
102
RTVSPropertyOp48
 70
     1
102
RTVSPropertyOp49
 70
     1
102
RTVSPropertyOp50
 70
     1
102
RTVSPropertyOp51
 70
     0
102
RTVSPropertyOp52
 70
     0
102
RTVSPropertyOp53
 70
     1
102
RTVSPropertyOp54
 70
     1
102
RTVSPropertyOp55
 70
     1
102
RTVSPropertyOp56
 70
     1
102
RTVSPropertyOp57
 70
     1
102
RTVSPost2010Prop28
280
     1
102
RTVSPost2010PropOp28
 70
     1
102
RTVSPost2010Prop29
280
     1
102
RTVSPost2010PropOp29
 70
     1
102
RTVSPost2010Prop30
280
     0
102
RTVSPost2010PropOp30
 70
     1
102
RTVSPost2010Prop31
280
     0
102
RTVSPost2010PropOp31
 70
     1
102
RTVSPost2010Prop32
280
     0
102
RTVSPost2010PropOp32
 70
     1
102
RTVSPost2010Prop33
280
     0
102
RTVSPost2010PropOp33
 70
     1
102
RTVSPost2010Prop34
280
     0
102
RTVSPost2010PropOp34
 70
     1
102
RTVSPost2010Prop35
280
     0
102
RTVSPost2010PropOp35
 70
     1
102
RTVSPost2010Prop36
280
     0
102
RTVSPost2010PropOp36
 70
     1
102
RTVSPost2010Prop37
 90
       50
102
RTVSPost2010PropOp37
 70
     1
102
RTVSPost2010Prop38
140
0.0
102
RTVSPost2010PropOp38
 70
     1
102
RTVSPost2010Prop39
140
1.0
102
RTVSPost2010PropOp39
 70
     1
102
RTVSPost2010Prop40
 90
        0
102
RTVSPost2010PropOp40
 70
     1
102
RTVSPost2010Prop41ColorIndex
 90
       18
102
RTVSPost2010Prop41ColorRGB
 90
        0
102
RTVSPost2010PropOp41
 70
     1
102
RTVSPost2010Prop42
 90
       50
102
RTVSPost2010PropOp42
 70
     1
102
RTVSPost2010Prop43
 90
        3
102
RTVSPost2010PropOp43
 70
     1
102
RTVSPost2010Prop44ColorIndex
 90
        5
102
RTVSPost2010Prop44ColorRGB
 90
      255
102
RTVSPost2010PropOp44
 70
     1
102
RTVSPost2010Prop45
280
     0
102
RTVSPost2010PropOp45
 70
     1
102
RTVSPost2010Prop46
 90
       50
102
RTVSPost2010PropOp46
 70
     1
102
RTVSPost2010Prop47
 90
       50
102
RTVSPost2010PropOp47
 70
     1
102
RTVSPost2010Prop48
 90
       50
102
RTVSPost2010PropOp48
 70
     1
102
RTVSPost2010Prop49
280
     0
102
RTVSPost2010PropOp49
 70
     1
102
RTVSPost2010Prop50
 90
       50
102
RTVSPost2010PropOp50
 70
     1
102
RTVSPost2010Prop51ColorIndex
 90
      256
102
RTVSPost2010Prop51ColorRGB
 90
-16777216
102
RTVSPost2010PropOp51
 70
     0
102
RTVSPost2010Prop52
140
1.0
102
RTVSPost2010PropOp52
 70
     0
102
RTVSPost2010Prop53
 90
        2
102
RTVSPost2010PropOp53
 70
     1
102
RTVSPost2010Prop54
  1
strokes_ogs.tif
102
RTVSPost2010PropOp54
 70
     1
102
RTVSPost2010Prop55
280
     0
102
RTVSPost2010PropOp55
 70
     1
102
RTVSPost2010Prop56
140
1.0
102
RTVSPost2010PropOp56
 70
     1
102
RTVSPost2010Prop57
140
1.0
102
RTVSPost2010PropOp57
 70
     1
  0
XRECORD
  5
16D
102
{ACAD_REACTORS
330
16C
102
}
330
16C
100
AcDbXrecord
280
     1
102
RTVSPropertyOp0
 70
     1
102
RTVSPropertyOp1
 70
     1
102
RTVSPropertyOp2
 70
     1
102
RTVSPropertyOp3
 70
     1
102
RTVSPropertyOp4
 70
     1
102
RTVSPropertyOp5
 70
     1
102
RTVSPropertyOp6
 70
     1
102
RTVSPropertyOp7
 70
     1
102
RTVSPropertyOp8
 70
     1
102
RTVSPropertyOp9
 70
     1
102
RTVSPropertyOp10
 70
     1
102
RTVSPropertyOp11
 70
     1
102
RTVSPropertyOp12
 70
     1
102
RTVSPropertyOp13
 70
     1
102
RTVSPropertyOp14
 70
     1
102
RTVSPropertyOp15
 70
     1
102
RTVSPropertyOp16
 70
     1
102
RTVSPropertyOp17
 70
     1
102
RTVSPropertyOp18
 70
     1
102
RTVSPropertyOp19
 70
     1
102
RTVSPropertyOp20
 70
     1
102
RTVSPropertyOp21
 70
     1
102
RTVSPropertyOp22
 70
     1
102
RTVSPropertyOp23
 70
     1
102
RTVSPropertyOp24
 70
     1
102
RTVSPropertyOp25
 70
     1
102
RTVSPropertyOp26
 70
     1
102
RTVSPropertyOp27
 70
     1
102
RTVSPropertyOp28
 70
     1
102
RTVSPropertyOp29
 70
     1
102
RTVSPropertyOp30
 70
     1
102
RTVSPropertyOp31
 70
     1
102
RTVSPropertyOp32
 70
     1
102
RTVSPropertyOp33
 70
     1
102
RTVSPropertyOp34
 70
     1
102
RTVSPropertyOp35
 70
     1
102
RTVSPropertyOp36
 70
     1
102
RTVSPropertyOp37
 70
     1
102
RTVSPropertyOp38
 70
     1
102
RTVSPropertyOp39
 70
     1
102
RTVSPropertyOp40
 70
     1
102
RTVSPropertyOp41
 70
     1
102
RTVSPropertyOp42
 70
     1
102
RTVSPropertyOp43
 70
     1
102
RTVSPropertyOp44
 70
     1
102
RTVSPropertyOp45
 70
     1
102
RTVSPropertyOp46
 70
     1
102
RTVSPropertyOp47
 70
     1
102
RTVSPropertyOp48
 70
     1
102
RTVSPropertyOp49
 70
     1
102
RTVSPropertyOp50
 70
     1
102
RTVSPropertyOp51
 70
     0
102
RTVSPropertyOp52
 70
     0
102
RTVSPropertyOp53
 70
     1
102
RTVSPropertyOp54
 70
     1
102
RTVSPropertyOp55
 70
     1
102
RTVSPropertyOp56
 70
     1
102
RTVSPropertyOp57
 70
     1
102
RTVSPost2010Prop28
280
     0
102
RTVSPost2010PropOp28
 70
     1
102
RTVSPost2010Prop29
280
     1
102
RTVSPost2010PropOp29
 70
     1
102
RTVSPost2010Prop30
280
     1
102
RTVSPost2010PropOp30
 70
     1
102
RTVSPost2010Prop31
280
     0
102
RTVSPost2010PropOp31
 70
     1
102
RTVSPost2010Prop32
280
     0
102
RTVSPost2010PropOp32
 70
     1
102
RTVSPost2010Prop33
280
     0
102
RTVSPost2010PropOp33
 70
     1
102
RTVSPost2010Prop34
280
     0
102
RTVSPost2010PropOp34
 70
     1
102
RTVSPost2010Prop35
280
     0
102
RTVSPost2010PropOp35
 70
     1
102
RTVSPost2010Prop36
280
     0
102
RTVSPost2010PropOp36
 70
     1
102
RTVSPost2010Prop37
 90
       50
102
RTVSPost2010PropOp37
 70
     1
102
RTVSPost2010Prop38
140
0.0
102
RTVSPost2010PropOp38
 70
     1
102
RTVSPost2010Prop39
140
1.0
102
RTVSPost2010PropOp39
 70
     1
102
RTVSPost2010Prop40
 90
        0
102
RTVSPost2010PropOp40
 70
     1
102
RTVSPost2010Prop41ColorIndex
 90
       18
102
RTVSPost2010Prop41ColorRGB
 90
        0
102
RTVSPost2010PropOp41
 70
     1
102
RTVSPost2010Prop42
 90
       50
102
RTVSPost2010PropOp42
 70
     1
102
RTVSPost2010Prop43
 90
        3
102
RTVSPost2010PropOp43
 70
     1
102
RTVSPost2010Prop44ColorIndex
 90
        5
102
RTVSPost2010Prop44ColorRGB
 90
      255
102
RTVSPost2010PropOp44
 70
     1
102
RTVSPost2010Prop45
280
     0
102
RTVSPost2010PropOp45
 70
     1
102
RTVSPost2010Prop46
 90
       50
102
RTVSPost2010PropOp46
 70
     1
102
RTVSPost2010Prop47
 90
       50
102
RTVSPost2010PropOp47
 70
     1
102
RTVSPost2010Prop48
 90
       50
102
RTVSPost2010PropOp48
 70
     1
102
RTVSPost2010Prop49
280
     0
102
RTVSPost2010PropOp49
 70
     1
102
RTVSPost2010Prop50
 90
       50
102
RTVSPost2010PropOp50
 70
     1
102
RTVSPost2010Prop51ColorIndex
 90
      256
102
RTVSPost2010Prop51ColorRGB
 90
-16777216
102
RTVSPost2010PropOp51
 70
     0
102
RTVSPost2010Prop52
140
1.0
102
RTVSPost2010PropOp52
 70
     0
102
RTVSPost2010Prop53
 90
        2
102
RTVSPost2010PropOp53
 70
     1
102
RTVSPost2010Prop54
  1
strokes_ogs.tif
102
RTVSPost2010PropOp54
 70
     1
102
RTVSPost2010Prop55
280
     0
102
RTVSPost2010PropOp55
 70
     1
102
RTVSPost2010Prop56
140
1.0
102
RTVSPost2010PropOp56
 70
     1
102
RTVSPost2010Prop57
140
1.0
102
RTVSPost2010PropOp57
 70
     1
  0
XRECORD
  5
175
102
{ACAD_REACTORS
330
174
102
}
330
174
100
AcDbXrecord
280
     1
102
RTVSPropertyOp0
 70
     1
102
RTVSPropertyOp1
 70
     1
102
RTVSPropertyOp2
 70
     1
102
RTVSPropertyOp3
 70
     1
102
RTVSPropertyOp4
 70
     1
102
RTVSPropertyOp5
 70
     1
102
RTVSPropertyOp6
 70
     1
102
RTVSPropertyOp7
 70
     1
102
RTVSPropertyOp8
 70
     1
102
RTVSPropertyOp9
 70
     1
102
RTVSPropertyOp10
 70
     1
102
RTVSPropertyOp11
 70
     1
102
RTVSPropertyOp12
 70
     1
102
RTVSPropertyOp13
 70
     1
102
RTVSPropertyOp14
 70
     1
102
RTVSPropertyOp15
 70
     1
102
RTVSPropertyOp16
 70
     1
102
RTVSPropertyOp17
 70
     1
102
RTVSPropertyOp18
 70
     1
102
RTVSPropertyOp19
 70
     1
102
RTVSPropertyOp20
 70
     1
102
RTVSPropertyOp21
 70
     1
102
RTVSPropertyOp22
 70
     1
102
RTVSPropertyOp23
 70
     1
102
RTVSPropertyOp24
 70
     1
102
RTVSPropertyOp25
 70
     1
102
RTVSPropertyOp26
 70
     1
102
RTVSPropertyOp27
 70
     1
102
RTVSPropertyOp28
 70
     1
102
RTVSPropertyOp29
 70
     1
102
RTVSPropertyOp30
 70
     1
102
RTVSPropertyOp31
 70
     1
102
RTVSPropertyOp32
 70
     1
102
RTVSPropertyOp33
 70
     1
102
RTVSPropertyOp34
 70
     1
102
RTVSPropertyOp35
 70
     1
102
RTVSPropertyOp36
 70
     1
102
RTVSPropertyOp37
 70
     1
102
RTVSPropertyOp38
 70
     1
102
RTVSPropertyOp39
 70
     1
102
RTVSPropertyOp40
 70
     1
102
RTVSPropertyOp41
 70
     1
102
RTVSPropertyOp42
 70
     1
102
RTVSPropertyOp43
 70
     1
102
RTVSPropertyOp44
 70
     1
102
RTVSPropertyOp45
 70
     1
102
RTVSPropertyOp46
 70
     1
102
RTVSPropertyOp47
 70
     1
102
RTVSPropertyOp48
 70
     1
102
RTVSPropertyOp49
 70
     1
102
RTVSPropertyOp50
 70
     1
102
RTVSPropertyOp51
 70
     0
102
RTVSPropertyOp52
 70
     0
102
RTVSPropertyOp53
 70
     1
102
RTVSPropertyOp54
 70
     1
102
RTVSPropertyOp55
 70
     1
102
RTVSPropertyOp56
 70
     1
102
RTVSPropertyOp57
 70
     1
102
RTVSPost2010Prop28
280
     0
102
RTVSPost2010PropOp28
 70
     1
102
RTVSPost2010Prop29
280
     1
102
RTVSPost2010PropOp29
 70
     1
102
RTVSPost2010Prop30
280
     1
102
RTVSPost2010PropOp30
 70
     1
102
RTVSPost2010Prop31
280
     0
102
RTVSPost2010PropOp31
 70
     1
102
RTVSPost2010Prop32
280
     0
102
RTVSPost2010PropOp32
 70
     1
102
RTVSPost2010Prop33
280
     0
102
RTVSPost2010PropOp33
 70
     1
102
RTVSPost2010Prop34
280
     0
102
RTVSPost2010PropOp34
 70
     1
102
RTVSPost2010Prop35
280
     0
102
RTVSPost2010PropOp35
 70
     1
102
RTVSPost2010Prop36
280
     0
102
RTVSPost2010PropOp36
 70
     1
102
RTVSPost2010Prop37
 90
       50
102
RTVSPost2010PropOp37
 70
     1
102
RTVSPost2010Prop38
140
0.0
102
RTVSPost2010PropOp38
 70
     1
102
RTVSPost2010Prop39
140
1.0
102
RTVSPost2010PropOp39
 70
     1
102
RTVSPost2010Prop40
 90
        0
102
RTVSPost2010PropOp40
 70
     1
102
RTVSPost2010Prop41ColorIndex
 90
       18
102
RTVSPost2010Prop41ColorRGB
 90
        0
102
RTVSPost2010PropOp41
 70
     1
102
RTVSPost2010Prop42
 90
       50
102
RTVSPost2010PropOp42
 70
     1
102
RTVSPost2010Prop43
 90
        3
102
RTVSPost2010PropOp43
 70
     1
102
RTVSPost2010Prop44ColorIndex
 90
        5
102
RTVSPost2010Prop44ColorRGB
 90
      255
102
RTVSPost2010PropOp44
 70
     1
102
RTVSPost2010Prop45
280
     0
102
RTVSPost2010PropOp45
 70
     1
102
RTVSPost2010Prop46
 90
       50
102
RTVSPost2010PropOp46
 70
     1
102
RTVSPost2010Prop47
 90
       50
102
RTVSPost2010PropOp47
 70
     1
102
RTVSPost2010Prop48
 90
       50
102
RTVSPost2010PropOp48
 70
     1
102
RTVSPost2010Prop49
280
     0
102
RTVSPost2010PropOp49
 70
     1
102
RTVSPost2010Prop50
 90
       50
102
RTVSPost2010PropOp50
 70
     1
102
RTVSPost2010Prop51ColorIndex
 90
      256
102
RTVSPost2010Prop51ColorRGB
 90
-16777216
102
RTVSPost2010PropOp51
 70
     0
102
RTVSPost2010Prop52
140
1.0
102
RTVSPost2010PropOp52
 70
     0
102
RTVSPost2010Prop53
 90
        2
102
RTVSPost2010PropOp53
 70
     1
102
RTVSPost2010Prop54
  1
strokes_ogs.tif
102
RTVSPost2010PropOp54
 70
     1
102
RTVSPost2010Prop55
280
     0
102
RTVSPost2010PropOp55
 70
     1
102
RTVSPost2010Prop56
140
1.0
102
RTVSPost2010PropOp56
 70
     1
102
RTVSPost2010Prop57
140
1.0
102
RTVSPost2010PropOp57
 70
     1
  0
XRECORD
  5
17D
102
{ACAD_REACTORS
330
17C
102
}
330
17C
100
AcDbXrecord
280
     1
102
RTVSPropertyOp0
 70
     1
102
RTVSPropertyOp1
 70
     1
102
RTVSPropertyOp2
 70
     1
102
RTVSPropertyOp3
 70
     1
102
RTVSPropertyOp4
 70
     1
102
RTVSPropertyOp5
 70
     1
102
RTVSPropertyOp6
 70
     1
102
RTVSPropertyOp7
 70
     1
102
RTVSPropertyOp8
 70
     1
102
RTVSPropertyOp9
 70
     1
102
RTVSPropertyOp10
 70
     1
102
RTVSPropertyOp11
 70
     1
102
RTVSPropertyOp12
 70
     1
102
RTVSPropertyOp13
 70
     1
102
RTVSPropertyOp14
 70
     1
102
RTVSPropertyOp15
 70
     1
102
RTVSPropertyOp16
 70
     1
102
RTVSPropertyOp17
 70
     1
102
RTVSPropertyOp18
 70
     1
102
RTVSPropertyOp19
 70
     1
102
RTVSPropertyOp20
 70
     1
102
RTVSPropertyOp21
 70
     1
102
RTVSPropertyOp22
 70
     1
102
RTVSPropertyOp23
 70
     1
102
RTVSPropertyOp24
 70
     1
102
RTVSPropertyOp25
 70
     1
102
RTVSPropertyOp26
 70
     1
102
RTVSPropertyOp27
 70
     1
102
RTVSPropertyOp28
 70
     1
102
RTVSPropertyOp29
 70
     1
102
RTVSPropertyOp30
 70
     1
102
RTVSPropertyOp31
 70
     1
102
RTVSPropertyOp32
 70
     1
102
RTVSPropertyOp33
 70
     1
102
RTVSPropertyOp34
 70
     1
102
RTVSPropertyOp35
 70
     1
102
RTVSPropertyOp36
 70
     1
102
RTVSPropertyOp37
 70
     1
102
RTVSPropertyOp38
 70
     1
102
RTVSPropertyOp39
 70
     1
102
RTVSPropertyOp40
 70
     1
102
RTVSPropertyOp41
 70
     1
102
RTVSPropertyOp42
 70
     1
102
RTVSPropertyOp43
 70
     1
102
RTVSPropertyOp44
 70
     1
102
RTVSPropertyOp45
 70
     1
102
RTVSPropertyOp46
 70
     1
102
RTVSPropertyOp47
 70
     1
102
RTVSPropertyOp48
 70
     1
102
RTVSPropertyOp49
 70
     1
102
RTVSPropertyOp50
 70
     1
102
RTVSPropertyOp51
 70
     0
102
RTVSPropertyOp52
 70
     0
102
RTVSPropertyOp53
 70
     1
102
RTVSPropertyOp54
 70
     1
102
RTVSPropertyOp55
 70
     1
102
RTVSPropertyOp56
 70
     1
102
RTVSPropertyOp57
 70
     1
102
RTVSPost2010Prop28
280
     0
102
RTVSPost2010PropOp28
 70
     1
102
RTVSPost2010Prop29
280
     1
102
RTVSPost2010PropOp29
 70
     1
102
RTVSPost2010Prop30
280
     1
102
RTVSPost2010PropOp30
 70
     1
102
RTVSPost2010Prop31
280
     0
102
RTVSPost2010PropOp31
 70
     1
102
RTVSPost2010Prop32
280
     0
102
RTVSPost2010PropOp32
 70
     1
102
RTVSPost2010Prop33
280
     0
102
RTVSPost2010PropOp33
 70
     1
102
RTVSPost2010Prop34
280
     0
102
RTVSPost2010PropOp34
 70
     1
102
RTVSPost2010Prop35
280
     0
102
RTVSPost2010PropOp35
 70
     1
102
RTVSPost2010Prop36
280
     0
102
RTVSPost2010PropOp36
 70
     1
102
RTVSPost2010Prop37
 90
       50
102
RTVSPost2010PropOp37
 70
     1
102
RTVSPost2010Prop38
140
0.0
102
RTVSPost2010PropOp38
 70
     1
102
RTVSPost2010Prop39
140
1.0
102
RTVSPost2010PropOp39
 70
     1
102
RTVSPost2010Prop40
 90
        0
102
RTVSPost2010PropOp40
 70
     1
102
RTVSPost2010Prop41ColorIndex
 90
       18
102
RTVSPost2010Prop41ColorRGB
 90
        0
102
RTVSPost2010PropOp41
 70
     1
102
RTVSPost2010Prop42
 90
       50
102
RTVSPost2010PropOp42
 70
     1
102
RTVSPost2010Prop43
 90
        3
102
RTVSPost2010PropOp43
 70
     1
102
RTVSPost2010Prop44ColorIndex
 90
        5
102
RTVSPost2010Prop44ColorRGB
 90
      255
102
RTVSPost2010PropOp44
 70
     1
102
RTVSPost2010Prop45
280
     0
102
RTVSPost2010PropOp45
 70
     1
102
RTVSPost2010Prop46
 90
       50
102
RTVSPost2010PropOp46
 70
     1
102
RTVSPost2010Prop47
 90
       50
102
RTVSPost2010PropOp47
 70
     1
102
RTVSPost2010Prop48
 90
       50
102
RTVSPost2010PropOp48
 70
     1
102
RTVSPost2010Prop49
280
     0
102
RTVSPost2010PropOp49
 70
     1
102
RTVSPost2010Prop50
 90
       50
102
RTVSPost2010PropOp50
 70
     1
102
RTVSPost2010Prop51ColorIndex
 90
      256
102
RTVSPost2010Prop51ColorRGB
 90
-16777216
102
RTVSPost2010PropOp51
 70
     0
102
RTVSPost2010Prop52
140
1.0
102
RTVSPost2010PropOp52
 70
     0
102
RTVSPost2010Prop53
 90
        2
102
RTVSPost2010PropOp53
 70
     1
102
RTVSPost2010Prop54
  1
strokes_ogs.tif
102
RTVSPost2010PropOp54
 70
     1
102
RTVSPost2010Prop55
280
     0
102
RTVSPost2010PropOp55
 70
     1
102
RTVSPost2010Prop56
140
1.0
102
RTVSPost2010PropOp56
 70
     1
102
RTVSPost2010Prop57
140
1.0
102
RTVSPost2010PropOp57
 70
     1
  0
XRECORD
  5
171
102
{ACAD_REACTORS
330
170
102
}
330
170
100
AcDbXrecord
280
     1
102
RTVSPropertyOp0
 70
     1
102
RTVSPropertyOp1
 70
     1
102
RTVSPropertyOp2
 70
     1
102
RTVSPropertyOp3
 70
     1
102
RTVSPropertyOp4
 70
     1
102
RTVSPropertyOp5
 70
     1
102
RTVSPropertyOp6
 70
     1
102
RTVSPropertyOp7
 70
     1
102
RTVSPropertyOp8
 70
     1
102
RTVSPropertyOp9
 70
     1
102
RTVSPropertyOp10
 70
     1
102
RTVSPropertyOp11
 70
     1
102
RTVSPropertyOp12
 70
     1
102
RTVSPropertyOp13
 70
     1
102
RTVSPropertyOp14
 70
     1
102
RTVSPropertyOp15
 70
     1
102
RTVSPropertyOp16
 70
     1
102
RTVSPropertyOp17
 70
     1
102
RTVSPropertyOp18
 70
     1
102
RTVSPropertyOp19
 70
     1
102
RTVSPropertyOp20
 70
     1
102
RTVSPropertyOp21
 70
     1
102
RTVSPropertyOp22
 70
     1
102
RTVSPropertyOp23
 70
     1
102
RTVSPropertyOp24
 70
     1
102
RTVSPropertyOp25
 70
     1
102
RTVSPropertyOp26
 70
     1
102
RTVSPropertyOp27
 70
     1
102
RTVSPropertyOp28
 70
     1
102
RTVSPropertyOp29
 70
     1
102
RTVSPropertyOp30
 70
     1
102
RTVSPropertyOp31
 70
     1
102
RTVSPropertyOp32
 70
     1
102
RTVSPropertyOp33
 70
     1
102
RTVSPropertyOp34
 70
     1
102
RTVSPropertyOp35
 70
     1
102
RTVSPropertyOp36
 70
     1
102
RTVSPropertyOp37
 70
     1
102
RTVSPropertyOp38
 70
     1
102
RTVSPropertyOp39
 70
     1
102
RTVSPropertyOp40
 70
     1
102
RTVSPropertyOp41
 70
     1
102
RTVSPropertyOp42
 70
     1
102
RTVSPropertyOp43
 70
     1
102
RTVSPropertyOp44
 70
     1
102
RTVSPropertyOp45
 70
     1
102
RTVSPropertyOp46
 70
     1
102
RTVSPropertyOp47
 70
     1
102
RTVSPropertyOp48
 70
     1
102
RTVSPropertyOp49
 70
     1
102
RTVSPropertyOp50
 70
     1
102
RTVSPropertyOp51
 70
     0
102
RTVSPropertyOp52
 70
     0
102
RTVSPropertyOp53
 70
     1
102
RTVSPropertyOp54
 70
     1
102
RTVSPropertyOp55
 70
     1
102
RTVSPropertyOp56
 70
     1
102
RTVSPropertyOp57
 70
     1
102
RTVSPost2010Prop28
280
     0
102
RTVSPost2010PropOp28
 70
     1
102
RTVSPost2010Prop29
280
     1
102
RTVSPost2010PropOp29
 70
     1
102
RTVSPost2010Prop30
280
     1
102
RTVSPost2010PropOp30
 70
     1
102
RTVSPost2010Prop31
280
     0
102
RTVSPost2010PropOp31
 70
     1
102
RTVSPost2010Prop32
280
     0
102
RTVSPost2010PropOp32
 70
     1
102
RTVSPost2010Prop33
280
     0
102
RTVSPost2010PropOp33
 70
     1
102
RTVSPost2010Prop34
280
     0
102
RTVSPost2010PropOp34
 70
     1
102
RTVSPost2010Prop35
280
     0
102
RTVSPost2010PropOp35
 70
     1
102
RTVSPost2010Prop36
280
     0
102
RTVSPost2010PropOp36
 70
     1
102
RTVSPost2010Prop37
 90
       50
102
RTVSPost2010PropOp37
 70
     1
102
RTVSPost2010Prop38
140
0.0
102
RTVSPost2010PropOp38
 70
     1
102
RTVSPost2010Prop39
140
1.0
102
RTVSPost2010PropOp39
 70
     1
102
RTVSPost2010Prop40
 90
        0
102
RTVSPost2010PropOp40
 70
     1
102
RTVSPost2010Prop41ColorIndex
 90
       18
102
RTVSPost2010Prop41ColorRGB
 90
        0
102
RTVSPost2010PropOp41
 70
     1
102
RTVSPost2010Prop42
 90
       50
102
RTVSPost2010PropOp42
 70
     1
102
RTVSPost2010Prop43
 90
        3
102
RTVSPost2010PropOp43
 70
     1
102
RTVSPost2010Prop44ColorIndex
 90
        5
102
RTVSPost2010Prop44ColorRGB
 90
      255
102
RTVSPost2010PropOp44
 70
     1
102
RTVSPost2010Prop45
280
     0
102
RTVSPost2010PropOp45
 70
     1
102
RTVSPost2010Prop46
 90
       50
102
RTVSPost2010PropOp46
 70
     1
102
RTVSPost2010Prop47
 90
       50
102
RTVSPost2010PropOp47
 70
     1
102
RTVSPost2010Prop48
 90
       50
102
RTVSPost2010PropOp48
 70
     1
102
RTVSPost2010Prop49
280
     0
102
RTVSPost2010PropOp49
 70
     1
102
RTVSPost2010Prop50
 90
       50
102
RTVSPost2010PropOp50
 70
     1
102
RTVSPost2010Prop51ColorIndex
 90
      256
102
RTVSPost2010Prop51ColorRGB
 90
-16777216
102
RTVSPost2010PropOp51
 70
     0
102
RTVSPost2010Prop52
140
1.0
102
RTVSPost2010PropOp52
 70
     0
102
RTVSPost2010Prop53
 90
        2
102
RTVSPost2010PropOp53
 70
     1
102
RTVSPost2010Prop54
  1
strokes_ogs.tif
102
RTVSPost2010PropOp54
 70
     1
102
RTVSPost2010Prop55
280
     0
102
RTVSPost2010PropOp55
 70
     1
102
RTVSPost2010Prop56
140
1.0
102
RTVSPost2010PropOp56
 70
     1
102
RTVSPost2010Prop57
140
1.0
102
RTVSPost2010PropOp57
 70
     1
  0
XRECORD
  5
173
102
{ACAD_REACTORS
330
172
102
}
330
172
100
AcDbXrecord
280
     1
102
RTVSPropertyOp0
 70
     1
102
RTVSPropertyOp1
 70
     1
102
RTVSPropertyOp2
 70
     1
102
RTVSPropertyOp3
 70
     1
102
RTVSPropertyOp4
 70
     1
102
RTVSPropertyOp5
 70
     1
102
RTVSPropertyOp6
 70
     1
102
RTVSPropertyOp7
 70
     1
102
RTVSPropertyOp8
 70
     1
102
RTVSPropertyOp9
 70
     1
102
RTVSPropertyOp10
 70
     1
102
RTVSPropertyOp11
 70
     1
102
RTVSPropertyOp12
 70
     1
102
RTVSPropertyOp13
 70
     1
102
RTVSPropertyOp14
 70
     1
102
RTVSPropertyOp15
 70
     1
102
RTVSPropertyOp16
 70
     1
102
RTVSPropertyOp17
 70
     1
102
RTVSPropertyOp18
 70
     1
102
RTVSPropertyOp19
 70
     1
102
RTVSPropertyOp20
 70
     1
102
RTVSPropertyOp21
 70
     1
102
RTVSPropertyOp22
 70
     1
102
RTVSPropertyOp23
 70
     1
102
RTVSPropertyOp24
 70
     1
102
RTVSPropertyOp25
 70
     1
102
RTVSPropertyOp26
 70
     1
102
RTVSPropertyOp27
 70
     1
102
RTVSPropertyOp28
 70
     1
102
RTVSPropertyOp29
 70
     1
102
RTVSPropertyOp30
 70
     1
102
RTVSPropertyOp31
 70
     1
102
RTVSPropertyOp32
 70
     1
102
RTVSPropertyOp33
 70
     1
102
RTVSPropertyOp34
 70
     1
102
RTVSPropertyOp35
 70
     1
102
RTVSPropertyOp36
 70
     1
102
RTVSPropertyOp37
 70
     1
102
RTVSPropertyOp38
 70
     1
102
RTVSPropertyOp39
 70
     1
102
RTVSPropertyOp40
 70
     1
102
RTVSPropertyOp41
 70
     1
102
RTVSPropertyOp42
 70
     1
102
RTVSPropertyOp43
 70
     1
102
RTVSPropertyOp44
 70
     1
102
RTVSPropertyOp45
 70
     1
102
RTVSPropertyOp46
 70
     1
102
RTVSPropertyOp47
 70
     1
102
RTVSPropertyOp48
 70
     1
102
RTVSPropertyOp49
 70
     1
102
RTVSPropertyOp50
 70
     1
102
RTVSPropertyOp51
 70
     0
102
RTVSPropertyOp52
 70
     0
102
RTVSPropertyOp53
 70
     1
102
RTVSPropertyOp54
 70
     1
102
RTVSPropertyOp55
 70
     1
102
RTVSPropertyOp56
 70
     1
102
RTVSPropertyOp57
 70
     1
102
RTVSPost2010Prop28
280
     0
102
RTVSPost2010PropOp28
 70
     1
102
RTVSPost2010Prop29
280
     1
102
RTVSPost2010PropOp29
 70
     1
102
RTVSPost2010Prop30
280
     1
102
RTVSPost2010PropOp30
 70
     1
102
RTVSPost2010Prop31
280
     0
102
RTVSPost2010PropOp31
 70
     1
102
RTVSPost2010Prop32
280
     0
102
RTVSPost2010PropOp32
 70
     1
102
RTVSPost2010Prop33
280
     0
102
RTVSPost2010PropOp33
 70
     1
102
RTVSPost2010Prop34
280
     0
102
RTVSPost2010PropOp34
 70
     1
102
RTVSPost2010Prop35
280
     0
102
RTVSPost2010PropOp35
 70
     1
102
RTVSPost2010Prop36
280
     0
102
RTVSPost2010PropOp36
 70
     1
102
RTVSPost2010Prop37
 90
       50
102
RTVSPost2010PropOp37
 70
     1
102
RTVSPost2010Prop38
140
0.0
102
RTVSPost2010PropOp38
 70
     1
102
RTVSPost2010Prop39
140
1.0
102
RTVSPost2010PropOp39
 70
     1
102
RTVSPost2010Prop40
 90
        0
102
RTVSPost2010PropOp40
 70
     1
102
RTVSPost2010Prop41ColorIndex
 90
       18
102
RTVSPost2010Prop41ColorRGB
 90
        0
102
RTVSPost2010PropOp41
 70
     1
102
RTVSPost2010Prop42
 90
       50
102
RTVSPost2010PropOp42
 70
     1
102
RTVSPost2010Prop43
 90
        3
102
RTVSPost2010PropOp43
 70
     1
102
RTVSPost2010Prop44ColorIndex
 90
        5
102
RTVSPost2010Prop44ColorRGB
 90
      255
102
RTVSPost2010PropOp44
 70
     1
102
RTVSPost2010Prop45
280
     0
102
RTVSPost2010PropOp45
 70
     1
102
RTVSPost2010Prop46
 90
       50
102
RTVSPost2010PropOp46
 70
     1
102
RTVSPost2010Prop47
 90
       50
102
RTVSPost2010PropOp47
 70
     1
102
RTVSPost2010Prop48
 90
       50
102
RTVSPost2010PropOp48
 70
     1
102
RTVSPost2010Prop49
280
     0
102
RTVSPost2010PropOp49
 70
     1
102
RTVSPost2010Prop50
 90
       50
102
RTVSPost2010PropOp50
 70
     1
102
RTVSPost2010Prop51ColorIndex
 90
      256
102
RTVSPost2010Prop51ColorRGB
 90
-16777216
102
RTVSPost2010PropOp51
 70
     0
102
RTVSPost2010Prop52
140
1.0
102
RTVSPost2010PropOp52
 70
     0
102
RTVSPost2010Prop53
 90
        2
102
RTVSPost2010PropOp53
 70
     1
102
RTVSPost2010Prop54
  1
strokes_ogs.tif
102
RTVSPost2010PropOp54
 70
     1
102
RTVSPost2010Prop55
280
     0
102
RTVSPost2010PropOp55
 70
     1
102
RTVSPost2010Prop56
140
1.0
102
RTVSPost2010PropOp56
 70
     1
102
RTVSPost2010Prop57
140
1.0
102
RTVSPost2010PropOp57
 70
     1
  0
XRECORD
  5
183
102
{ACAD_REACTORS
330
182
102
}
330
182
100
AcDbXrecord
280
     1
102
RTVSPropertyOp0
 70
     0
102
RTVSPropertyOp1
 70
     0
102
RTVSPropertyOp2
 70
     0
102
RTVSPropertyOp3
 70
     0
102
RTVSPropertyOp4
 70
     0
102
RTVSPropertyOp5
 70
     0
102
RTVSPropertyOp6
 70
     0
102
RTVSPropertyOp7
 70
     0
102
RTVSPropertyOp8
 70
     0
102
RTVSPropertyOp9
 70
     0
102
RTVSPropertyOp10
 70
     0
102
RTVSPropertyOp11
 70
     0
102
RTVSPropertyOp12
 70
     0
102
RTVSPropertyOp13
 70
     0
102
RTVSPropertyOp14
 70
     2
102
RTVSPropertyOp15
 70
     0
102
RTVSPropertyOp16
 70
     0
102
RTVSPropertyOp17
 70
     0
102
RTVSPropertyOp18
 70
     0
102
RTVSPropertyOp19
 70
     0
102
RTVSPropertyOp20
 70
     0
102
RTVSPropertyOp21
 70
     0
102
RTVSPropertyOp22
 70
     0
102
RTVSPropertyOp23
 70
     0
102
RTVSPropertyOp24
 70
     0
102
RTVSPropertyOp25
 70
     0
102
RTVSPropertyOp26
 70
     0
102
RTVSPropertyOp27
 70
     0
102
RTVSPropertyOp28
 70
     0
102
RTVSPropertyOp29
 70
     0
102
RTVSPropertyOp30
 70
     0
102
RTVSPropertyOp31
 70
     0
102
RTVSPropertyOp32
 70
     0
102
RTVSPropertyOp33
 70
     0
102
RTVSPropertyOp34
 70
     0
102
RTVSPropertyOp35
 70
     0
102
RTVSPropertyOp36
 70
     0
102
RTVSPropertyOp37
 70
     0
102
RTVSPropertyOp38
 70
     0
102
RTVSPropertyOp39
 70
     0
102
RTVSPropertyOp40
 70
     0
102
RTVSPropertyOp41
 70
     0
102
RTVSPropertyOp42
 70
     0
102
RTVSPropertyOp43
 70
     0
102
RTVSPropertyOp44
 70
     0
102
RTVSPropertyOp45
 70
     0
102
RTVSPropertyOp46
 70
     0
102
RTVSPropertyOp47
 70
     0
102
RTVSPropertyOp48
 70
     0
102
RTVSPropertyOp49
 70
     0
102
RTVSPropertyOp50
 70
     0
102
RTVSPropertyOp51
 70
     0
102
RTVSPropertyOp52
 70
     0
102
RTVSPropertyOp53
 70
     0
102
RTVSPropertyOp54
 70
     0
102
RTVSPropertyOp55
 70
     0
102
RTVSPropertyOp56
 70
     0
102
RTVSPropertyOp57
 70
     0
102
RTVSPost2010Prop28
280
     0
102
RTVSPost2010PropOp28
 70
     0
102
RTVSPost2010Prop29
280
     1
102
RTVSPost2010PropOp29
 70
     0
102
RTVSPost2010Prop30
280
     1
102
RTVSPost2010PropOp30
 70
     0
102
RTVSPost2010Prop31
280
     0
102
RTVSPost2010PropOp31
 70
     0
102
RTVSPost2010Prop32
280
     0
102
RTVSPost2010PropOp32
 70
     0
102
RTVSPost2010Prop33
280
     0
102
RTVSPost2010PropOp33
 70
     0
102
RTVSPost2010Prop34
280
     0
102
RTVSPost2010PropOp34
 70
     0
102
RTVSPost2010Prop35
280
     0
102
RTVSPost2010PropOp35
 70
     0
102
RTVSPost2010Prop36
280
     0
102
RTVSPost2010PropOp36
 70
     0
102
RTVSPost2010Prop37
 90
       50
102
RTVSPost2010PropOp37
 70
     0
102
RTVSPost2010Prop38
140
0.0
102
RTVSPost2010PropOp38
 70
     0
102
RTVSPost2010Prop39
140
1.0
102
RTVSPost2010PropOp39
 70
     0
102
RTVSPost2010Prop40
 90
        0
102
RTVSPost2010PropOp40
 70
     0
102
RTVSPost2010Prop41ColorIndex
 90
       18
102
RTVSPost2010Prop41ColorRGB
 90
        0
102
RTVSPost2010PropOp41
 70
     0
102
RTVSPost2010Prop42
 90
       50
102
RTVSPost2010PropOp42
 70
     0
102
RTVSPost2010Prop43
 90
        3
102
RTVSPost2010PropOp43
 70
     0
102
RTVSPost2010Prop44ColorIndex
 90
        5
102
RTVSPost2010Prop44ColorRGB
 90
      255
102
RTVSPost2010PropOp44
 70
     0
102
RTVSPost2010Prop45
280
     0
102
RTVSPost2010PropOp45
 70
     0
102
RTVSPost2010Prop46
 90
       50
102
RTVSPost2010PropOp46
 70
     0
102
RTVSPost2010Prop47
 90
       50
102
RTVSPost2010PropOp47
 70
     0
102
RTVSPost2010Prop48
 90
       50
102
RTVSPost2010PropOp48
 70
     0
102
RTVSPost2010Prop49
280
     0
102
RTVSPost2010PropOp49
 70
     0
102
RTVSPost2010Prop50
 90
       50
102
RTVSPost2010PropOp50
 70
     0
102
RTVSPost2010Prop51ColorIndex
 90
      256
102
RTVSPost2010Prop51ColorRGB
 90
-16777216
102
RTVSPost2010PropOp51
 70
     0
102
RTVSPost2010Prop52
140
1.0
102
RTVSPost2010PropOp52
 70
     0
102
RTVSPost2010Prop53
 90
        2
102
RTVSPost2010PropOp53
 70
     0
102
RTVSPost2010Prop54
  1
strokes_ogs.tif
102
RTVSPost2010PropOp54
 70
     0
102
RTVSPost2010Prop55
280
     0
102
RTVSPost2010PropOp55
 70
     0
102
RTVSPost2010Prop56
140
1.0
102
RTVSPost2010PropOp56
 70
     0
102
RTVSPost2010Prop57
140
1.0
102
RTVSPost2010PropOp57
 70
     0
  0
XRECORD
  5
17B
102
{ACAD_REACTORS
330
17A
102
}
330
17A
100
AcDbXrecord
280
     1
102
RTVSPropertyOp0
 70
     1
102
RTVSPropertyOp1
 70
     1
102
RTVSPropertyOp2
 70
     1
102
RTVSPropertyOp3
 70
     1
102
RTVSPropertyOp4
 70
     1
102
RTVSPropertyOp5
 70
     1
102
RTVSPropertyOp6
 70
     1
102
RTVSPropertyOp7
 70
     1
102
RTVSPropertyOp8
 70
     1
102
RTVSPropertyOp9
 70
     1
102
RTVSPropertyOp10
 70
     1
102
RTVSPropertyOp11
 70
     1
102
RTVSPropertyOp12
 70
     1
102
RTVSPropertyOp13
 70
     1
102
RTVSPropertyOp14
 70
     1
102
RTVSPropertyOp15
 70
     1
102
RTVSPropertyOp16
 70
     1
102
RTVSPropertyOp17
 70
     1
102
RTVSPropertyOp18
 70
     1
102
RTVSPropertyOp19
 70
     1
102
RTVSPropertyOp20
 70
     1
102
RTVSPropertyOp21
 70
     1
102
RTVSPropertyOp22
 70
     1
102
RTVSPropertyOp23
 70
     1
102
RTVSPropertyOp24
 70
     1
102
RTVSPropertyOp25
 70
     1
102
RTVSPropertyOp26
 70
     1
102
RTVSPropertyOp27
 70
     1
102
RTVSPropertyOp28
 70
     1
102
RTVSPropertyOp29
 70
     1
102
RTVSPropertyOp30
 70
     1
102
RTVSPropertyOp31
 70
     1
102
RTVSPropertyOp32
 70
     1
102
RTVSPropertyOp33
 70
     1
102
RTVSPropertyOp34
 70
     1
102
RTVSPropertyOp35
 70
     1
102
RTVSPropertyOp36
 70
     1
102
RTVSPropertyOp37
 70
     1
102
RTVSPropertyOp38
 70
     1
102
RTVSPropertyOp39
 70
     1
102
RTVSPropertyOp40
 70
     1
102
RTVSPropertyOp41
 70
     1
102
RTVSPropertyOp42
 70
     1
102
RTVSPropertyOp43
 70
     1
102
RTVSPropertyOp44
 70
     1
102
RTVSPropertyOp45
 70
     1
102
RTVSPropertyOp46
 70
     1
102
RTVSPropertyOp47
 70
     1
102
RTVSPropertyOp48
 70
     1
102
RTVSPropertyOp49
 70
     1
102
RTVSPropertyOp50
 70
     1
102
RTVSPropertyOp51
 70
     0
102
RTVSPropertyOp52
 70
     0
102
RTVSPropertyOp53
 70
     1
102
RTVSPropertyOp54
 70
     1
102
RTVSPropertyOp55
 70
     1
102
RTVSPropertyOp56
 70
     1
102
RTVSPropertyOp57
 70
     1
102
RTVSPost2010Prop28
280
     0
102
RTVSPost2010PropOp28
 70
     1
102
RTVSPost2010Prop29
280
     1
102
RTVSPost2010PropOp29
 70
     1
102
RTVSPost2010Prop30
280
     1
102
RTVSPost2010PropOp30
 70
     1
102
RTVSPost2010Prop31
280
     0
102
RTVSPost2010PropOp31
 70
     1
102
RTVSPost2010Prop32
280
     0
102
RTVSPost2010PropOp32
 70
     1
102
RTVSPost2010Prop33
280
     0
102
RTVSPost2010PropOp33
 70
     1
102
RTVSPost2010Prop34
280
     0
102
RTVSPost2010PropOp34
 70
     1
102
RTVSPost2010Prop35
280
     0
102
RTVSPost2010PropOp35
 70
     1
102
RTVSPost2010Prop36
280
     0
102
RTVSPost2010PropOp36
 70
     1
102
RTVSPost2010Prop37
 90
       50
102
RTVSPost2010PropOp37
 70
     1
102
RTVSPost2010Prop38
140
0.0
102
RTVSPost2010PropOp38
 70
     1
102
RTVSPost2010Prop39
140
1.0
102
RTVSPost2010PropOp39
 70
     1
102
RTVSPost2010Prop40
 90
        0
102
RTVSPost2010PropOp40
 70
     1
102
RTVSPost2010Prop41ColorIndex
 90
       18
102
RTVSPost2010Prop41ColorRGB
 90
        0
102
RTVSPost2010PropOp41
 70
     1
102
RTVSPost2010Prop42
 90
       50
102
RTVSPost2010PropOp42
 70
     1
102
RTVSPost2010Prop43
 90
        3
102
RTVSPost2010PropOp43
 70
     1
102
RTVSPost2010Prop44ColorIndex
 90
        5
102
RTVSPost2010Prop44ColorRGB
 90
      255
102
RTVSPost2010PropOp44
 70
     1
102
RTVSPost2010Prop45
280
     0
102
RTVSPost2010PropOp45
 70
     1
102
RTVSPost2010Prop46
 90
       50
102
RTVSPost2010PropOp46
 70
     1
102
RTVSPost2010Prop47
 90
       50
102
RTVSPost2010PropOp47
 70
     1
102
RTVSPost2010Prop48
 90
       50
102
RTVSPost2010PropOp48
 70
     1
102
RTVSPost2010Prop49
280
     0
102
RTVSPost2010PropOp49
 70
     1
102
RTVSPost2010Prop50
 90
       50
102
RTVSPost2010PropOp50
 70
     1
102
RTVSPost2010Prop51ColorIndex
 90
      256
102
RTVSPost2010Prop51ColorRGB
 90
-16777216
102
RTVSPost2010PropOp51
 70
     0
102
RTVSPost2010Prop52
140
1.0
102
RTVSPost2010PropOp52
 70
     0
102
RTVSPost2010Prop53
 90
        2
102
RTVSPost2010PropOp53
 70
     1
102
RTVSPost2010Prop54
  1
strokes_ogs.tif
102
RTVSPost2010PropOp54
 70
     1
102
RTVSPost2010Prop55
280
     0
102
RTVSPost2010PropOp55
 70
     1
102
RTVSPost2010Prop56
140
1.0
102
RTVSPost2010PropOp56
 70
     1
102
RTVSPost2010Prop57
140
1.0
102
RTVSPost2010PropOp57
 70
     1
  0
XRECORD
  5
15F
102
{ACAD_REACTORS
330
15E
102
}
330
15E
100
AcDbXrecord
280
     1
102
RTVSPropertyOp0
 70
     1
102
RTVSPropertyOp1
 70
     1
102
RTVSPropertyOp2
 70
     1
102
RTVSPropertyOp3
 70
     1
102
RTVSPropertyOp4
 70
     1
102
RTVSPropertyOp5
 70
     1
102
RTVSPropertyOp6
 70
     1
102
RTVSPropertyOp7
 70
     1
102
RTVSPropertyOp8
 70
     1
102
RTVSPropertyOp9
 70
     1
102
RTVSPropertyOp10
 70
     1
102
RTVSPropertyOp11
 70
     1
102
RTVSPropertyOp12
 70
     1
102
RTVSPropertyOp13
 70
     1
102
RTVSPropertyOp14
 70
     1
102
RTVSPropertyOp15
 70
     1
102
RTVSPropertyOp16
 70
     1
102
RTVSPropertyOp17
 70
     1
102
RTVSPropertyOp18
 70
     1
102
RTVSPropertyOp19
 70
     1
102
RTVSPropertyOp20
 70
     1
102
RTVSPropertyOp21
 70
     1
102
RTVSPropertyOp22
 70
     1
102
RTVSPropertyOp23
 70
     1
102
RTVSPropertyOp24
 70
     1
102
RTVSPropertyOp25
 70
     1
102
RTVSPropertyOp26
 70
     1
102
RTVSPropertyOp27
 70
     1
102
RTVSPropertyOp28
 70
     1
102
RTVSPropertyOp29
 70
     1
102
RTVSPropertyOp30
 70
     1
102
RTVSPropertyOp31
 70
     1
102
RTVSPropertyOp32
 70
     1
102
RTVSPropertyOp33
 70
     1
102
RTVSPropertyOp34
 70
     1
102
RTVSPropertyOp35
 70
     1
102
RTVSPropertyOp36
 70
     1
102
RTVSPropertyOp37
 70
     1
102
RTVSPropertyOp38
 70
     1
102
RTVSPropertyOp39
 70
     1
102
RTVSPropertyOp40
 70
     1
102
RTVSPropertyOp41
 70
     1
102
RTVSPropertyOp42
 70
     1
102
RTVSPropertyOp43
 70
     1
102
RTVSPropertyOp44
 70
     1
102
RTVSPropertyOp45
 70
     1
102
RTVSPropertyOp46
 70
     1
102
RTVSPropertyOp47
 70
     1
102
RTVSPropertyOp48
 70
     1
102
RTVSPropertyOp49
 70
     1
102
RTVSPropertyOp50
 70
     1
102
RTVSPropertyOp51
 70
     0
102
RTVSPropertyOp52
 70
     0
102
RTVSPropertyOp53
 70
     1
102
RTVSPropertyOp54
 70
     1
102
RTVSPropertyOp55
 70
     1
102
RTVSPropertyOp56
 70
     1
102
RTVSPropertyOp57
 70
     1
102
RTVSPost2010Prop28
280
     0
102
RTVSPost2010PropOp28
 70
     1
102
RTVSPost2010Prop29
280
     1
102
RTVSPost2010PropOp29
 70
     1
102
RTVSPost2010Prop30
280
     1
102
RTVSPost2010PropOp30
 70
     1
102
RTVSPost2010Prop31
280
     0
102
RTVSPost2010PropOp31
 70
     1
102
RTVSPost2010Prop32
280
     0
102
RTVSPost2010PropOp32
 70
     1
102
RTVSPost2010Prop33
280
     0
102
RTVSPost2010PropOp33
 70
     1
102
RTVSPost2010Prop34
280
     0
102
RTVSPost2010PropOp34
 70
     1
102
RTVSPost2010Prop35
280
     0
102
RTVSPost2010PropOp35
 70
     1
102
RTVSPost2010Prop36
280
     0
102
RTVSPost2010PropOp36
 70
     1
102
RTVSPost2010Prop37
 90
       50
102
RTVSPost2010PropOp37
 70
     1
102
RTVSPost2010Prop38
140
0.0
102
RTVSPost2010PropOp38
 70
     1
102
RTVSPost2010Prop39
140
1.0
102
RTVSPost2010PropOp39
 70
     1
102
RTVSPost2010Prop40
 90
        0
102
RTVSPost2010PropOp40
 70
     1
102
RTVSPost2010Prop41ColorIndex
 90
       18
102
RTVSPost2010Prop41ColorRGB
 90
        0
102
RTVSPost2010PropOp41
 70
     1
102
RTVSPost2010Prop42
 90
       50
102
RTVSPost2010PropOp42
 70
     1
102
RTVSPost2010Prop43
 90
        3
102
RTVSPost2010PropOp43
 70
     1
102
RTVSPost2010Prop44ColorIndex
 90
        5
102
RTVSPost2010Prop44ColorRGB
 90
      255
102
RTVSPost2010PropOp44
 70
     1
102
RTVSPost2010Prop45
280
     0
102
RTVSPost2010PropOp45
 70
     1
102
RTVSPost2010Prop46
 90
       50
102
RTVSPost2010PropOp46
 70
     1
102
RTVSPost2010Prop47
 90
       50
102
RTVSPost2010PropOp47
 70
     1
102
RTVSPost2010Prop48
 90
       50
102
RTVSPost2010PropOp48
 70
     1
102
RTVSPost2010Prop49
280
     0
102
RTVSPost2010PropOp49
 70
     1
102
RTVSPost2010Prop50
 90
       50
102
RTVSPost2010PropOp50
 70
     1
102
RTVSPost2010Prop51ColorIndex
 90
      256
102
RTVSPost2010Prop51ColorRGB
 90
-16777216
102
RTVSPost2010PropOp51
 70
     0
102
RTVSPost2010Prop52
140
1.0
102
RTVSPost2010PropOp52
 70
     0
102
RTVSPost2010Prop53
 90
        2
102
RTVSPost2010PropOp53
 70
     1
102
RTVSPost2010Prop54
  1
strokes_ogs.tif
102
RTVSPost2010PropOp54
 70
     1
102
RTVSPost2010Prop55
280
     0
102
RTVSPost2010PropOp55
 70
     1
102
RTVSPost2010Prop56
140
1.0
102
RTVSPost2010PropOp56
 70
     1
102
RTVSPost2010Prop57
140
1.0
102
RTVSPost2010PropOp57
 70
     1
  0
XRECORD
  5
161
102
{ACAD_REACTORS
330
160
102
}
330
160
100
AcDbXrecord
280
     1
102
RTVSPropertyOp0
 70
     1
102
RTVSPropertyOp1
 70
     1
102
RTVSPropertyOp2
 70
     1
102
RTVSPropertyOp3
 70
     1
102
RTVSPropertyOp4
 70
     1
102
RTVSPropertyOp5
 70
     1
102
RTVSPropertyOp6
 70
     1
102
RTVSPropertyOp7
 70
     1
102
RTVSPropertyOp8
 70
     1
102
RTVSPropertyOp9
 70
     1
102
RTVSPropertyOp10
 70
     1
102
RTVSPropertyOp11
 70
     1
102
RTVSPropertyOp12
 70
     1
102
RTVSPropertyOp13
 70
     1
102
RTVSPropertyOp14
 70
     1
102
RTVSPropertyOp15
 70
     1
102
RTVSPropertyOp16
 70
     1
102
RTVSPropertyOp17
 70
     1
102
RTVSPropertyOp18
 70
     1
102
RTVSPropertyOp19
 70
     1
102
RTVSPropertyOp20
 70
     1
102
RTVSPropertyOp21
 70
     1
102
RTVSPropertyOp22
 70
     1
102
RTVSPropertyOp23
 70
     1
102
RTVSPropertyOp24
 70
     1
102
RTVSPropertyOp25
 70
     1
102
RTVSPropertyOp26
 70
     1
102
RTVSPropertyOp27
 70
     1
102
RTVSPropertyOp28
 70
     1
102
RTVSPropertyOp29
 70
     1
102
RTVSPropertyOp30
 70
     1
102
RTVSPropertyOp31
 70
     1
102
RTVSPropertyOp32
 70
     1
102
RTVSPropertyOp33
 70
     1
102
RTVSPropertyOp34
 70
     1
102
RTVSPropertyOp35
 70
     1
102
RTVSPropertyOp36
 70
     1
102
RTVSPropertyOp37
 70
     1
102
RTVSPropertyOp38
 70
     1
102
RTVSPropertyOp39
 70
     1
102
RTVSPropertyOp40
 70
     1
102
RTVSPropertyOp41
 70
     1
102
RTVSPropertyOp42
 70
     1
102
RTVSPropertyOp43
 70
     1
102
RTVSPropertyOp44
 70
     1
102
RTVSPropertyOp45
 70
     1
102
RTVSPropertyOp46
 70
     1
102
RTVSPropertyOp47
 70
     1
102
RTVSPropertyOp48
 70
     1
102
RTVSPropertyOp49
 70
     1
102
RTVSPropertyOp50
 70
     1
102
RTVSPropertyOp51
 70
     0
102
RTVSPropertyOp52
 70
     0
102
RTVSPropertyOp53
 70
     1
102
RTVSPropertyOp54
 70
     1
102
RTVSPropertyOp55
 70
     1
102
RTVSPropertyOp56
 70
     1
102
RTVSPropertyOp57
 70
     1
102
RTVSPost2010Prop28
280
     0
102
RTVSPost2010PropOp28
 70
     1
102
RTVSPost2010Prop29
280
     1
102
RTVSPost2010PropOp29
 70
     1
102
RTVSPost2010Prop30
280
     1
102
RTVSPost2010PropOp30
 70
     1
102
RTVSPost2010Prop31
280
     0
102
RTVSPost2010PropOp31
 70
     1
102
RTVSPost2010Prop32
280
     0
102
RTVSPost2010PropOp32
 70
     1
102
RTVSPost2010Prop33
280
     0
102
RTVSPost2010PropOp33
 70
     1
102
RTVSPost2010Prop34
280
     0
102
RTVSPost2010PropOp34
 70
     1
102
RTVSPost2010Prop35
280
     0
102
RTVSPost2010PropOp35
 70
     1
102
RTVSPost2010Prop36
280
     0
102
RTVSPost2010PropOp36
 70
     1
102
RTVSPost2010Prop37
 90
       50
102
RTVSPost2010PropOp37
 70
     1
102
RTVSPost2010Prop38
140
0.0
102
RTVSPost2010PropOp38
 70
     1
102
RTVSPost2010Prop39
140
1.0
102
RTVSPost2010PropOp39
 70
     1
102
RTVSPost2010Prop40
 90
        0
102
RTVSPost2010PropOp40
 70
     1
102
RTVSPost2010Prop41ColorIndex
 90
       18
102
RTVSPost2010Prop41ColorRGB
 90
        0
102
RTVSPost2010PropOp41
 70
     1
102
RTVSPost2010Prop42
 90
       50
102
RTVSPost2010PropOp42
 70
     1
102
RTVSPost2010Prop43
 90
        3
102
RTVSPost2010PropOp43
 70
     1
102
RTVSPost2010Prop44ColorIndex
 90
        5
102
RTVSPost2010Prop44ColorRGB
 90
      255
102
RTVSPost2010PropOp44
 70
     1
102
RTVSPost2010Prop45
280
     0
102
RTVSPost2010PropOp45
 70
     1
102
RTVSPost2010Prop46
 90
       50
102
RTVSPost2010PropOp46
 70
     1
102
RTVSPost2010Prop47
 90
       50
102
RTVSPost2010PropOp47
 70
     1
102
RTVSPost2010Prop48
 90
       50
102
RTVSPost2010PropOp48
 70
     1
102
RTVSPost2010Prop49
280
     0
102
RTVSPost2010PropOp49
 70
     1
102
RTVSPost2010Prop50
 90
       50
102
RTVSPost2010PropOp50
 70
     1
102
RTVSPost2010Prop51ColorIndex
 90
      256
102
RTVSPost2010Prop51ColorRGB
 90
-16777216
102
RTVSPost2010PropOp51
 70
     0
102
RTVSPost2010Prop52
140
1.0
102
RTVSPost2010PropOp52
 70
     0
102
RTVSPost2010Prop53
 90
        2
102
RTVSPost2010PropOp53
 70
     1
102
RTVSPost2010Prop54
  1
strokes_ogs.tif
102
RTVSPost2010PropOp54
 70
     1
102
RTVSPost2010Prop55
280
     0
102
RTVSPost2010PropOp55
 70
     1
102
RTVSPost2010Prop56
140
1.0
102
RTVSPost2010PropOp56
 70
     1
102
RTVSPost2010Prop57
140
1.0
102
RTVSPost2010PropOp57
 70
     1
  0
XRECORD
  5
163
102
{ACAD_REACTORS
330
162
102
}
330
162
100
AcDbXrecord
280
     1
102
RTVSPropertyOp0
 70
     1
102
RTVSPropertyOp1
 70
     1
102
RTVSPropertyOp2
 70
     1
102
RTVSPropertyOp3
 70
     1
102
RTVSPropertyOp4
 70
     1
102
RTVSPropertyOp5
 70
     1
102
RTVSPropertyOp6
 70
     1
102
RTVSPropertyOp7
 70
     1
102
RTVSPropertyOp8
 70
     1
102
RTVSPropertyOp9
 70
     1
102
RTVSPropertyOp10
 70
     1
102
RTVSPropertyOp11
 70
     1
102
RTVSPropertyOp12
 70
     1
102
RTVSPropertyOp13
 70
     1
102
RTVSPropertyOp14
 70
     1
102
RTVSPropertyOp15
 70
     1
102
RTVSPropertyOp16
 70
     1
102
RTVSPropertyOp17
 70
     1
102
RTVSPropertyOp18
 70
     1
102
RTVSPropertyOp19
 70
     1
102
RTVSPropertyOp20
 70
     1
102
RTVSPropertyOp21
 70
     1
102
RTVSPropertyOp22
 70
     1
102
RTVSPropertyOp23
 70
     1
102
RTVSPropertyOp24
 70
     1
102
RTVSPropertyOp25
 70
     1
102
RTVSPropertyOp26
 70
     1
102
RTVSPropertyOp27
 70
     1
102
RTVSPropertyOp28
 70
     1
102
RTVSPropertyOp29
 70
     1
102
RTVSPropertyOp30
 70
     1
102
RTVSPropertyOp31
 70
     1
102
RTVSPropertyOp32
 70
     1
102
RTVSPropertyOp33
 70
     1
102
RTVSPropertyOp34
 70
     1
102
RTVSPropertyOp35
 70
     1
102
RTVSPropertyOp36
 70
     1
102
RTVSPropertyOp37
 70
     1
102
RTVSPropertyOp38
 70
     1
102
RTVSPropertyOp39
 70
     1
102
RTVSPropertyOp40
 70
     1
102
RTVSPropertyOp41
 70
     1
102
RTVSPropertyOp42
 70
     1
102
RTVSPropertyOp43
 70
     1
102
RTVSPropertyOp44
 70
     1
102
RTVSPropertyOp45
 70
     1
102
RTVSPropertyOp46
 70
     1
102
RTVSPropertyOp47
 70
     1
102
RTVSPropertyOp48
 70
     1
102
RTVSPropertyOp49
 70
     1
102
RTVSPropertyOp50
 70
     1
102
RTVSPropertyOp51
 70
     0
102
RTVSPropertyOp52
 70
     0
102
RTVSPropertyOp53
 70
     1
102
RTVSPropertyOp54
 70
     1
102
RTVSPropertyOp55
 70
     1
102
RTVSPropertyOp56
 70
     1
102
RTVSPropertyOp57
 70
     1
102
RTVSPost2010Prop28
280
     0
102
RTVSPost2010PropOp28
 70
     1
102
RTVSPost2010Prop29
280
     1
102
RTVSPost2010PropOp29
 70
     1
102
RTVSPost2010Prop30
280
     1
102
RTVSPost2010PropOp30
 70
     1
102
RTVSPost2010Prop31
280
     0
102
RTVSPost2010PropOp31
 70
     1
102
RTVSPost2010Prop32
280
     0
102
RTVSPost2010PropOp32
 70
     1
102
RTVSPost2010Prop33
280
     0
102
RTVSPost2010PropOp33
 70
     1
102
RTVSPost2010Prop34
280
     0
102
RTVSPost2010PropOp34
 70
     1
102
RTVSPost2010Prop35
280
     0
102
RTVSPost2010PropOp35
 70
     1
102
RTVSPost2010Prop36
280
     0
102
RTVSPost2010PropOp36
 70
     1
102
RTVSPost2010Prop37
 90
       50
102
RTVSPost2010PropOp37
 70
     1
102
RTVSPost2010Prop38
140
0.0
102
RTVSPost2010PropOp38
 70
     1
102
RTVSPost2010Prop39
140
1.0
102
RTVSPost2010PropOp39
 70
     1
102
RTVSPost2010Prop40
 90
        0
102
RTVSPost2010PropOp40
 70
     1
102
RTVSPost2010Prop41ColorIndex
 90
       18
102
RTVSPost2010Prop41ColorRGB
 90
        0
102
RTVSPost2010PropOp41
 70
     1
102
RTVSPost2010Prop42
 90
       50
102
RTVSPost2010PropOp42
 70
     1
102
RTVSPost2010Prop43
 90
        3
102
RTVSPost2010PropOp43
 70
     1
102
RTVSPost2010Prop44ColorIndex
 90
        5
102
RTVSPost2010Prop44ColorRGB
 90
      255
102
RTVSPost2010PropOp44
 70
     1
102
RTVSPost2010Prop45
280
     0
102
RTVSPost2010PropOp45
 70
     1
102
RTVSPost2010Prop46
 90
       50
102
RTVSPost2010PropOp46
 70
     1
102
RTVSPost2010Prop47
 90
       50
102
RTVSPost2010PropOp47
 70
     1
102
RTVSPost2010Prop48
 90
       50
102
RTVSPost2010PropOp48
 70
     1
102
RTVSPost2010Prop49
280
     0
102
RTVSPost2010PropOp49
 70
     1
102
RTVSPost2010Prop50
 90
       50
102
RTVSPost2010PropOp50
 70
     1
102
RTVSPost2010Prop51ColorIndex
 90
      256
102
RTVSPost2010Prop51ColorRGB
 90
-16777216
102
RTVSPost2010PropOp51
 70
     0
102
RTVSPost2010Prop52
140
1.0
102
RTVSPost2010PropOp52
 70
     0
102
RTVSPost2010Prop53
 90
        2
102
RTVSPost2010PropOp53
 70
     1
102
RTVSPost2010Prop54
  1
strokes_ogs.tif
102
RTVSPost2010PropOp54
 70
     1
102
RTVSPost2010Prop55
280
     0
102
RTVSPost2010PropOp55
 70
     1
102
RTVSPost2010Prop56
140
1.0
102
RTVSPost2010PropOp56
 70
     1
102
RTVSPost2010Prop57
140
1.0
102
RTVSPost2010PropOp57
 70
     1
  0
XRECORD
  5
165
102
{ACAD_REACTORS
330
164
102
}
330
164
100
AcDbXrecord
280
     1
102
RTVSPropertyOp0
 70
     1
102
RTVSPropertyOp1
 70
     1
102
RTVSPropertyOp2
 70
     1
102
RTVSPropertyOp3
 70
     1
102
RTVSPropertyOp4
 70
     1
102
RTVSPropertyOp5
 70
     1
102
RTVSPropertyOp6
 70
     1
102
RTVSPropertyOp7
 70
     1
102
RTVSPropertyOp8
 70
     1
102
RTVSPropertyOp9
 70
     1
102
RTVSPropertyOp10
 70
     1
102
RTVSPropertyOp11
 70
     1
102
RTVSPropertyOp12
 70
     1
102
RTVSPropertyOp13
 70
     1
102
RTVSPropertyOp14
 70
     1
102
RTVSPropertyOp15
 70
     1
102
RTVSPropertyOp16
 70
     1
102
RTVSPropertyOp17
 70
     1
102
RTVSPropertyOp18
 70
     1
102
RTVSPropertyOp19
 70
     1
102
RTVSPropertyOp20
 70
     1
102
RTVSPropertyOp21
 70
     1
102
RTVSPropertyOp22
 70
     1
102
RTVSPropertyOp23
 70
     1
102
RTVSPropertyOp24
 70
     1
102
RTVSPropertyOp25
 70
     1
102
RTVSPropertyOp26
 70
     1
102
RTVSPropertyOp27
 70
     1
102
RTVSPropertyOp28
 70
     1
102
RTVSPropertyOp29
 70
     1
102
RTVSPropertyOp30
 70
     1
102
RTVSPropertyOp31
 70
     1
102
RTVSPropertyOp32
 70
     1
102
RTVSPropertyOp33
 70
     1
102
RTVSPropertyOp34
 70
     1
102
RTVSPropertyOp35
 70
     1
102
RTVSPropertyOp36
 70
     1
102
RTVSPropertyOp37
 70
     1
102
RTVSPropertyOp38
 70
     1
102
RTVSPropertyOp39
 70
     1
102
RTVSPropertyOp40
 70
     1
102
RTVSPropertyOp41
 70
     1
102
RTVSPropertyOp42
 70
     1
102
RTVSPropertyOp43
 70
     1
102
RTVSPropertyOp44
 70
     1
102
RTVSPropertyOp45
 70
     1
102
RTVSPropertyOp46
 70
     1
102
RTVSPropertyOp47
 70
     1
102
RTVSPropertyOp48
 70
     1
102
RTVSPropertyOp49
 70
     1
102
RTVSPropertyOp50
 70
     1
102
RTVSPropertyOp51
 70
     0
102
RTVSPropertyOp52
 70
     0
102
RTVSPropertyOp53
 70
     1
102
RTVSPropertyOp54
 70
     1
102
RTVSPropertyOp55
 70
     1
102
RTVSPropertyOp56
 70
     1
102
RTVSPropertyOp57
 70
     1
102
RTVSPost2010Prop28
280
     0
102
RTVSPost2010PropOp28
 70
     1
102
RTVSPost2010Prop29
280
     1
102
RTVSPost2010PropOp29
 70
     1
102
RTVSPost2010Prop30
280
     1
102
RTVSPost2010PropOp30
 70
     1
102
RTVSPost2010Prop31
280
     0
102
RTVSPost2010PropOp31
 70
     1
102
RTVSPost2010Prop32
280
     0
102
RTVSPost2010PropOp32
 70
     1
102
RTVSPost2010Prop33
280
     0
102
RTVSPost2010PropOp33
 70
     1
102
RTVSPost2010Prop34
280
     0
102
RTVSPost2010PropOp34
 70
     1
102
RTVSPost2010Prop35
280
     0
102
RTVSPost2010PropOp35
 70
     1
102
RTVSPost2010Prop36
280
     0
102
RTVSPost2010PropOp36
 70
     1
102
RTVSPost2010Prop37
 90
       50
102
RTVSPost2010PropOp37
 70
     1
102
RTVSPost2010Prop38
140
0.0
102
RTVSPost2010PropOp38
 70
     1
102
RTVSPost2010Prop39
140
1.0
102
RTVSPost2010PropOp39
 70
     1
102
RTVSPost2010Prop40
 90
        0
102
RTVSPost2010PropOp40
 70
     1
102
RTVSPost2010Prop41ColorIndex
 90
       18
102
RTVSPost2010Prop41ColorRGB
 90
        0
102
RTVSPost2010PropOp41
 70
     1
102
RTVSPost2010Prop42
 90
       50
102
RTVSPost2010PropOp42
 70
     1
102
RTVSPost2010Prop43
 90
        3
102
RTVSPost2010PropOp43
 70
     1
102
RTVSPost2010Prop44ColorIndex
 90
        5
102
RTVSPost2010Prop44ColorRGB
 90
      255
102
RTVSPost2010PropOp44
 70
     1
102
RTVSPost2010Prop45
280
     0
102
RTVSPost2010PropOp45
 70
     1
102
RTVSPost2010Prop46
 90
       50
102
RTVSPost2010PropOp46
 70
     1
102
RTVSPost2010Prop47
 90
       50
102
RTVSPost2010PropOp47
 70
     1
102
RTVSPost2010Prop48
 90
       50
102
RTVSPost2010PropOp48
 70
     1
102
RTVSPost2010Prop49
280
     0
102
RTVSPost2010PropOp49
 70
     1
102
RTVSPost2010Prop50
 90
       50
102
RTVSPost2010PropOp50
 70
     1
102
RTVSPost2010Prop51ColorIndex
 90
      256
102
RTVSPost2010Prop51ColorRGB
 90
-16777216
102
RTVSPost2010PropOp51
 70
     0
102
RTVSPost2010Prop52
140
1.0
102
RTVSPost2010PropOp52
 70
     0
102
RTVSPost2010Prop53
 90
        2
102
RTVSPost2010PropOp53
 70
     1
102
RTVSPost2010Prop54
  1
strokes_ogs.tif
102
RTVSPost2010PropOp54
 70
     1
102
RTVSPost2010Prop55
280
     0
102
RTVSPost2010PropOp55
 70
     1
102
RTVSPost2010Prop56
140
1.0
102
RTVSPost2010PropOp56
 70
     1
102
RTVSPost2010Prop57
140
1.0
102
RTVSPost2010PropOp57
 70
     1
  0
XRECORD
  5
16B
102
{ACAD_REACTORS
330
16A
102
}
330
16A
100
AcDbXrecord
280
     1
102
RTVSPropertyOp0
 70
     1
102
RTVSPropertyOp1
 70
     1
102
RTVSPropertyOp2
 70
     1
102
RTVSPropertyOp3
 70
     1
102
RTVSPropertyOp4
 70
     1
102
RTVSPropertyOp5
 70
     1
102
RTVSPropertyOp6
 70
     1
102
RTVSPropertyOp7
 70
     1
102
RTVSPropertyOp8
 70
     1
102
RTVSPropertyOp9
 70
     1
102
RTVSPropertyOp10
 70
     1
102
RTVSPropertyOp11
 70
     1
102
RTVSPropertyOp12
 70
     1
102
RTVSPropertyOp13
 70
     1
102
RTVSPropertyOp14
 70
     1
102
RTVSPropertyOp15
 70
     1
102
RTVSPropertyOp16
 70
     1
102
RTVSPropertyOp17
 70
     1
102
RTVSPropertyOp18
 70
     1
102
RTVSPropertyOp19
 70
     1
102
RTVSPropertyOp20
 70
     1
102
RTVSPropertyOp21
 70
     1
102
RTVSPropertyOp22
 70
     1
102
RTVSPropertyOp23
 70
     1
102
RTVSPropertyOp24
 70
     1
102
RTVSPropertyOp25
 70
     1
102
RTVSPropertyOp26
 70
     1
102
RTVSPropertyOp27
 70
     1
102
RTVSPropertyOp28
 70
     1
102
RTVSPropertyOp29
 70
     1
102
RTVSPropertyOp30
 70
     1
102
RTVSPropertyOp31
 70
     1
102
RTVSPropertyOp32
 70
     1
102
RTVSPropertyOp33
 70
     1
102
RTVSPropertyOp34
 70
     1
102
RTVSPropertyOp35
 70
     1
102
RTVSPropertyOp36
 70
     1
102
RTVSPropertyOp37
 70
     1
102
RTVSPropertyOp38
 70
     1
102
RTVSPropertyOp39
 70
     1
102
RTVSPropertyOp40
 70
     1
102
RTVSPropertyOp41
 70
     1
102
RTVSPropertyOp42
 70
     1
102
RTVSPropertyOp43
 70
     1
102
RTVSPropertyOp44
 70
     1
102
RTVSPropertyOp45
 70
     1
102
RTVSPropertyOp46
 70
     1
102
RTVSPropertyOp47
 70
     1
102
RTVSPropertyOp48
 70
     1
102
RTVSPropertyOp49
 70
     1
102
RTVSPropertyOp50
 70
     1
102
RTVSPropertyOp51
 70
     0
102
RTVSPropertyOp52
 70
     0
102
RTVSPropertyOp53
 70
     1
102
RTVSPropertyOp54
 70
     1
102
RTVSPropertyOp55
 70
     1
102
RTVSPropertyOp56
 70
     1
102
RTVSPropertyOp57
 70
     1
102
RTVSPost2010Prop28
280
     0
102
RTVSPost2010PropOp28
 70
     1
102
RTVSPost2010Prop29
280
     1
102
RTVSPost2010PropOp29
 70
     1
102
RTVSPost2010Prop30
280
     1
102
RTVSPost2010PropOp30
 70
     1
102
RTVSPost2010Prop31
280
     0
102
RTVSPost2010PropOp31
 70
     1
102
RTVSPost2010Prop32
280
     0
102
RTVSPost2010PropOp32
 70
     1
102
RTVSPost2010Prop33
280
     0
102
RTVSPost2010PropOp33
 70
     1
102
RTVSPost2010Prop34
280
     0
102
RTVSPost2010PropOp34
 70
     1
102
RTVSPost2010Prop35
280
     0
102
RTVSPost2010PropOp35
 70
     1
102
RTVSPost2010Prop36
280
     0
102
RTVSPost2010PropOp36
 70
     1
102
RTVSPost2010Prop37
 90
       50
102
RTVSPost2010PropOp37
 70
     1
102
RTVSPost2010Prop38
140
0.0
102
RTVSPost2010PropOp38
 70
     1
102
RTVSPost2010Prop39
140
1.0
102
RTVSPost2010PropOp39
 70
     1
102
RTVSPost2010Prop40
 90
        0
102
RTVSPost2010PropOp40
 70
     1
102
RTVSPost2010Prop41ColorIndex
 90
       18
102
RTVSPost2010Prop41ColorRGB
 90
        0
102
RTVSPost2010PropOp41
 70
     1
102
RTVSPost2010Prop42
 90
       50
102
RTVSPost2010PropOp42
 70
     1
102
RTVSPost2010Prop43
 90
        3
102
RTVSPost2010PropOp43
 70
     1
102
RTVSPost2010Prop44ColorIndex
 90
        5
102
RTVSPost2010Prop44ColorRGB
 90
      255
102
RTVSPost2010PropOp44
 70
     1
102
RTVSPost2010Prop45
280
     0
102
RTVSPost2010PropOp45
 70
     1
102
RTVSPost2010Prop46
 90
       50
102
RTVSPost2010PropOp46
 70
     1
102
RTVSPost2010Prop47
 90
       50
102
RTVSPost2010PropOp47
 70
     1
102
RTVSPost2010Prop48
 90
       50
102
RTVSPost2010PropOp48
 70
     1
102
RTVSPost2010Prop49
280
     0
102
RTVSPost2010PropOp49
 70
     1
102
RTVSPost2010Prop50
 90
       50
102
RTVSPost2010PropOp50
 70
     1
102
RTVSPost2010Prop51ColorIndex
 90
      256
102
RTVSPost2010Prop51ColorRGB
 90
-16777216
102
RTVSPost2010PropOp51
 70
     0
102
RTVSPost2010Prop52
140
1.0
102
RTVSPost2010PropOp52
 70
     0
102
RTVSPost2010Prop53
 90
        2
102
RTVSPost2010PropOp53
 70
     1
102
RTVSPost2010Prop54
  1
strokes_ogs.tif
102
RTVSPost2010PropOp54
 70
     1
102
RTVSPost2010Prop55
280
     0
102
RTVSPost2010PropOp55
 70
     1
102
RTVSPost2010Prop56
140
1.0
102
RTVSPost2010PropOp56
 70
     1
102
RTVSPost2010Prop57
140
1.0
102
RTVSPost2010PropOp57
 70
     1
  0
XRECORD
  5
17F
102
{ACAD_REACTORS
330
17E
102
}
330
17E
100
AcDbXrecord
280
     1
102
RTVSPropertyOp0
 70
     0
102
RTVSPropertyOp1
 70
     0
102
RTVSPropertyOp2
 70
     0
102
RTVSPropertyOp3
 70
     0
102
RTVSPropertyOp4
 70
     0
102
RTVSPropertyOp5
 70
     0
102
RTVSPropertyOp6
 70
     0
102
RTVSPropertyOp7
 70
     0
102
RTVSPropertyOp8
 70
     0
102
RTVSPropertyOp9
 70
     0
102
RTVSPropertyOp10
 70
     0
102
RTVSPropertyOp11
 70
     0
102
RTVSPropertyOp12
 70
     0
102
RTVSPropertyOp13
 70
     0
102
RTVSPropertyOp14
 70
     2
102
RTVSPropertyOp15
 70
     0
102
RTVSPropertyOp16
 70
     0
102
RTVSPropertyOp17
 70
     0
102
RTVSPropertyOp18
 70
     0
102
RTVSPropertyOp19
 70
     0
102
RTVSPropertyOp20
 70
     0
102
RTVSPropertyOp21
 70
     0
102
RTVSPropertyOp22
 70
     0
102
RTVSPropertyOp23
 70
     0
102
RTVSPropertyOp24
 70
     0
102
RTVSPropertyOp25
 70
     0
102
RTVSPropertyOp26
 70
     0
102
RTVSPropertyOp27
 70
     0
102
RTVSPropertyOp28
 70
     0
102
RTVSPropertyOp29
 70
     0
102
RTVSPropertyOp30
 70
     0
102
RTVSPropertyOp31
 70
     0
102
RTVSPropertyOp32
 70
     0
102
RTVSPropertyOp33
 70
     0
102
RTVSPropertyOp34
 70
     0
102
RTVSPropertyOp35
 70
     0
102
RTVSPropertyOp36
 70
     0
102
RTVSPropertyOp37
 70
     0
102
RTVSPropertyOp38
 70
     0
102
RTVSPropertyOp39
 70
     0
102
RTVSPropertyOp40
 70
     0
102
RTVSPropertyOp41
 70
     0
102
RTVSPropertyOp42
 70
     0
102
RTVSPropertyOp43
 70
     0
102
RTVSPropertyOp44
 70
     0
102
RTVSPropertyOp45
 70
     0
102
RTVSPropertyOp46
 70
     0
102
RTVSPropertyOp47
 70
     0
102
RTVSPropertyOp48
 70
     0
102
RTVSPropertyOp49
 70
     0
102
RTVSPropertyOp50
 70
     0
102
RTVSPropertyOp51
 70
     0
102
RTVSPropertyOp52
 70
     0
102
RTVSPropertyOp53
 70
     0
102
RTVSPropertyOp54
 70
     0
102
RTVSPropertyOp55
 70
     0
102
RTVSPropertyOp56
 70
     0
102
RTVSPropertyOp57
 70
     0
102
RTVSPost2010Prop28
280
     0
102
RTVSPost2010PropOp28
 70
     0
102
RTVSPost2010Prop29
280
     1
102
RTVSPost2010PropOp29
 70
     0
102
RTVSPost2010Prop30
280
     1
102
RTVSPost2010PropOp30
 70
     0
102
RTVSPost2010Prop31
280
     0
102
RTVSPost2010PropOp31
 70
     0
102
RTVSPost2010Prop32
280
     0
102
RTVSPost2010PropOp32
 70
     0
102
RTVSPost2010Prop33
280
     0
102
RTVSPost2010PropOp33
 70
     0
102
RTVSPost2010Prop34
280
     0
102
RTVSPost2010PropOp34
 70
     0
102
RTVSPost2010Prop35
280
     0
102
RTVSPost2010PropOp35
 70
     0
102
RTVSPost2010Prop36
280
     0
102
RTVSPost2010PropOp36
 70
     0
102
RTVSPost2010Prop37
 90
       50
102
RTVSPost2010PropOp37
 70
     0
102
RTVSPost2010Prop38
140
0.0
102
RTVSPost2010PropOp38
 70
     0
102
RTVSPost2010Prop39
140
1.0
102
RTVSPost2010PropOp39
 70
     0
102
RTVSPost2010Prop40
 90
        0
102
RTVSPost2010PropOp40
 70
     0
102
RTVSPost2010Prop41ColorIndex
 90
       18
102
RTVSPost2010Prop41ColorRGB
 90
        0
102
RTVSPost2010PropOp41
 70
     0
102
RTVSPost2010Prop42
 90
       50
102
RTVSPost2010PropOp42
 70
     0
102
RTVSPost2010Prop43
 90
        3
102
RTVSPost2010PropOp43
 70
     0
102
RTVSPost2010Prop44ColorIndex
 90
        5
102
RTVSPost2010Prop44ColorRGB
 90
      255
102
RTVSPost2010PropOp44
 70
     0
102
RTVSPost2010Prop45
280
     0
102
RTVSPost2010PropOp45
 70
     0
102
RTVSPost2010Prop46
 90
       50
102
RTVSPost2010PropOp46
 70
     0
102
RTVSPost2010Prop47
 90
       50
102
RTVSPost2010PropOp47
 70
     0
102
RTVSPost2010Prop48
 90
       50
102
RTVSPost2010PropOp48
 70
     0
102
RTVSPost2010Prop49
280
     0
102
RTVSPost2010PropOp49
 70
     0
102
RTVSPost2010Prop50
 90
       50
102
RTVSPost2010PropOp50
 70
     0
102
RTVSPost2010Prop51ColorIndex
 90
      256
102
RTVSPost2010Prop51ColorRGB
 90
-16777216
102
RTVSPost2010PropOp51
 70
     0
102
RTVSPost2010Prop52
140
1.0
102
RTVSPost2010PropOp52
 70
     0
102
RTVSPost2010Prop53
 90
        2
102
RTVSPost2010PropOp53
 70
     0
102
RTVSPost2010Prop54
  1
strokes_ogs.tif
102
RTVSPost2010PropOp54
 70
     0
102
RTVSPost2010Prop55
280
     0
102
RTVSPost2010PropOp55
 70
     0
102
RTVSPost2010Prop56
140
1.0
102
RTVSPost2010PropOp56
 70
     0
102
RTVSPost2010Prop57
140
1.0
102
RTVSPost2010PropOp57
 70
     0
  0
XRECORD
  5
179
102
{ACAD_REACTORS
330
178
102
}
330
178
100
AcDbXrecord
280
     1
102
RTVSPropertyOp0
 70
     1
102
RTVSPropertyOp1
 70
     1
102
RTVSPropertyOp2
 70
     1
102
RTVSPropertyOp3
 70
     1
102
RTVSPropertyOp4
 70
     1
102
RTVSPropertyOp5
 70
     1
102
RTVSPropertyOp6
 70
     1
102
RTVSPropertyOp7
 70
     1
102
RTVSPropertyOp8
 70
     1
102
RTVSPropertyOp9
 70
     1
102
RTVSPropertyOp10
 70
     1
102
RTVSPropertyOp11
 70
     1
102
RTVSPropertyOp12
 70
     1
102
RTVSPropertyOp13
 70
     1
102
RTVSPropertyOp14
 70
     1
102
RTVSPropertyOp15
 70
     1
102
RTVSPropertyOp16
 70
     1
102
RTVSPropertyOp17
 70
     1
102
RTVSPropertyOp18
 70
     1
102
RTVSPropertyOp19
 70
     1
102
RTVSPropertyOp20
 70
     1
102
RTVSPropertyOp21
 70
     1
102
RTVSPropertyOp22
 70
     1
102
RTVSPropertyOp23
 70
     1
102
RTVSPropertyOp24
 70
     1
102
RTVSPropertyOp25
 70
     1
102
RTVSPropertyOp26
 70
     1
102
RTVSPropertyOp27
 70
     1
102
RTVSPropertyOp28
 70
     1
102
RTVSPropertyOp29
 70
     1
102
RTVSPropertyOp30
 70
     1
102
RTVSPropertyOp31
 70
     1
102
RTVSPropertyOp32
 70
     1
102
RTVSPropertyOp33
 70
     1
102
RTVSPropertyOp34
 70
     1
102
RTVSPropertyOp35
 70
     1
102
RTVSPropertyOp36
 70
     1
102
RTVSPropertyOp37
 70
     1
102
RTVSPropertyOp38
 70
     1
102
RTVSPropertyOp39
 70
     1
102
RTVSPropertyOp40
 70
     1
102
RTVSPropertyOp41
 70
     1
102
RTVSPropertyOp42
 70
     1
102
RTVSPropertyOp43
 70
     1
102
RTVSPropertyOp44
 70
     1
102
RTVSPropertyOp45
 70
     1
102
RTVSPropertyOp46
 70
     1
102
RTVSPropertyOp47
 70
     1
102
RTVSPropertyOp48
 70
     1
102
RTVSPropertyOp49
 70
     1
102
RTVSPropertyOp50
 70
     1
102
RTVSPropertyOp51
 70
     0
102
RTVSPropertyOp52
 70
     0
102
RTVSPropertyOp53
 70
     1
102
RTVSPropertyOp54
 70
     1
102
RTVSPropertyOp55
 70
     1
102
RTVSPropertyOp56
 70
     1
102
RTVSPropertyOp57
 70
     1
102
RTVSPost2010Prop28
280
     0
102
RTVSPost2010PropOp28
 70
     1
102
RTVSPost2010Prop29
280
     1
102
RTVSPost2010PropOp29
 70
     1
102
RTVSPost2010Prop30
280
     1
102
RTVSPost2010PropOp30
 70
     1
102
RTVSPost2010Prop31
280
     0
102
RTVSPost2010PropOp31
 70
     1
102
RTVSPost2010Prop32
280
     0
102
RTVSPost2010PropOp32
 70
     1
102
RTVSPost2010Prop33
280
     0
102
RTVSPost2010PropOp33
 70
     1
102
RTVSPost2010Prop34
280
     0
102
RTVSPost2010PropOp34
 70
     1
102
RTVSPost2010Prop35
280
     0
102
RTVSPost2010PropOp35
 70
     1
102
RTVSPost2010Prop36
280
     0
102
RTVSPost2010PropOp36
 70
     1
102
RTVSPost2010Prop37
 90
       50
102
RTVSPost2010PropOp37
 70
     1
102
RTVSPost2010Prop38
140
0.0
102
RTVSPost2010PropOp38
 70
     1
102
RTVSPost2010Prop39
140
1.0
102
RTVSPost2010PropOp39
 70
     1
102
RTVSPost2010Prop40
 90
        0
102
RTVSPost2010PropOp40
 70
     1
102
RTVSPost2010Prop41ColorIndex
 90
       18
102
RTVSPost2010Prop41ColorRGB
 90
        0
102
RTVSPost2010PropOp41
 70
     1
102
RTVSPost2010Prop42
 90
       50
102
RTVSPost2010PropOp42
 70
     1
102
RTVSPost2010Prop43
 90
        3
102
RTVSPost2010PropOp43
 70
     1
102
RTVSPost2010Prop44ColorIndex
 90
        5
102
RTVSPost2010Prop44ColorRGB
 90
      255
102
RTVSPost2010PropOp44
 70
     1
102
RTVSPost2010Prop45
280
     0
102
RTVSPost2010PropOp45
 70
     1
102
RTVSPost2010Prop46
 90
       50
102
RTVSPost2010PropOp46
 70
     1
102
RTVSPost2010Prop47
 90
       50
102
RTVSPost2010PropOp47
 70
     1
102
RTVSPost2010Prop48
 90
       50
102
RTVSPost2010PropOp48
 70
     1
102
RTVSPost2010Prop49
280
     0
102
RTVSPost2010PropOp49
 70
     1
102
RTVSPost2010Prop50
 90
       50
102
RTVSPost2010PropOp50
 70
     1
102
RTVSPost2010Prop51ColorIndex
 90
      256
102
RTVSPost2010Prop51ColorRGB
 90
-16777216
102
RTVSPost2010PropOp51
 70
     0
102
RTVSPost2010Prop52
140
1.0
102
RTVSPost2010PropOp52
 70
     0
102
RTVSPost2010Prop53
 90
        2
102
RTVSPost2010PropOp53
 70
     1
102
RTVSPost2010Prop54
  1
strokes_ogs.tif
102
RTVSPost2010PropOp54
 70
     1
102
RTVSPost2010Prop55
280
     0
102
RTVSPost2010PropOp55
 70
     1
102
RTVSPost2010Prop56
140
1.0
102
RTVSPost2010PropOp56
 70
     1
102
RTVSPost2010Prop57
140
1.0
102
RTVSPost2010PropOp57
 70
     1
  0
XRECORD
  5
181
102
{ACAD_REACTORS
330
180
102
}
330
180
100
AcDbXrecord
280
     1
102
RTVSPropertyOp0
 70
     0
102
RTVSPropertyOp1
 70
     0
102
RTVSPropertyOp2
 70
     0
102
RTVSPropertyOp3
 70
     0
102
RTVSPropertyOp4
 70
     0
102
RTVSPropertyOp5
 70
     0
102
RTVSPropertyOp6
 70
     0
102
RTVSPropertyOp7
 70
     0
102
RTVSPropertyOp8
 70
     0
102
RTVSPropertyOp9
 70
     0
102
RTVSPropertyOp10
 70
     0
102
RTVSPropertyOp11
 70
     0
102
RTVSPropertyOp12
 70
     0
102
RTVSPropertyOp13
 70
     0
102
RTVSPropertyOp14
 70
     2
102
RTVSPropertyOp15
 70
     0
102
RTVSPropertyOp16
 70
     0
102
RTVSPropertyOp17
 70
     0
102
RTVSPropertyOp18
 70
     0
102
RTVSPropertyOp19
 70
     0
102
RTVSPropertyOp20
 70
     0
102
RTVSPropertyOp21
 70
     0
102
RTVSPropertyOp22
 70
     0
102
RTVSPropertyOp23
 70
     0
102
RTVSPropertyOp24
 70
     0
102
RTVSPropertyOp25
 70
     0
102
RTVSPropertyOp26
 70
     0
102
RTVSPropertyOp27
 70
     0
102
RTVSPropertyOp28
 70
     0
102
RTVSPropertyOp29
 70
     0
102
RTVSPropertyOp30
 70
     0
102
RTVSPropertyOp31
 70
     0
102
RTVSPropertyOp32
 70
     0
102
RTVSPropertyOp33
 70
     0
102
RTVSPropertyOp34
 70
     0
102
RTVSPropertyOp35
 70
     0
102
RTVSPropertyOp36
 70
     0
102
RTVSPropertyOp37
 70
     0
102
RTVSPropertyOp38
 70
     0
102
RTVSPropertyOp39
 70
     0
102
RTVSPropertyOp40
 70
     0
102
RTVSPropertyOp41
 70
     0
102
RTVSPropertyOp42
 70
     0
102
RTVSPropertyOp43
 70
     0
102
RTVSPropertyOp44
 70
     0
102
RTVSPropertyOp45
 70
     0
102
RTVSPropertyOp46
 70
     0
102
RTVSPropertyOp47
 70
     0
102
RTVSPropertyOp48
 70
     0
102
RTVSPropertyOp49
 70
     0
102
RTVSPropertyOp50
 70
     0
102
RTVSPropertyOp51
 70
     0
102
RTVSPropertyOp52
 70
     0
102
RTVSPropertyOp53
 70
     0
102
RTVSPropertyOp54
 70
     0
102
RTVSPropertyOp55
 70
     0
102
RTVSPropertyOp56
 70
     0
102
RTVSPropertyOp57
 70
     0
102
RTVSPost2010Prop28
280
     0
102
RTVSPost2010PropOp28
 70
     0
102
RTVSPost2010Prop29
280
     1
102
RTVSPost2010PropOp29
 70
     0
102
RTVSPost2010Prop30
280
     1
102
RTVSPost2010PropOp30
 70
     0
102
RTVSPost2010Prop31
280
     0
102
RTVSPost2010PropOp31
 70
     0
102
RTVSPost2010Prop32
280
     0
102
RTVSPost2010PropOp32
 70
     0
102
RTVSPost2010Prop33
280
     0
102
RTVSPost2010PropOp33
 70
     0
102
RTVSPost2010Prop34
280
     0
102
RTVSPost2010PropOp34
 70
     0
102
RTVSPost2010Prop35
280
     0
102
RTVSPost2010PropOp35
 70
     0
102
RTVSPost2010Prop36
280
     0
102
RTVSPost2010PropOp36
 70
     0
102
RTVSPost2010Prop37
 90
       50
102
RTVSPost2010PropOp37
 70
     0
102
RTVSPost2010Prop38
140
0.0
102
RTVSPost2010PropOp38
 70
     0
102
RTVSPost2010Prop39
140
1.0
102
RTVSPost2010PropOp39
 70
     0
102
RTVSPost2010Prop40
 90
        0
102
RTVSPost2010PropOp40
 70
     0
102
RTVSPost2010Prop41ColorIndex
 90
       18
102
RTVSPost2010Prop41ColorRGB
 90
        0
102
RTVSPost2010PropOp41
 70
     0
102
RTVSPost2010Prop42
 90
       50
102
RTVSPost2010PropOp42
 70
     0
102
RTVSPost2010Prop43
 90
        3
102
RTVSPost2010PropOp43
 70
     0
102
RTVSPost2010Prop44ColorIndex
 90
        5
102
RTVSPost2010Prop44ColorRGB
 90
      255
102
RTVSPost2010PropOp44
 70
     0
102
RTVSPost2010Prop45
280
     0
102
RTVSPost2010PropOp45
 70
     0
102
RTVSPost2010Prop46
 90
       50
102
RTVSPost2010PropOp46
 70
     0
102
RTVSPost2010Prop47
 90
       50
102
RTVSPost2010PropOp47
 70
     0
102
RTVSPost2010Prop48
 90
       50
102
RTVSPost2010PropOp48
 70
     0
102
RTVSPost2010Prop49
280
     0
102
RTVSPost2010PropOp49
 70
     0
102
RTVSPost2010Prop50
 90
       50
102
RTVSPost2010PropOp50
 70
     0
102
RTVSPost2010Prop51ColorIndex
 90
      256
102
RTVSPost2010Prop51ColorRGB
 90
-16777216
102
RTVSPost2010PropOp51
 70
     0
102
RTVSPost2010Prop52
140
1.0
102
RTVSPost2010PropOp52
 70
     0
102
RTVSPost2010Prop53
 90
        2
102
RTVSPost2010PropOp53
 70
     0
102
RTVSPost2010Prop54
  1
strokes_ogs.tif
102
RTVSPost2010PropOp54
 70
     0
102
RTVSPost2010Prop55
280
     0
102
RTVSPost2010PropOp55
 70
     0
102
RTVSPost2010Prop56
140
1.0
102
RTVSPost2010PropOp56
 70
     0
102
RTVSPost2010Prop57
140
1.0
102
RTVSPost2010PropOp57
 70
     0
  0
XRECORD
  5
16F
102
{ACAD_REACTORS
330
16E
102
}
330
16E
100
AcDbXrecord
280
     1
102
RTVSPropertyOp0
 70
     1
102
RTVSPropertyOp1
 70
     1
102
RTVSPropertyOp2
 70
     1
102
RTVSPropertyOp3
 70
     1
102
RTVSPropertyOp4
 70
     1
102
RTVSPropertyOp5
 70
     1
102
RTVSPropertyOp6
 70
     1
102
RTVSPropertyOp7
 70
     1
102
RTVSPropertyOp8
 70
     1
102
RTVSPropertyOp9
 70
     1
102
RTVSPropertyOp10
 70
     1
102
RTVSPropertyOp11
 70
     1
102
RTVSPropertyOp12
 70
     1
102
RTVSPropertyOp13
 70
     1
102
RTVSPropertyOp14
 70
     1
102
RTVSPropertyOp15
 70
     1
102
RTVSPropertyOp16
 70
     1
102
RTVSPropertyOp17
 70
     1
102
RTVSPropertyOp18
 70
     1
102
RTVSPropertyOp19
 70
     1
102
RTVSPropertyOp20
 70
     1
102
RTVSPropertyOp21
 70
     1
102
RTVSPropertyOp22
 70
     1
102
RTVSPropertyOp23
 70
     1
102
RTVSPropertyOp24
 70
     1
102
RTVSPropertyOp25
 70
     1
102
RTVSPropertyOp26
 70
     1
102
RTVSPropertyOp27
 70
     1
102
RTVSPropertyOp28
 70
     1
102
RTVSPropertyOp29
 70
     1
102
RTVSPropertyOp30
 70
     1
102
RTVSPropertyOp31
 70
     1
102
RTVSPropertyOp32
 70
     1
102
RTVSPropertyOp33
 70
     1
102
RTVSPropertyOp34
 70
     1
102
RTVSPropertyOp35
 70
     1
102
RTVSPropertyOp36
 70
     1
102
RTVSPropertyOp37
 70
     1
102
RTVSPropertyOp38
 70
     1
102
RTVSPropertyOp39
 70
     1
102
RTVSPropertyOp40
 70
     1
102
RTVSPropertyOp41
 70
     1
102
RTVSPropertyOp42
 70
     1
102
RTVSPropertyOp43
 70
     1
102
RTVSPropertyOp44
 70
     1
102
RTVSPropertyOp45
 70
     1
102
RTVSPropertyOp46
 70
     1
102
RTVSPropertyOp47
 70
     1
102
RTVSPropertyOp48
 70
     1
102
RTVSPropertyOp49
 70
     1
102
RTVSPropertyOp50
 70
     1
102
RTVSPropertyOp51
 70
     0
102
RTVSPropertyOp52
 70
     0
102
RTVSPropertyOp53
 70
     1
102
RTVSPropertyOp54
 70
     1
102
RTVSPropertyOp55
 70
     1
102
RTVSPropertyOp56
 70
     1
102
RTVSPropertyOp57
 70
     1
102
RTVSPost2010Prop28
280
     0
102
RTVSPost2010PropOp28
 70
     1
102
RTVSPost2010Prop29
280
     1
102
RTVSPost2010PropOp29
 70
     1
102
RTVSPost2010Prop30
280
     1
102
RTVSPost2010PropOp30
 70
     1
102
RTVSPost2010Prop31
280
     0
102
RTVSPost2010PropOp31
 70
     1
102
RTVSPost2010Prop32
280
     0
102
RTVSPost2010PropOp32
 70
     1
102
RTVSPost2010Prop33
280
     0
102
RTVSPost2010PropOp33
 70
     1
102
RTVSPost2010Prop34
280
     0
102
RTVSPost2010PropOp34
 70
     1
102
RTVSPost2010Prop35
280
     0
102
RTVSPost2010PropOp35
 70
     1
102
RTVSPost2010Prop36
280
     0
102
RTVSPost2010PropOp36
 70
     1
102
RTVSPost2010Prop37
 90
       50
102
RTVSPost2010PropOp37
 70
     1
102
RTVSPost2010Prop38
140
0.0
102
RTVSPost2010PropOp38
 70
     1
102
RTVSPost2010Prop39
140
1.0
102
RTVSPost2010PropOp39
 70
     1
102
RTVSPost2010Prop40
 90
        0
102
RTVSPost2010PropOp40
 70
     1
102
RTVSPost2010Prop41ColorIndex
 90
       18
102
RTVSPost2010Prop41ColorRGB
 90
        0
102
RTVSPost2010PropOp41
 70
     1
102
RTVSPost2010Prop42
 90
       50
102
RTVSPost2010PropOp42
 70
     1
102
RTVSPost2010Prop43
 90
        3
102
RTVSPost2010PropOp43
 70
     1
102
RTVSPost2010Prop44ColorIndex
 90
        5
102
RTVSPost2010Prop44ColorRGB
 90
      255
102
RTVSPost2010PropOp44
 70
     1
102
RTVSPost2010Prop45
280
     0
102
RTVSPost2010PropOp45
 70
     1
102
RTVSPost2010Prop46
 90
       50
102
RTVSPost2010PropOp46
 70
     1
102
RTVSPost2010Prop47
 90
       50
102
RTVSPost2010PropOp47
 70
     1
102
RTVSPost2010Prop48
 90
       50
102
RTVSPost2010PropOp48
 70
     1
102
RTVSPost2010Prop49
280
     0
102
RTVSPost2010PropOp49
 70
     1
102
RTVSPost2010Prop50
 90
       50
102
RTVSPost2010PropOp50
 70
     1
102
RTVSPost2010Prop51ColorIndex
 90
      256
102
RTVSPost2010Prop51ColorRGB
 90
-16777216
102
RTVSPost2010PropOp51
 70
     0
102
RTVSPost2010Prop52
140
1.0
102
RTVSPost2010PropOp52
 70
     0
102
RTVSPost2010Prop53
 90
        2
102
RTVSPost2010PropOp53
 70
     1
102
RTVSPost2010Prop54
  1
strokes_ogs.tif
102
RTVSPost2010PropOp54
 70
     1
102
RTVSPost2010Prop55
280
     0
102
RTVSPost2010PropOp55
 70
     1
102
RTVSPost2010Prop56
140
1.0
102
RTVSPost2010PropOp56
 70
     1
102
RTVSPost2010Prop57
140
1.0
102
RTVSPost2010PropOp57
 70
     1
  0
XRECORD
  5
18D
102
{ACAD_REACTORS
330
18C
102
}
330
18C
100
AcDbXrecord
280
     1
102
RTVSPropertyOp0
 70
     1
102
RTVSPropertyOp1
 70
     1
102
RTVSPropertyOp2
 70
     1
102
RTVSPropertyOp3
 70
     1
102
RTVSPropertyOp4
 70
     1
102
RTVSPropertyOp5
 70
     1
102
RTVSPropertyOp6
 70
     1
102
RTVSPropertyOp7
 70
     1
102
RTVSPropertyOp8
 70
     1
102
RTVSPropertyOp9
 70
     1
102
RTVSPropertyOp10
 70
     1
102
RTVSPropertyOp11
 70
     1
102
RTVSPropertyOp12
 70
     1
102
RTVSPropertyOp13
 70
     1
102
RTVSPropertyOp14
 70
     1
102
RTVSPropertyOp15
 70
     1
102
RTVSPropertyOp16
 70
     1
102
RTVSPropertyOp17
 70
     1
102
RTVSPropertyOp18
 70
     1
102
RTVSPropertyOp19
 70
     1
102
RTVSPropertyOp20
 70
     1
102
RTVSPropertyOp21
 70
     1
102
RTVSPropertyOp22
 70
     1
102
RTVSPropertyOp23
 70
     1
102
RTVSPropertyOp24
 70
     1
102
RTVSPropertyOp25
 70
     1
102
RTVSPropertyOp26
 70
     1
102
RTVSPropertyOp27
 70
     1
102
RTVSPropertyOp28
 70
     1
102
RTVSPropertyOp29
 70
     1
102
RTVSPropertyOp30
 70
     1
102
RTVSPropertyOp31
 70
     1
102
RTVSPropertyOp32
 70
     1
102
RTVSPropertyOp33
 70
     1
102
RTVSPropertyOp34
 70
     1
102
RTVSPropertyOp35
 70
     1
102
RTVSPropertyOp36
 70
     1
102
RTVSPropertyOp37
 70
     1
102
RTVSPropertyOp38
 70
     1
102
RTVSPropertyOp39
 70
     1
102
RTVSPropertyOp40
 70
     1
102
RTVSPropertyOp41
 70
     1
102
RTVSPropertyOp42
 70
     1
102
RTVSPropertyOp43
 70
     1
102
RTVSPropertyOp44
 70
     1
102
RTVSPropertyOp45
 70
     1
102
RTVSPropertyOp46
 70
     1
102
RTVSPropertyOp47
 70
     1
102
RTVSPropertyOp48
 70
     1
102
RTVSPropertyOp49
 70
     1
102
RTVSPropertyOp50
 70
     1
102
RTVSPropertyOp51
 70
     0
102
RTVSPropertyOp52
 70
     0
102
RTVSPropertyOp53
 70
     1
102
RTVSPropertyOp54
 70
     1
102
RTVSPropertyOp55
 70
     1
102
RTVSPropertyOp56
 70
     1
102
RTVSPropertyOp57
 70
     1
102
RTVSPost2010Prop28
280
     0
102
RTVSPost2010PropOp28
 70
     1
102
RTVSPost2010Prop29
280
     1
102
RTVSPost2010PropOp29
 70
     1
102
RTVSPost2010Prop30
280
     1
102
RTVSPost2010PropOp30
 70
     1
102
RTVSPost2010Prop31
280
     0
102
RTVSPost2010PropOp31
 70
     1
102
RTVSPost2010Prop32
280
     0
102
RTVSPost2010PropOp32
 70
     1
102
RTVSPost2010Prop33
280
     0
102
RTVSPost2010PropOp33
 70
     1
102
RTVSPost2010Prop34
280
     0
102
RTVSPost2010PropOp34
 70
     1
102
RTVSPost2010Prop35
280
     0
102
RTVSPost2010PropOp35
 70
     1
102
RTVSPost2010Prop36
280
     0
102
RTVSPost2010PropOp36
 70
     1
102
RTVSPost2010Prop37
 90
       50
102
RTVSPost2010PropOp37
 70
     1
102
RTVSPost2010Prop38
140
0.0
102
RTVSPost2010PropOp38
 70
     1
102
RTVSPost2010Prop39
140
1.0
102
RTVSPost2010PropOp39
 70
     1
102
RTVSPost2010Prop40
 90
        0
102
RTVSPost2010PropOp40
 70
     1
102
RTVSPost2010Prop41ColorIndex
 90
       18
102
RTVSPost2010Prop41ColorRGB
 90
        0
102
RTVSPost2010PropOp41
 70
     1
102
RTVSPost2010Prop42
 90
       50
102
RTVSPost2010PropOp42
 70
     1
102
RTVSPost2010Prop43
 90
        3
102
RTVSPost2010PropOp43
 70
     1
102
RTVSPost2010Prop44ColorIndex
 90
        5
102
RTVSPost2010Prop44ColorRGB
 90
      255
102
RTVSPost2010PropOp44
 70
     1
102
RTVSPost2010Prop45
280
     0
102
RTVSPost2010PropOp45
 70
     1
102
RTVSPost2010Prop46
 90
       50
102
RTVSPost2010PropOp46
 70
     1
102
RTVSPost2010Prop47
 90
       50
102
RTVSPost2010PropOp47
 70
     1
102
RTVSPost2010Prop48
 90
       50
102
RTVSPost2010PropOp48
 70
     1
102
RTVSPost2010Prop49
280
     0
102
RTVSPost2010PropOp49
 70
     1
102
RTVSPost2010Prop50
 90
       50
102
RTVSPost2010PropOp50
 70
     1
102
RTVSPost2010Prop51ColorIndex
 90
      256
102
RTVSPost2010Prop51ColorRGB
 90
-16777216
102
RTVSPost2010PropOp51
 70
     0
102
RTVSPost2010Prop52
140
1.0
102
RTVSPost2010PropOp52
 70
     0
102
RTVSPost2010Prop53
 90
        2
102
RTVSPost2010PropOp53
 70
     1
102
RTVSPost2010Prop54
  1
strokes_ogs.tif
102
RTVSPost2010PropOp54
 70
     1
102
RTVSPost2010Prop55
280
     0
102
RTVSPost2010PropOp55
 70
     1
102
RTVSPost2010Prop56
140
1.0
102
RTVSPost2010PropOp56
 70
     1
102
RTVSPost2010Prop57
140
1.0
102
RTVSPost2010PropOp57
 70
     1
  0
XRECORD
  5
18B
102
{ACAD_REACTORS
330
18A
102
}
330
18A
100
AcDbXrecord
280
     1
102
RTVSPropertyOp0
 70
     1
102
RTVSPropertyOp1
 70
     1
102
RTVSPropertyOp2
 70
     1
102
RTVSPropertyOp3
 70
     1
102
RTVSPropertyOp4
 70
     1
102
RTVSPropertyOp5
 70
     1
102
RTVSPropertyOp6
 70
     1
102
RTVSPropertyOp7
 70
     1
102
RTVSPropertyOp8
 70
     1
102
RTVSPropertyOp9
 70
     1
102
RTVSPropertyOp10
 70
     1
102
RTVSPropertyOp11
 70
     1
102
RTVSPropertyOp12
 70
     1
102
RTVSPropertyOp13
 70
     1
102
RTVSPropertyOp14
 70
     1
102
RTVSPropertyOp15
 70
     1
102
RTVSPropertyOp16
 70
     1
102
RTVSPropertyOp17
 70
     1
102
RTVSPropertyOp18
 70
     1
102
RTVSPropertyOp19
 70
     1
102
RTVSPropertyOp20
 70
     1
102
RTVSPropertyOp21
 70
     1
102
RTVSPropertyOp22
 70
     1
102
RTVSPropertyOp23
 70
     1
102
RTVSPropertyOp24
 70
     1
102
RTVSPropertyOp25
 70
     1
102
RTVSPropertyOp26
 70
     1
102
RTVSPropertyOp27
 70
     1
102
RTVSPropertyOp28
 70
     1
102
RTVSPropertyOp29
 70
     1
102
RTVSPropertyOp30
 70
     1
102
RTVSPropertyOp31
 70
     1
102
RTVSPropertyOp32
 70
     1
102
RTVSPropertyOp33
 70
     1
102
RTVSPropertyOp34
 70
     1
102
RTVSPropertyOp35
 70
     1
102
RTVSPropertyOp36
 70
     1
102
RTVSPropertyOp37
 70
     1
102
RTVSPropertyOp38
 70
     1
102
RTVSPropertyOp39
 70
     1
102
RTVSPropertyOp40
 70
     1
102
RTVSPropertyOp41
 70
     1
102
RTVSPropertyOp42
 70
     1
102
RTVSPropertyOp43
 70
     1
102
RTVSPropertyOp44
 70
     1
102
RTVSPropertyOp45
 70
     1
102
RTVSPropertyOp46
 70
     1
102
RTVSPropertyOp47
 70
     1
102
RTVSPropertyOp48
 70
     1
102
RTVSPropertyOp49
 70
     1
102
RTVSPropertyOp50
 70
     1
102
RTVSPropertyOp51
 70
     0
102
RTVSPropertyOp52
 70
     0
102
RTVSPropertyOp53
 70
     1
102
RTVSPropertyOp54
 70
     1
102
RTVSPropertyOp55
 70
     1
102
RTVSPropertyOp56
 70
     1
102
RTVSPropertyOp57
 70
     1
102
RTVSPost2010Prop28
280
     0
102
RTVSPost2010PropOp28
 70
     1
102
RTVSPost2010Prop29
280
     1
102
RTVSPost2010PropOp29
 70
     1
102
RTVSPost2010Prop30
280
     1
102
RTVSPost2010PropOp30
 70
     1
102
RTVSPost2010Prop31
280
     0
102
RTVSPost2010PropOp31
 70
     1
102
RTVSPost2010Prop32
280
     0
102
RTVSPost2010PropOp32
 70
     1
102
RTVSPost2010Prop33
280
     0
102
RTVSPost2010PropOp33
 70
     1
102
RTVSPost2010Prop34
280
     0
102
RTVSPost2010PropOp34
 70
     1
102
RTVSPost2010Prop35
280
     0
102
RTVSPost2010PropOp35
 70
     1
102
RTVSPost2010Prop36
280
     0
102
RTVSPost2010PropOp36
 70
     1
102
RTVSPost2010Prop37
 90
       50
102
RTVSPost2010PropOp37
 70
     1
102
RTVSPost2010Prop38
140
0.0
102
RTVSPost2010PropOp38
 70
     1
102
RTVSPost2010Prop39
140
1.0
102
RTVSPost2010PropOp39
 70
     1
102
RTVSPost2010Prop40
 90
        0
102
RTVSPost2010PropOp40
 70
     1
102
RTVSPost2010Prop41ColorIndex
 90
       18
102
RTVSPost2010Prop41ColorRGB
 90
        0
102
RTVSPost2010PropOp41
 70
     1
102
RTVSPost2010Prop42
 90
       50
102
RTVSPost2010PropOp42
 70
     1
102
RTVSPost2010Prop43
 90
        3
102
RTVSPost2010PropOp43
 70
     1
102
RTVSPost2010Prop44ColorIndex
 90
        5
102
RTVSPost2010Prop44ColorRGB
 90
      255
102
RTVSPost2010PropOp44
 70
     1
102
RTVSPost2010Prop45
280
     0
102
RTVSPost2010PropOp45
 70
     1
102
RTVSPost2010Prop46
 90
       50
102
RTVSPost2010PropOp46
 70
     1
102
RTVSPost2010Prop47
 90
       50
102
RTVSPost2010PropOp47
 70
     1
102
RTVSPost2010Prop48
 90
       50
102
RTVSPost2010PropOp48
 70
     1
102
RTVSPost2010Prop49
280
     0
102
RTVSPost2010PropOp49
 70
     1
102
RTVSPost2010Prop50
 90
       50
102
RTVSPost2010PropOp50
 70
     1
102
RTVSPost2010Prop51ColorIndex
 90
      256
102
RTVSPost2010Prop51ColorRGB
 90
-16777216
102
RTVSPost2010PropOp51
 70
     0
102
RTVSPost2010Prop52
140
1.0
102
RTVSPost2010PropOp52
 70
     0
102
RTVSPost2010Prop53
 90
        2
102
RTVSPost2010PropOp53
 70
     1
102
RTVSPost2010Prop54
  1
strokes_ogs.tif
102
RTVSPost2010PropOp54
 70
     1
102
RTVSPost2010Prop55
280
     0
102
RTVSPost2010PropOp55
 70
     1
102
RTVSPost2010Prop56
140
1.0
102
RTVSPost2010PropOp56
 70
     1
102
RTVSPost2010Prop57
140
1.0
102
RTVSPost2010PropOp57
 70
     1
  0
XRECORD
  5
185
102
{ACAD_REACTORS
330
184
102
}
330
184
100
AcDbXrecord
280
     1
102
RTVSPropertyOp0
 70
     1
102
RTVSPropertyOp1
 70
     1
102
RTVSPropertyOp2
 70
     1
102
RTVSPropertyOp3
 70
     1
102
RTVSPropertyOp4
 70
     1
102
RTVSPropertyOp5
 70
     1
102
RTVSPropertyOp6
 70
     1
102
RTVSPropertyOp7
 70
     1
102
RTVSPropertyOp8
 70
     1
102
RTVSPropertyOp9
 70
     1
102
RTVSPropertyOp10
 70
     1
102
RTVSPropertyOp11
 70
     1
102
RTVSPropertyOp12
 70
     1
102
RTVSPropertyOp13
 70
     1
102
RTVSPropertyOp14
 70
     1
102
RTVSPropertyOp15
 70
     1
102
RTVSPropertyOp16
 70
     1
102
RTVSPropertyOp17
 70
     1
102
RTVSPropertyOp18
 70
     1
102
RTVSPropertyOp19
 70
     1
102
RTVSPropertyOp20
 70
     1
102
RTVSPropertyOp21
 70
     1
102
RTVSPropertyOp22
 70
     1
102
RTVSPropertyOp23
 70
     1
102
RTVSPropertyOp24
 70
     1
102
RTVSPropertyOp25
 70
     1
102
RTVSPropertyOp26
 70
     1
102
RTVSPropertyOp27
 70
     1
102
RTVSPropertyOp28
 70
     1
102
RTVSPropertyOp29
 70
     1
102
RTVSPropertyOp30
 70
     1
102
RTVSPropertyOp31
 70
     1
102
RTVSPropertyOp32
 70
     1
102
RTVSPropertyOp33
 70
     1
102
RTVSPropertyOp34
 70
     1
102
RTVSPropertyOp35
 70
     1
102
RTVSPropertyOp36
 70
     1
102
RTVSPropertyOp37
 70
     1
102
RTVSPropertyOp38
 70
     1
102
RTVSPropertyOp39
 70
     1
102
RTVSPropertyOp40
 70
     1
102
RTVSPropertyOp41
 70
     1
102
RTVSPropertyOp42
 70
     1
102
RTVSPropertyOp43
 70
     1
102
RTVSPropertyOp44
 70
     1
102
RTVSPropertyOp45
 70
     1
102
RTVSPropertyOp46
 70
     1
102
RTVSPropertyOp47
 70
     1
102
RTVSPropertyOp48
 70
     1
102
RTVSPropertyOp49
 70
     1
102
RTVSPropertyOp50
 70
     1
102
RTVSPropertyOp51
 70
     0
102
RTVSPropertyOp52
 70
     0
102
RTVSPropertyOp53
 70
     1
102
RTVSPropertyOp54
 70
     1
102
RTVSPropertyOp55
 70
     1
102
RTVSPropertyOp56
 70
     1
102
RTVSPropertyOp57
 70
     1
102
RTVSPost2010Prop28
280
     0
102
RTVSPost2010PropOp28
 70
     1
102
RTVSPost2010Prop29
280
     1
102
RTVSPost2010PropOp29
 70
     1
102
RTVSPost2010Prop30
280
     1
102
RTVSPost2010PropOp30
 70
     1
102
RTVSPost2010Prop31
280
     0
102
RTVSPost2010PropOp31
 70
     1
102
RTVSPost2010Prop32
280
     0
102
RTVSPost2010PropOp32
 70
     1
102
RTVSPost2010Prop33
280
     0
102
RTVSPost2010PropOp33
 70
     1
102
RTVSPost2010Prop34
280
     0
102
RTVSPost2010PropOp34
 70
     1
102
RTVSPost2010Prop35
280
     0
102
RTVSPost2010PropOp35
 70
     1
102
RTVSPost2010Prop36
280
     0
102
RTVSPost2010PropOp36
 70
     1
102
RTVSPost2010Prop37
 90
       50
102
RTVSPost2010PropOp37
 70
     1
102
RTVSPost2010Prop38
140
0.0
102
RTVSPost2010PropOp38
 70
     1
102
RTVSPost2010Prop39
140
1.0
102
RTVSPost2010PropOp39
 70
     1
102
RTVSPost2010Prop40
 90
        0
102
RTVSPost2010PropOp40
 70
     1
102
RTVSPost2010Prop41ColorIndex
 90
       18
102
RTVSPost2010Prop41ColorRGB
 90
        0
102
RTVSPost2010PropOp41
 70
     1
102
RTVSPost2010Prop42
 90
       50
102
RTVSPost2010PropOp42
 70
     1
102
RTVSPost2010Prop43
 90
        3
102
RTVSPost2010PropOp43
 70
     1
102
RTVSPost2010Prop44ColorIndex
 90
        5
102
RTVSPost2010Prop44ColorRGB
 90
      255
102
RTVSPost2010PropOp44
 70
     1
102
RTVSPost2010Prop45
280
     0
102
RTVSPost2010PropOp45
 70
     1
102
RTVSPost2010Prop46
 90
       50
102
RTVSPost2010PropOp46
 70
     1
102
RTVSPost2010Prop47
 90
       50
102
RTVSPost2010PropOp47
 70
     1
102
RTVSPost2010Prop48
 90
       50
102
RTVSPost2010PropOp48
 70
     1
102
RTVSPost2010Prop49
280
     0
102
RTVSPost2010PropOp49
 70
     1
102
RTVSPost2010Prop50
 90
       50
102
RTVSPost2010PropOp50
 70
     1
102
RTVSPost2010Prop51ColorIndex
 90
      256
102
RTVSPost2010Prop51ColorRGB
 90
-16777216
102
RTVSPost2010PropOp51
 70
     0
102
RTVSPost2010Prop52
140
1.0
102
RTVSPost2010PropOp52
 70
     0
102
RTVSPost2010Prop53
 90
        2
102
RTVSPost2010PropOp53
 70
     1
102
RTVSPost2010Prop54
  1
strokes_ogs.tif
102
RTVSPost2010PropOp54
 70
     1
102
RTVSPost2010Prop55
280
     0
102
RTVSPost2010PropOp55
 70
     1
102
RTVSPost2010Prop56
140
1.0
102
RTVSPost2010PropOp56
 70
     1
102
RTVSPost2010Prop57
140
1.0
102
RTVSPost2010PropOp57
 70
     1
  0
XRECORD
  5
187
102
{ACAD_REACTORS
330
186
102
}
330
186
100
AcDbXrecord
280
     1
102
RTVSPropertyOp0
 70
     1
102
RTVSPropertyOp1
 70
     1
102
RTVSPropertyOp2
 70
     1
102
RTVSPropertyOp3
 70
     1
102
RTVSPropertyOp4
 70
     1
102
RTVSPropertyOp5
 70
     1
102
RTVSPropertyOp6
 70
     1
102
RTVSPropertyOp7
 70
     1
102
RTVSPropertyOp8
 70
     1
102
RTVSPropertyOp9
 70
     1
102
RTVSPropertyOp10
 70
     1
102
RTVSPropertyOp11
 70
     1
102
RTVSPropertyOp12
 70
     1
102
RTVSPropertyOp13
 70
     1
102
RTVSPropertyOp14
 70
     1
102
RTVSPropertyOp15
 70
     1
102
RTVSPropertyOp16
 70
     1
102
RTVSPropertyOp17
 70
     1
102
RTVSPropertyOp18
 70
     1
102
RTVSPropertyOp19
 70
     1
102
RTVSPropertyOp20
 70
     1
102
RTVSPropertyOp21
 70
     1
102
RTVSPropertyOp22
 70
     1
102
RTVSPropertyOp23
 70
     1
102
RTVSPropertyOp24
 70
     1
102
RTVSPropertyOp25
 70
     1
102
RTVSPropertyOp26
 70
     1
102
RTVSPropertyOp27
 70
     1
102
RTVSPropertyOp28
 70
     1
102
RTVSPropertyOp29
 70
     1
102
RTVSPropertyOp30
 70
     1
102
RTVSPropertyOp31
 70
     1
102
RTVSPropertyOp32
 70
     1
102
RTVSPropertyOp33
 70
     1
102
RTVSPropertyOp34
 70
     1
102
RTVSPropertyOp35
 70
     1
102
RTVSPropertyOp36
 70
     1
102
RTVSPropertyOp37
 70
     1
102
RTVSPropertyOp38
 70
     1
102
RTVSPropertyOp39
 70
     1
102
RTVSPropertyOp40
 70
     1
102
RTVSPropertyOp41
 70
     1
102
RTVSPropertyOp42
 70
     1
102
RTVSPropertyOp43
 70
     1
102
RTVSPropertyOp44
 70
     1
102
RTVSPropertyOp45
 70
     1
102
RTVSPropertyOp46
 70
     1
102
RTVSPropertyOp47
 70
     1
102
RTVSPropertyOp48
 70
     1
102
RTVSPropertyOp49
 70
     1
102
RTVSPropertyOp50
 70
     1
102
RTVSPropertyOp51
 70
     0
102
RTVSPropertyOp52
 70
     0
102
RTVSPropertyOp53
 70
     1
102
RTVSPropertyOp54
 70
     1
102
RTVSPropertyOp55
 70
     1
102
RTVSPropertyOp56
 70
     1
102
RTVSPropertyOp57
 70
     1
102
RTVSPost2010Prop28
280
     0
102
RTVSPost2010PropOp28
 70
     1
102
RTVSPost2010Prop29
280
     1
102
RTVSPost2010PropOp29
 70
     1
102
RTVSPost2010Prop30
280
     1
102
RTVSPost2010PropOp30
 70
     1
102
RTVSPost2010Prop31
280
     0
102
RTVSPost2010PropOp31
 70
     1
102
RTVSPost2010Prop32
280
     0
102
RTVSPost2010PropOp32
 70
     1
102
RTVSPost2010Prop33
280
     0
102
RTVSPost2010PropOp33
 70
     1
102
RTVSPost2010Prop34
280
     0
102
RTVSPost2010PropOp34
 70
     1
102
RTVSPost2010Prop35
280
     0
102
RTVSPost2010PropOp35
 70
     1
102
RTVSPost2010Prop36
280
     0
102
RTVSPost2010PropOp36
 70
     1
102
RTVSPost2010Prop37
 90
       50
102
RTVSPost2010PropOp37
 70
     1
102
RTVSPost2010Prop38
140
0.0
102
RTVSPost2010PropOp38
 70
     1
102
RTVSPost2010Prop39
140
1.0
102
RTVSPost2010PropOp39
 70
     1
102
RTVSPost2010Prop40
 90
        0
102
RTVSPost2010PropOp40
 70
     1
102
RTVSPost2010Prop41ColorIndex
 90
       18
102
RTVSPost2010Prop41ColorRGB
 90
        0
102
RTVSPost2010PropOp41
 70
     1
102
RTVSPost2010Prop42
 90
       50
102
RTVSPost2010PropOp42
 70
     1
102
RTVSPost2010Prop43
 90
        3
102
RTVSPost2010PropOp43
 70
     1
102
RTVSPost2010Prop44ColorIndex
 90
        5
102
RTVSPost2010Prop44ColorRGB
 90
      255
102
RTVSPost2010PropOp44
 70
     1
102
RTVSPost2010Prop45
280
     0
102
RTVSPost2010PropOp45
 70
     1
102
RTVSPost2010Prop46
 90
       50
102
RTVSPost2010PropOp46
 70
     1
102
RTVSPost2010Prop47
 90
       50
102
RTVSPost2010PropOp47
 70
     1
102
RTVSPost2010Prop48
 90
       50
102
RTVSPost2010PropOp48
 70
     1
102
RTVSPost2010Prop49
280
     0
102
RTVSPost2010PropOp49
 70
     1
102
RTVSPost2010Prop50
 90
       50
102
RTVSPost2010PropOp50
 70
     1
102
RTVSPost2010Prop51ColorIndex
 90
      256
102
RTVSPost2010Prop51ColorRGB
 90
-16777216
102
RTVSPost2010PropOp51
 70
     0
102
RTVSPost2010Prop52
140
1.0
102
RTVSPost2010PropOp52
 70
     0
102
RTVSPost2010Prop53
 90
        2
102
RTVSPost2010PropOp53
 70
     1
102
RTVSPost2010Prop54
  1
strokes_ogs.tif
102
RTVSPost2010PropOp54
 70
     1
102
RTVSPost2010Prop55
280
     0
102
RTVSPost2010PropOp55
 70
     1
102
RTVSPost2010Prop56
140
1.0
102
RTVSPost2010PropOp56
 70
     1
102
RTVSPost2010Prop57
140
1.0
102
RTVSPost2010PropOp57
 70
     1
  0
XRECORD
  5
177
102
{ACAD_REACTORS
330
176
102
}
330
176
100
AcDbXrecord
280
     1
102
RTVSPropertyOp0
 70
     1
102
RTVSPropertyOp1
 70
     1
102
RTVSPropertyOp2
 70
     1
102
RTVSPropertyOp3
 70
     1
102
RTVSPropertyOp4
 70
     1
102
RTVSPropertyOp5
 70
     1
102
RTVSPropertyOp6
 70
     1
102
RTVSPropertyOp7
 70
     1
102
RTVSPropertyOp8
 70
     1
102
RTVSPropertyOp9
 70
     1
102
RTVSPropertyOp10
 70
     1
102
RTVSPropertyOp11
 70
     1
102
RTVSPropertyOp12
 70
     1
102
RTVSPropertyOp13
 70
     1
102
RTVSPropertyOp14
 70
     1
102
RTVSPropertyOp15
 70
     1
102
RTVSPropertyOp16
 70
     1
102
RTVSPropertyOp17
 70
     1
102
RTVSPropertyOp18
 70
     1
102
RTVSPropertyOp19
 70
     1
102
RTVSPropertyOp20
 70
     1
102
RTVSPropertyOp21
 70
     1
102
RTVSPropertyOp22
 70
     1
102
RTVSPropertyOp23
 70
     1
102
RTVSPropertyOp24
 70
     1
102
RTVSPropertyOp25
 70
     1
102
RTVSPropertyOp26
 70
     1
102
RTVSPropertyOp27
 70
     1
102
RTVSPropertyOp28
 70
     1
102
RTVSPropertyOp29
 70
     1
102
RTVSPropertyOp30
 70
     1
102
RTVSPropertyOp31
 70
     1
102
RTVSPropertyOp32
 70
     1
102
RTVSPropertyOp33
 70
     1
102
RTVSPropertyOp34
 70
     1
102
RTVSPropertyOp35
 70
     1
102
RTVSPropertyOp36
 70
     1
102
RTVSPropertyOp37
 70
     1
102
RTVSPropertyOp38
 70
     1
102
RTVSPropertyOp39
 70
     1
102
RTVSPropertyOp40
 70
     1
102
RTVSPropertyOp41
 70
     1
102
RTVSPropertyOp42
 70
     1
102
RTVSPropertyOp43
 70
     1
102
RTVSPropertyOp44
 70
     1
102
RTVSPropertyOp45
 70
     1
102
RTVSPropertyOp46
 70
     1
102
RTVSPropertyOp47
 70
     1
102
RTVSPropertyOp48
 70
     1
102
RTVSPropertyOp49
 70
     1
102
RTVSPropertyOp50
 70
     1
102
RTVSPropertyOp51
 70
     0
102
RTVSPropertyOp52
 70
     0
102
RTVSPropertyOp53
 70
     1
102
RTVSPropertyOp54
 70
     1
102
RTVSPropertyOp55
 70
     1
102
RTVSPropertyOp56
 70
     1
102
RTVSPropertyOp57
 70
     1
102
RTVSPost2010Prop28
280
     0
102
RTVSPost2010PropOp28
 70
     1
102
RTVSPost2010Prop29
280
     1
102
RTVSPost2010PropOp29
 70
     1
102
RTVSPost2010Prop30
280
     1
102
RTVSPost2010PropOp30
 70
     1
102
RTVSPost2010Prop31
280
     0
102
RTVSPost2010PropOp31
 70
     1
102
RTVSPost2010Prop32
280
     0
102
RTVSPost2010PropOp32
 70
     1
102
RTVSPost2010Prop33
280
     0
102
RTVSPost2010PropOp33
 70
     1
102
RTVSPost2010Prop34
280
     0
102
RTVSPost2010PropOp34
 70
     1
102
RTVSPost2010Prop35
280
     0
102
RTVSPost2010PropOp35
 70
     1
102
RTVSPost2010Prop36
280
     0
102
RTVSPost2010PropOp36
 70
     1
102
RTVSPost2010Prop37
 90
       50
102
RTVSPost2010PropOp37
 70
     1
102
RTVSPost2010Prop38
140
0.0
102
RTVSPost2010PropOp38
 70
     1
102
RTVSPost2010Prop39
140
1.0
102
RTVSPost2010PropOp39
 70
     1
102
RTVSPost2010Prop40
 90
        0
102
RTVSPost2010PropOp40
 70
     1
102
RTVSPost2010Prop41ColorIndex
 90
       18
102
RTVSPost2010Prop41ColorRGB
 90
        0
102
RTVSPost2010PropOp41
 70
     1
102
RTVSPost2010Prop42
 90
       50
102
RTVSPost2010PropOp42
 70
     1
102
RTVSPost2010Prop43
 90
        3
102
RTVSPost2010PropOp43
 70
     1
102
RTVSPost2010Prop44ColorIndex
 90
        5
102
RTVSPost2010Prop44ColorRGB
 90
      255
102
RTVSPost2010PropOp44
 70
     1
102
RTVSPost2010Prop45
280
     0
102
RTVSPost2010PropOp45
 70
     1
102
RTVSPost2010Prop46
 90
       50
102
RTVSPost2010PropOp46
 70
     1
102
RTVSPost2010Prop47
 90
       50
102
RTVSPost2010PropOp47
 70
     1
102
RTVSPost2010Prop48
 90
       50
102
RTVSPost2010PropOp48
 70
     1
102
RTVSPost2010Prop49
280
     0
102
RTVSPost2010PropOp49
 70
     1
102
RTVSPost2010Prop50
 90
       50
102
RTVSPost2010PropOp50
 70
     1
102
RTVSPost2010Prop51ColorIndex
 90
      256
102
RTVSPost2010Prop51ColorRGB
 90
-16777216
102
RTVSPost2010PropOp51
 70
     0
102
RTVSPost2010Prop52
140
1.0
102
RTVSPost2010PropOp52
 70
     0
102
RTVSPost2010Prop53
 90
        2
102
RTVSPost2010PropOp53
 70
     1
102
RTVSPost2010Prop54
  1
strokes_ogs.tif
102
RTVSPost2010PropOp54
 70
     1
102
RTVSPost2010Prop55
280
     0
102
RTVSPost2010PropOp55
 70
     1
102
RTVSPost2010Prop56
140
1.0
102
RTVSPost2010PropOp56
 70
     1
102
RTVSPost2010Prop57
140
1.0
102
RTVSPost2010PropOp57
 70
     1
  0
XRECORD
  5
169
102
{ACAD_REACTORS
330
168
102
}
330
168
100
AcDbXrecord
280
     1
102
RTVSPropertyOp0
 70
     1
102
RTVSPropertyOp1
 70
     1
102
RTVSPropertyOp2
 70
     1
102
RTVSPropertyOp3
 70
     1
102
RTVSPropertyOp4
 70
     1
102
RTVSPropertyOp5
 70
     1
102
RTVSPropertyOp6
 70
     1
102
RTVSPropertyOp7
 70
     1
102
RTVSPropertyOp8
 70
     1
102
RTVSPropertyOp9
 70
     1
102
RTVSPropertyOp10
 70
     1
102
RTVSPropertyOp11
 70
     1
102
RTVSPropertyOp12
 70
     1
102
RTVSPropertyOp13
 70
     1
102
RTVSPropertyOp14
 70
     1
102
RTVSPropertyOp15
 70
     1
102
RTVSPropertyOp16
 70
     1
102
RTVSPropertyOp17
 70
     1
102
RTVSPropertyOp18
 70
     1
102
RTVSPropertyOp19
 70
     1
102
RTVSPropertyOp20
 70
     1
102
RTVSPropertyOp21
 70
     1
102
RTVSPropertyOp22
 70
     1
102
RTVSPropertyOp23
 70
     1
102
RTVSPropertyOp24
 70
     1
102
RTVSPropertyOp25
 70
     1
102
RTVSPropertyOp26
 70
     1
102
RTVSPropertyOp27
 70
     1
102
RTVSPropertyOp28
 70
     1
102
RTVSPropertyOp29
 70
     1
102
RTVSPropertyOp30
 70
     1
102
RTVSPropertyOp31
 70
     1
102
RTVSPropertyOp32
 70
     1
102
RTVSPropertyOp33
 70
     1
102
RTVSPropertyOp34
 70
     1
102
RTVSPropertyOp35
 70
     1
102
RTVSPropertyOp36
 70
     1
102
RTVSPropertyOp37
 70
     1
102
RTVSPropertyOp38
 70
     1
102
RTVSPropertyOp39
 70
     1
102
RTVSPropertyOp40
 70
     1
102
RTVSPropertyOp41
 70
     1
102
RTVSPropertyOp42
 70
     1
102
RTVSPropertyOp43
 70
     1
102
RTVSPropertyOp44
 70
     1
102
RTVSPropertyOp45
 70
     1
102
RTVSPropertyOp46
 70
     1
102
RTVSPropertyOp47
 70
     1
102
RTVSPropertyOp48
 70
     1
102
RTVSPropertyOp49
 70
     1
102
RTVSPropertyOp50
 70
     1
102
RTVSPropertyOp51
 70
     0
102
RTVSPropertyOp52
 70
     0
102
RTVSPropertyOp53
 70
     1
102
RTVSPropertyOp54
 70
     1
102
RTVSPropertyOp55
 70
     1
102
RTVSPropertyOp56
 70
     1
102
RTVSPropertyOp57
 70
     1
102
RTVSPost2010Prop28
280
     0
102
RTVSPost2010PropOp28
 70
     1
102
RTVSPost2010Prop29
280
     1
102
RTVSPost2010PropOp29
 70
     1
102
RTVSPost2010Prop30
280
     1
102
RTVSPost2010PropOp30
 70
     1
102
RTVSPost2010Prop31
280
     0
102
RTVSPost2010PropOp31
 70
     1
102
RTVSPost2010Prop32
280
     0
102
RTVSPost2010PropOp32
 70
     1
102
RTVSPost2010Prop33
280
     0
102
RTVSPost2010PropOp33
 70
     1
102
RTVSPost2010Prop34
280
     0
102
RTVSPost2010PropOp34
 70
     1
102
RTVSPost2010Prop35
280
     0
102
RTVSPost2010PropOp35
 70
     1
102
RTVSPost2010Prop36
280
     0
102
RTVSPost2010PropOp36
 70
     1
102
RTVSPost2010Prop37
 90
       50
102
RTVSPost2010PropOp37
 70
     1
102
RTVSPost2010Prop38
140
0.0
102
RTVSPost2010PropOp38
 70
     1
102
RTVSPost2010Prop39
140
1.0
102
RTVSPost2010PropOp39
 70
     1
102
RTVSPost2010Prop40
 90
        0
102
RTVSPost2010PropOp40
 70
     1
102
RTVSPost2010Prop41ColorIndex
 90
       18
102
RTVSPost2010Prop41ColorRGB
 90
        0
102
RTVSPost2010PropOp41
 70
     1
102
RTVSPost2010Prop42
 90
       50
102
RTVSPost2010PropOp42
 70
     1
102
RTVSPost2010Prop43
 90
        3
102
RTVSPost2010PropOp43
 70
     1
102
RTVSPost2010Prop44ColorIndex
 90
        5
102
RTVSPost2010Prop44ColorRGB
 90
      255
102
RTVSPost2010PropOp44
 70
     1
102
RTVSPost2010Prop45
280
     0
102
RTVSPost2010PropOp45
 70
     1
102
RTVSPost2010Prop46
 90
       50
102
RTVSPost2010PropOp46
 70
     1
102
RTVSPost2010Prop47
 90
       50
102
RTVSPost2010PropOp47
 70
     1
102
RTVSPost2010Prop48
 90
       50
102
RTVSPost2010PropOp48
 70
     1
102
RTVSPost2010Prop49
280
     0
102
RTVSPost2010PropOp49
 70
     1
102
RTVSPost2010Prop50
 90
       50
102
RTVSPost2010PropOp50
 70
     1
102
RTVSPost2010Prop51ColorIndex
 90
      256
102
RTVSPost2010Prop51ColorRGB
 90
-16777216
102
RTVSPost2010PropOp51
 70
     0
102
RTVSPost2010Prop52
140
1.0
102
RTVSPost2010PropOp52
 70
     0
102
RTVSPost2010Prop53
 90
        2
102
RTVSPost2010PropOp53
 70
     1
102
RTVSPost2010Prop54
  1
strokes_ogs.tif
102
RTVSPost2010PropOp54
 70
     1
102
RTVSPost2010Prop55
280
     0
102
RTVSPost2010PropOp55
 70
     1
102
RTVSPost2010Prop56
140
1.0
102
RTVSPost2010PropOp56
 70
     1
102
RTVSPost2010Prop57
140
1.0
102
RTVSPost2010PropOp57
 70
     1
  0
XRECORD
  5
189
102
{ACAD_REACTORS
330
188
102
}
330
188
100
AcDbXrecord
280
     1
102
RTVSPropertyOp0
 70
     1
102
RTVSPropertyOp1
 70
     1
102
RTVSPropertyOp2
 70
     1
102
RTVSPropertyOp3
 70
     1
102
RTVSPropertyOp4
 70
     1
102
RTVSPropertyOp5
 70
     1
102
RTVSPropertyOp6
 70
     1
102
RTVSPropertyOp7
 70
     1
102
RTVSPropertyOp8
 70
     1
102
RTVSPropertyOp9
 70
     1
102
RTVSPropertyOp10
 70
     1
102
RTVSPropertyOp11
 70
     1
102
RTVSPropertyOp12
 70
     1
102
RTVSPropertyOp13
 70
     1
102
RTVSPropertyOp14
 70
     1
102
RTVSPropertyOp15
 70
     1
102
RTVSPropertyOp16
 70
     1
102
RTVSPropertyOp17
 70
     1
102
RTVSPropertyOp18
 70
     1
102
RTVSPropertyOp19
 70
     1
102
RTVSPropertyOp20
 70
     1
102
RTVSPropertyOp21
 70
     1
102
RTVSPropertyOp22
 70
     1
102
RTVSPropertyOp23
 70
     1
102
RTVSPropertyOp24
 70
     1
102
RTVSPropertyOp25
 70
     1
102
RTVSPropertyOp26
 70
     1
102
RTVSPropertyOp27
 70
     1
102
RTVSPropertyOp28
 70
     1
102
RTVSPropertyOp29
 70
     1
102
RTVSPropertyOp30
 70
     1
102
RTVSPropertyOp31
 70
     1
102
RTVSPropertyOp32
 70
     1
102
RTVSPropertyOp33
 70
     1
102
RTVSPropertyOp34
 70
     1
102
RTVSPropertyOp35
 70
     1
102
RTVSPropertyOp36
 70
     1
102
RTVSPropertyOp37
 70
     1
102
RTVSPropertyOp38
 70
     1
102
RTVSPropertyOp39
 70
     1
102
RTVSPropertyOp40
 70
     1
102
RTVSPropertyOp41
 70
     1
102
RTVSPropertyOp42
 70
     1
102
RTVSPropertyOp43
 70
     1
102
RTVSPropertyOp44
 70
     1
102
RTVSPropertyOp45
 70
     1
102
RTVSPropertyOp46
 70
     1
102
RTVSPropertyOp47
 70
     1
102
RTVSPropertyOp48
 70
     1
102
RTVSPropertyOp49
 70
     1
102
RTVSPropertyOp50
 70
     1
102
RTVSPropertyOp51
 70
     0
102
RTVSPropertyOp52
 70
     0
102
RTVSPropertyOp53
 70
     1
102
RTVSPropertyOp54
 70
     1
102
RTVSPropertyOp55
 70
     1
102
RTVSPropertyOp56
 70
     1
102
RTVSPropertyOp57
 70
     1
102
RTVSPost2010Prop28
280
     0
102
RTVSPost2010PropOp28
 70
     1
102
RTVSPost2010Prop29
280
     1
102
RTVSPost2010PropOp29
 70
     1
102
RTVSPost2010Prop30
280
     1
102
RTVSPost2010PropOp30
 70
     1
102
RTVSPost2010Prop31
280
     0
102
RTVSPost2010PropOp31
 70
     1
102
RTVSPost2010Prop32
280
     0
102
RTVSPost2010PropOp32
 70
     1
102
RTVSPost2010Prop33
280
     0
102
RTVSPost2010PropOp33
 70
     1
102
RTVSPost2010Prop34
280
     0
102
RTVSPost2010PropOp34
 70
     1
102
RTVSPost2010Prop35
280
     0
102
RTVSPost2010PropOp35
 70
     1
102
RTVSPost2010Prop36
280
     0
102
RTVSPost2010PropOp36
 70
     1
102
RTVSPost2010Prop37
 90
       50
102
RTVSPost2010PropOp37
 70
     1
102
RTVSPost2010Prop38
140
0.0
102
RTVSPost2010PropOp38
 70
     1
102
RTVSPost2010Prop39
140
1.0
102
RTVSPost2010PropOp39
 70
     1
102
RTVSPost2010Prop40
 90
        0
102
RTVSPost2010PropOp40
 70
     1
102
RTVSPost2010Prop41ColorIndex
 90
       18
102
RTVSPost2010Prop41ColorRGB
 90
        0
102
RTVSPost2010PropOp41
 70
     1
102
RTVSPost2010Prop42
 90
       50
102
RTVSPost2010PropOp42
 70
     1
102
RTVSPost2010Prop43
 90
        3
102
RTVSPost2010PropOp43
 70
     1
102
RTVSPost2010Prop44ColorIndex
 90
        5
102
RTVSPost2010Prop44ColorRGB
 90
      255
102
RTVSPost2010PropOp44
 70
     1
102
RTVSPost2010Prop45
280
     0
102
RTVSPost2010PropOp45
 70
     1
102
RTVSPost2010Prop46
 90
       50
102
RTVSPost2010PropOp46
 70
     1
102
RTVSPost2010Prop47
 90
       50
102
RTVSPost2010PropOp47
 70
     1
102
RTVSPost2010Prop48
 90
       50
102
RTVSPost2010PropOp48
 70
     1
102
RTVSPost2010Prop49
280
     0
102
RTVSPost2010PropOp49
 70
     1
102
RTVSPost2010Prop50
 90
       50
102
RTVSPost2010PropOp50
 70
     1
102
RTVSPost2010Prop51ColorIndex
 90
      256
102
RTVSPost2010Prop51ColorRGB
 90
-16777216
102
RTVSPost2010PropOp51
 70
     0
102
RTVSPost2010Prop52
140
1.0
102
RTVSPost2010PropOp52
 70
     0
102
RTVSPost2010Prop53
 90
        2
102
RTVSPost2010PropOp53
 70
     1
102
RTVSPost2010Prop54
  1
strokes_ogs.tif
102
RTVSPost2010PropOp54
 70
     1
102
RTVSPost2010Prop55
280
     0
102
RTVSPost2010PropOp55
 70
     1
102
RTVSPost2010Prop56
140
1.0
102
RTVSPost2010PropOp56
 70
     1
102
RTVSPost2010Prop57
140
1.0
102
RTVSPost2010PropOp57
 70
     1
  0
ENDSEC
  0
EOF
