  0
SECTION
  2
HEADER
  9
$ACADVER
  1
AC1021
  9
$ACADMAINTVER
 70
    25
  9
$DWGCODEPAGE
  3
ANSI_1252
  9
$INSBASE
 10
0.0
 20
0.0
 30
0.0
  9
$EXTMIN
 10
0.0
 20
0.0
 30
0.0
  9
$EXTMAX
 10
3000.0
 20
4500.0
 30
0.0
  9
$LIMMIN
 10
0.0
 20
0.0
  9
$LIMMAX
 10
3000.0
 20
4500.0
  9
$ORTHOMODE
 70
     0
  9
$REGENMODE
 70
     1
  9
$FILLMODE
 70
     1
  9
$QTEXTMODE
 70
     0
  9
$MIRRTEXT
 70
     1
  9
$LTSCALE
 40
1.0
  9
$ATTMODE
 70
     1
  9
$TEXTSIZE
 40
10.0
  9
$TRACEWID
 40
1.0
  9
$TEXTSTYLE
  7
Standard
  9
$CLAYER
  8
0
  9
$CELTYPE
  6
ByLayer
  9
$CECOLOR
 62
   256
  9
$CELTSCALE
 40
1.0
  9
$DISPSILH
 70
     0
  9
$DIMSCALE
 40
1.0
  9
$DIMASZ
 40
2.5
  9
$DIMEXO
 40
0.625
  9
$DIMDLI
 40
3.75
  9
$DIMRND
 40
0.0
  9
$DIMDLE
 40
0.0
  9
$DIMEXE
 40
1.25
  9
$DIMTP
 40
0.0
  9
$DIMTM
 40
0.0
  9
$DIMTXT
 40
2.5
  9
$DIMCEN
 40
2.5
  9
$DIMTSZ
 40
0.0
  9
$DIMTOL
 70
     0
  9
$DIMLIM
 70
     0
  9
$DIMTIH
 70
     0
  9
$DIMTOH
 70
     0
  9
$DIMSE1
 70
     0
  9
$DIMSE2
 70
     0
  9
$DIMTAD
 70
     1
  9
$DIMZIN
 70
     8
  9
$DIMBLK
  1

  9
$DIMASO
 70
     1
  9
$DIMSHO
 70
     1
  9
$DIMPOST
  1

  9
$DIMAPOST
  1

  9
$DIMALT
 70
     0
  9
$DIMALTD
 70
     3
  9
$DIMALTF
 40
0.0393700787
  9
$DIMLFAC
 40
1.0
  9
$DIMTOFL
 70
     1
  9
$DIMTVP
 40
0.0
  9
$DIMTIX
 70
     0
  9
$DIMSOXD
 70
     0
  9
$DIMSAH
 70
     0
  9
$DIMBLK1
  1

  9
$DIMBLK2
  1

  9
$DIMSTYLE
  2
ISO-25
  9
$DIMCLRD
 70
     0
  9
$DIMCLRE
 70
     0
  9
$DIMCLRT
 70
     0
  9
$DIMTFAC
 40
1.0
  9
$DIMGAP
 40
0.625
  9
$DIMJUST
 70
     0
  9
$DIMSD1
 70
     0
  9
$DIMSD2
 70
     0
  9
$DIMTOLJ
 70
     0
  9
$DIMTZIN
 70
     8
  9
$DIMALTZ
 70
     0
  9
$DIMALTTZ
 70
     0
  9
$DIMUPT
 70
     0
  9
$DIMDEC
 70
     2
  9
$DIMTDEC
 70
     2
  9
$DIMALTU
 70
     2
  9
$DIMALTTD
 70
     3
  9
$DIMTXSTY
  7
Standard
  9
$DIMAUNIT
 70
     0
  9
$DIMADEC
 70
     0
  9
$DIMALTRND
 40
0.0
  9
$DIMAZIN
 70
     0
  9
$DIMDSEP
 70
    44
  9
$DIMATFIT
 70
     3
  9
$DIMFRAC
 70
     0
  9
$DIMLDRBLK
  1

  9
$DIMLUNIT
 70
     2
  9
$DIMLWD
 70
    -2
  9
$DIMLWE
 70
    -2
  9
$DIMTMOVE
 70
     0
  9
$DIMFXL
 40
1.0
  9
$DIMFXLON
 70
     0
  9
$DIMJOGANG
 40
0.7853981634
  9
$DIMTFILL
 70
     0
  9
$DIMTFILLCLR
 70
     0
  9
$DIMARCSYM
 70
     0
  9
$DIMLTYPE
  6

  9
$DIMLTEX1
  6

  9
$DIMLTEX2
  6

  9
$LUNITS
 70
     2
  9
$LUPREC
 70
     4
  9
$SKETCHINC
 40
1.0
  9
$FILLETRAD
 40
10.0
  9
$AUNITS
 70
     0
  9
$AUPREC
 70
     0
  9
$MENU
  1
.
  9
$ELEVATION
 40
0.0
  9
$PELEVATION
 40
0.0
  9
$THICKNESS
 40
0.0
  9
$LIMCHECK
 70
     0
  9
$CHAMFERA
 40
0.0
  9
$CHAMFERB
 40
0.0
  9
$CHAMFERC
 40
0.0
  9
$CHAMFERD
 40
0.0
  9
$SKPOLY
 70
     0
  9
$TDCREATE
 40
2459555.461739224
  9
$TDUCREATE
 40
2459555.420072558
  9
$TDUPDATE
 40
2459555.461741215
  9
$TDUUPDATE
 40
2459555.420074549
  9
$TDINDWG
 40
0.0000000116
  9
$TDUSRTIMER
 40
0.0000000116
  9
$USRTIMER
 70
     1
  9
$ANGBASE
 50
0.0
  9
$ANGDIR
 70
     0
  9
$PDMODE
 70
     0
  9
$PDSIZE
 40
0.0
  9
$PLINEWID
 40
0.0
  9
$SPLFRAME
 70
     0
  9
$SPLINETYPE
 70
     6
  9
$SPLINESEGS
 70
     8
  9
$HANDSEED
  5
221
  9
$SURFTAB1
 70
     6
  9
$SURFTAB2
 70
     6
  9
$SURFTYPE
 70
     6
  9
$SURFU
 70
     6
  9
$SURFV
 70
     6
  9
$UCSBASE
  2

  9
$UCSNAME
  2

  9
$UCSORG
 10
0.0
 20
0.0
 30
0.0
  9
$UCSXDIR
 10
1.0
 20
0.0
 30
0.0
  9
$UCSYDIR
 10
0.0
 20
1.0
 30
0.0
  9
$UCSORTHOREF
  2

  9
$UCSORTHOVIEW
 70
     0
  9
$UCSORGTOP
 10
0.0
 20
0.0
 30
0.0
  9
$UCSORGBOTTOM
 10
0.0
 20
0.0
 30
0.0
  9
$UCSORGLEFT
 10
0.0
 20
0.0
 30
0.0
  9
$UCSORGRIGHT
 10
0.0
 20
0.0
 30
0.0
  9
$UCSORGFRONT
 10
0.0
 20
0.0
 30
0.0
  9
$UCSORGBACK
 10
0.0
 20
0.0
 30
0.0
  9
$PUCSBASE
  2

  9
$PUCSNAME
  2

  9
$PUCSORG
 10
0.0
 20
0.0
 30
0.0
  9
$PUCSXDIR
 10
1.0
 20
0.0
 30
0.0
  9
$PUCSYDIR
 10
0.0
 20
1.0
 30
0.0
  9
$PUCSORTHOREF
  2

  9
$PUCSORTHOVIEW
 70
     0
  9
$PUCSORGTOP
 10
0.0
 20
0.0
 30
0.0
  9
$PUCSORGBOTTOM
 10
0.0
 20
0.0
 30
0.0
  9
$PUCSORGLEFT
 10
0.0
 20
0.0
 30
0.0
  9
$PUCSORGRIGHT
 10
0.0
 20
0.0
 30
0.0
  9
$PUCSORGFRONT
 10
0.0
 20
0.0
 30
0.0
  9
$PUCSORGBACK
 10
0.0
 20
0.0
 30
0.0
  9
$USERI1
 70
     0
  9
$USERI2
 70
     0
  9
$USERI3
 70
     0
  9
$USERI4
 70
     0
  9
$USERI5
 70
     0
  9
$USERR1
 40
0.0
  9
$USERR2
 40
0.0
  9
$USERR3
 40
0.0
  9
$USERR4
 40
0.0
  9
$USERR5
 40
0.0
  9
$WORLDVIEW
 70
     1
  9
$SHADEDGE
 70
     3
  9
$SHADEDIF
 70
    70
  9
$TILEMODE
 70
     1
  9
$MAXACTVP
 70
    64
  9
$PINSBASE
 10
0.0
 20
0.0
 30
0.0
  9
$PLIMCHECK
 70
     0
  9
$PEXTMIN
 10
0.0
 20
0.0
 30
0.0
  9
$PEXTMAX
 10
3000.0
 20
4500.0
 30
0.0
  9
$PLIMMIN
 10
0.0
 20
0.0
  9
$PLIMMAX
 10
3000.0
 20
4500.0
  9
$UNITMODE
 70
     0
  9
$VISRETAIN
 70
     1
  9
$PLINEGEN
 70
     0
  9
$PSLTSCALE
 70
     1
  9
$TREEDEPTH
 70
  3020
  9
$CMLSTYLE
  2
Standard
  9
$CMLJUST
 70
     0
  9
$CMLSCALE
 40
20.0
  9
$PROXYGRAPHICS
 70
     1
  9
$MEASUREMENT
 70
     1
  9
$CELWEIGHT
370
    -1
  9
$ENDCAPS
280
     0
  9
$JOINSTYLE
280
     0
  9
$LWDISPLAY
290
     0
  9
$INSUNITS
 70
     4
  9
$HYPERLINKBASE
  1

  9
$STYLESHEET
  1

  9
$XEDIT
290
     1
  9
$CEPSNTYPE
380
     0
  9
$PSTYLEMODE
290
     1
  9
$FINGERPRINTGUID
  2
{407F6719-6170-4514-A918-63E127206526}
  9
$VERSIONGUID
  2
{FAEB1C32-E019-11D5-929B-00C0DF256EC4}
  9
$EXTNAMES
290
     1
  9
$PSVPSCALE
 40
0.0
  9
$OLESTARTUP
290
     0
  9
$SORTENTS
280
   127
  9
$INDEXCTL
280
     0
  9
$HIDETEXT
280
     1
  9
$XCLIPFRAME
290
     0
  9
$HALOGAP
280
     0
  9
$OBSCOLOR
 70
   257
  9
$OBSLTYPE
280
     0
  9
$INTERSECTIONDISPLAY
280
     0
  9
$INTERSECTIONCOLOR
 70
   257
  9
$DIMASSOC
280
     2
  9
$PROJECTNAME
  1

  9
$CAMERADISPLAY
290
     0
  9
$LENSLENGTH
 40
50.0
  9
$CAMERAHEIGHT
 40
0.0
  9
$STEPSPERSEC
 40
2.0
  9
$STEPSIZE
 40
6.0
  9
$3DDWFPREC
 40
2.0
  9
$PSOLWIDTH
 40
5.0
  9
$PSOLHEIGHT
 40
80.0
  9
$LOFTANG1
 40
1.5707963268
  9
$LOFTANG2
 40
1.5707963268
  9
$LOFTMAG1
 40
0.0
  9
$LOFTMAG2
 40
0.0
  9
$LOFTPARAM
 70
     7
  9
$LOFTNORMALS
280
     1
  9
$LATITUDE
 40
37.795
  9
$LONGITUDE
 40
-122.394
  9
$NORTHDIRECTION
 40
0.0
  9
$TIMEZONE
 70
 -8000
  9
$LIGHTGLYPHDISPLAY
280
     1
  9
$TILEMODELIGHTSYNCH
280
     1
  9
$CMATERIAL
347
44
  9
$SOLIDHIST
280
     0
  9
$SHOWHIST
280
     1
  9
$DWFFRAME
280
     2
  9
$DGNFRAME
280
     2
  9
$REALWORLDSCALE
290
     1
  9
$INTERFERECOLOR
 62
   256
  9
$CSHADOW
280
     0
  9
$SHADOWPLANELOCATION
 40
0.0
  0
ENDSEC
  0
SECTION
  2
CLASSES
  0
CLASS
  1
ACDBDICTIONARYWDFLT
  2
AcDbDictionaryWithDefault
  3
ObjectDBX Classes
 90
        0
 91
        4
280
     0
281
     0
  0
CLASS
  1
VISUALSTYLE
  2
AcDbVisualStyle
  3
ObjectDBX Classes
 90
     4095
 91
        4
280
     0
281
     0
  0
CLASS
  1
MATERIAL
  2
AcDbMaterial
  3
ObjectDBX Classes
 90
     1153
 91
        4
280
     0
281
     0
  0
CLASS
  1
SCALE
  2
AcDbScale
  3
ObjectDBX Classes
 90
     1153
 91
        4
280
     0
281
     0
  0
CLASS
  1
TABLESTYLE
  2
AcDbTableStyle
  3
ObjectDBX Classes
 90
     4095
 91
        4
280
     0
281
     0
  0
CLASS
  1
MLEADERSTYLE
  2
AcDbMLeaderStyle
  3
ACDB_MLEADERSTYLE_CLASS
 90
     4095
 91
        4
280
     0
281
     0
  0
CLASS
  1
SUN
  2
AcDbSun
  3
SCENEOE
 90
     1153
 91
        4
280
     0
281
     0
  0
CLASS
  1
DICTIONARYVAR
  2
AcDbDictionaryVar
  3
ObjectDBX Classes
 90
        0
 91
        4
280
     0
281
     0
  0
CLASS
  1
CELLSTYLEMAP
  2
AcDbCellStyleMap
  3
ObjectDBX Classes
 90
     1152
 91
        4
280
     0
281
     0
  0
ENDSEC
  0
SECTION
  2
TABLES
  0
TABLE
  2
VPORT
  5
8
330
0
100
AcDbSymbolTable
 70
     1
  0
VPORT
  5
29
330
8
100
AcDbSymbolTableRecord
100
AcDbViewportTableRecord
  2
*Active
 70
     0
 10
0.0
 20
0.0
 11
1.0
 21
1.0
 12
344.1869158879
 22
148.5
 13
0.0
 23
0.0
 14
10.0
 24
10.0
 15
10.0
 25
10.0
 16
0.0
 26
0.0
 36
1.0
 17
0.0
 27
0.0
 37
0.0
 40
297.0
 41
1.9729729729
 42
50.0
 43
0.0
 44
0.0
 50
0.0
 51
0.0
 71
     0
 72
   100
 73
     1
 74
     3
 75
     0
 76
     0
 77
     0
 78
     0
281
     0
 65
     1
110
0.0
120
0.0
130
0.0
111
1.0
121
0.0
131
0.0
112
0.0
122
1.0
132
0.0
 79
     0
146
0.0
348
2F
 60
     3
 61
     5
292
     1
282
     1
141
0.0
142
0.0
 63
   250
361
6D
  0
ENDTAB
  0
TABLE
  2
LTYPE
  5
5
330
0
100
AcDbSymbolTable
 70
     1
  0
LTYPE
  5
14
330
5
100
AcDbSymbolTableRecord
100
AcDbLinetypeTableRecord
  2
ByBlock
 70
     0
  3

 72
    65
 73
     0
 40
0.0
  0
LTYPE
  5
15
330
5
100
AcDbSymbolTableRecord
100
AcDbLinetypeTableRecord
  2
ByLayer
 70
     0
  3

 72
    65
 73
     0
 40
0.0
  0
LTYPE
  5
16
330
5
100
AcDbSymbolTableRecord
100
AcDbLinetypeTableRecord
  2
Continuous
 70
     0
  3
Solid line
 72
    65
 73
     0
 40
0.0
  0
ENDTAB
  0
TABLE
  2
LAYER
  5
2
330
0
100
AcDbSymbolTable
 70
     5
  0
LAYER
  5
10
330
2
100
AcDbSymbolTableRecord
100
AcDbLayerTableRecord
  2
0
 70
     0
 62
     7
  6
Continuous
370
    -3
390
F
347
46
  0
LAYER
  5
6E
330
2
100
AcDbSymbolTableRecord
100
AcDbLayerTableRecord
  2
Default
 70
     0
 62
     7
  6
Continuous
370
    -3
390
F
347
46
  0
LAYER
  5
71
330
2
100
AcDbSymbolTableRecord
100
AcDbLayerTableRecord
  2
DV1_Default
 70
     0
 62
     7
  6
Continuous
370
    -3
390
F
347
46
  0
LAYER
  5
D5
330
2
100
AcDbSymbolTableRecord
100
AcDbLayerTableRecord
  2
DV2_Default
 70
     0
 62
     7
  6
Continuous
370
    -3
390
F
347
46
  0
LAYER
  5
11B
330
2
100
AcDbSymbolTableRecord
100
AcDbLayerTableRecord
  2
DV3_Default
 70
     0
 62
     7
  6
Continuous
370
    -3
390
F
347
46
  0
ENDTAB
  0
TABLE
  2
STYLE
  5
3
330
0
100
AcDbSymbolTable
 70
     1
  0
STYLE
  5
11
330
3
100
AcDbSymbolTableRecord
100
AcDbTextStyleTableRecord
  2
Standard
 70
     0
 40
0.0
 41
1.0
 50
0.0
 71
     0
 42
10.0
  3
txt
  4

  0
ENDTAB
  0
TABLE
  2
VIEW
  5
6
330
0
100
AcDbSymbolTable
 70
     0
  0
ENDTAB
  0
TABLE
  2
UCS
  5
7
330
0
100
AcDbSymbolTable
 70
     0
  0
ENDTAB
  0
TABLE
  2
APPID
  5
9
330
0
100
AcDbSymbolTable
 70
     2
  0
APPID
  5
12
330
9
100
AcDbSymbolTableRecord
100
AcDbRegAppTableRecord
  2
ACAD
 70
     0
  0
APPID
  5
217
330
9
100
AcDbSymbolTableRecord
100
AcDbRegAppTableRecord
  2
ACAD_MLEADERVER
 70
     0
  0
ENDTAB
  0
TABLE
  2
DIMSTYLE
  5
A
330
0
100
AcDbSymbolTable
 70
     1
100
AcDbDimStyleTable
  0
DIMSTYLE
105
27
330
A
100
AcDbSymbolTableRecord
100
AcDbDimStyleTableRecord
  2
ISO-25
 70
     0
 41
2.5
 42
0.625
 43
3.75
 44
1.25
 73
     0
 74
     0
 77
     1
 78
     8
140
2.5
141
2.5
143
0.0393700787
147
0.625
171
     3
172
     1
178
     0
271
     2
272
     2
274
     3
278
    44
283
     0
284
     8
340
11
  0
ENDTAB
  0
TABLE
  2
BLOCK_RECORD
  5
1
330
0
100
AcDbSymbolTable
 70
     4
  0
BLOCK_RECORD
  5
1F
330
1
100
AcDbSymbolTableRecord
100
AcDbBlockTableRecord
  2
*Model_Space
340
22
 70
     0
280
     1
281
     0
  0
BLOCK_RECORD
  5
1B
330
1
100
AcDbSymbolTableRecord
100
AcDbBlockTableRecord
  2
*Paper_Space
340
1E
 70
     0
280
     1
281
     0
  0
BLOCK_RECORD
  5
6F
330
1
100
AcDbSymbolTableRecord
100
AcDbBlockTableRecord
  2
SE
340
0
102
{BLKREFS
331
70
102
}
 70
     0
280
     1
281
     0
  0
BLOCK_RECORD
  5
D3
330
1
100
AcDbSymbolTableRecord
100
AcDbBlockTableRecord
  2
SE1
340
0
102
{BLKREFS
331
D4
102
}
 70
     0
280
     1
281
     0
  0
BLOCK_RECORD
  5
119
330
1
100
AcDbSymbolTableRecord
100
AcDbBlockTableRecord
  2
SE2
340
0
102
{BLKREFS
331
11A
102
}
 70
     0
280
     1
281
     0
  0
ENDTAB
  0
ENDSEC
  0
SECTION
  2
BLOCKS
  0
BLOCK
  5
20
330
1F
100
AcDbEntity
  8
0
100
AcDbBlockBegin
  2
*Model_Space
 70
     0
 10
0.0
 20
0.0
 30
0.0
  3
*Model_Space
  1

  0
ENDBLK
  5
21
330
1F
100
AcDbEntity
  8
0
100
AcDbBlockEnd
  0
BLOCK
  5
1C
330
1B
100
AcDbEntity
 67
     1
  8
0
100
AcDbBlockBegin
  2
*Paper_Space
 70
     0
 10
0.0
 20
0.0
 30
0.0
  3
*Paper_Space
  1

  0
ENDBLK
  5
1D
330
1B
100
AcDbEntity
 67
     1
  8
0
100
AcDbBlockEnd
  0
BLOCK
  5
D1
330
6F
100
AcDbEntity
  8
0
100
AcDbBlockBegin
  2
SE
 70
     0
 10
0.0
 20
0.0
 30
0.0
  3
SE
  1

  0
ARC
  5
72
330
6F
100
AcDbEntity
  8
DV1_Default
 62
     7
100
AcDbCircle
 10
62.85
 20
675.5468946851
 30
0.0
 40
6.5
100
AcDbArc
 50
270.0
 51
0.0
  0
LINE
  5
73
330
6F
100
AcDbEntity
  8
DV1_Default
 62
     7
100
AcDbLine
 10
69.35
 20
675.5468946851
 30
0.0
 11
69.35
 21
679.5468946851
 31
0.0
  0
ARC
  5
74
330
6F
100
AcDbEntity
  8
DV1_Default
 62
     7
100
AcDbCircle
 10
69.85
 20
679.5468946851
 30
0.0
 40
0.5000000000000004
100
AcDbArc
 50
90.0
 51
180.0
  0
LINE
  5
75
330
6F
100
AcDbEntity
  8
DV1_Default
 62
     7
100
AcDbLine
 10
69.85
 20
680.0468946851
 30
0.0
 11
80.85
 21
680.0468946851
 31
0.0
  0
ARC
  5
76
330
6F
100
AcDbEntity
  8
DV1_Default
 62
     7
100
AcDbCircle
 10
80.85
 20
679.5468946851
 30
0.0
 40
0.5000000000000004
100
AcDbArc
 50
0.0
 51
90.0
  0
LINE
  5
77
330
6F
100
AcDbEntity
  8
DV1_Default
 62
     7
100
AcDbLine
 10
81.35
 20
679.5468946851
 30
0.0
 11
81.35
 21
675.5468946851
 31
0.0
  0
ARC
  5
78
330
6F
100
AcDbEntity
  8
DV1_Default
 62
     7
100
AcDbCircle
 10
87.85
 20
675.5468946851
 30
0.0
 40
6.500000000000005
100
AcDbArc
 50
180.0
 51
270.0
  0
LINE
  5
79
330
6F
100
AcDbEntity
  8
DV1_Default
 62
     7
100
AcDbLine
 10
87.85
 20
669.0468946851
 30
0.0
 11
137.85
 21
669.0468946851
 31
0.0
  0
ARC
  5
7A
330
6F
100
AcDbEntity
  8
DV1_Default
 62
     7
100
AcDbCircle
 10
137.85
 20
675.5468946851
 30
0.0
 40
6.5
100
AcDbArc
 50
270.0
 51
0.0
  0
LINE
  5
7B
330
6F
100
AcDbEntity
  8
DV1_Default
 62
     7
100
AcDbLine
 10
144.35
 20
675.5468946851
 30
0.0
 11
144.35
 21
679.5468946851
 31
0.0
  0
ARC
  5
7C
330
6F
100
AcDbEntity
  8
DV1_Default
 62
     7
100
AcDbCircle
 10
144.85
 20
679.5468946851
 30
0.0
 40
0.5000000000000004
100
AcDbArc
 50
90.0
 51
180.0
  0
LINE
  5
7D
330
6F
100
AcDbEntity
  8
DV1_Default
 62
     7
100
AcDbLine
 10
144.85
 20
680.0468946851
 30
0.0
 11
155.85
 21
680.0468946851
 31
0.0
  0
ARC
  5
7E
330
6F
100
AcDbEntity
  8
DV1_Default
 62
     7
100
AcDbCircle
 10
155.85
 20
679.5468946851
 30
0.0
 40
0.5000000000000004
100
AcDbArc
 50
0.0
 51
89.9999999998
  0
LINE
  5
7F
330
6F
100
AcDbEntity
  8
DV1_Default
 62
     7
100
AcDbLine
 10
156.35
 20
679.5468946851
 30
0.0
 11
156.35
 21
675.5468946851
 31
0.0
  0
ARC
  5
80
330
6F
100
AcDbEntity
  8
DV1_Default
 62
     7
100
AcDbCircle
 10
162.85
 20
675.5468946851
 30
0.0
 40
6.5
100
AcDbArc
 50
180.0
 51
270.0
  0
LINE
  5
81
330
6F
100
AcDbEntity
  8
DV1_Default
 62
     7
100
AcDbLine
 10
162.85
 20
669.0468946851
 30
0.0
 11
212.85
 21
669.0468946851
 31
0.0
  0
ARC
  5
82
330
6F
100
AcDbEntity
  8
DV1_Default
 62
     7
100
AcDbCircle
 10
212.85
 20
675.5468946851
 30
0.0
 40
6.5
100
AcDbArc
 50
270.0
 51
0.0
  0
LINE
  5
83
330
6F
100
AcDbEntity
  8
DV1_Default
 62
     7
100
AcDbLine
 10
219.35
 20
675.5468946851
 30
0.0
 11
219.35
 21
679.5468946851
 31
0.0
  0
ARC
  5
84
330
6F
100
AcDbEntity
  8
DV1_Default
 62
     7
100
AcDbCircle
 10
219.85
 20
679.5468946851
 30
0.0
 40
0.5000000000000004
100
AcDbArc
 50
90.0
 51
180.0
  0
LINE
  5
85
330
6F
100
AcDbEntity
  8
DV1_Default
 62
     7
100
AcDbLine
 10
219.85
 20
680.0468946851
 30
0.0
 11
230.85
 21
680.0468946851
 31
0.0
  0
ARC
  5
86
330
6F
100
AcDbEntity
  8
DV1_Default
 62
     7
100
AcDbCircle
 10
230.85
 20
679.5468946851
 30
0.0
 40
0.5000000000000004
100
AcDbArc
 50
0.0
 51
90.0
  0
LINE
  5
87
330
6F
100
AcDbEntity
  8
DV1_Default
 62
     7
100
AcDbLine
 10
231.35
 20
679.5468946851
 30
0.0
 11
231.35
 21
675.5468946851
 31
0.0
  0
ARC
  5
88
330
6F
100
AcDbEntity
  8
DV1_Default
 62
     7
100
AcDbCircle
 10
237.85
 20
675.5468946851
 30
0.0
 40
6.500000000000005
100
AcDbArc
 50
180.0
 51
270.0
  0
LINE
  5
89
330
6F
100
AcDbEntity
  8
DV1_Default
 62
     7
100
AcDbLine
 10
237.85
 20
669.0468946851
 30
0.0
 11
287.85
 21
669.0468946851
 31
0.0
  0
ARC
  5
8A
330
6F
100
AcDbEntity
  8
DV1_Default
 62
     7
100
AcDbCircle
 10
287.85
 20
675.5468946851
 30
0.0
 40
6.5
100
AcDbArc
 50
270.0
 51
90.0
  0
LINE
  5
8B
330
6F
100
AcDbEntity
  8
DV1_Default
 62
     7
100
AcDbLine
 10
287.85
 20
682.0468946851
 30
0.0
 11
12.85
 21
682.0468946851
 31
0.0
  0
ARC
  5
8C
330
6F
100
AcDbEntity
  8
DV1_Default
 62
     7
100
AcDbCircle
 10
12.85
 20
675.5468946851
 30
0.0
 40
6.5
100
AcDbArc
 50
90.0
 51
270.0
  0
LINE
  5
8D
330
6F
100
AcDbEntity
  8
DV1_Default
 62
     7
100
AcDbLine
 10
12.85
 20
669.0468946851
 30
0.0
 11
62.85
 21
669.0468946851
 31
0.0
  0
LINE
  5
8E
330
6F
100
AcDbEntity
  8
DV1_Default
 62
     7
100
AcDbLine
 10
258.2620030209
 20
682.3468946851
 30
0.0
 11
257.3500032386
 21
682.3468946851
 31
0.0
  0
LINE
  5
8F
330
6F
100
AcDbEntity
  8
DV1_Default
 62
     7
100
AcDbLine
 10
261.7149469654
 20
682.3468946851
 30
0.0
 11
262.2700889547
 21
682.3468946851
 31
0.0
  0
LINE
  5
90
330
6F
100
AcDbEntity
  8
DV1_Default
 62
     7
100
AcDbLine
 10
262.2700889547
 20
682.3468946851
 30
0.0
 11
262.3943282057
 21
682.3468946851
 31
0.0
  0
LINE
  5
91
330
6F
100
AcDbEntity
  8
DV1_Default
 62
     7
100
AcDbLine
 10
262.3943282057
 20
682.3468946851
 30
0.0
 11
264.0244616418
 21
682.3468946851
 31
0.0
  0
LINE
  5
92
330
6F
100
AcDbEntity
  8
DV1_Default
 62
     7
100
AcDbLine
 10
264.0244616418
 20
682.3468946851
 30
0.0
 11
265.4014665462
 21
682.3468946851
 31
0.0
  0
LINE
  5
93
330
6F
100
AcDbEntity
  8
DV1_Default
 62
     7
100
AcDbLine
 10
265.4014665462
 20
682.3468946851
 30
0.0
 11
265.677487531
 21
682.3468946851
 31
0.0
  0
LINE
  5
94
330
6F
100
AcDbEntity
  8
DV1_Default
 62
     7
100
AcDbLine
 10
265.677487531
 20
682.3468946851
 30
0.0
 11
265.951958506
 21
682.3468946851
 31
0.0
  0
LINE
  5
95
330
6F
100
AcDbEntity
  8
DV1_Default
 62
     7
100
AcDbLine
 10
265.951958506
 20
682.3468946851
 30
0.0
 11
266.2295295007
 21
682.3468946851
 31
0.0
  0
LINE
  5
96
330
6F
100
AcDbEntity
  8
DV1_Default
 62
     7
100
AcDbLine
 10
266.2295295007
 20
682.3468946851
 30
0.0
 11
266.5055504855
 21
682.3468946851
 31
0.0
  0
LINE
  5
97
330
6F
100
AcDbEntity
  8
DV1_Default
 62
     7
100
AcDbLine
 10
266.5055504855
 20
682.3468946851
 30
0.0
 11
266.7800214604
 21
682.3468946851
 31
0.0
  0
LINE
  5
98
330
6F
100
AcDbEntity
  8
DV1_Default
 62
     7
100
AcDbLine
 10
266.7800214604
 20
682.3468946851
 30
0.0
 11
267.0560424453
 21
682.3468946851
 31
0.0
  0
LINE
  5
99
330
6F
100
AcDbEntity
  8
DV1_Default
 62
     7
100
AcDbLine
 10
267.0560424453
 20
682.3468946851
 30
0.0
 11
268.988189339
 21
682.3468946851
 31
0.0
  0
LINE
  5
9A
330
6F
100
AcDbEntity
  8
DV1_Default
 62
     7
100
AcDbLine
 10
268.988189339
 20
682.3468946851
 30
0.0
 11
270.6430037011
 21
682.3468946851
 31
0.0
  0
LINE
  5
9B
330
6F
100
AcDbEntity
  8
DV1_Default
 62
     7
100
AcDbLine
 10
270.6430037011
 20
682.3468946851
 30
0.0
 11
270.9193823805
 21
682.3468946851
 31
0.0
  0
LINE
  5
9C
330
6F
100
AcDbEntity
  8
DV1_Default
 62
     7
100
AcDbLine
 10
270.9193823805
 20
682.3468946851
 30
0.0
 11
271.1950456708
 21
682.3468946851
 31
0.0
  0
LINE
  5
9D
330
6F
100
AcDbEntity
  8
DV1_Default
 62
     7
100
AcDbLine
 10
271.1950456708
 20
682.3468946851
 30
0.0
 11
271.4692781827
 21
682.3468946851
 31
0.0
  0
LINE
  5
9E
330
6F
100
AcDbEntity
  8
DV1_Default
 62
     7
100
AcDbLine
 10
271.4692781827
 20
682.3468946851
 30
0.0
 11
271.7452991675
 21
682.3468946851
 31
0.0
  0
LINE
  5
9F
330
6F
100
AcDbEntity
  8
DV1_Default
 62
     7
100
AcDbLine
 10
271.7452991675
 20
682.3468946851
 30
0.0
 11
272.0232278567
 21
682.3468946851
 31
0.0
  0
LINE
  5
A0
330
6F
100
AcDbEntity
  8
DV1_Default
 62
     7
100
AcDbLine
 10
272.0232278567
 20
682.3468946851
 30
0.0
 11
272.2979372948
 21
682.3468946851
 31
0.0
  0
LINE
  5
A1
330
6F
100
AcDbEntity
  8
DV1_Default
 62
     7
100
AcDbLine
 10
272.2979372948
 20
682.3468946851
 30
0.0
 11
275.5807389254
 21
682.3468946851
 31
0.0
  0
LINE
  5
A2
330
6F
100
AcDbEntity
  8
DV1_Default
 62
     7
100
AcDbLine
 10
275.5807389254
 20
682.3468946851
 30
0.0
 11
275.7052166395
 21
682.3468946851
 31
0.0
  0
LINE
  5
A3
330
6F
100
AcDbEntity
  8
DV1_Default
 62
     7
100
AcDbLine
 10
275.7052166395
 20
682.3468946851
 30
0.0
 11
276.2601201658
 21
682.3468946851
 31
0.0
  0
LINE
  5
A4
330
6F
100
AcDbEntity
  8
DV1_Default
 62
     7
100
AcDbLine
 10
259.9054893128
 20
682.3468946851
 30
0.0
 11
260.3149303763
 21
682.3468946851
 31
0.0
  0
LINE
  5
A5
330
6F
100
AcDbEntity
  8
DV1_Default
 62
     7
100
AcDbLine
 10
260.3149303763
 20
682.3468946851
 30
0.0
 11
261.2074975873
 21
682.3468946851
 31
0.0
  0
LINE
  5
A6
330
6F
100
AcDbEntity
  8
DV1_Default
 62
     7
100
AcDbLine
 10
261.2074975873
 20
682.3468946851
 30
0.0
 11
261.7149469654
 21
682.3468946851
 31
0.0
  0
LINE
  5
A7
330
6F
100
AcDbEntity
  8
DV1_Default
 62
     7
100
AcDbLine
 10
276.2601201658
 20
682.3468946851
 30
0.0
 11
276.7552799881
 21
682.3468946851
 31
0.0
  0
LINE
  5
A8
330
6F
100
AcDbEntity
  8
DV1_Default
 62
     7
100
AcDbLine
 10
276.7555293343
 20
682.3468946851
 30
0.0
 11
277.649286686
 21
682.3468946851
 31
0.0
  0
LINE
  5
A9
330
6F
100
AcDbEntity
  8
DV1_Default
 62
     7
100
AcDbLine
 10
277.649286686
 20
682.3468946851
 30
0.0
 11
278.0589662125
 21
682.3468946851
 31
0.0
  0
LINE
  5
AA
330
6F
100
AcDbEntity
  8
DV1_Default
 62
     7
100
AcDbLine
 10
258.2690366058
 20
682.3468946851
 30
0.0
 11
258.3148215122
 21
682.3468946851
 31
0.0
  0
LINE
  5
AB
330
6F
100
AcDbEntity
  8
DV1_Default
 62
     7
100
AcDbLine
 10
258.3148215122
 20
682.3468946851
 30
0.0
 11
258.6201734526
 21
682.3468946851
 31
0.0
  0
LINE
  5
AC
330
6F
100
AcDbEntity
  8
DV1_Default
 62
     7
100
AcDbLine
 10
258.6201734526
 20
682.3468946851
 30
0.0
 11
259.0465453929
 21
682.3468946851
 31
0.0
  0
LINE
  5
AD
330
6F
100
AcDbEntity
  8
DV1_Default
 62
     7
100
AcDbLine
 10
259.0465453929
 20
682.3468946851
 30
0.0
 11
259.8948908666
 21
682.3468946851
 31
0.0
  0
LINE
  5
AE
330
6F
100
AcDbEntity
  8
DV1_Default
 62
     7
100
AcDbLine
 10
278.0695956507
 20
682.3468946851
 30
0.0
 11
278.9274486546
 21
682.3468946851
 31
0.0
  0
LINE
  5
AF
330
6F
100
AcDbEntity
  8
DV1_Default
 62
     7
100
AcDbLine
 10
278.9274486546
 20
682.3468946851
 30
0.0
 11
279.3560859938
 21
682.3468946851
 31
0.0
  0
LINE
  5
B0
330
6F
100
AcDbEntity
  8
DV1_Default
 62
     7
100
AcDbLine
 10
279.3560859938
 20
682.3468946851
 30
0.0
 11
279.6596494614
 21
682.3468946851
 31
0.0
  0
LINE
  5
B1
330
6F
100
AcDbEntity
  8
DV1_Default
 62
     7
100
AcDbLine
 10
279.6596494614
 20
682.3468946851
 30
0.0
 11
279.7059112938
 21
682.3468946851
 31
0.0
  0
LINE
  5
B2
330
6F
100
AcDbEntity
  8
DV1_Default
 62
     7
100
AcDbLine
 10
279.7059112938
 20
682.3468946851
 30
0.0
 11
280.3500000022
 21
682.3468946851
 31
0.0
  0
LINE
  5
B3
330
6F
100
AcDbEntity
  8
DV1_Default
 62
     7
100
AcDbLine
 10
276.2601201658
 20
682.0468946851
 30
0.0
 11
276.2601201658
 21
682.3468946851
 31
0.0
  0
LINE
  5
B4
330
6F
100
AcDbEntity
  8
DV1_Default
 62
     7
100
AcDbLine
 10
275.7052166396
 20
682.0468946851
 30
0.0
 11
275.7052166396
 21
682.3468946851
 31
0.0
  0
LINE
  5
B5
330
6F
100
AcDbEntity
  8
DV1_Default
 62
     7
100
AcDbLine
 10
272.2979372948
 20
682.0468946851
 30
0.0
 11
272.2979372948
 21
682.3468946851
 31
0.0
  0
LINE
  5
B6
330
6F
100
AcDbEntity
  8
DV1_Default
 62
     7
100
AcDbLine
 10
272.0232278567
 20
682.0468946851
 30
0.0
 11
272.0232278567
 21
682.3468946851
 31
0.0
  0
LINE
  5
B7
330
6F
100
AcDbEntity
  8
DV1_Default
 62
     7
100
AcDbLine
 10
271.7452991675
 20
682.0468946851
 30
0.0
 11
271.7452991675
 21
682.3468946851
 31
0.0
  0
LINE
  5
B8
330
6F
100
AcDbEntity
  8
DV1_Default
 62
     7
100
AcDbLine
 10
271.4692781827
 20
682.0468946851
 30
0.0
 11
271.4692781827
 21
682.3468946851
 31
0.0
  0
LINE
  5
B9
330
6F
100
AcDbEntity
  8
DV1_Default
 62
     7
100
AcDbLine
 10
271.1950456708
 20
682.0468946851
 30
0.0
 11
271.1950456708
 21
682.3468946851
 31
0.0
  0
LINE
  5
BA
330
6F
100
AcDbEntity
  8
DV1_Default
 62
     7
100
AcDbLine
 10
270.9193823805
 20
682.0468946851
 30
0.0
 11
270.9193823805
 21
682.3468946851
 31
0.0
  0
LINE
  5
BB
330
6F
100
AcDbEntity
  8
DV1_Default
 62
     7
100
AcDbLine
 10
267.0560424453
 20
682.0468946851
 30
0.0
 11
267.0560424453
 21
682.3468946851
 31
0.0
  0
LINE
  5
BC
330
6F
100
AcDbEntity
  8
DV1_Default
 62
     7
100
AcDbLine
 10
266.7800214604
 20
682.0468946851
 30
0.0
 11
266.7800214604
 21
682.3468946851
 31
0.0
  0
LINE
  5
BD
330
6F
100
AcDbEntity
  8
DV1_Default
 62
     7
100
AcDbLine
 10
266.5055504855
 20
682.0468946851
 30
0.0
 11
266.5055504855
 21
682.3468946851
 31
0.0
  0
LINE
  5
BE
330
6F
100
AcDbEntity
  8
DV1_Default
 62
     7
100
AcDbLine
 10
266.2295295006
 20
682.0468946851
 30
0.0
 11
266.2295295006
 21
682.3468946851
 31
0.0
  0
LINE
  5
BF
330
6F
100
AcDbEntity
  8
DV1_Default
 62
     7
100
AcDbLine
 10
265.951958506
 20
682.0468946851
 30
0.0
 11
265.951958506
 21
682.3468946851
 31
0.0
  0
LINE
  5
C0
330
6F
100
AcDbEntity
  8
DV1_Default
 62
     7
100
AcDbLine
 10
265.677487531
 20
682.0468946851
 30
0.0
 11
265.677487531
 21
682.3468946851
 31
0.0
  0
LINE
  5
C1
330
6F
100
AcDbEntity
  8
DV1_Default
 62
     7
100
AcDbLine
 10
262.2700889547
 20
682.0468946851
 30
0.0
 11
262.2700889547
 21
682.3468946851
 31
0.0
  0
LINE
  5
C2
330
6F
100
AcDbEntity
  8
DV1_Default
 62
     7
100
AcDbLine
 10
261.7149469654
 20
682.0468946851
 30
0.0
 11
261.7149469654
 21
682.3468946851
 31
0.0
  0
LINE
  5
C3
330
6F
100
AcDbEntity
  8
DV1_Default
 62
     7
100
AcDbLine
 10
278.0589662125
 20
682.0468946851
 30
0.0
 11
278.0589662125
 21
682.3468946851
 31
0.0
  0
LINE
  5
C4
330
6F
100
AcDbEntity
  8
DV1_Default
 62
     7
100
AcDbLine
 10
277.649286686
 20
682.0468946851
 30
0.0
 11
277.649286686
 21
682.3468946851
 31
0.0
  0
LINE
  5
C5
330
6F
100
AcDbEntity
  8
DV1_Default
 62
     7
100
AcDbLine
 10
276.7552799881
 20
682.0468946851
 30
0.0
 11
276.7552799881
 21
682.3468946851
 31
0.0
  0
LINE
  5
C6
330
6F
100
AcDbEntity
  8
DV1_Default
 62
     7
100
AcDbLine
 10
261.2074975872
 20
682.0468946851
 30
0.0
 11
261.2074975873
 21
682.3468946851
 31
0.0
  0
LINE
  5
C7
330
6F
100
AcDbEntity
  8
DV1_Default
 62
     7
100
AcDbLine
 10
260.3149303763
 20
682.0468946851
 30
0.0
 11
260.3149303763
 21
682.3468946851
 31
0.0
  0
LINE
  5
C8
330
6F
100
AcDbEntity
  8
DV1_Default
 62
     7
100
AcDbLine
 10
259.9054893128
 20
682.0468946851
 30
0.0
 11
259.9054893128
 21
682.3468946851
 31
0.0
  0
LINE
  5
C9
330
6F
100
AcDbEntity
  8
DV1_Default
 62
     7
100
AcDbLine
 10
279.7059112938
 20
682.0468946851
 30
0.0
 11
279.7059112938
 21
682.3468946851
 31
0.0
  0
LINE
  5
CA
330
6F
100
AcDbEntity
  8
DV1_Default
 62
     7
100
AcDbLine
 10
279.6596494614
 20
682.0468946851
 30
0.0
 11
279.6596494614
 21
682.3468946851
 31
0.0
  0
LINE
  5
CB
330
6F
100
AcDbEntity
  8
DV1_Default
 62
     7
100
AcDbLine
 10
279.3560859938
 20
682.0468946851
 30
0.0
 11
279.3560859938
 21
682.3468946851
 31
0.0
  0
LINE
  5
CC
330
6F
100
AcDbEntity
  8
DV1_Default
 62
     7
100
AcDbLine
 10
258.6201734526
 20
682.0468946851
 30
0.0
 11
258.6201734526
 21
682.3468946851
 31
0.0
  0
LINE
  5
CD
330
6F
100
AcDbEntity
  8
DV1_Default
 62
     7
100
AcDbLine
 10
258.3148215122
 20
682.0468946851
 30
0.0
 11
258.3148215122
 21
682.3468946851
 31
0.0
  0
LINE
  5
CE
330
6F
100
AcDbEntity
  8
DV1_Default
 62
     7
100
AcDbLine
 10
258.2690366058
 20
682.0468946851
 30
0.0
 11
258.2690366058
 21
682.3468946851
 31
0.0
  0
LINE
  5
CF
330
6F
100
AcDbEntity
  8
DV1_Default
 62
     7
100
AcDbLine
 10
280.3500000022
 20
682.0468946851
 30
0.0
 11
280.3500000022
 21
682.3468946851
 31
0.0
  0
LINE
  5
D0
330
6F
100
AcDbEntity
  8
DV1_Default
 62
     7
100
AcDbLine
 10
257.3500032386
 20
682.3468946851
 30
0.0
 11
257.3500032386
 21
682.0468946851
 31
0.0
  0
ENDBLK
  5
D2
330
6F
100
AcDbEntity
  8
0
100
AcDbBlockEnd
  0
BLOCK
  5
117
330
D3
100
AcDbEntity
  8
0
100
AcDbBlockBegin
  2
SE1
 70
     0
 10
0.0
 20
0.0
 30
0.0
  3
SE1
  1

  0
LINE
  5
D6
330
D3
100
AcDbEntity
  8
DV2_Default
 62
     7
100
AcDbLine
 10
357.05
 20
669.5468946851
 30
0.0
 11
357.05
 21
681.5468946851
 31
0.0
  0
ARC
  5
D7
330
D3
100
AcDbEntity
  8
DV2_Default
 62
     7
100
AcDbCircle
 10
357.55
 20
669.5468946851
 30
0.0
 40
0.4999999999999727
100
AcDbArc
 50
180.0
 51
270.0
  0
ARC
  5
D8
330
D3
100
AcDbEntity
  8
DV2_Default
 62
     7
100
AcDbCircle
 10
357.55
 20
681.5468946851
 30
0.0
 40
0.4999999999999727
100
AcDbArc
 50
90.0
 51
180.0
  0
LINE
  5
D9
330
D3
100
AcDbEntity
  8
DV2_Default
 62
     7
100
AcDbLine
 10
382.05
 20
681.5468946851
 30
0.0
 11
382.05
 21
669.5468946851
 31
0.0
  0
LINE
  5
DA
330
D3
100
AcDbEntity
  8
DV2_Default
 62
     7
100
AcDbLine
 10
381.55
 20
669.0468946851
 30
0.0
 11
357.55
 21
669.0468946851
 31
0.0
  0
ARC
  5
DB
330
D3
100
AcDbEntity
  8
DV2_Default
 62
     7
100
AcDbCircle
 10
381.55
 20
669.5468946851
 30
0.0
 40
0.5000000000000004
100
AcDbArc
 50
270.0
 51
0.0
  0
ARC
  5
DC
330
D3
100
AcDbEntity
  8
DV2_Default
 62
     7
100
AcDbCircle
 10
381.55
 20
681.5468946851
 30
0.0
 40
0.5000000000000004
100
AcDbArc
 50
0.0
 51
90.0
  0
LINE
  5
DD
330
D3
100
AcDbEntity
  8
DV2_Default
 62
     7
100
AcDbLine
 10
381.55
 20
682.0468946851
 30
0.0
 11
357.55
 21
682.0468946851
 31
0.0
  0
LINE
  5
DE
330
D3
100
AcDbEntity
  8
DV2_Default
 62
     7
100
AcDbLine
 10
832.05
 20
679.5468946851
 30
0.0
 11
382.05
 21
679.5468946851
 31
0.0
  0
LINE
  5
DF
330
D3
100
AcDbEntity
  8
DV2_Default
 62
     7
100
AcDbLine
 10
382.05
 20
671.5468946851
 30
0.0
 11
832.05
 21
671.5468946851
 31
0.0
  0
LINE
  5
E0
330
D3
100
AcDbEntity
  8
DV2_Default
 62
     7
100
AcDbLine
 10
857.05
 20
681.5468946851
 30
0.0
 11
857.05
 21
669.5468946851
 31
0.0
  0
ARC
  5
E1
330
D3
100
AcDbEntity
  8
DV2_Default
 62
     7
100
AcDbCircle
 10
856.55
 20
681.5468946851
 30
0.0
 40
0.4999999999999727
100
AcDbArc
 50
0.0
 51
90.0
  0
ARC
  5
E2
330
D3
100
AcDbEntity
  8
DV2_Default
 62
     7
100
AcDbCircle
 10
856.55
 20
669.5468946851
 30
0.0
 40
0.4999999999999727
100
AcDbArc
 50
270.0
 51
0.0
  0
LINE
  5
E3
330
D3
100
AcDbEntity
  8
DV2_Default
 62
     7
100
AcDbLine
 10
832.55
 20
669.0468946851
 30
0.0
 11
856.55
 21
669.0468946851
 31
0.0
  0
ARC
  5
E4
330
D3
100
AcDbEntity
  8
DV2_Default
 62
     7
100
AcDbCircle
 10
832.55
 20
669.5468946851
 30
0.0
 40
0.5000000000000004
100
AcDbArc
 50
180.0
 51
270.0
  0
LINE
  5
E5
330
D3
100
AcDbEntity
  8
DV2_Default
 62
     7
100
AcDbLine
 10
832.05
 20
669.5468946851
 30
0.0
 11
832.05
 21
681.5468946851
 31
0.0
  0
LINE
  5
E6
330
D3
100
AcDbEntity
  8
DV2_Default
 62
     7
100
AcDbLine
 10
832.55
 20
682.0468946851
 30
0.0
 11
856.55
 21
682.0468946851
 31
0.0
  0
ARC
  5
E7
330
D3
100
AcDbEntity
  8
DV2_Default
 62
     7
100
AcDbCircle
 10
832.55
 20
681.5468946851
 30
0.0
 40
0.5000000000000004
100
AcDbArc
 50
90.0
 51
180.0
  0
LINE
  5
E8
330
D3
100
AcDbEntity
  8
DV2_Default
 62
     7
100
AcDbLine
 10
840.3620446235
 20
682.3468946851
 30
0.0
 11
840.3874156395
 21
682.3468946851
 31
0.0
  0
LINE
  5
E9
330
D3
100
AcDbEntity
  8
DV2_Default
 62
     7
100
AcDbLine
 10
844.7064988243
 20
682.3468946851
 30
0.0
 11
844.6805084782
 21
682.3468946851
 31
0.0
  0
LINE
  5
EA
330
D3
100
AcDbEntity
  8
DV2_Default
 62
     7
100
AcDbLine
 10
840.4008620947
 20
682.3468946851
 30
0.0
 11
844.6670853594
 21
682.3468946851
 31
0.0
  0
LINE
  5
EB
330
D3
100
AcDbEntity
  8
DV2_Default
 62
     7
100
AcDbLine
 10
848.5570139252
 20
682.3468946851
 30
0.0
 11
848.8376849396
 21
682.3468946851
 31
0.0
  0
LINE
  5
EC
330
D3
100
AcDbEntity
  8
DV2_Default
 62
     7
100
AcDbLine
 10
848.8376849396
 20
682.3468946851
 30
0.0
 11
848.9191200724
 21
682.3468946851
 31
0.0
  0
LINE
  5
ED
330
D3
100
AcDbEntity
  8
DV2_Default
 62
     7
100
AcDbLine
 10
848.9191200725
 20
682.3468946851
 30
0.0
 11
849.0478901215
 21
682.3468946851
 31
0.0
  0
LINE
  5
EE
330
D3
100
AcDbEntity
  8
DV2_Default
 62
     7
100
AcDbLine
 10
849.0478901215
 20
682.3468946851
 30
0.0
 11
849.3360727221
 21
682.3468946851
 31
0.0
  0
LINE
  5
EF
330
D3
100
AcDbEntity
  8
DV2_Default
 62
     7
100
AcDbLine
 10
849.3360727221
 20
682.3468946851
 30
0.0
 11
849.3868057368
 21
682.3468946851
 31
0.0
  0
LINE
  5
F0
330
D3
100
AcDbEntity
  8
DV2_Default
 62
     7
100
AcDbLine
 10
849.3868057368
 20
682.3468946851
 30
0.0
 11
849.4785543968
 21
682.3468946851
 31
0.0
  0
LINE
  5
F1
330
D3
100
AcDbEntity
  8
DV2_Default
 62
     7
100
AcDbLine
 10
849.4785543968
 20
682.3468946851
 30
0.0
 11
849.5738203868
 21
682.3468946851
 31
0.0
  0
LINE
  5
F2
330
D3
100
AcDbEntity
  8
DV2_Default
 62
     7
100
AcDbLine
 10
849.5738203868
 20
682.3468946851
 30
0.0
 11
849.6674171354
 21
682.3468946851
 31
0.0
  0
LINE
  5
F3
330
D3
100
AcDbEntity
  8
DV2_Default
 62
     7
100
AcDbLine
 10
849.6674171354
 20
682.3468946851
 30
0.0
 11
849.7593446427
 21
682.3468946851
 31
0.0
  0
LINE
  5
F4
330
D3
100
AcDbEntity
  8
DV2_Default
 62
     7
100
AcDbLine
 10
849.7593446427
 20
682.3468946851
 30
0.0
 11
850.130512386
 21
682.3468946851
 31
0.0
  0
LINE
  5
F5
330
D3
100
AcDbEntity
  8
DV2_Default
 62
     7
100
AcDbLine
 10
846.9804750605
 20
682.3468946851
 30
0.0
 11
847.1233740455
 21
682.3468946851
 31
0.0
  0
LINE
  5
F6
330
D3
100
AcDbEntity
  8
DV2_Default
 62
     7
100
AcDbLine
 10
847.1233740455
 20
682.3468946851
 30
0.0
 11
847.5083726459
 21
682.3468946851
 31
0.0
  0
LINE
  5
F7
330
D3
100
AcDbEntity
  8
DV2_Default
 62
     7
100
AcDbLine
 10
847.5083726459
 20
682.3468946851
 30
0.0
 11
848.0021103989
 21
682.3468946851
 31
0.0
  0
LINE
  5
F8
330
D3
100
AcDbEntity
  8
DV2_Default
 62
     7
100
AcDbLine
 10
848.0021103989
 20
682.3468946851
 30
0.0
 11
848.3239162901
 21
682.3468946851
 31
0.0
  0
LINE
  5
F9
330
D3
100
AcDbEntity
  8
DV2_Default
 62
     7
100
AcDbLine
 10
848.3357822423
 20
682.3468946851
 30
0.0
 11
848.5527216891
 21
682.3468946851
 31
0.0
  0
LINE
  5
FA
330
D3
100
AcDbEntity
  8
DV2_Default
 62
     7
100
AcDbLine
 10
845.764551949
 20
682.3468946851
 30
0.0
 11
845.4042421756
 21
682.3468946851
 31
0.0
  0
LINE
  5
FB
330
D3
100
AcDbEntity
  8
DV2_Default
 62
     7
100
AcDbLine
 10
845.764551949
 20
682.3468946851
 30
0.0
 11
846.1387600962
 21
682.3468946851
 31
0.0
  0
LINE
  5
FC
330
D3
100
AcDbEntity
  8
DV2_Default
 62
     7
100
AcDbLine
 10
846.1387600962
 20
682.3468946851
 30
0.0
 11
846.4433672351
 21
682.3468946851
 31
0.0
  0
LINE
  5
FD
330
D3
100
AcDbEntity
  8
DV2_Default
 62
     7
100
AcDbLine
 10
846.4484043716
 20
682.3468946851
 30
0.0
 11
846.5253087065
 21
682.3468946851
 31
0.0
  0
LINE
  5
FE
330
D3
100
AcDbEntity
  8
DV2_Default
 62
     7
100
AcDbLine
 10
846.5253087065
 20
682.3468946851
 30
0.0
 11
846.943811366
 21
682.3468946851
 31
0.0
  0
LINE
  5
FF
330
D3
100
AcDbEntity
  8
DV2_Default
 62
     7
100
AcDbLine
 10
846.943811366
 20
682.3468946851
 30
0.0
 11
846.9762423413
 21
682.3468946851
 31
0.0
  0
LINE
  5
100
330
D3
100
AcDbEntity
  8
DV2_Default
 62
     7
100
AcDbLine
 10
844.6670853594
 20
682.0468946851
 30
0.0
 11
844.6670853594
 21
682.3468946851
 31
0.0
  0
LINE
  5
101
330
D3
100
AcDbEntity
  8
DV2_Default
 62
     7
100
AcDbLine
 10
840.4008620947
 20
682.0468946851
 30
0.0
 11
840.4008620947
 21
682.3468946851
 31
0.0
  0
LINE
  5
102
330
D3
100
AcDbEntity
  8
DV2_Default
 62
     7
100
AcDbLine
 10
850.130512386
 20
682.0468946851
 30
0.0
 11
850.130512386
 21
682.3468946851
 31
0.0
  0
LINE
  5
103
330
D3
100
AcDbEntity
  8
DV2_Default
 62
     7
100
AcDbLine
 10
849.7593446427
 20
682.0468946851
 30
0.0
 11
849.7593446427
 21
682.3468946851
 31
0.0
  0
LINE
  5
104
330
D3
100
AcDbEntity
  8
DV2_Default
 62
     7
100
AcDbLine
 10
849.6674171354
 20
682.0468946851
 30
0.0
 11
849.6674171354
 21
682.3468946851
 31
0.0
  0
LINE
  5
105
330
D3
100
AcDbEntity
  8
DV2_Default
 62
     7
100
AcDbLine
 10
849.5738203868
 20
682.0468946851
 30
0.0
 11
849.5738203868
 21
682.3468946851
 31
0.0
  0
LINE
  5
106
330
D3
100
AcDbEntity
  8
DV2_Default
 62
     7
100
AcDbLine
 10
849.4785543968
 20
682.0468946851
 30
0.0
 11
849.4785543968
 21
682.3468946851
 31
0.0
  0
LINE
  5
107
330
D3
100
AcDbEntity
  8
DV2_Default
 62
     7
100
AcDbLine
 10
849.3868057368
 20
682.0468946851
 30
0.0
 11
849.3868057368
 21
682.3468946851
 31
0.0
  0
LINE
  5
108
330
D3
100
AcDbEntity
  8
DV2_Default
 62
     7
100
AcDbLine
 10
849.3360727221
 20
682.0468946851
 30
0.0
 11
849.3360727221
 21
682.3468946851
 31
0.0
  0
LINE
  5
109
330
D3
100
AcDbEntity
  8
DV2_Default
 62
     7
100
AcDbLine
 10
849.0478901215
 20
682.0468946851
 30
0.0
 11
849.0478901215
 21
682.3468946851
 31
0.0
  0
LINE
  5
10A
330
D3
100
AcDbEntity
  8
DV2_Default
 62
     7
100
AcDbLine
 10
848.9191200725
 20
682.0468946851
 30
0.0
 11
848.9191200725
 21
682.3468946851
 31
0.0
  0
LINE
  5
10B
330
D3
100
AcDbEntity
  8
DV2_Default
 62
     7
100
AcDbLine
 10
848.5570139252
 20
682.0468946851
 30
0.0
 11
848.5570139252
 21
682.3468946851
 31
0.0
  0
LINE
  5
10C
330
D3
100
AcDbEntity
  8
DV2_Default
 62
     7
100
AcDbLine
 10
848.3239162901
 20
682.0468946851
 30
0.0
 11
848.3239162901
 21
682.3468946851
 31
0.0
  0
LINE
  5
10D
330
D3
100
AcDbEntity
  8
DV2_Default
 62
     7
100
AcDbLine
 10
848.0021103989
 20
682.0468946851
 30
0.0
 11
848.0021103989
 21
682.3468946851
 31
0.0
  0
LINE
  5
10E
330
D3
100
AcDbEntity
  8
DV2_Default
 62
     7
100
AcDbLine
 10
846.9804750605
 20
682.0468946851
 30
0.0
 11
846.9804750605
 21
682.3468946851
 31
0.0
  0
LINE
  5
10F
330
D3
100
AcDbEntity
  8
DV2_Default
 62
     7
100
AcDbLine
 10
846.9762423413
 20
682.0468946851
 30
0.0
 11
846.9762423413
 21
682.3468946851
 31
0.0
  0
LINE
  5
110
330
D3
100
AcDbEntity
  8
DV2_Default
 62
     7
100
AcDbLine
 10
846.943811366
 20
682.0468946851
 30
0.0
 11
846.943811366
 21
682.3468946851
 31
0.0
  0
LINE
  5
111
330
D3
100
AcDbEntity
  8
DV2_Default
 62
     7
100
AcDbLine
 10
846.5253087065
 20
682.0468946851
 30
0.0
 11
846.5253087065
 21
682.3468946851
 31
0.0
  0
LINE
  5
112
330
D3
100
AcDbEntity
  8
DV2_Default
 62
     7
100
AcDbLine
 10
846.4484043716
 20
682.0468946851
 30
0.0
 11
846.4484043716
 21
682.3468946851
 31
0.0
  0
LINE
  5
113
330
D3
100
AcDbEntity
  8
DV2_Default
 62
     7
100
AcDbLine
 10
844.7064988243
 20
682.0468946851
 30
0.0
 11
844.7064988243
 21
682.3468946851
 31
0.0
  0
LINE
  5
114
330
D3
100
AcDbEntity
  8
DV2_Default
 62
     7
100
AcDbLine
 10
840.3620446235
 20
682.3468946851
 30
0.0
 11
840.3620446235
 21
682.0468946851
 31
0.0
  0
LINE
  5
115
330
D3
100
AcDbEntity
  8
DV2_Default
 62
     7
100
AcDbLine
 10
848.5527216891
 20
682.0468946851
 30
0.0
 11
848.5527216891
 21
682.3468946851
 31
0.0
  0
LINE
  5
116
330
D3
100
AcDbEntity
  8
DV2_Default
 62
     7
100
AcDbLine
 10
845.4042421756
 20
682.3468946851
 30
0.0
 11
845.4042421756
 21
682.0468946851
 31
0.0
  0
ENDBLK
  5
118
330
D3
100
AcDbEntity
  8
0
100
AcDbBlockEnd
  0
BLOCK
  5
1D9
330
119
100
AcDbEntity
  8
0
100
AcDbBlockBegin
  2
SE2
 70
     0
 10
0.0
 20
0.0
 30
0.0
  3
SE2
  1

  0
LINE
  5
11C
330
119
100
AcDbEntity
  8
DV3_Default
 62
     7
100
AcDbLine
 10
12.85
 20
606.35
 30
0.0
 11
6.85
 21
606.35
 31
0.0
  0
LINE
  5
11D
330
119
100
AcDbEntity
  8
DV3_Default
 62
     7
100
AcDbLine
 10
12.85
 20
606.35
 30
0.0
 11
287.85
 21
606.35
 31
0.0
  0
LINE
  5
11E
330
119
100
AcDbEntity
  8
DV3_Default
 62
     7
100
AcDbLine
 10
287.85
 20
606.35
 30
0.0
 11
293.85
 21
606.35
 31
0.0
  0
LINE
  5
11F
330
119
100
AcDbEntity
  8
DV3_Default
 62
     7
100
AcDbLine
 10
287.85
 20
581.35
 30
0.0
 11
293.85
 21
581.35
 31
0.0
  0
LINE
  5
120
330
119
100
AcDbEntity
  8
DV3_Default
 62
     7
100
AcDbLine
 10
287.85
 20
581.35
 30
0.0
 11
12.85
 21
581.35
 31
0.0
  0
LINE
  5
121
330
119
100
AcDbEntity
  8
DV3_Default
 62
     7
100
AcDbLine
 10
12.85
 20
581.35
 30
0.0
 11
6.85
 21
581.35
 31
0.0
  0
ARC
  5
122
330
119
100
AcDbEntity
  8
DV3_Default
 62
     7
100
AcDbCircle
 10
6.85
 20
605.85
 30
0.0
 40
0.4999999999999727
100
AcDbArc
 50
90.0
 51
180.0
  0
ARC
  5
123
330
119
100
AcDbEntity
  8
DV3_Default
 62
     7
100
AcDbCircle
 10
293.85
 20
605.85
 30
0.0
 40
0.5000000000000004
100
AcDbArc
 50
0.0
 51
90.0
  0
ARC
  5
124
330
119
100
AcDbEntity
  8
DV3_Default
 62
     7
100
AcDbCircle
 10
6.85
 20
581.85
 30
0.0
 40
0.5000000000000004
100
AcDbArc
 50
180.0
 51
270.0
  0
LINE
  5
125
330
119
100
AcDbEntity
  8
DV3_Default
 62
     7
100
AcDbLine
 10
6.35
 20
605.85
 30
0.0
 11
6.35
 21
581.85
 31
0.0
  0
ARC
  5
126
330
119
100
AcDbEntity
  8
DV3_Default
 62
     7
100
AcDbCircle
 10
293.85
 20
581.85
 30
0.0
 40
0.5000000000000004
100
AcDbArc
 50
270.0
 51
0.0
  0
LINE
  5
127
330
119
100
AcDbEntity
  8
DV3_Default
 62
     7
100
AcDbLine
 10
294.35
 20
581.85
 30
0.0
 11
294.35
 21
605.85
 31
0.0
  0
LINE
  5
128
330
119
100
AcDbEntity
  8
DV3_Default
 62
     7
100
AcDbLine
 10
291.85
 20
131.35
 30
0.0
 11
291.85
 21
581.35
 31
0.0
  0
LINE
  5
129
330
119
100
AcDbEntity
  8
DV3_Default
 62
     7
100
AcDbLine
 10
283.85
 20
581.35
 30
0.0
 11
283.85
 21
131.35
 31
0.0
  0
LINE
  5
12A
330
119
100
AcDbEntity
  8
DV3_Default
 62
     7
100
AcDbLine
 10
266.85
 20
131.35
 30
0.0
 11
266.85
 21
581.35
 31
0.0
  0
LINE
  5
12B
330
119
100
AcDbEntity
  8
DV3_Default
 62
     7
100
AcDbLine
 10
258.85
 20
581.35
 30
0.0
 11
258.85
 21
131.35
 31
0.0
  0
LINE
  5
12C
330
119
100
AcDbEntity
  8
DV3_Default
 62
     7
100
AcDbLine
 10
241.85
 20
131.35
 30
0.0
 11
241.85
 21
581.35
 31
0.0
  0
LINE
  5
12D
330
119
100
AcDbEntity
  8
DV3_Default
 62
     7
100
AcDbLine
 10
233.85
 20
581.35
 30
0.0
 11
233.85
 21
131.35
 31
0.0
  0
LINE
  5
12E
330
119
100
AcDbEntity
  8
DV3_Default
 62
     7
100
AcDbLine
 10
216.85
 20
131.35
 30
0.0
 11
216.85
 21
581.35
 31
0.0
  0
LINE
  5
12F
330
119
100
AcDbEntity
  8
DV3_Default
 62
     7
100
AcDbLine
 10
208.85
 20
581.35
 30
0.0
 11
208.85
 21
131.35
 31
0.0
  0
LINE
  5
130
330
119
100
AcDbEntity
  8
DV3_Default
 62
     7
100
AcDbLine
 10
191.85
 20
131.35
 30
0.0
 11
191.85
 21
581.35
 31
0.0
  0
LINE
  5
131
330
119
100
AcDbEntity
  8
DV3_Default
 62
     7
100
AcDbLine
 10
183.85
 20
581.35
 30
0.0
 11
183.85
 21
131.35
 31
0.0
  0
LINE
  5
132
330
119
100
AcDbEntity
  8
DV3_Default
 62
     7
100
AcDbLine
 10
166.85
 20
131.35
 30
0.0
 11
166.85
 21
581.35
 31
0.0
  0
LINE
  5
133
330
119
100
AcDbEntity
  8
DV3_Default
 62
     7
100
AcDbLine
 10
158.85
 20
581.35
 30
0.0
 11
158.85
 21
131.35
 31
0.0
  0
LINE
  5
134
330
119
100
AcDbEntity
  8
DV3_Default
 62
     7
100
AcDbLine
 10
141.85
 20
131.35
 30
0.0
 11
141.85
 21
581.35
 31
0.0
  0
LINE
  5
135
330
119
100
AcDbEntity
  8
DV3_Default
 62
     7
100
AcDbLine
 10
133.85
 20
581.35
 30
0.0
 11
133.85
 21
131.35
 31
0.0
  0
LINE
  5
136
330
119
100
AcDbEntity
  8
DV3_Default
 62
     7
100
AcDbLine
 10
116.85
 20
131.35
 30
0.0
 11
116.85
 21
581.35
 31
0.0
  0
LINE
  5
137
330
119
100
AcDbEntity
  8
DV3_Default
 62
     7
100
AcDbLine
 10
108.85
 20
581.35
 30
0.0
 11
108.85
 21
131.35
 31
0.0
  0
LINE
  5
138
330
119
100
AcDbEntity
  8
DV3_Default
 62
     7
100
AcDbLine
 10
91.85
 20
131.35
 30
0.0
 11
91.85
 21
581.35
 31
0.0
  0
LINE
  5
139
330
119
100
AcDbEntity
  8
DV3_Default
 62
     7
100
AcDbLine
 10
83.85
 20
581.35
 30
0.0
 11
83.85
 21
131.35
 31
0.0
  0
LINE
  5
13A
330
119
100
AcDbEntity
  8
DV3_Default
 62
     7
100
AcDbLine
 10
66.85
 20
131.35
 30
0.0
 11
66.85
 21
581.35
 31
0.0
  0
LINE
  5
13B
330
119
100
AcDbEntity
  8
DV3_Default
 62
     7
100
AcDbLine
 10
58.85
 20
581.35
 30
0.0
 11
58.85
 21
131.35
 31
0.0
  0
LINE
  5
13C
330
119
100
AcDbEntity
  8
DV3_Default
 62
     7
100
AcDbLine
 10
41.85
 20
131.35
 30
0.0
 11
41.85
 21
581.35
 31
0.0
  0
LINE
  5
13D
330
119
100
AcDbEntity
  8
DV3_Default
 62
     7
100
AcDbLine
 10
33.85
 20
581.35
 30
0.0
 11
33.85
 21
131.35
 31
0.0
  0
LINE
  5
13E
330
119
100
AcDbEntity
  8
DV3_Default
 62
     7
100
AcDbLine
 10
16.85
 20
131.35
 30
0.0
 11
16.85
 21
581.35
 31
0.0
  0
LINE
  5
13F
330
119
100
AcDbEntity
  8
DV3_Default
 62
     7
100
AcDbLine
 10
8.85
 20
581.35
 30
0.0
 11
8.85
 21
131.35
 31
0.0
  0
LINE
  5
140
330
119
100
AcDbEntity
  8
DV3_Default
 62
     7
100
AcDbLine
 10
287.85
 20
106.35
 30
0.0
 11
293.85
 21
106.35
 31
0.0
  0
LINE
  5
141
330
119
100
AcDbEntity
  8
DV3_Default
 62
     7
100
AcDbLine
 10
287.85
 20
106.35
 30
0.0
 11
12.85
 21
106.35
 31
0.0
  0
LINE
  5
142
330
119
100
AcDbEntity
  8
DV3_Default
 62
     7
100
AcDbLine
 10
12.85
 20
106.35
 30
0.0
 11
6.85
 21
106.35
 31
0.0
  0
LINE
  5
143
330
119
100
AcDbEntity
  8
DV3_Default
 62
     7
100
AcDbLine
 10
12.85
 20
131.35
 30
0.0
 11
6.85
 21
131.35
 31
0.0
  0
LINE
  5
144
330
119
100
AcDbEntity
  8
DV3_Default
 62
     7
100
AcDbLine
 10
12.85
 20
131.35
 30
0.0
 11
287.85
 21
131.35
 31
0.0
  0
LINE
  5
145
330
119
100
AcDbEntity
  8
DV3_Default
 62
     7
100
AcDbLine
 10
287.85
 20
131.35
 30
0.0
 11
293.85
 21
131.35
 31
0.0
  0
SPLINE
  5
146
330
119
100
AcDbEntity
  8
DV3_Default
 62
     7
100
AcDbSpline
210
0.0
220
0.0
230
1.0
 70
     8
 71
     3
 72
    55
 73
    51
 74
     0
 42
0.000000001
 43
0.0000000001
 40
0.0
 40
0.0
 40
0.0
 40
0.0
 40
0.02462411855137
 40
0.04869134891559
 40
0.07185863358658
 40
0.0942467920534
 40
0.1159353187443
 40
0.1370077016316
 40
0.1575647527757
 40
0.1776600025149
 40
0.1973445745935
 40
0.2167926625656
 40
0.2360388320803
 40
0.2550483005086
 40
0.274014709319
 40
0.293049151537
 40
0.3120959682541
 40
0.3312574998566
 40
0.3506756601223
 40
0.3704003132956
 40
0.3905000224228
 40
0.4110644493995
 40
0.4321956424648
 40
0.4539828437139
 40
0.4765136457081
 40
0.4999208205327
 40
0.5233244416306
 40
0.5458476396796
 40
0.5676284602213
 40
0.5887544343038
 40
0.6093149352686
 40
0.6294105128134
 40
0.6491313372371
 40
0.6685472518358
 40
0.6877056733624
 40
0.7067473070415
 40
0.725778648991
 40
0.7447427488788
 40
0.7637460412727
 40
0.7829858365905
 40
0.8024291380915
 40
0.8221063258068
 40
0.8421920225687
 40
0.8627394959153
 40
0.8838006008391
 40
0.9054747926927
 40
0.9278459722128
 40
0.9509976361045
 40
0.9750287573073
 40
1.0
 40
1.0
 40
1.0
 40
1.0
 10
267.6386076858
 20
120.865132036472
 30
0.0
 10
267.6386170421
 20
120.901384999051
 30
0.0
 10
267.6407842647
 20
120.973090271065
 30
0.0
 10
267.6504431821
 20
121.078507977498
 30
0.0
 10
267.6661950534
 20
121.179862506789
 30
0.0
 10
267.6875882299
 20
121.2765922581431
 30
0.0
 10
267.7142849256
 20
121.3687874224531
 30
0.0
 10
267.745985498
 20
121.456522093134
 30
0.0
 10
267.7824181007
 20
121.539844966462
 30
0.0
 10
267.8233160249
 20
121.61877443768
 30
0.0
 10
267.8685216354
 20
121.693415804443
 30
0.0
 10
267.9179035328
 20
121.763840205559
 30
0.0
 10
267.9712515602
 20
121.830037243795
 30
0.0
 10
268.0284464728
 20
121.891979589501
 30
0.0
 10
268.0894871299
 20
121.949682668249
 30
0.0
 10
268.1543083702001
 20
122.003188805643
 30
0.0
 10
268.2228125737
 20
122.0523863382841
 30
0.0
 10
268.2949668677001
 20
122.097137287166
 30
0.0
 10
268.370841897
 20
122.137414704003
 30
0.0
 10
268.4504948394
 20
122.1731079839031
 30
0.0
 10
268.5339273265
 20
122.204013761197
 30
0.0
 10
268.6212010921
 20
122.229941705014
 30
0.0
 10
268.7124060553
 20
122.250661523887
 30
0.0
 10
268.8076208762
 20
122.265887290778
 30
0.0
 10
268.9069521658
 20
122.275300702368
 30
0.0
 10
269.0090571136
 20
122.278484706344
 30
0.0
 10
269.1111543917
 20
122.275414948488
 30
0.0
 10
269.2104702024
 20
122.266112458132
 30
0.0
 10
269.30567362
 20
122.250994852764
 30
0.0
 10
269.3968786092
 20
122.230378578808
 30
0.0
 10
269.4841614778
 20
122.20455011642
 30
0.0
 10
269.567610605
 20
122.173739793367
 30
0.0
 10
269.6472878215001
 20
122.138137553848
 30
0.0
 10
269.7231936059
 20
122.097947030303
 30
0.0
 10
269.7953822933
 20
122.053281096033
 30
0.0
 10
269.8639251004
 20
122.0041661482501
 30
0.0
 10
269.9287903627
 20
121.950737911503
 30
0.0
 10
269.9898795256
 20
121.893111095676
 30
0.0
 10
270.047125545
 20
121.831245786698
 30
0.0
 10
270.100526612
 20
121.765124321425
 30
0.0
 10
270.1499663034
 20
121.694773890247
 30
0.0
 10
270.1952336537
 20
121.6202073797071
 30
0.0
 10
270.2361952085
 20
121.541354897683
 30
0.0
 10
270.2726951201
 20
121.458110387549
 30
0.0
 10
270.3044671214
 20
121.370456671018
 30
0.0
 10
270.3312384607
 20
121.278348483555
 30
0.0
 10
270.3527122455
 20
121.181707342564
 30
0.0
 10
270.3685452407
 20
121.080467995032
 30
0.0
 10
270.3783507754
 20
120.9746265555181
 30
0.0
 10
270.3805526022
 20
120.902462581678
 30
0.0
 10
270.3805747767
 20
120.865698569578
 30
0.0
  0
SPLINE
  5
147
330
119
100
AcDbEntity
  8
DV3_Default
 62
     7
100
AcDbSpline
210
0.0
220
0.0
230
1.0
 70
     8
 71
     3
 72
    55
 73
    51
 74
     0
 42
0.000000001
 43
0.0000000001
 40
0.0
 40
0.0
 40
0.0
 40
0.0
 40
0.02490313707593
 40
0.04882890308029
 40
0.07190833865224
 40
0.09423365280121
 40
0.1158863171453
 40
0.1369456822299
 40
0.1575093502301
 40
0.177628638483
 40
0.1973515250372
 40
0.2168472812575
 40
0.2361480904817
 40
0.2552190169633
 40
0.2742484723078
 40
0.2933419222402
 40
0.3124448986991
 40
0.3316572431956
 40
0.3511150513994
 40
0.3708665589299
 40
0.3909773233118
 40
0.4115340735092
 40
0.4326362444337
 40
0.454369300214
 40
0.4768183863515
 40
0.5001151436311
 40
0.5234076363895
 40
0.5458522741878
 40
0.5675822939596
 40
0.5886824573296
 40
0.6092385582371
 40
0.6293494943452
 40
0.6491020055314
 40
0.6685622090889
 40
0.6877772278432
 40
0.7068840952319
 40
0.7259830057836
 40
0.7450172540235
 40
0.7640942675631
 40
0.783403241647
 40
0.8029063566571
 40
0.8226376974994
 40
0.8427669555822
 40
0.8633409073288
 40
0.884411381796
 40
0.9060746906301
 40
0.9284115592586
 40
0.9514988105055
 40
0.9754496596591
 40
1.0
 40
1.0
 40
1.0
 40
1.0
 10
270.3805747767
 20
120.865698569578
 30
0.0
 10
270.3805968906
 20
120.829034914211
 30
0.0
 10
270.3784844749
 20
120.757123638476
 30
0.0
 10
270.3688039142
 20
120.651634109368
 30
0.0
 10
270.3530998295
 20
120.550707877124
 30
0.0
 10
270.3317360227
 20
120.4542530967361
 30
0.0
 10
270.3050495484
 20
120.3622264555231
 30
0.0
 10
270.2733311612
 20
120.274564566542
 30
0.0
 10
270.2368481298
 20
120.19123557439
 30
0.0
 10
270.1958641758
 20
120.1122364686451
 30
0.0
 10
270.1505377106
 20
120.037479067677
 30
0.0
 10
270.1010034342
 20
119.966908781197
 30
0.0
 10
270.0474740364
 20
119.900548356338
 30
0.0
 10
269.9900740225
 20
119.8384365279651
 30
0.0
 10
269.9288156509
 20
119.7805705909777
 30
0.0
 10
269.8637742342
 20
119.72691913293
 30
0.0
 10
269.795056482
 20
119.6776001714612
 30
0.0
 10
269.7227067314
 20
119.6327550052506
 30
0.0
 10
269.6466692574
 20
119.5924154575513
 30
0.0
 10
269.5669035179
 20
119.5566949551501
 30
0.0
 10
269.483421536
 20
119.5257950594773
 30
0.0
 10
269.396176723
 20
119.4999028311781
 30
0.0
 10
269.3050954403
 20
119.4792431853342
 30
0.0
 10
269.2101142663
 20
119.4640950367949
 30
0.0
 10
269.1111394129
 20
119.4547664893326
 30
0.0
 10
269.0094789013
 20
119.4516616950737
 30
0.0
 10
268.9078260428
 20
119.454802397828
 30
0.0
 10
268.8088718258001
 20
119.4641655385172
 30
0.0
 10
268.7139100438
 20
119.4793464622066
 30
0.0
 10
268.6228446028
 20
119.5000380287027
 30
0.0
 10
268.5356129703001
 20
119.5259617950397
 30
0.0
 10
268.4521418418
 20
119.5568932270739
 30
0.0
 10
268.3723846439
 20
119.5926456482646
 30
0.0
 10
268.2963542514
 20
119.6330176216667
 30
0.0
 10
268.2240098328
 20
119.6778964196567
 30
0.0
 10
268.1552955714999
 20
119.7272505956781
 30
0.0
 10
268.0902571059
 20
119.7809383591605
 30
0.0
 10
268.0290013922
 20
119.8388421366912
 30
0.0
 10
267.9716033231
 20
119.900993929099
 30
0.0
 10
267.9180755328
 20
119.96739653278
 30
0.0
 10
267.8685432735
 20
120.038011364065
 30
0.0
 10
267.8232198702
 20
120.112815011671
 30
0.0
 10
267.782239478
 20
120.191863585585
 30
0.0
 10
267.7457613322
 20
120.275245133816
 30
0.0
 10
267.7140506845
 20
120.362959989443
 30
0.0
 10
267.6873744385
 20
120.45504068034
 30
0.0
 10
267.6660254399
 20
120.551543951703
 30
0.0
 10
267.6503337701
 20
120.652538494944
 30
0.0
 10
267.6407264717
 20
120.757561282232
 30
0.0
 10
267.6385983576
 20
120.828987780895
 30
0.0
 10
267.6386076858
 20
120.865132036472
 30
0.0
  0
SPLINE
  5
148
330
119
100
AcDbEntity
  8
DV3_Default
 62
     7
100
AcDbSpline
210
0.0
220
0.0
230
1.0
 70
     8
 71
     3
 72
    62
 73
    58
 74
     0
 42
0.000000001
 43
0.0000000001
 40
0.0
 40
0.0
 40
0.0
 40
0.0
 40
0.0172300593322
 40
0.03426598870603
 40
0.05100328924853
 40
0.06750107330896
 40
0.08381797105837
 40
0.1000076322966
 40
0.1161196127036
 40
0.1322115151261
 40
0.1483465570604
 40
0.1645443033779
 40
0.180838318142
 40
0.1973262093642
 40
0.2140610499293
 40
0.2310157759649
 40
0.248200441086
 40
0.2657165574735
 40
0.2836166085893
 40
0.3018713215329
 40
0.3205213323385
 40
0.3396332965612
 40
0.3592221163704
 40
0.3793017486285
 40
0.3999121765962
 40
0.4210850439659
 40
0.4428428046687
 40
0.4652188298338
 40
0.4882590112328
 40
0.5116944731508
 40
0.5347281313645
 40
0.5570980570715
 40
0.5788497202962
 40
0.6000164733017
 40
0.6206207506786
 40
0.6406942776067
 40
0.6602770940757
 40
0.6793828465018
 40
0.6980273068169
 40
0.7162768737946
 40
0.7341711756861
 40
0.7516809397806
 40
0.7688599324425
 40
0.78580996349
 40
0.802539546808
 40
0.8190227149358
 40
0.8353126960971
 40
0.8515063743156
 40
0.8676374412153
 40
0.8837250125554
 40
0.8998334393479
 40
0.9160211653823
 40
0.9323358489291
 40
0.9488323472879
 40
0.9655665976722
 40
0.9826081315677
 40
1.0
 40
1.0
 40
1.0
 40
1.0
 10
271.4897848555
 20
120.867042517292
 30
0.0
 10
271.4897409859
 20
120.909348500164
 30
0.0
 10
271.4872574173
 20
120.993501658349
 30
0.0
 10
271.4763618384
 20
121.11832562483
 30
0.0
 10
271.4584527035
 20
121.240525375945
 30
0.0
 10
271.4337521649
 20
121.359731261257
 30
0.0
 10
271.4024142933
 20
121.475974581864
 30
0.0
 10
271.3645557953
 20
121.589262028078
 30
0.0
 10
271.3202531011
 20
121.699592972198
 30
0.0
 10
271.2695351944
 20
121.806977423487
 30
0.0
 10
271.2124418315
 20
121.9113524413381
 30
0.0
 10
271.1490028754
 20
122.012583045797
 30
0.0
 10
271.0791865258
 20
122.110591657762
 30
0.0
 10
271.0028650879
 20
122.205324050451
 30
0.0
 10
270.9200336646001
 20
122.296622369598
 30
0.0
 10
270.8308018372
 20
122.384138232018
 30
0.0
 10
270.7351739127
 20
122.4675651945821
 30
0.0
 10
270.6330344075
 20
122.546728184445
 30
0.0
 10
270.524359168
 20
122.621393662317
 30
0.0
 10
270.4092254265
 20
122.691190737187
 30
0.0
 10
270.2876887922
 20
122.755739630502
 30
0.0
 10
270.1597410086
 20
122.814726670564
 30
0.0
 10
270.0254404642
 20
122.867784246443
 30
0.0
 10
269.8849186334
 20
122.914492729396
 30
0.0
 10
269.7382939294
 20
122.954448506777
 30
0.0
 10
269.5856855294
 20
122.987243584721
 30
0.0
 10
269.4272505548
 20
123.012453542159
 30
0.0
 10
269.2631352768
 20
123.029654440368
 30
0.0
 10
269.094226101
 20
123.038354052871
 30
0.0
 10
268.9234795726
 20
123.038307169637
 30
0.0
 10
268.7546062645
 20
123.029513950377
 30
0.0
 10
268.5905464929
 20
123.012224786868
 30
0.0
 10
268.43217039
 20
122.986931162632
 30
0.0
 10
268.2796250315
 20
122.954057488769
 30
0.0
 10
268.1330671592
 20
122.91402814014
 30
0.0
 10
267.9926153848
 20
122.86725114004
 30
0.0
 10
267.8583881699
 20
122.8141304723721
 30
0.0
 10
267.7305153394
 20
122.755085117477
 30
0.0
 10
267.6090545179
 20
122.690482046702
 30
0.0
 10
267.4939981158
 20
122.620635348387
 30
0.0
 10
267.3854039728
 20
122.545926682066
 30
0.0
 10
267.2833484309
 20
122.4667266466761
 30
0.0
 10
267.1878043233
 20
122.383266114037
 30
0.0
 10
267.0986554626
 20
122.295720504092
 30
0.0
 10
267.0159067151
 20
122.204395869266
 30
0.0
 10
266.9396683438
 20
122.10964077153
 30
0.0
 10
266.8699346841
 20
122.01161195103
 30
0.0
 10
266.8065785008
 20
121.910364511765
 30
0.0
 10
266.7495692074
 20
121.8059781747931
 30
0.0
 10
266.698935741
 20
121.6985860917481
 30
0.0
 10
266.6547160399
 20
121.588247845828
 30
0.0
 10
266.6169401124
 20
121.4749527690031
 30
0.0
 10
266.5856846008
 20
121.358701112988
 30
0.0
 10
266.5610686066
 20
121.239494116903
 30
0.0
 10
266.5432430182
 20
121.117279133779
 30
0.0
 10
266.5323950063
 20
120.992045461304
 30
0.0
 10
266.5299918782
 20
120.907477647154
 30
0.0
 10
266.5299929485
 20
120.864774341891
 30
0.0
  0
SPLINE
  5
149
330
119
100
AcDbEntity
  8
DV3_Default
 62
     7
100
AcDbSpline
210
0.0
220
0.0
230
1.0
 70
     8
 71
     3
 72
    62
 73
    58
 74
     0
 42
0.000000001
 43
0.0000000001
 40
0.0
 40
0.0
 40
0.0
 40
0.0
 40
0.01736180387283
 40
0.0343410498866
 40
0.05102183905172
 40
0.06747628580548
 40
0.08375891795626
 40
0.09992419799007
 40
0.1160204662302
 40
0.1321049380704
 40
0.1482406705133
 40
0.1644474105271
 40
0.1807575048139
 40
0.1972667051847
 40
0.2140277305495
 40
0.2310140900184
 40
0.2482341931184
 40
0.2657871682616
 40
0.2837244816755
 40
0.302016878381
 40
0.3207028682365
 40
0.3398464366397
 40
0.3594612990313
 40
0.3795599437848
 40
0.4001806393449
 40
0.4213531151292
 40
0.4430981627525
 40
0.4654477812323
 40
0.4884449703338
 40
0.5118284196827
 40
0.5348199864646
 40
0.5571605437398
 40
0.5788952813105
 40
0.6000560664744
 40
0.6206639358105
 40
0.6407493340847
 40
0.6603506987136
 40
0.6794801226128
 40
0.6981528672865
 40
0.7164335143647
 40
0.7343587755456
 40
0.7518992463897
 40
0.7691094521914
 40
0.7860885878493
 40
0.8028421952416
 40
0.8193453234129
 40
0.8356522655296
 40
0.8518579619275
 40
0.8679936372748
 40
0.8840794071859
 40
0.9001797230069
 40
0.9163521812143
 40
0.9326438588214
 40
0.9491084122936
 40
0.9658044453702
 40
0.9827918429915
 40
1.0
 40
1.0
 40
1.0
 40
1.0
 10
266.5299929485
 20
120.864774341891
 30
0.0
 10
266.5299940169
 20
120.822144922212
 30
0.0
 10
266.5323995354
 20
120.737803853832
 30
0.0
 10
266.5432591506
 20
120.612930625589
 30
0.0
 10
266.5610815716
 20
120.491106974352
 30
0.0
 10
266.5856965083
 20
120.3722197578001
 30
0.0
 10
266.6169603876
 20
120.256216022104
 30
0.0
 10
266.6547598617
 20
120.14310149635
 30
0.0
 10
266.6990246924
 20
120.032881236301
 30
0.0
 10
266.7497290568
 20
119.925551492991
 30
0.0
 10
266.8068388614
 20
119.8211792832293
 30
0.0
 10
266.8703272738
 20
119.7199051371957
 30
0.0
 10
266.9402266473
 20
119.6218159598455
 30
0.0
 10
267.0166629038
 20
119.5269757305907
 30
0.0
 10
267.0996418138
 20
119.4355489851846
 30
0.0
 10
267.1890533153
 20
119.3478894272297
 30
0.0
 10
267.2848878388
 20
119.2643112379281
 30
0.0
 10
267.3872525921
 20
119.1849998696276
 30
0.0
 10
267.496165445
 20
119.1101955872383
 30
0.0
 10
267.6115421559
 20
119.0402740863933
 30
0.0
 10
267.7333156989
 20
118.9756204210006
 30
0.0
 10
267.8614799427
 20
118.9165540603969
 30
0.0
 10
267.9959625574
 20
118.8634453810796
 30
0.0
 10
268.136619824
 20
118.816714116151
 30
0.0
 10
268.2833191517
 20
118.7767629492145
 30
0.0
 10
268.4359265871
 20
118.7439973177468
 30
0.0
 10
268.5942710708
 20
118.7188371866079
 30
0.0
 10
268.7581901491
 20
118.7017005449856
 30
0.0
 10
268.9268041466
 20
118.6930697299462
 30
0.0
 10
269.0972138379
 20
118.6931840549833
 30
0.0
 10
269.2657800027
 20
118.7020414611096
 30
0.0
 10
269.4296145508
 20
118.7193948616725
 30
0.0
 10
269.5878490783
 20
118.7447599594519
 30
0.0
 10
269.7403275938
 20
118.7777179044329
 30
0.0
 10
269.8868817893
 20
118.8178485173042
 30
0.0
 10
270.0273811773
 20
118.8647463027511
 30
0.0
 10
270.1616952304
 20
118.9180080371534
 30
0.0
 10
270.2896839241
 20
118.9772150792922
 30
0.0
 10
270.4112791704
 20
119.0419993011146
 30
0.0
 10
270.5264760738
 20
119.1120416829023
 30
0.0
 10
270.6352055445
 20
119.1869552149573
 30
0.0
 10
270.737385848
 20
119.2663662931598
 30
0.0
 10
270.8330398697
 20
119.3500405376921
 30
0.0
 10
270.9222766267
 20
119.4377920215479
 30
0.0
 10
271.0050832897
 20
119.5293062248843
 30
0.0
 10
271.0813493053
 20
119.624231002286
 30
0.0
 10
271.1510835853001
 20
119.7224066937092
 30
0.0
 10
271.214410989
 20
119.8237692707046
 30
0.0
 10
271.2713610973
 20
119.92822926142
 30
0.0
 10
271.3219062442
 20
120.035648418977
 30
0.0
 10
271.366014615
 20
120.1459645093991
 30
0.0
 10
271.4036575433
 20
120.259183688744
 30
0.0
 10
271.4347633594
 20
120.375296872255
 30
0.0
 10
271.4592165669
 20
120.49430364022
 30
0.0
 10
271.4768709619
 20
120.616235038506
 30
0.0
 10
271.4875166231
 20
120.740805171066
 30
0.0
 10
271.4898286693
 20
120.824790378158
 30
0.0
 10
271.4897848555
 20
120.867042517292
 30
0.0
  0
LINE
  5
14A
330
119
100
AcDbEntity
  8
DV3_Default
 62
     7
100
AcDbLine
 10
262.4494131712
 20
122.8814563882
 30
0.0
 11
262.4494131712
 21
118.85
 31
0.0
  0
LINE
  5
14B
330
119
100
AcDbEntity
  8
DV3_Default
 62
     7
100
AcDbLine
 10
262.4494131712
 20
118.85
 30
0.0
 11
263.5017506278
 21
118.85
 31
0.0
  0
LINE
  5
14C
330
119
100
AcDbEntity
  8
DV3_Default
 62
     7
100
AcDbLine
 10
263.5017506278
 20
118.85
 30
0.0
 11
263.5017506278
 21
122.120878478
 31
0.0
  0
LINE
  5
14D
330
119
100
AcDbEntity
  8
DV3_Default
 62
     7
100
AcDbLine
 10
263.5017506278
 20
122.120878478
 30
0.0
 11
263.9555458192
 21
122.120878478
 31
0.0
  0
SPLINE
  5
14E
330
119
100
AcDbEntity
  8
DV3_Default
 62
     7
100
AcDbSpline
210
0.0
220
0.0
230
1.0
 70
     8
 71
     3
 72
    48
 73
    44
 74
     0
 42
0.000000001
 43
0.0000000001
 40
0.0
 40
0.0
 40
0.0
 40
0.0
 40
0.05048770979902
 40
0.09449312917334
 40
0.1327633323857
 40
0.1659702764325
 40
0.1947927101738
 40
0.2200559325769
 40
0.2425958733649
 40
0.2628375079002
 40
0.281380498922
 40
0.2989208683361
 40
0.315822176837
 40
0.3320425484654
 40
0.3480242206874
 40
0.3643314812505
 40
0.3811363476482
 40
0.3987510629342
 40
0.4175932614382
 40
0.4381189613555
 40
0.4608956800768
 40
0.4866866111469
 40
0.5142583807676
 40
0.5399106037563
 40
0.563672361165
 40
0.5859102033926
 40
0.6069400988008
 40
0.62704609717
 40
0.6465336822539
 40
0.6655875184714
 40
0.6844382581101
 40
0.7035004101396
 40
0.7229218115522
 40
0.7427211965155
 40
0.7633911947659
 40
0.7852261078401
 40
0.8084040138527
 40
0.8333530306474
 40
0.8604959215164
 40
0.8901244530559
 40
0.9228954869321
 40
0.9593087488535
 40
1.0
 40
1.0
 40
1.0
 40
1.0
 10
263.9555458192
 20
122.1208784779921
 30
0.0
 10
263.9962700449
 20
122.1208784779921
 30
0.0
 10
264.0725092903
 20
122.119247863669
 30
0.0
 10
264.1793545151
 20
122.11129185718
 30
0.0
 10
264.2717532095
 20
122.099023820723
 30
0.0
 10
264.3511509148
 20
122.083183309819
 30
0.0
 10
264.4191652205
 20
122.06473955723
 30
0.0
 10
264.4775143727
 20
122.044179133618
 30
0.0
 10
264.5277929486
 20
122.022029847851
 30
0.0
 10
264.5713850464
 20
121.998538267113
 30
0.0
 10
264.6095159908
 20
121.973739125804
 30
0.0
 10
264.6432692472
 20
121.947439152743
 30
0.0
 10
264.6732973116
 20
121.919649258992
 30
0.0
 10
264.6999847029
 20
121.890314437876
 30
0.0
 10
264.7236806073
 20
121.859113780725
 30
0.0
 10
264.744818078
 20
121.825568432252
 30
0.0
 10
264.7635808779
 20
121.789149859432
 30
0.0
 10
264.7799299566
 20
121.749364780349
 30
0.0
 10
264.7937901188
 20
121.705486120529
 30
0.0
 10
264.804943184
 20
121.65656078815
 30
0.0
 10
264.8130095343
 20
121.60135822146
 30
0.0
 10
264.817204223
 20
121.540032348106
 30
0.0
 10
264.8172157723
 20
121.476245532478
 30
0.0
 10
264.8127717745
 20
121.414249830176
 30
0.0
 10
264.8042742952001
 20
121.3570250318911
 30
0.0
 10
264.7922088114
 20
121.304264957306
 30
0.0
 10
264.7768945732
 20
121.255437726009
 30
0.0
 10
264.75853718
 20
121.2100566823
 30
0.0
 10
264.7372580102
 20
121.16774779425
 30
0.0
 10
264.7131134786
 20
121.128188107624
 30
0.0
 10
264.6859764113
 20
121.091041291417
 30
0.0
 10
264.6556500038
 20
121.056056948792
 30
0.0
 10
264.6220313023
 20
121.023120496947
 30
0.0
 10
264.584831534
 20
120.992215328466
 30
0.0
 10
264.5436458275
 20
120.963322441191
 30
0.0
 10
264.4979565353
 20
120.9363924974
 30
0.0
 10
264.4472039064
 20
120.911590923892
 30
0.0
 10
264.3907262130001
 20
120.889154387282
 30
0.0
 10
264.3277755905
 20
120.869405943218
 30
0.0
 10
264.2574253006001
 20
120.852785074089
 30
0.0
 10
264.1786999144
 20
120.839935390922
 30
0.0
 10
264.0904086666
 20
120.831543153367
 30
0.0
 10
264.0281913886
 20
120.829720272977
 30
0.0
 10
263.9953691492
 20
120.829720272977
 30
0.0
  0
LINE
  5
14F
330
119
100
AcDbEntity
  8
DV3_Default
 62
     7
100
AcDbLine
 10
263.9953691492
 20
120.829720273
 30
0.0
 11
263.7633445978
 21
120.8358010809
 31
0.0
  0
LINE
  5
150
330
119
100
AcDbEntity
  8
DV3_Default
 62
     7
100
AcDbLine
 10
263.7633445978
 20
120.8358010809
 30
0.0
 11
263.6455438492
 21
120.8358010809
 31
0.0
  0
LINE
  5
151
330
119
100
AcDbEntity
  8
DV3_Default
 62
     7
100
AcDbLine
 10
263.6455438492
 20
120.8358010809
 30
0.0
 11
265.1068454432
 21
118.85
 31
0.0
  0
LINE
  5
152
330
119
100
AcDbEntity
  8
DV3_Default
 62
     7
100
AcDbLine
 10
265.1068454432
 20
118.85
 30
0.0
 11
266.4517770668
 21
118.85
 31
0.0
  0
LINE
  5
153
330
119
100
AcDbEntity
  8
DV3_Default
 62
     7
100
AcDbLine
 10
266.4517770668
 20
118.85
 30
0.0
 11
265.1114954727
 21
120.4707141454
 31
0.0
  0
SPLINE
  5
154
330
119
100
AcDbEntity
  8
DV3_Default
 62
     7
100
AcDbSpline
210
0.0
220
0.0
230
1.0
 70
     8
 71
     3
 72
    24
 73
    20
 74
     0
 42
0.000000001
 43
0.0000000001
 40
0.0
 40
0.0
 40
0.0
 40
0.0
 40
0.07211166022781
 40
0.1397563849001
 40
0.2034062707907
 40
0.2635656560698
 40
0.3215034461258
 40
0.3780070954542
 40
0.4328947994143
 40
0.4861928743151
 40
0.5386619410196
 40
0.5915795446925
 40
0.6454169855824
 40
0.6998710192528
 40
0.7549432812033
 40
0.8117548707961
 40
0.8713876484134
 40
0.9341069250534
 40
1.0
 40
1.0
 40
1.0
 40
1.0
 10
265.1114954727
 20
120.470714145421
 30
0.0
 10
265.1436049834
 20
120.485204551839
 30
0.0
 10
265.2050101018
 20
120.5151696740051
 30
0.0
 10
265.2914199791
 20
120.564364884645
 30
0.0
 10
265.3695808804
 20
120.615853780494
 30
0.0
 10
265.4403798713
 20
120.669541050004
 30
0.0
 10
265.5047409956
 20
120.7256133457111
 30
0.0
 10
265.5633324122
 20
120.784096263373
 30
0.0
 10
265.6162930122
 20
120.844743717276
 30
0.0
 10
265.6637502652
 20
120.907332616563
 30
0.0
 10
265.7061293808
 20
120.9723204347301
 30
0.0
 10
265.7439548005
 20
121.040359684977
 30
0.0
 10
265.7773879048
 20
121.111733393666
 30
0.0
 10
265.8061975439
 20
121.186225482724
 30
0.0
 10
265.8302330044
 20
121.2639162021511
 30
0.0
 10
265.8493958401
 20
121.345551324558
 30
0.0
 10
265.8636115945
 20
121.4319803383321
 30
0.0
 10
265.8724870035
 20
121.52357563004
 30
0.0
 10
265.8744580135
 20
121.586425827138
 30
0.0
 10
265.8744580135
 20
121.618615670842
 30
0.0
  0
SPLINE
  5
155
330
119
100
AcDbEntity
  8
DV3_Default
 62
     7
100
AcDbSpline
210
0.0
220
0.0
230
1.0
 70
     8
 71
     3
 72
    31
 73
    27
 74
     0
 42
0.000000001
 43
0.0000000001
 40
0.0
 40
0.0
 40
0.0
 40
0.0
 40
0.04669434950501
 40
0.08866601937424
 40
0.1270952269268
 40
0.1627446380447
 40
0.1960302314653
 40
0.2273238724568
 40
0.2573511197352
 40
0.286744452889
 40
0.3155271571208
 40
0.343776031146
 40
0.3722627162936
 40
0.4016016530058
 40
0.4317689742642
 40
0.4629365832754
 40
0.4959402418109
 40
0.5314001583185
 40
0.5697851206256
 40
0.6115421241551
 40
0.6576960793948
 40
0.7097041388706
 40
0.7679748526129
 40
0.8345186439864
 40
0.9113292309947
 40
1.0
 40
1.0
 40
1.0
 40
1.0
 10
265.8744580135
 20
121.618615670842
 30
0.0
 10
265.8744580135
 20
121.65640073733
 30
0.0
 10
265.8724230007
 20
121.728173941227
 30
0.0
 10
265.8630397161
 20
121.830657741214
 30
0.0
 10
265.848412058
 20
121.923488456985
 30
0.0
 10
265.8291938948
 20
122.008282534698
 30
0.0
 10
265.805904194
 20
122.086038403723
 30
0.0
 10
265.7788664962
 20
122.157728674466
 30
0.0
 10
265.7480700923
 20
122.224431737833
 30
0.0
 10
265.7135526473
 20
122.28697399824
 30
0.0
 10
265.6754253355001
 20
122.345673884816
 30
0.0
 10
265.6335779546
 20
122.400866749385
 30
0.0
 10
265.5874570755
 20
122.453143611554
 30
0.0
 10
265.5365820302
 20
122.503047050111
 30
0.0
 10
265.4806296241
 20
122.550608367038
 30
0.0
 10
265.4190448973
 20
122.595826053981
 30
0.0
 10
265.3508123704
 20
122.6388906917091
 30
0.0
 10
265.2746588582
 20
122.679971010612
 30
0.0
 10
265.1894948827
 20
122.718834184179
 30
0.0
 10
265.093901833
 20
122.7551768668931
 30
0.0
 10
264.985668138
 20
122.788659854341
 30
0.0
 10
264.8626257454
 20
122.818711686874
 30
0.0
 10
264.7218160207
 20
122.844560499194
 30
0.0
 10
264.5598555146
 20
122.864926976419
 30
0.0
 10
264.3725167525
 20
122.878567801089
 30
0.0
 10
264.2385764691
 20
122.881456388213
 30
0.0
 10
264.1668240849
 20
122.881456388213
 30
0.0
  0
LINE
  5
156
330
119
100
AcDbEntity
  8
DV3_Default
 62
     7
100
AcDbLine
 10
264.1668240849
 20
122.8814563882
 30
0.0
 11
262.4494131712
 21
122.8814563882
 31
0.0
  0
SPLINE
  5
157
330
119
100
AcDbEntity
  8
DV3_Default
 62
     7
100
AcDbSpline
210
0.0
220
0.0
230
1.0
 70
     8
 71
     3
 72
    16
 73
    12
 74
     0
 42
0.000000001
 43
0.0000000001
 40
0.0
 40
0.0
 40
0.0
 40
0.0
 40
0.1522758380873
 40
0.2884284979762
 40
0.4091620807735
 40
0.5150927617451
 40
0.6105675004453
 40
0.701676431865
 40
0.7923954644925
 40
0.889725535784
 40
1.0
 40
1.0
 40
1.0
 40
1.0
 10
261.434275951
 20
122.614735462494
 30
0.0
 10
261.3547687122
 20
122.647242328341
 30
0.0
 10
261.2037372331
 20
122.707775017906
 30
0.0
 10
260.9872872833
 20
122.787984255491
 30
0.0
 10
260.7930770077
 20
122.852692952888
 30
0.0
 10
260.6182945773
 20
122.902652259992
 30
0.0
 10
260.4574493282
 20
122.939791951702
 30
0.0
 10
260.3033247871
 20
122.966910610554
 30
0.0
 10
260.1469323731001
 20
122.985938530483
 30
0.0
 10
259.9789434205
 20
122.997004972796
 30
0.0
 10
259.8618154069
 20
122.999137905283
 30
0.0
 10
259.7996117169
 20
122.999137905283
 30
0.0
  0
SPLINE
  5
158
330
119
100
AcDbEntity
  8
DV3_Default
 62
     7
100
AcDbSpline
210
0.0
220
0.0
230
1.0
 70
     8
 71
     3
 72
    61
 73
    57
 74
     0
 42
0.000000001
 43
0.0000000001
 40
0.0
 40
0.0
 40
0.0
 40
0.0
 40
0.0270382210911
 40
0.05256172982126
 40
0.07675007490686
 40
0.09970087905136
 40
0.121497899102
 40
0.1422811276646
 40
0.1621959552118
 40
0.181324696861
 40
0.1997057444922
 40
0.2174639763509
 40
0.2347618924586
 40
0.2516149352434
 40
0.2680514889167
 40
0.2842691159342
 40
0.300404525623
 40
0.3164014843403
 40
0.3322946766925
 40
0.3482455617921
 40
0.3643807953033
 40
0.3807348171724
 40
0.3973800921099
 40
0.4144198407579
 40
0.4319515187991
 40
0.4500653030356
 40
0.4688649798627
 40
0.4884516432321
 40
0.5088505124968
 40
0.5287981621983
 40
0.5477681799221
 40
0.5660937795549
 40
0.5838177506707
 40
0.6010376651184
 40
0.6178291094866
 40
0.634266435003
 40
0.650445295424
 40
0.6664407761445
 40
0.6822727366147
 40
0.6980404681067
 40
0.7138846674418
 40
0.7298484183161
 40
0.7458680423987
 40
0.7620595743426
 40
0.7786017524986
 40
0.7955056555431
 40
0.8127874851391
 40
0.8305758421744
 40
0.8489679667675
 40
0.867978114866
 40
0.8876812065805
 40
0.9081987230154
 40
0.9296113488653
 40
0.9519875431135
 40
0.9754192608466
 40
1.0
 40
1.0
 40
1.0
 40
1.0
 10
259.7996117169
 20
122.999137905283
 30
0.0
 10
259.7346487012
 20
122.999137905283
 30
0.0
 10
259.6083350968
 20
122.996041528344
 30
0.0
 10
259.4243869983
 20
122.982015180383
 30
0.0
 10
259.2511662615
 20
122.959604182501
 30
0.0
 10
259.0881961602
 20
122.92960330626
 30
0.0
 10
258.9350539102
 20
122.892697733667
 30
0.0
 10
258.7911755642
 20
122.849473863956
 30
0.0
 10
258.6559801994
 20
122.800422642747
 30
0.0
 10
258.5290989415
 20
122.746036996914
 30
0.0
 10
258.4102000227
 20
122.686742602232
 30
0.0
 10
258.2987937367
 20
122.622776342079
 30
0.0
 10
258.1944273949
 20
122.554360914678
 30
0.0
 10
258.0968570672
 20
122.481763472704
 30
0.0
 10
258.0058094520001
 20
122.405106895728
 30
0.0
 10
257.9208493626
 20
122.324236216028
 30
0.0
 10
257.8416529251
 20
122.239152465235
 30
0.0
 10
257.7682482943
 20
122.150031263956
 30
0.0
 10
257.7006880044
 20
122.056948451508
 30
0.0
 10
257.638779844
 20
121.959620935242
 30
0.0
 10
257.5823656938
 20
121.857742180378
 30
0.0
 10
257.5314969858
 20
121.7511319676611
 30
0.0
 10
257.486340609
 20
121.639630749051
 30
0.0
 10
257.447030815
 20
121.522946372614
 30
0.0
 10
257.413792989
 20
121.400728423029
 30
0.0
 10
257.3869107541
 20
121.2726326530181
 30
0.0
 10
257.3667824392001
 20
121.138307745945
 30
0.0
 10
257.3538783202
 20
120.997582501694
 30
0.0
 10
257.3487902003
 20
120.853602052369
 30
0.0
 10
257.3514489886
 20
120.711036565287
 30
0.0
 10
257.3619504014
 20
120.573826275141
 30
0.0
 10
257.3796266685
 20
120.442746537229
 30
0.0
 10
257.4041450139
 20
120.317054430462
 30
0.0
 10
257.4351233467
 20
120.196599916797
 30
0.0
 10
257.4722874818
 20
120.0811520004
 30
0.0
 10
257.5154083491
 20
119.970474888816
 30
0.0
 10
257.5643532429
 20
119.864350106366
 30
0.0
 10
257.6189550366
 20
119.7626704833158
 30
0.0
 10
257.6791324732
 20
119.6653473625286
 30
0.0
 10
257.7449541177
 20
119.5721934093593
 30
0.0
 10
257.8165634527
 20
119.4830055746876
 30
0.0
 10
257.8938656041
 20
119.3978855789129
 30
0.0
 10
257.976786571
 20
119.3170275990366
 30
0.0
 10
258.0655445847
 20
119.2404776490386
 30
0.0
 10
258.1604525123
 20
119.1681394071613
 30
0.0
 10
258.2616916891
 20
119.1001452991059
 30
0.0
 10
258.3693825407
 20
119.0367831354707
 30
0.0
 10
258.483817854
 20
118.9782760169426
 30
0.0
 10
258.6052707576
 20
118.9248675505944
 30
0.0
 10
258.7339143927
 20
118.8769474923657
 30
0.0
 10
258.8699679458001
 20
118.8349553709841
 30
0.0
 10
259.0137755272
 20
118.7993091708315
 30
0.0
 10
259.1656521471
 20
118.7705103430431
 30
0.0
 10
259.3258205218
 20
118.7491453736239
 30
0.0
 10
259.4944933309
 20
118.7358567737084
 30
0.0
 10
259.6098753834
 20
118.7329146405647
 30
0.0
 10
259.6689339634
 20
118.7329146405647
 30
0.0
  0
SPLINE
  5
159
330
119
100
AcDbEntity
  8
DV3_Default
 62
     7
100
AcDbSpline
210
0.0
220
0.0
230
1.0
 70
     8
 71
     3
 72
    18
 73
    14
 74
     0
 42
0.000000001
 43
0.0000000001
 40
0.0
 40
0.0
 40
0.0
 40
0.0
 40
0.07868720173736
 40
0.1631473426224
 40
0.2544208879285
 40
0.350491135886
 40
0.4493474547029
 40
0.5498418676191
 40
0.6487724971154
 40
0.7449680941833
 40
0.8364227263799
 40
0.9210937921021
 40
1.0
 40
1.0
 40
1.0
 40
1.0
 10
259.6689339634
 20
118.7329146405647
 30
0.0
 10
259.7209327939
 20
118.7329146405647
 30
0.0
 10
259.8287622008
 20
118.7357504841332
 30
0.0
 10
259.9964669139
 20
118.7485624239788
 30
0.0
 10
260.1747539155
 20
118.7709309508553
 30
0.0
 10
260.3611826351
 20
118.8031843150053
 30
0.0
 10
260.5518402896
 20
118.8454853280146
 30
0.0
 10
260.7421767377
 20
118.8969909634709
 30
0.0
 10
260.9282753435
 20
118.9566447789038
 30
0.0
 10
261.1057664789
 20
119.0228877444792
 30
0.0
 10
261.2713226495001
 20
119.093603743917
 30
0.0
 10
261.4229735366001
 20
119.167272109625
 30
0.0
 10
261.5177750169
 20
119.2193228978104
 30
0.0
 10
261.562807537
 20
119.2456102063201
 30
0.0
  0
LINE
  5
15A
330
119
100
AcDbEntity
  8
DV3_Default
 62
     7
100
AcDbLine
 10
261.562807537
 20
119.2456102063
 30
0.0
 11
261.562807537
 21
120.8741936325
 31
0.0
  0
LINE
  5
15B
330
119
100
AcDbEntity
  8
DV3_Default
 62
     7
100
AcDbLine
 10
261.562807537
 20
120.8741936325
 30
0.0
 11
260.4942545928
 21
120.8741936325
 31
0.0
  0
LINE
  5
15C
330
119
100
AcDbEntity
  8
DV3_Default
 62
     7
100
AcDbLine
 10
260.4942545928
 20
120.8741936325
 30
0.0
 11
260.4942545928
 21
119.6656628757
 31
0.0
  0
SPLINE
  5
15D
330
119
100
AcDbEntity
  8
DV3_Default
 62
     7
100
AcDbSpline
210
0.0
220
0.0
230
1.0
 70
     8
 71
     3
 72
    14
 73
    10
 74
     0
 42
0.000000001
 43
0.0000000001
 40
0.0
 40
0.0
 40
0.0
 40
0.0
 40
0.1577109120698
 40
0.3089623067639
 40
0.4539879586235
 40
0.5942930549151
 40
0.7320959749219
 40
0.8674684613659
 40
1.0
 40
1.0
 40
1.0
 40
1.0
 10
260.4942545928
 20
119.6656628756586
 30
0.0
 10
260.4530737696001
 20
119.6484032659653
 30
0.0
 10
260.3714787056
 20
119.6167325625594
 30
0.0
 10
260.2492107619
 20
119.5768859400246
 30
0.0
 10
260.1296666812
 20
119.5451975393831
 30
0.0
 10
260.0122410268
 20
119.5211460466401
 30
0.0
 10
259.8963340884
 20
119.5042590168756
 30
0.0
 10
259.7818468086
 20
119.4942384828384
 30
0.0
 10
259.7059796713
 20
119.4920021566998
 30
0.0
 10
259.6684570373
 20
119.4920021566998
 30
0.0
  0
SPLINE
  5
15E
330
119
100
AcDbEntity
  8
DV3_Default
 62
     7
100
AcDbSpline
210
0.0
220
0.0
230
1.0
 70
     8
 71
     3
 72
    55
 73
    51
 74
     0
 42
0.000000001
 43
0.0000000001
 40
0.0
 40
0.0
 40
0.0
 40
0.0
 40
0.02051439064448
 40
0.04042315755699
 40
0.05968349700198
 40
0.0784707373615
 40
0.09693615245623
 40
0.1150649688856
 40
0.1329891533033
 40
0.1508401784249
 40
0.1686269348449
 40
0.186414566059
 40
0.2043303079742
 40
0.2224097284377
 40
0.2407184344648
 40
0.2593901772225
 40
0.2784282145312
 40
0.2978732626987
 40
0.3178665506745
 40
0.3384621981326
 40
0.3597095090344
 40
0.3817030833476
 40
0.4045086424142
 40
0.4281902033625
 40
0.4529051434394
 40
0.4781278765515
 40
0.5025791539668
 40
0.5261728059914
 40
0.5489855448209
 40
0.5711402850678
 40
0.5927096100195
 40
0.6137944719225
 40
0.6344932678062
 40
0.6548412236571
 40
0.6749335514642
 40
0.6949268571175
 40
0.7148600874579
 40
0.7347089356667
 40
0.7546068205049
 40
0.7746920224802
 40
0.7949506174106
 40
0.8154802071444
 40
0.836436525372
 40
0.8577912323279
 40
0.8796290193633
 40
0.9021279567896
 40
0.925312878913
 40
0.9492796046513
 40
0.9741663922402
 40
1.0
 40
1.0
 40
1.0
 40
1.0
 10
259.6684570373
 20
119.4920021566998
 30
0.0
 10
259.6391404258
 20
119.4920021566998
 30
0.0
 10
259.5813536809
 20
119.4938624471398
 30
0.0
 10
259.496411715
 20
119.502213616177
 30
0.0
 10
259.414644504
 20
119.5157918813994
 30
0.0
 10
259.3359916217
 20
119.534394505291
 30
0.0
 10
259.2603224358
 20
119.5577954053536
 30
0.0
 10
259.187571927
 20
119.5858490940374
 30
0.0
 10
259.1177261798
 20
119.6184840700654
 30
0.0
 10
259.0507117137
 20
119.6555949455157
 30
0.0
 10
258.9865630976
 20
119.6971087017808
 30
0.0
 10
258.9253736086
 20
119.7430268555025
 30
0.0
 10
258.8671718075
 20
119.7933178979015
 30
0.0
 10
258.8120123469
 20
119.8479924921715
 30
0.0
 10
258.7600260409
 20
119.907139738228
 30
0.0
 10
258.7113517325
 20
119.97077406711
 30
0.0
 10
258.6661694448
 20
120.038891717499
 30
0.0
 10
258.624731273
 20
120.111533285815
 30
0.0
 10
258.5872504932
 20
120.1887757551221
 30
0.0
 10
258.5539598852
 20
120.2707021568001
 30
0.0
 10
258.5251825567
 20
120.357339106369
 30
0.0
 10
258.5012517845
 20
120.448707272338
 30
0.0
 10
258.482526078
 20
120.544829662475
 30
0.0
 10
258.4693803955
 20
120.645797430359
 30
0.0
 10
258.4623227821
 20
120.75083398978
 30
0.0
 10
258.4615784775
 20
120.8572035091561
 30
0.0
 10
258.4671986684
 20
120.9618238307491
 30
0.0
 10
258.4789370065
 20
121.062469285019
 30
0.0
 10
258.4964070182
 20
121.158944708515
 30
0.0
 10
258.5192871454
 20
121.251303975098
 30
0.0
 10
258.5473116907
 20
121.33964672107
 30
0.0
 10
258.5802493061
 20
121.424047590935
 30
0.0
 10
258.6178883623001
 20
121.50453592015
 30
0.0
 10
258.6600384178
 20
121.581140885259
 30
0.0
 10
258.7066153978
 20
121.653944114308
 30
0.0
 10
258.7575755885
 20
121.723013580115
 30
0.0
 10
258.812758363
 20
121.788302623524
 30
0.0
 10
258.8720518925
 20
121.849694490032
 30
0.0
 10
258.9354763999
 20
121.907132435281
 30
0.0
 10
259.0030156107
 20
121.96061756541
 30
0.0
 10
259.0746754129
 20
122.010050566357
 30
0.0
 10
259.1505161317
 20
122.055275426759
 30
0.0
 10
259.2305434751
 20
122.0961624899651
 30
0.0
 10
259.3147686674
 20
122.132520630264
 30
0.0
 10
259.4032468982001
 20
122.16409374228
 30
0.0
 10
259.4960776121
 20
122.190664780284
 30
0.0
 10
259.5933751539
 20
122.211964811375
 30
0.0
 10
259.695193235
 20
122.227629260008
 30
0.0
 10
259.8015517064
 20
122.237304491671
 30
0.0
 10
259.8740557891
 20
122.239454231514
 30
0.0
 10
259.9109739631
 20
122.239454231514
 30
0.0
  0
SPLINE
  5
15F
330
119
100
AcDbEntity
  8
DV3_Default
 62
     7
100
AcDbSpline
210
0.0
220
0.0
230
1.0
 70
     8
 71
     3
 72
    16
 73
    12
 74
     0
 42
0.000000001
 43
0.0000000001
 40
0.0
 40
0.0
 40
0.0
 40
0.0
 40
0.08975243716138
 40
0.1801320160246
 40
0.2717757834128
 40
0.3673574694651
 40
0.4689853214113
 40
0.5789269161654
 40
0.7012363260405
 40
0.8401929157784
 40
1.0
 40
1.0
 40
1.0
 40
1.0
 10
259.9109739631
 20
122.239454231514
 30
0.0
 10
259.958778886
 20
122.239454231514
 30
0.0
 10
260.0547439586
 20
122.2367308370221
 30
0.0
 10
260.1990562532
 20
122.224504889989
 30
0.0
 10
260.3455228017
 20
122.203669988229
 30
0.0
 10
260.496456303
 20
122.173442657918
 30
0.0
 10
260.6549508557
 20
122.1325753115581
 30
0.0
 10
260.8245821086001
 20
122.07891061558
 30
0.0
 10
261.0098044765
 20
122.009495272542
 30
0.0
 10
261.2157090874
 20
121.920378197376
 30
0.0
 10
261.3586250343
 20
121.850247606899
 30
0.0
 10
261.434275951
 20
121.811234202581
 30
0.0
  0
LINE
  5
160
330
119
100
AcDbEntity
  8
DV3_Default
 62
     7
100
AcDbLine
 10
261.434275951
 20
121.8112342026
 30
0.0
 11
261.434275951
 21
122.6147354625
 31
0.0
  0
LINE
  5
161
330
119
100
AcDbEntity
  8
DV3_Default
 62
     7
100
AcDbLine
 10
272.2390369205
 20
122.8814563882
 30
0.0
 11
272.2390369205
 21
118.85
 31
0.0
  0
LINE
  5
162
330
119
100
AcDbEntity
  8
DV3_Default
 62
     7
100
AcDbLine
 10
272.2390369205
 20
118.85
 30
0.0
 11
273.2910166825
 21
118.85
 31
0.0
  0
LINE
  5
163
330
119
100
AcDbEntity
  8
DV3_Default
 62
     7
100
AcDbLine
 10
273.2910166825
 20
118.85
 30
0.0
 11
273.2910166825
 21
120.5734917216
 31
0.0
  0
LINE
  5
164
330
119
100
AcDbEntity
  8
DV3_Default
 62
     7
100
AcDbLine
 10
273.2910166825
 20
120.5734917216
 30
0.0
 11
275.1499554187
 21
120.5734917216
 31
0.0
  0
LINE
  5
165
330
119
100
AcDbEntity
  8
DV3_Default
 62
     7
100
AcDbLine
 10
275.1499554187
 20
120.5734917216
 30
0.0
 11
275.1499554187
 21
118.85
 31
0.0
  0
LINE
  5
166
330
119
100
AcDbEntity
  8
DV3_Default
 62
     7
100
AcDbLine
 10
275.1499554187
 20
118.85
 30
0.0
 11
276.2016967176
 21
118.85
 31
0.0
  0
LINE
  5
167
330
119
100
AcDbEntity
  8
DV3_Default
 62
     7
100
AcDbLine
 10
276.2016967176
 20
118.85
 30
0.0
 11
276.2016967176
 21
122.8814563882
 31
0.0
  0
LINE
  5
168
330
119
100
AcDbEntity
  8
DV3_Default
 62
     7
100
AcDbLine
 10
276.2016967176
 20
122.8814563882
 30
0.0
 11
275.1499554187
 21
122.8814563882
 31
0.0
  0
LINE
  5
169
330
119
100
AcDbEntity
  8
DV3_Default
 62
     7
100
AcDbLine
 10
275.1499554187
 20
122.8814563882
 30
0.0
 11
275.1499554187
 21
121.3909430702
 31
0.0
  0
LINE
  5
16A
330
119
100
AcDbEntity
  8
DV3_Default
 62
     7
100
AcDbLine
 10
275.1499554187
 20
121.3909430702
 30
0.0
 11
273.2910166825
 21
121.3909430702
 31
0.0
  0
LINE
  5
16B
330
119
100
AcDbEntity
  8
DV3_Default
 62
     7
100
AcDbLine
 10
273.2910166825
 20
121.3909430702
 30
0.0
 11
273.2910166825
 21
122.8814563882
 31
0.0
  0
LINE
  5
16C
330
119
100
AcDbEntity
  8
DV3_Default
 62
     7
100
AcDbLine
 10
273.2910166825
 20
122.8814563882
 30
0.0
 11
272.2390369205
 21
122.8814563882
 31
0.0
  0
LINE
  5
16D
330
119
100
AcDbEntity
  8
DV3_Default
 62
     7
100
AcDbLine
 10
272.2979372948
 20
114.5623150604
 30
0.0
 11
272.0232278567
 21
114.4808799275
 31
0.0
  0
SPLINE
  5
16E
330
119
100
AcDbEntity
  8
DV3_Default
 62
     7
100
AcDbSpline
210
0.0
220
0.0
230
1.0
 70
     8
 71
     3
 72
    10
 73
     6
 74
     0
 42
0.000000001
 43
0.0000000001
 40
0.0
 40
0.0
 40
0.0
 40
0.0
 40
0.3435254391056
 40
0.6770277539531
 40
1.0
 40
1.0
 40
1.0
 40
1.0
 10
272.0232278567
 20
114.48087992755
 30
0.0
 10
271.9913650026
 20
114.470467407793
 30
0.0
 10
271.9285923874
 20
114.449874525455
 30
0.0
 10
271.8358635372
 20
114.4194916394611
 30
0.0
 10
271.7751186229
 20
114.399151764037
 30
0.0
 10
271.7452991675
 20
114.388952420294
 30
0.0
  0
LINE
  5
16F
330
119
100
AcDbEntity
  8
DV3_Default
 62
     7
100
AcDbLine
 10
271.7452991675
 20
114.3889524203
 30
0.0
 11
271.4692781819
 21
114.2938056615
 31
0.0
  0
LINE
  5
170
330
119
100
AcDbEntity
  8
DV3_Default
 62
     7
100
AcDbLine
 10
271.4692781819
 20
114.2938056615
 30
0.0
 11
270.9194947766
 21
114.1064012312
 31
0.0
  0
SPLINE
  5
171
330
119
100
AcDbEntity
  8
DV3_Default
 62
     7
100
AcDbSpline
210
0.0
220
0.0
230
1.0
 70
     8
 71
     2
 72
    10
 73
     7
 74
     0
 42
0.000000001
 43
0.0000000001
 40
0.0
 40
0.0
 40
0.0
 40
0.5
 40
0.5
 40
0.75
 40
0.75
 40
1.0
 40
1.0
 40
1.0
 10
270.919419758
 20
114.106621311157
 30
0.0
 10
270.3831360760088
 20
113.9332724707427
 30
0.0
 10
269.967096242037
 20
113.8393796463189
 30
0.0
 10
269.7065710731054
 20
113.7805837283633
 30
0.0
 10
269.4806879900951
 20
113.7498328726981
 30
0.0
 10
269.2199752480872
 20
113.714340440982
 30
0.0
 10
268.9875931814
 20
113.714340440982
 30
0.0
  0
SPLINE
  5
172
330
119
100
AcDbEntity
  8
DV3_Default
 62
     7
100
AcDbSpline
210
0.0
220
0.0
230
1.0
 70
     8
 71
     3
 72
    15
 73
    11
 74
     0
 42
0.000000001
 43
0.0000000001
 40
0.0
 40
0.0
 40
0.0
 40
0.0
 40
0.08031144506178
 40
0.1711417709865
 40
0.2734460037884
 40
0.3885241740994
 40
0.5180940502525
 40
0.6643245464388
 40
0.8291346657921
 40
1.0
 40
1.0
 40
1.0
 40
1.0
 10
268.9875931814
 20
113.714340440982
 30
0.0
 10
268.9423793466
 20
113.714340440982
 30
0.0
 10
268.8460176437
 20
113.7169307151401
 30
0.0
 10
268.6924507619
 20
113.728329238719
 30
0.0
 10
268.5199992473
 20
113.747879473204
 30
0.0
 10
268.3267671341
 20
113.776675785083
 30
0.0
 10
268.1103053154
 20
113.816520747232
 30
0.0
 10
267.8679370361
 20
113.869556193419
 30
0.0
 10
267.6050354404
 20
113.9367832026141
 30
0.0
 10
267.4237558901
 20
113.990371737608
 30
0.0
 10
267.3320634301
 20
114.01945391837
 30
0.0
  0
LINE
  5
173
330
119
100
AcDbEntity
  8
DV3_Default
 62
     7
100
AcDbLine
 10
267.3320634301
 20
114.0194539184
 30
0.0
 11
267.0560424454
 21
114.106731396
 31
0.0
  0
LINE
  5
174
330
119
100
AcDbEntity
  8
DV3_Default
 62
     7
100
AcDbLine
 10
267.0560424454
 20
114.106731396
 30
0.0
 11
266.5054267388
 21
114.2934412577
 31
0.0
  0
LINE
  5
175
330
119
100
AcDbEntity
  8
DV3_Default
 62
     7
100
AcDbLine
 10
266.5055509343
 20
114.2938055071
 30
0.0
 11
266.2295295004
 21
114.3889524204
 31
0.0
  0
LINE
  5
176
330
119
100
AcDbEntity
  8
DV3_Default
 62
     7
100
AcDbLine
 10
266.2295295004
 20
114.3889524204
 30
0.0
 11
265.951958506
 21
114.4808799276
 31
0.0
  0
SPLINE
  5
177
330
119
100
AcDbEntity
  8
DV3_Default
 62
     7
100
AcDbSpline
210
0.0
220
0.0
230
1.0
 70
     8
 71
     3
 72
    15
 73
    11
 74
     0
 42
0.000000001
 43
0.0000000001
 40
0.0
 40
0.0
 40
0.0
 40
0.0
 40
0.1832791556066
 40
0.3461876230153
 40
0.4907945793207
 40
0.6189587220965
 40
0.732444525014
 40
0.8328194444094
 40
0.9215239900289
 40
1.0
 40
1.0
 40
1.0
 40
1.0
 10
265.951958506
 20
114.48087992755
 30
0.0
 10
265.8367915516
 20
114.515656706933
 30
0.0
 10
265.618456246
 20
114.578743870856
 30
0.0
 10
265.3065358196
 20
114.659473227177
 30
0.0
 10
265.0275847454
 20
114.722693761487
 30
0.0
 10
264.7785456643001
 20
114.770503192569
 30
0.0
 10
264.5566331303
 20
114.804857283288
 30
0.0
 10
264.3592709844
 20
114.8275001908601
 30
0.0
 10
264.1840532928001
 20
114.84017865929
 30
0.0
 10
264.0743035088
 20
114.842986074805
 30
0.0
 10
264.0227924004
 20
114.842986074805
 30
0.0
  0
SPLINE
  5
178
330
119
100
AcDbEntity
  8
DV3_Default
 62
     7
100
AcDbSpline
210
0.0
220
0.0
230
1.0
 70
     8
 71
     3
 72
    15
 73
    11
 74
     0
 42
0.000000001
 43
0.0000000001
 40
0.0
 40
0.0
 40
0.0
 40
0.0
 40
0.08181570268931
 40
0.1743858608283
 40
0.278371387258
 40
0.3948966555881
 40
0.5256334957702
 40
0.6728079900523
 40
0.838371227135
 40
1.0
 40
1.0
 40
1.0
 40
1.0
 10
264.0227924004
 20
114.842986074805
 30
0.0
 10
263.9768555811
 20
114.842952825804
 30
0.0
 10
263.8789339287
 20
114.840147689582
 30
0.0
 10
263.7230428634
 20
114.828370907594
 30
0.0
 10
263.5482821301
 20
114.809176537315
 30
0.0
 10
263.3529309927
 20
114.781937540418
 30
0.0
 10
263.1345326727001
 20
114.745038017083
 30
0.0
 10
262.8902827042
 20
114.696463440313
 30
0.0
 10
262.6307808056
 20
114.636270547576
 30
0.0
 10
262.4534432697
 20
114.5880788764671
 30
0.0
 10
262.3664280284
 20
114.562315060436
 30
0.0
  0
LINE
  5
179
330
119
100
AcDbEntity
  8
DV3_Default
 62
     7
100
AcDbLine
 10
262.3664280284
 20
114.5623150604
 30
0.0
 11
262.0921955165
 21
114.4808799276
 31
0.0
  0
SPLINE
  5
17A
330
119
100
AcDbEntity
  8
DV3_Default
 62
     7
100
AcDbSpline
210
0.0
220
0.0
230
1.0
 70
     8
 71
     3
 72
    10
 73
     6
 74
     0
 42
0.000000001
 43
0.0000000001
 40
0.0
 40
0.0
 40
0.0
 40
0.0
 40
0.3453537590796
 40
0.6734702491369
 40
1.0
 40
1.0
 40
1.0
 40
1.0
 10
262.0921955165
 20
114.48087992755
 30
0.0
 10
262.0485132287
 20
114.466808677114
 30
0.0
 10
261.9632641258
 20
114.439567460935
 30
0.0
 10
261.8374037918
 20
114.3968939212181
 30
0.0
 10
261.7556815729
 20
114.36705961658
 30
0.0
 10
261.7149469654
 20
114.352109878476
 30
0.0
  0
LINE
  5
17B
330
119
100
AcDbEntity
  8
DV3_Default
 62
     7
100
AcDbLine
 10
261.7149469654
 20
114.3521098785
 30
0.0
 11
262.2700889547
 21
114.0639272779
 31
0.0
  0
LINE
  5
17C
330
119
100
AcDbEntity
  8
DV3_Default
 62
     7
100
AcDbLine
 10
262.2700889547
 20
114.0639272779
 30
0.0
 11
262.3943282057
 21
114.102200598
 31
0.0
  0
SPLINE
  5
17D
330
119
100
AcDbEntity
  8
DV3_Default
 62
     7
100
AcDbSpline
210
0.0
220
0.0
230
1.0
 70
     8
 71
     3
 72
    14
 73
    10
 74
     0
 42
0.000000001
 43
0.0000000001
 40
0.0
 40
0.0
 40
0.0
 40
0.0
 40
0.2057511040751
 40
0.3858263123801
 40
0.5434424811945
 40
0.6813986625413
 40
0.8021049075494
 40
0.9076743916653
 40
1.0
 40
1.0
 40
1.0
 40
1.0
 10
262.3943282057
 20
114.102200598052
 30
0.0
 10
262.5033617451001
 20
114.135846725248
 30
0.0
 10
262.7088595233
 20
114.195660467058
 30
0.0
 10
263.0011311085
 20
114.269488149387
 30
0.0
 10
263.259221455
 20
114.3243366887901
 30
0.0
 10
263.486838777
 20
114.3633083340301
 30
0.0
 10
263.6873042835
 20
114.388687831598
 30
0.0
 10
263.8634930418
 20
114.402851322745
 30
0.0
 10
263.9732590738
 20
114.4060025286441
 30
0.0
 10
264.0244616418
 20
114.4060025286441
 30
0.0
  0
SPLINE
  5
17E
330
119
100
AcDbEntity
  8
DV3_Default
 62
     7
100
AcDbSpline
210
0.0
220
0.0
230
1.0
 70
     8
 71
     3
 72
    14
 73
    10
 74
     0
 42
0.000000001
 43
0.0000000001
 40
0.0
 40
0.0
 40
0.0
 40
0.0
 40
0.09785097981465
 40
0.2090924693676
 40
0.3348177054496
 40
0.4768342226021
 40
0.6376634734624
 40
0.8199556287534
 40
1.0
 40
1.0
 40
1.0
 40
1.0
 10
264.0244616418
 20
114.4060025286441
 30
0.0
 10
264.0700852536
 20
114.4060025286441
 30
0.0
 10
264.1675878476
 20
114.40311594273
 30
0.0
 10
264.3232629203
 20
114.3909273072271
 30
0.0
 10
264.4988588994
 20
114.370874740762
 30
0.0
 10
264.6965339737
 20
114.3413944157301
 30
0.0
 10
264.9190805088001
 20
114.300673516908
 30
0.0
 10
265.1573612841
 20
114.248222087957
 30
0.0
 10
265.3208170667
 20
114.205262906563
 30
0.0
 10
265.4014665462
 20
114.181966489561
 30
0.0
  0
LINE
  5
17F
330
119
100
AcDbEntity
  8
DV3_Default
 62
     7
100
AcDbLine
 10
265.4014665462
 20
114.1819664896
 30
0.0
 11
265.677487531
 21
114.1022005981
 31
0.0
  0
LINE
  5
180
330
119
100
AcDbEntity
  8
DV3_Default
 62
     7
100
AcDbLine
 10
265.677487531
 20
114.1022005981
 30
0.0
 11
265.951958506
 21
114.0131942632
 31
0.0
  0
LINE
  5
181
330
119
100
AcDbEntity
  8
DV3_Default
 62
     7
100
AcDbLine
 10
265.951958506
 20
114.0131942632
 30
0.0
 11
266.2295295007
 21
113.9214456032
 31
0.0
  0
LINE
  5
182
330
119
100
AcDbEntity
  8
DV3_Default
 62
     7
100
AcDbLine
 10
266.2295295007
 20
113.9214456032
 30
0.0
 11
266.5055504855
 21
113.8261796132
 31
0.0
  0
LINE
  5
183
330
119
100
AcDbEntity
  8
DV3_Default
 62
     7
100
AcDbLine
 10
266.5055504855
 20
113.8261796132
 30
0.0
 11
266.7800214604
 21
113.7325828646
 31
0.0
  0
LINE
  5
184
330
119
100
AcDbEntity
  8
DV3_Default
 62
     7
100
AcDbLine
 10
266.7800214604
 20
113.7325828646
 30
0.0
 11
267.0560424453
 21
113.6406553573
 31
0.0
  0
SPLINE
  5
185
330
119
100
AcDbEntity
  8
DV3_Default
 62
     7
100
AcDbSpline
210
0.0
220
0.0
230
1.0
 70
     8
 71
     3
 72
    15
 73
    11
 74
     0
 42
0.000000001
 43
0.0000000001
 40
0.0
 40
0.0
 40
0.0
 40
0.0
 40
0.1829504778485
 40
0.3460407181812
 40
0.4909434035711
 40
0.6192549920868
 40
0.7326497406725
 40
0.8327058024652
 40
0.9209785804392
 40
1.0
 40
1.0
 40
1.0
 40
1.0
 10
267.0560424453
 20
113.6406553573451
 30
0.0
 10
267.1711614394
 20
113.605404716544
 30
0.0
 10
267.3896064036
 20
113.540981152651
 30
0.0
 10
267.7018330089001
 20
113.457792414845
 30
0.0
 10
267.9814255175
 20
113.392251695088
 30
0.0
 10
268.2310459443
 20
113.34278901864
 30
0.0
 10
268.4532301464
 20
113.307520424806
 30
0.0
 10
268.6505319869
 20
113.284678321839
 30
0.0
 10
268.8260799262
 20
113.272166994139
 30
0.0
 10
268.9361873212
 20
113.269462486227
 30
0.0
 10
268.988189339
 20
113.269487614044
 30
0.0
  0
SPLINE
  5
186
330
119
100
AcDbEntity
  8
DV3_Default
 62
     7
100
AcDbSpline
210
0.0
220
0.0
230
1.0
 70
     8
 71
     3
 72
    15
 73
    11
 74
     0
 42
0.000000001
 43
0.0000000001
 40
0.0
 40
0.0
 40
0.0
 40
0.0
 40
0.08118207849271
 40
0.1727608782557
 40
0.2755643795206
 40
0.3907762663253
 40
0.5199971432608
 40
0.665279497867
 40
0.8293058730114
 40
1.0
 40
1.0
 40
1.0
 40
1.0
 10
268.988189339
 20
113.269487614044
 30
0.0
 10
269.0337762313
 20
113.2695132895681
 30
0.0
 10
269.1307980548
 20
113.272119590076
 30
0.0
 10
269.2851726535001
 20
113.283318313932
 30
0.0
 10
269.4580284129
 20
113.302181027152
 30
0.0
 10
269.6511114647
 20
113.329593488694
 30
0.0
 10
269.8667390191
 20
113.367157640179
 30
0.0
 10
270.1079572099
 20
113.416892805811
 30
0.0
 10
270.3700769217
 20
113.47991839095
 30
0.0
 10
270.551193164
 20
113.530371130718
 30
0.0
 10
270.6430037011
 20
113.5579086776631
 30
0.0
  0
LINE
  5
187
330
119
100
AcDbEntity
  8
DV3_Default
 62
     7
100
AcDbLine
 10
270.6430037011
 20
113.5579086777
 30
0.0
 11
270.9193823805
 21
113.6406553573
 31
0.0
  0
LINE
  5
188
330
119
100
AcDbEntity
  8
DV3_Default
 62
     7
100
AcDbLine
 10
270.9193823805
 20
113.6406553573
 30
0.0
 11
271.1950456708
 21
113.7325828646
 31
0.0
  0
LINE
  5
189
330
119
100
AcDbEntity
  8
DV3_Default
 62
     7
100
AcDbLine
 10
271.1950456708
 20
113.7325828646
 30
0.0
 11
271.4692781827
 21
113.8261796132
 31
0.0
  0
LINE
  5
18A
330
119
100
AcDbEntity
  8
DV3_Default
 62
     7
100
AcDbLine
 10
271.4692781827
 20
113.8261796132
 30
0.0
 11
271.7452991675
 21
113.9214456032
 31
0.0
  0
LINE
  5
18B
330
119
100
AcDbEntity
  8
DV3_Default
 62
     7
100
AcDbLine
 10
271.7452991675
 20
113.9214456032
 30
0.0
 11
272.0232278567
 21
114.0131942632
 31
0.0
  0
LINE
  5
18C
330
119
100
AcDbEntity
  8
DV3_Default
 62
     7
100
AcDbLine
 10
272.0232278567
 20
114.0131942632
 30
0.0
 11
272.2979372948
 21
114.1022005981
 31
0.0
  0
SPLINE
  5
18D
330
119
100
AcDbEntity
  8
DV3_Default
 62
     7
100
AcDbSpline
210
0.0
220
0.0
230
1.0
 70
     8
 71
     3
 72
    21
 73
    17
 74
     0
 42
0.000000001
 43
0.0000000001
 40
0.0
 40
0.0
 40
0.0
 40
0.0
 40
0.1014298305476
 40
0.1911540773267
 40
0.2702088837526
 40
0.3396396024864
 40
0.4004853115891
 40
0.4538507972978
 40
0.5020809519847
 40
0.5500901041147
 40
0.6028711636353
 40
0.6629997118331
 40
0.7315393882144
 40
0.8096301981496
 40
0.8986035403854
 40
1.0
 40
1.0
 40
1.0
 40
1.0
 10
272.2979372948
 20
114.102200598052
 30
0.0
 10
272.4064976656
 20
114.134444977938
 30
0.0
 10
272.6118150564
 20
114.192831583143
 30
0.0
 10
272.9044255511
 20
114.266509269017
 30
0.0
 10
273.1645196009
 20
114.3223822489921
 30
0.0
 10
273.394889725
 20
114.362232644204
 30
0.0
 10
273.598358402
 20
114.3881510205581
 30
0.0
 10
273.7792360079
 20
114.402418141889
 30
0.0
 10
273.9462824551
 20
114.407141450334
 30
0.0
 10
274.1126869339
 20
114.402582915082
 30
0.0
 10
274.2918460566
 20
114.388133118599
 30
0.0
 10
274.4928780868
 20
114.362524924914
 30
0.0
 10
274.7204665945
 20
114.323462602604
 30
0.0
 10
274.9777987567001
 20
114.268574033118
 30
0.0
 10
275.2684499993
 20
114.195059976301
 30
0.0
 10
275.4725632093
 20
114.135586687432
 30
0.0
 10
275.5807389254
 20
114.102200598052
 30
0.0
  0
LINE
  5
18E
330
119
100
AcDbEntity
  8
DV3_Default
 62
     7
100
AcDbLine
 10
275.5807389254
 20
114.1022005981
 30
0.0
 11
275.7052166395
 21
114.0639272779
 31
0.0
  0
LINE
  5
18F
330
119
100
AcDbEntity
  8
DV3_Default
 62
     7
100
AcDbLine
 10
275.7052166395
 20
114.0639272779
 30
0.0
 11
276.2601201658
 21
114.3521098785
 31
0.0
  0
LINE
  5
190
330
119
100
AcDbEntity
  8
DV3_Default
 62
     7
100
AcDbLine
 10
276.2601201658
 20
114.3521098785
 30
0.0
 11
276.158773368
 21
114.3889524203
 31
0.0
  0
LINE
  5
191
330
119
100
AcDbEntity
  8
DV3_Default
 62
     7
100
AcDbLine
 10
276.158773368
 20
114.3889524203
 30
0.0
 11
275.8832293092
 21
114.4808799276
 31
0.0
  0
SPLINE
  5
192
330
119
100
AcDbEntity
  8
DV3_Default
 62
     7
100
AcDbSpline
210
0.0
220
0.0
230
1.0
 70
     8
 71
     3
 72
    15
 73
    11
 74
     0
 42
0.000000001
 43
0.0000000001
 40
0.0
 40
0.0
 40
0.0
 40
0.0
 40
0.1831574882743
 40
0.3460187100291
 40
0.4906175116765
 40
0.618790306753
 40
0.7322905182326
 40
0.8326833736976
 40
0.9214131441705
 40
1.0
 40
1.0
 40
1.0
 40
1.0
 10
275.8832293092
 20
114.48087992755
 30
0.0
 10
275.7680024806
 20
114.515629786864
 30
0.0
 10
275.5495245517
 20
114.578702882516
 30
0.0
 10
275.2373736739
 20
114.659460523273
 30
0.0
 10
274.9581490574
 20
114.722728047458
 30
0.0
 10
274.7088274191
 20
114.770566460717
 30
0.0
 10
274.4866430631
 20
114.804922380535
 30
0.0
 10
274.2890245522
 20
114.827540757679
 30
0.0
 10
274.1135136987
 20
114.840187883989
 30
0.0
 10
274.0035564267001
 20
114.842986074805
 30
0.0
 10
273.9519170362
 20
114.842986074805
 30
0.0
  0
SPLINE
  5
193
330
119
100
AcDbEntity
  8
DV3_Default
 62
     7
100
AcDbSpline
210
0.0
220
0.0
230
1.0
 70
     8
 71
     3
 72
    15
 73
    11
 74
     0
 42
0.000000001
 43
0.0000000001
 40
0.0
 40
0.0
 40
0.0
 40
0.0
 40
0.08149217783439
 40
0.1738129157414
 40
0.2775758291457
 40
0.3939140781037
 40
0.5244766038431
 40
0.6714931614357
 40
0.8371601373169
 40
1.0
 40
1.0
 40
1.0
 40
1.0
 10
273.9519170362
 20
114.842986074805
 30
0.0
 10
273.9062256797
 20
114.842986074805
 30
0.0
 10
273.8087597134
 20
114.840237239497
 30
0.0
 10
273.6535303295
 20
114.8285107055591
 30
0.0
 10
273.4793845108
 20
114.8093481279811
 30
0.0
 10
273.284635887
 20
114.782151498844
 30
0.0
 10
273.0668375847
 20
114.7453036194
 30
0.0
 10
272.8230603316
 20
114.696791508573
 30
0.0
 10
272.563288469
 20
114.6365387893
 30
0.0
 10
272.3854819786
 20
114.588236642531
 30
0.0
 10
272.2979372948
 20
114.562315060436
 30
0.0
  0
SPLINE
  5
194
330
119
100
AcDbEntity
  8
DV3_Default
 62
     7
100
AcDbSpline
210
0.0
220
0.0
230
1.0
 70
     8
 71
     3
 72
    17
 73
    13
 74
     0
 42
0.000000001
 43
0.0000000001
 40
0.0
 40
0.0
 40
0.0
 40
0.0
 40
0.06178700752225
 40
0.1313381568057
 40
0.209122922594
 40
0.2959160194514
 40
0.392762846304
 40
0.5008127339961
 40
0.6216463490252
 40
0.7563816140539
 40
0.8861045216033
 40
1.0
 40
1.0
 40
1.0
 40
1.0
 10
273.9521554992
 20
116.419524939503
 30
0.0
 10
273.9116145267
 20
116.419524939503
 30
0.0
 10
273.8254332716
 20
116.416998842301
 30
0.0
 10
273.688544011
 20
116.407194526697
 30
0.0
 10
273.5357187796
 20
116.391363558679
 30
0.0
 10
273.3656118296
 20
116.3691587469931
 30
0.0
 10
273.1765121400001
 20
116.339508319479
 30
0.0
 10
272.9662203323
 20
116.3012464713341
 30
0.0
 10
272.732536282
 20
116.253009152083
 30
0.0
 10
272.4864423427
 20
116.194980862541
 30
0.0
 10
272.2466308787
 20
116.130602299101
 30
0.0
 10
272.0940041583
 20
116.082898906531
 30
0.0
 10
272.0232278567
 20
116.058909186334
 30
0.0
  0
LINE
  5
195
330
119
100
AcDbEntity
  8
DV3_Default
 62
     7
100
AcDbLine
 10
272.0232278567
 20
116.0589091863
 30
0.0
 11
270.9193823805
 21
115.6846414233
 31
0.0
  0
SPLINE
  5
196
330
119
100
AcDbEntity
  8
DV3_Default
 62
     7
100
AcDbSpline
210
0.0
220
0.0
230
1.0
 70
     8
 71
     3
 72
    22
 73
    18
 74
     0
 42
0.000000001
 43
0.0000000001
 40
0.0
 40
0.0
 40
0.0
 40
0.0
 40
0.09989813871854
 40
0.1867998268394
 40
0.2624188922847
 40
0.3283553349253
 40
0.3858846426014
 40
0.4362280266402
 40
0.4796739416576
 40
0.51996272823
 40
0.5633570068773
 40
0.6136537744191
 40
0.6711588970642
 40
0.7371033037243
 40
0.8127676411503
 40
0.8997437801554
 40
1.0
 40
1.0
 40
1.0
 40
1.0
 10
270.9193823805
 20
115.684641423332
 30
0.0
 10
270.7942252653
 20
115.64225014133
 30
0.0
 10
270.5586814606
 20
115.5673405852951
 30
0.0
 10
270.2239357736
 20
115.475181589735
 30
0.0
 10
269.9296085531
 20
115.406332584143
 30
0.0
 10
269.6709297938
 20
115.356616190839
 30
0.0
 10
269.4434755143
 20
115.322630222496
 30
0.0
 10
269.2443254693
 20
115.301899195846
 30
0.0
 10
269.0671776604
 20
115.291874099831
 30
0.0
 10
268.898927783
 20
115.2917729139721
 30
0.0
 10
268.7218952624
 20
115.3015191760871
 30
0.0
 10
268.5228785901
 20
115.321979177128
 30
0.0
 10
268.2954768985001
 20
115.355764927828
 30
0.0
 10
268.0367447349
 20
115.405417569759
 30
0.0
 10
267.7422658701
 20
115.4743670571571
 30
0.0
 10
267.4069566819
 20
115.566863634557
 30
0.0
 10
267.1709061975
 20
115.6420652961711
 30
0.0
 10
267.0453116078
 20
115.684641423332
 30
0.0
  0
LINE
  5
197
330
119
100
AcDbEntity
  8
DV3_Default
 62
     7
100
AcDbLine
 10
267.0453116078
 20
115.6846414233
 30
0.0
 11
265.9415853631
 21
116.0589091863
 31
0.0
  0
SPLINE
  5
198
330
119
100
AcDbEntity
  8
DV3_Default
 62
     7
100
AcDbSpline
210
0.0
220
0.0
230
1.0
 70
     8
 71
     3
 72
    17
 73
    13
 74
     0
 42
0.000000001
 43
0.0000000001
 40
0.0
 40
0.0
 40
0.0
 40
0.0
 40
0.113384684616
 40
0.2424364786814
 40
0.3778564716986
 40
0.4991606882117
 40
0.607263208162
 40
0.7041123751893
 40
0.7909041534171
 40
0.8686844046983
 40
0.938227420382
 40
1.0
 40
1.0
 40
1.0
 40
1.0
 10
265.9415853631
 20
116.058909186334
 30
0.0
 10
265.8710473162
 20
116.082818645146
 30
0.0
 10
265.7189856717001
 20
116.130331331264
 30
0.0
 10
265.4792091724
 20
116.194657670874
 30
0.0
 10
265.2325148809001
 20
116.252768006455
 30
0.0
 10
264.9977762582
 20
116.301150658426
 30
0.0
 10
264.7868975193
 20
116.339458849205
 30
0.0
 10
264.5975443309
 20
116.369110053576
 30
0.0
 10
264.42724587
 20
116.391320814372
 30
0.0
 10
264.2742576027
 20
116.407166009751
 30
0.0
 10
264.1372328293
 20
116.416989839554
 30
0.0
 10
264.0509694508
 20
116.419524939503
 30
0.0
 10
264.0103923216
 20
116.419524939503
 30
0.0
  0
SPLINE
  5
199
330
119
100
AcDbEntity
  8
DV3_Default
 62
     7
100
AcDbSpline
210
0.0
220
0.0
230
1.0
 70
     8
 71
     3
 72
    13
 73
     9
 74
     0
 42
0.000000001
 43
0.0000000001
 40
0.0
 40
0.0
 40
0.0
 40
0.0
 40
0.1221512534831
 40
0.2596032530789
 40
0.4136999866033
 40
0.5864717674419
 40
0.7807259119074
 40
1.0
 40
1.0
 40
1.0
 40
1.0
 10
264.0103923216
 20
116.419524939503
 30
0.0
 10
263.9646856257
 20
116.419524939503
 30
0.0
 10
263.8675390858
 20
116.416945225582
 30
0.0
 10
263.71307345
 20
116.4062939913
 30
0.0
 10
263.5402309759
 20
116.388351916298
 30
0.0
 10
263.3469853378
 20
116.362055183403
 30
0.0
 10
263.1306286511
 20
116.325515861119
 30
0.0
 10
262.9790015543
 20
116.294464686991
 30
0.0
 10
262.8989160277
 20
116.276625954489
 30
0.0
  0
SPLINE
  5
19A
330
119
100
AcDbEntity
  8
DV3_Default
 62
     7
100
AcDbSpline
210
0.0
220
0.0
230
1.0
 70
     8
 71
     3
 72
    11
 73
     7
 74
     0
 42
0.000000001
 43
0.0000000001
 40
0.0
 40
0.0
 40
0.0
 40
0.0
 40
0.2354331257141
 40
0.4680929133843
 40
0.7226130723579
 40
1.0
 40
1.0
 40
1.0
 40
1.0
 10
262.8989160277
 20
116.276625954489
 30
0.0
 10
262.788498439
 20
116.252234584768
 30
0.0
 10
262.5696046178
 20
116.200708783744
 30
0.0
 10
262.2346924457
 20
116.109455311338
 30
0.0
 10
261.8824899734
 20
116.005459954433
 30
0.0
 10
261.6381616217
 20
115.9308069373551
 30
0.0
 10
261.5108225913
 20
115.8916273540651
 30
0.0
  0
LINE
  5
19B
330
119
100
AcDbEntity
  8
DV3_Default
 62
     7
100
AcDbLine
 10
261.5108225913
 20
115.8916273541
 30
0.0
 11
259.9054893128
 21
115.3978896011
 31
0.0
  0
SPLINE
  5
19C
330
119
100
AcDbEntity
  8
DV3_Default
 62
     7
100
AcDbSpline
210
0.0
220
0.0
230
1.0
 70
     8
 71
     3
 72
    12
 73
     8
 74
     0
 42
0.000000001
 43
0.0000000001
 40
0.0
 40
0.0
 40
0.0
 40
0.0
 40
0.213895916988
 40
0.4069760608194
 40
0.5930212254516
 40
0.786102139966
 40
1.0
 40
1.0
 40
1.0
 40
1.0
 10
259.9054893128
 20
115.39788960109
 30
0.0
 10
259.9329767608
 20
115.3728522877761
 30
0.0
 10
259.985286909
 20
115.325225094737
 30
0.0
 10
260.0631899785
 20
115.257680422564
 30
0.0
 10
260.1414290151
 20
115.196191486634
 30
0.0
 10
260.2254667863
 20
115.136451249648
 30
0.0
 10
260.2841055983
 20
115.096875175281
 30
0.0
 10
260.3149303763
 20
115.0760837099331
 30
0.0
  0
LINE
  5
19D
330
119
100
AcDbEntity
  8
DV3_Default
 62
     7
100
AcDbLine
 10
260.3149303763
 20
115.0760837099
 30
0.0
 11
261.2074975873
 21
115.3474546653
 31
0.0
  0
LINE
  5
19E
330
119
100
AcDbEntity
  8
DV3_Default
 62
     7
100
AcDbLine
 10
261.2074975873
 20
115.3474546653
 30
0.0
 11
262.2410687253
 21
115.6525620574
 31
0.0
  0
LINE
  5
19F
330
119
100
AcDbEntity
  8
DV3_Default
 62
     7
100
AcDbLine
 10
262.2410205947
 20
115.6527251028
 30
0.0
 11
264.0111077108
 21
115.9836740928
 31
0.0
  0
SPLINE
  5
1A0
330
119
100
AcDbEntity
  8
DV3_Default
 62
     7
100
AcDbSpline
210
0.0
220
0.0
230
1.0
 70
     8
 71
     3
 72
    16
 73
    12
 74
     0
 42
0.000000001
 43
0.0000000001
 40
0.0
 40
0.0
 40
0.0
 40
0.0
 40
0.071384511463
 40
0.1520861195525
 40
0.2427644194723
 40
0.3445117360822
 40
0.4586977366882
 40
0.5869673384922
 40
0.7316410182421
 40
0.8748071307083
 40
1.0
 40
1.0
 40
1.0
 40
1.0
 10
264.0111077108
 20
115.983674092847
 30
0.0
 10
264.05125336
 20
115.983674092847
 30
0.0
 10
264.1367888377
 20
115.981034296869
 30
0.0
 10
264.2729664431999
 20
115.970890946522
 30
0.0
 10
264.4257003096
 20
115.954343711741
 30
0.0
 10
264.5965453591
 20
115.9308145413111
 30
0.0
 10
264.7874906822
 20
115.898868977583
 30
0.0
 10
265.0012289472
 20
115.857296320928
 30
0.0
 10
265.229509654
 20
115.8056293318701
 30
0.0
 10
265.4542909912
 20
115.746861632319
 30
0.0
 10
265.5985900355
 20
115.702428594674
 30
0.0
 10
265.6653259153
 20
115.679991393782
 30
0.0
  0
LINE
  5
1A1
330
119
100
AcDbEntity
  8
DV3_Default
 62
     7
100
AcDbLine
 10
265.6653259153
 20
115.6799913938
 30
0.0
 11
267.0453116078
 21
115.2171346063
 31
0.0
  0
SPLINE
  5
1A2
330
119
100
AcDbEntity
  8
DV3_Default
 62
     7
100
AcDbSpline
210
0.0
220
0.0
230
1.0
 70
     8
 71
     3
 72
    25
 73
    21
 74
     0
 42
0.000000001
 43
0.0000000001
 40
0.0
 40
0.0
 40
0.0
 40
0.0
 40
0.07482314422608
 40
0.1525850760132
 40
0.2217315783624
 40
0.2828955687216
 40
0.3371555551453
 40
0.3853873382515
 40
0.4284067485771
 40
0.4662362807818
 40
0.5003126248669
 40
0.5344261449515
 40
0.5723511059556
 40
0.615454497488
 40
0.6637650955717
 40
0.7180929559503
 40
0.7793156677956
 40
0.8485151529914
 40
0.9261556836109
 40
1.0
 40
1.0
 40
1.0
 40
1.0
 10
267.0453116078
 20
115.217134606279
 30
0.0
 10
267.1388831429
 20
115.18572253838
 30
0.0
 10
267.3311699169
 20
115.1259770338851
 30
0.0
 10
267.6137941845
 20
115.0503675794641
 30
0.0
 10
267.8812373396
 20
114.988409197405
 30
0.0
 10
268.1200511841
 20
114.940800664476
 30
0.0
 10
268.332947248
 20
114.904801876722
 30
0.0
 10
268.5231115799
 20
114.878451450322
 30
0.0
 10
268.6924718856
 20
114.860481315892
 30
0.0
 10
268.8437389117
 20
114.849893932329
 30
0.0
 10
268.983602569
 20
114.8459907322451
 30
0.0
 10
269.1235864898
 20
114.850102772466
 30
0.0
 10
269.2751217249
 20
114.860946745148
 30
0.0
 10
269.4447968332
 20
114.879171123693
 30
0.0
 10
269.6352364734
 20
114.905746621258
 30
0.0
 10
269.8483778305001
 20
114.941915101921
 30
0.0
 10
270.0874121136
 20
114.989626192185
 30
0.0
 10
270.3548423299
 20
115.051580646145
 30
0.0
 10
270.6361441586
 20
115.126787672807
 30
0.0
 10
270.8270432263
 20
115.186108787813
 30
0.0
 10
270.9193823805
 20
115.217134606279
 30
0.0
  0
LINE
  5
1A3
330
119
100
AcDbEntity
  8
DV3_Default
 62
     7
100
AcDbLine
 10
270.9193823805
 20
115.2171346063
 30
0.0
 11
272.2979372948
 21
115.6799913938
 31
0.0
  0
SPLINE
  5
1A4
330
119
100
AcDbEntity
  8
DV3_Default
 62
     7
100
AcDbSpline
210
0.0
220
0.0
230
1.0
 70
     8
 71
     3
 72
    16
 73
    12
 74
     0
 42
0.000000001
 43
0.0000000001
 40
0.0
 40
0.0
 40
0.0
 40
0.0
 40
0.1253252189076
 40
0.268648106079
 40
0.4139053989667
 40
0.5422676078898
 40
0.656329563745
 40
0.7579124456744
 40
0.8483952980942
 40
0.928872890268
 40
1.0
 40
1.0
 40
1.0
 40
1.0
 10
272.2979372948
 20
115.679991393782
 30
0.0
 10
272.3647408328001
 20
115.70245786811
 30
0.0
 10
272.50920649
 20
115.746900159961
 30
0.0
 10
272.7344893064
 20
115.805676843464
 30
0.0
 10
272.9632418879
 20
115.857365277238
 30
0.0
 10
273.1772900938
 20
115.89895333638
 30
0.0
 10
273.3681243955
 20
115.9308770026681
 30
0.0
 10
273.5386947061
 20
115.954387060784
 30
0.0
 10
273.6910962744
 20
115.970931912281
 30
0.0
 10
273.8268902403
 20
115.981075272883
 30
0.0
 10
273.9121551675
 20
115.983697355616
 30
0.0
 10
273.9521554992
 20
115.983674092847
 30
0.0
  0
SPLINE
  5
1A5
330
119
100
AcDbEntity
  8
DV3_Default
 62
     7
100
AcDbSpline
210
0.0
220
0.0
230
1.0
 70
     8
 71
     3
 72
    14
 73
    10
 74
     0
 42
0.000000001
 43
0.0000000001
 40
0.0
 40
0.0
 40
0.0
 40
0.0
 40
0.0951452741577
 40
0.2007847363877
 40
0.3211589794248
 40
0.459394933426
 40
0.6173027091665
 40
0.7968940471098
 40
1.0
 40
1.0
 40
1.0
 40
1.0
 10
273.9521554992
 20
115.983674092847
 30
0.0
 10
274.009445589
 20
115.983659095441
 30
0.0
 10
274.1303626516
 20
115.9802665548191
 30
0.0
 10
274.3232051352001
 20
115.964834483122
 30
0.0
 10
274.5407739995
 20
115.936443995863
 30
0.0
 10
274.7877809436
 20
115.89254161025
 30
0.0
 10
275.0676124984
 20
115.830985598612
 30
0.0
 10
275.3830430177
 20
115.75039287345
 30
0.0
 10
275.6047208272
 20
115.687381996618
 30
0.0
 10
275.7220282848001
 20
115.652806605645
 30
0.0
  0
LINE
  5
1A6
330
119
100
AcDbEntity
  8
DV3_Default
 62
     7
100
AcDbLine
 10
275.7220282848
 20
115.6528066056
 30
0.0
 11
276.7552799881
 21
115.3466194067
 31
0.0
  0
LINE
  5
1A7
330
119
100
AcDbEntity
  8
DV3_Default
 62
     7
100
AcDbLine
 10
276.7555293343
 20
115.3474540051
 30
0.0
 11
277.649286686
 21
115.0760837099
 31
0.0
  0
SPLINE
  5
1A8
330
119
100
AcDbEntity
  8
DV3_Default
 62
     7
100
AcDbSpline
210
0.0
220
0.0
230
1.0
 70
     8
 71
     3
 72
    11
 73
     7
 74
     0
 42
0.000000001
 43
0.0000000001
 40
0.0
 40
0.0
 40
0.0
 40
0.0
 40
0.2625682708085
 40
0.4997577665358
 40
0.737078084584
 40
1.0
 40
1.0
 40
1.0
 40
1.0
 10
277.6492866859999
 20
115.0760837099325
 30
0.0
 10
277.6869465326
 20
115.101878125414
 30
0.0
 10
277.7586637061
 20
115.150918081509
 30
0.0
 10
277.8619658667
 20
115.22683978119
 30
0.0
 10
277.9603285909
 20
115.3091588045311
 30
0.0
 10
278.0249986422
 20
115.367304693444
 30
0.0
 10
278.0589662125
 20
115.39788960109
 30
0.0
  0
LINE
  5
1A9
330
119
100
AcDbEntity
  8
DV3_Default
 62
     7
100
AcDbLine
 10
278.0589662125
 20
115.3978896011
 30
0.0
 11
276.4519636926
 21
115.8916273541
 31
0.0
  0
SPLINE
  5
1AA
330
119
100
AcDbEntity
  8
DV3_Default
 62
     7
100
AcDbSpline
210
0.0
220
0.0
230
1.0
 70
     8
 71
     3
 72
    11
 73
     7
 74
     0
 42
0.000000001
 43
0.0000000001
 40
0.0
 40
0.0
 40
0.0
 40
0.0
 40
0.2777301014813
 40
0.5324774879068
 40
0.765092330964
 40
1.0
 40
1.0
 40
1.0
 40
1.0
 10
276.4519636926
 20
115.8916273540651
 30
0.0
 10
276.3244820921
 20
115.930834673504
 30
0.0
 10
276.079934351
 20
116.005572365422
 30
0.0
 10
275.7276103778
 20
116.1098456141511
 30
0.0
 10
275.3929084306999
 20
116.2010618833581
 30
0.0
 10
275.1742554933
 20
116.252258707154
 30
0.0
 10
275.0641087193
 20
116.276625954489
 30
0.0
  0
SPLINE
  5
1AB
330
119
100
AcDbEntity
  8
DV3_Default
 62
     7
100
AcDbSpline
210
0.0
220
0.0
230
1.0
 70
     8
 71
     3
 72
    13
 73
     9
 74
     0
 42
0.000000001
 43
0.0000000001
 40
0.0
 40
0.0
 40
0.0
 40
0.0
 40
0.2189145129034
 40
0.4131417106194
 40
0.5860056082958
 40
0.7402128435609
 40
0.8777580237952
 40
1.0
 40
1.0
 40
1.0
 40
1.0
 10
275.0641087193
 20
116.276625954489
 30
0.0
 10
274.9840976951
 20
116.294335996987
 30
0.0
 10
274.8325359567
 20
116.3252900744261
 30
0.0
 10
274.6162104331
 20
116.361892549669
 30
0.0
 10
274.4228317471
 20
116.3882986201411
 30
0.0
 10
274.249811879
 20
116.406307284053
 30
0.0
 10
274.0951708537
 20
116.416957860585
 30
0.0
 10
273.9979150826
 20
116.419524939503
 30
0.0
 10
273.9521554992
 20
116.419524939503
 30
0.0
  0
LINE
  5
1AC
330
119
100
AcDbEntity
  8
DV3_Default
 62
     7
100
AcDbLine
 10
272.0232278567
 20
117.635448051
 30
0.0
 11
270.9193823805
 21
117.2612399038
 31
0.0
  0
SPLINE
  5
1AD
330
119
100
AcDbEntity
  8
DV3_Default
 62
     7
100
AcDbSpline
210
0.0
220
0.0
230
1.0
 70
     8
 71
     3
 72
    23
 73
    19
 74
     0
 42
0.000000001
 43
0.0000000001
 40
0.0
 40
0.0
 40
0.0
 40
0.0
 40
0.09493456814175
 40
0.1778328448283
 40
0.2503593253032
 40
0.3139838489591
 40
0.3698551336005
 40
0.4190374315528
 40
0.4619626876612
 40
0.4999885327506
 40
0.5380131339349
 40
0.5809360337915
 40
0.6301176689454
 40
0.6859895778752
 40
0.7496161570571
 40
0.8221458017563
 40
0.9050475970671
 40
1.0
 40
1.0
 40
1.0
 40
1.0
 10
270.9193823805
 20
117.261239903793
 30
0.0
 10
270.8007704572
 20
117.221075426026
 30
0.0
 10
270.5771659949
 20
117.149938004676
 30
0.0
 10
270.2588722439
 20
117.061631911789
 30
0.0
 10
269.9777873827
 20
116.994417487236
 30
0.0
 10
269.7294070869
 20
116.944471863088
 30
0.0
 10
269.509728793
 20
116.908792162288
 30
0.0
 10
269.3159022133
 20
116.885216773043
 30
0.0
 10
269.1447067598
 20
116.871880911278
 30
0.0
 10
268.9877570678
 20
116.867253853521
 30
0.0
 10
268.830809864
 20
116.871862287011
 30
0.0
 10
268.6596189216
 20
116.8851850055991
 30
0.0
 10
268.4657943379
 20
116.908751201137
 30
0.0
 10
268.2461127297
 20
116.944427571652
 30
0.0
 10
267.9977250313
 20
116.994375764071
 30
0.0
 10
267.7166301154001
 20
117.0615978463981
 30
0.0
 10
267.3983070403
 20
117.149919204954
 30
0.0
 10
267.1746766515
 20
117.221067880565
 30
0.0
 10
267.0560424453
 20
117.261239903793
 30
0.0
  0
LINE
  5
1AE
330
119
100
AcDbEntity
  8
DV3_Default
 62
     7
100
AcDbLine
 10
267.0560424453
 20
117.2612399038
 30
0.0
 11
265.951958506
 21
117.635448051
 31
0.0
  0
SPLINE
  5
1AF
330
119
100
AcDbEntity
  8
DV3_Default
 62
     7
100
AcDbSpline
210
0.0
220
0.0
230
1.0
 70
     8
 71
     3
 72
    26
 73
    22
 74
     0
 42
0.000000001
 43
0.0000000001
 40
0.0
 40
0.0
 40
0.0
 40
0.0
 40
0.06091971340462
 40
0.1300185554409
 40
0.1998272699005
 40
0.2617726513669
 40
0.3168788501786
 40
0.3660476832166
 40
0.4100356031657
 40
0.4492417800275
 40
0.4837636692444
 40
0.5164714008947
 40
0.5510100014986
 40
0.5902317076085
 40
0.6342258196155
 40
0.6834003261777
 40
0.7385121254836
 40
0.8004056028479
 40
0.8698797020083
 40
0.9389669092629
 40
1.0
 40
1.0
 40
1.0
 40
1.0
 10
265.951958506
 20
117.635448051031
 30
0.0
 10
265.8762094591
 20
117.66113948653
 30
0.0
 10
265.7131754079
 20
117.711993794109
 30
0.0
 10
265.4596113315
 20
117.779624766347
 30
0.0
 10
265.2027122173
 20
117.839396439103
 30
0.0
 10
264.9621876712
 20
117.8879563533541
 30
0.0
 10
264.7471801017
 20
117.9255545641666
 30
0.0
 10
264.5546012238
 20
117.9541507244379
 30
0.0
 10
264.3820333682
 20
117.974956016542
 30
0.0
 10
264.2280585526
 20
117.9886780406629
 30
0.0
 10
264.0884582755
 20
117.9960917484834
 30
0.0
 10
263.9547670181
 20
117.9959798074234
 30
0.0
 10
263.8151311243
 20
117.9884827153382
 30
0.0
 10
263.6611097491
 20
117.9747135065858
 30
0.0
 10
263.4885080620001
 20
117.953891652315
 30
0.0
 10
263.2959063464
 20
117.9252931718137
 30
0.0
 10
263.080950522
 20
117.8877088095705
 30
0.0
 10
262.8409160469
 20
117.839248728664
 30
0.0
 10
262.5845242309
 20
117.779605150484
 30
0.0
 10
262.33125207
 20
117.712066181784
 30
0.0
 10
262.1680873042001
 20
117.661182097152
 30
0.0
 10
262.0921955165
 20
117.635448051031
 30
0.0
  0
LINE
  5
1B0
330
119
100
AcDbEntity
  8
DV3_Default
 62
     7
100
AcDbLine
 10
262.0921955165
 20
117.635448051
 30
0.0
 11
260.9881115773
 21
117.2612399038
 31
0.0
  0
SPLINE
  5
1B1
330
119
100
AcDbEntity
  8
DV3_Default
 62
     7
100
AcDbSpline
210
0.0
220
0.0
230
1.0
 70
     8
 71
     3
 72
    19
 73
    15
 74
     0
 42
0.000000001
 43
0.0000000001
 40
0.0
 40
0.0
 40
0.0
 40
0.0
 40
0.138227057947
 40
0.2598697381401
 40
0.3660123935169
 40
0.4588420140678
 40
0.5401512500469
 40
0.611401928837
 40
0.6734538992108
 40
0.7291739132154
 40
0.7857111139986
 40
0.8489253630496
 40
0.9203977064257
 40
1.0
 40
1.0
 40
1.0
 40
1.0
 10
260.9881115773
 20
117.261239903793
 30
0.0
 10
260.8671717692001
 20
117.220280839346
 30
0.0
 10
260.63831548
 20
117.147575111545
 30
0.0
 10
260.3123566471
 20
117.057485728205
 30
0.0
 10
260.0240718299
 20
116.9893019558551
 30
0.0
 10
259.7699888909
 20
116.939216840296
 30
0.0
 10
259.5459873029
 20
116.904076703832
 30
0.0
 10
259.3489524347
 20
116.8816269746081
 30
0.0
 10
259.1746722284
 20
116.869793761154
 30
0.0
 10
259.0135852173
 20
116.867557052933
 30
0.0
 10
258.8515648951
 20
116.874662012377
 30
0.0
 10
258.675672839
 20
116.89158911871
 30
0.0
 10
258.4794616589
 20
116.917972370478
 30
0.0
 10
258.3416011021
 20
116.939702085315
 30
0.0
 10
258.2690366058
 20
116.951595628382
 30
0.0
  0
LINE
  5
1B2
330
119
100
AcDbEntity
  8
DV3_Default
 62
     7
100
AcDbLine
 10
258.2690366058
 20
116.9515956284
 30
0.0
 11
258.3148215122
 21
116.8746912935
 31
0.0
  0
SPLINE
  5
1B3
330
119
100
AcDbEntity
  8
DV3_Default
 62
     7
100
AcDbSpline
210
0.0
220
0.0
230
1.0
 70
     8
 71
     3
 72
    12
 73
     8
 74
     0
 42
0.000000001
 43
0.0000000001
 40
0.0
 40
0.0
 40
0.0
 40
0.0
 40
0.2157311357495
 40
0.4085017755256
 40
0.5935114336695
 40
0.7858520677278
 40
1.0
 40
1.0
 40
1.0
 40
1.0
 10
258.3148215122
 20
116.874691293519
 30
0.0
 10
258.3340274949001
 20
116.842695676526
 30
0.0
 10
258.3708590511
 20
116.782382642049
 30
0.0
 10
258.4272690154
 20
116.6965639936191
 30
0.0
 10
258.4856018582
 20
116.616988842077
 30
0.0
 10
258.5500297494
 20
116.537468968313
 30
0.0
 10
258.5958832797
 20
116.484156686669
 30
0.0
 10
258.6201734526
 20
116.45618863403
 30
0.0
  0
SPLINE
  5
1B4
330
119
100
AcDbEntity
  8
DV3_Default
 62
     7
100
AcDbSpline
210
0.0
220
0.0
230
1.0
 70
     8
 71
     3
 72
    11
 73
     7
 74
     0
 42
0.000000001
 43
0.0000000001
 40
0.0
 40
0.0
 40
0.0
 40
0.0
 40
0.2586440604545
 40
0.496606632222
 40
0.7355954031408
 40
1.0
 40
1.0
 40
1.0
 40
1.0
 10
258.6201734526
 20
116.45618863403
 30
0.0
 10
258.6567348805
 20
116.451182530832
 30
0.0
 10
258.7269473715
 20
116.441663678979
 30
0.0
 10
258.8313278627
 20
116.430416776755
 30
0.0
 10
258.9369879641
 20
116.424602884063
 30
0.0
 10
259.0088209349
 20
116.4237576587081
 30
0.0
 10
259.0465453929
 20
116.4237576587081
 30
0.0
  0
SPLINE
  5
1B5
330
119
100
AcDbEntity
  8
DV3_Default
 62
     7
100
AcDbSpline
210
0.0
220
0.0
230
1.0
 70
     8
 71
     3
 72
    16
 73
    12
 74
     0
 42
0.000000001
 43
0.0000000001
 40
0.0
 40
0.0
 40
0.0
 40
0.0
 40
0.06877766155291
 40
0.1464697325669
 40
0.2338527843436
 40
0.3320498513202
 40
0.4424439280126
 40
0.5665976364358
 40
0.7069589430028
 40
0.859447528295
 40
1.0
 40
1.0
 40
1.0
 40
1.0
 10
259.0465453929
 20
116.4237576587081
 30
0.0
 10
259.092020938
 20
116.4237576587081
 30
0.0
 10
259.1888734520001
 20
116.426471036148
 30
0.0
 10
259.3431384777
 20
116.437489256176
 30
0.0
 10
259.5162474011
 20
116.45610707955
 30
0.0
 10
259.7100955381
 20
116.4831768328361
 30
0.0
 10
259.9269575181
 20
116.520457029183
 30
0.0
 10
260.1699831779
 20
116.569497630057
 30
0.0
 10
260.4384562272
 20
116.632519219475
 30
0.0
 10
260.7151078986
 20
116.707482308459
 30
0.0
 10
260.9000560022
 20
116.765453261787
 30
0.0
 10
260.9881115773
 20
116.795163865063
 30
0.0
  0
LINE
  5
1B6
330
119
100
AcDbEntity
  8
DV3_Default
 62
     7
100
AcDbLine
 10
260.9881115773
 20
116.7951638651
 30
0.0
 11
262.0921955165
 21
117.1675835394
 31
0.0
  0
SPLINE
  5
1B7
330
119
100
AcDbEntity
  8
DV3_Default
 62
     7
100
AcDbSpline
210
0.0
220
0.0
230
1.0
 70
     8
 71
     3
 72
    15
 73
    11
 74
     0
 42
0.000000001
 43
0.0000000001
 40
0.0
 40
0.0
 40
0.0
 40
0.0
 40
0.1884189312349
 40
0.3535666737039
 40
0.4985349833995
 40
0.6259888426311
 40
0.7381479268617
 40
0.8368858567015
 40
0.9237410859227
 40
1.0
 40
1.0
 40
1.0
 40
1.0
 10
262.0921955165
 20
117.1675835393981
 30
0.0
 10
262.2098825992
 20
117.207346486378
 30
0.0
 10
262.4320399104
 20
117.278141765657
 30
0.0
 10
262.7486593914
 20
117.366610085862
 30
0.0
 10
263.0291816765
 20
117.434195566293
 30
0.0
 10
263.2777395994
 20
117.484565140051
 30
0.0
 10
263.4979718422
 20
117.52040435598
 30
0.0
 10
263.6928991107001
 20
117.5441028702891
 30
0.0
 10
263.8650800824
 20
117.557433944896
 30
0.0
 10
263.9726347981
 20
117.560391804835
 30
0.0
 10
264.0229116319
 20
117.560391804835
 30
0.0
  0
SPLINE
  5
1B8
330
119
100
AcDbEntity
  8
DV3_Default
 62
     7
100
AcDbSpline
210
0.0
220
0.0
230
1.0
 70
     8
 71
     3
 72
    16
 73
    12
 74
     0
 42
0.000000001
 43
0.0000000001
 40
0.0
 40
0.0
 40
0.0
 40
0.0
 40
0.07159756792622
 40
0.1523442671189
 40
0.2428984539848
 40
0.3443363403278
 40
0.4580213513198
 40
0.5855619967832
 40
0.7293257495047
 40
0.8732773643872
 40
1.0
 40
1.0
 40
1.0
 40
1.0
 10
264.0229116319
 20
117.560391804835
 30
0.0
 10
264.0631885694
 20
117.560391804835
 30
0.0
 10
264.1488942581
 20
117.5578476027321
 30
0.0
 10
264.2852030937
 20
117.547922165634
 30
0.0
 10
264.4377855693
 20
117.531595467613
 30
0.0
 10
264.6081778678
 20
117.50826642369
 30
0.0
 10
264.7983328619
 20
117.476505081316
 30
0.0
 10
265.0109365864
 20
117.435075046858
 30
0.0
 10
265.2387762356
 20
117.383328126637
 30
0.0
 10
265.464321412
 20
117.324095420842
 30
0.0
 10
265.6098967127
 20
117.279247436698
 30
0.0
 10
265.677487531
 20
117.256589874243
 30
0.0
  0
LINE
  5
1B9
330
119
100
AcDbEntity
  8
DV3_Default
 62
     7
100
AcDbLine
 10
265.677487531
 20
117.2565898742
 30
0.0
 11
267.0560424453
 21
116.795163865
 31
0.0
  0
SPLINE
  5
1BA
330
119
100
AcDbEntity
  8
DV3_Default
 62
     7
100
AcDbSpline
210
0.0
220
0.0
230
1.0
 70
     8
 71
     3
 72
    25
 73
    21
 74
     0
 42
0.000000001
 43
0.0000000001
 40
0.0
 40
0.0
 40
0.0
 40
0.0
 40
0.07755960684866
 40
0.1553499124827
 40
0.2240488023556
 40
0.2847655767439
 40
0.3385896129629
 40
0.3863830469939
 40
0.4289692979089
 40
0.4663617472149
 40
0.5000098567608
 40
0.5336582465599
 40
0.5710504193174
 40
0.6136332150918
 40
0.6614191158421
 40
0.7152298555243
 40
0.7759245461841
 40
0.8445911884108
 40
0.9223530804229
 40
1.0
 40
1.0
 40
1.0
 40
1.0
 10
267.0560424453
 20
116.795163865063
 30
0.0
 10
267.1528003494
 20
116.762716296836
 30
0.0
 10
267.3481056472
 20
116.702136959351
 30
0.0
 10
267.6329701495
 20
116.625985128203
 30
0.0
 10
267.8986031428
 20
116.5643566436621
 30
0.0
 10
268.1350590132
 20
116.517042082588
 30
0.0
 10
268.3456661799
 20
116.4812258256021
 30
0.0
 10
268.5336155277
 20
116.454977455148
 30
0.0
 10
268.700813807
 20
116.437047522976
 30
0.0
 10
268.8499810731
 20
116.426450215301
 30
0.0
 10
268.9877367865
 20
116.422471159751
 30
0.0
 10
269.1254907233
 20
116.426496673199
 30
0.0
 10
269.2746502942
 20
116.437136462602
 30
0.0
 10
269.4418296928
 20
116.455102132369
 30
0.0
 10
269.6297433753
 20
116.481373728406
 30
0.0
 10
269.8402921860001
 20
116.517195297867
 30
0.0
 10
270.076661331
 20
116.564488585593
 30
0.0
 10
270.3421947352001
 20
116.626063289916
 30
0.0
 10
270.6271088683
 20
116.702163611899
 30
0.0
 10
270.8225057947
 20
116.762708876883
 30
0.0
 10
270.9193823805
 20
116.795163865063
 30
0.0
  0
LINE
  5
1BB
330
119
100
AcDbEntity
  8
DV3_Default
 62
     7
100
AcDbLine
 10
270.9193823805
 20
116.7951638651
 30
0.0
 11
272.2979372948
 21
117.2565898743
 31
0.0
  0
SPLINE
  5
1BC
330
119
100
AcDbEntity
  8
DV3_Default
 62
     7
100
AcDbSpline
210
0.0
220
0.0
230
1.0
 70
     8
 71
     3
 72
    16
 73
    12
 74
     0
 42
0.000000001
 43
0.0000000001
 40
0.0
 40
0.0
 40
0.0
 40
0.0
 40
0.1265709259964
 40
0.2705298855158
 40
0.4146810915038
 40
0.5422175062017
 40
0.6558636581589
 40
0.7572573594073
 40
0.8477638656876
 40
0.9284596319063
 40
1.0
 40
1.0
 40
1.0
 40
1.0
 10
272.2979372948
 20
117.256589874243
 30
0.0
 10
272.365428014
 20
117.279229870523
 30
0.0
 10
272.5108902694
 20
117.324060357505
 30
0.0
 10
272.7365217257
 20
117.383308411789
 30
0.0
 10
272.9645317146
 20
117.435073766433
 30
0.0
 10
273.1772841259
 20
117.4765120018
 30
0.0
 10
273.3673511591001
 20
117.508252355738
 30
0.0
 10
273.5376335206
 20
117.531571725875
 30
0.0
 10
273.690101942
 20
117.547901614284
 30
0.0
 10
273.8262927377
 20
117.557839558528
 30
0.0
 10
273.9119193004
 20
117.560391804835
 30
0.0
 10
273.9521554992
 20
117.560391804835
 30
0.0
  0
SPLINE
  5
1BD
330
119
100
AcDbEntity
  8
DV3_Default
 62
     7
100
AcDbSpline
210
0.0
220
0.0
230
1.0
 70
     8
 71
     3
 72
    15
 73
    11
 74
     0
 42
0.000000001
 43
0.0000000001
 40
0.0
 40
0.0
 40
0.0
 40
0.0
 40
0.07641076845162
 40
0.163350042967
 40
0.2621472219015
 40
0.3743390296604
 40
0.5017899539229
 40
0.6467039007818
 40
0.8117177430704
 40
1.0
 40
1.0
 40
1.0
 40
1.0
 10
273.9521554992
 20
117.560391804835
 30
0.0
 10
274.0025406556001
 20
117.5603554169031
 30
0.0
 10
274.1102661864
 20
117.557337269855
 30
0.0
 10
274.2826660624
 20
117.543953852334
 30
0.0
 10
274.4777382989
 20
117.520221180701
 30
0.0
 10
274.6980617531
 20
117.484350373483
 30
0.0
 10
274.9466418501
 20
117.433963794067
 30
0.0
 10
275.2270849889
 20
117.366387815088
 30
0.0
 10
275.5435540975
 20
117.27798003301
 30
0.0
 10
275.7655930153
 20
117.207278544975
 30
0.0
 10
275.8832293092
 20
117.1675835393981
 30
0.0
  0
LINE
  5
1BE
330
119
100
AcDbEntity
  8
DV3_Default
 62
     7
100
AcDbLine
 10
275.8832293092
 20
117.1675835394
 30
0.0
 11
276.9867170909
 21
116.795163865
 31
0.0
  0
SPLINE
  5
1BF
330
119
100
AcDbEntity
  8
DV3_Default
 62
     7
100
AcDbSpline
210
0.0
220
0.0
230
1.0
 70
     8
 71
     3
 72
    16
 73
    12
 74
     0
 42
0.000000001
 43
0.0000000001
 40
0.0
 40
0.0
 40
0.0
 40
0.0
 40
0.140916823659
 40
0.2936383973584
 40
0.4338905637056
 40
0.5579507065673
 40
0.6682585327553
 40
0.7663741627919
 40
0.8536797537962
 40
0.9312970498544
 40
1.0
 40
1.0
 40
1.0
 40
1.0
 10
276.9867170909001
 20
116.795163865063
 30
0.0
 10
277.0749654861
 20
116.765393715816
 30
0.0
 10
277.2602187201
 20
116.70734756763
 30
0.0
 10
277.5370750677
 20
116.6323666402291
 30
0.0
 10
277.8054600136
 20
116.569390527864
 30
0.0
 10
278.0481968814
 20
116.5204121376181
 30
0.0
 10
278.264795731
 20
116.483167258145
 30
0.0
 10
278.4583994306
 20
116.456114369446
 30
0.0
 10
278.6312796244001
 20
116.437499309
 30
0.0
 10
278.7853286392
 20
116.426475348466
 30
0.0
 10
278.8820416056
 20
116.4237576587081
 30
0.0
 10
278.9274486546
 20
116.4237576587081
 30
0.0
  0
SPLINE
  5
1C0
330
119
100
AcDbEntity
  8
DV3_Default
 62
     7
100
AcDbSpline
210
0.0
220
0.0
230
1.0
 70
     8
 71
     3
 72
    11
 73
     7
 74
     0
 42
0.000000001
 43
0.0000000001
 40
0.0
 40
0.0
 40
0.0
 40
0.0
 40
0.2643990119093
 40
0.5034688906542
 40
0.7414876786991
 40
1.0
 40
1.0
 40
1.0
 40
1.0
 10
278.9274486546
 20
116.4237576587081
 30
0.0
 10
278.9653708563
 20
116.4237576587081
 30
0.0
 10
279.0375927727
 20
116.424621431061
 30
0.0
 10
279.1438266466
 20
116.430471489292
 30
0.0
 10
279.2487639438
 20
116.44170660165
 30
0.0
 10
279.3193455175
 20
116.451197940507
 30
0.0
 10
279.3560859938
 20
116.45618863403
 30
0.0
  0
SPLINE
  5
1C1
330
119
100
AcDbEntity
  8
DV3_Default
 62
     7
100
AcDbSpline
210
0.0
220
0.0
230
1.0
 70
     8
 71
     3
 72
    11
 73
     7
 74
     0
 42
0.000000001
 43
0.0000000001
 40
0.0
 40
0.0
 40
0.0
 40
0.0
 40
0.261402283168
 40
0.4970221217206
 40
0.7336149670106
 40
1.0
 40
1.0
 40
1.0
 40
1.0
 10
279.3560859938
 20
116.45618863403
 30
0.0
 10
279.3851540397
 20
116.4906928986471
 30
0.0
 10
279.4404541221
 20
116.55627074406
 30
0.0
 10
279.5187860659
 20
116.65583110501
 30
0.0
 10
279.5907493535
 20
116.761157498854
 30
0.0
 10
279.6360471348
 20
116.8352354320751
 30
0.0
 10
279.6596494614
 20
116.874691293519
 30
0.0
  0
LINE
  5
1C2
330
119
100
AcDbEntity
  8
DV3_Default
 62
     7
100
AcDbLine
 10
279.6596494614
 20
116.8746912935
 30
0.0
 11
279.7059112938
 21
116.9515956284
 31
0.0
  0
SPLINE
  5
1C3
330
119
100
AcDbEntity
  8
DV3_Default
 62
     7
100
AcDbSpline
210
0.0
220
0.0
230
1.0
 70
     8
 71
     3
 72
    12
 73
     8
 74
     0
 42
0.000000001
 43
0.0000000001
 40
0.0
 40
0.0
 40
0.0
 40
0.0
 40
0.2410009609573
 40
0.4612874167771
 40
0.6606576050417
 40
0.8391484948975
 40
1.0
 40
1.0
 40
1.0
 40
1.0
 10
279.7059112938
 20
116.951595628382
 30
0.0
 10
279.6429900706
 20
116.941289220247
 30
0.0
 10
279.5224421291001
 20
116.922241287925
 30
0.0
 10
279.3493367653001
 20
116.897971670831
 30
0.0
 10
279.1920097831
 20
116.8806002626061
 30
0.0
 10
279.0497757715
 20
116.870869176635
 30
0.0
 10
278.9599884206
 20
116.8687297171731
 30
0.0
 10
278.9174332063
 20
116.8687297171731
 30
0.0
  0
SPLINE
  5
1C4
330
119
100
AcDbEntity
  8
DV3_Default
 62
     7
100
AcDbSpline
210
0.0
220
0.0
230
1.0
 70
     8
 71
     3
 72
    15
 73
    11
 74
     0
 42
0.000000001
 43
0.0000000001
 40
0.0
 40
0.0
 40
0.0
 40
0.0
 40
0.07603802948717
 40
0.1628560148055
 40
0.2616191007283
 40
0.3738620941183
 40
0.5014860185873
 40
0.6467853850114
 40
0.812585434577
 40
1.0
 40
1.0
 40
1.0
 40
1.0
 10
278.9174332063
 20
116.8687297171731
 30
0.0
 10
278.867306202
 20
116.8687297171731
 30
0.0
 10
278.7599303727
 20
116.871752766728
 30
0.0
 10
278.5879350009
 20
116.885306583548
 30
0.0
 10
278.3930032236
 20
116.909205610988
 30
0.0
 10
278.1726142213
 20
116.945096018833
 30
0.0
 10
277.9236729670001
 20
116.995399395847
 30
0.0
 10
277.6423624546
 20
117.0628518321701
 30
0.0
 10
277.3256897061
 20
117.150980077604
 30
0.0
 10
277.1037443447
 20
117.221625146835
 30
0.0
 10
276.9867170909001
 20
117.261239903793
 30
0.0
  0
LINE
  5
1C5
330
119
100
AcDbEntity
  8
DV3_Default
 62
     7
100
AcDbLine
 10
276.9867170909
 20
117.2612399038
 30
0.0
 11
275.8832293092
 21
117.635448051
 31
0.0
  0
SPLINE
  5
1C6
330
119
100
AcDbEntity
  8
DV3_Default
 62
     7
100
AcDbSpline
210
0.0
220
0.0
230
1.0
 70
     8
 71
     3
 72
    26
 73
    22
 74
     0
 42
0.000000001
 43
0.0000000001
 40
0.0
 40
0.0
 40
0.0
 40
0.0
 40
0.06225421567967
 40
0.1326139119765
 40
0.2022508500446
 40
0.2638072321419
 40
0.3185315000348
 40
0.3673172658574
 40
0.4109304440564
 40
0.4497630545174
 40
0.4839466009746
 40
0.5163503876998
 40
0.5505790869738
 40
0.5894840716662
 40
0.6331762800505
 40
0.6820532068985
 40
0.7368753803953
 40
0.7984867864093
 40
0.8678646930948
 40
0.9379348345889
 40
1.0
 40
1.0
 40
1.0
 40
1.0
 10
275.8832293092
 20
117.635448051031
 30
0.0
 10
275.8058108182
 20
117.661685720699
 30
0.0
 10
275.639479727
 20
117.713454943026
 30
0.0
 10
275.3827551373
 20
117.781644187208
 30
0.0
 10
275.1248777402
 20
117.841326488277
 30
0.0
 10
274.8855000318
 20
117.8893741537181
 30
0.0
 10
274.6719346419
 20
117.9264863360275
 30
0.0
 10
274.4807975464
 20
117.9546696451862
 30
0.0
 10
274.3096780004
 20
117.9751456492509
 30
0.0
 10
274.1571085122
 20
117.9886487418315
 30
0.0
 10
274.0188362095
 20
117.9959866112498
 30
0.0
 10
273.8863894715
 20
117.9960592569882
 30
0.0
 10
273.7479616999
 20
117.9886874586262
 30
0.0
 10
273.5951419057
 20
117.9750875372567
 30
0.0
 10
273.4237190581001
 20
117.954462685154
 30
0.0
 10
273.2322521331
 20
117.9261040182637
 30
0.0
 10
273.0183925947
 20
117.8888134499851
 30
0.0
 10
272.7791737457001
 20
117.840683823333
 30
0.0
 10
272.5219440279
 20
117.781081444302
 30
0.0
 10
272.2661536775
 20
117.713151971692
 30
0.0
 10
272.1004147148
 20
117.661595810366
 30
0.0
 10
272.0232278567
 20
117.635448051031
 30
0.0
  0
LINE
  5
1C7
330
119
100
AcDbEntity
  8
DV3_Default
 62
     7
100
AcDbLine
 10
277.3247384697
 20
118.85
 30
0.0
 11
280.3500000022
 21
118.85
 31
0.0
  0
LINE
  5
1C8
330
119
100
AcDbEntity
  8
DV3_Default
 62
     7
100
AcDbLine
 10
280.3500000022
 20
118.85
 30
0.0
 11
280.3500000022
 21
119.6397300186
 31
0.0
  0
LINE
  5
1C9
330
119
100
AcDbEntity
  8
DV3_Default
 62
     7
100
AcDbLine
 10
280.3500000022
 20
119.6397300186
 30
0.0
 11
278.3749297588
 21
119.6397300186
 31
0.0
  0
LINE
  5
1CA
330
119
100
AcDbEntity
  8
DV3_Default
 62
     7
100
AcDbLine
 10
278.3749297588
 20
119.6397300186
 30
0.0
 11
278.3749297588
 21
120.5979341846
 31
0.0
  0
LINE
  5
1CB
330
119
100
AcDbEntity
  8
DV3_Default
 62
     7
100
AcDbLine
 10
278.3749297588
 20
120.5979341846
 30
0.0
 11
279.8272889882
 21
120.5979341846
 31
0.0
  0
LINE
  5
1CC
330
119
100
AcDbEntity
  8
DV3_Default
 62
     7
100
AcDbLine
 10
279.8272889882
 20
120.5979341846
 30
0.0
 11
279.8272889882
 21
121.3573197796
 31
0.0
  0
LINE
  5
1CD
330
119
100
AcDbEntity
  8
DV3_Default
 62
     7
100
AcDbLine
 10
279.8272889882
 20
121.3573197796
 30
0.0
 11
278.3749297588
 21
121.3573197796
 31
0.0
  0
LINE
  5
1CE
330
119
100
AcDbEntity
  8
DV3_Default
 62
     7
100
AcDbLine
 10
278.3749297588
 20
121.3573197796
 30
0.0
 11
278.3749297588
 21
122.0917263697
 31
0.0
  0
LINE
  5
1CF
330
119
100
AcDbEntity
  8
DV3_Default
 62
     7
100
AcDbLine
 10
278.3749297588
 20
122.0917263697
 30
0.0
 11
280.1198831553
 21
122.0917263697
 31
0.0
  0
LINE
  5
1D0
330
119
100
AcDbEntity
  8
DV3_Default
 62
     7
100
AcDbLine
 10
280.1198831553
 20
122.0917263697
 30
0.0
 11
280.1198831553
 21
122.8814563882
 31
0.0
  0
LINE
  5
1D1
330
119
100
AcDbEntity
  8
DV3_Default
 62
     7
100
AcDbLine
 10
280.1198831553
 20
122.8814563882
 30
0.0
 11
277.3247384697
 21
122.8814563882
 31
0.0
  0
LINE
  5
1D2
330
119
100
AcDbEntity
  8
DV3_Default
 62
     7
100
AcDbLine
 10
277.3247384697
 20
122.8814563882
 30
0.0
 11
277.3247384697
 21
118.85
 31
0.0
  0
ARC
  5
1D3
330
119
100
AcDbEntity
  8
DV3_Default
 62
     7
100
AcDbCircle
 10
293.85
 20
106.85
 30
0.0
 40
0.4999999999999727
100
AcDbArc
 50
270.0
 51
0.0
  0
ARC
  5
1D4
330
119
100
AcDbEntity
  8
DV3_Default
 62
     7
100
AcDbCircle
 10
6.85
 20
106.85
 30
0.0
 40
0.5000000000000004
100
AcDbArc
 50
180.0
 51
270.0
  0
ARC
  5
1D5
330
119
100
AcDbEntity
  8
DV3_Default
 62
     7
100
AcDbCircle
 10
293.85
 20
130.85
 30
0.0
 40
0.5000000000000004
100
AcDbArc
 50
0.0
 51
90.0
  0
LINE
  5
1D6
330
119
100
AcDbEntity
  8
DV3_Default
 62
     7
100
AcDbLine
 10
294.35
 20
106.85
 30
0.0
 11
294.35
 21
130.85
 31
0.0
  0
ARC
  5
1D7
330
119
100
AcDbEntity
  8
DV3_Default
 62
     7
100
AcDbCircle
 10
6.85
 20
130.85
 30
0.0
 40
0.5000000000000004
100
AcDbArc
 50
90.0
 51
180.0
  0
LINE
  5
1D8
330
119
100
AcDbEntity
  8
DV3_Default
 62
     7
100
AcDbLine
 10
6.35
 20
130.85
 30
0.0
 11
6.35
 21
106.85
 31
0.0
  0
ENDBLK
  5
1DA
330
119
100
AcDbEntity
  8
0
100
AcDbBlockEnd
  0
ENDSEC
  0
SECTION
  2
ENTITIES
  0
INSERT
  5
70
330
1F
100
AcDbEntity
  8
Default
100
AcDbBlockReference
  2
SE
 10
0.0
 20
0.0
 30
0.0
  0
INSERT
  5
D4
330
1F
100
AcDbEntity
  8
Default
100
AcDbBlockReference
  2
SE1
 10
0.0
 20
0.0
 30
0.0
  0
INSERT
  5
11A
330
1F
100
AcDbEntity
  8
Default
100
AcDbBlockReference
  2
SE2
 10
0.0
 20
0.0
 30
0.0
  0
MTEXT
  5
1DB
330
1F
100
AcDbEntity
  8
Default
100
AcDbMText
 10
5.9362635081
 20
63.4225120485
 30
0.0
 40
10.0
 41
113.8626497168
 46
65.4545454545
 71
     1
 72
     1
  1
{\fArial Narrow|b0||i0||c0|p34;\C7;\H10.;\W1.;Grohe AG\P}{\fArial Narrow|b0||i0||c0|p34;\C7;\H10.;\W1.;\P}{\fArial Narrow|b0||i0||c0|p34;\C7;\H10.;\W1.;ecn:\P}{\fArial Narrow|b0||i0||c0|p34;\C7;\H10.;\W1.;unit: mm}
 73
     1
 44
1.0
1001
ACAD
1000
ACAD_MTEXT_DEFINED_HEIGHT_BEGIN
1070
    46
1040
65.4545454545
1000
ACAD_MTEXT_DEFINED_HEIGHT_END
  0
LINE
  5
1DC
330
1F
100
AcDbEntity
  8
Default
 62
     7
100
AcDbLine
 10
0.0
 20
0.0
 30
0.0
 11
100.0
 21
0.0
 31
0.0
  0
LINE
  5
1DD
330
1F
100
AcDbEntity
  8
Default
 62
     7
100
AcDbLine
 10
0.0
 20
0.0
 30
0.0
 11
0.0
 21
100.0
 31
0.0
  0
MTEXT
  5
1DE
330
1F
100
AcDbEntity
  8
Default
100
AcDbMText
 10
24.3923665681
 20
-8.2375342018
 30
0.0
 40
10.0
 41
35.00001
 46
16.3636363636
 71
     1
 72
     1
  1
{\fArial Narrow|b0||i0||c0|p34;\C7;\H10.;\W0.82;100 mm}
 73
     1
 44
1.0
1001
ACAD
1000
ACAD_MTEXT_DEFINED_HEIGHT_BEGIN
1070
    46
1040
16.3636363636
1000
ACAD_MTEXT_DEFINED_HEIGHT_END
  0
MTEXT
  5
1DF
330
1F
100
AcDbEntity
  8
Default
100
AcDbMText
 10
-17.6150308803
 20
24.6231930421
 30
0.0
 40
10.0
 41
35.00001
 46
16.3636363636
 71
     1
 72
     1
  1
{\fArial Narrow|b0||i0||c0|p34;\C7;\H10.;\W0.82;100 mm}
 11
6.123233995736766E-17
 21
1.0
 31
0.0
 73
     1
 44
1.0
1001
ACAD
1000
ACAD_MTEXT_DEFINED_HEIGHT_BEGIN
1070
    46
1040
16.3636363636
1000
ACAD_MTEXT_DEFINED_HEIGHT_END
  0
MTEXT
  5
1E0
330
1F
100
AcDbEntity
  8
Default
100
AcDbMText
 10
28.4878128572
 20
24.8634936442
 30
0.0
 40
10.0
 41
86.691737001
 46
16.3636363636
 71
     4
 72
     1
  1
{\fArial Narrow|b0||i0||c0|p34;\C7;\H10.;\W1.;251281}
 73
     1
 44
1.0
1001
ACAD
1000
ACAD_MTEXT_DEFINED_HEIGHT_BEGIN
1070
    46
1040
16.3636363636
1000
ACAD_MTEXT_DEFINED_HEIGHT_END
  0
MTEXT
  5
1E1
330
1F
100
AcDbEntity
  8
Default
100
AcDbMText
 10
5.9012241913
 20
41.4970052916
 30
0.0
 40
10.0
 41
109.9146987306
 46
16.3636363636
 71
     4
 72
     1
  1
{\fArial Narrow|b0||i0||c0|p34;\C7;\H10.;\W1.;40858SD0}
 73
     1
 44
1.0
1001
ACAD
1000
ACAD_MTEXT_DEFINED_HEIGHT_BEGIN
1070
    46
1040
16.3636363636
1000
ACAD_MTEXT_DEFINED_HEIGHT_END
  0
ENDSEC
  0
SECTION
  2
OBJECTS
  0
DICTIONARY
  5
C
330
0
100
AcDbDictionary
281
     1
  3
ACAD_DETAILVIEWSTYLE
350
21D
  3
ACAD_GROUP
350
D
  3
ACAD_LAYOUT
350
1A
  3
ACAD_MATERIAL
350
43
  3
ACAD_MLEADERSTYLE
350
6B
  3
ACAD_MLINESTYLE
350
17
  3
ACAD_PLOTSETTINGS
350
19
  3
ACAD_PLOTSTYLENAME
350
E
  3
ACAD_SCALELIST
350
47
  3
ACAD_SECTIONVIEWSTYLE
350
21E
  3
ACAD_TABLESTYLE
350
69
  3
ACAD_VISUALSTYLE
350
2A
  3
ACDB_RECOMPOSE_DATA
350
21A
  3
AcDbVariableDictionary
350
1E2
  0
SUN
  5
6D
330
29
100
AcDbSun
 90
        1
290
     0
 63
     7
421
 16777215
 40
1.0
291
     1
 91
  2455826
 92
 54000000
292
     0
 70
     2
 71
   256
280
     1
  0
DICTIONARY
  5
21D
102
{ACAD_REACTORS
330
C
102
}
330
C
100
AcDbDictionary
281
     1
  0
DICTIONARY
  5
D
102
{ACAD_REACTORS
330
C
102
}
330
C
100
AcDbDictionary
281
     1
  0
DICTIONARY
  5
1A
102
{ACAD_REACTORS
330
C
102
}
330
C
100
AcDbDictionary
281
     1
  3
Layout1
350
1E
  3
Model
350
22
  0
DICTIONARY
  5
43
102
{ACAD_REACTORS
330
C
102
}
330
C
100
AcDbDictionary
281
     1
  3
ByBlock
350
45
  3
ByLayer
350
44
  3
Global
350
46
  0
DICTIONARY
  5
6B
102
{ACAD_REACTORS
330
C
102
}
330
C
100
AcDbDictionary
281
     1
  3
Standard
350
6C
  0
DICTIONARY
  5
17
102
{ACAD_REACTORS
330
C
102
}
330
C
100
AcDbDictionary
281
     1
  3
Standard
350
18
  0
DICTIONARY
  5
19
102
{ACAD_REACTORS
330
C
102
}
330
C
100
AcDbDictionary
281
     1
  0
ACDBDICTIONARYWDFLT
  5
E
102
{ACAD_REACTORS
330
C
102
}
330
C
100
AcDbDictionary
281
     1
  3
Normal
350
F
100
AcDbDictionaryWithDefault
340
F
  0
DICTIONARY
  5
47
102
{ACAD_REACTORS
330
C
102
}
330
C
100
AcDbDictionary
281
     1
  3
A0
350
48
  3
A1
350
49
  3
A2
350
4A
  3
A3
350
4B
  3
A4
350
4C
  3
A5
350
4D
  3
A6
350
4E
  3
A7
350
4F
  3
A8
350
50
  3
A9
350
51
  3
B0
350
52
  3
B1
350
53
  3
B2
350
54
  3
B3
350
55
  3
B4
350
56
  3
B5
350
57
  3
B6
350
58
  3
B7
350
59
  3
B8
350
5A
  3
B9
350
5B
  3
C0
350
5C
  3
C1
350
5D
  3
C2
350
5E
  3
C3
350
5F
  3
C4
350
60
  3
C5
350
61
  3
C6
350
62
  3
C7
350
63
  3
C8
350
64
  3
C9
350
65
  3
D0
350
66
  3
D1
350
67
  3
D2
350
68
  0
DICTIONARY
  5
21E
102
{ACAD_REACTORS
330
C
102
}
330
C
100
AcDbDictionary
281
     1
  0
DICTIONARY
  5
69
102
{ACAD_REACTORS
330
C
102
}
330
C
100
AcDbDictionary
281
     1
  3
Standard
350
6A
  0
DICTIONARY
  5
2A
102
{ACAD_REACTORS
330
C
102
}
330
C
100
AcDbDictionary
281
     1
  3
2dWireframe
350
2F
  3
Basic
350
32
  3
Brighten
350
36
  3
ColorChange
350
3A
  3
Conceptual
350
34
  3
Dim
350
35
  3
EdgeColorOff
350
3D
  3
Facepattern
350
39
  3
Flat
350
2B
  3
FlatWithEdges
350
2C
  3
Gouraud
350
2D
  3
GouraudWithEdges
350
2E
  3
Hidden
350
31
  3
JitterOff
350
3B
  3
Linepattern
350
38
  3
OverhangOff
350
3C
  3
Realistic
350
33
  3
Shaded
350
42
  3
Shaded with edges
350
41
  3
Shades of Gray
350
3E
  3
Sketchy
350
3F
  3
Thicken
350
37
  3
Wireframe
350
30
  3
X-Ray
350
40
  0
XRECORD
  5
21A
102
{ACAD_REACTORS
330
C
102
}
330
C
100
AcDbXrecord
280
     1
 90
        1
330
6A
  0
DICTIONARY
  5
1E2
102
{ACAD_REACTORS
330
C
102
}
330
C
100
AcDbDictionary
281
     1
  3
CANNOSCALE
350
1E3
  3
CENTEREXE
350
21F
  3
CENTERLTYPEFILE
350
220
  3
CMLEADERSTYLE
350
21C
  3
CTABLESTYLE
350
21B
  3
XCLIPFRAME
350
1E4
  0
LAYOUT
  5
1E
102
{ACAD_REACTORS
330
1A
102
}
330
1A
100
AcDbPlotSettings
  1

  2
none_device
  4

  6

 40
0.0
 41
0.0
 42
0.0
 43
0.0
 44
0.0
 45
0.0
 46
0.0
 47
0.0
 48
0.0
 49
0.0
140
0.0
141
0.0
142
1.0
143
1.0
 70
   688
 72
     1
 73
     0
 74
     5
  7

 75
    16
 76
     0
 77
     2
 78
   300
147
1.0
148
0.0
149
0.0
100
AcDbLayout
  1
Layout1
 70
     1
 71
     1
 10
0.0
 20
0.0
 11
3000.0
 21
4500.0
 12
0.0
 22
0.0
 32
0.0
 14
0.0
 24
0.0
 34
0.0
 15
3000.0
 25
4500.0
 35
0.0
146
0.0
 13
0.0
 23
0.0
 33
0.0
 16
1.0
 26
0.0
 36
0.0
 17
0.0
 27
1.0
 37
0.0
 76
     0
330
1B
  0
LAYOUT
  5
22
102
{ACAD_REACTORS
330
1A
102
}
330
1A
100
AcDbPlotSettings
  1

  2
none_device
  4
Letter_(8.50_x_11.00_Inches)
  6

 40
6.35
 41
6.35
 42
6.35000508
 43
6.35000508
 44
215.9
 45
279.4
 46
0.0
 47
0.0
 48
0.0
 49
0.0
140
0.0
141
0.0
142
1.0
143
1.0
 70
  1712
 72
     1
 73
     0
 74
     0
  7

 75
     0
 76
     0
 77
     2
 78
   300
147
1.0
148
0.0
149
0.0
100
AcDbLayout
  1
Model
 70
     1
 71
     0
 10
0.0
 20
0.0
 11
3000.0
 21
4500.0
 12
0.0
 22
0.0
 32
0.0
 14
0.0
 24
0.0
 34
0.0
 15
3000.0
 25
4500.0
 35
0.0
146
0.0
 13
0.0
 23
0.0
 33
0.0
 16
1.0
 26
0.0
 36
0.0
 17
0.0
 27
1.0
 37
0.0
 76
     0
330
1F
331
29
  0
MATERIAL
  5
45
102
{ACAD_REACTORS
330
43
102
}
330
43
100
AcDbMaterial
  1
ByBlock
 72
     1
 94
      127
  0
MATERIAL
  5
44
102
{ACAD_REACTORS
330
43
102
}
330
43
100
AcDbMaterial
  1
ByLayer
 72
     1
 94
      127
  0
MATERIAL
  5
46
102
{ACAD_REACTORS
330
43
102
}
330
43
100
AcDbMaterial
  1
Global
 72
     1
 94
      127
  0
MLEADERSTYLE
  5
6C
102
{ACAD_REACTORS
330
6B
102
}
102
{ACAD_XDICTIONARY
360
218
102
}
330
6B
100
AcDbMLeaderStyle
170
     2
171
     1
172
     0
 90
        2
 40
0.0
 41
0.0
173
     1
 91
-1056964608
340
14
 92
       -2
290
     1
 42
2.0
291
     1
 43
8.0
  3
Standard
341
0
 44
4.0
300

342
11
174
     1
178
     6
175
     1
176
     0
 93
-1056964608
 45
4.0
292
     0
297
     0
 46
4.0
343
0
 94
-1056964608
 47
1.0
 49
1.0
140
1.0
293
     1
141
0.0
294
     1
177
     0
142
1.0
295
     0
296
     0
143
3.75
1001
ACAD_MLEADERVER
1070
     2
  0
MLINESTYLE
  5
18
102
{ACAD_REACTORS
330
17
102
}
330
17
100
AcDbMlineStyle
  2
Standard
 70
     0
  3

 62
   256
 51
90.0
 52
90.0
 71
     2
 49
0.5
 62
   256
  6
BYLAYER
 49
-0.5
 62
   256
  6
BYLAYER
  0
ACDBPLACEHOLDER
  5
F
102
{ACAD_REACTORS
330
E
102
}
330
E
  0
SCALE
  5
48
102
{ACAD_REACTORS
330
47
102
}
330
47
100
AcDbScale
 70
     0
300
1:1
140
1.0
141
1.0
290
     1
  0
SCALE
  5
49
102
{ACAD_REACTORS
330
47
102
}
330
47
100
AcDbScale
 70
     0
300
1:2
140
1.0
141
2.0
290
     0
  0
SCALE
  5
4A
102
{ACAD_REACTORS
330
47
102
}
330
47
100
AcDbScale
 70
     0
300
1:4
140
1.0
141
4.0
290
     0
  0
SCALE
  5
4B
102
{ACAD_REACTORS
330
47
102
}
330
47
100
AcDbScale
 70
     0
300
1:5
140
1.0
141
5.0
290
     0
  0
SCALE
  5
4C
102
{ACAD_REACTORS
330
47
102
}
330
47
100
AcDbScale
 70
     0
300
1:8
140
1.0
141
8.0
290
     0
  0
SCALE
  5
4D
102
{ACAD_REACTORS
330
47
102
}
330
47
100
AcDbScale
 70
     0
300
1:10
140
1.0
141
10.0
290
     0
  0
SCALE
  5
4E
102
{ACAD_REACTORS
330
47
102
}
330
47
100
AcDbScale
 70
     0
300
1:16
140
1.0
141
16.0
290
     0
  0
SCALE
  5
4F
102
{ACAD_REACTORS
330
47
102
}
330
47
100
AcDbScale
 70
     0
300
1:20
140
1.0
141
20.0
290
     0
  0
SCALE
  5
50
102
{ACAD_REACTORS
330
47
102
}
330
47
100
AcDbScale
 70
     0
300
1:30
140
1.0
141
30.0
290
     0
  0
SCALE
  5
51
102
{ACAD_REACTORS
330
47
102
}
330
47
100
AcDbScale
 70
     0
300
1:40
140
1.0
141
40.0
290
     0
  0
SCALE
  5
52
102
{ACAD_REACTORS
330
47
102
}
330
47
100
AcDbScale
 70
     0
300
1:50
140
1.0
141
50.0
290
     0
  0
SCALE
  5
53
102
{ACAD_REACTORS
330
47
102
}
330
47
100
AcDbScale
 70
     0
300
1:100
140
1.0
141
100.0
290
     0
  0
SCALE
  5
54
102
{ACAD_REACTORS
330
47
102
}
330
47
100
AcDbScale
 70
     0
300
2:1
140
2.0
141
1.0
290
     0
  0
SCALE
  5
55
102
{ACAD_REACTORS
330
47
102
}
330
47
100
AcDbScale
 70
     0
300
4:1
140
4.0
141
1.0
290
     0
  0
SCALE
  5
56
102
{ACAD_REACTORS
330
47
102
}
330
47
100
AcDbScale
 70
     0
300
8:1
140
8.0
141
1.0
290
     0
  0
SCALE
  5
57
102
{ACAD_REACTORS
330
47
102
}
330
47
100
AcDbScale
 70
     0
300
10:1
140
10.0
141
1.0
290
     0
  0
SCALE
  5
58
102
{ACAD_REACTORS
330
47
102
}
330
47
100
AcDbScale
 70
     0
300
100:1
140
100.0
141
1.0
290
     0
  0
SCALE
  5
59
102
{ACAD_REACTORS
330
47
102
}
330
47
100
AcDbScale
 70
     0
300
1/128" = 1'-0"
140
0.0078125
141
12.0
290
     0
  0
SCALE
  5
5A
102
{ACAD_REACTORS
330
47
102
}
330
47
100
AcDbScale
 70
     0
300
1/64" = 1'-0"
140
0.015625
141
12.0
290
     0
  0
SCALE
  5
5B
102
{ACAD_REACTORS
330
47
102
}
330
47
100
AcDbScale
 70
     0
300
1/32" = 1'-0"
140
0.03125
141
12.0
290
     0
  0
SCALE
  5
5C
102
{ACAD_REACTORS
330
47
102
}
330
47
100
AcDbScale
 70
     0
300
1/16" = 1'-0"
140
0.0625
141
12.0
290
     0
  0
SCALE
  5
5D
102
{ACAD_REACTORS
330
47
102
}
330
47
100
AcDbScale
 70
     0
300
3/32" = 1'-0"
140
0.09375
141
12.0
290
     0
  0
SCALE
  5
5E
102
{ACAD_REACTORS
330
47
102
}
330
47
100
AcDbScale
 70
     0
300
1/8" = 1'-0"
140
0.125
141
12.0
290
     0
  0
SCALE
  5
5F
102
{ACAD_REACTORS
330
47
102
}
330
47
100
AcDbScale
 70
     0
300
3/16" = 1'-0"
140
0.1875
141
12.0
290
     0
  0
SCALE
  5
60
102
{ACAD_REACTORS
330
47
102
}
330
47
100
AcDbScale
 70
     0
300
1/4" = 1'-0"
140
0.25
141
12.0
290
     0
  0
SCALE
  5
61
102
{ACAD_REACTORS
330
47
102
}
330
47
100
AcDbScale
 70
     0
300
3/8" = 1'-0"
140
0.375
141
12.0
290
     0
  0
SCALE
  5
62
102
{ACAD_REACTORS
330
47
102
}
330
47
100
AcDbScale
 70
     0
300
1/2" = 1'-0"
140
0.5
141
12.0
290
     0
  0
SCALE
  5
63
102
{ACAD_REACTORS
330
47
102
}
330
47
100
AcDbScale
 70
     0
300
3/4" = 1'-0"
140
0.75
141
12.0
290
     0
  0
SCALE
  5
64
102
{ACAD_REACTORS
330
47
102
}
330
47
100
AcDbScale
 70
     0
300
1" = 1'-0"
140
1.0
141
12.0
290
     0
  0
SCALE
  5
65
102
{ACAD_REACTORS
330
47
102
}
330
47
100
AcDbScale
 70
     0
300
1-1/2" = 1'-0"
140
1.5
141
12.0
290
     0
  0
SCALE
  5
66
102
{ACAD_REACTORS
330
47
102
}
330
47
100
AcDbScale
 70
     0
300
3" = 1'-0"
140
3.0
141
12.0
290
     0
  0
SCALE
  5
67
102
{ACAD_REACTORS
330
47
102
}
330
47
100
AcDbScale
 70
     0
300
6" = 1'-0"
140
6.0
141
12.0
290
     0
  0
SCALE
  5
68
102
{ACAD_REACTORS
330
47
102
}
330
47
100
AcDbScale
 70
     0
300
1'-0" = 1'-0"
140
12.0
141
12.0
290
     0
  0
TABLESTYLE
  5
6A
102
{ACAD_REACTORS
330
69
102
}
102
{ACAD_XDICTIONARY
360
215
102
}
330
69
100
AcDbTableStyle
  3
Standard
 70
     0
 71
     0
 40
0.06
 41
0.06
280
     0
281
     0
  7
Standard
140
4.5
170
     2
 62
     0
 63
   257
283
     0
 90
        4
 91
        0
  1

274
    -2
284
     1
 64
     0
275
    -2
285
     1
 65
     0
276
    -2
286
     1
 66
     0
277
    -2
287
     1
 67
     0
278
    -2
288
     1
 68
     0
279
    -2
289
     1
 69
     0
  7
Standard
140
6.0
170
     5
 62
     0
 63
   257
283
     0
 90
        4
 91
        0
  1

274
    -2
284
     1
 64
     0
275
    -2
285
     1
 65
     0
276
    -2
286
     1
 66
     0
277
    -2
287
     1
 67
     0
278
    -2
288
     1
 68
     0
279
    -2
289
     1
 69
     0
  7
Standard
140
4.5
170
     5
 62
     0
 63
   257
283
     0
 90
        4
 91
        0
  1

274
    -2
284
     1
 64
     0
275
    -2
285
     1
 65
     0
276
    -2
286
     1
 66
     0
277
    -2
287
     1
 67
     0
278
    -2
288
     1
 68
     0
279
    -2
289
     1
 69
     0
  0
VISUALSTYLE
  5
2F
102
{ACAD_REACTORS
330
2A
102
}
102
{ACAD_XDICTIONARY
360
1ED
102
}
330
2A
100
AcDbVisualStyle
  2
2dWireframe
 70
     4
 71
     0
 72
     2
 73
     0
 90
        0
 40
0.6
 41
30.0
 62
     5
 63
     7
421
 16777215
 74
     1
 91
        4
 64
     7
 65
   257
 75
     1
175
     1
 42
1.0
 92
        0
 66
   257
 43
1.0
 76
     1
 77
     6
 78
     2
 67
     7
 79
     5
170
     0
171
     0
290
     0
174
     0
 93
        1
 44
0.0
173
     0
291
     0
 45
0.0
  0
VISUALSTYLE
  5
32
102
{ACAD_REACTORS
330
2A
102
}
102
{ACAD_XDICTIONARY
360
1F3
102
}
330
2A
100
AcDbVisualStyle
  2
Basic
 70
     7
 71
     1
 72
     0
 73
     1
 90
        0
 40
0.6
 41
30.0
 62
     5
 63
     7
421
 16777215
 74
     0
 91
        4
 64
     7
 65
   257
 75
     1
175
     1
 42
1.0
 92
        8
 66
     7
 43
1.0
 76
     1
 77
     6
 78
     2
 67
     7
 79
     5
170
     0
171
     0
290
     0
174
     0
 93
        1
 44
0.0
173
     0
291
     1
 45
0.0
  0
VISUALSTYLE
  5
36
102
{ACAD_REACTORS
330
2A
102
}
102
{ACAD_XDICTIONARY
360
1FB
102
}
330
2A
100
AcDbVisualStyle
  2
Brighten
 70
    12
 71
     2
 72
     2
 73
     0
 90
        0
 40
0.6
 41
30.0
 62
     5
 63
     7
421
 16777215
 74
     1
 91
        4
 64
     7
 65
   257
 75
     1
175
     1
 42
1.0
 92
        8
 66
     7
 43
1.0
 76
     1
 77
     6
 78
     2
 67
     7
 79
     5
170
     0
171
     0
290
     0
174
     0
 93
        1
 44
50.0
173
     0
291
     1
 45
0.0
  0
VISUALSTYLE
  5
3A
102
{ACAD_REACTORS
330
2A
102
}
102
{ACAD_XDICTIONARY
360
203
102
}
330
2A
100
AcDbVisualStyle
  2
ColorChange
 70
    16
 71
     2
 72
     2
 73
     3
 90
        0
 40
0.6
 41
30.0
 62
     5
 63
     8
421
  8421504
 74
     1
 91
        4
 64
     7
 65
   257
 75
     1
175
     1
 42
1.0
 92
        8
 66
     8
424
  8421504
 43
1.0
 76
     1
 77
     6
 78
     2
 67
     7
 79
     5
170
     0
171
     0
290
     0
174
     0
 93
        1
 44
0.0
173
     0
291
     1
 45
0.0
  0
VISUALSTYLE
  5
34
102
{ACAD_REACTORS
330
2A
102
}
102
{ACAD_XDICTIONARY
360
1F7
102
}
330
2A
100
AcDbVisualStyle
  2
Conceptual
 70
     9
 71
     3
 72
     2
 73
     0
 90
        0
 40
0.6
 41
30.0
 62
     5
 63
     7
421
 16777215
 74
     2
 91
        2
 64
     7
 65
   257
 75
     1
175
     1
 42
179.0
 92
        8
 66
     7
 43
1.0
 76
     1
 77
     6
 78
     2
 67
     7
 79
     3
170
     0
171
     0
290
     0
174
     0
 93
        1
 44
0.0
173
     0
291
     0
 45
0.0
  0
VISUALSTYLE
  5
35
102
{ACAD_REACTORS
330
2A
102
}
102
{ACAD_XDICTIONARY
360
1F9
102
}
330
2A
100
AcDbVisualStyle
  2
Dim
 70
    11
 71
     2
 72
     2
 73
     0
 90
        0
 40
0.6
 41
30.0
 62
     5
 63
     7
421
 16777215
 74
     1
 91
        4
 64
     7
 65
   257
 75
     1
175
     1
 42
1.0
 92
        8
 66
     7
 43
1.0
 76
     1
 77
     6
 78
     2
 67
     7
 79
     5
170
     0
171
     0
290
     0
174
     0
 93
        1
 44
-50.0
173
     0
291
     1
 45
0.0
  0
VISUALSTYLE
  5
3D
102
{ACAD_REACTORS
330
2A
102
}
102
{ACAD_XDICTIONARY
360
209
102
}
330
2A
100
AcDbVisualStyle
  2
EdgeColorOff
 70
    22
 71
     2
 72
     2
 73
     0
 90
        0
 40
0.6
 41
30.0
 62
     5
 63
     7
421
 16777215
 74
     1
 91
        4
 64
     7
 65
   257
 75
     1
175
     1
 42
1.0
 92
        8
 66
     7
 43
1.0
 76
     1
 77
     6
 78
     2
 67
     7
 79
     5
170
     0
171
     0
290
     0
174
     0
 93
        1
 44
0.0
173
     0
291
     1
 45
0.0
  0
VISUALSTYLE
  5
39
102
{ACAD_REACTORS
330
2A
102
}
102
{ACAD_XDICTIONARY
360
201
102
}
330
2A
100
AcDbVisualStyle
  2
Facepattern
 70
    15
 71
     2
 72
     2
 73
     0
 90
        0
 40
0.6
 41
30.0
 62
     5
 63
     7
421
 16777215
 74
     1
 91
        4
 64
     7
 65
   257
 75
     1
175
     1
 42
1.0
 92
        8
 66
     7
 43
1.0
 76
     1
 77
     6
 78
     2
 67
     7
 79
     5
170
     0
171
     0
290
     0
174
     0
 93
        1
 44
0.0
173
     0
291
     1
 45
0.0
  0
VISUALSTYLE
  5
2B
102
{ACAD_REACTORS
330
2A
102
}
102
{ACAD_XDICTIONARY
360
1E5
102
}
330
2A
100
AcDbVisualStyle
  2
Flat
 70
     0
 71
     2
 72
     1
 73
     1
 90
        2
 40
0.6
 41
30.0
 62
     5
 63
     7
421
 16777215
 74
     0
 91
        0
 64
     7
 65
   257
 75
     1
175
     1
 42
1.0
 92
        8
 66
     7
 43
1.0
 76
     1
 77
     6
 78
     2
 67
     7
 79
     5
170
     0
171
     0
290
     0
174
     0
 93
       13
 44
0.0
173
     0
291
     1
 45
0.0
  0
VISUALSTYLE
  5
2C
102
{ACAD_REACTORS
330
2A
102
}
102
{ACAD_XDICTIONARY
360
1E7
102
}
330
2A
100
AcDbVisualStyle
  2
FlatWithEdges
 70
     1
 71
     2
 72
     1
 73
     1
 90
        2
 40
0.6
 41
30.0
 62
     5
 63
     7
421
 16777215
 74
     1
 91
        0
 64
     7
 65
   257
 75
     1
175
     1
 42
1.0
 92
        0
 66
   257
 43
1.0
 76
     1
 77
     6
 78
     2
 67
     7
 79
     5
170
     0
171
     0
290
     0
174
     0
 93
       13
 44
0.0
173
     0
291
     1
 45
0.0
  0
VISUALSTYLE
  5
2D
102
{ACAD_REACTORS
330
2A
102
}
102
{ACAD_XDICTIONARY
360
1E9
102
}
330
2A
100
AcDbVisualStyle
  2
Gouraud
 70
     2
 71
     2
 72
     2
 73
     1
 90
        2
 40
0.6
 41
30.0
 62
     5
 63
     7
421
 16777215
 74
     0
 91
        0
 64
     7
 65
   257
 75
     1
175
     1
 42
1.0
 92
        0
 66
     7
 43
1.0
 76
     1
 77
     6
 78
     2
 67
     7
 79
     5
170
     0
171
     0
290
     0
174
     0
 93
       13
 44
0.0
173
     0
291
     1
 45
0.0
  0
VISUALSTYLE
  5
2E
102
{ACAD_REACTORS
330
2A
102
}
102
{ACAD_XDICTIONARY
360
1EB
102
}
330
2A
100
AcDbVisualStyle
  2
GouraudWithEdges
 70
     3
 71
     2
 72
     2
 73
     1
 90
        2
 40
0.6
 41
30.0
 62
     5
 63
     7
421
 16777215
 74
     1
 91
        0
 64
     7
 65
   257
 75
     1
175
     1
 42
1.0
 92
        0
 66
   257
 43
1.0
 76
     1
 77
     6
 78
     2
 67
     7
 79
     5
170
     0
171
     0
290
     0
174
     0
 93
       13
 44
0.0
173
     0
291
     1
 45
0.0
  0
VISUALSTYLE
  5
31
102
{ACAD_REACTORS
330
2A
102
}
102
{ACAD_XDICTIONARY
360
1F1
102
}
330
2A
100
AcDbVisualStyle
  2
Hidden
 70
     6
 71
     1
 72
     2
 73
     2
 90
        0
 40
0.6
 41
30.0
 62
     5
 63
     7
421
 16777215
 74
     2
 91
        2
 64
     7
 65
   257
 75
     2
175
     1
 42
40.0
 92
        0
 66
   257
 43
1.0
 76
     1
 77
     6
 78
     2
 67
     7
 79
     3
170
     0
171
     0
290
     0
174
     0
 93
        1
 44
0.0
173
     0
291
     0
 45
0.0
  0
VISUALSTYLE
  5
3B
102
{ACAD_REACTORS
330
2A
102
}
102
{ACAD_XDICTIONARY
360
205
102
}
330
2A
100
AcDbVisualStyle
  2
JitterOff
 70
    20
 71
     2
 72
     2
 73
     0
 90
        0
 40
0.6
 41
30.0
 62
     5
 63
     7
421
 16777215
 74
     1
 91
        4
 64
     7
 65
   257
 75
     1
175
     1
 42
1.0
 92
       10
 66
     7
 43
1.0
 76
     1
 77
     6
 78
     2
 67
     7
 79
     5
170
     0
171
     0
290
     0
174
     0
 93
        1
 44
0.0
173
     0
291
     1
 45
0.0
  0
VISUALSTYLE
  5
38
102
{ACAD_REACTORS
330
2A
102
}
102
{ACAD_XDICTIONARY
360
1FF
102
}
330
2A
100
AcDbVisualStyle
  2
Linepattern
 70
    14
 71
     2
 72
     2
 73
     0
 90
        0
 40
0.6
 41
30.0
 62
     5
 63
     7
421
 16777215
 74
     1
 91
        4
 64
     7
 65
   257
 75
     7
175
     7
 42
1.0
 92
        8
 66
     7
 43
1.0
 76
     1
 77
     6
 78
     2
 67
     7
 79
     5
170
     0
171
     0
290
     0
174
     0
 93
        1
 44
0.0
173
     0
291
     1
 45
0.0
  0
VISUALSTYLE
  5
3C
102
{ACAD_REACTORS
330
2A
102
}
102
{ACAD_XDICTIONARY
360
207
102
}
330
2A
100
AcDbVisualStyle
  2
OverhangOff
 70
    21
 71
     2
 72
     2
 73
     0
 90
        0
 40
0.6
 41
30.0
 62
     5
 63
     7
421
 16777215
 74
     1
 91
        4
 64
     7
 65
   257
 75
     1
175
     1
 42
1.0
 92
        9
 66
     7
 43
1.0
 76
     1
 77
     6
 78
     2
 67
     7
 79
     5
170
     0
171
     0
290
     0
174
     0
 93
        1
 44
0.0
173
     0
291
     1
 45
0.0
  0
VISUALSTYLE
  5
33
102
{ACAD_REACTORS
330
2A
102
}
102
{ACAD_XDICTIONARY
360
1F5
102
}
330
2A
100
AcDbVisualStyle
  2
Realistic
 70
     8
 71
     2
 72
     3
 73
     0
 90
        2
 40
0.6
 41
30.0
 62
     5
 63
     7
421
 16777215
 74
     0
 91
        0
 64
     7
 65
   257
 75
     1
175
     1
 42
1.0
 92
        8
 66
   257
 43
1.0
 76
     1
 77
     6
 78
     2
 67
     7
 79
     3
170
     0
171
     0
290
     0
174
     0
 93
       13
 44
0.0
173
     0
291
     0
 45
0.0
  0
VISUALSTYLE
  5
42
102
{ACAD_REACTORS
330
2A
102
}
102
{ACAD_XDICTIONARY
360
213
102
}
330
2A
100
AcDbVisualStyle
  2
Shaded
 70
    27
 71
     2
 72
     2
 73
     1
 90
        2
 40
0.6
 41
30.0
 62
     5
 63
     7
421
 16777215
 74
     0
 91
        4
 64
     7
 65
   257
 75
     1
175
     1
 42
1.0
 92
        8
 66
   257
 43
1.0
 76
     1
 77
     6
 78
     2
 67
     8
425
  7895160
 79
     3
170
     0
171
     0
290
     0
174
     0
 93
        5
 44
0.0
173
     0
291
     0
 45
0.0
  0
VISUALSTYLE
  5
41
102
{ACAD_REACTORS
330
2A
102
}
102
{ACAD_XDICTIONARY
360
211
102
}
330
2A
100
AcDbVisualStyle
  2
Shaded with edges
 70
    26
 71
     2
 72
     2
 73
     1
 90
        2
 40
0.6
 41
30.0
 62
     5
 63
     7
421
 16777215
 74
     1
 91
       10
 64
     7
 65
   257
 75
     2
175
     1
 42
1.0
 92
        8
 66
   257
 43
1.0
 76
     1
 77
     6
 78
     2
 67
     7
 79
     3
170
     0
171
     0
290
     0
174
     0
 93
        5
 44
0.0
173
     0
291
     0
 45
0.0
  0
VISUALSTYLE
  5
3E
102
{ACAD_REACTORS
330
2A
102
}
102
{ACAD_XDICTIONARY
360
20B
102
}
330
2A
100
AcDbVisualStyle
  2
Shades of Gray
 70
    23
 71
     2
 72
     2
 73
     3
 90
        0
 40
0.6
 41
30.0
 62
     5
 63
     7
421
 16777215
 74
     2
 91
        2
 64
     7
 65
     7
 75
     1
175
     1
 42
40.0
 92
        8
 66
     7
 43
1.0
 76
     1
 77
     6
 78
     2
 67
     7
 79
     3
170
     0
171
     0
290
     0
174
     0
 93
        1
 44
0.0
173
     0
291
     0
 45
0.0
  0
VISUALSTYLE
  5
3F
102
{ACAD_REACTORS
330
2A
102
}
102
{ACAD_XDICTIONARY
360
20D
102
}
330
2A
100
AcDbVisualStyle
  2
Sketchy
 70
    24
 71
     1
 72
     2
 73
     2
 90
        0
 40
0.6
 41
30.0
 62
     5
 63
     7
421
 16777215
 74
     2
 91
        2
 64
     7
 65
     7
 75
     1
175
     1
 42
40.0
 92
       11
 66
     7
 43
1.0
 76
     1
 77
     6
 78
     2
 67
     7
 79
     6
170
     0
171
     0
290
     0
174
     0
 93
        1
 44
0.0
173
     0
291
     0
 45
0.0
  0
VISUALSTYLE
  5
37
102
{ACAD_REACTORS
330
2A
102
}
102
{ACAD_XDICTIONARY
360
1FD
102
}
330
2A
100
AcDbVisualStyle
  2
Thicken
 70
    13
 71
     2
 72
     2
 73
     0
 90
        0
 40
0.6
 41
30.0
 62
     5
 63
     7
421
 16777215
 74
     1
 91
        4
 64
     7
 65
   257
 75
     1
175
     1
 42
1.0
 92
       12
 66
     7
 43
1.0
 76
     1
 77
     6
 78
     2
 67
     7
 79
     5
170
     0
171
     0
290
     0
174
     0
 93
        1
 44
0.0
173
     0
291
     1
 45
0.0
  0
VISUALSTYLE
  5
30
102
{ACAD_REACTORS
330
2A
102
}
102
{ACAD_XDICTIONARY
360
1EF
102
}
330
2A
100
AcDbVisualStyle
  2
Wireframe
 70
     5
 71
     0
 72
     2
 73
     0
 90
        0
 40
0.6
 41
30.0
 62
     5
 63
     7
421
 16777215
 74
     1
 91
        4
 64
     7
 65
   257
 75
     1
175
     1
 42
1.0
 92
        0
 66
   257
 43
1.0
 76
     1
 77
     6
 78
     2
 67
     7
 79
     3
170
     0
171
     0
290
     0
174
     0
 93
        1
 44
0.0
173
     0
291
     0
 45
0.0
  0
VISUALSTYLE
  5
40
102
{ACAD_REACTORS
330
2A
102
}
102
{ACAD_XDICTIONARY
360
20F
102
}
330
2A
100
AcDbVisualStyle
  2
X-Ray
 70
    25
 71
     2
 72
     2
 73
     1
 90
        1
 40
0.5
 41
30.0
 62
     5
 63
     7
421
 16777215
 74
     1
 91
        0
 64
     7
 65
   257
 75
     1
175
     1
 42
1.0
 92
        8
 66
     7
 43
1.0
 76
     1
 77
     6
 78
     2
 67
     7
 79
     3
170
     0
171
     0
290
     0
174
     0
 93
       13
 44
0.0
173
     0
291
     0
 45
0.0
  0
DICTIONARYVAR
  5
1E3
102
{ACAD_REACTORS
330
1E2
102
}
330
1E2
100
DictionaryVariables
280
     0
  1
1:1
  0
DICTIONARYVAR
  5
21F
102
{ACAD_REACTORS
330
1E2
102
}
330
1E2
100
DictionaryVariables
280
     0
  1
3.500000
  0
DICTIONARYVAR
  5
220
102
{ACAD_REACTORS
330
1E2
102
}
330
1E2
100
DictionaryVariables
280
     0
  1
acadiso.lin
  0
DICTIONARYVAR
  5
21C
102
{ACAD_REACTORS
330
1E2
102
}
330
1E2
100
DictionaryVariables
280
     0
  1
Standard
  0
DICTIONARYVAR
  5
21B
102
{ACAD_REACTORS
330
1E2
102
}
330
1E2
100
DictionaryVariables
280
     0
  1
Standard
  0
DICTIONARYVAR
  5
1E4
102
{ACAD_REACTORS
330
1E2
102
}
330
1E2
100
DictionaryVariables
280
     0
  1
2
  0
DICTIONARY
  5
218
330
6C
100
AcDbDictionary
280
     1
281
     1
  3
ACAD_XREC_ROUNDTRIP
360
219
  0
DICTIONARY
  5
215
330
6A
100
AcDbDictionary
280
     1
281
     1
  3
ACAD_ROUNDTRIP_2008_TABLESTYLE_CELLSTYLEMAP
360
216
  0
DICTIONARY
  5
1ED
330
2F
100
AcDbDictionary
280
     1
281
     1
  3
ACAD_XREC_ROUNDTRIP
360
1EE
  0
DICTIONARY
  5
1F3
330
32
100
AcDbDictionary
280
     1
281
     1
  3
ACAD_XREC_ROUNDTRIP
360
1F4
  0
DICTIONARY
  5
1FB
330
36
100
AcDbDictionary
280
     1
281
     1
  3
ACAD_XREC_ROUNDTRIP
360
1FC
  0
DICTIONARY
  5
203
330
3A
100
AcDbDictionary
280
     1
281
     1
  3
ACAD_XREC_ROUNDTRIP
360
204
  0
DICTIONARY
  5
1F7
330
34
100
AcDbDictionary
280
     1
281
     1
  3
ACAD_XREC_ROUNDTRIP
360
1F8
  0
DICTIONARY
  5
1F9
330
35
100
AcDbDictionary
280
     1
281
     1
  3
ACAD_XREC_ROUNDTRIP
360
1FA
  0
DICTIONARY
  5
209
330
3D
100
AcDbDictionary
280
     1
281
     1
  3
ACAD_XREC_ROUNDTRIP
360
20A
  0
DICTIONARY
  5
201
330
39
100
AcDbDictionary
280
     1
281
     1
  3
ACAD_XREC_ROUNDTRIP
360
202
  0
DICTIONARY
  5
1E5
330
2B
100
AcDbDictionary
280
     1
281
     1
  3
ACAD_XREC_ROUNDTRIP
360
1E6
  0
DICTIONARY
  5
1E7
330
2C
100
AcDbDictionary
280
     1
281
     1
  3
ACAD_XREC_ROUNDTRIP
360
1E8
  0
DICTIONARY
  5
1E9
330
2D
100
AcDbDictionary
280
     1
281
     1
  3
ACAD_XREC_ROUNDTRIP
360
1EA
  0
DICTIONARY
  5
1EB
330
2E
100
AcDbDictionary
280
     1
281
     1
  3
ACAD_XREC_ROUNDTRIP
360
1EC
  0
DICTIONARY
  5
1F1
330
31
100
AcDbDictionary
280
     1
281
     1
  3
ACAD_XREC_ROUNDTRIP
360
1F2
  0
DICTIONARY
  5
205
330
3B
100
AcDbDictionary
280
     1
281
     1
  3
ACAD_XREC_ROUNDTRIP
360
206
  0
DICTIONARY
  5
1FF
330
38
100
AcDbDictionary
280
     1
281
     1
  3
ACAD_XREC_ROUNDTRIP
360
200
  0
DICTIONARY
  5
207
330
3C
100
AcDbDictionary
280
     1
281
     1
  3
ACAD_XREC_ROUNDTRIP
360
208
  0
DICTIONARY
  5
1F5
330
33
100
AcDbDictionary
280
     1
281
     1
  3
ACAD_XREC_ROUNDTRIP
360
1F6
  0
DICTIONARY
  5
213
330
42
100
AcDbDictionary
280
     1
281
     1
  3
ACAD_XREC_ROUNDTRIP
360
214
  0
DICTIONARY
  5
211
330
41
100
AcDbDictionary
280
     1
281
     1
  3
ACAD_XREC_ROUNDTRIP
360
212
  0
DICTIONARY
  5
20B
330
3E
100
AcDbDictionary
280
     1
281
     1
  3
ACAD_XREC_ROUNDTRIP
360
20C
  0
DICTIONARY
  5
20D
330
3F
100
AcDbDictionary
280
     1
281
     1
  3
ACAD_XREC_ROUNDTRIP
360
20E
  0
DICTIONARY
  5
1FD
330
37
100
AcDbDictionary
280
     1
281
     1
  3
ACAD_XREC_ROUNDTRIP
360
1FE
  0
DICTIONARY
  5
1EF
330
30
100
AcDbDictionary
280
     1
281
     1
  3
ACAD_XREC_ROUNDTRIP
360
1F0
  0
DICTIONARY
  5
20F
330
40
100
AcDbDictionary
280
     1
281
     1
  3
ACAD_XREC_ROUNDTRIP
360
210
  0
XRECORD
  5
219
102
{ACAD_REACTORS
330
218
102
}
330
218
100
AcDbXrecord
280
     1
102
ACAD_ROUNDTRIP_2010_MLEADER_STYLE
  0
CELLSTYLEMAP
  5
216
102
{ACAD_REACTORS
330
215
102
}
330
215
100
AcDbCellStyleMap
 90
        3
300
CELLSTYLE
  1
TABLEFORMAT_BEGIN
 90
        5
170
     1
 91
        0
 92
    32768
 62
   257
 93
        1
300
CONTENTFORMAT
  1
CONTENTFORMAT_BEGIN
 90
        0
 91
        0
 92
        4
 93
        0
300

 40
0.0
140
1.0
 94
        5
 62
     0
340
11
144
6.0
309
CONTENTFORMAT_END
171
     1
301
MARGIN
  1
CELLMARGIN_BEGIN
 40
1.5
 40
1.5
 40
1.5
 40
1.5
 40
1.5
 40
1.5
309
CELLMARGIN_END
 94
        6
 95
        1
302
GRIDFORMAT
  1
GRIDFORMAT_BEGIN
 90
        0
 91
        1
 62
     0
 92
       -2
340
14
 93
        0
 40
0.045
309
GRIDFORMAT_END
 95
        2
302
GRIDFORMAT
  1
GRIDFORMAT_BEGIN
 90
        0
 91
        1
 62
     0
 92
       -2
340
14
 93
        0
 40
0.045
309
GRIDFORMAT_END
 95
        4
302
GRIDFORMAT
  1
GRIDFORMAT_BEGIN
 90
        0
 91
        1
 62
     0
 92
       -2
340
14
 93
        0
 40
0.045
309
GRIDFORMAT_END
 95
        8
302
GRIDFORMAT
  1
GRIDFORMAT_BEGIN
 90
        0
 91
        1
 62
     0
 92
       -2
340
14
 93
        0
 40
0.045
309
GRIDFORMAT_END
 95
       16
302
GRIDFORMAT
  1
GRIDFORMAT_BEGIN
 90
        0
 91
        1
 62
     0
 92
       -2
340
14
 93
        0
 40
0.045
309
GRIDFORMAT_END
 95
       32
302
GRIDFORMAT
  1
GRIDFORMAT_BEGIN
 90
        0
 91
        1
 62
     0
 92
       -2
340
14
 93
        0
 40
0.045
309
GRIDFORMAT_END
309
TABLEFORMAT_END
  1
CELLSTYLE_BEGIN
 90
        1
 91
        1
300
_TITLE
309
CELLSTYLE_END
300
CELLSTYLE
  1
TABLEFORMAT_BEGIN
 90
        5
170
     1
 91
        0
 92
        0
 62
   257
 93
        1
300
CONTENTFORMAT
  1
CONTENTFORMAT_BEGIN
 90
        0
 91
        0
 92
        4
 93
        0
300

 40
0.0
140
1.0
 94
        5
 62
     0
340
11
144
4.5
309
CONTENTFORMAT_END
171
     1
301
MARGIN
  1
CELLMARGIN_BEGIN
 40
1.5
 40
1.5
 40
1.5
 40
1.5
 40
1.5
 40
1.5
309
CELLMARGIN_END
 94
        6
 95
        1
302
GRIDFORMAT
  1
GRIDFORMAT_BEGIN
 90
        0
 91
        1
 62
     0
 92
       -2
340
14
 93
        0
 40
0.045
309
GRIDFORMAT_END
 95
        2
302
GRIDFORMAT
  1
GRIDFORMAT_BEGIN
 90
        0
 91
        1
 62
     0
 92
       -2
340
14
 93
        0
 40
0.045
309
GRIDFORMAT_END
 95
        4
302
GRIDFORMAT
  1
GRIDFORMAT_BEGIN
 90
        0
 91
        1
 62
     0
 92
       -2
340
14
 93
        0
 40
0.045
309
GRIDFORMAT_END
 95
        8
302
GRIDFORMAT
  1
GRIDFORMAT_BEGIN
 90
        0
 91
        1
 62
     0
 92
       -2
340
14
 93
        0
 40
0.045
309
GRIDFORMAT_END
 95
       16
302
GRIDFORMAT
  1
GRIDFORMAT_BEGIN
 90
        0
 91
        1
 62
     0
 92
       -2
340
14
 93
        0
 40
0.045
309
GRIDFORMAT_END
 95
       32
302
GRIDFORMAT
  1
GRIDFORMAT_BEGIN
 90
        0
 91
        1
 62
     0
 92
       -2
340
14
 93
        0
 40
0.045
309
GRIDFORMAT_END
309
TABLEFORMAT_END
  1
CELLSTYLE_BEGIN
 90
        2
 91
        1
300
_HEADER
309
CELLSTYLE_END
300
CELLSTYLE
  1
TABLEFORMAT_BEGIN
 90
        5
170
     1
 91
        0
 92
        0
 62
   257
 93
        1
300
CONTENTFORMAT
  1
CONTENTFORMAT_BEGIN
 90
        0
 91
        0
 92
        4
 93
        0
300

 40
0.0
140
1.0
 94
        2
 62
     0
340
11
144
4.5
309
CONTENTFORMAT_END
171
     1
301
MARGIN
  1
CELLMARGIN_BEGIN
 40
1.5
 40
1.5
 40
1.5
 40
1.5
 40
1.5
 40
1.5
309
CELLMARGIN_END
 94
        6
 95
        1
302
GRIDFORMAT
  1
GRIDFORMAT_BEGIN
 90
        0
 91
        1
 62
     0
 92
       -2
340
14
 93
        0
 40
0.045
309
GRIDFORMAT_END
 95
        2
302
GRIDFORMAT
  1
GRIDFORMAT_BEGIN
 90
        0
 91
        1
 62
     0
 92
       -2
340
14
 93
        0
 40
0.045
309
GRIDFORMAT_END
 95
        4
302
GRIDFORMAT
  1
GRIDFORMAT_BEGIN
 90
        0
 91
        1
 62
     0
 92
       -2
340
14
 93
        0
 40
0.045
309
GRIDFORMAT_END
 95
        8
302
GRIDFORMAT
  1
GRIDFORMAT_BEGIN
 90
        0
 91
        1
 62
     0
 92
       -2
340
14
 93
        0
 40
0.045
309
GRIDFORMAT_END
 95
       16
302
GRIDFORMAT
  1
GRIDFORMAT_BEGIN
 90
        0
 91
        1
 62
     0
 92
       -2
340
14
 93
        0
 40
0.045
309
GRIDFORMAT_END
 95
       32
302
GRIDFORMAT
  1
GRIDFORMAT_BEGIN
 90
        0
 91
        1
 62
     0
 92
       -2
340
14
 93
        0
 40
0.045
309
GRIDFORMAT_END
309
TABLEFORMAT_END
  1
CELLSTYLE_BEGIN
 90
        3
 91
        2
300
_DATA
309
CELLSTYLE_END
  0
XRECORD
  5
1EE
102
{ACAD_REACTORS
330
1ED
102
}
330
1ED
100
AcDbXrecord
280
     1
102
RTVSPropertyOp0
 70
     1
102
RTVSPropertyOp1
 70
     1
102
RTVSPropertyOp2
 70
     1
102
RTVSPropertyOp3
 70
     1
102
RTVSPropertyOp4
 70
     1
102
RTVSPropertyOp5
 70
     1
102
RTVSPropertyOp6
 70
     1
102
RTVSPropertyOp7
 70
     1
102
RTVSPropertyOp8
 70
     1
102
RTVSPropertyOp9
 70
     1
102
RTVSPropertyOp10
 70
     1
102
RTVSPropertyOp11
 70
     1
102
RTVSPropertyOp12
 70
     1
102
RTVSPropertyOp13
 70
     1
102
RTVSPropertyOp14
 70
     1
102
RTVSPropertyOp15
 70
     1
102
RTVSPropertyOp16
 70
     1
102
RTVSPropertyOp17
 70
     1
102
RTVSPropertyOp18
 70
     1
102
RTVSPropertyOp19
 70
     1
102
RTVSPropertyOp20
 70
     1
102
RTVSPropertyOp21
 70
     1
102
RTVSPropertyOp22
 70
     1
102
RTVSPropertyOp23
 70
     1
102
RTVSPropertyOp24
 70
     1
102
RTVSPropertyOp25
 70
     1
102
RTVSPropertyOp26
 70
     1
102
RTVSPropertyOp27
 70
     1
102
RTVSPropertyOp28
 70
     1
102
RTVSPropertyOp29
 70
     1
102
RTVSPropertyOp30
 70
     1
102
RTVSPropertyOp31
 70
     1
102
RTVSPropertyOp32
 70
     1
102
RTVSPropertyOp33
 70
     1
102
RTVSPropertyOp34
 70
     1
102
RTVSPropertyOp35
 70
     1
102
RTVSPropertyOp36
 70
     1
102
RTVSPropertyOp37
 70
     1
102
RTVSPropertyOp38
 70
     1
102
RTVSPropertyOp39
 70
     1
102
RTVSPropertyOp40
 70
     1
102
RTVSPropertyOp41
 70
     1
102
RTVSPropertyOp42
 70
     1
102
RTVSPropertyOp43
 70
     1
102
RTVSPropertyOp44
 70
     1
102
RTVSPropertyOp45
 70
     1
102
RTVSPropertyOp46
 70
     1
102
RTVSPropertyOp47
 70
     1
102
RTVSPropertyOp48
 70
     1
102
RTVSPropertyOp49
 70
     1
102
RTVSPropertyOp50
 70
     1
102
RTVSPropertyOp51
 70
     0
102
RTVSPropertyOp52
 70
     0
102
RTVSPropertyOp53
 70
     1
102
RTVSPropertyOp54
 70
     1
102
RTVSPropertyOp55
 70
     1
102
RTVSPropertyOp56
 70
     1
102
RTVSPropertyOp57
 70
     1
102
RTVSPost2010Prop28
280
     1
102
RTVSPost2010PropOp28
 70
     1
102
RTVSPost2010Prop29
280
     1
102
RTVSPost2010PropOp29
 70
     1
102
RTVSPost2010Prop30
280
     0
102
RTVSPost2010PropOp30
 70
     1
102
RTVSPost2010Prop31
280
     0
102
RTVSPost2010PropOp31
 70
     1
102
RTVSPost2010Prop32
280
     0
102
RTVSPost2010PropOp32
 70
     1
102
RTVSPost2010Prop33
280
     0
102
RTVSPost2010PropOp33
 70
     1
102
RTVSPost2010Prop34
280
     0
102
RTVSPost2010PropOp34
 70
     1
102
RTVSPost2010Prop35
280
     0
102
RTVSPost2010PropOp35
 70
     1
102
RTVSPost2010Prop36
280
     0
102
RTVSPost2010PropOp36
 70
     1
102
RTVSPost2010Prop37
 90
       50
102
RTVSPost2010PropOp37
 70
     1
102
RTVSPost2010Prop38
140
0.0
102
RTVSPost2010PropOp38
 70
     1
102
RTVSPost2010Prop39
140
1.0
102
RTVSPost2010PropOp39
 70
     1
102
RTVSPost2010Prop40
 90
        0
102
RTVSPost2010PropOp40
 70
     1
102
RTVSPost2010Prop41ColorIndex
 90
       18
102
RTVSPost2010Prop41ColorRGB
 90
        0
102
RTVSPost2010PropOp41
 70
     1
102
RTVSPost2010Prop42
 90
       50
102
RTVSPost2010PropOp42
 70
     1
102
RTVSPost2010Prop43
 90
        3
102
RTVSPost2010PropOp43
 70
     1
102
RTVSPost2010Prop44ColorIndex
 90
        5
102
RTVSPost2010Prop44ColorRGB
 90
      255
102
RTVSPost2010PropOp44
 70
     1
102
RTVSPost2010Prop45
280
     0
102
RTVSPost2010PropOp45
 70
     1
102
RTVSPost2010Prop46
 90
       50
102
RTVSPost2010PropOp46
 70
     1
102
RTVSPost2010Prop47
 90
       50
102
RTVSPost2010PropOp47
 70
     1
102
RTVSPost2010Prop48
 90
       50
102
RTVSPost2010PropOp48
 70
     1
102
RTVSPost2010Prop49
280
     0
102
RTVSPost2010PropOp49
 70
     1
102
RTVSPost2010Prop50
 90
       50
102
RTVSPost2010PropOp50
 70
     1
102
RTVSPost2010Prop51ColorIndex
 90
      256
102
RTVSPost2010Prop51ColorRGB
 90
-16777216
102
RTVSPost2010PropOp51
 70
     0
102
RTVSPost2010Prop52
140
1.0
102
RTVSPost2010PropOp52
 70
     0
102
RTVSPost2010Prop53
 90
        2
102
RTVSPost2010PropOp53
 70
     1
102
RTVSPost2010Prop54
  1
strokes_ogs.tif
102
RTVSPost2010PropOp54
 70
     1
102
RTVSPost2010Prop55
280
     0
102
RTVSPost2010PropOp55
 70
     1
102
RTVSPost2010Prop56
140
1.0
102
RTVSPost2010PropOp56
 70
     1
102
RTVSPost2010Prop57
140
1.0
102
RTVSPost2010PropOp57
 70
     1
  0
XRECORD
  5
1F4
102
{ACAD_REACTORS
330
1F3
102
}
330
1F3
100
AcDbXrecord
280
     1
102
RTVSPropertyOp0
 70
     1
102
RTVSPropertyOp1
 70
     1
102
RTVSPropertyOp2
 70
     1
102
RTVSPropertyOp3
 70
     1
102
RTVSPropertyOp4
 70
     1
102
RTVSPropertyOp5
 70
     1
102
RTVSPropertyOp6
 70
     1
102
RTVSPropertyOp7
 70
     1
102
RTVSPropertyOp8
 70
     1
102
RTVSPropertyOp9
 70
     1
102
RTVSPropertyOp10
 70
     1
102
RTVSPropertyOp11
 70
     1
102
RTVSPropertyOp12
 70
     1
102
RTVSPropertyOp13
 70
     1
102
RTVSPropertyOp14
 70
     1
102
RTVSPropertyOp15
 70
     1
102
RTVSPropertyOp16
 70
     1
102
RTVSPropertyOp17
 70
     1
102
RTVSPropertyOp18
 70
     1
102
RTVSPropertyOp19
 70
     1
102
RTVSPropertyOp20
 70
     1
102
RTVSPropertyOp21
 70
     1
102
RTVSPropertyOp22
 70
     1
102
RTVSPropertyOp23
 70
     1
102
RTVSPropertyOp24
 70
     1
102
RTVSPropertyOp25
 70
     1
102
RTVSPropertyOp26
 70
     1
102
RTVSPropertyOp27
 70
     1
102
RTVSPropertyOp28
 70
     1
102
RTVSPropertyOp29
 70
     1
102
RTVSPropertyOp30
 70
     1
102
RTVSPropertyOp31
 70
     1
102
RTVSPropertyOp32
 70
     1
102
RTVSPropertyOp33
 70
     1
102
RTVSPropertyOp34
 70
     1
102
RTVSPropertyOp35
 70
     1
102
RTVSPropertyOp36
 70
     1
102
RTVSPropertyOp37
 70
     1
102
RTVSPropertyOp38
 70
     1
102
RTVSPropertyOp39
 70
     1
102
RTVSPropertyOp40
 70
     1
102
RTVSPropertyOp41
 70
     1
102
RTVSPropertyOp42
 70
     1
102
RTVSPropertyOp43
 70
     1
102
RTVSPropertyOp44
 70
     1
102
RTVSPropertyOp45
 70
     1
102
RTVSPropertyOp46
 70
     1
102
RTVSPropertyOp47
 70
     1
102
RTVSPropertyOp48
 70
     1
102
RTVSPropertyOp49
 70
     1
102
RTVSPropertyOp50
 70
     1
102
RTVSPropertyOp51
 70
     0
102
RTVSPropertyOp52
 70
     0
102
RTVSPropertyOp53
 70
     1
102
RTVSPropertyOp54
 70
     1
102
RTVSPropertyOp55
 70
     1
102
RTVSPropertyOp56
 70
     1
102
RTVSPropertyOp57
 70
     1
102
RTVSPost2010Prop28
280
     0
102
RTVSPost2010PropOp28
 70
     1
102
RTVSPost2010Prop29
280
     1
102
RTVSPost2010PropOp29
 70
     1
102
RTVSPost2010Prop30
280
     1
102
RTVSPost2010PropOp30
 70
     1
102
RTVSPost2010Prop31
280
     0
102
RTVSPost2010PropOp31
 70
     1
102
RTVSPost2010Prop32
280
     0
102
RTVSPost2010PropOp32
 70
     1
102
RTVSPost2010Prop33
280
     0
102
RTVSPost2010PropOp33
 70
     1
102
RTVSPost2010Prop34
280
     0
102
RTVSPost2010PropOp34
 70
     1
102
RTVSPost2010Prop35
280
     0
102
RTVSPost2010PropOp35
 70
     1
102
RTVSPost2010Prop36
280
     0
102
RTVSPost2010PropOp36
 70
     1
102
RTVSPost2010Prop37
 90
       50
102
RTVSPost2010PropOp37
 70
     1
102
RTVSPost2010Prop38
140
0.0
102
RTVSPost2010PropOp38
 70
     1
102
RTVSPost2010Prop39
140
1.0
102
RTVSPost2010PropOp39
 70
     1
102
RTVSPost2010Prop40
 90
        0
102
RTVSPost2010PropOp40
 70
     1
102
RTVSPost2010Prop41ColorIndex
 90
       18
102
RTVSPost2010Prop41ColorRGB
 90
        0
102
RTVSPost2010PropOp41
 70
     1
102
RTVSPost2010Prop42
 90
       50
102
RTVSPost2010PropOp42
 70
     1
102
RTVSPost2010Prop43
 90
        3
102
RTVSPost2010PropOp43
 70
     1
102
RTVSPost2010Prop44ColorIndex
 90
        5
102
RTVSPost2010Prop44ColorRGB
 90
      255
102
RTVSPost2010PropOp44
 70
     1
102
RTVSPost2010Prop45
280
     0
102
RTVSPost2010PropOp45
 70
     1
102
RTVSPost2010Prop46
 90
       50
102
RTVSPost2010PropOp46
 70
     1
102
RTVSPost2010Prop47
 90
       50
102
RTVSPost2010PropOp47
 70
     1
102
RTVSPost2010Prop48
 90
       50
102
RTVSPost2010PropOp48
 70
     1
102
RTVSPost2010Prop49
280
     0
102
RTVSPost2010PropOp49
 70
     1
102
RTVSPost2010Prop50
 90
       50
102
RTVSPost2010PropOp50
 70
     1
102
RTVSPost2010Prop51ColorIndex
 90
      256
102
RTVSPost2010Prop51ColorRGB
 90
-16777216
102
RTVSPost2010PropOp51
 70
     0
102
RTVSPost2010Prop52
140
1.0
102
RTVSPost2010PropOp52
 70
     0
102
RTVSPost2010Prop53
 90
        2
102
RTVSPost2010PropOp53
 70
     1
102
RTVSPost2010Prop54
  1
strokes_ogs.tif
102
RTVSPost2010PropOp54
 70
     1
102
RTVSPost2010Prop55
280
     0
102
RTVSPost2010PropOp55
 70
     1
102
RTVSPost2010Prop56
140
1.0
102
RTVSPost2010PropOp56
 70
     1
102
RTVSPost2010Prop57
140
1.0
102
RTVSPost2010PropOp57
 70
     1
  0
XRECORD
  5
1FC
102
{ACAD_REACTORS
330
1FB
102
}
330
1FB
100
AcDbXrecord
280
     1
102
RTVSPropertyOp0
 70
     1
102
RTVSPropertyOp1
 70
     1
102
RTVSPropertyOp2
 70
     1
102
RTVSPropertyOp3
 70
     1
102
RTVSPropertyOp4
 70
     1
102
RTVSPropertyOp5
 70
     1
102
RTVSPropertyOp6
 70
     1
102
RTVSPropertyOp7
 70
     1
102
RTVSPropertyOp8
 70
     1
102
RTVSPropertyOp9
 70
     1
102
RTVSPropertyOp10
 70
     1
102
RTVSPropertyOp11
 70
     1
102
RTVSPropertyOp12
 70
     1
102
RTVSPropertyOp13
 70
     1
102
RTVSPropertyOp14
 70
     1
102
RTVSPropertyOp15
 70
     1
102
RTVSPropertyOp16
 70
     1
102
RTVSPropertyOp17
 70
     1
102
RTVSPropertyOp18
 70
     1
102
RTVSPropertyOp19
 70
     1
102
RTVSPropertyOp20
 70
     1
102
RTVSPropertyOp21
 70
     1
102
RTVSPropertyOp22
 70
     1
102
RTVSPropertyOp23
 70
     1
102
RTVSPropertyOp24
 70
     1
102
RTVSPropertyOp25
 70
     1
102
RTVSPropertyOp26
 70
     1
102
RTVSPropertyOp27
 70
     1
102
RTVSPropertyOp28
 70
     1
102
RTVSPropertyOp29
 70
     1
102
RTVSPropertyOp30
 70
     1
102
RTVSPropertyOp31
 70
     1
102
RTVSPropertyOp32
 70
     1
102
RTVSPropertyOp33
 70
     1
102
RTVSPropertyOp34
 70
     1
102
RTVSPropertyOp35
 70
     1
102
RTVSPropertyOp36
 70
     1
102
RTVSPropertyOp37
 70
     1
102
RTVSPropertyOp38
 70
     1
102
RTVSPropertyOp39
 70
     1
102
RTVSPropertyOp40
 70
     1
102
RTVSPropertyOp41
 70
     1
102
RTVSPropertyOp42
 70
     1
102
RTVSPropertyOp43
 70
     1
102
RTVSPropertyOp44
 70
     1
102
RTVSPropertyOp45
 70
     1
102
RTVSPropertyOp46
 70
     1
102
RTVSPropertyOp47
 70
     1
102
RTVSPropertyOp48
 70
     1
102
RTVSPropertyOp49
 70
     1
102
RTVSPropertyOp50
 70
     1
102
RTVSPropertyOp51
 70
     0
102
RTVSPropertyOp52
 70
     0
102
RTVSPropertyOp53
 70
     1
102
RTVSPropertyOp54
 70
     1
102
RTVSPropertyOp55
 70
     1
102
RTVSPropertyOp56
 70
     1
102
RTVSPropertyOp57
 70
     1
102
RTVSPost2010Prop28
280
     0
102
RTVSPost2010PropOp28
 70
     1
102
RTVSPost2010Prop29
280
     1
102
RTVSPost2010PropOp29
 70
     1
102
RTVSPost2010Prop30
280
     1
102
RTVSPost2010PropOp30
 70
     1
102
RTVSPost2010Prop31
280
     0
102
RTVSPost2010PropOp31
 70
     1
102
RTVSPost2010Prop32
280
     0
102
RTVSPost2010PropOp32
 70
     1
102
RTVSPost2010Prop33
280
     0
102
RTVSPost2010PropOp33
 70
     1
102
RTVSPost2010Prop34
280
     0
102
RTVSPost2010PropOp34
 70
     1
102
RTVSPost2010Prop35
280
     0
102
RTVSPost2010PropOp35
 70
     1
102
RTVSPost2010Prop36
280
     0
102
RTVSPost2010PropOp36
 70
     1
102
RTVSPost2010Prop37
 90
       50
102
RTVSPost2010PropOp37
 70
     1
102
RTVSPost2010Prop38
140
0.0
102
RTVSPost2010PropOp38
 70
     1
102
RTVSPost2010Prop39
140
1.0
102
RTVSPost2010PropOp39
 70
     1
102
RTVSPost2010Prop40
 90
        0
102
RTVSPost2010PropOp40
 70
     1
102
RTVSPost2010Prop41ColorIndex
 90
       18
102
RTVSPost2010Prop41ColorRGB
 90
        0
102
RTVSPost2010PropOp41
 70
     1
102
RTVSPost2010Prop42
 90
       50
102
RTVSPost2010PropOp42
 70
     1
102
RTVSPost2010Prop43
 90
        3
102
RTVSPost2010PropOp43
 70
     1
102
RTVSPost2010Prop44ColorIndex
 90
        5
102
RTVSPost2010Prop44ColorRGB
 90
      255
102
RTVSPost2010PropOp44
 70
     1
102
RTVSPost2010Prop45
280
     0
102
RTVSPost2010PropOp45
 70
     1
102
RTVSPost2010Prop46
 90
       50
102
RTVSPost2010PropOp46
 70
     1
102
RTVSPost2010Prop47
 90
       50
102
RTVSPost2010PropOp47
 70
     1
102
RTVSPost2010Prop48
 90
       50
102
RTVSPost2010PropOp48
 70
     1
102
RTVSPost2010Prop49
280
     0
102
RTVSPost2010PropOp49
 70
     1
102
RTVSPost2010Prop50
 90
       50
102
RTVSPost2010PropOp50
 70
     1
102
RTVSPost2010Prop51ColorIndex
 90
      256
102
RTVSPost2010Prop51ColorRGB
 90
-16777216
102
RTVSPost2010PropOp51
 70
     0
102
RTVSPost2010Prop52
140
1.0
102
RTVSPost2010PropOp52
 70
     0
102
RTVSPost2010Prop53
 90
        2
102
RTVSPost2010PropOp53
 70
     1
102
RTVSPost2010Prop54
  1
strokes_ogs.tif
102
RTVSPost2010PropOp54
 70
     1
102
RTVSPost2010Prop55
280
     0
102
RTVSPost2010PropOp55
 70
     1
102
RTVSPost2010Prop56
140
1.0
102
RTVSPost2010PropOp56
 70
     1
102
RTVSPost2010Prop57
140
1.0
102
RTVSPost2010PropOp57
 70
     1
  0
XRECORD
  5
204
102
{ACAD_REACTORS
330
203
102
}
330
203
100
AcDbXrecord
280
     1
102
RTVSPropertyOp0
 70
     1
102
RTVSPropertyOp1
 70
     1
102
RTVSPropertyOp2
 70
     1
102
RTVSPropertyOp3
 70
     1
102
RTVSPropertyOp4
 70
     1
102
RTVSPropertyOp5
 70
     1
102
RTVSPropertyOp6
 70
     1
102
RTVSPropertyOp7
 70
     1
102
RTVSPropertyOp8
 70
     1
102
RTVSPropertyOp9
 70
     1
102
RTVSPropertyOp10
 70
     1
102
RTVSPropertyOp11
 70
     1
102
RTVSPropertyOp12
 70
     1
102
RTVSPropertyOp13
 70
     1
102
RTVSPropertyOp14
 70
     1
102
RTVSPropertyOp15
 70
     1
102
RTVSPropertyOp16
 70
     1
102
RTVSPropertyOp17
 70
     1
102
RTVSPropertyOp18
 70
     1
102
RTVSPropertyOp19
 70
     1
102
RTVSPropertyOp20
 70
     1
102
RTVSPropertyOp21
 70
     1
102
RTVSPropertyOp22
 70
     1
102
RTVSPropertyOp23
 70
     1
102
RTVSPropertyOp24
 70
     1
102
RTVSPropertyOp25
 70
     1
102
RTVSPropertyOp26
 70
     1
102
RTVSPropertyOp27
 70
     1
102
RTVSPropertyOp28
 70
     1
102
RTVSPropertyOp29
 70
     1
102
RTVSPropertyOp30
 70
     1
102
RTVSPropertyOp31
 70
     1
102
RTVSPropertyOp32
 70
     1
102
RTVSPropertyOp33
 70
     1
102
RTVSPropertyOp34
 70
     1
102
RTVSPropertyOp35
 70
     1
102
RTVSPropertyOp36
 70
     1
102
RTVSPropertyOp37
 70
     1
102
RTVSPropertyOp38
 70
     1
102
RTVSPropertyOp39
 70
     1
102
RTVSPropertyOp40
 70
     1
102
RTVSPropertyOp41
 70
     1
102
RTVSPropertyOp42
 70
     1
102
RTVSPropertyOp43
 70
     1
102
RTVSPropertyOp44
 70
     1
102
RTVSPropertyOp45
 70
     1
102
RTVSPropertyOp46
 70
     1
102
RTVSPropertyOp47
 70
     1
102
RTVSPropertyOp48
 70
     1
102
RTVSPropertyOp49
 70
     1
102
RTVSPropertyOp50
 70
     1
102
RTVSPropertyOp51
 70
     0
102
RTVSPropertyOp52
 70
     0
102
RTVSPropertyOp53
 70
     1
102
RTVSPropertyOp54
 70
     1
102
RTVSPropertyOp55
 70
     1
102
RTVSPropertyOp56
 70
     1
102
RTVSPropertyOp57
 70
     1
102
RTVSPost2010Prop28
280
     0
102
RTVSPost2010PropOp28
 70
     1
102
RTVSPost2010Prop29
280
     1
102
RTVSPost2010PropOp29
 70
     1
102
RTVSPost2010Prop30
280
     1
102
RTVSPost2010PropOp30
 70
     1
102
RTVSPost2010Prop31
280
     0
102
RTVSPost2010PropOp31
 70
     1
102
RTVSPost2010Prop32
280
     0
102
RTVSPost2010PropOp32
 70
     1
102
RTVSPost2010Prop33
280
     0
102
RTVSPost2010PropOp33
 70
     1
102
RTVSPost2010Prop34
280
     0
102
RTVSPost2010PropOp34
 70
     1
102
RTVSPost2010Prop35
280
     0
102
RTVSPost2010PropOp35
 70
     1
102
RTVSPost2010Prop36
280
     0
102
RTVSPost2010PropOp36
 70
     1
102
RTVSPost2010Prop37
 90
       50
102
RTVSPost2010PropOp37
 70
     1
102
RTVSPost2010Prop38
140
0.0
102
RTVSPost2010PropOp38
 70
     1
102
RTVSPost2010Prop39
140
1.0
102
RTVSPost2010PropOp39
 70
     1
102
RTVSPost2010Prop40
 90
        0
102
RTVSPost2010PropOp40
 70
     1
102
RTVSPost2010Prop41ColorIndex
 90
       18
102
RTVSPost2010Prop41ColorRGB
 90
        0
102
RTVSPost2010PropOp41
 70
     1
102
RTVSPost2010Prop42
 90
       50
102
RTVSPost2010PropOp42
 70
     1
102
RTVSPost2010Prop43
 90
        3
102
RTVSPost2010PropOp43
 70
     1
102
RTVSPost2010Prop44ColorIndex
 90
        5
102
RTVSPost2010Prop44ColorRGB
 90
      255
102
RTVSPost2010PropOp44
 70
     1
102
RTVSPost2010Prop45
280
     0
102
RTVSPost2010PropOp45
 70
     1
102
RTVSPost2010Prop46
 90
       50
102
RTVSPost2010PropOp46
 70
     1
102
RTVSPost2010Prop47
 90
       50
102
RTVSPost2010PropOp47
 70
     1
102
RTVSPost2010Prop48
 90
       50
102
RTVSPost2010PropOp48
 70
     1
102
RTVSPost2010Prop49
280
     0
102
RTVSPost2010PropOp49
 70
     1
102
RTVSPost2010Prop50
 90
       50
102
RTVSPost2010PropOp50
 70
     1
102
RTVSPost2010Prop51ColorIndex
 90
      256
102
RTVSPost2010Prop51ColorRGB
 90
-16777216
102
RTVSPost2010PropOp51
 70
     0
102
RTVSPost2010Prop52
140
1.0
102
RTVSPost2010PropOp52
 70
     0
102
RTVSPost2010Prop53
 90
        2
102
RTVSPost2010PropOp53
 70
     1
102
RTVSPost2010Prop54
  1
strokes_ogs.tif
102
RTVSPost2010PropOp54
 70
     1
102
RTVSPost2010Prop55
280
     0
102
RTVSPost2010PropOp55
 70
     1
102
RTVSPost2010Prop56
140
1.0
102
RTVSPost2010PropOp56
 70
     1
102
RTVSPost2010Prop57
140
1.0
102
RTVSPost2010PropOp57
 70
     1
  0
XRECORD
  5
1F8
102
{ACAD_REACTORS
330
1F7
102
}
330
1F7
100
AcDbXrecord
280
     1
102
RTVSPropertyOp0
 70
     1
102
RTVSPropertyOp1
 70
     1
102
RTVSPropertyOp2
 70
     1
102
RTVSPropertyOp3
 70
     1
102
RTVSPropertyOp4
 70
     1
102
RTVSPropertyOp5
 70
     1
102
RTVSPropertyOp6
 70
     1
102
RTVSPropertyOp7
 70
     1
102
RTVSPropertyOp8
 70
     1
102
RTVSPropertyOp9
 70
     1
102
RTVSPropertyOp10
 70
     1
102
RTVSPropertyOp11
 70
     1
102
RTVSPropertyOp12
 70
     1
102
RTVSPropertyOp13
 70
     1
102
RTVSPropertyOp14
 70
     1
102
RTVSPropertyOp15
 70
     1
102
RTVSPropertyOp16
 70
     1
102
RTVSPropertyOp17
 70
     1
102
RTVSPropertyOp18
 70
     1
102
RTVSPropertyOp19
 70
     1
102
RTVSPropertyOp20
 70
     1
102
RTVSPropertyOp21
 70
     1
102
RTVSPropertyOp22
 70
     1
102
RTVSPropertyOp23
 70
     1
102
RTVSPropertyOp24
 70
     1
102
RTVSPropertyOp25
 70
     1
102
RTVSPropertyOp26
 70
     1
102
RTVSPropertyOp27
 70
     1
102
RTVSPropertyOp28
 70
     1
102
RTVSPropertyOp29
 70
     1
102
RTVSPropertyOp30
 70
     1
102
RTVSPropertyOp31
 70
     1
102
RTVSPropertyOp32
 70
     1
102
RTVSPropertyOp33
 70
     1
102
RTVSPropertyOp34
 70
     1
102
RTVSPropertyOp35
 70
     1
102
RTVSPropertyOp36
 70
     1
102
RTVSPropertyOp37
 70
     1
102
RTVSPropertyOp38
 70
     1
102
RTVSPropertyOp39
 70
     1
102
RTVSPropertyOp40
 70
     1
102
RTVSPropertyOp41
 70
     1
102
RTVSPropertyOp42
 70
     1
102
RTVSPropertyOp43
 70
     1
102
RTVSPropertyOp44
 70
     1
102
RTVSPropertyOp45
 70
     1
102
RTVSPropertyOp46
 70
     1
102
RTVSPropertyOp47
 70
     1
102
RTVSPropertyOp48
 70
     1
102
RTVSPropertyOp49
 70
     1
102
RTVSPropertyOp50
 70
     1
102
RTVSPropertyOp51
 70
     0
102
RTVSPropertyOp52
 70
     0
102
RTVSPropertyOp53
 70
     1
102
RTVSPropertyOp54
 70
     1
102
RTVSPropertyOp55
 70
     1
102
RTVSPropertyOp56
 70
     1
102
RTVSPropertyOp57
 70
     1
102
RTVSPost2010Prop28
280
     0
102
RTVSPost2010PropOp28
 70
     1
102
RTVSPost2010Prop29
280
     1
102
RTVSPost2010PropOp29
 70
     1
102
RTVSPost2010Prop30
280
     1
102
RTVSPost2010PropOp30
 70
     1
102
RTVSPost2010Prop31
280
     0
102
RTVSPost2010PropOp31
 70
     1
102
RTVSPost2010Prop32
280
     0
102
RTVSPost2010PropOp32
 70
     1
102
RTVSPost2010Prop33
280
     0
102
RTVSPost2010PropOp33
 70
     1
102
RTVSPost2010Prop34
280
     0
102
RTVSPost2010PropOp34
 70
     1
102
RTVSPost2010Prop35
280
     0
102
RTVSPost2010PropOp35
 70
     1
102
RTVSPost2010Prop36
280
     0
102
RTVSPost2010PropOp36
 70
     1
102
RTVSPost2010Prop37
 90
       50
102
RTVSPost2010PropOp37
 70
     1
102
RTVSPost2010Prop38
140
0.0
102
RTVSPost2010PropOp38
 70
     1
102
RTVSPost2010Prop39
140
1.0
102
RTVSPost2010PropOp39
 70
     1
102
RTVSPost2010Prop40
 90
        0
102
RTVSPost2010PropOp40
 70
     1
102
RTVSPost2010Prop41ColorIndex
 90
       18
102
RTVSPost2010Prop41ColorRGB
 90
        0
102
RTVSPost2010PropOp41
 70
     1
102
RTVSPost2010Prop42
 90
       50
102
RTVSPost2010PropOp42
 70
     1
102
RTVSPost2010Prop43
 90
        3
102
RTVSPost2010PropOp43
 70
     1
102
RTVSPost2010Prop44ColorIndex
 90
        5
102
RTVSPost2010Prop44ColorRGB
 90
      255
102
RTVSPost2010PropOp44
 70
     1
102
RTVSPost2010Prop45
280
     0
102
RTVSPost2010PropOp45
 70
     1
102
RTVSPost2010Prop46
 90
       50
102
RTVSPost2010PropOp46
 70
     1
102
RTVSPost2010Prop47
 90
       50
102
RTVSPost2010PropOp47
 70
     1
102
RTVSPost2010Prop48
 90
       50
102
RTVSPost2010PropOp48
 70
     1
102
RTVSPost2010Prop49
280
     0
102
RTVSPost2010PropOp49
 70
     1
102
RTVSPost2010Prop50
 90
       50
102
RTVSPost2010PropOp50
 70
     1
102
RTVSPost2010Prop51ColorIndex
 90
      256
102
RTVSPost2010Prop51ColorRGB
 90
-16777216
102
RTVSPost2010PropOp51
 70
     0
102
RTVSPost2010Prop52
140
1.0
102
RTVSPost2010PropOp52
 70
     0
102
RTVSPost2010Prop53
 90
        2
102
RTVSPost2010PropOp53
 70
     1
102
RTVSPost2010Prop54
  1
strokes_ogs.tif
102
RTVSPost2010PropOp54
 70
     1
102
RTVSPost2010Prop55
280
     0
102
RTVSPost2010PropOp55
 70
     1
102
RTVSPost2010Prop56
140
1.0
102
RTVSPost2010PropOp56
 70
     1
102
RTVSPost2010Prop57
140
1.0
102
RTVSPost2010PropOp57
 70
     1
  0
XRECORD
  5
1FA
102
{ACAD_REACTORS
330
1F9
102
}
330
1F9
100
AcDbXrecord
280
     1
102
RTVSPropertyOp0
 70
     1
102
RTVSPropertyOp1
 70
     1
102
RTVSPropertyOp2
 70
     1
102
RTVSPropertyOp3
 70
     1
102
RTVSPropertyOp4
 70
     1
102
RTVSPropertyOp5
 70
     1
102
RTVSPropertyOp6
 70
     1
102
RTVSPropertyOp7
 70
     1
102
RTVSPropertyOp8
 70
     1
102
RTVSPropertyOp9
 70
     1
102
RTVSPropertyOp10
 70
     1
102
RTVSPropertyOp11
 70
     1
102
RTVSPropertyOp12
 70
     1
102
RTVSPropertyOp13
 70
     1
102
RTVSPropertyOp14
 70
     1
102
RTVSPropertyOp15
 70
     1
102
RTVSPropertyOp16
 70
     1
102
RTVSPropertyOp17
 70
     1
102
RTVSPropertyOp18
 70
     1
102
RTVSPropertyOp19
 70
     1
102
RTVSPropertyOp20
 70
     1
102
RTVSPropertyOp21
 70
     1
102
RTVSPropertyOp22
 70
     1
102
RTVSPropertyOp23
 70
     1
102
RTVSPropertyOp24
 70
     1
102
RTVSPropertyOp25
 70
     1
102
RTVSPropertyOp26
 70
     1
102
RTVSPropertyOp27
 70
     1
102
RTVSPropertyOp28
 70
     1
102
RTVSPropertyOp29
 70
     1
102
RTVSPropertyOp30
 70
     1
102
RTVSPropertyOp31
 70
     1
102
RTVSPropertyOp32
 70
     1
102
RTVSPropertyOp33
 70
     1
102
RTVSPropertyOp34
 70
     1
102
RTVSPropertyOp35
 70
     1
102
RTVSPropertyOp36
 70
     1
102
RTVSPropertyOp37
 70
     1
102
RTVSPropertyOp38
 70
     1
102
RTVSPropertyOp39
 70
     1
102
RTVSPropertyOp40
 70
     1
102
RTVSPropertyOp41
 70
     1
102
RTVSPropertyOp42
 70
     1
102
RTVSPropertyOp43
 70
     1
102
RTVSPropertyOp44
 70
     1
102
RTVSPropertyOp45
 70
     1
102
RTVSPropertyOp46
 70
     1
102
RTVSPropertyOp47
 70
     1
102
RTVSPropertyOp48
 70
     1
102
RTVSPropertyOp49
 70
     1
102
RTVSPropertyOp50
 70
     1
102
RTVSPropertyOp51
 70
     0
102
RTVSPropertyOp52
 70
     0
102
RTVSPropertyOp53
 70
     1
102
RTVSPropertyOp54
 70
     1
102
RTVSPropertyOp55
 70
     1
102
RTVSPropertyOp56
 70
     1
102
RTVSPropertyOp57
 70
     1
102
RTVSPost2010Prop28
280
     0
102
RTVSPost2010PropOp28
 70
     1
102
RTVSPost2010Prop29
280
     1
102
RTVSPost2010PropOp29
 70
     1
102
RTVSPost2010Prop30
280
     1
102
RTVSPost2010PropOp30
 70
     1
102
RTVSPost2010Prop31
280
     0
102
RTVSPost2010PropOp31
 70
     1
102
RTVSPost2010Prop32
280
     0
102
RTVSPost2010PropOp32
 70
     1
102
RTVSPost2010Prop33
280
     0
102
RTVSPost2010PropOp33
 70
     1
102
RTVSPost2010Prop34
280
     0
102
RTVSPost2010PropOp34
 70
     1
102
RTVSPost2010Prop35
280
     0
102
RTVSPost2010PropOp35
 70
     1
102
RTVSPost2010Prop36
280
     0
102
RTVSPost2010PropOp36
 70
     1
102
RTVSPost2010Prop37
 90
       50
102
RTVSPost2010PropOp37
 70
     1
102
RTVSPost2010Prop38
140
0.0
102
RTVSPost2010PropOp38
 70
     1
102
RTVSPost2010Prop39
140
1.0
102
RTVSPost2010PropOp39
 70
     1
102
RTVSPost2010Prop40
 90
        0
102
RTVSPost2010PropOp40
 70
     1
102
RTVSPost2010Prop41ColorIndex
 90
       18
102
RTVSPost2010Prop41ColorRGB
 90
        0
102
RTVSPost2010PropOp41
 70
     1
102
RTVSPost2010Prop42
 90
       50
102
RTVSPost2010PropOp42
 70
     1
102
RTVSPost2010Prop43
 90
        3
102
RTVSPost2010PropOp43
 70
     1
102
RTVSPost2010Prop44ColorIndex
 90
        5
102
RTVSPost2010Prop44ColorRGB
 90
      255
102
RTVSPost2010PropOp44
 70
     1
102
RTVSPost2010Prop45
280
     0
102
RTVSPost2010PropOp45
 70
     1
102
RTVSPost2010Prop46
 90
       50
102
RTVSPost2010PropOp46
 70
     1
102
RTVSPost2010Prop47
 90
       50
102
RTVSPost2010PropOp47
 70
     1
102
RTVSPost2010Prop48
 90
       50
102
RTVSPost2010PropOp48
 70
     1
102
RTVSPost2010Prop49
280
     0
102
RTVSPost2010PropOp49
 70
     1
102
RTVSPost2010Prop50
 90
       50
102
RTVSPost2010PropOp50
 70
     1
102
RTVSPost2010Prop51ColorIndex
 90
      256
102
RTVSPost2010Prop51ColorRGB
 90
-16777216
102
RTVSPost2010PropOp51
 70
     0
102
RTVSPost2010Prop52
140
1.0
102
RTVSPost2010PropOp52
 70
     0
102
RTVSPost2010Prop53
 90
        2
102
RTVSPost2010PropOp53
 70
     1
102
RTVSPost2010Prop54
  1
strokes_ogs.tif
102
RTVSPost2010PropOp54
 70
     1
102
RTVSPost2010Prop55
280
     0
102
RTVSPost2010PropOp55
 70
     1
102
RTVSPost2010Prop56
140
1.0
102
RTVSPost2010PropOp56
 70
     1
102
RTVSPost2010Prop57
140
1.0
102
RTVSPost2010PropOp57
 70
     1
  0
XRECORD
  5
20A
102
{ACAD_REACTORS
330
209
102
}
330
209
100
AcDbXrecord
280
     1
102
RTVSPropertyOp0
 70
     0
102
RTVSPropertyOp1
 70
     0
102
RTVSPropertyOp2
 70
     0
102
RTVSPropertyOp3
 70
     0
102
RTVSPropertyOp4
 70
     0
102
RTVSPropertyOp5
 70
     0
102
RTVSPropertyOp6
 70
     0
102
RTVSPropertyOp7
 70
     0
102
RTVSPropertyOp8
 70
     0
102
RTVSPropertyOp9
 70
     0
102
RTVSPropertyOp10
 70
     0
102
RTVSPropertyOp11
 70
     0
102
RTVSPropertyOp12
 70
     0
102
RTVSPropertyOp13
 70
     0
102
RTVSPropertyOp14
 70
     2
102
RTVSPropertyOp15
 70
     0
102
RTVSPropertyOp16
 70
     0
102
RTVSPropertyOp17
 70
     0
102
RTVSPropertyOp18
 70
     0
102
RTVSPropertyOp19
 70
     0
102
RTVSPropertyOp20
 70
     0
102
RTVSPropertyOp21
 70
     0
102
RTVSPropertyOp22
 70
     0
102
RTVSPropertyOp23
 70
     0
102
RTVSPropertyOp24
 70
     0
102
RTVSPropertyOp25
 70
     0
102
RTVSPropertyOp26
 70
     0
102
RTVSPropertyOp27
 70
     0
102
RTVSPropertyOp28
 70
     0
102
RTVSPropertyOp29
 70
     0
102
RTVSPropertyOp30
 70
     0
102
RTVSPropertyOp31
 70
     0
102
RTVSPropertyOp32
 70
     0
102
RTVSPropertyOp33
 70
     0
102
RTVSPropertyOp34
 70
     0
102
RTVSPropertyOp35
 70
     0
102
RTVSPropertyOp36
 70
     0
102
RTVSPropertyOp37
 70
     0
102
RTVSPropertyOp38
 70
     0
102
RTVSPropertyOp39
 70
     0
102
RTVSPropertyOp40
 70
     0
102
RTVSPropertyOp41
 70
     0
102
RTVSPropertyOp42
 70
     0
102
RTVSPropertyOp43
 70
     0
102
RTVSPropertyOp44
 70
     0
102
RTVSPropertyOp45
 70
     0
102
RTVSPropertyOp46
 70
     0
102
RTVSPropertyOp47
 70
     0
102
RTVSPropertyOp48
 70
     0
102
RTVSPropertyOp49
 70
     0
102
RTVSPropertyOp50
 70
     0
102
RTVSPropertyOp51
 70
     0
102
RTVSPropertyOp52
 70
     0
102
RTVSPropertyOp53
 70
     0
102
RTVSPropertyOp54
 70
     0
102
RTVSPropertyOp55
 70
     0
102
RTVSPropertyOp56
 70
     0
102
RTVSPropertyOp57
 70
     0
102
RTVSPost2010Prop28
280
     0
102
RTVSPost2010PropOp28
 70
     0
102
RTVSPost2010Prop29
280
     1
102
RTVSPost2010PropOp29
 70
     0
102
RTVSPost2010Prop30
280
     1
102
RTVSPost2010PropOp30
 70
     0
102
RTVSPost2010Prop31
280
     0
102
RTVSPost2010PropOp31
 70
     0
102
RTVSPost2010Prop32
280
     0
102
RTVSPost2010PropOp32
 70
     0
102
RTVSPost2010Prop33
280
     0
102
RTVSPost2010PropOp33
 70
     0
102
RTVSPost2010Prop34
280
     0
102
RTVSPost2010PropOp34
 70
     0
102
RTVSPost2010Prop35
280
     0
102
RTVSPost2010PropOp35
 70
     0
102
RTVSPost2010Prop36
280
     0
102
RTVSPost2010PropOp36
 70
     0
102
RTVSPost2010Prop37
 90
       50
102
RTVSPost2010PropOp37
 70
     0
102
RTVSPost2010Prop38
140
0.0
102
RTVSPost2010PropOp38
 70
     0
102
RTVSPost2010Prop39
140
1.0
102
RTVSPost2010PropOp39
 70
     0
102
RTVSPost2010Prop40
 90
        0
102
RTVSPost2010PropOp40
 70
     0
102
RTVSPost2010Prop41ColorIndex
 90
       18
102
RTVSPost2010Prop41ColorRGB
 90
        0
102
RTVSPost2010PropOp41
 70
     0
102
RTVSPost2010Prop42
 90
       50
102
RTVSPost2010PropOp42
 70
     0
102
RTVSPost2010Prop43
 90
        3
102
RTVSPost2010PropOp43
 70
     0
102
RTVSPost2010Prop44ColorIndex
 90
        5
102
RTVSPost2010Prop44ColorRGB
 90
      255
102
RTVSPost2010PropOp44
 70
     0
102
RTVSPost2010Prop45
280
     0
102
RTVSPost2010PropOp45
 70
     0
102
RTVSPost2010Prop46
 90
       50
102
RTVSPost2010PropOp46
 70
     0
102
RTVSPost2010Prop47
 90
       50
102
RTVSPost2010PropOp47
 70
     0
102
RTVSPost2010Prop48
 90
       50
102
RTVSPost2010PropOp48
 70
     0
102
RTVSPost2010Prop49
280
     0
102
RTVSPost2010PropOp49
 70
     0
102
RTVSPost2010Prop50
 90
       50
102
RTVSPost2010PropOp50
 70
     0
102
RTVSPost2010Prop51ColorIndex
 90
      256
102
RTVSPost2010Prop51ColorRGB
 90
-16777216
102
RTVSPost2010PropOp51
 70
     0
102
RTVSPost2010Prop52
140
1.0
102
RTVSPost2010PropOp52
 70
     0
102
RTVSPost2010Prop53
 90
        2
102
RTVSPost2010PropOp53
 70
     0
102
RTVSPost2010Prop54
  1
strokes_ogs.tif
102
RTVSPost2010PropOp54
 70
     0
102
RTVSPost2010Prop55
280
     0
102
RTVSPost2010PropOp55
 70
     0
102
RTVSPost2010Prop56
140
1.0
102
RTVSPost2010PropOp56
 70
     0
102
RTVSPost2010Prop57
140
1.0
102
RTVSPost2010PropOp57
 70
     0
  0
XRECORD
  5
202
102
{ACAD_REACTORS
330
201
102
}
330
201
100
AcDbXrecord
280
     1
102
RTVSPropertyOp0
 70
     1
102
RTVSPropertyOp1
 70
     1
102
RTVSPropertyOp2
 70
     1
102
RTVSPropertyOp3
 70
     1
102
RTVSPropertyOp4
 70
     1
102
RTVSPropertyOp5
 70
     1
102
RTVSPropertyOp6
 70
     1
102
RTVSPropertyOp7
 70
     1
102
RTVSPropertyOp8
 70
     1
102
RTVSPropertyOp9
 70
     1
102
RTVSPropertyOp10
 70
     1
102
RTVSPropertyOp11
 70
     1
102
RTVSPropertyOp12
 70
     1
102
RTVSPropertyOp13
 70
     1
102
RTVSPropertyOp14
 70
     1
102
RTVSPropertyOp15
 70
     1
102
RTVSPropertyOp16
 70
     1
102
RTVSPropertyOp17
 70
     1
102
RTVSPropertyOp18
 70
     1
102
RTVSPropertyOp19
 70
     1
102
RTVSPropertyOp20
 70
     1
102
RTVSPropertyOp21
 70
     1
102
RTVSPropertyOp22
 70
     1
102
RTVSPropertyOp23
 70
     1
102
RTVSPropertyOp24
 70
     1
102
RTVSPropertyOp25
 70
     1
102
RTVSPropertyOp26
 70
     1
102
RTVSPropertyOp27
 70
     1
102
RTVSPropertyOp28
 70
     1
102
RTVSPropertyOp29
 70
     1
102
RTVSPropertyOp30
 70
     1
102
RTVSPropertyOp31
 70
     1
102
RTVSPropertyOp32
 70
     1
102
RTVSPropertyOp33
 70
     1
102
RTVSPropertyOp34
 70
     1
102
RTVSPropertyOp35
 70
     1
102
RTVSPropertyOp36
 70
     1
102
RTVSPropertyOp37
 70
     1
102
RTVSPropertyOp38
 70
     1
102
RTVSPropertyOp39
 70
     1
102
RTVSPropertyOp40
 70
     1
102
RTVSPropertyOp41
 70
     1
102
RTVSPropertyOp42
 70
     1
102
RTVSPropertyOp43
 70
     1
102
RTVSPropertyOp44
 70
     1
102
RTVSPropertyOp45
 70
     1
102
RTVSPropertyOp46
 70
     1
102
RTVSPropertyOp47
 70
     1
102
RTVSPropertyOp48
 70
     1
102
RTVSPropertyOp49
 70
     1
102
RTVSPropertyOp50
 70
     1
102
RTVSPropertyOp51
 70
     0
102
RTVSPropertyOp52
 70
     0
102
RTVSPropertyOp53
 70
     1
102
RTVSPropertyOp54
 70
     1
102
RTVSPropertyOp55
 70
     1
102
RTVSPropertyOp56
 70
     1
102
RTVSPropertyOp57
 70
     1
102
RTVSPost2010Prop28
280
     0
102
RTVSPost2010PropOp28
 70
     1
102
RTVSPost2010Prop29
280
     1
102
RTVSPost2010PropOp29
 70
     1
102
RTVSPost2010Prop30
280
     1
102
RTVSPost2010PropOp30
 70
     1
102
RTVSPost2010Prop31
280
     0
102
RTVSPost2010PropOp31
 70
     1
102
RTVSPost2010Prop32
280
     0
102
RTVSPost2010PropOp32
 70
     1
102
RTVSPost2010Prop33
280
     0
102
RTVSPost2010PropOp33
 70
     1
102
RTVSPost2010Prop34
280
     0
102
RTVSPost2010PropOp34
 70
     1
102
RTVSPost2010Prop35
280
     0
102
RTVSPost2010PropOp35
 70
     1
102
RTVSPost2010Prop36
280
     0
102
RTVSPost2010PropOp36
 70
     1
102
RTVSPost2010Prop37
 90
       50
102
RTVSPost2010PropOp37
 70
     1
102
RTVSPost2010Prop38
140
0.0
102
RTVSPost2010PropOp38
 70
     1
102
RTVSPost2010Prop39
140
1.0
102
RTVSPost2010PropOp39
 70
     1
102
RTVSPost2010Prop40
 90
        0
102
RTVSPost2010PropOp40
 70
     1
102
RTVSPost2010Prop41ColorIndex
 90
       18
102
RTVSPost2010Prop41ColorRGB
 90
        0
102
RTVSPost2010PropOp41
 70
     1
102
RTVSPost2010Prop42
 90
       50
102
RTVSPost2010PropOp42
 70
     1
102
RTVSPost2010Prop43
 90
        3
102
RTVSPost2010PropOp43
 70
     1
102
RTVSPost2010Prop44ColorIndex
 90
        5
102
RTVSPost2010Prop44ColorRGB
 90
      255
102
RTVSPost2010PropOp44
 70
     1
102
RTVSPost2010Prop45
280
     0
102
RTVSPost2010PropOp45
 70
     1
102
RTVSPost2010Prop46
 90
       50
102
RTVSPost2010PropOp46
 70
     1
102
RTVSPost2010Prop47
 90
       50
102
RTVSPost2010PropOp47
 70
     1
102
RTVSPost2010Prop48
 90
       50
102
RTVSPost2010PropOp48
 70
     1
102
RTVSPost2010Prop49
280
     0
102
RTVSPost2010PropOp49
 70
     1
102
RTVSPost2010Prop50
 90
       50
102
RTVSPost2010PropOp50
 70
     1
102
RTVSPost2010Prop51ColorIndex
 90
      256
102
RTVSPost2010Prop51ColorRGB
 90
-16777216
102
RTVSPost2010PropOp51
 70
     0
102
RTVSPost2010Prop52
140
1.0
102
RTVSPost2010PropOp52
 70
     0
102
RTVSPost2010Prop53
 90
        2
102
RTVSPost2010PropOp53
 70
     1
102
RTVSPost2010Prop54
  1
strokes_ogs.tif
102
RTVSPost2010PropOp54
 70
     1
102
RTVSPost2010Prop55
280
     0
102
RTVSPost2010PropOp55
 70
     1
102
RTVSPost2010Prop56
140
1.0
102
RTVSPost2010PropOp56
 70
     1
102
RTVSPost2010Prop57
140
1.0
102
RTVSPost2010PropOp57
 70
     1
  0
XRECORD
  5
1E6
102
{ACAD_REACTORS
330
1E5
102
}
330
1E5
100
AcDbXrecord
280
     1
102
RTVSPropertyOp0
 70
     1
102
RTVSPropertyOp1
 70
     1
102
RTVSPropertyOp2
 70
     1
102
RTVSPropertyOp3
 70
     1
102
RTVSPropertyOp4
 70
     1
102
RTVSPropertyOp5
 70
     1
102
RTVSPropertyOp6
 70
     1
102
RTVSPropertyOp7
 70
     1
102
RTVSPropertyOp8
 70
     1
102
RTVSPropertyOp9
 70
     1
102
RTVSPropertyOp10
 70
     1
102
RTVSPropertyOp11
 70
     1
102
RTVSPropertyOp12
 70
     1
102
RTVSPropertyOp13
 70
     1
102
RTVSPropertyOp14
 70
     1
102
RTVSPropertyOp15
 70
     1
102
RTVSPropertyOp16
 70
     1
102
RTVSPropertyOp17
 70
     1
102
RTVSPropertyOp18
 70
     1
102
RTVSPropertyOp19
 70
     1
102
RTVSPropertyOp20
 70
     1
102
RTVSPropertyOp21
 70
     1
102
RTVSPropertyOp22
 70
     1
102
RTVSPropertyOp23
 70
     1
102
RTVSPropertyOp24
 70
     1
102
RTVSPropertyOp25
 70
     1
102
RTVSPropertyOp26
 70
     1
102
RTVSPropertyOp27
 70
     1
102
RTVSPropertyOp28
 70
     1
102
RTVSPropertyOp29
 70
     1
102
RTVSPropertyOp30
 70
     1
102
RTVSPropertyOp31
 70
     1
102
RTVSPropertyOp32
 70
     1
102
RTVSPropertyOp33
 70
     1
102
RTVSPropertyOp34
 70
     1
102
RTVSPropertyOp35
 70
     1
102
RTVSPropertyOp36
 70
     1
102
RTVSPropertyOp37
 70
     1
102
RTVSPropertyOp38
 70
     1
102
RTVSPropertyOp39
 70
     1
102
RTVSPropertyOp40
 70
     1
102
RTVSPropertyOp41
 70
     1
102
RTVSPropertyOp42
 70
     1
102
RTVSPropertyOp43
 70
     1
102
RTVSPropertyOp44
 70
     1
102
RTVSPropertyOp45
 70
     1
102
RTVSPropertyOp46
 70
     1
102
RTVSPropertyOp47
 70
     1
102
RTVSPropertyOp48
 70
     1
102
RTVSPropertyOp49
 70
     1
102
RTVSPropertyOp50
 70
     1
102
RTVSPropertyOp51
 70
     0
102
RTVSPropertyOp52
 70
     0
102
RTVSPropertyOp53
 70
     1
102
RTVSPropertyOp54
 70
     1
102
RTVSPropertyOp55
 70
     1
102
RTVSPropertyOp56
 70
     1
102
RTVSPropertyOp57
 70
     1
102
RTVSPost2010Prop28
280
     0
102
RTVSPost2010PropOp28
 70
     1
102
RTVSPost2010Prop29
280
     1
102
RTVSPost2010PropOp29
 70
     1
102
RTVSPost2010Prop30
280
     1
102
RTVSPost2010PropOp30
 70
     1
102
RTVSPost2010Prop31
280
     0
102
RTVSPost2010PropOp31
 70
     1
102
RTVSPost2010Prop32
280
     0
102
RTVSPost2010PropOp32
 70
     1
102
RTVSPost2010Prop33
280
     0
102
RTVSPost2010PropOp33
 70
     1
102
RTVSPost2010Prop34
280
     0
102
RTVSPost2010PropOp34
 70
     1
102
RTVSPost2010Prop35
280
     0
102
RTVSPost2010PropOp35
 70
     1
102
RTVSPost2010Prop36
280
     0
102
RTVSPost2010PropOp36
 70
     1
102
RTVSPost2010Prop37
 90
       50
102
RTVSPost2010PropOp37
 70
     1
102
RTVSPost2010Prop38
140
0.0
102
RTVSPost2010PropOp38
 70
     1
102
RTVSPost2010Prop39
140
1.0
102
RTVSPost2010PropOp39
 70
     1
102
RTVSPost2010Prop40
 90
        0
102
RTVSPost2010PropOp40
 70
     1
102
RTVSPost2010Prop41ColorIndex
 90
       18
102
RTVSPost2010Prop41ColorRGB
 90
        0
102
RTVSPost2010PropOp41
 70
     1
102
RTVSPost2010Prop42
 90
       50
102
RTVSPost2010PropOp42
 70
     1
102
RTVSPost2010Prop43
 90
        3
102
RTVSPost2010PropOp43
 70
     1
102
RTVSPost2010Prop44ColorIndex
 90
        5
102
RTVSPost2010Prop44ColorRGB
 90
      255
102
RTVSPost2010PropOp44
 70
     1
102
RTVSPost2010Prop45
280
     0
102
RTVSPost2010PropOp45
 70
     1
102
RTVSPost2010Prop46
 90
       50
102
RTVSPost2010PropOp46
 70
     1
102
RTVSPost2010Prop47
 90
       50
102
RTVSPost2010PropOp47
 70
     1
102
RTVSPost2010Prop48
 90
       50
102
RTVSPost2010PropOp48
 70
     1
102
RTVSPost2010Prop49
280
     0
102
RTVSPost2010PropOp49
 70
     1
102
RTVSPost2010Prop50
 90
       50
102
RTVSPost2010PropOp50
 70
     1
102
RTVSPost2010Prop51ColorIndex
 90
      256
102
RTVSPost2010Prop51ColorRGB
 90
-16777216
102
RTVSPost2010PropOp51
 70
     0
102
RTVSPost2010Prop52
140
1.0
102
RTVSPost2010PropOp52
 70
     0
102
RTVSPost2010Prop53
 90
        2
102
RTVSPost2010PropOp53
 70
     1
102
RTVSPost2010Prop54
  1
strokes_ogs.tif
102
RTVSPost2010PropOp54
 70
     1
102
RTVSPost2010Prop55
280
     0
102
RTVSPost2010PropOp55
 70
     1
102
RTVSPost2010Prop56
140
1.0
102
RTVSPost2010PropOp56
 70
     1
102
RTVSPost2010Prop57
140
1.0
102
RTVSPost2010PropOp57
 70
     1
  0
XRECORD
  5
1E8
102
{ACAD_REACTORS
330
1E7
102
}
330
1E7
100
AcDbXrecord
280
     1
102
RTVSPropertyOp0
 70
     1
102
RTVSPropertyOp1
 70
     1
102
RTVSPropertyOp2
 70
     1
102
RTVSPropertyOp3
 70
     1
102
RTVSPropertyOp4
 70
     1
102
RTVSPropertyOp5
 70
     1
102
RTVSPropertyOp6
 70
     1
102
RTVSPropertyOp7
 70
     1
102
RTVSPropertyOp8
 70
     1
102
RTVSPropertyOp9
 70
     1
102
RTVSPropertyOp10
 70
     1
102
RTVSPropertyOp11
 70
     1
102
RTVSPropertyOp12
 70
     1
102
RTVSPropertyOp13
 70
     1
102
RTVSPropertyOp14
 70
     1
102
RTVSPropertyOp15
 70
     1
102
RTVSPropertyOp16
 70
     1
102
RTVSPropertyOp17
 70
     1
102
RTVSPropertyOp18
 70
     1
102
RTVSPropertyOp19
 70
     1
102
RTVSPropertyOp20
 70
     1
102
RTVSPropertyOp21
 70
     1
102
RTVSPropertyOp22
 70
     1
102
RTVSPropertyOp23
 70
     1
102
RTVSPropertyOp24
 70
     1
102
RTVSPropertyOp25
 70
     1
102
RTVSPropertyOp26
 70
     1
102
RTVSPropertyOp27
 70
     1
102
RTVSPropertyOp28
 70
     1
102
RTVSPropertyOp29
 70
     1
102
RTVSPropertyOp30
 70
     1
102
RTVSPropertyOp31
 70
     1
102
RTVSPropertyOp32
 70
     1
102
RTVSPropertyOp33
 70
     1
102
RTVSPropertyOp34
 70
     1
102
RTVSPropertyOp35
 70
     1
102
RTVSPropertyOp36
 70
     1
102
RTVSPropertyOp37
 70
     1
102
RTVSPropertyOp38
 70
     1
102
RTVSPropertyOp39
 70
     1
102
RTVSPropertyOp40
 70
     1
102
RTVSPropertyOp41
 70
     1
102
RTVSPropertyOp42
 70
     1
102
RTVSPropertyOp43
 70
     1
102
RTVSPropertyOp44
 70
     1
102
RTVSPropertyOp45
 70
     1
102
RTVSPropertyOp46
 70
     1
102
RTVSPropertyOp47
 70
     1
102
RTVSPropertyOp48
 70
     1
102
RTVSPropertyOp49
 70
     1
102
RTVSPropertyOp50
 70
     1
102
RTVSPropertyOp51
 70
     0
102
RTVSPropertyOp52
 70
     0
102
RTVSPropertyOp53
 70
     1
102
RTVSPropertyOp54
 70
     1
102
RTVSPropertyOp55
 70
     1
102
RTVSPropertyOp56
 70
     1
102
RTVSPropertyOp57
 70
     1
102
RTVSPost2010Prop28
280
     0
102
RTVSPost2010PropOp28
 70
     1
102
RTVSPost2010Prop29
280
     1
102
RTVSPost2010PropOp29
 70
     1
102
RTVSPost2010Prop30
280
     1
102
RTVSPost2010PropOp30
 70
     1
102
RTVSPost2010Prop31
280
     0
102
RTVSPost2010PropOp31
 70
     1
102
RTVSPost2010Prop32
280
     0
102
RTVSPost2010PropOp32
 70
     1
102
RTVSPost2010Prop33
280
     0
102
RTVSPost2010PropOp33
 70
     1
102
RTVSPost2010Prop34
280
     0
102
RTVSPost2010PropOp34
 70
     1
102
RTVSPost2010Prop35
280
     0
102
RTVSPost2010PropOp35
 70
     1
102
RTVSPost2010Prop36
280
     0
102
RTVSPost2010PropOp36
 70
     1
102
RTVSPost2010Prop37
 90
       50
102
RTVSPost2010PropOp37
 70
     1
102
RTVSPost2010Prop38
140
0.0
102
RTVSPost2010PropOp38
 70
     1
102
RTVSPost2010Prop39
140
1.0
102
RTVSPost2010PropOp39
 70
     1
102
RTVSPost2010Prop40
 90
        0
102
RTVSPost2010PropOp40
 70
     1
102
RTVSPost2010Prop41ColorIndex
 90
       18
102
RTVSPost2010Prop41ColorRGB
 90
        0
102
RTVSPost2010PropOp41
 70
     1
102
RTVSPost2010Prop42
 90
       50
102
RTVSPost2010PropOp42
 70
     1
102
RTVSPost2010Prop43
 90
        3
102
RTVSPost2010PropOp43
 70
     1
102
RTVSPost2010Prop44ColorIndex
 90
        5
102
RTVSPost2010Prop44ColorRGB
 90
      255
102
RTVSPost2010PropOp44
 70
     1
102
RTVSPost2010Prop45
280
     0
102
RTVSPost2010PropOp45
 70
     1
102
RTVSPost2010Prop46
 90
       50
102
RTVSPost2010PropOp46
 70
     1
102
RTVSPost2010Prop47
 90
       50
102
RTVSPost2010PropOp47
 70
     1
102
RTVSPost2010Prop48
 90
       50
102
RTVSPost2010PropOp48
 70
     1
102
RTVSPost2010Prop49
280
     0
102
RTVSPost2010PropOp49
 70
     1
102
RTVSPost2010Prop50
 90
       50
102
RTVSPost2010PropOp50
 70
     1
102
RTVSPost2010Prop51ColorIndex
 90
      256
102
RTVSPost2010Prop51ColorRGB
 90
-16777216
102
RTVSPost2010PropOp51
 70
     0
102
RTVSPost2010Prop52
140
1.0
102
RTVSPost2010PropOp52
 70
     0
102
RTVSPost2010Prop53
 90
        2
102
RTVSPost2010PropOp53
 70
     1
102
RTVSPost2010Prop54
  1
strokes_ogs.tif
102
RTVSPost2010PropOp54
 70
     1
102
RTVSPost2010Prop55
280
     0
102
RTVSPost2010PropOp55
 70
     1
102
RTVSPost2010Prop56
140
1.0
102
RTVSPost2010PropOp56
 70
     1
102
RTVSPost2010Prop57
140
1.0
102
RTVSPost2010PropOp57
 70
     1
  0
XRECORD
  5
1EA
102
{ACAD_REACTORS
330
1E9
102
}
330
1E9
100
AcDbXrecord
280
     1
102
RTVSPropertyOp0
 70
     1
102
RTVSPropertyOp1
 70
     1
102
RTVSPropertyOp2
 70
     1
102
RTVSPropertyOp3
 70
     1
102
RTVSPropertyOp4
 70
     1
102
RTVSPropertyOp5
 70
     1
102
RTVSPropertyOp6
 70
     1
102
RTVSPropertyOp7
 70
     1
102
RTVSPropertyOp8
 70
     1
102
RTVSPropertyOp9
 70
     1
102
RTVSPropertyOp10
 70
     1
102
RTVSPropertyOp11
 70
     1
102
RTVSPropertyOp12
 70
     1
102
RTVSPropertyOp13
 70
     1
102
RTVSPropertyOp14
 70
     1
102
RTVSPropertyOp15
 70
     1
102
RTVSPropertyOp16
 70
     1
102
RTVSPropertyOp17
 70
     1
102
RTVSPropertyOp18
 70
     1
102
RTVSPropertyOp19
 70
     1
102
RTVSPropertyOp20
 70
     1
102
RTVSPropertyOp21
 70
     1
102
RTVSPropertyOp22
 70
     1
102
RTVSPropertyOp23
 70
     1
102
RTVSPropertyOp24
 70
     1
102
RTVSPropertyOp25
 70
     1
102
RTVSPropertyOp26
 70
     1
102
RTVSPropertyOp27
 70
     1
102
RTVSPropertyOp28
 70
     1
102
RTVSPropertyOp29
 70
     1
102
RTVSPropertyOp30
 70
     1
102
RTVSPropertyOp31
 70
     1
102
RTVSPropertyOp32
 70
     1
102
RTVSPropertyOp33
 70
     1
102
RTVSPropertyOp34
 70
     1
102
RTVSPropertyOp35
 70
     1
102
RTVSPropertyOp36
 70
     1
102
RTVSPropertyOp37
 70
     1
102
RTVSPropertyOp38
 70
     1
102
RTVSPropertyOp39
 70
     1
102
RTVSPropertyOp40
 70
     1
102
RTVSPropertyOp41
 70
     1
102
RTVSPropertyOp42
 70
     1
102
RTVSPropertyOp43
 70
     1
102
RTVSPropertyOp44
 70
     1
102
RTVSPropertyOp45
 70
     1
102
RTVSPropertyOp46
 70
     1
102
RTVSPropertyOp47
 70
     1
102
RTVSPropertyOp48
 70
     1
102
RTVSPropertyOp49
 70
     1
102
RTVSPropertyOp50
 70
     1
102
RTVSPropertyOp51
 70
     0
102
RTVSPropertyOp52
 70
     0
102
RTVSPropertyOp53
 70
     1
102
RTVSPropertyOp54
 70
     1
102
RTVSPropertyOp55
 70
     1
102
RTVSPropertyOp56
 70
     1
102
RTVSPropertyOp57
 70
     1
102
RTVSPost2010Prop28
280
     0
102
RTVSPost2010PropOp28
 70
     1
102
RTVSPost2010Prop29
280
     1
102
RTVSPost2010PropOp29
 70
     1
102
RTVSPost2010Prop30
280
     1
102
RTVSPost2010PropOp30
 70
     1
102
RTVSPost2010Prop31
280
     0
102
RTVSPost2010PropOp31
 70
     1
102
RTVSPost2010Prop32
280
     0
102
RTVSPost2010PropOp32
 70
     1
102
RTVSPost2010Prop33
280
     0
102
RTVSPost2010PropOp33
 70
     1
102
RTVSPost2010Prop34
280
     0
102
RTVSPost2010PropOp34
 70
     1
102
RTVSPost2010Prop35
280
     0
102
RTVSPost2010PropOp35
 70
     1
102
RTVSPost2010Prop36
280
     0
102
RTVSPost2010PropOp36
 70
     1
102
RTVSPost2010Prop37
 90
       50
102
RTVSPost2010PropOp37
 70
     1
102
RTVSPost2010Prop38
140
0.0
102
RTVSPost2010PropOp38
 70
     1
102
RTVSPost2010Prop39
140
1.0
102
RTVSPost2010PropOp39
 70
     1
102
RTVSPost2010Prop40
 90
        0
102
RTVSPost2010PropOp40
 70
     1
102
RTVSPost2010Prop41ColorIndex
 90
       18
102
RTVSPost2010Prop41ColorRGB
 90
        0
102
RTVSPost2010PropOp41
 70
     1
102
RTVSPost2010Prop42
 90
       50
102
RTVSPost2010PropOp42
 70
     1
102
RTVSPost2010Prop43
 90
        3
102
RTVSPost2010PropOp43
 70
     1
102
RTVSPost2010Prop44ColorIndex
 90
        5
102
RTVSPost2010Prop44ColorRGB
 90
      255
102
RTVSPost2010PropOp44
 70
     1
102
RTVSPost2010Prop45
280
     0
102
RTVSPost2010PropOp45
 70
     1
102
RTVSPost2010Prop46
 90
       50
102
RTVSPost2010PropOp46
 70
     1
102
RTVSPost2010Prop47
 90
       50
102
RTVSPost2010PropOp47
 70
     1
102
RTVSPost2010Prop48
 90
       50
102
RTVSPost2010PropOp48
 70
     1
102
RTVSPost2010Prop49
280
     0
102
RTVSPost2010PropOp49
 70
     1
102
RTVSPost2010Prop50
 90
       50
102
RTVSPost2010PropOp50
 70
     1
102
RTVSPost2010Prop51ColorIndex
 90
      256
102
RTVSPost2010Prop51ColorRGB
 90
-16777216
102
RTVSPost2010PropOp51
 70
     0
102
RTVSPost2010Prop52
140
1.0
102
RTVSPost2010PropOp52
 70
     0
102
RTVSPost2010Prop53
 90
        2
102
RTVSPost2010PropOp53
 70
     1
102
RTVSPost2010Prop54
  1
strokes_ogs.tif
102
RTVSPost2010PropOp54
 70
     1
102
RTVSPost2010Prop55
280
     0
102
RTVSPost2010PropOp55
 70
     1
102
RTVSPost2010Prop56
140
1.0
102
RTVSPost2010PropOp56
 70
     1
102
RTVSPost2010Prop57
140
1.0
102
RTVSPost2010PropOp57
 70
     1
  0
XRECORD
  5
1EC
102
{ACAD_REACTORS
330
1EB
102
}
330
1EB
100
AcDbXrecord
280
     1
102
RTVSPropertyOp0
 70
     1
102
RTVSPropertyOp1
 70
     1
102
RTVSPropertyOp2
 70
     1
102
RTVSPropertyOp3
 70
     1
102
RTVSPropertyOp4
 70
     1
102
RTVSPropertyOp5
 70
     1
102
RTVSPropertyOp6
 70
     1
102
RTVSPropertyOp7
 70
     1
102
RTVSPropertyOp8
 70
     1
102
RTVSPropertyOp9
 70
     1
102
RTVSPropertyOp10
 70
     1
102
RTVSPropertyOp11
 70
     1
102
RTVSPropertyOp12
 70
     1
102
RTVSPropertyOp13
 70
     1
102
RTVSPropertyOp14
 70
     1
102
RTVSPropertyOp15
 70
     1
102
RTVSPropertyOp16
 70
     1
102
RTVSPropertyOp17
 70
     1
102
RTVSPropertyOp18
 70
     1
102
RTVSPropertyOp19
 70
     1
102
RTVSPropertyOp20
 70
     1
102
RTVSPropertyOp21
 70
     1
102
RTVSPropertyOp22
 70
     1
102
RTVSPropertyOp23
 70
     1
102
RTVSPropertyOp24
 70
     1
102
RTVSPropertyOp25
 70
     1
102
RTVSPropertyOp26
 70
     1
102
RTVSPropertyOp27
 70
     1
102
RTVSPropertyOp28
 70
     1
102
RTVSPropertyOp29
 70
     1
102
RTVSPropertyOp30
 70
     1
102
RTVSPropertyOp31
 70
     1
102
RTVSPropertyOp32
 70
     1
102
RTVSPropertyOp33
 70
     1
102
RTVSPropertyOp34
 70
     1
102
RTVSPropertyOp35
 70
     1
102
RTVSPropertyOp36
 70
     1
102
RTVSPropertyOp37
 70
     1
102
RTVSPropertyOp38
 70
     1
102
RTVSPropertyOp39
 70
     1
102
RTVSPropertyOp40
 70
     1
102
RTVSPropertyOp41
 70
     1
102
RTVSPropertyOp42
 70
     1
102
RTVSPropertyOp43
 70
     1
102
RTVSPropertyOp44
 70
     1
102
RTVSPropertyOp45
 70
     1
102
RTVSPropertyOp46
 70
     1
102
RTVSPropertyOp47
 70
     1
102
RTVSPropertyOp48
 70
     1
102
RTVSPropertyOp49
 70
     1
102
RTVSPropertyOp50
 70
     1
102
RTVSPropertyOp51
 70
     0
102
RTVSPropertyOp52
 70
     0
102
RTVSPropertyOp53
 70
     1
102
RTVSPropertyOp54
 70
     1
102
RTVSPropertyOp55
 70
     1
102
RTVSPropertyOp56
 70
     1
102
RTVSPropertyOp57
 70
     1
102
RTVSPost2010Prop28
280
     0
102
RTVSPost2010PropOp28
 70
     1
102
RTVSPost2010Prop29
280
     1
102
RTVSPost2010PropOp29
 70
     1
102
RTVSPost2010Prop30
280
     1
102
RTVSPost2010PropOp30
 70
     1
102
RTVSPost2010Prop31
280
     0
102
RTVSPost2010PropOp31
 70
     1
102
RTVSPost2010Prop32
280
     0
102
RTVSPost2010PropOp32
 70
     1
102
RTVSPost2010Prop33
280
     0
102
RTVSPost2010PropOp33
 70
     1
102
RTVSPost2010Prop34
280
     0
102
RTVSPost2010PropOp34
 70
     1
102
RTVSPost2010Prop35
280
     0
102
RTVSPost2010PropOp35
 70
     1
102
RTVSPost2010Prop36
280
     0
102
RTVSPost2010PropOp36
 70
     1
102
RTVSPost2010Prop37
 90
       50
102
RTVSPost2010PropOp37
 70
     1
102
RTVSPost2010Prop38
140
0.0
102
RTVSPost2010PropOp38
 70
     1
102
RTVSPost2010Prop39
140
1.0
102
RTVSPost2010PropOp39
 70
     1
102
RTVSPost2010Prop40
 90
        0
102
RTVSPost2010PropOp40
 70
     1
102
RTVSPost2010Prop41ColorIndex
 90
       18
102
RTVSPost2010Prop41ColorRGB
 90
        0
102
RTVSPost2010PropOp41
 70
     1
102
RTVSPost2010Prop42
 90
       50
102
RTVSPost2010PropOp42
 70
     1
102
RTVSPost2010Prop43
 90
        3
102
RTVSPost2010PropOp43
 70
     1
102
RTVSPost2010Prop44ColorIndex
 90
        5
102
RTVSPost2010Prop44ColorRGB
 90
      255
102
RTVSPost2010PropOp44
 70
     1
102
RTVSPost2010Prop45
280
     0
102
RTVSPost2010PropOp45
 70
     1
102
RTVSPost2010Prop46
 90
       50
102
RTVSPost2010PropOp46
 70
     1
102
RTVSPost2010Prop47
 90
       50
102
RTVSPost2010PropOp47
 70
     1
102
RTVSPost2010Prop48
 90
       50
102
RTVSPost2010PropOp48
 70
     1
102
RTVSPost2010Prop49
280
     0
102
RTVSPost2010PropOp49
 70
     1
102
RTVSPost2010Prop50
 90
       50
102
RTVSPost2010PropOp50
 70
     1
102
RTVSPost2010Prop51ColorIndex
 90
      256
102
RTVSPost2010Prop51ColorRGB
 90
-16777216
102
RTVSPost2010PropOp51
 70
     0
102
RTVSPost2010Prop52
140
1.0
102
RTVSPost2010PropOp52
 70
     0
102
RTVSPost2010Prop53
 90
        2
102
RTVSPost2010PropOp53
 70
     1
102
RTVSPost2010Prop54
  1
strokes_ogs.tif
102
RTVSPost2010PropOp54
 70
     1
102
RTVSPost2010Prop55
280
     0
102
RTVSPost2010PropOp55
 70
     1
102
RTVSPost2010Prop56
140
1.0
102
RTVSPost2010PropOp56
 70
     1
102
RTVSPost2010Prop57
140
1.0
102
RTVSPost2010PropOp57
 70
     1
  0
XRECORD
  5
1F2
102
{ACAD_REACTORS
330
1F1
102
}
330
1F1
100
AcDbXrecord
280
     1
102
RTVSPropertyOp0
 70
     1
102
RTVSPropertyOp1
 70
     1
102
RTVSPropertyOp2
 70
     1
102
RTVSPropertyOp3
 70
     1
102
RTVSPropertyOp4
 70
     1
102
RTVSPropertyOp5
 70
     1
102
RTVSPropertyOp6
 70
     1
102
RTVSPropertyOp7
 70
     1
102
RTVSPropertyOp8
 70
     1
102
RTVSPropertyOp9
 70
     1
102
RTVSPropertyOp10
 70
     1
102
RTVSPropertyOp11
 70
     1
102
RTVSPropertyOp12
 70
     1
102
RTVSPropertyOp13
 70
     1
102
RTVSPropertyOp14
 70
     1
102
RTVSPropertyOp15
 70
     1
102
RTVSPropertyOp16
 70
     1
102
RTVSPropertyOp17
 70
     1
102
RTVSPropertyOp18
 70
     1
102
RTVSPropertyOp19
 70
     1
102
RTVSPropertyOp20
 70
     1
102
RTVSPropertyOp21
 70
     1
102
RTVSPropertyOp22
 70
     1
102
RTVSPropertyOp23
 70
     1
102
RTVSPropertyOp24
 70
     1
102
RTVSPropertyOp25
 70
     1
102
RTVSPropertyOp26
 70
     1
102
RTVSPropertyOp27
 70
     1
102
RTVSPropertyOp28
 70
     1
102
RTVSPropertyOp29
 70
     1
102
RTVSPropertyOp30
 70
     1
102
RTVSPropertyOp31
 70
     1
102
RTVSPropertyOp32
 70
     1
102
RTVSPropertyOp33
 70
     1
102
RTVSPropertyOp34
 70
     1
102
RTVSPropertyOp35
 70
     1
102
RTVSPropertyOp36
 70
     1
102
RTVSPropertyOp37
 70
     1
102
RTVSPropertyOp38
 70
     1
102
RTVSPropertyOp39
 70
     1
102
RTVSPropertyOp40
 70
     1
102
RTVSPropertyOp41
 70
     1
102
RTVSPropertyOp42
 70
     1
102
RTVSPropertyOp43
 70
     1
102
RTVSPropertyOp44
 70
     1
102
RTVSPropertyOp45
 70
     1
102
RTVSPropertyOp46
 70
     1
102
RTVSPropertyOp47
 70
     1
102
RTVSPropertyOp48
 70
     1
102
RTVSPropertyOp49
 70
     1
102
RTVSPropertyOp50
 70
     1
102
RTVSPropertyOp51
 70
     0
102
RTVSPropertyOp52
 70
     0
102
RTVSPropertyOp53
 70
     1
102
RTVSPropertyOp54
 70
     1
102
RTVSPropertyOp55
 70
     1
102
RTVSPropertyOp56
 70
     1
102
RTVSPropertyOp57
 70
     1
102
RTVSPost2010Prop28
280
     0
102
RTVSPost2010PropOp28
 70
     1
102
RTVSPost2010Prop29
280
     1
102
RTVSPost2010PropOp29
 70
     1
102
RTVSPost2010Prop30
280
     1
102
RTVSPost2010PropOp30
 70
     1
102
RTVSPost2010Prop31
280
     0
102
RTVSPost2010PropOp31
 70
     1
102
RTVSPost2010Prop32
280
     0
102
RTVSPost2010PropOp32
 70
     1
102
RTVSPost2010Prop33
280
     0
102
RTVSPost2010PropOp33
 70
     1
102
RTVSPost2010Prop34
280
     0
102
RTVSPost2010PropOp34
 70
     1
102
RTVSPost2010Prop35
280
     0
102
RTVSPost2010PropOp35
 70
     1
102
RTVSPost2010Prop36
280
     0
102
RTVSPost2010PropOp36
 70
     1
102
RTVSPost2010Prop37
 90
       50
102
RTVSPost2010PropOp37
 70
     1
102
RTVSPost2010Prop38
140
0.0
102
RTVSPost2010PropOp38
 70
     1
102
RTVSPost2010Prop39
140
1.0
102
RTVSPost2010PropOp39
 70
     1
102
RTVSPost2010Prop40
 90
        0
102
RTVSPost2010PropOp40
 70
     1
102
RTVSPost2010Prop41ColorIndex
 90
       18
102
RTVSPost2010Prop41ColorRGB
 90
        0
102
RTVSPost2010PropOp41
 70
     1
102
RTVSPost2010Prop42
 90
       50
102
RTVSPost2010PropOp42
 70
     1
102
RTVSPost2010Prop43
 90
        3
102
RTVSPost2010PropOp43
 70
     1
102
RTVSPost2010Prop44ColorIndex
 90
        5
102
RTVSPost2010Prop44ColorRGB
 90
      255
102
RTVSPost2010PropOp44
 70
     1
102
RTVSPost2010Prop45
280
     0
102
RTVSPost2010PropOp45
 70
     1
102
RTVSPost2010Prop46
 90
       50
102
RTVSPost2010PropOp46
 70
     1
102
RTVSPost2010Prop47
 90
       50
102
RTVSPost2010PropOp47
 70
     1
102
RTVSPost2010Prop48
 90
       50
102
RTVSPost2010PropOp48
 70
     1
102
RTVSPost2010Prop49
280
     0
102
RTVSPost2010PropOp49
 70
     1
102
RTVSPost2010Prop50
 90
       50
102
RTVSPost2010PropOp50
 70
     1
102
RTVSPost2010Prop51ColorIndex
 90
      256
102
RTVSPost2010Prop51ColorRGB
 90
-16777216
102
RTVSPost2010PropOp51
 70
     0
102
RTVSPost2010Prop52
140
1.0
102
RTVSPost2010PropOp52
 70
     0
102
RTVSPost2010Prop53
 90
        2
102
RTVSPost2010PropOp53
 70
     1
102
RTVSPost2010Prop54
  1
strokes_ogs.tif
102
RTVSPost2010PropOp54
 70
     1
102
RTVSPost2010Prop55
280
     0
102
RTVSPost2010PropOp55
 70
     1
102
RTVSPost2010Prop56
140
1.0
102
RTVSPost2010PropOp56
 70
     1
102
RTVSPost2010Prop57
140
1.0
102
RTVSPost2010PropOp57
 70
     1
  0
XRECORD
  5
206
102
{ACAD_REACTORS
330
205
102
}
330
205
100
AcDbXrecord
280
     1
102
RTVSPropertyOp0
 70
     0
102
RTVSPropertyOp1
 70
     0
102
RTVSPropertyOp2
 70
     0
102
RTVSPropertyOp3
 70
     0
102
RTVSPropertyOp4
 70
     0
102
RTVSPropertyOp5
 70
     0
102
RTVSPropertyOp6
 70
     0
102
RTVSPropertyOp7
 70
     0
102
RTVSPropertyOp8
 70
     0
102
RTVSPropertyOp9
 70
     0
102
RTVSPropertyOp10
 70
     0
102
RTVSPropertyOp11
 70
     0
102
RTVSPropertyOp12
 70
     0
102
RTVSPropertyOp13
 70
     0
102
RTVSPropertyOp14
 70
     2
102
RTVSPropertyOp15
 70
     0
102
RTVSPropertyOp16
 70
     0
102
RTVSPropertyOp17
 70
     0
102
RTVSPropertyOp18
 70
     0
102
RTVSPropertyOp19
 70
     0
102
RTVSPropertyOp20
 70
     0
102
RTVSPropertyOp21
 70
     0
102
RTVSPropertyOp22
 70
     0
102
RTVSPropertyOp23
 70
     0
102
RTVSPropertyOp24
 70
     0
102
RTVSPropertyOp25
 70
     0
102
RTVSPropertyOp26
 70
     0
102
RTVSPropertyOp27
 70
     0
102
RTVSPropertyOp28
 70
     0
102
RTVSPropertyOp29
 70
     0
102
RTVSPropertyOp30
 70
     0
102
RTVSPropertyOp31
 70
     0
102
RTVSPropertyOp32
 70
     0
102
RTVSPropertyOp33
 70
     0
102
RTVSPropertyOp34
 70
     0
102
RTVSPropertyOp35
 70
     0
102
RTVSPropertyOp36
 70
     0
102
RTVSPropertyOp37
 70
     0
102
RTVSPropertyOp38
 70
     0
102
RTVSPropertyOp39
 70
     0
102
RTVSPropertyOp40
 70
     0
102
RTVSPropertyOp41
 70
     0
102
RTVSPropertyOp42
 70
     0
102
RTVSPropertyOp43
 70
     0
102
RTVSPropertyOp44
 70
     0
102
RTVSPropertyOp45
 70
     0
102
RTVSPropertyOp46
 70
     0
102
RTVSPropertyOp47
 70
     0
102
RTVSPropertyOp48
 70
     0
102
RTVSPropertyOp49
 70
     0
102
RTVSPropertyOp50
 70
     0
102
RTVSPropertyOp51
 70
     0
102
RTVSPropertyOp52
 70
     0
102
RTVSPropertyOp53
 70
     0
102
RTVSPropertyOp54
 70
     0
102
RTVSPropertyOp55
 70
     0
102
RTVSPropertyOp56
 70
     0
102
RTVSPropertyOp57
 70
     0
102
RTVSPost2010Prop28
280
     0
102
RTVSPost2010PropOp28
 70
     0
102
RTVSPost2010Prop29
280
     1
102
RTVSPost2010PropOp29
 70
     0
102
RTVSPost2010Prop30
280
     1
102
RTVSPost2010PropOp30
 70
     0
102
RTVSPost2010Prop31
280
     0
102
RTVSPost2010PropOp31
 70
     0
102
RTVSPost2010Prop32
280
     0
102
RTVSPost2010PropOp32
 70
     0
102
RTVSPost2010Prop33
280
     0
102
RTVSPost2010PropOp33
 70
     0
102
RTVSPost2010Prop34
280
     0
102
RTVSPost2010PropOp34
 70
     0
102
RTVSPost2010Prop35
280
     0
102
RTVSPost2010PropOp35
 70
     0
102
RTVSPost2010Prop36
280
     0
102
RTVSPost2010PropOp36
 70
     0
102
RTVSPost2010Prop37
 90
       50
102
RTVSPost2010PropOp37
 70
     0
102
RTVSPost2010Prop38
140
0.0
102
RTVSPost2010PropOp38
 70
     0
102
RTVSPost2010Prop39
140
1.0
102
RTVSPost2010PropOp39
 70
     0
102
RTVSPost2010Prop40
 90
        0
102
RTVSPost2010PropOp40
 70
     0
102
RTVSPost2010Prop41ColorIndex
 90
       18
102
RTVSPost2010Prop41ColorRGB
 90
        0
102
RTVSPost2010PropOp41
 70
     0
102
RTVSPost2010Prop42
 90
       50
102
RTVSPost2010PropOp42
 70
     0
102
RTVSPost2010Prop43
 90
        3
102
RTVSPost2010PropOp43
 70
     0
102
RTVSPost2010Prop44ColorIndex
 90
        5
102
RTVSPost2010Prop44ColorRGB
 90
      255
102
RTVSPost2010PropOp44
 70
     0
102
RTVSPost2010Prop45
280
     0
102
RTVSPost2010PropOp45
 70
     0
102
RTVSPost2010Prop46
 90
       50
102
RTVSPost2010PropOp46
 70
     0
102
RTVSPost2010Prop47
 90
       50
102
RTVSPost2010PropOp47
 70
     0
102
RTVSPost2010Prop48
 90
       50
102
RTVSPost2010PropOp48
 70
     0
102
RTVSPost2010Prop49
280
     0
102
RTVSPost2010PropOp49
 70
     0
102
RTVSPost2010Prop50
 90
       50
102
RTVSPost2010PropOp50
 70
     0
102
RTVSPost2010Prop51ColorIndex
 90
      256
102
RTVSPost2010Prop51ColorRGB
 90
-16777216
102
RTVSPost2010PropOp51
 70
     0
102
RTVSPost2010Prop52
140
1.0
102
RTVSPost2010PropOp52
 70
     0
102
RTVSPost2010Prop53
 90
        2
102
RTVSPost2010PropOp53
 70
     0
102
RTVSPost2010Prop54
  1
strokes_ogs.tif
102
RTVSPost2010PropOp54
 70
     0
102
RTVSPost2010Prop55
280
     0
102
RTVSPost2010PropOp55
 70
     0
102
RTVSPost2010Prop56
140
1.0
102
RTVSPost2010PropOp56
 70
     0
102
RTVSPost2010Prop57
140
1.0
102
RTVSPost2010PropOp57
 70
     0
  0
XRECORD
  5
200
102
{ACAD_REACTORS
330
1FF
102
}
330
1FF
100
AcDbXrecord
280
     1
102
RTVSPropertyOp0
 70
     1
102
RTVSPropertyOp1
 70
     1
102
RTVSPropertyOp2
 70
     1
102
RTVSPropertyOp3
 70
     1
102
RTVSPropertyOp4
 70
     1
102
RTVSPropertyOp5
 70
     1
102
RTVSPropertyOp6
 70
     1
102
RTVSPropertyOp7
 70
     1
102
RTVSPropertyOp8
 70
     1
102
RTVSPropertyOp9
 70
     1
102
RTVSPropertyOp10
 70
     1
102
RTVSPropertyOp11
 70
     1
102
RTVSPropertyOp12
 70
     1
102
RTVSPropertyOp13
 70
     1
102
RTVSPropertyOp14
 70
     1
102
RTVSPropertyOp15
 70
     1
102
RTVSPropertyOp16
 70
     1
102
RTVSPropertyOp17
 70
     1
102
RTVSPropertyOp18
 70
     1
102
RTVSPropertyOp19
 70
     1
102
RTVSPropertyOp20
 70
     1
102
RTVSPropertyOp21
 70
     1
102
RTVSPropertyOp22
 70
     1
102
RTVSPropertyOp23
 70
     1
102
RTVSPropertyOp24
 70
     1
102
RTVSPropertyOp25
 70
     1
102
RTVSPropertyOp26
 70
     1
102
RTVSPropertyOp27
 70
     1
102
RTVSPropertyOp28
 70
     1
102
RTVSPropertyOp29
 70
     1
102
RTVSPropertyOp30
 70
     1
102
RTVSPropertyOp31
 70
     1
102
RTVSPropertyOp32
 70
     1
102
RTVSPropertyOp33
 70
     1
102
RTVSPropertyOp34
 70
     1
102
RTVSPropertyOp35
 70
     1
102
RTVSPropertyOp36
 70
     1
102
RTVSPropertyOp37
 70
     1
102
RTVSPropertyOp38
 70
     1
102
RTVSPropertyOp39
 70
     1
102
RTVSPropertyOp40
 70
     1
102
RTVSPropertyOp41
 70
     1
102
RTVSPropertyOp42
 70
     1
102
RTVSPropertyOp43
 70
     1
102
RTVSPropertyOp44
 70
     1
102
RTVSPropertyOp45
 70
     1
102
RTVSPropertyOp46
 70
     1
102
RTVSPropertyOp47
 70
     1
102
RTVSPropertyOp48
 70
     1
102
RTVSPropertyOp49
 70
     1
102
RTVSPropertyOp50
 70
     1
102
RTVSPropertyOp51
 70
     0
102
RTVSPropertyOp52
 70
     0
102
RTVSPropertyOp53
 70
     1
102
RTVSPropertyOp54
 70
     1
102
RTVSPropertyOp55
 70
     1
102
RTVSPropertyOp56
 70
     1
102
RTVSPropertyOp57
 70
     1
102
RTVSPost2010Prop28
280
     0
102
RTVSPost2010PropOp28
 70
     1
102
RTVSPost2010Prop29
280
     1
102
RTVSPost2010PropOp29
 70
     1
102
RTVSPost2010Prop30
280
     1
102
RTVSPost2010PropOp30
 70
     1
102
RTVSPost2010Prop31
280
     0
102
RTVSPost2010PropOp31
 70
     1
102
RTVSPost2010Prop32
280
     0
102
RTVSPost2010PropOp32
 70
     1
102
RTVSPost2010Prop33
280
     0
102
RTVSPost2010PropOp33
 70
     1
102
RTVSPost2010Prop34
280
     0
102
RTVSPost2010PropOp34
 70
     1
102
RTVSPost2010Prop35
280
     0
102
RTVSPost2010PropOp35
 70
     1
102
RTVSPost2010Prop36
280
     0
102
RTVSPost2010PropOp36
 70
     1
102
RTVSPost2010Prop37
 90
       50
102
RTVSPost2010PropOp37
 70
     1
102
RTVSPost2010Prop38
140
0.0
102
RTVSPost2010PropOp38
 70
     1
102
RTVSPost2010Prop39
140
1.0
102
RTVSPost2010PropOp39
 70
     1
102
RTVSPost2010Prop40
 90
        0
102
RTVSPost2010PropOp40
 70
     1
102
RTVSPost2010Prop41ColorIndex
 90
       18
102
RTVSPost2010Prop41ColorRGB
 90
        0
102
RTVSPost2010PropOp41
 70
     1
102
RTVSPost2010Prop42
 90
       50
102
RTVSPost2010PropOp42
 70
     1
102
RTVSPost2010Prop43
 90
        3
102
RTVSPost2010PropOp43
 70
     1
102
RTVSPost2010Prop44ColorIndex
 90
        5
102
RTVSPost2010Prop44ColorRGB
 90
      255
102
RTVSPost2010PropOp44
 70
     1
102
RTVSPost2010Prop45
280
     0
102
RTVSPost2010PropOp45
 70
     1
102
RTVSPost2010Prop46
 90
       50
102
RTVSPost2010PropOp46
 70
     1
102
RTVSPost2010Prop47
 90
       50
102
RTVSPost2010PropOp47
 70
     1
102
RTVSPost2010Prop48
 90
       50
102
RTVSPost2010PropOp48
 70
     1
102
RTVSPost2010Prop49
280
     0
102
RTVSPost2010PropOp49
 70
     1
102
RTVSPost2010Prop50
 90
       50
102
RTVSPost2010PropOp50
 70
     1
102
RTVSPost2010Prop51ColorIndex
 90
      256
102
RTVSPost2010Prop51ColorRGB
 90
-16777216
102
RTVSPost2010PropOp51
 70
     0
102
RTVSPost2010Prop52
140
1.0
102
RTVSPost2010PropOp52
 70
     0
102
RTVSPost2010Prop53
 90
        2
102
RTVSPost2010PropOp53
 70
     1
102
RTVSPost2010Prop54
  1
strokes_ogs.tif
102
RTVSPost2010PropOp54
 70
     1
102
RTVSPost2010Prop55
280
     0
102
RTVSPost2010PropOp55
 70
     1
102
RTVSPost2010Prop56
140
1.0
102
RTVSPost2010PropOp56
 70
     1
102
RTVSPost2010Prop57
140
1.0
102
RTVSPost2010PropOp57
 70
     1
  0
XRECORD
  5
208
102
{ACAD_REACTORS
330
207
102
}
330
207
100
AcDbXrecord
280
     1
102
RTVSPropertyOp0
 70
     0
102
RTVSPropertyOp1
 70
     0
102
RTVSPropertyOp2
 70
     0
102
RTVSPropertyOp3
 70
     0
102
RTVSPropertyOp4
 70
     0
102
RTVSPropertyOp5
 70
     0
102
RTVSPropertyOp6
 70
     0
102
RTVSPropertyOp7
 70
     0
102
RTVSPropertyOp8
 70
     0
102
RTVSPropertyOp9
 70
     0
102
RTVSPropertyOp10
 70
     0
102
RTVSPropertyOp11
 70
     0
102
RTVSPropertyOp12
 70
     0
102
RTVSPropertyOp13
 70
     0
102
RTVSPropertyOp14
 70
     2
102
RTVSPropertyOp15
 70
     0
102
RTVSPropertyOp16
 70
     0
102
RTVSPropertyOp17
 70
     0
102
RTVSPropertyOp18
 70
     0
102
RTVSPropertyOp19
 70
     0
102
RTVSPropertyOp20
 70
     0
102
RTVSPropertyOp21
 70
     0
102
RTVSPropertyOp22
 70
     0
102
RTVSPropertyOp23
 70
     0
102
RTVSPropertyOp24
 70
     0
102
RTVSPropertyOp25
 70
     0
102
RTVSPropertyOp26
 70
     0
102
RTVSPropertyOp27
 70
     0
102
RTVSPropertyOp28
 70
     0
102
RTVSPropertyOp29
 70
     0
102
RTVSPropertyOp30
 70
     0
102
RTVSPropertyOp31
 70
     0
102
RTVSPropertyOp32
 70
     0
102
RTVSPropertyOp33
 70
     0
102
RTVSPropertyOp34
 70
     0
102
RTVSPropertyOp35
 70
     0
102
RTVSPropertyOp36
 70
     0
102
RTVSPropertyOp37
 70
     0
102
RTVSPropertyOp38
 70
     0
102
RTVSPropertyOp39
 70
     0
102
RTVSPropertyOp40
 70
     0
102
RTVSPropertyOp41
 70
     0
102
RTVSPropertyOp42
 70
     0
102
RTVSPropertyOp43
 70
     0
102
RTVSPropertyOp44
 70
     0
102
RTVSPropertyOp45
 70
     0
102
RTVSPropertyOp46
 70
     0
102
RTVSPropertyOp47
 70
     0
102
RTVSPropertyOp48
 70
     0
102
RTVSPropertyOp49
 70
     0
102
RTVSPropertyOp50
 70
     0
102
RTVSPropertyOp51
 70
     0
102
RTVSPropertyOp52
 70
     0
102
RTVSPropertyOp53
 70
     0
102
RTVSPropertyOp54
 70
     0
102
RTVSPropertyOp55
 70
     0
102
RTVSPropertyOp56
 70
     0
102
RTVSPropertyOp57
 70
     0
102
RTVSPost2010Prop28
280
     0
102
RTVSPost2010PropOp28
 70
     0
102
RTVSPost2010Prop29
280
     1
102
RTVSPost2010PropOp29
 70
     0
102
RTVSPost2010Prop30
280
     1
102
RTVSPost2010PropOp30
 70
     0
102
RTVSPost2010Prop31
280
     0
102
RTVSPost2010PropOp31
 70
     0
102
RTVSPost2010Prop32
280
     0
102
RTVSPost2010PropOp32
 70
     0
102
RTVSPost2010Prop33
280
     0
102
RTVSPost2010PropOp33
 70
     0
102
RTVSPost2010Prop34
280
     0
102
RTVSPost2010PropOp34
 70
     0
102
RTVSPost2010Prop35
280
     0
102
RTVSPost2010PropOp35
 70
     0
102
RTVSPost2010Prop36
280
     0
102
RTVSPost2010PropOp36
 70
     0
102
RTVSPost2010Prop37
 90
       50
102
RTVSPost2010PropOp37
 70
     0
102
RTVSPost2010Prop38
140
0.0
102
RTVSPost2010PropOp38
 70
     0
102
RTVSPost2010Prop39
140
1.0
102
RTVSPost2010PropOp39
 70
     0
102
RTVSPost2010Prop40
 90
        0
102
RTVSPost2010PropOp40
 70
     0
102
RTVSPost2010Prop41ColorIndex
 90
       18
102
RTVSPost2010Prop41ColorRGB
 90
        0
102
RTVSPost2010PropOp41
 70
     0
102
RTVSPost2010Prop42
 90
       50
102
RTVSPost2010PropOp42
 70
     0
102
RTVSPost2010Prop43
 90
        3
102
RTVSPost2010PropOp43
 70
     0
102
RTVSPost2010Prop44ColorIndex
 90
        5
102
RTVSPost2010Prop44ColorRGB
 90
      255
102
RTVSPost2010PropOp44
 70
     0
102
RTVSPost2010Prop45
280
     0
102
RTVSPost2010PropOp45
 70
     0
102
RTVSPost2010Prop46
 90
       50
102
RTVSPost2010PropOp46
 70
     0
102
RTVSPost2010Prop47
 90
       50
102
RTVSPost2010PropOp47
 70
     0
102
RTVSPost2010Prop48
 90
       50
102
RTVSPost2010PropOp48
 70
     0
102
RTVSPost2010Prop49
280
     0
102
RTVSPost2010PropOp49
 70
     0
102
RTVSPost2010Prop50
 90
       50
102
RTVSPost2010PropOp50
 70
     0
102
RTVSPost2010Prop51ColorIndex
 90
      256
102
RTVSPost2010Prop51ColorRGB
 90
-16777216
102
RTVSPost2010PropOp51
 70
     0
102
RTVSPost2010Prop52
140
1.0
102
RTVSPost2010PropOp52
 70
     0
102
RTVSPost2010Prop53
 90
        2
102
RTVSPost2010PropOp53
 70
     0
102
RTVSPost2010Prop54
  1
strokes_ogs.tif
102
RTVSPost2010PropOp54
 70
     0
102
RTVSPost2010Prop55
280
     0
102
RTVSPost2010PropOp55
 70
     0
102
RTVSPost2010Prop56
140
1.0
102
RTVSPost2010PropOp56
 70
     0
102
RTVSPost2010Prop57
140
1.0
102
RTVSPost2010PropOp57
 70
     0
  0
XRECORD
  5
1F6
102
{ACAD_REACTORS
330
1F5
102
}
330
1F5
100
AcDbXrecord
280
     1
102
RTVSPropertyOp0
 70
     1
102
RTVSPropertyOp1
 70
     1
102
RTVSPropertyOp2
 70
     1
102
RTVSPropertyOp3
 70
     1
102
RTVSPropertyOp4
 70
     1
102
RTVSPropertyOp5
 70
     1
102
RTVSPropertyOp6
 70
     1
102
RTVSPropertyOp7
 70
     1
102
RTVSPropertyOp8
 70
     1
102
RTVSPropertyOp9
 70
     1
102
RTVSPropertyOp10
 70
     1
102
RTVSPropertyOp11
 70
     1
102
RTVSPropertyOp12
 70
     1
102
RTVSPropertyOp13
 70
     1
102
RTVSPropertyOp14
 70
     1
102
RTVSPropertyOp15
 70
     1
102
RTVSPropertyOp16
 70
     1
102
RTVSPropertyOp17
 70
     1
102
RTVSPropertyOp18
 70
     1
102
RTVSPropertyOp19
 70
     1
102
RTVSPropertyOp20
 70
     1
102
RTVSPropertyOp21
 70
     1
102
RTVSPropertyOp22
 70
     1
102
RTVSPropertyOp23
 70
     1
102
RTVSPropertyOp24
 70
     1
102
RTVSPropertyOp25
 70
     1
102
RTVSPropertyOp26
 70
     1
102
RTVSPropertyOp27
 70
     1
102
RTVSPropertyOp28
 70
     1
102
RTVSPropertyOp29
 70
     1
102
RTVSPropertyOp30
 70
     1
102
RTVSPropertyOp31
 70
     1
102
RTVSPropertyOp32
 70
     1
102
RTVSPropertyOp33
 70
     1
102
RTVSPropertyOp34
 70
     1
102
RTVSPropertyOp35
 70
     1
102
RTVSPropertyOp36
 70
     1
102
RTVSPropertyOp37
 70
     1
102
RTVSPropertyOp38
 70
     1
102
RTVSPropertyOp39
 70
     1
102
RTVSPropertyOp40
 70
     1
102
RTVSPropertyOp41
 70
     1
102
RTVSPropertyOp42
 70
     1
102
RTVSPropertyOp43
 70
     1
102
RTVSPropertyOp44
 70
     1
102
RTVSPropertyOp45
 70
     1
102
RTVSPropertyOp46
 70
     1
102
RTVSPropertyOp47
 70
     1
102
RTVSPropertyOp48
 70
     1
102
RTVSPropertyOp49
 70
     1
102
RTVSPropertyOp50
 70
     1
102
RTVSPropertyOp51
 70
     0
102
RTVSPropertyOp52
 70
     0
102
RTVSPropertyOp53
 70
     1
102
RTVSPropertyOp54
 70
     1
102
RTVSPropertyOp55
 70
     1
102
RTVSPropertyOp56
 70
     1
102
RTVSPropertyOp57
 70
     1
102
RTVSPost2010Prop28
280
     0
102
RTVSPost2010PropOp28
 70
     1
102
RTVSPost2010Prop29
280
     1
102
RTVSPost2010PropOp29
 70
     1
102
RTVSPost2010Prop30
280
     1
102
RTVSPost2010PropOp30
 70
     1
102
RTVSPost2010Prop31
280
     0
102
RTVSPost2010PropOp31
 70
     1
102
RTVSPost2010Prop32
280
     0
102
RTVSPost2010PropOp32
 70
     1
102
RTVSPost2010Prop33
280
     0
102
RTVSPost2010PropOp33
 70
     1
102
RTVSPost2010Prop34
280
     0
102
RTVSPost2010PropOp34
 70
     1
102
RTVSPost2010Prop35
280
     0
102
RTVSPost2010PropOp35
 70
     1
102
RTVSPost2010Prop36
280
     0
102
RTVSPost2010PropOp36
 70
     1
102
RTVSPost2010Prop37
 90
       50
102
RTVSPost2010PropOp37
 70
     1
102
RTVSPost2010Prop38
140
0.0
102
RTVSPost2010PropOp38
 70
     1
102
RTVSPost2010Prop39
140
1.0
102
RTVSPost2010PropOp39
 70
     1
102
RTVSPost2010Prop40
 90
        0
102
RTVSPost2010PropOp40
 70
     1
102
RTVSPost2010Prop41ColorIndex
 90
       18
102
RTVSPost2010Prop41ColorRGB
 90
        0
102
RTVSPost2010PropOp41
 70
     1
102
RTVSPost2010Prop42
 90
       50
102
RTVSPost2010PropOp42
 70
     1
102
RTVSPost2010Prop43
 90
        3
102
RTVSPost2010PropOp43
 70
     1
102
RTVSPost2010Prop44ColorIndex
 90
        5
102
RTVSPost2010Prop44ColorRGB
 90
      255
102
RTVSPost2010PropOp44
 70
     1
102
RTVSPost2010Prop45
280
     0
102
RTVSPost2010PropOp45
 70
     1
102
RTVSPost2010Prop46
 90
       50
102
RTVSPost2010PropOp46
 70
     1
102
RTVSPost2010Prop47
 90
       50
102
RTVSPost2010PropOp47
 70
     1
102
RTVSPost2010Prop48
 90
       50
102
RTVSPost2010PropOp48
 70
     1
102
RTVSPost2010Prop49
280
     0
102
RTVSPost2010PropOp49
 70
     1
102
RTVSPost2010Prop50
 90
       50
102
RTVSPost2010PropOp50
 70
     1
102
RTVSPost2010Prop51ColorIndex
 90
      256
102
RTVSPost2010Prop51ColorRGB
 90
-16777216
102
RTVSPost2010PropOp51
 70
     0
102
RTVSPost2010Prop52
140
1.0
102
RTVSPost2010PropOp52
 70
     0
102
RTVSPost2010Prop53
 90
        2
102
RTVSPost2010PropOp53
 70
     1
102
RTVSPost2010Prop54
  1
strokes_ogs.tif
102
RTVSPost2010PropOp54
 70
     1
102
RTVSPost2010Prop55
280
     0
102
RTVSPost2010PropOp55
 70
     1
102
RTVSPost2010Prop56
140
1.0
102
RTVSPost2010PropOp56
 70
     1
102
RTVSPost2010Prop57
140
1.0
102
RTVSPost2010PropOp57
 70
     1
  0
XRECORD
  5
214
102
{ACAD_REACTORS
330
213
102
}
330
213
100
AcDbXrecord
280
     1
102
RTVSPropertyOp0
 70
     1
102
RTVSPropertyOp1
 70
     1
102
RTVSPropertyOp2
 70
     1
102
RTVSPropertyOp3
 70
     1
102
RTVSPropertyOp4
 70
     1
102
RTVSPropertyOp5
 70
     1
102
RTVSPropertyOp6
 70
     1
102
RTVSPropertyOp7
 70
     1
102
RTVSPropertyOp8
 70
     1
102
RTVSPropertyOp9
 70
     1
102
RTVSPropertyOp10
 70
     1
102
RTVSPropertyOp11
 70
     1
102
RTVSPropertyOp12
 70
     1
102
RTVSPropertyOp13
 70
     1
102
RTVSPropertyOp14
 70
     1
102
RTVSPropertyOp15
 70
     1
102
RTVSPropertyOp16
 70
     1
102
RTVSPropertyOp17
 70
     1
102
RTVSPropertyOp18
 70
     1
102
RTVSPropertyOp19
 70
     1
102
RTVSPropertyOp20
 70
     1
102
RTVSPropertyOp21
 70
     1
102
RTVSPropertyOp22
 70
     1
102
RTVSPropertyOp23
 70
     1
102
RTVSPropertyOp24
 70
     1
102
RTVSPropertyOp25
 70
     1
102
RTVSPropertyOp26
 70
     1
102
RTVSPropertyOp27
 70
     1
102
RTVSPropertyOp28
 70
     1
102
RTVSPropertyOp29
 70
     1
102
RTVSPropertyOp30
 70
     1
102
RTVSPropertyOp31
 70
     1
102
RTVSPropertyOp32
 70
     1
102
RTVSPropertyOp33
 70
     1
102
RTVSPropertyOp34
 70
     1
102
RTVSPropertyOp35
 70
     1
102
RTVSPropertyOp36
 70
     1
102
RTVSPropertyOp37
 70
     1
102
RTVSPropertyOp38
 70
     1
102
RTVSPropertyOp39
 70
     1
102
RTVSPropertyOp40
 70
     1
102
RTVSPropertyOp41
 70
     1
102
RTVSPropertyOp42
 70
     1
102
RTVSPropertyOp43
 70
     1
102
RTVSPropertyOp44
 70
     1
102
RTVSPropertyOp45
 70
     1
102
RTVSPropertyOp46
 70
     1
102
RTVSPropertyOp47
 70
     1
102
RTVSPropertyOp48
 70
     1
102
RTVSPropertyOp49
 70
     1
102
RTVSPropertyOp50
 70
     1
102
RTVSPropertyOp51
 70
     0
102
RTVSPropertyOp52
 70
     0
102
RTVSPropertyOp53
 70
     1
102
RTVSPropertyOp54
 70
     1
102
RTVSPropertyOp55
 70
     1
102
RTVSPropertyOp56
 70
     1
102
RTVSPropertyOp57
 70
     1
102
RTVSPost2010Prop28
280
     0
102
RTVSPost2010PropOp28
 70
     1
102
RTVSPost2010Prop29
280
     1
102
RTVSPost2010PropOp29
 70
     1
102
RTVSPost2010Prop30
280
     1
102
RTVSPost2010PropOp30
 70
     1
102
RTVSPost2010Prop31
280
     0
102
RTVSPost2010PropOp31
 70
     1
102
RTVSPost2010Prop32
280
     0
102
RTVSPost2010PropOp32
 70
     1
102
RTVSPost2010Prop33
280
     0
102
RTVSPost2010PropOp33
 70
     1
102
RTVSPost2010Prop34
280
     0
102
RTVSPost2010PropOp34
 70
     1
102
RTVSPost2010Prop35
280
     0
102
RTVSPost2010PropOp35
 70
     1
102
RTVSPost2010Prop36
280
     0
102
RTVSPost2010PropOp36
 70
     1
102
RTVSPost2010Prop37
 90
       50
102
RTVSPost2010PropOp37
 70
     1
102
RTVSPost2010Prop38
140
0.0
102
RTVSPost2010PropOp38
 70
     1
102
RTVSPost2010Prop39
140
1.0
102
RTVSPost2010PropOp39
 70
     1
102
RTVSPost2010Prop40
 90
        0
102
RTVSPost2010PropOp40
 70
     1
102
RTVSPost2010Prop41ColorIndex
 90
       18
102
RTVSPost2010Prop41ColorRGB
 90
        0
102
RTVSPost2010PropOp41
 70
     1
102
RTVSPost2010Prop42
 90
       50
102
RTVSPost2010PropOp42
 70
     1
102
RTVSPost2010Prop43
 90
        3
102
RTVSPost2010PropOp43
 70
     1
102
RTVSPost2010Prop44ColorIndex
 90
        5
102
RTVSPost2010Prop44ColorRGB
 90
      255
102
RTVSPost2010PropOp44
 70
     1
102
RTVSPost2010Prop45
280
     0
102
RTVSPost2010PropOp45
 70
     1
102
RTVSPost2010Prop46
 90
       50
102
RTVSPost2010PropOp46
 70
     1
102
RTVSPost2010Prop47
 90
       50
102
RTVSPost2010PropOp47
 70
     1
102
RTVSPost2010Prop48
 90
       50
102
RTVSPost2010PropOp48
 70
     1
102
RTVSPost2010Prop49
280
     0
102
RTVSPost2010PropOp49
 70
     1
102
RTVSPost2010Prop50
 90
       50
102
RTVSPost2010PropOp50
 70
     1
102
RTVSPost2010Prop51ColorIndex
 90
      256
102
RTVSPost2010Prop51ColorRGB
 90
-16777216
102
RTVSPost2010PropOp51
 70
     0
102
RTVSPost2010Prop52
140
1.0
102
RTVSPost2010PropOp52
 70
     0
102
RTVSPost2010Prop53
 90
        2
102
RTVSPost2010PropOp53
 70
     1
102
RTVSPost2010Prop54
  1
strokes_ogs.tif
102
RTVSPost2010PropOp54
 70
     1
102
RTVSPost2010Prop55
280
     0
102
RTVSPost2010PropOp55
 70
     1
102
RTVSPost2010Prop56
140
1.0
102
RTVSPost2010PropOp56
 70
     1
102
RTVSPost2010Prop57
140
1.0
102
RTVSPost2010PropOp57
 70
     1
  0
XRECORD
  5
212
102
{ACAD_REACTORS
330
211
102
}
330
211
100
AcDbXrecord
280
     1
102
RTVSPropertyOp0
 70
     1
102
RTVSPropertyOp1
 70
     1
102
RTVSPropertyOp2
 70
     1
102
RTVSPropertyOp3
 70
     1
102
RTVSPropertyOp4
 70
     1
102
RTVSPropertyOp5
 70
     1
102
RTVSPropertyOp6
 70
     1
102
RTVSPropertyOp7
 70
     1
102
RTVSPropertyOp8
 70
     1
102
RTVSPropertyOp9
 70
     1
102
RTVSPropertyOp10
 70
     1
102
RTVSPropertyOp11
 70
     1
102
RTVSPropertyOp12
 70
     1
102
RTVSPropertyOp13
 70
     1
102
RTVSPropertyOp14
 70
     1
102
RTVSPropertyOp15
 70
     1
102
RTVSPropertyOp16
 70
     1
102
RTVSPropertyOp17
 70
     1
102
RTVSPropertyOp18
 70
     1
102
RTVSPropertyOp19
 70
     1
102
RTVSPropertyOp20
 70
     1
102
RTVSPropertyOp21
 70
     1
102
RTVSPropertyOp22
 70
     1
102
RTVSPropertyOp23
 70
     1
102
RTVSPropertyOp24
 70
     1
102
RTVSPropertyOp25
 70
     1
102
RTVSPropertyOp26
 70
     1
102
RTVSPropertyOp27
 70
     1
102
RTVSPropertyOp28
 70
     1
102
RTVSPropertyOp29
 70
     1
102
RTVSPropertyOp30
 70
     1
102
RTVSPropertyOp31
 70
     1
102
RTVSPropertyOp32
 70
     1
102
RTVSPropertyOp33
 70
     1
102
RTVSPropertyOp34
 70
     1
102
RTVSPropertyOp35
 70
     1
102
RTVSPropertyOp36
 70
     1
102
RTVSPropertyOp37
 70
     1
102
RTVSPropertyOp38
 70
     1
102
RTVSPropertyOp39
 70
     1
102
RTVSPropertyOp40
 70
     1
102
RTVSPropertyOp41
 70
     1
102
RTVSPropertyOp42
 70
     1
102
RTVSPropertyOp43
 70
     1
102
RTVSPropertyOp44
 70
     1
102
RTVSPropertyOp45
 70
     1
102
RTVSPropertyOp46
 70
     1
102
RTVSPropertyOp47
 70
     1
102
RTVSPropertyOp48
 70
     1
102
RTVSPropertyOp49
 70
     1
102
RTVSPropertyOp50
 70
     1
102
RTVSPropertyOp51
 70
     0
102
RTVSPropertyOp52
 70
     0
102
RTVSPropertyOp53
 70
     1
102
RTVSPropertyOp54
 70
     1
102
RTVSPropertyOp55
 70
     1
102
RTVSPropertyOp56
 70
     1
102
RTVSPropertyOp57
 70
     1
102
RTVSPost2010Prop28
280
     0
102
RTVSPost2010PropOp28
 70
     1
102
RTVSPost2010Prop29
280
     1
102
RTVSPost2010PropOp29
 70
     1
102
RTVSPost2010Prop30
280
     1
102
RTVSPost2010PropOp30
 70
     1
102
RTVSPost2010Prop31
280
     0
102
RTVSPost2010PropOp31
 70
     1
102
RTVSPost2010Prop32
280
     0
102
RTVSPost2010PropOp32
 70
     1
102
RTVSPost2010Prop33
280
     0
102
RTVSPost2010PropOp33
 70
     1
102
RTVSPost2010Prop34
280
     0
102
RTVSPost2010PropOp34
 70
     1
102
RTVSPost2010Prop35
280
     0
102
RTVSPost2010PropOp35
 70
     1
102
RTVSPost2010Prop36
280
     0
102
RTVSPost2010PropOp36
 70
     1
102
RTVSPost2010Prop37
 90
       50
102
RTVSPost2010PropOp37
 70
     1
102
RTVSPost2010Prop38
140
0.0
102
RTVSPost2010PropOp38
 70
     1
102
RTVSPost2010Prop39
140
1.0
102
RTVSPost2010PropOp39
 70
     1
102
RTVSPost2010Prop40
 90
        0
102
RTVSPost2010PropOp40
 70
     1
102
RTVSPost2010Prop41ColorIndex
 90
       18
102
RTVSPost2010Prop41ColorRGB
 90
        0
102
RTVSPost2010PropOp41
 70
     1
102
RTVSPost2010Prop42
 90
       50
102
RTVSPost2010PropOp42
 70
     1
102
RTVSPost2010Prop43
 90
        3
102
RTVSPost2010PropOp43
 70
     1
102
RTVSPost2010Prop44ColorIndex
 90
        5
102
RTVSPost2010Prop44ColorRGB
 90
      255
102
RTVSPost2010PropOp44
 70
     1
102
RTVSPost2010Prop45
280
     0
102
RTVSPost2010PropOp45
 70
     1
102
RTVSPost2010Prop46
 90
       50
102
RTVSPost2010PropOp46
 70
     1
102
RTVSPost2010Prop47
 90
       50
102
RTVSPost2010PropOp47
 70
     1
102
RTVSPost2010Prop48
 90
       50
102
RTVSPost2010PropOp48
 70
     1
102
RTVSPost2010Prop49
280
     0
102
RTVSPost2010PropOp49
 70
     1
102
RTVSPost2010Prop50
 90
       50
102
RTVSPost2010PropOp50
 70
     1
102
RTVSPost2010Prop51ColorIndex
 90
      256
102
RTVSPost2010Prop51ColorRGB
 90
-16777216
102
RTVSPost2010PropOp51
 70
     0
102
RTVSPost2010Prop52
140
1.0
102
RTVSPost2010PropOp52
 70
     0
102
RTVSPost2010Prop53
 90
        2
102
RTVSPost2010PropOp53
 70
     1
102
RTVSPost2010Prop54
  1
strokes_ogs.tif
102
RTVSPost2010PropOp54
 70
     1
102
RTVSPost2010Prop55
280
     0
102
RTVSPost2010PropOp55
 70
     1
102
RTVSPost2010Prop56
140
1.0
102
RTVSPost2010PropOp56
 70
     1
102
RTVSPost2010Prop57
140
1.0
102
RTVSPost2010PropOp57
 70
     1
  0
XRECORD
  5
20C
102
{ACAD_REACTORS
330
20B
102
}
330
20B
100
AcDbXrecord
280
     1
102
RTVSPropertyOp0
 70
     1
102
RTVSPropertyOp1
 70
     1
102
RTVSPropertyOp2
 70
     1
102
RTVSPropertyOp3
 70
     1
102
RTVSPropertyOp4
 70
     1
102
RTVSPropertyOp5
 70
     1
102
RTVSPropertyOp6
 70
     1
102
RTVSPropertyOp7
 70
     1
102
RTVSPropertyOp8
 70
     1
102
RTVSPropertyOp9
 70
     1
102
RTVSPropertyOp10
 70
     1
102
RTVSPropertyOp11
 70
     1
102
RTVSPropertyOp12
 70
     1
102
RTVSPropertyOp13
 70
     1
102
RTVSPropertyOp14
 70
     1
102
RTVSPropertyOp15
 70
     1
102
RTVSPropertyOp16
 70
     1
102
RTVSPropertyOp17
 70
     1
102
RTVSPropertyOp18
 70
     1
102
RTVSPropertyOp19
 70
     1
102
RTVSPropertyOp20
 70
     1
102
RTVSPropertyOp21
 70
     1
102
RTVSPropertyOp22
 70
     1
102
RTVSPropertyOp23
 70
     1
102
RTVSPropertyOp24
 70
     1
102
RTVSPropertyOp25
 70
     1
102
RTVSPropertyOp26
 70
     1
102
RTVSPropertyOp27
 70
     1
102
RTVSPropertyOp28
 70
     1
102
RTVSPropertyOp29
 70
     1
102
RTVSPropertyOp30
 70
     1
102
RTVSPropertyOp31
 70
     1
102
RTVSPropertyOp32
 70
     1
102
RTVSPropertyOp33
 70
     1
102
RTVSPropertyOp34
 70
     1
102
RTVSPropertyOp35
 70
     1
102
RTVSPropertyOp36
 70
     1
102
RTVSPropertyOp37
 70
     1
102
RTVSPropertyOp38
 70
     1
102
RTVSPropertyOp39
 70
     1
102
RTVSPropertyOp40
 70
     1
102
RTVSPropertyOp41
 70
     1
102
RTVSPropertyOp42
 70
     1
102
RTVSPropertyOp43
 70
     1
102
RTVSPropertyOp44
 70
     1
102
RTVSPropertyOp45
 70
     1
102
RTVSPropertyOp46
 70
     1
102
RTVSPropertyOp47
 70
     1
102
RTVSPropertyOp48
 70
     1
102
RTVSPropertyOp49
 70
     1
102
RTVSPropertyOp50
 70
     1
102
RTVSPropertyOp51
 70
     0
102
RTVSPropertyOp52
 70
     0
102
RTVSPropertyOp53
 70
     1
102
RTVSPropertyOp54
 70
     1
102
RTVSPropertyOp55
 70
     1
102
RTVSPropertyOp56
 70
     1
102
RTVSPropertyOp57
 70
     1
102
RTVSPost2010Prop28
280
     0
102
RTVSPost2010PropOp28
 70
     1
102
RTVSPost2010Prop29
280
     1
102
RTVSPost2010PropOp29
 70
     1
102
RTVSPost2010Prop30
280
     1
102
RTVSPost2010PropOp30
 70
     1
102
RTVSPost2010Prop31
280
     0
102
RTVSPost2010PropOp31
 70
     1
102
RTVSPost2010Prop32
280
     0
102
RTVSPost2010PropOp32
 70
     1
102
RTVSPost2010Prop33
280
     0
102
RTVSPost2010PropOp33
 70
     1
102
RTVSPost2010Prop34
280
     0
102
RTVSPost2010PropOp34
 70
     1
102
RTVSPost2010Prop35
280
     0
102
RTVSPost2010PropOp35
 70
     1
102
RTVSPost2010Prop36
280
     0
102
RTVSPost2010PropOp36
 70
     1
102
RTVSPost2010Prop37
 90
       50
102
RTVSPost2010PropOp37
 70
     1
102
RTVSPost2010Prop38
140
0.0
102
RTVSPost2010PropOp38
 70
     1
102
RTVSPost2010Prop39
140
1.0
102
RTVSPost2010PropOp39
 70
     1
102
RTVSPost2010Prop40
 90
        0
102
RTVSPost2010PropOp40
 70
     1
102
RTVSPost2010Prop41ColorIndex
 90
       18
102
RTVSPost2010Prop41ColorRGB
 90
        0
102
RTVSPost2010PropOp41
 70
     1
102
RTVSPost2010Prop42
 90
       50
102
RTVSPost2010PropOp42
 70
     1
102
RTVSPost2010Prop43
 90
        3
102
RTVSPost2010PropOp43
 70
     1
102
RTVSPost2010Prop44ColorIndex
 90
        5
102
RTVSPost2010Prop44ColorRGB
 90
      255
102
RTVSPost2010PropOp44
 70
     1
102
RTVSPost2010Prop45
280
     0
102
RTVSPost2010PropOp45
 70
     1
102
RTVSPost2010Prop46
 90
       50
102
RTVSPost2010PropOp46
 70
     1
102
RTVSPost2010Prop47
 90
       50
102
RTVSPost2010PropOp47
 70
     1
102
RTVSPost2010Prop48
 90
       50
102
RTVSPost2010PropOp48
 70
     1
102
RTVSPost2010Prop49
280
     0
102
RTVSPost2010PropOp49
 70
     1
102
RTVSPost2010Prop50
 90
       50
102
RTVSPost2010PropOp50
 70
     1
102
RTVSPost2010Prop51ColorIndex
 90
      256
102
RTVSPost2010Prop51ColorRGB
 90
-16777216
102
RTVSPost2010PropOp51
 70
     0
102
RTVSPost2010Prop52
140
1.0
102
RTVSPost2010PropOp52
 70
     0
102
RTVSPost2010Prop53
 90
        2
102
RTVSPost2010PropOp53
 70
     1
102
RTVSPost2010Prop54
  1
strokes_ogs.tif
102
RTVSPost2010PropOp54
 70
     1
102
RTVSPost2010Prop55
280
     0
102
RTVSPost2010PropOp55
 70
     1
102
RTVSPost2010Prop56
140
1.0
102
RTVSPost2010PropOp56
 70
     1
102
RTVSPost2010Prop57
140
1.0
102
RTVSPost2010PropOp57
 70
     1
  0
XRECORD
  5
20E
102
{ACAD_REACTORS
330
20D
102
}
330
20D
100
AcDbXrecord
280
     1
102
RTVSPropertyOp0
 70
     1
102
RTVSPropertyOp1
 70
     1
102
RTVSPropertyOp2
 70
     1
102
RTVSPropertyOp3
 70
     1
102
RTVSPropertyOp4
 70
     1
102
RTVSPropertyOp5
 70
     1
102
RTVSPropertyOp6
 70
     1
102
RTVSPropertyOp7
 70
     1
102
RTVSPropertyOp8
 70
     1
102
RTVSPropertyOp9
 70
     1
102
RTVSPropertyOp10
 70
     1
102
RTVSPropertyOp11
 70
     1
102
RTVSPropertyOp12
 70
     1
102
RTVSPropertyOp13
 70
     1
102
RTVSPropertyOp14
 70
     1
102
RTVSPropertyOp15
 70
     1
102
RTVSPropertyOp16
 70
     1
102
RTVSPropertyOp17
 70
     1
102
RTVSPropertyOp18
 70
     1
102
RTVSPropertyOp19
 70
     1
102
RTVSPropertyOp20
 70
     1
102
RTVSPropertyOp21
 70
     1
102
RTVSPropertyOp22
 70
     1
102
RTVSPropertyOp23
 70
     1
102
RTVSPropertyOp24
 70
     1
102
RTVSPropertyOp25
 70
     1
102
RTVSPropertyOp26
 70
     1
102
RTVSPropertyOp27
 70
     1
102
RTVSPropertyOp28
 70
     1
102
RTVSPropertyOp29
 70
     1
102
RTVSPropertyOp30
 70
     1
102
RTVSPropertyOp31
 70
     1
102
RTVSPropertyOp32
 70
     1
102
RTVSPropertyOp33
 70
     1
102
RTVSPropertyOp34
 70
     1
102
RTVSPropertyOp35
 70
     1
102
RTVSPropertyOp36
 70
     1
102
RTVSPropertyOp37
 70
     1
102
RTVSPropertyOp38
 70
     1
102
RTVSPropertyOp39
 70
     1
102
RTVSPropertyOp40
 70
     1
102
RTVSPropertyOp41
 70
     1
102
RTVSPropertyOp42
 70
     1
102
RTVSPropertyOp43
 70
     1
102
RTVSPropertyOp44
 70
     1
102
RTVSPropertyOp45
 70
     1
102
RTVSPropertyOp46
 70
     1
102
RTVSPropertyOp47
 70
     1
102
RTVSPropertyOp48
 70
     1
102
RTVSPropertyOp49
 70
     1
102
RTVSPropertyOp50
 70
     1
102
RTVSPropertyOp51
 70
     0
102
RTVSPropertyOp52
 70
     0
102
RTVSPropertyOp53
 70
     1
102
RTVSPropertyOp54
 70
     1
102
RTVSPropertyOp55
 70
     1
102
RTVSPropertyOp56
 70
     1
102
RTVSPropertyOp57
 70
     1
102
RTVSPost2010Prop28
280
     0
102
RTVSPost2010PropOp28
 70
     1
102
RTVSPost2010Prop29
280
     1
102
RTVSPost2010PropOp29
 70
     1
102
RTVSPost2010Prop30
280
     1
102
RTVSPost2010PropOp30
 70
     1
102
RTVSPost2010Prop31
280
     0
102
RTVSPost2010PropOp31
 70
     1
102
RTVSPost2010Prop32
280
     0
102
RTVSPost2010PropOp32
 70
     1
102
RTVSPost2010Prop33
280
     0
102
RTVSPost2010PropOp33
 70
     1
102
RTVSPost2010Prop34
280
     0
102
RTVSPost2010PropOp34
 70
     1
102
RTVSPost2010Prop35
280
     0
102
RTVSPost2010PropOp35
 70
     1
102
RTVSPost2010Prop36
280
     0
102
RTVSPost2010PropOp36
 70
     1
102
RTVSPost2010Prop37
 90
       50
102
RTVSPost2010PropOp37
 70
     1
102
RTVSPost2010Prop38
140
0.0
102
RTVSPost2010PropOp38
 70
     1
102
RTVSPost2010Prop39
140
1.0
102
RTVSPost2010PropOp39
 70
     1
102
RTVSPost2010Prop40
 90
        0
102
RTVSPost2010PropOp40
 70
     1
102
RTVSPost2010Prop41ColorIndex
 90
       18
102
RTVSPost2010Prop41ColorRGB
 90
        0
102
RTVSPost2010PropOp41
 70
     1
102
RTVSPost2010Prop42
 90
       50
102
RTVSPost2010PropOp42
 70
     1
102
RTVSPost2010Prop43
 90
        3
102
RTVSPost2010PropOp43
 70
     1
102
RTVSPost2010Prop44ColorIndex
 90
        5
102
RTVSPost2010Prop44ColorRGB
 90
      255
102
RTVSPost2010PropOp44
 70
     1
102
RTVSPost2010Prop45
280
     0
102
RTVSPost2010PropOp45
 70
     1
102
RTVSPost2010Prop46
 90
       50
102
RTVSPost2010PropOp46
 70
     1
102
RTVSPost2010Prop47
 90
       50
102
RTVSPost2010PropOp47
 70
     1
102
RTVSPost2010Prop48
 90
       50
102
RTVSPost2010PropOp48
 70
     1
102
RTVSPost2010Prop49
280
     0
102
RTVSPost2010PropOp49
 70
     1
102
RTVSPost2010Prop50
 90
       50
102
RTVSPost2010PropOp50
 70
     1
102
RTVSPost2010Prop51ColorIndex
 90
      256
102
RTVSPost2010Prop51ColorRGB
 90
-16777216
102
RTVSPost2010PropOp51
 70
     0
102
RTVSPost2010Prop52
140
1.0
102
RTVSPost2010PropOp52
 70
     0
102
RTVSPost2010Prop53
 90
        2
102
RTVSPost2010PropOp53
 70
     1
102
RTVSPost2010Prop54
  1
strokes_ogs.tif
102
RTVSPost2010PropOp54
 70
     1
102
RTVSPost2010Prop55
280
     0
102
RTVSPost2010PropOp55
 70
     1
102
RTVSPost2010Prop56
140
1.0
102
RTVSPost2010PropOp56
 70
     1
102
RTVSPost2010Prop57
140
1.0
102
RTVSPost2010PropOp57
 70
     1
  0
XRECORD
  5
1FE
102
{ACAD_REACTORS
330
1FD
102
}
330
1FD
100
AcDbXrecord
280
     1
102
RTVSPropertyOp0
 70
     1
102
RTVSPropertyOp1
 70
     1
102
RTVSPropertyOp2
 70
     1
102
RTVSPropertyOp3
 70
     1
102
RTVSPropertyOp4
 70
     1
102
RTVSPropertyOp5
 70
     1
102
RTVSPropertyOp6
 70
     1
102
RTVSPropertyOp7
 70
     1
102
RTVSPropertyOp8
 70
     1
102
RTVSPropertyOp9
 70
     1
102
RTVSPropertyOp10
 70
     1
102
RTVSPropertyOp11
 70
     1
102
RTVSPropertyOp12
 70
     1
102
RTVSPropertyOp13
 70
     1
102
RTVSPropertyOp14
 70
     1
102
RTVSPropertyOp15
 70
     1
102
RTVSPropertyOp16
 70
     1
102
RTVSPropertyOp17
 70
     1
102
RTVSPropertyOp18
 70
     1
102
RTVSPropertyOp19
 70
     1
102
RTVSPropertyOp20
 70
     1
102
RTVSPropertyOp21
 70
     1
102
RTVSPropertyOp22
 70
     1
102
RTVSPropertyOp23
 70
     1
102
RTVSPropertyOp24
 70
     1
102
RTVSPropertyOp25
 70
     1
102
RTVSPropertyOp26
 70
     1
102
RTVSPropertyOp27
 70
     1
102
RTVSPropertyOp28
 70
     1
102
RTVSPropertyOp29
 70
     1
102
RTVSPropertyOp30
 70
     1
102
RTVSPropertyOp31
 70
     1
102
RTVSPropertyOp32
 70
     1
102
RTVSPropertyOp33
 70
     1
102
RTVSPropertyOp34
 70
     1
102
RTVSPropertyOp35
 70
     1
102
RTVSPropertyOp36
 70
     1
102
RTVSPropertyOp37
 70
     1
102
RTVSPropertyOp38
 70
     1
102
RTVSPropertyOp39
 70
     1
102
RTVSPropertyOp40
 70
     1
102
RTVSPropertyOp41
 70
     1
102
RTVSPropertyOp42
 70
     1
102
RTVSPropertyOp43
 70
     1
102
RTVSPropertyOp44
 70
     1
102
RTVSPropertyOp45
 70
     1
102
RTVSPropertyOp46
 70
     1
102
RTVSPropertyOp47
 70
     1
102
RTVSPropertyOp48
 70
     1
102
RTVSPropertyOp49
 70
     1
102
RTVSPropertyOp50
 70
     1
102
RTVSPropertyOp51
 70
     0
102
RTVSPropertyOp52
 70
     0
102
RTVSPropertyOp53
 70
     1
102
RTVSPropertyOp54
 70
     1
102
RTVSPropertyOp55
 70
     1
102
RTVSPropertyOp56
 70
     1
102
RTVSPropertyOp57
 70
     1
102
RTVSPost2010Prop28
280
     0
102
RTVSPost2010PropOp28
 70
     1
102
RTVSPost2010Prop29
280
     1
102
RTVSPost2010PropOp29
 70
     1
102
RTVSPost2010Prop30
280
     1
102
RTVSPost2010PropOp30
 70
     1
102
RTVSPost2010Prop31
280
     0
102
RTVSPost2010PropOp31
 70
     1
102
RTVSPost2010Prop32
280
     0
102
RTVSPost2010PropOp32
 70
     1
102
RTVSPost2010Prop33
280
     0
102
RTVSPost2010PropOp33
 70
     1
102
RTVSPost2010Prop34
280
     0
102
RTVSPost2010PropOp34
 70
     1
102
RTVSPost2010Prop35
280
     0
102
RTVSPost2010PropOp35
 70
     1
102
RTVSPost2010Prop36
280
     0
102
RTVSPost2010PropOp36
 70
     1
102
RTVSPost2010Prop37
 90
       50
102
RTVSPost2010PropOp37
 70
     1
102
RTVSPost2010Prop38
140
0.0
102
RTVSPost2010PropOp38
 70
     1
102
RTVSPost2010Prop39
140
1.0
102
RTVSPost2010PropOp39
 70
     1
102
RTVSPost2010Prop40
 90
        0
102
RTVSPost2010PropOp40
 70
     1
102
RTVSPost2010Prop41ColorIndex
 90
       18
102
RTVSPost2010Prop41ColorRGB
 90
        0
102
RTVSPost2010PropOp41
 70
     1
102
RTVSPost2010Prop42
 90
       50
102
RTVSPost2010PropOp42
 70
     1
102
RTVSPost2010Prop43
 90
        3
102
RTVSPost2010PropOp43
 70
     1
102
RTVSPost2010Prop44ColorIndex
 90
        5
102
RTVSPost2010Prop44ColorRGB
 90
      255
102
RTVSPost2010PropOp44
 70
     1
102
RTVSPost2010Prop45
280
     0
102
RTVSPost2010PropOp45
 70
     1
102
RTVSPost2010Prop46
 90
       50
102
RTVSPost2010PropOp46
 70
     1
102
RTVSPost2010Prop47
 90
       50
102
RTVSPost2010PropOp47
 70
     1
102
RTVSPost2010Prop48
 90
       50
102
RTVSPost2010PropOp48
 70
     1
102
RTVSPost2010Prop49
280
     0
102
RTVSPost2010PropOp49
 70
     1
102
RTVSPost2010Prop50
 90
       50
102
RTVSPost2010PropOp50
 70
     1
102
RTVSPost2010Prop51ColorIndex
 90
      256
102
RTVSPost2010Prop51ColorRGB
 90
-16777216
102
RTVSPost2010PropOp51
 70
     0
102
RTVSPost2010Prop52
140
1.0
102
RTVSPost2010PropOp52
 70
     0
102
RTVSPost2010Prop53
 90
        2
102
RTVSPost2010PropOp53
 70
     1
102
RTVSPost2010Prop54
  1
strokes_ogs.tif
102
RTVSPost2010PropOp54
 70
     1
102
RTVSPost2010Prop55
280
     0
102
RTVSPost2010PropOp55
 70
     1
102
RTVSPost2010Prop56
140
1.0
102
RTVSPost2010PropOp56
 70
     1
102
RTVSPost2010Prop57
140
1.0
102
RTVSPost2010PropOp57
 70
     1
  0
XRECORD
  5
1F0
102
{ACAD_REACTORS
330
1EF
102
}
330
1EF
100
AcDbXrecord
280
     1
102
RTVSPropertyOp0
 70
     1
102
RTVSPropertyOp1
 70
     1
102
RTVSPropertyOp2
 70
     1
102
RTVSPropertyOp3
 70
     1
102
RTVSPropertyOp4
 70
     1
102
RTVSPropertyOp5
 70
     1
102
RTVSPropertyOp6
 70
     1
102
RTVSPropertyOp7
 70
     1
102
RTVSPropertyOp8
 70
     1
102
RTVSPropertyOp9
 70
     1
102
RTVSPropertyOp10
 70
     1
102
RTVSPropertyOp11
 70
     1
102
RTVSPropertyOp12
 70
     1
102
RTVSPropertyOp13
 70
     1
102
RTVSPropertyOp14
 70
     1
102
RTVSPropertyOp15
 70
     1
102
RTVSPropertyOp16
 70
     1
102
RTVSPropertyOp17
 70
     1
102
RTVSPropertyOp18
 70
     1
102
RTVSPropertyOp19
 70
     1
102
RTVSPropertyOp20
 70
     1
102
RTVSPropertyOp21
 70
     1
102
RTVSPropertyOp22
 70
     1
102
RTVSPropertyOp23
 70
     1
102
RTVSPropertyOp24
 70
     1
102
RTVSPropertyOp25
 70
     1
102
RTVSPropertyOp26
 70
     1
102
RTVSPropertyOp27
 70
     1
102
RTVSPropertyOp28
 70
     1
102
RTVSPropertyOp29
 70
     1
102
RTVSPropertyOp30
 70
     1
102
RTVSPropertyOp31
 70
     1
102
RTVSPropertyOp32
 70
     1
102
RTVSPropertyOp33
 70
     1
102
RTVSPropertyOp34
 70
     1
102
RTVSPropertyOp35
 70
     1
102
RTVSPropertyOp36
 70
     1
102
RTVSPropertyOp37
 70
     1
102
RTVSPropertyOp38
 70
     1
102
RTVSPropertyOp39
 70
     1
102
RTVSPropertyOp40
 70
     1
102
RTVSPropertyOp41
 70
     1
102
RTVSPropertyOp42
 70
     1
102
RTVSPropertyOp43
 70
     1
102
RTVSPropertyOp44
 70
     1
102
RTVSPropertyOp45
 70
     1
102
RTVSPropertyOp46
 70
     1
102
RTVSPropertyOp47
 70
     1
102
RTVSPropertyOp48
 70
     1
102
RTVSPropertyOp49
 70
     1
102
RTVSPropertyOp50
 70
     1
102
RTVSPropertyOp51
 70
     0
102
RTVSPropertyOp52
 70
     0
102
RTVSPropertyOp53
 70
     1
102
RTVSPropertyOp54
 70
     1
102
RTVSPropertyOp55
 70
     1
102
RTVSPropertyOp56
 70
     1
102
RTVSPropertyOp57
 70
     1
102
RTVSPost2010Prop28
280
     0
102
RTVSPost2010PropOp28
 70
     1
102
RTVSPost2010Prop29
280
     1
102
RTVSPost2010PropOp29
 70
     1
102
RTVSPost2010Prop30
280
     1
102
RTVSPost2010PropOp30
 70
     1
102
RTVSPost2010Prop31
280
     0
102
RTVSPost2010PropOp31
 70
     1
102
RTVSPost2010Prop32
280
     0
102
RTVSPost2010PropOp32
 70
     1
102
RTVSPost2010Prop33
280
     0
102
RTVSPost2010PropOp33
 70
     1
102
RTVSPost2010Prop34
280
     0
102
RTVSPost2010PropOp34
 70
     1
102
RTVSPost2010Prop35
280
     0
102
RTVSPost2010PropOp35
 70
     1
102
RTVSPost2010Prop36
280
     0
102
RTVSPost2010PropOp36
 70
     1
102
RTVSPost2010Prop37
 90
       50
102
RTVSPost2010PropOp37
 70
     1
102
RTVSPost2010Prop38
140
0.0
102
RTVSPost2010PropOp38
 70
     1
102
RTVSPost2010Prop39
140
1.0
102
RTVSPost2010PropOp39
 70
     1
102
RTVSPost2010Prop40
 90
        0
102
RTVSPost2010PropOp40
 70
     1
102
RTVSPost2010Prop41ColorIndex
 90
       18
102
RTVSPost2010Prop41ColorRGB
 90
        0
102
RTVSPost2010PropOp41
 70
     1
102
RTVSPost2010Prop42
 90
       50
102
RTVSPost2010PropOp42
 70
     1
102
RTVSPost2010Prop43
 90
        3
102
RTVSPost2010PropOp43
 70
     1
102
RTVSPost2010Prop44ColorIndex
 90
        5
102
RTVSPost2010Prop44ColorRGB
 90
      255
102
RTVSPost2010PropOp44
 70
     1
102
RTVSPost2010Prop45
280
     0
102
RTVSPost2010PropOp45
 70
     1
102
RTVSPost2010Prop46
 90
       50
102
RTVSPost2010PropOp46
 70
     1
102
RTVSPost2010Prop47
 90
       50
102
RTVSPost2010PropOp47
 70
     1
102
RTVSPost2010Prop48
 90
       50
102
RTVSPost2010PropOp48
 70
     1
102
RTVSPost2010Prop49
280
     0
102
RTVSPost2010PropOp49
 70
     1
102
RTVSPost2010Prop50
 90
       50
102
RTVSPost2010PropOp50
 70
     1
102
RTVSPost2010Prop51ColorIndex
 90
      256
102
RTVSPost2010Prop51ColorRGB
 90
-16777216
102
RTVSPost2010PropOp51
 70
     0
102
RTVSPost2010Prop52
140
1.0
102
RTVSPost2010PropOp52
 70
     0
102
RTVSPost2010Prop53
 90
        2
102
RTVSPost2010PropOp53
 70
     1
102
RTVSPost2010Prop54
  1
strokes_ogs.tif
102
RTVSPost2010PropOp54
 70
     1
102
RTVSPost2010Prop55
280
     0
102
RTVSPost2010PropOp55
 70
     1
102
RTVSPost2010Prop56
140
1.0
102
RTVSPost2010PropOp56
 70
     1
102
RTVSPost2010Prop57
140
1.0
102
RTVSPost2010PropOp57
 70
     1
  0
XRECORD
  5
210
102
{ACAD_REACTORS
330
20F
102
}
330
20F
100
AcDbXrecord
280
     1
102
RTVSPropertyOp0
 70
     1
102
RTVSPropertyOp1
 70
     1
102
RTVSPropertyOp2
 70
     1
102
RTVSPropertyOp3
 70
     1
102
RTVSPropertyOp4
 70
     1
102
RTVSPropertyOp5
 70
     1
102
RTVSPropertyOp6
 70
     1
102
RTVSPropertyOp7
 70
     1
102
RTVSPropertyOp8
 70
     1
102
RTVSPropertyOp9
 70
     1
102
RTVSPropertyOp10
 70
     1
102
RTVSPropertyOp11
 70
     1
102
RTVSPropertyOp12
 70
     1
102
RTVSPropertyOp13
 70
     1
102
RTVSPropertyOp14
 70
     1
102
RTVSPropertyOp15
 70
     1
102
RTVSPropertyOp16
 70
     1
102
RTVSPropertyOp17
 70
     1
102
RTVSPropertyOp18
 70
     1
102
RTVSPropertyOp19
 70
     1
102
RTVSPropertyOp20
 70
     1
102
RTVSPropertyOp21
 70
     1
102
RTVSPropertyOp22
 70
     1
102
RTVSPropertyOp23
 70
     1
102
RTVSPropertyOp24
 70
     1
102
RTVSPropertyOp25
 70
     1
102
RTVSPropertyOp26
 70
     1
102
RTVSPropertyOp27
 70
     1
102
RTVSPropertyOp28
 70
     1
102
RTVSPropertyOp29
 70
     1
102
RTVSPropertyOp30
 70
     1
102
RTVSPropertyOp31
 70
     1
102
RTVSPropertyOp32
 70
     1
102
RTVSPropertyOp33
 70
     1
102
RTVSPropertyOp34
 70
     1
102
RTVSPropertyOp35
 70
     1
102
RTVSPropertyOp36
 70
     1
102
RTVSPropertyOp37
 70
     1
102
RTVSPropertyOp38
 70
     1
102
RTVSPropertyOp39
 70
     1
102
RTVSPropertyOp40
 70
     1
102
RTVSPropertyOp41
 70
     1
102
RTVSPropertyOp42
 70
     1
102
RTVSPropertyOp43
 70
     1
102
RTVSPropertyOp44
 70
     1
102
RTVSPropertyOp45
 70
     1
102
RTVSPropertyOp46
 70
     1
102
RTVSPropertyOp47
 70
     1
102
RTVSPropertyOp48
 70
     1
102
RTVSPropertyOp49
 70
     1
102
RTVSPropertyOp50
 70
     1
102
RTVSPropertyOp51
 70
     0
102
RTVSPropertyOp52
 70
     0
102
RTVSPropertyOp53
 70
     1
102
RTVSPropertyOp54
 70
     1
102
RTVSPropertyOp55
 70
     1
102
RTVSPropertyOp56
 70
     1
102
RTVSPropertyOp57
 70
     1
102
RTVSPost2010Prop28
280
     0
102
RTVSPost2010PropOp28
 70
     1
102
RTVSPost2010Prop29
280
     1
102
RTVSPost2010PropOp29
 70
     1
102
RTVSPost2010Prop30
280
     1
102
RTVSPost2010PropOp30
 70
     1
102
RTVSPost2010Prop31
280
     0
102
RTVSPost2010PropOp31
 70
     1
102
RTVSPost2010Prop32
280
     0
102
RTVSPost2010PropOp32
 70
     1
102
RTVSPost2010Prop33
280
     0
102
RTVSPost2010PropOp33
 70
     1
102
RTVSPost2010Prop34
280
     0
102
RTVSPost2010PropOp34
 70
     1
102
RTVSPost2010Prop35
280
     0
102
RTVSPost2010PropOp35
 70
     1
102
RTVSPost2010Prop36
280
     0
102
RTVSPost2010PropOp36
 70
     1
102
RTVSPost2010Prop37
 90
       50
102
RTVSPost2010PropOp37
 70
     1
102
RTVSPost2010Prop38
140
0.0
102
RTVSPost2010PropOp38
 70
     1
102
RTVSPost2010Prop39
140
1.0
102
RTVSPost2010PropOp39
 70
     1
102
RTVSPost2010Prop40
 90
        0
102
RTVSPost2010PropOp40
 70
     1
102
RTVSPost2010Prop41ColorIndex
 90
       18
102
RTVSPost2010Prop41ColorRGB
 90
        0
102
RTVSPost2010PropOp41
 70
     1
102
RTVSPost2010Prop42
 90
       50
102
RTVSPost2010PropOp42
 70
     1
102
RTVSPost2010Prop43
 90
        3
102
RTVSPost2010PropOp43
 70
     1
102
RTVSPost2010Prop44ColorIndex
 90
        5
102
RTVSPost2010Prop44ColorRGB
 90
      255
102
RTVSPost2010PropOp44
 70
     1
102
RTVSPost2010Prop45
280
     0
102
RTVSPost2010PropOp45
 70
     1
102
RTVSPost2010Prop46
 90
       50
102
RTVSPost2010PropOp46
 70
     1
102
RTVSPost2010Prop47
 90
       50
102
RTVSPost2010PropOp47
 70
     1
102
RTVSPost2010Prop48
 90
       50
102
RTVSPost2010PropOp48
 70
     1
102
RTVSPost2010Prop49
280
     0
102
RTVSPost2010PropOp49
 70
     1
102
RTVSPost2010Prop50
 90
       50
102
RTVSPost2010PropOp50
 70
     1
102
RTVSPost2010Prop51ColorIndex
 90
      256
102
RTVSPost2010Prop51ColorRGB
 90
-16777216
102
RTVSPost2010PropOp51
 70
     0
102
RTVSPost2010Prop52
140
1.0
102
RTVSPost2010PropOp52
 70
     0
102
RTVSPost2010Prop53
 90
        2
102
RTVSPost2010PropOp53
 70
     1
102
RTVSPost2010Prop54
  1
strokes_ogs.tif
102
RTVSPost2010PropOp54
 70
     1
102
RTVSPost2010Prop55
280
     0
102
RTVSPost2010PropOp55
 70
     1
102
RTVSPost2010Prop56
140
1.0
102
RTVSPost2010PropOp56
 70
     1
102
RTVSPost2010Prop57
140
1.0
102
RTVSPost2010PropOp57
 70
     1
  0
ENDSEC
  0
EOF
