ISO-10303-21;
HEADER;
FILE_DESCRIPTION (( 'STEP AP214' ),
    '1' );
FILE_NAME ('83200780.STEP',
    '2020-09-30T05:30:48',
    ( '' ),
    ( '' ),
    'SwSTEP 2.0',
    'SolidWorks 2020',
    '' );
FILE_SCHEMA (( 'AUTOMOTIVE_DESIGN' ));
ENDSEC;

DATA;
#1 = AXIS2_PLACEMENT_3D ( 'NONE', #79, #42, #51 ) ;
#2 = CARTESIAN_POINT ( 'NONE',  ( 94.99999999999998579, 35.00000000000000000, 52.50000000000000711 ) ) ;
#3 = EDGE_CURVE ( 'NONE', #99, #298, #83, .T. ) ;
#4 = AXIS2_PLACEMENT_3D ( 'NONE', #66, #249, #13 ) ;
#5 = PRODUCT_DEFINITION_FORMATION_WITH_SPECIFIED_SOURCE ( 'ANY', '', #289, .NOT_KNOWN. ) ;
#6 = DIRECTION ( 'NONE',  ( 1.559302000878028960E-16, 0.0000000000000000000, 1.000000000000000000 ) ) ;
#7 = CARTESIAN_POINT ( 'NONE',  ( 94.99999999999998579, 0.0000000000000000000, -52.49999999999999289 ) ) ;
#8 = AXIS2_PLACEMENT_3D ( 'NONE', #113, #187, #64 ) ;
#9 = CARTESIAN_POINT ( 'NONE',  ( -95.00000000000001421, 0.0000000000000000000, 52.50000000000000711 ) ) ;
#10 = VERTEX_POINT ( 'NONE', #2 ) ;
#11 = ADVANCED_FACE ( 'NONE', ( #176 ), #104, .F. ) ;
#12 = CARTESIAN_POINT ( 'NONE',  ( 89.00000000000000000, 0.0000000000000000000, 46.50000000000000711 ) ) ;
#13 = DIRECTION ( 'NONE',  ( 0.0000000000000000000, -0.0000000000000000000, -1.000000000000000000 ) ) ;
#14 = EDGE_LOOP ( 'NONE', ( #117, #200, #125, #165 ) ) ;
#15 = VECTOR ( 'NONE', #303, 1000.000000000000000 ) ;
#16 = CARTESIAN_POINT ( 'NONE',  ( 94.99999999999998579, 35.00000000000000000, -52.49999999999999289 ) ) ;
#17 = ORIENTED_EDGE ( 'NONE', *, *, #236, .F. ) ;
#18 =( LENGTH_UNIT ( ) NAMED_UNIT ( * ) SI_UNIT ( .MILLI., .METRE. ) );
#19 = PRESENTATION_STYLE_ASSIGNMENT (( #252 ) ) ;
#20 = ADVANCED_FACE ( 'NONE', ( #22 ), #177, .T. ) ;
#21 = VERTEX_POINT ( 'NONE', #54 ) ;
#22 = FACE_OUTER_BOUND ( 'NONE', #14, .T. ) ;
#23 = AXIS2_PLACEMENT_3D ( 'NONE', #293, #321, #59 ) ;
#24 = ORIENTED_EDGE ( 'NONE', *, *, #315, .F. ) ;
#25 = EDGE_CURVE ( 'NONE', #247, #336, #107, .T. ) ;
#26 = DIRECTION ( 'NONE',  ( -1.000000000000000000, -0.0000000000000000000, -0.0000000000000000000 ) ) ;
#27 = UNCERTAINTY_MEASURE_WITH_UNIT (LENGTH_MEASURE( 1.000000000000000082E-05 ), #297, 'distance_accuracy_value', 'NONE');
#28 = CARTESIAN_POINT ( 'NONE',  ( -89.00000000000001421, 35.00000000000000000, -42.49999999999998579 ) ) ;
#29 = DIRECTION ( 'NONE',  ( 0.0000000000000000000, 0.0000000000000000000, -1.000000000000000000 ) ) ;
#30 = LINE ( 'NONE', #160, #328 ) ;
#31 = LINE ( 'NONE', #295, #319 ) ;
#32 = VECTOR ( 'NONE', #309, 1000.000000000000000 ) ;
#33 = CARTESIAN_POINT ( 'NONE',  ( -89.00000000000001421, 0.0000000000000000000, -42.49999999999998579 ) ) ;
#34 = CARTESIAN_POINT ( 'NONE',  ( -89.00000000000001421, 35.00000000000000000, -42.49999999999998579 ) ) ;
#35 = CARTESIAN_POINT ( 'NONE',  ( -89.00000000000001421, 35.00000000000000000, -42.49999999999998579 ) ) ;
#36 = DIRECTION ( 'NONE',  ( 0.0000000000000000000, 0.0000000000000000000, -1.000000000000000000 ) ) ;
#37 = ADVANCED_FACE ( 'NONE', ( #288 ), #209, .T. ) ;
#38 = VECTOR ( 'NONE', #311, 1000.000000000000000 ) ;
#39 = ORIENTED_EDGE ( 'NONE', *, *, #189, .F. ) ;
#40 = DIRECTION ( 'NONE',  ( 0.0000000000000000000, 0.0000000000000000000, 1.000000000000000000 ) ) ;
#41 = ORIENTED_EDGE ( 'NONE', *, *, #315, .T. ) ;
#42 = DIRECTION ( 'NONE',  ( 0.0000000000000000000, 0.0000000000000000000, 1.000000000000000000 ) ) ;
#43 = PLANE ( 'NONE',  #4 ) ;
#44 = VERTEX_POINT ( 'NONE', #310 ) ;
#45 = SHAPE_DEFINITION_REPRESENTATION ( #279, #233 ) ;
#46 = EDGE_LOOP ( 'NONE', ( #146, #195, #128, #329 ) ) ;
#47 = EDGE_CURVE ( 'NONE', #336, #223, #206, .T. ) ;
#48 = DIRECTION ( 'NONE',  ( 0.0000000000000000000, -0.0000000000000000000, -1.000000000000000000 ) ) ;
#49 = ORIENTED_EDGE ( 'NONE', *, *, #215, .T. ) ;
#50 = ORIENTED_EDGE ( 'NONE', *, *, #25, .T. ) ;
#51 = DIRECTION ( 'NONE',  ( 1.000000000000000000, 0.0000000000000000000, 0.0000000000000000000 ) ) ;
#52 = CARTESIAN_POINT ( 'NONE',  ( -95.00000000000001421, 35.00000000000000000, 52.50000000000000711 ) ) ;
#53 = VERTEX_POINT ( 'NONE', #284 ) ;
#54 = CARTESIAN_POINT ( 'NONE',  ( -95.00000000000001421, 0.0000000000000000000, 52.50000000000000711 ) ) ;
#55 = PRODUCT_DEFINITION_CONTEXT ( 'detailed design', #63, 'design' ) ;
#56 = EDGE_LOOP ( 'NONE', ( #70, #174, #97, #49 ) ) ;
#57 = AXIS2_PLACEMENT_3D ( 'NONE', #211, #265, #110 ) ;
#58 = FILL_AREA_STYLE_COLOUR ( '', #87 ) ;
#59 = DIRECTION ( 'NONE',  ( -1.559302000878028960E-16, 0.0000000000000000000, -1.000000000000000000 ) ) ;
#60 = LINE ( 'NONE', #190, #202 ) ;
#61 = EDGE_CURVE ( 'NONE', #333, #99, #81, .T. ) ;
#62 = DIRECTION ( 'NONE',  ( 1.000000000000000000, 0.0000000000000000000, 0.0000000000000000000 ) ) ;
#63 = APPLICATION_CONTEXT ( 'automotive_design' ) ;
#64 = DIRECTION ( 'NONE',  ( 0.0000000000000000000, 0.0000000000000000000, 1.000000000000000000 ) ) ;
#65 = EDGE_CURVE ( 'NONE', #247, #248, #78, .T. ) ;
#66 = CARTESIAN_POINT ( 'NONE',  ( 0.0000000000000000000, 35.00000000000000000, 0.0000000000000000000 ) ) ;
#67 = ORIENTED_EDGE ( 'NONE', *, *, #290, .T. ) ;
#68 = PLANE ( 'NONE',  #301 ) ;
#69 = VECTOR ( 'NONE', #237, 1000.000000000000000 ) ;
#70 = ORIENTED_EDGE ( 'NONE', *, *, #205, .F. ) ;
#71 = PLANE ( 'NONE',  #120 ) ;
#72 = MECHANICAL_DESIGN_GEOMETRIC_PRESENTATION_REPRESENTATION (  '', ( #305 ), #210 ) ;
#73 = ORIENTED_EDGE ( 'NONE', *, *, #296, .F. ) ;
#74 = CARTESIAN_POINT ( 'NONE',  ( -89.00000000000001421, 0.0000000000000000000, -42.49999999999998579 ) ) ;
#75 = ORIENTED_EDGE ( 'NONE', *, *, #296, .T. ) ;
#76 = LINE ( 'NONE', #141, #180 ) ;
#77 = ORIENTED_EDGE ( 'NONE', *, *, #290, .F. ) ;
#78 = LINE ( 'NONE', #337, #82 ) ;
#79 = CARTESIAN_POINT ( 'NONE',  ( 0.0000000000000000000, 0.0000000000000000000, 0.0000000000000000000 ) ) ;
#80 = DIRECTION ( 'NONE',  ( -1.000000000000000000, -0.0000000000000000000, -0.0000000000000000000 ) ) ;
#81 = LINE ( 'NONE', #283, #38 ) ;
#82 = VECTOR ( 'NONE', #131, 1000.000000000000000 ) ;
#83 = LINE ( 'NONE', #151, #138 ) ;
#84 = COLOUR_RGB ( '',0.7529411764705882248, 0.7529411764705882248, 0.7529411764705882248 ) ;
#85 = ORIENTED_EDGE ( 'NONE', *, *, #276, .T. ) ;
#86 = DIRECTION ( 'NONE',  ( -0.0000000000000000000, -1.000000000000000000, -0.0000000000000000000 ) ) ;
#87 = COLOUR_RGB ( '',0.7529411764705882248, 0.7529411764705882248, 0.7529411764705882248 ) ;
#88 = FACE_OUTER_BOUND ( 'NONE', #46, .T. ) ;
#89 = EDGE_CURVE ( 'NONE', #148, #99, #230, .T. ) ;
#90 = CARTESIAN_POINT ( 'NONE',  ( 89.00000000000000000, 0.0000000000000000000, -42.49999999999998579 ) ) ;
#91 = DIRECTION ( 'NONE',  ( -0.0000000000000000000, -0.0000000000000000000, 1.000000000000000000 ) ) ;
#92 = LINE ( 'NONE', #34, #266 ) ;
#93 = LINE ( 'NONE', #122, #208 ) ;
#94 = CARTESIAN_POINT ( 'NONE',  ( -95.00000000000001421, 35.00000000000000000, 52.50000000000000711 ) ) ;
#95 = EDGE_LOOP ( 'NONE', ( #171, #153, #338, #304 ) ) ;
#96 = VECTOR ( 'NONE', #257, 1000.000000000000000 ) ;
#97 = ORIENTED_EDGE ( 'NONE', *, *, #108, .T. ) ;
#98 = FACE_BOUND ( 'NONE', #197, .T. ) ;
#99 = VERTEX_POINT ( 'NONE', #103 ) ;
#100 = CARTESIAN_POINT ( 'NONE',  ( -95.00000000000001421, 35.00000000000000000, -52.49999999999999289 ) ) ;
#101 = FILL_AREA_STYLE ('',( #124 ) ) ;
#102 = ORIENTED_EDGE ( 'NONE', *, *, #236, .T. ) ;
#103 = CARTESIAN_POINT ( 'NONE',  ( -89.00000000000000000, 0.0000000000000000000, 46.50000000000000711 ) ) ;
#104 = PLANE ( 'NONE',  #154 ) ;
#105 = APPLICATION_CONTEXT ( 'automotive_design' ) ;
#106 = CARTESIAN_POINT ( 'NONE',  ( -89.00000000000000000, 35.00000000000000000, 46.50000000000000711 ) ) ;
#107 = LINE ( 'NONE', #150, #217 ) ;
#108 = EDGE_CURVE ( 'NONE', #281, #152, #204, .T. ) ;
#109 = PLANE ( 'NONE',  #57 ) ;
#110 = DIRECTION ( 'NONE',  ( -1.000000000000000000, 0.0000000000000000000, -0.0000000000000000000 ) ) ;
#111 =( GEOMETRIC_REPRESENTATION_CONTEXT ( 3 ) GLOBAL_UNCERTAINTY_ASSIGNED_CONTEXT ( ( #239 ) ) GLOBAL_UNIT_ASSIGNED_CONTEXT ( ( #322, #134, #241 ) ) REPRESENTATION_CONTEXT ( 'NONE', 'WORKASPACE' ) );
#112 = FACE_OUTER_BOUND ( 'NONE', #118, .T. ) ;
#113 = CARTESIAN_POINT ( 'NONE',  ( 94.99999999999998579, 35.00000000000000000, 52.50000000000000711 ) ) ;
#114 = AXIS2_PLACEMENT_3D ( 'NONE', #156, #157, #263 ) ;
#115 = PRODUCT_RELATED_PRODUCT_CATEGORY ( 'part', '', ( #289 ) ) ;
#116 =( NAMED_UNIT ( * ) PLANE_ANGLE_UNIT ( ) SI_UNIT ( $, .RADIAN. ) );
#117 = ORIENTED_EDGE ( 'NONE', *, *, #3, .F. ) ;
#118 = EDGE_LOOP ( 'NONE', ( #226, #219, #73, #270 ) ) ;
#119 = DIRECTION ( 'NONE',  ( 0.0000000000000000000, 0.0000000000000000000, -1.000000000000000000 ) ) ;
#120 = AXIS2_PLACEMENT_3D ( 'NONE', #198, #40, #269 ) ;
#121 = VERTEX_POINT ( 'NONE', #52 ) ;
#122 = CARTESIAN_POINT ( 'NONE',  ( -95.00000000000001421, 35.00000000000000000, 52.50000000000000711 ) ) ;
#123 = ORIENTED_EDGE ( 'NONE', *, *, #260, .F. ) ;
#124 = FILL_AREA_STYLE_COLOUR ( '', #84 ) ;
#125 = ORIENTED_EDGE ( 'NONE', *, *, #193, .T. ) ;
#126 = EDGE_CURVE ( 'NONE', #10, #53, #207, .T. ) ;
#127 =( NAMED_UNIT ( * ) SI_UNIT ( $, .STERADIAN. ) SOLID_ANGLE_UNIT ( ) );
#128 = ORIENTED_EDGE ( 'NONE', *, *, #179, .T. ) ;
#129 = STYLED_ITEM ( 'NONE', ( #158 ), #191 ) ;
#130 = CARTESIAN_POINT ( 'NONE',  ( -95.00000000000001421, 0.0000000000000000000, 52.50000000000000711 ) ) ;
#131 = DIRECTION ( 'NONE',  ( -1.000000000000000000, -0.0000000000000000000, -0.0000000000000000000 ) ) ;
#132 = CARTESIAN_POINT ( 'NONE',  ( -95.00000000000001421, 35.00000000000000000, 52.50000000000000711 ) ) ;
#133 = DIRECTION ( 'NONE',  ( -1.000000000000000000, 0.0000000000000000000, -0.0000000000000000000 ) ) ;
#134 =( NAMED_UNIT ( * ) PLANE_ANGLE_UNIT ( ) SI_UNIT ( $, .RADIAN. ) );
#135 = LINE ( 'NONE', #94, #172 ) ;
#136 = EDGE_CURVE ( 'NONE', #223, #21, #181, .T. ) ;
#137 = CARTESIAN_POINT ( 'NONE',  ( -89.00000000000000000, 35.00000000000000000, 46.50000000000000711 ) ) ;
#138 = VECTOR ( 'NONE', #234, 1000.000000000000000 ) ;
#139 = CARTESIAN_POINT ( 'NONE',  ( 89.00000000000000000, 0.0000000000000000000, -42.49999999999998579 ) ) ;
#140 = ORIENTED_EDGE ( 'NONE', *, *, #189, .T. ) ;
#141 = CARTESIAN_POINT ( 'NONE',  ( 94.99999999999998579, 0.0000000000000000000, 52.50000000000000711 ) ) ;
#142 = ORIENTED_EDGE ( 'NONE', *, *, #61, .T. ) ;
#143 = DIRECTION ( 'NONE',  ( 0.0000000000000000000, -1.000000000000000000, 0.0000000000000000000 ) ) ;
#144 = EDGE_LOOP ( 'NONE', ( #286, #123, #261, #273 ) ) ;
#145 = FACE_BOUND ( 'NONE', #170, .T. ) ;
#146 = ORIENTED_EDGE ( 'NONE', *, *, #61, .F. ) ;
#147 = DIRECTION ( 'NONE',  ( -0.0000000000000000000, -1.000000000000000000, -0.0000000000000000000 ) ) ;
#148 = VERTEX_POINT ( 'NONE', #137 ) ;
#149 = DIRECTION ( 'NONE',  ( -0.0000000000000000000, -1.000000000000000000, -0.0000000000000000000 ) ) ;
#150 = CARTESIAN_POINT ( 'NONE',  ( 94.99999999999998579, 35.00000000000000000, -52.49999999999999289 ) ) ;
#151 = CARTESIAN_POINT ( 'NONE',  ( -89.00000000000000000, 0.0000000000000000000, 46.50000000000000711 ) ) ;
#152 = VERTEX_POINT ( 'NONE', #35 ) ;
#153 = ORIENTED_EDGE ( 'NONE', *, *, #318, .F. ) ;
#154 = AXIS2_PLACEMENT_3D ( 'NONE', #132, #316, #29 ) ;
#155 = ADVANCED_FACE ( 'NONE', ( #240 ), #323, .F. ) ;
#156 = CARTESIAN_POINT ( 'NONE',  ( -95.00000000000001421, 35.00000000000000000, -52.49999999999999289 ) ) ;
#157 = DIRECTION ( 'NONE',  ( 0.0000000000000000000, 0.0000000000000000000, 1.000000000000000000 ) ) ;
#158 = PRESENTATION_STYLE_ASSIGNMENT (( #294 ) ) ;
#159 = VECTOR ( 'NONE', #280, 1000.000000000000000 ) ;
#160 = CARTESIAN_POINT ( 'NONE',  ( -95.00000000000001421, 35.00000000000000000, 52.50000000000000711 ) ) ;
#161 = ADVANCED_FACE ( 'NONE', ( #112 ), #238, .F. ) ;
#162 =( GEOMETRIC_REPRESENTATION_CONTEXT ( 3 ) GLOBAL_UNCERTAINTY_ASSIGNED_CONTEXT ( ( #27 ) ) GLOBAL_UNIT_ASSIGNED_CONTEXT ( ( #297, #116, #299 ) ) REPRESENTATION_CONTEXT ( 'NONE', 'WORKASPACE' ) );
#163 = FACE_OUTER_BOUND ( 'NONE', #246, .T. ) ;
#164 = LINE ( 'NONE', #139, #32 ) ;
#165 = ORIENTED_EDGE ( 'NONE', *, *, #260, .T. ) ;
#166 = VECTOR ( 'NONE', #212, 1000.000000000000000 ) ;
#167 = CARTESIAN_POINT ( 'NONE',  ( 0.0000000000000000000, 0.0000000000000000000, 0.0000000000000000000 ) ) ;
#168 = ORIENTED_EDGE ( 'NONE', *, *, #318, .T. ) ;
#169 = LINE ( 'NONE', #100, #159 ) ;
#170 = EDGE_LOOP ( 'NONE', ( #221, #253, #326, #308 ) ) ;
#171 = ORIENTED_EDGE ( 'NONE', *, *, #264, .F. ) ;
#172 = VECTOR ( 'NONE', #147, 1000.000000000000000 ) ;
#173 = DIRECTION ( 'NONE',  ( 1.000000000000000000, 0.0000000000000000000, 0.0000000000000000000 ) ) ;
#174 = ORIENTED_EDGE ( 'NONE', *, *, #184, .F. ) ;
#175 = PRODUCT_DEFINITION ( 'UNKNOWN', '', #5, #55 ) ;
#176 = FACE_OUTER_BOUND ( 'NONE', #291, .T. ) ;
#177 = PLANE ( 'NONE',  #334 ) ;
#178 = CARTESIAN_POINT ( 'NONE',  ( -89.00000000000000000, 35.00000000000000000, 46.50000000000000711 ) ) ;
#179 = EDGE_CURVE ( 'NONE', #152, #148, #92, .T. ) ;
#180 = VECTOR ( 'NONE', #119, 1000.000000000000000 ) ;
#181 = LINE ( 'NONE', #130, #324 ) ;
#182 = UNCERTAINTY_MEASURE_WITH_UNIT (LENGTH_MEASURE( 1.000000000000000082E-05 ), #18, 'distance_accuracy_value', 'NONE');
#183 = ORIENTED_EDGE ( 'NONE', *, *, #136, .T. ) ;
#184 = EDGE_CURVE ( 'NONE', #281, #228, #262, .T. ) ;
#185 = LINE ( 'NONE', #292, #166 ) ;
#186 = CLOSED_SHELL ( 'NONE', ( #255, #243, #161, #155, #11, #201, #225, #20, #37, #282 ) ) ;
#187 = DIRECTION ( 'NONE',  ( -1.000000000000000000, 0.0000000000000000000, 0.0000000000000000000 ) ) ;
#188 = SURFACE_STYLE_FILL_AREA ( #242 ) ;
#189 = EDGE_CURVE ( 'NONE', #248, #121, #30, .T. ) ;
#190 = CARTESIAN_POINT ( 'NONE',  ( -89.00000000000000000, 35.00000000000000000, 46.50000000000000711 ) ) ;
#191 = MANIFOLD_SOLID_BREP ( 'Aufsatz-Linear austragen1', #186 ) ;
#192 = FACE_OUTER_BOUND ( 'NONE', #331, .T. ) ;
#193 = EDGE_CURVE ( 'NONE', #148, #44, #60, .T. ) ;
#194 = CARTESIAN_POINT ( 'NONE',  ( 89.00000000000000000, 35.00000000000000000, 46.50000000000000711 ) ) ;
#195 = ORIENTED_EDGE ( 'NONE', *, *, #215, .F. ) ;
#196 = VECTOR ( 'NONE', #272, 1000.000000000000000 ) ;
#197 = EDGE_LOOP ( 'NONE', ( #250, #142, #254, #85 ) ) ;
#198 = CARTESIAN_POINT ( 'NONE',  ( -89.00000000000001421, 35.00000000000000000, -42.49999999999998579 ) ) ;
#199 = LINE ( 'NONE', #9, #15 ) ;
#200 = ORIENTED_EDGE ( 'NONE', *, *, #89, .F. ) ;
#201 = ADVANCED_FACE ( 'NONE', ( #163 ), #109, .F. ) ;
#202 = VECTOR ( 'NONE', #62, 1000.000000000000000 ) ;
#203 = DIRECTION ( 'NONE',  ( 0.0000000000000000000, 0.0000000000000000000, 1.000000000000000000 ) ) ;
#204 = LINE ( 'NONE', #28, #256 ) ;
#205 = EDGE_CURVE ( 'NONE', #228, #333, #317, .T. ) ;
#206 = LINE ( 'NONE', #312, #244 ) ;
#207 = LINE ( 'NONE', #314, #96 ) ;
#208 = VECTOR ( 'NONE', #173, 1000.000000000000000 ) ;
#209 = PLANE ( 'NONE',  #222 ) ;
#210 =( GEOMETRIC_REPRESENTATION_CONTEXT ( 3 ) GLOBAL_UNCERTAINTY_ASSIGNED_CONTEXT ( ( #182 ) ) GLOBAL_UNIT_ASSIGNED_CONTEXT ( ( #18, #306, #127 ) ) REPRESENTATION_CONTEXT ( 'NONE', 'WORKASPACE' ) );
#211 = CARTESIAN_POINT ( 'NONE',  ( -95.00000000000001421, 35.00000000000000000, 52.50000000000000711 ) ) ;
#212 = DIRECTION ( 'NONE',  ( -0.0000000000000000000, -0.0000000000000000000, -1.000000000000000000 ) ) ;
#213 = VECTOR ( 'NONE', #267, 1000.000000000000000 ) ;
#214 = PLANE ( 'NONE',  #23 ) ;
#215 = EDGE_CURVE ( 'NONE', #152, #333, #31, .T. ) ;
#216 = SURFACE_SIDE_STYLE ('',( #188 ) ) ;
#217 = VECTOR ( 'NONE', #259, 1000.000000000000000 ) ;
#218 = EDGE_CURVE ( 'NONE', #44, #281, #185, .T. ) ;
#219 = ORIENTED_EDGE ( 'NONE', *, *, #25, .F. ) ;
#220 = LINE ( 'NONE', #194, #196 ) ;
#221 = ORIENTED_EDGE ( 'NONE', *, *, #179, .F. ) ;
#222 = AXIS2_PLACEMENT_3D ( 'NONE', #235, #335, #203 ) ;
#223 = VERTEX_POINT ( 'NONE', #320 ) ;
#224 = FACE_OUTER_BOUND ( 'NONE', #95, .T. ) ;
#225 = ADVANCED_FACE ( 'NONE', ( #88 ), #214, .T. ) ;
#226 = ORIENTED_EDGE ( 'NONE', *, *, #264, .T. ) ;
#227 = SURFACE_STYLE_FILL_AREA ( #101 ) ;
#228 = VERTEX_POINT ( 'NONE', #90 ) ;
#229 = VECTOR ( 'NONE', #149, 1000.000000000000000 ) ;
#230 = LINE ( 'NONE', #106, #229 ) ;
#231 = DIRECTION ( 'NONE',  ( -0.0000000000000000000, -0.0000000000000000000, 1.000000000000000000 ) ) ;
#232 = ORIENTED_EDGE ( 'NONE', *, *, #126, .F. ) ;
#233 = ADVANCED_BREP_SHAPE_REPRESENTATION ( '83200780', ( #191, #1 ), #162 ) ;
#234 = DIRECTION ( 'NONE',  ( 1.000000000000000000, 0.0000000000000000000, 0.0000000000000000000 ) ) ;
#235 = CARTESIAN_POINT ( 'NONE',  ( 89.00000000000000000, 35.00000000000000000, -42.49999999999998579 ) ) ;
#236 = EDGE_CURVE ( 'NONE', #121, #21, #135, .T. ) ;
#237 = DIRECTION ( 'NONE',  ( -0.0000000000000000000, -1.000000000000000000, -0.0000000000000000000 ) ) ;
#238 = PLANE ( 'NONE',  #8 ) ;
#239 = UNCERTAINTY_MEASURE_WITH_UNIT (LENGTH_MEASURE( 1.000000000000000082E-05 ), #322, 'distance_accuracy_value', 'NONE');
#240 = FACE_OUTER_BOUND ( 'NONE', #275, .T. ) ;
#241 =( NAMED_UNIT ( * ) SI_UNIT ( $, .STERADIAN. ) SOLID_ANGLE_UNIT ( ) );
#242 = FILL_AREA_STYLE ('',( #58 ) ) ;
#243 = ADVANCED_FACE ( 'NONE', ( #224, #98 ), #68, .T. ) ;
#244 = VECTOR ( 'NONE', #26, 1000.000000000000000 ) ;
#245 = CARTESIAN_POINT ( 'NONE',  ( 89.00000000000000000, 35.00000000000000000, -42.49999999999998579 ) ) ;
#246 = EDGE_LOOP ( 'NONE', ( #168, #232, #77, #102 ) ) ;
#247 = VERTEX_POINT ( 'NONE', #16 ) ;
#248 = VERTEX_POINT ( 'NONE', #307 ) ;
#249 = DIRECTION ( 'NONE',  ( 0.0000000000000000000, -1.000000000000000000, 0.0000000000000000000 ) ) ;
#250 = ORIENTED_EDGE ( 'NONE', *, *, #205, .T. ) ;
#251 = APPLICATION_PROTOCOL_DEFINITION ( 'draft international standard', 'automotive_design', 1998, #63 ) ;
#252 = SURFACE_STYLE_USAGE ( .BOTH. , #332 ) ;
#253 = ORIENTED_EDGE ( 'NONE', *, *, #108, .F. ) ;
#254 = ORIENTED_EDGE ( 'NONE', *, *, #3, .T. ) ;
#255 = ADVANCED_FACE ( 'NONE', ( #192, #145 ), #43, .F. ) ;
#256 = VECTOR ( 'NONE', #80, 1000.000000000000000 ) ;
#257 = DIRECTION ( 'NONE',  ( -0.0000000000000000000, -1.000000000000000000, -0.0000000000000000000 ) ) ;
#258 = DIRECTION ( 'NONE',  ( 0.0000000000000000000, 0.0000000000000000000, -1.000000000000000000 ) ) ;
#259 = DIRECTION ( 'NONE',  ( -0.0000000000000000000, -1.000000000000000000, -0.0000000000000000000 ) ) ;
#260 = EDGE_CURVE ( 'NONE', #44, #298, #220, .T. ) ;
#261 = ORIENTED_EDGE ( 'NONE', *, *, #218, .T. ) ;
#262 = LINE ( 'NONE', #268, #69 ) ;
#263 = DIRECTION ( 'NONE',  ( 1.000000000000000000, 0.0000000000000000000, -0.0000000000000000000 ) ) ;
#264 = EDGE_CURVE ( 'NONE', #53, #336, #76, .T. ) ;
#265 = DIRECTION ( 'NONE',  ( 0.0000000000000000000, 0.0000000000000000000, -1.000000000000000000 ) ) ;
#266 = VECTOR ( 'NONE', #6, 1000.000000000000000 ) ;
#267 = DIRECTION ( 'NONE',  ( -1.000000000000000000, -0.0000000000000000000, -0.0000000000000000000 ) ) ;
#268 = CARTESIAN_POINT ( 'NONE',  ( 89.00000000000000000, 35.00000000000000000, -42.49999999999998579 ) ) ;
#269 = DIRECTION ( 'NONE',  ( 1.000000000000000000, 0.0000000000000000000, -0.0000000000000000000 ) ) ;
#270 = ORIENTED_EDGE ( 'NONE', *, *, #126, .T. ) ;
#271 = PRESENTATION_LAYER_ASSIGNMENT (  '', '', ( #129 ) ) ;
#272 = DIRECTION ( 'NONE',  ( -0.0000000000000000000, -1.000000000000000000, -0.0000000000000000000 ) ) ;
#273 = ORIENTED_EDGE ( 'NONE', *, *, #184, .T. ) ;
#274 = APPLICATION_PROTOCOL_DEFINITION ( 'draft international standard', 'automotive_design', 1998, #105 ) ;
#275 = EDGE_LOOP ( 'NONE', ( #327, #24, #300, #50 ) ) ;
#276 = EDGE_CURVE ( 'NONE', #298, #228, #164, .T. ) ;
#277 = LINE ( 'NONE', #325, #313 ) ;
#278 = ORIENTED_EDGE ( 'NONE', *, *, #65, .T. ) ;
#279 = PRODUCT_DEFINITION_SHAPE ( 'NONE', 'NONE',  #175 ) ;
#280 = DIRECTION ( 'NONE',  ( -0.0000000000000000000, -1.000000000000000000, -0.0000000000000000000 ) ) ;
#281 = VERTEX_POINT ( 'NONE', #245 ) ;
#282 = ADVANCED_FACE ( 'NONE', ( #330 ), #71, .T. ) ;
#283 = CARTESIAN_POINT ( 'NONE',  ( -89.00000000000001421, 0.0000000000000000000, -42.49999999999998579 ) ) ;
#284 = CARTESIAN_POINT ( 'NONE',  ( 94.99999999999998579, 0.0000000000000000000, 52.50000000000000711 ) ) ;
#285 = MECHANICAL_DESIGN_GEOMETRIC_PRESENTATION_REPRESENTATION (  '', ( #129 ), #111 ) ;
#286 = ORIENTED_EDGE ( 'NONE', *, *, #276, .F. ) ;
#287 = PRESENTATION_LAYER_ASSIGNMENT (  '', '', ( #305 ) ) ;
#288 = FACE_OUTER_BOUND ( 'NONE', #144, .T. ) ;
#289 = PRODUCT ( '83200780', '83200780', '', ( #302 ) ) ;
#290 = EDGE_CURVE ( 'NONE', #121, #10, #93, .T. ) ;
#291 = EDGE_LOOP ( 'NONE', ( #183, #17, #39, #41 ) ) ;
#292 = CARTESIAN_POINT ( 'NONE',  ( 89.00000000000000000, 35.00000000000000000, -42.49999999999998579 ) ) ;
#293 = CARTESIAN_POINT ( 'NONE',  ( -89.00000000000001421, 35.00000000000000000, -42.49999999999998579 ) ) ;
#294 = SURFACE_STYLE_USAGE ( .BOTH. , #216 ) ;
#295 = CARTESIAN_POINT ( 'NONE',  ( -89.00000000000001421, 35.00000000000000000, -42.49999999999998579 ) ) ;
#296 = EDGE_CURVE ( 'NONE', #10, #247, #277, .T. ) ;
#297 =( LENGTH_UNIT ( ) NAMED_UNIT ( * ) SI_UNIT ( .MILLI., .METRE. ) );
#298 = VERTEX_POINT ( 'NONE', #12 ) ;
#299 =( NAMED_UNIT ( * ) SI_UNIT ( $, .STERADIAN. ) SOLID_ANGLE_UNIT ( ) );
#300 = ORIENTED_EDGE ( 'NONE', *, *, #65, .F. ) ;
#301 = AXIS2_PLACEMENT_3D ( 'NONE', #167, #143, #48 ) ;
#302 = PRODUCT_CONTEXT ( 'NONE', #105, 'mechanical' ) ;
#303 = DIRECTION ( 'NONE',  ( 1.000000000000000000, 0.0000000000000000000, 0.0000000000000000000 ) ) ;
#304 = ORIENTED_EDGE ( 'NONE', *, *, #47, .F. ) ;
#305 = STYLED_ITEM ( 'NONE', ( #19 ), #233 ) ;
#306 =( NAMED_UNIT ( * ) PLANE_ANGLE_UNIT ( ) SI_UNIT ( $, .RADIAN. ) );
#307 = CARTESIAN_POINT ( 'NONE',  ( -95.00000000000001421, 35.00000000000000000, -52.49999999999999289 ) ) ;
#308 = ORIENTED_EDGE ( 'NONE', *, *, #193, .F. ) ;
#309 = DIRECTION ( 'NONE',  ( -0.0000000000000000000, -0.0000000000000000000, -1.000000000000000000 ) ) ;
#310 = CARTESIAN_POINT ( 'NONE',  ( 89.00000000000000000, 35.00000000000000000, 46.50000000000000711 ) ) ;
#311 = DIRECTION ( 'NONE',  ( 1.559302000878028960E-16, 0.0000000000000000000, 1.000000000000000000 ) ) ;
#312 = CARTESIAN_POINT ( 'NONE',  ( -95.00000000000001421, 0.0000000000000000000, -52.49999999999999289 ) ) ;
#313 = VECTOR ( 'NONE', #36, 1000.000000000000000 ) ;
#314 = CARTESIAN_POINT ( 'NONE',  ( 94.99999999999998579, 35.00000000000000000, 52.50000000000000711 ) ) ;
#315 = EDGE_CURVE ( 'NONE', #248, #223, #169, .T. ) ;
#316 = DIRECTION ( 'NONE',  ( 1.000000000000000000, -0.0000000000000000000, 0.0000000000000000000 ) ) ;
#317 = LINE ( 'NONE', #33, #213 ) ;
#318 = EDGE_CURVE ( 'NONE', #21, #53, #199, .T. ) ;
#319 = VECTOR ( 'NONE', #86, 1000.000000000000000 ) ;
#320 = CARTESIAN_POINT ( 'NONE',  ( -95.00000000000001421, 0.0000000000000000000, -52.49999999999999289 ) ) ;
#321 = DIRECTION ( 'NONE',  ( 1.000000000000000000, 0.0000000000000000000, -1.559302000878028960E-16 ) ) ;
#322 =( LENGTH_UNIT ( ) NAMED_UNIT ( * ) SI_UNIT ( .MILLI., .METRE. ) );
#323 = PLANE ( 'NONE',  #114 ) ;
#324 = VECTOR ( 'NONE', #231, 1000.000000000000000 ) ;
#325 = CARTESIAN_POINT ( 'NONE',  ( 94.99999999999998579, 35.00000000000000000, 52.50000000000000711 ) ) ;
#326 = ORIENTED_EDGE ( 'NONE', *, *, #218, .F. ) ;
#327 = ORIENTED_EDGE ( 'NONE', *, *, #47, .T. ) ;
#328 = VECTOR ( 'NONE', #91, 1000.000000000000000 ) ;
#329 = ORIENTED_EDGE ( 'NONE', *, *, #89, .T. ) ;
#330 = FACE_OUTER_BOUND ( 'NONE', #56, .T. ) ;
#331 = EDGE_LOOP ( 'NONE', ( #75, #278, #140, #67 ) ) ;
#332 = SURFACE_SIDE_STYLE ('',( #227 ) ) ;
#333 = VERTEX_POINT ( 'NONE', #74 ) ;
#334 = AXIS2_PLACEMENT_3D ( 'NONE', #178, #258, #133 ) ;
#335 = DIRECTION ( 'NONE',  ( -1.000000000000000000, 0.0000000000000000000, 0.0000000000000000000 ) ) ;
#336 = VERTEX_POINT ( 'NONE', #7 ) ;
#337 = CARTESIAN_POINT ( 'NONE',  ( -95.00000000000001421, 35.00000000000000000, -52.49999999999999289 ) ) ;
#338 = ORIENTED_EDGE ( 'NONE', *, *, #136, .F. ) ;
ENDSEC;
END-ISO-10303-21;
