ISO-10303-21;
HEADER;
FILE_DESCRIPTION (( 'STEP AP214' ),
    '1' );
FILE_NAME ('83070780.STEP',
    '2022-03-17T10:47:39',
    ( '' ),
    ( '' ),
    'SwSTEP 2.0',
    'SolidWorks 2020',
    '' );
FILE_SCHEMA (( 'AUTOMOTIVE_DESIGN' ));
ENDSEC;

DATA;
#1 = DIRECTION ( 'NONE',  ( -0.0000000000000000000, -1.000000000000000000, -0.0000000000000000000 ) ) ;
#2 = PLANE ( 'NONE',  #144 ) ;
#3 = ORIENTED_EDGE ( 'NONE', *, *, #59, .T. ) ;
#4 = PLANE ( 'NONE',  #259 ) ;
#5 = VERTEX_POINT ( 'NONE', #198 ) ;
#6 = FACE_OUTER_BOUND ( 'NONE', #25, .T. ) ;
#7 = DIRECTION ( 'NONE',  ( -0.0000000000000000000, -1.000000000000000000, -0.0000000000000000000 ) ) ;
#8 = EDGE_LOOP ( 'NONE', ( #52, #270, #84, #217 ) ) ;
#9 = DIRECTION ( 'NONE',  ( 1.000000000000000000, 0.0000000000000000000, 0.0000000000000000000 ) ) ;
#10 = EDGE_CURVE ( 'NONE', #107, #39, #251, .T. ) ;
#11 = EDGE_LOOP ( 'NONE', ( #292, #195, #266, #165 ) ) ;
#12 = ORIENTED_EDGE ( 'NONE', *, *, #280, .F. ) ;
#13 = DIRECTION ( 'NONE',  ( -1.000000000000000000, 0.0000000000000000000, -3.469446951953614189E-16 ) ) ;
#14 = DIRECTION ( 'NONE',  ( -0.0000000000000000000, -1.000000000000000000, -0.0000000000000000000 ) ) ;
#15 = ORIENTED_EDGE ( 'NONE', *, *, #213, .F. ) ;
#16 = VERTEX_POINT ( 'NONE', #196 ) ;
#17 = VECTOR ( 'NONE', #201, 1000.000000000000000 ) ;
#18 = CARTESIAN_POINT ( 'NONE',  ( -225.0000000000000853, 17.50000000000000000, 0.0000000000000000000 ) ) ;
#19 = DIRECTION ( 'NONE',  ( 1.227772323179931743E-16, -0.0000000000000000000, 1.000000000000000000 ) ) ;
#20 = DIRECTION ( 'NONE',  ( -6.938893903907228378E-16, 0.0000000000000000000, -1.000000000000000000 ) ) ;
#21 = CARTESIAN_POINT ( 'NONE',  ( -219.0000000000000284, 17.50000000000000000, 9.999999999999994671 ) ) ;
#22 = LINE ( 'NONE', #44, #74 ) ;
#23 = VECTOR ( 'NONE', #81, 1000.000000000000000 ) ;
#24 = LINE ( 'NONE', #233, #222 ) ;
#25 = EDGE_LOOP ( 'NONE', ( #264, #110, #235, #66 ) ) ;
#26 = FACE_OUTER_BOUND ( 'NONE', #243, .T. ) ;
#27 = ORIENTED_EDGE ( 'NONE', *, *, #47, .T. ) ;
#28 = LINE ( 'NONE', #297, #199 ) ;
#29 = ORIENTED_EDGE ( 'NONE', *, *, #10, .T. ) ;
#30 = EDGE_CURVE ( 'NONE', #5, #167, #60, .T. ) ;
#31 = DIRECTION ( 'NONE',  ( -0.0000000000000000000, -1.000000000000000000, -0.0000000000000000000 ) ) ;
#32 = ORIENTED_EDGE ( 'NONE', *, *, #157, .T. ) ;
#33 = VECTOR ( 'NONE', #177, 1000.000000000000000 ) ;
#34 = EDGE_LOOP ( 'NONE', ( #15, #307, #89, #214 ) ) ;
#35 = PRODUCT_DEFINITION_FORMATION_WITH_SPECIFIED_SOURCE ( 'ANY', '', #71, .NOT_KNOWN. ) ;
#36 = LINE ( 'NONE', #281, #286 ) ;
#37 = CLOSED_SHELL ( 'NONE', ( #277, #108, #127, #314, #75, #135, #102, #239, #211, #146 ) ) ;
#38 = SURFACE_SIDE_STYLE ('',( #276 ) ) ;
#39 = VERTEX_POINT ( 'NONE', #223 ) ;
#40 = DIRECTION ( 'NONE',  ( -3.469446951953614189E-16, 0.0000000000000000000, 1.000000000000000000 ) ) ;
#41 = FILL_AREA_STYLE_COLOUR ( '', #189 ) ;
#42 = DIRECTION ( 'NONE',  ( -0.0000000000000000000, -1.000000000000000000, -0.0000000000000000000 ) ) ;
#43 = CARTESIAN_POINT ( 'NONE',  ( 219.0000000000000000, 17.50000000000000000, 73.99999999999994316 ) ) ;
#44 = CARTESIAN_POINT ( 'NONE',  ( -225.0000000000000284, -17.50000000000000000, 80.00000000000000000 ) ) ;
#45 = VECTOR ( 'NONE', #31, 1000.000000000000000 ) ;
#46 = PLANE ( 'NONE',  #125 ) ;
#47 = EDGE_CURVE ( 'NONE', #296, #16, #279, .T. ) ;
#48 = CARTESIAN_POINT ( 'NONE',  ( 219.0000000000000000, 17.50000000000000000, 73.99999999999994316 ) ) ;
#49 = ORIENTED_EDGE ( 'NONE', *, *, #280, .T. ) ;
#50 = AXIS2_PLACEMENT_3D ( 'NONE', #291, #164, #78 ) ;
#51 = CARTESIAN_POINT ( 'NONE',  ( -219.0000000000000000, 17.50000000000000000, 74.00000000000000000 ) ) ;
#52 = ORIENTED_EDGE ( 'NONE', *, *, #197, .F. ) ;
#53 = FACE_BOUND ( 'NONE', #8, .T. ) ;
#54 = EDGE_CURVE ( 'NONE', #79, #141, #143, .T. ) ;
#55 = ORIENTED_EDGE ( 'NONE', *, *, #330, .F. ) ;
#56 = DIRECTION ( 'NONE',  ( -1.233581138472396211E-16, 0.0000000000000000000, -1.000000000000000000 ) ) ;
#57 = EDGE_CURVE ( 'NONE', #91, #296, #303, .T. ) ;
#58 = ORIENTED_EDGE ( 'NONE', *, *, #304, .T. ) ;
#59 = EDGE_CURVE ( 'NONE', #79, #91, #36, .T. ) ;
#60 = LINE ( 'NONE', #275, #121 ) ;
#61 = AXIS2_PLACEMENT_3D ( 'NONE', #331, #13, #40 ) ;
#62 = PRODUCT_DEFINITION_SHAPE ( 'NONE', 'NONE',  #172 ) ;
#63 = CARTESIAN_POINT ( 'NONE',  ( 219.0000000000000284, 17.50000000000000000, 9.999999999999941380 ) ) ;
#64 = VECTOR ( 'NONE', #1, 1000.000000000000000 ) ;
#65 = EDGE_LOOP ( 'NONE', ( #160, #200, #58, #320 ) ) ;
#66 = ORIENTED_EDGE ( 'NONE', *, *, #131, .T. ) ;
#67 = CARTESIAN_POINT ( 'NONE',  ( -225.0000000000000284, 17.50000000000000000, 80.00000000000000000 ) ) ;
#68 =( LENGTH_UNIT ( ) NAMED_UNIT ( * ) SI_UNIT ( .MILLI., .METRE. ) );
#69 = UNCERTAINTY_MEASURE_WITH_UNIT (LENGTH_MEASURE( 1.000000000000000082E-05 ), #140, 'distance_accuracy_value', 'NONE');
#70 = CARTESIAN_POINT ( 'NONE',  ( 219.0000000000000000, -17.50000000000000000, 73.99999999999994316 ) ) ;
#71 = PRODUCT ( '83070780', '83070780', '', ( #111 ) ) ;
#72 = EDGE_CURVE ( 'NONE', #137, #93, #179, .T. ) ;
#73 = LINE ( 'NONE', #95, #178 ) ;
#74 = VECTOR ( 'NONE', #257, 1000.000000000000000 ) ;
#75 = ADVANCED_FACE ( 'NONE', ( #145 ), #308, .F. ) ;
#76 = LINE ( 'NONE', #122, #118 ) ;
#77 = LINE ( 'NONE', #105, #241 ) ;
#78 = DIRECTION ( 'NONE',  ( 0.0000000000000000000, 0.0000000000000000000, -1.000000000000000000 ) ) ;
#79 = VERTEX_POINT ( 'NONE', #248 ) ;
#80 = VECTOR ( 'NONE', #299, 1000.000000000000000 ) ;
#81 = DIRECTION ( 'NONE',  ( 1.000000000000000000, 0.0000000000000000000, -1.233581138472395964E-16 ) ) ;
#82 = ORIENTED_EDGE ( 'NONE', *, *, #249, .T. ) ;
#83 = LINE ( 'NONE', #209, #80 ) ;
#84 = ORIENTED_EDGE ( 'NONE', *, *, #57, .F. ) ;
#85 = AXIS2_PLACEMENT_3D ( 'NONE', #156, #98, #313 ) ;
#86 = FACE_OUTER_BOUND ( 'NONE', #65, .T. ) ;
#87 = EDGE_LOOP ( 'NONE', ( #187, #242, #32, #326 ) ) ;
#88 = CARTESIAN_POINT ( 'NONE',  ( 219.0000000000000000, 17.50000000000000000, 73.99999999999994316 ) ) ;
#89 = ORIENTED_EDGE ( 'NONE', *, *, #197, .T. ) ;
#90 = VECTOR ( 'NONE', #174, 1000.000000000000000 ) ;
#91 = VERTEX_POINT ( 'NONE', #94 ) ;
#92 = MECHANICAL_DESIGN_GEOMETRIC_PRESENTATION_REPRESENTATION (  '', ( #204 ), #300 ) ;
#93 = VERTEX_POINT ( 'NONE', #116 ) ;
#94 = CARTESIAN_POINT ( 'NONE',  ( 219.0000000000000000, 17.50000000000000000, 73.99999999999994316 ) ) ;
#95 = CARTESIAN_POINT ( 'NONE',  ( -225.0000000000000284, 17.50000000000000000, 80.00000000000000000 ) ) ;
#96 = DIRECTION ( 'NONE',  ( 4.336808689942017736E-16, -0.0000000000000000000, 1.000000000000000000 ) ) ;
#97 = VECTOR ( 'NONE', #161, 1000.000000000000000 ) ;
#98 = DIRECTION ( 'NONE',  ( 1.000000000000000000, 0.0000000000000000000, -4.336808689942017243E-16 ) ) ;
#99 = MANIFOLD_SOLID_BREP ( 'Aufsatz-Linear austragen1', #37 ) ;
#100 = CARTESIAN_POINT ( 'NONE',  ( -219.0000000000000284, 17.50000000000000000, 9.999999999999994671 ) ) ;
#101 = CARTESIAN_POINT ( 'NONE',  ( 219.0000000000000000, -17.50000000000000000, 73.99999999999994316 ) ) ;
#102 = ADVANCED_FACE ( 'NONE', ( #155 ), #150, .T. ) ;
#103 = LINE ( 'NONE', #317, #23 ) ;
#104 = ORIENTED_EDGE ( 'NONE', *, *, #54, .F. ) ;
#105 = CARTESIAN_POINT ( 'NONE',  ( -219.0000000000000284, 17.50000000000000000, 9.999999999999994671 ) ) ;
#106 = DIRECTION ( 'NONE',  ( -1.000000000000000000, 0.0000000000000000000, 1.233581138472396211E-16 ) ) ;
#107 = VERTEX_POINT ( 'NONE', #310 ) ;
#108 = ADVANCED_FACE ( 'NONE', ( #158, #230 ), #289, .T. ) ;
#109 = CARTESIAN_POINT ( 'NONE',  ( -225.0000000000000284, 17.50000000000000000, 80.00000000000000000 ) ) ;
#110 = ORIENTED_EDGE ( 'NONE', *, *, #30, .F. ) ;
#111 = PRODUCT_CONTEXT ( 'NONE', #151, 'mechanical' ) ;
#112 = ORIENTED_EDGE ( 'NONE', *, *, #258, .F. ) ;
#113 = PRESENTATION_LAYER_ASSIGNMENT (  '', '', ( #204 ) ) ;
#114 =( NAMED_UNIT ( * ) PLANE_ANGLE_UNIT ( ) SI_UNIT ( $, .RADIAN. ) );
#115 = VERTEX_POINT ( 'NONE', #21 ) ;
#116 = CARTESIAN_POINT ( 'NONE',  ( -225.0000000000000284, 17.50000000000000000, 80.00000000000000000 ) ) ;
#117 = EDGE_LOOP ( 'NONE', ( #302, #163, #244, #27 ) ) ;
#118 = VECTOR ( 'NONE', #185, 1000.000000000000000 ) ;
#119 = VERTEX_POINT ( 'NONE', #70 ) ;
#120 = APPLICATION_PROTOCOL_DEFINITION ( 'draft international standard', 'automotive_design', 1998, #169 ) ;
#121 = VECTOR ( 'NONE', #14, 1000.000000000000000 ) ;
#122 = CARTESIAN_POINT ( 'NONE',  ( -219.0000000000000000, -17.50000000000000000, 74.00000000000000000 ) ) ;
#123 = FILL_AREA_STYLE ('',( #41 ) ) ;
#124 = DIRECTION ( 'NONE',  ( -4.336808689942017243E-16, 0.0000000000000000000, 1.000000000000000000 ) ) ;
#125 = AXIS2_PLACEMENT_3D ( 'NONE', #180, #126, #20 ) ;
#126 = DIRECTION ( 'NONE',  ( 1.000000000000000000, 0.0000000000000000000, -6.938893903907228378E-16 ) ) ;
#127 = ADVANCED_FACE ( 'NONE', ( #206 ), #46, .F. ) ;
#128 = CARTESIAN_POINT ( 'NONE',  ( -225.0000000000000853, 17.50000000000000000, 0.0000000000000000000 ) ) ;
#129 =( GEOMETRIC_REPRESENTATION_CONTEXT ( 3 ) GLOBAL_UNCERTAINTY_ASSIGNED_CONTEXT ( ( #69 ) ) GLOBAL_UNIT_ASSIGNED_CONTEXT ( ( #140, #215, #166 ) ) REPRESENTATION_CONTEXT ( 'NONE', 'WORKASPACE' ) );
#130 = CARTESIAN_POINT ( 'NONE',  ( -225.0000000000000284, -17.50000000000000000, 80.00000000000000000 ) ) ;
#131 = EDGE_CURVE ( 'NONE', #93, #298, #73, .T. ) ;
#132 = VERTEX_POINT ( 'NONE', #184 ) ;
#133 = PLANE ( 'NONE',  #50 ) ;
#134 = ORIENTED_EDGE ( 'NONE', *, *, #139, .F. ) ;
#135 = ADVANCED_FACE ( 'NONE', ( #336 ), #231, .F. ) ;
#136 = LINE ( 'NONE', #316, #97 ) ;
#137 = VERTEX_POINT ( 'NONE', #152 ) ;
#138 = PRODUCT_DEFINITION_CONTEXT ( 'detailed design', #169, 'design' ) ;
#139 = EDGE_CURVE ( 'NONE', #298, #167, #22, .T. ) ;
#140 =( LENGTH_UNIT ( ) NAMED_UNIT ( * ) SI_UNIT ( .MILLI., .METRE. ) );
#141 = VERTEX_POINT ( 'NONE', #226 ) ;
#142 = VECTOR ( 'NONE', #274, 1000.000000000000000 ) ;
#143 = LINE ( 'NONE', #176, #171 ) ;
#144 = AXIS2_PLACEMENT_3D ( 'NONE', #109, #56, #106 ) ;
#145 = FACE_OUTER_BOUND ( 'NONE', #318, .T. ) ;
#146 = ADVANCED_FACE ( 'NONE', ( #260 ), #202, .T. ) ;
#147 = SURFACE_STYLE_USAGE ( .BOTH. , #38 ) ;
#148 = DIRECTION ( 'NONE',  ( 1.000000000000000000, 0.0000000000000000000, -1.267377881992187884E-16 ) ) ;
#149 = VECTOR ( 'NONE', #96, 1000.000000000000000 ) ;
#150 = PLANE ( 'NONE',  #85 ) ;
#151 = APPLICATION_CONTEXT ( 'automotive_design' ) ;
#152 = CARTESIAN_POINT ( 'NONE',  ( -225.0000000000000853, 17.50000000000000000, 0.0000000000000000000 ) ) ;
#153 = COLOUR_RGB ( '',0.7529411764705882248, 0.7529411764705882248, 0.7529411764705882248 ) ;
#154 = DIRECTION ( 'NONE',  ( -1.000000000000000000, 0.0000000000000000000, -4.336808689942017243E-16 ) ) ;
#155 = FACE_OUTER_BOUND ( 'NONE', #34, .T. ) ;
#156 = CARTESIAN_POINT ( 'NONE',  ( -219.0000000000000000, 17.50000000000000000, 74.00000000000000000 ) ) ;
#157 = EDGE_CURVE ( 'NONE', #141, #119, #76, .T. ) ;
#158 = FACE_OUTER_BOUND ( 'NONE', #190, .T. ) ;
#159 = LINE ( 'NONE', #101, #232 ) ;
#160 = ORIENTED_EDGE ( 'NONE', *, *, #72, .T. ) ;
#161 = DIRECTION ( 'NONE',  ( 3.469446951953614189E-16, 0.0000000000000000000, -1.000000000000000000 ) ) ;
#162 = EDGE_CURVE ( 'NONE', #294, #137, #290, .T. ) ;
#163 = ORIENTED_EDGE ( 'NONE', *, *, #216, .F. ) ;
#164 = DIRECTION ( 'NONE',  ( 0.0000000000000000000, -1.000000000000000000, 0.0000000000000000000 ) ) ;
#165 = ORIENTED_EDGE ( 'NONE', *, *, #227, .T. ) ;
#166 =( NAMED_UNIT ( * ) SI_UNIT ( $, .STERADIAN. ) SOLID_ANGLE_UNIT ( ) );
#167 = VERTEX_POINT ( 'NONE', #262 ) ;
#168 = APPLICATION_PROTOCOL_DEFINITION ( 'draft international standard', 'automotive_design', 1998, #151 ) ;
#169 = APPLICATION_CONTEXT ( 'automotive_design' ) ;
#170 = CARTESIAN_POINT ( 'NONE',  ( -225.0000000000000853, -17.50000000000000000, 0.0000000000000000000 ) ) ;
#171 = VECTOR ( 'NONE', #305, 1000.000000000000000 ) ;
#172 = PRODUCT_DEFINITION ( 'UNKNOWN', '', #35, #138 ) ;
#173 = DIRECTION ( 'NONE',  ( 0.0000000000000000000, 0.0000000000000000000, 1.000000000000000000 ) ) ;
#174 = DIRECTION ( 'NONE',  ( 4.336808689942017736E-16, 0.0000000000000000000, -1.000000000000000000 ) ) ;
#175 = AXIS2_PLACEMENT_3D ( 'NONE', #43, #154, #124 ) ;
#176 = CARTESIAN_POINT ( 'NONE',  ( -219.0000000000000000, 17.50000000000000000, 74.00000000000000000 ) ) ;
#177 = DIRECTION ( 'NONE',  ( -1.000000000000000000, -0.0000000000000000000, 1.224646799147353454E-16 ) ) ;
#178 = VECTOR ( 'NONE', #42, 1000.000000000000000 ) ;
#179 = LINE ( 'NONE', #67, #17 ) ;
#180 = CARTESIAN_POINT ( 'NONE',  ( -225.0000000000000284, 17.50000000000000000, 80.00000000000000000 ) ) ;
#181 = PRESENTATION_LAYER_ASSIGNMENT (  '', '', ( #332 ) ) ;
#182 =( NAMED_UNIT ( * ) SI_UNIT ( $, .STERADIAN. ) SOLID_ANGLE_UNIT ( ) );
#183 = AXIS2_PLACEMENT_3D ( 'NONE', #128, #337, #311 ) ;
#184 = CARTESIAN_POINT ( 'NONE',  ( -219.0000000000000284, -17.50000000000000000, 9.999999999999994671 ) ) ;
#185 = DIRECTION ( 'NONE',  ( 1.000000000000000000, 0.0000000000000000000, -1.267377881992187884E-16 ) ) ;
#186 = CARTESIAN_POINT ( 'NONE',  ( -219.0000000000000284, 17.50000000000000000, 9.999999999999994671 ) ) ;
#187 = ORIENTED_EDGE ( 'NONE', *, *, #225, .T. ) ;
#188 = LINE ( 'NONE', #48, #64 ) ;
#189 = COLOUR_RGB ( '',0.7529411764705882248, 0.7529411764705882248, 0.7529411764705882248 ) ;
#190 = EDGE_LOOP ( 'NONE', ( #12, #246, #238, #134 ) ) ;
#191 = LINE ( 'NONE', #269, #45 ) ;
#192 =( GEOMETRIC_REPRESENTATION_CONTEXT ( 3 ) GLOBAL_UNCERTAINTY_ASSIGNED_CONTEXT ( ( #338 ) ) GLOBAL_UNIT_ASSIGNED_CONTEXT ( ( #68, #287, #182 ) ) REPRESENTATION_CONTEXT ( 'NONE', 'WORKASPACE' ) );
#193 = CARTESIAN_POINT ( 'NONE',  ( -219.0000000000000000, -17.50000000000000000, 74.00000000000000000 ) ) ;
#194 = EDGE_LOOP ( 'NONE', ( #49, #322, #250, #301 ) ) ;
#195 = ORIENTED_EDGE ( 'NONE', *, *, #47, .F. ) ;
#196 = CARTESIAN_POINT ( 'NONE',  ( 219.0000000000000284, -17.50000000000000000, 9.999999999999941380 ) ) ;
#197 = EDGE_CURVE ( 'NONE', #115, #79, #334, .T. ) ;
#198 = CARTESIAN_POINT ( 'NONE',  ( 225.0000000000000568, 17.50000000000000000, 79.99999999999994316 ) ) ;
#199 = VECTOR ( 'NONE', #237, 1000.000000000000000 ) ;
#200 = ORIENTED_EDGE ( 'NONE', *, *, #325, .T. ) ;
#201 = DIRECTION ( 'NONE',  ( 6.938893903907228378E-16, -0.0000000000000000000, 1.000000000000000000 ) ) ;
#202 = PLANE ( 'NONE',  #247 ) ;
#203 =( NAMED_UNIT ( * ) SI_UNIT ( $, .STERADIAN. ) SOLID_ANGLE_UNIT ( ) );
#204 = STYLED_ITEM ( 'NONE', ( #254 ), #245 ) ;
#205 = FACE_OUTER_BOUND ( 'NONE', #117, .T. ) ;
#206 = FACE_OUTER_BOUND ( 'NONE', #194, .T. ) ;
#207 = DIRECTION ( 'NONE',  ( 0.0000000000000000000, -1.000000000000000000, 0.0000000000000000000 ) ) ;
#208 = DIRECTION ( 'NONE',  ( 1.000000000000000000, 0.0000000000000000000, -1.227772323179931743E-16 ) ) ;
#209 = CARTESIAN_POINT ( 'NONE',  ( 225.0000000000000853, 17.50000000000000000, -5.510910596163091764E-14 ) ) ;
#210 = LINE ( 'NONE', #186, #228 ) ;
#211 = ADVANCED_FACE ( 'NONE', ( #205 ), #285, .T. ) ;
#212 = DIRECTION ( 'NONE',  ( -1.000000000000000000, -0.0000000000000000000, 1.227772323179931743E-16 ) ) ;
#213 = EDGE_CURVE ( 'NONE', #132, #141, #229, .T. ) ;
#214 = ORIENTED_EDGE ( 'NONE', *, *, #54, .T. ) ;
#215 =( NAMED_UNIT ( * ) PLANE_ANGLE_UNIT ( ) SI_UNIT ( $, .RADIAN. ) );
#216 = EDGE_CURVE ( 'NONE', #91, #119, #188, .T. ) ;
#217 = ORIENTED_EDGE ( 'NONE', *, *, #59, .F. ) ;
#218 = ORIENTED_EDGE ( 'NONE', *, *, #216, .T. ) ;
#219 = ORIENTED_EDGE ( 'NONE', *, *, #304, .F. ) ;
#220 = FILL_AREA_STYLE_COLOUR ( '', #153 ) ;
#221 = ORIENTED_EDGE ( 'NONE', *, *, #162, .F. ) ;
#222 = VECTOR ( 'NONE', #321, 1000.000000000000000 ) ;
#223 = CARTESIAN_POINT ( 'NONE',  ( -225.0000000000000853, -17.50000000000000000, 0.0000000000000000000 ) ) ;
#224 = ORIENTED_EDGE ( 'NONE', *, *, #157, .F. ) ;
#225 = EDGE_CURVE ( 'NONE', #16, #132, #28, .T. ) ;
#226 = CARTESIAN_POINT ( 'NONE',  ( -219.0000000000000000, -17.50000000000000000, 74.00000000000000000 ) ) ;
#227 = EDGE_CURVE ( 'NONE', #115, #132, #210, .T. ) ;
#228 = VECTOR ( 'NONE', #7, 1000.000000000000000 ) ;
#229 = LINE ( 'NONE', #193, #282 ) ;
#230 = FACE_BOUND ( 'NONE', #87, .T. ) ;
#231 = PLANE ( 'NONE',  #183 ) ;
#232 = VECTOR ( 'NONE', #295, 1000.000000000000000 ) ;
#233 = CARTESIAN_POINT ( 'NONE',  ( 225.0000000000000568, -17.50000000000000000, 79.99999999999994316 ) ) ;
#234 = DIRECTION ( 'NONE',  ( 6.938893903907228378E-16, -0.0000000000000000000, 1.000000000000000000 ) ) ;
#235 = ORIENTED_EDGE ( 'NONE', *, *, #325, .F. ) ;
#236 = EDGE_CURVE ( 'NONE', #119, #16, #159, .T. ) ;
#237 = DIRECTION ( 'NONE',  ( -1.000000000000000000, -0.0000000000000000000, 1.227772323179931743E-16 ) ) ;
#238 = ORIENTED_EDGE ( 'NONE', *, *, #249, .F. ) ;
#239 = ADVANCED_FACE ( 'NONE', ( #26 ), #4, .T. ) ;
#240 = CARTESIAN_POINT ( 'NONE',  ( -225.0000000000000284, -17.50000000000000000, 80.00000000000000000 ) ) ;
#241 = VECTOR ( 'NONE', #212, 1000.000000000000000 ) ;
#242 = ORIENTED_EDGE ( 'NONE', *, *, #213, .T. ) ;
#243 = EDGE_LOOP ( 'NONE', ( #224, #104, #3, #218 ) ) ;
#244 = ORIENTED_EDGE ( 'NONE', *, *, #57, .T. ) ;
#245 = ADVANCED_BREP_SHAPE_REPRESENTATION ( '83070780', ( #99, #329 ), #129 ) ;
#246 = ORIENTED_EDGE ( 'NONE', *, *, #10, .F. ) ;
#247 = AXIS2_PLACEMENT_3D ( 'NONE', #100, #19, #208 ) ;
#248 = CARTESIAN_POINT ( 'NONE',  ( -219.0000000000000000, 17.50000000000000000, 74.00000000000000000 ) ) ;
#249 = EDGE_CURVE ( 'NONE', #167, #107, #24, .T. ) ;
#250 = ORIENTED_EDGE ( 'NONE', *, *, #72, .F. ) ;
#251 = LINE ( 'NONE', #170, #33 ) ;
#252 = VECTOR ( 'NONE', #255, 1000.000000000000000 ) ;
#253 = PRESENTATION_STYLE_ASSIGNMENT (( #147 ) ) ;
#254 = PRESENTATION_STYLE_ASSIGNMENT (( #256 ) ) ;
#255 = DIRECTION ( 'NONE',  ( -1.000000000000000000, -0.0000000000000000000, 1.224646799147353454E-16 ) ) ;
#256 = SURFACE_STYLE_USAGE ( .BOTH. , #333 ) ;
#257 = DIRECTION ( 'NONE',  ( 1.000000000000000000, 0.0000000000000000000, -1.233581138472395964E-16 ) ) ;
#258 = EDGE_CURVE ( 'NONE', #294, #107, #83, .T. ) ;
#259 = AXIS2_PLACEMENT_3D ( 'NONE', #51, #315, #263 ) ;
#260 = FACE_OUTER_BOUND ( 'NONE', #11, .T. ) ;
#261 = DIRECTION ( 'NONE',  ( 0.0000000000000000000, 0.0000000000000000000, -1.000000000000000000 ) ) ;
#262 = CARTESIAN_POINT ( 'NONE',  ( 225.0000000000000568, -17.50000000000000000, 79.99999999999994316 ) ) ;
#263 = DIRECTION ( 'NONE',  ( -1.000000000000000000, 0.0000000000000000000, 1.267377881992187884E-16 ) ) ;
#264 = ORIENTED_EDGE ( 'NONE', *, *, #139, .T. ) ;
#265 = CARTESIAN_POINT ( 'NONE',  ( 225.0000000000000853, 17.50000000000000000, -5.510910596163091764E-14 ) ) ;
#266 = ORIENTED_EDGE ( 'NONE', *, *, #271, .T. ) ;
#267 = MECHANICAL_DESIGN_GEOMETRIC_PRESENTATION_REPRESENTATION (  '', ( #332 ), #192 ) ;
#268 = CARTESIAN_POINT ( 'NONE',  ( 219.0000000000000284, 17.50000000000000000, 9.999999999999939604 ) ) ;
#269 = CARTESIAN_POINT ( 'NONE',  ( -225.0000000000000853, 17.50000000000000000, 0.0000000000000000000 ) ) ;
#270 = ORIENTED_EDGE ( 'NONE', *, *, #271, .F. ) ;
#271 = EDGE_CURVE ( 'NONE', #296, #115, #77, .T. ) ;
#272 = ORIENTED_EDGE ( 'NONE', *, *, #258, .T. ) ;
#273 = SURFACE_STYLE_FILL_AREA ( #123 ) ;
#274 = DIRECTION ( 'NONE',  ( -0.0000000000000000000, -1.000000000000000000, -0.0000000000000000000 ) ) ;
#275 = CARTESIAN_POINT ( 'NONE',  ( 225.0000000000000568, 17.50000000000000000, 79.99999999999994316 ) ) ;
#276 = SURFACE_STYLE_FILL_AREA ( #327 ) ;
#277 = ADVANCED_FACE ( 'NONE', ( #86, #53 ), #133, .F. ) ;
#278 = AXIS2_PLACEMENT_3D ( 'NONE', #312, #207, #261 ) ;
#279 = LINE ( 'NONE', #63, #142 ) ;
#280 = EDGE_CURVE ( 'NONE', #39, #298, #293, .T. ) ;
#281 = CARTESIAN_POINT ( 'NONE',  ( -219.0000000000000000, 17.50000000000000000, 74.00000000000000000 ) ) ;
#282 = VECTOR ( 'NONE', #319, 1000.000000000000000 ) ;
#283 =( LENGTH_UNIT ( ) NAMED_UNIT ( * ) SI_UNIT ( .MILLI., .METRE. ) );
#284 = UNCERTAINTY_MEASURE_WITH_UNIT (LENGTH_MEASURE( 1.000000000000000082E-05 ), #283, 'distance_accuracy_value', 'NONE');
#285 = PLANE ( 'NONE',  #175 ) ;
#286 = VECTOR ( 'NONE', #148, 1000.000000000000000 ) ;
#287 =( NAMED_UNIT ( * ) PLANE_ANGLE_UNIT ( ) SI_UNIT ( $, .RADIAN. ) );
#288 = PRODUCT_RELATED_PRODUCT_CATEGORY ( 'part', '', ( #71 ) ) ;
#289 = PLANE ( 'NONE',  #278 ) ;
#290 = LINE ( 'NONE', #18, #252 ) ;
#291 = CARTESIAN_POINT ( 'NONE',  ( 0.0000000000000000000, 17.50000000000000000, 0.0000000000000000000 ) ) ;
#292 = ORIENTED_EDGE ( 'NONE', *, *, #225, .F. ) ;
#293 = LINE ( 'NONE', #130, #306 ) ;
#294 = VERTEX_POINT ( 'NONE', #265 ) ;
#295 = DIRECTION ( 'NONE',  ( 4.336808689942017736E-16, 0.0000000000000000000, -1.000000000000000000 ) ) ;
#296 = VERTEX_POINT ( 'NONE', #268 ) ;
#297 = CARTESIAN_POINT ( 'NONE',  ( -219.0000000000000284, -17.50000000000000000, 9.999999999999994671 ) ) ;
#298 = VERTEX_POINT ( 'NONE', #240 ) ;
#299 = DIRECTION ( 'NONE',  ( -0.0000000000000000000, -1.000000000000000000, -0.0000000000000000000 ) ) ;
#300 =( GEOMETRIC_REPRESENTATION_CONTEXT ( 3 ) GLOBAL_UNCERTAINTY_ASSIGNED_CONTEXT ( ( #284 ) ) GLOBAL_UNIT_ASSIGNED_CONTEXT ( ( #283, #114, #203 ) ) REPRESENTATION_CONTEXT ( 'NONE', 'WORKASPACE' ) );
#301 = ORIENTED_EDGE ( 'NONE', *, *, #330, .T. ) ;
#302 = ORIENTED_EDGE ( 'NONE', *, *, #236, .F. ) ;
#303 = LINE ( 'NONE', #88, #90 ) ;
#304 = EDGE_CURVE ( 'NONE', #5, #294, #136, .T. ) ;
#305 = DIRECTION ( 'NONE',  ( -0.0000000000000000000, -1.000000000000000000, -0.0000000000000000000 ) ) ;
#306 = VECTOR ( 'NONE', #234, 1000.000000000000000 ) ;
#307 = ORIENTED_EDGE ( 'NONE', *, *, #227, .F. ) ;
#308 = PLANE ( 'NONE',  #61 ) ;
#309 = CARTESIAN_POINT ( 'NONE',  ( -219.0000000000000000, 17.50000000000000000, 74.00000000000000000 ) ) ;
#310 = CARTESIAN_POINT ( 'NONE',  ( 225.0000000000000853, -17.50000000000000000, -5.510910596163091764E-14 ) ) ;
#311 = DIRECTION ( 'NONE',  ( 1.000000000000000000, 0.0000000000000000000, -1.224646799147353454E-16 ) ) ;
#312 = CARTESIAN_POINT ( 'NONE',  ( 0.0000000000000000000, -17.50000000000000000, 0.0000000000000000000 ) ) ;
#313 = DIRECTION ( 'NONE',  ( -4.336808689942017243E-16, 0.0000000000000000000, -1.000000000000000000 ) ) ;
#314 = ADVANCED_FACE ( 'NONE', ( #6 ), #2, .F. ) ;
#315 = DIRECTION ( 'NONE',  ( -1.267377881992187884E-16, 0.0000000000000000000, -1.000000000000000000 ) ) ;
#316 = CARTESIAN_POINT ( 'NONE',  ( 225.0000000000000568, 17.50000000000000000, 79.99999999999994316 ) ) ;
#317 = CARTESIAN_POINT ( 'NONE',  ( -225.0000000000000284, 17.50000000000000000, 80.00000000000000000 ) ) ;
#318 = EDGE_LOOP ( 'NONE', ( #82, #112, #219, #328 ) ) ;
#319 = DIRECTION ( 'NONE',  ( 4.336808689942017736E-16, -0.0000000000000000000, 1.000000000000000000 ) ) ;
#320 = ORIENTED_EDGE ( 'NONE', *, *, #162, .T. ) ;
#321 = DIRECTION ( 'NONE',  ( 3.469446951953614189E-16, 0.0000000000000000000, -1.000000000000000000 ) ) ;
#322 = ORIENTED_EDGE ( 'NONE', *, *, #131, .F. ) ;
#323 = CARTESIAN_POINT ( 'NONE',  ( 0.0000000000000000000, 0.0000000000000000000, 0.0000000000000000000 ) ) ;
#324 = EDGE_LOOP ( 'NONE', ( #29, #55, #221, #272 ) ) ;
#325 = EDGE_CURVE ( 'NONE', #93, #5, #103, .T. ) ;
#326 = ORIENTED_EDGE ( 'NONE', *, *, #236, .T. ) ;
#327 = FILL_AREA_STYLE ('',( #220 ) ) ;
#328 = ORIENTED_EDGE ( 'NONE', *, *, #30, .T. ) ;
#329 = AXIS2_PLACEMENT_3D ( 'NONE', #323, #173, #9 ) ;
#330 = EDGE_CURVE ( 'NONE', #137, #39, #191, .T. ) ;
#331 = CARTESIAN_POINT ( 'NONE',  ( 225.0000000000000568, 17.50000000000000000, 79.99999999999994316 ) ) ;
#332 = STYLED_ITEM ( 'NONE', ( #253 ), #99 ) ;
#333 = SURFACE_SIDE_STYLE ('',( #273 ) ) ;
#334 = LINE ( 'NONE', #309, #149 ) ;
#335 = SHAPE_DEFINITION_REPRESENTATION ( #62, #245 ) ;
#336 = FACE_OUTER_BOUND ( 'NONE', #324, .T. ) ;
#337 = DIRECTION ( 'NONE',  ( 1.224646799147353454E-16, -0.0000000000000000000, 1.000000000000000000 ) ) ;
#338 = UNCERTAINTY_MEASURE_WITH_UNIT (LENGTH_MEASURE( 1.000000000000000082E-05 ), #68, 'distance_accuracy_value', 'NONE');
ENDSEC;
END-ISO-10303-21;
