  0
SECTION
  2
HEADER
  9
$ACADVER
  1
AC1021
  9
$ACADMAINTVER
 70
    25
  9
$DWGCODEPAGE
  3
ANSI_1252
  9
$INSBASE
 10
0.0
 20
0.0
 30
0.0
  9
$EXTMIN
 10
0.0
 20
0.0
 30
0.0
  9
$EXTMAX
 10
3000.0
 20
4500.0
 30
0.0
  9
$LIMMIN
 10
0.0
 20
0.0
  9
$LIMMAX
 10
3000.0
 20
4500.0
  9
$ORTHOMODE
 70
     0
  9
$REGENMODE
 70
     1
  9
$FILLMODE
 70
     1
  9
$QTEXTMODE
 70
     0
  9
$MIRRTEXT
 70
     1
  9
$LTSCALE
 40
1.0
  9
$ATTMODE
 70
     1
  9
$TEXTSIZE
 40
10.0
  9
$TRACEWID
 40
1.0
  9
$TEXTSTYLE
  7
Standard
  9
$CLAYER
  8
0
  9
$CELTYPE
  6
ByLayer
  9
$CECOLOR
 62
   256
  9
$CELTSCALE
 40
1.0
  9
$DISPSILH
 70
     0
  9
$DIMSCALE
 40
1.0
  9
$DIMASZ
 40
2.5
  9
$DIMEXO
 40
0.625
  9
$DIMDLI
 40
3.75
  9
$DIMRND
 40
0.0
  9
$DIMDLE
 40
0.0
  9
$DIMEXE
 40
1.25
  9
$DIMTP
 40
0.0
  9
$DIMTM
 40
0.0
  9
$DIMTXT
 40
2.5
  9
$DIMCEN
 40
2.5
  9
$DIMTSZ
 40
0.0
  9
$DIMTOL
 70
     0
  9
$DIMLIM
 70
     0
  9
$DIMTIH
 70
     0
  9
$DIMTOH
 70
     0
  9
$DIMSE1
 70
     0
  9
$DIMSE2
 70
     0
  9
$DIMTAD
 70
     1
  9
$DIMZIN
 70
     8
  9
$DIMBLK
  1

  9
$DIMASO
 70
     1
  9
$DIMSHO
 70
     1
  9
$DIMPOST
  1

  9
$DIMAPOST
  1

  9
$DIMALT
 70
     0
  9
$DIMALTD
 70
     3
  9
$DIMALTF
 40
0.0393700787
  9
$DIMLFAC
 40
1.0
  9
$DIMTOFL
 70
     1
  9
$DIMTVP
 40
0.0
  9
$DIMTIX
 70
     0
  9
$DIMSOXD
 70
     0
  9
$DIMSAH
 70
     0
  9
$DIMBLK1
  1

  9
$DIMBLK2
  1

  9
$DIMSTYLE
  2
ISO-25
  9
$DIMCLRD
 70
     0
  9
$DIMCLRE
 70
     0
  9
$DIMCLRT
 70
     0
  9
$DIMTFAC
 40
1.0
  9
$DIMGAP
 40
0.625
  9
$DIMJUST
 70
     0
  9
$DIMSD1
 70
     0
  9
$DIMSD2
 70
     0
  9
$DIMTOLJ
 70
     0
  9
$DIMTZIN
 70
     8
  9
$DIMALTZ
 70
     0
  9
$DIMALTTZ
 70
     0
  9
$DIMUPT
 70
     0
  9
$DIMDEC
 70
     2
  9
$DIMTDEC
 70
     2
  9
$DIMALTU
 70
     2
  9
$DIMALTTD
 70
     3
  9
$DIMTXSTY
  7
Standard
  9
$DIMAUNIT
 70
     0
  9
$DIMADEC
 70
     0
  9
$DIMALTRND
 40
0.0
  9
$DIMAZIN
 70
     0
  9
$DIMDSEP
 70
    44
  9
$DIMATFIT
 70
     3
  9
$DIMFRAC
 70
     0
  9
$DIMLDRBLK
  1

  9
$DIMLUNIT
 70
     2
  9
$DIMLWD
 70
    -2
  9
$DIMLWE
 70
    -2
  9
$DIMTMOVE
 70
     0
  9
$DIMFXL
 40
1.0
  9
$DIMFXLON
 70
     0
  9
$DIMJOGANG
 40
0.7853981634
  9
$DIMTFILL
 70
     0
  9
$DIMTFILLCLR
 70
     0
  9
$DIMARCSYM
 70
     0
  9
$DIMLTYPE
  6

  9
$DIMLTEX1
  6

  9
$DIMLTEX2
  6

  9
$LUNITS
 70
     2
  9
$LUPREC
 70
     4
  9
$SKETCHINC
 40
1.0
  9
$FILLETRAD
 40
10.0
  9
$AUNITS
 70
     0
  9
$AUPREC
 70
     0
  9
$MENU
  1
.
  9
$ELEVATION
 40
0.0
  9
$PELEVATION
 40
0.0
  9
$THICKNESS
 40
0.0
  9
$LIMCHECK
 70
     0
  9
$CHAMFERA
 40
0.0
  9
$CHAMFERB
 40
0.0
  9
$CHAMFERC
 40
0.0
  9
$CHAMFERD
 40
0.0
  9
$SKPOLY
 70
     0
  9
$TDCREATE
 40
2459711.635160336
  9
$TDUCREATE
 40
2459711.551827002
  9
$TDUPDATE
 40
2459711.635162778
  9
$TDUUPDATE
 40
2459711.551829444
  9
$TDINDWG
 40
0.0000000116
  9
$TDUSRTIMER
 40
0.0000000116
  9
$USRTIMER
 70
     1
  9
$ANGBASE
 50
0.0
  9
$ANGDIR
 70
     0
  9
$PDMODE
 70
     0
  9
$PDSIZE
 40
0.0
  9
$PLINEWID
 40
0.0
  9
$SPLFRAME
 70
     0
  9
$SPLINETYPE
 70
     6
  9
$SPLINESEGS
 70
     8
  9
$HANDSEED
  5
22F
  9
$SURFTAB1
 70
     6
  9
$SURFTAB2
 70
     6
  9
$SURFTYPE
 70
     6
  9
$SURFU
 70
     6
  9
$SURFV
 70
     6
  9
$UCSBASE
  2

  9
$UCSNAME
  2

  9
$UCSORG
 10
0.0
 20
0.0
 30
0.0
  9
$UCSXDIR
 10
1.0
 20
0.0
 30
0.0
  9
$UCSYDIR
 10
0.0
 20
1.0
 30
0.0
  9
$UCSORTHOREF
  2

  9
$UCSORTHOVIEW
 70
     0
  9
$UCSORGTOP
 10
0.0
 20
0.0
 30
0.0
  9
$UCSORGBOTTOM
 10
0.0
 20
0.0
 30
0.0
  9
$UCSORGLEFT
 10
0.0
 20
0.0
 30
0.0
  9
$UCSORGRIGHT
 10
0.0
 20
0.0
 30
0.0
  9
$UCSORGFRONT
 10
0.0
 20
0.0
 30
0.0
  9
$UCSORGBACK
 10
0.0
 20
0.0
 30
0.0
  9
$PUCSBASE
  2

  9
$PUCSNAME
  2

  9
$PUCSORG
 10
0.0
 20
0.0
 30
0.0
  9
$PUCSXDIR
 10
1.0
 20
0.0
 30
0.0
  9
$PUCSYDIR
 10
0.0
 20
1.0
 30
0.0
  9
$PUCSORTHOREF
  2

  9
$PUCSORTHOVIEW
 70
     0
  9
$PUCSORGTOP
 10
0.0
 20
0.0
 30
0.0
  9
$PUCSORGBOTTOM
 10
0.0
 20
0.0
 30
0.0
  9
$PUCSORGLEFT
 10
0.0
 20
0.0
 30
0.0
  9
$PUCSORGRIGHT
 10
0.0
 20
0.0
 30
0.0
  9
$PUCSORGFRONT
 10
0.0
 20
0.0
 30
0.0
  9
$PUCSORGBACK
 10
0.0
 20
0.0
 30
0.0
  9
$USERI1
 70
     0
  9
$USERI2
 70
     0
  9
$USERI3
 70
     0
  9
$USERI4
 70
     0
  9
$USERI5
 70
     0
  9
$USERR1
 40
0.0
  9
$USERR2
 40
0.0
  9
$USERR3
 40
0.0
  9
$USERR4
 40
0.0
  9
$USERR5
 40
0.0
  9
$WORLDVIEW
 70
     1
  9
$SHADEDGE
 70
     3
  9
$SHADEDIF
 70
    70
  9
$TILEMODE
 70
     1
  9
$MAXACTVP
 70
    64
  9
$PINSBASE
 10
0.0
 20
0.0
 30
0.0
  9
$PLIMCHECK
 70
     0
  9
$PEXTMIN
 10
0.0
 20
0.0
 30
0.0
  9
$PEXTMAX
 10
3000.0
 20
4500.0
 30
0.0
  9
$PLIMMIN
 10
0.0
 20
0.0
  9
$PLIMMAX
 10
3000.0
 20
4500.0
  9
$UNITMODE
 70
     0
  9
$VISRETAIN
 70
     1
  9
$PLINEGEN
 70
     0
  9
$PSLTSCALE
 70
     1
  9
$TREEDEPTH
 70
  3020
  9
$CMLSTYLE
  2
Standard
  9
$CMLJUST
 70
     0
  9
$CMLSCALE
 40
20.0
  9
$PROXYGRAPHICS
 70
     1
  9
$MEASUREMENT
 70
     1
  9
$CELWEIGHT
370
    -1
  9
$ENDCAPS
280
     0
  9
$JOINSTYLE
280
     0
  9
$LWDISPLAY
290
     0
  9
$INSUNITS
 70
     4
  9
$HYPERLINKBASE
  1

  9
$STYLESHEET
  1

  9
$XEDIT
290
     1
  9
$CEPSNTYPE
380
     0
  9
$PSTYLEMODE
290
     1
  9
$FINGERPRINTGUID
  2
{6FF51316-8A43-468A-900C-4613984FB286}
  9
$VERSIONGUID
  2
{FAEB1C32-E019-11D5-929B-00C0DF256EC4}
  9
$EXTNAMES
290
     1
  9
$PSVPSCALE
 40
0.0
  9
$OLESTARTUP
290
     0
  9
$SORTENTS
280
   127
  9
$INDEXCTL
280
     0
  9
$HIDETEXT
280
     1
  9
$XCLIPFRAME
290
     0
  9
$HALOGAP
280
     0
  9
$OBSCOLOR
 70
   257
  9
$OBSLTYPE
280
     0
  9
$INTERSECTIONDISPLAY
280
     0
  9
$INTERSECTIONCOLOR
 70
   257
  9
$DIMASSOC
280
     2
  9
$PROJECTNAME
  1

  9
$CAMERADISPLAY
290
     0
  9
$LENSLENGTH
 40
50.0
  9
$CAMERAHEIGHT
 40
0.0
  9
$STEPSPERSEC
 40
2.0
  9
$STEPSIZE
 40
6.0
  9
$3DDWFPREC
 40
2.0
  9
$PSOLWIDTH
 40
5.0
  9
$PSOLHEIGHT
 40
80.0
  9
$LOFTANG1
 40
1.5707963268
  9
$LOFTANG2
 40
1.5707963268
  9
$LOFTMAG1
 40
0.0
  9
$LOFTMAG2
 40
0.0
  9
$LOFTPARAM
 70
     7
  9
$LOFTNORMALS
280
     1
  9
$LATITUDE
 40
37.795
  9
$LONGITUDE
 40
-122.394
  9
$NORTHDIRECTION
 40
0.0
  9
$TIMEZONE
 70
 -8000
  9
$LIGHTGLYPHDISPLAY
280
     1
  9
$TILEMODELIGHTSYNCH
280
     1
  9
$CMATERIAL
347
44
  9
$SOLIDHIST
280
     0
  9
$SHOWHIST
280
     1
  9
$DWFFRAME
280
     2
  9
$DGNFRAME
280
     2
  9
$REALWORLDSCALE
290
     1
  9
$INTERFERECOLOR
 62
   256
  9
$CSHADOW
280
     0
  9
$SHADOWPLANELOCATION
 40
0.0
  0
ENDSEC
  0
SECTION
  2
CLASSES
  0
CLASS
  1
ACDBDICTIONARYWDFLT
  2
AcDbDictionaryWithDefault
  3
ObjectDBX Classes
 90
        0
 91
        4
280
     0
281
     0
  0
CLASS
  1
VISUALSTYLE
  2
AcDbVisualStyle
  3
ObjectDBX Classes
 90
     4095
 91
        4
280
     0
281
     0
  0
CLASS
  1
MATERIAL
  2
AcDbMaterial
  3
ObjectDBX Classes
 90
     1153
 91
        4
280
     0
281
     0
  0
CLASS
  1
SCALE
  2
AcDbScale
  3
ObjectDBX Classes
 90
     1153
 91
        4
280
     0
281
     0
  0
CLASS
  1
TABLESTYLE
  2
AcDbTableStyle
  3
ObjectDBX Classes
 90
     4095
 91
        4
280
     0
281
     0
  0
CLASS
  1
MLEADERSTYLE
  2
AcDbMLeaderStyle
  3
ACDB_MLEADERSTYLE_CLASS
 90
     4095
 91
        4
280
     0
281
     0
  0
CLASS
  1
SUN
  2
AcDbSun
  3
SCENEOE
 90
     1153
 91
        4
280
     0
281
     0
  0
CLASS
  1
DICTIONARYVAR
  2
AcDbDictionaryVar
  3
ObjectDBX Classes
 90
        0
 91
        4
280
     0
281
     0
  0
CLASS
  1
CELLSTYLEMAP
  2
AcDbCellStyleMap
  3
ObjectDBX Classes
 90
     1152
 91
        4
280
     0
281
     0
  0
ENDSEC
  0
SECTION
  2
TABLES
  0
TABLE
  2
VPORT
  5
8
330
0
100
AcDbSymbolTable
 70
     1
  0
VPORT
  5
29
330
8
100
AcDbSymbolTableRecord
100
AcDbViewportTableRecord
  2
*Active
 70
     0
 10
0.0
 20
0.0
 11
1.0
 21
1.0
 12
344.1869158879
 22
148.5
 13
0.0
 23
0.0
 14
10.0
 24
10.0
 15
10.0
 25
10.0
 16
0.0
 26
0.0
 36
1.0
 17
0.0
 27
0.0
 37
0.0
 40
297.0
 41
1.9729729729
 42
50.0
 43
0.0
 44
0.0
 50
0.0
 51
0.0
 71
     0
 72
   100
 73
     1
 74
     3
 75
     0
 76
     0
 77
     0
 78
     0
281
     0
 65
     1
110
0.0
120
0.0
130
0.0
111
1.0
121
0.0
131
0.0
112
0.0
122
1.0
132
0.0
 79
     0
146
0.0
348
2F
 60
     3
 61
     5
292
     1
282
     1
141
0.0
142
0.0
 63
   250
361
6D
  0
ENDTAB
  0
TABLE
  2
LTYPE
  5
5
330
0
100
AcDbSymbolTable
 70
     1
  0
LTYPE
  5
14
330
5
100
AcDbSymbolTableRecord
100
AcDbLinetypeTableRecord
  2
ByBlock
 70
     0
  3

 72
    65
 73
     0
 40
0.0
  0
LTYPE
  5
15
330
5
100
AcDbSymbolTableRecord
100
AcDbLinetypeTableRecord
  2
ByLayer
 70
     0
  3

 72
    65
 73
     0
 40
0.0
  0
LTYPE
  5
16
330
5
100
AcDbSymbolTableRecord
100
AcDbLinetypeTableRecord
  2
Continuous
 70
     0
  3
Solid line
 72
    65
 73
     0
 40
0.0
  0
ENDTAB
  0
TABLE
  2
LAYER
  5
2
330
0
100
AcDbSymbolTable
 70
     5
  0
LAYER
  5
10
330
2
100
AcDbSymbolTableRecord
100
AcDbLayerTableRecord
  2
0
 70
     0
 62
     7
  6
Continuous
370
    -3
390
F
347
46
  0
LAYER
  5
6E
330
2
100
AcDbSymbolTableRecord
100
AcDbLayerTableRecord
  2
Default
 70
     0
 62
     7
  6
Continuous
370
    -3
390
F
347
46
  0
LAYER
  5
71
330
2
100
AcDbSymbolTableRecord
100
AcDbLayerTableRecord
  2
DV1_Default
 70
     0
 62
     7
  6
Continuous
370
    -3
390
F
347
46
  0
LAYER
  5
180
330
2
100
AcDbSymbolTableRecord
100
AcDbLayerTableRecord
  2
DV2_Default
 70
     0
 62
     7
  6
Continuous
370
    -3
390
F
347
46
  0
LAYER
  5
1AF
330
2
100
AcDbSymbolTableRecord
100
AcDbLayerTableRecord
  2
DV3_Default
 70
     0
 62
     7
  6
Continuous
370
    -3
390
F
347
46
  0
ENDTAB
  0
TABLE
  2
STYLE
  5
3
330
0
100
AcDbSymbolTable
 70
     1
  0
STYLE
  5
11
330
3
100
AcDbSymbolTableRecord
100
AcDbTextStyleTableRecord
  2
Standard
 70
     0
 40
0.0
 41
1.0
 50
0.0
 71
     0
 42
10.0
  3
txt
  4

  0
ENDTAB
  0
TABLE
  2
VIEW
  5
6
330
0
100
AcDbSymbolTable
 70
     0
  0
ENDTAB
  0
TABLE
  2
UCS
  5
7
330
0
100
AcDbSymbolTable
 70
     0
  0
ENDTAB
  0
TABLE
  2
APPID
  5
9
330
0
100
AcDbSymbolTable
 70
     2
  0
APPID
  5
12
330
9
100
AcDbSymbolTableRecord
100
AcDbRegAppTableRecord
  2
ACAD
 70
     0
  0
APPID
  5
225
330
9
100
AcDbSymbolTableRecord
100
AcDbRegAppTableRecord
  2
ACAD_MLEADERVER
 70
     0
  0
ENDTAB
  0
TABLE
  2
DIMSTYLE
  5
A
330
0
100
AcDbSymbolTable
 70
     1
100
AcDbDimStyleTable
  0
DIMSTYLE
105
27
330
A
100
AcDbSymbolTableRecord
100
AcDbDimStyleTableRecord
  2
ISO-25
 70
     0
 41
2.5
 42
0.625
 43
3.75
 44
1.25
 73
     0
 74
     0
 77
     1
 78
     8
140
2.5
141
2.5
143
0.0393700787
147
0.625
171
     3
172
     1
178
     0
271
     2
272
     2
274
     3
278
    44
283
     0
284
     8
340
11
  0
ENDTAB
  0
TABLE
  2
BLOCK_RECORD
  5
1
330
0
100
AcDbSymbolTable
 70
     4
  0
BLOCK_RECORD
  5
1F
330
1
100
AcDbSymbolTableRecord
100
AcDbBlockTableRecord
  2
*Model_Space
340
22
 70
     0
280
     1
281
     0
  0
BLOCK_RECORD
  5
1B
330
1
100
AcDbSymbolTableRecord
100
AcDbBlockTableRecord
  2
*Paper_Space
340
1E
 70
     0
280
     1
281
     0
  0
BLOCK_RECORD
  5
6F
330
1
100
AcDbSymbolTableRecord
100
AcDbBlockTableRecord
  2
SE
340
0
102
{BLKREFS
331
70
102
}
 70
     0
280
     1
281
     0
  0
BLOCK_RECORD
  5
17E
330
1
100
AcDbSymbolTableRecord
100
AcDbBlockTableRecord
  2
SE1
340
0
102
{BLKREFS
331
17F
102
}
 70
     0
280
     1
281
     0
  0
BLOCK_RECORD
  5
1AD
330
1
100
AcDbSymbolTableRecord
100
AcDbBlockTableRecord
  2
SE2
340
0
102
{BLKREFS
331
1AE
102
}
 70
     0
280
     1
281
     0
  0
ENDTAB
  0
ENDSEC
  0
SECTION
  2
BLOCKS
  0
BLOCK
  5
20
330
1F
100
AcDbEntity
  8
0
100
AcDbBlockBegin
  2
*Model_Space
 70
     0
 10
0.0
 20
0.0
 30
0.0
  3
*Model_Space
  1

  0
ENDBLK
  5
21
330
1F
100
AcDbEntity
  8
0
100
AcDbBlockEnd
  0
BLOCK
  5
1C
330
1B
100
AcDbEntity
 67
     1
  8
0
100
AcDbBlockBegin
  2
*Paper_Space
 70
     0
 10
0.0
 20
0.0
 30
0.0
  3
*Paper_Space
  1

  0
ENDBLK
  5
1D
330
1B
100
AcDbEntity
 67
     1
  8
0
100
AcDbBlockEnd
  0
BLOCK
  5
17C
330
6F
100
AcDbEntity
  8
0
100
AcDbBlockBegin
  2
SE
 70
     0
 10
0.0
 20
0.0
 30
0.0
  3
SE
  1

  0
LINE
  5
72
330
6F
100
AcDbEntity
  8
DV1_Default
 62
     7
100
AcDbLine
 10
113.2683645991
 20
982.9827688113
 30
0.0
 11
161.2683645991
 21
982.9827688113
 31
0.0
  0
SPLINE
  5
73
330
6F
100
AcDbEntity
  8
DV1_Default
 62
     7
100
AcDbSpline
210
0.0
220
0.0
230
1.0
 70
     8
 71
     3
 72
    10
 73
     6
 74
     0
 42
0.000000001
 43
0.0000000001
 40
0.0
 40
0.0
 40
0.0
 40
0.0
 40
0.7219148184216622
 40
0.9971467127340865
 40
1.0
 40
1.0
 40
1.0
 40
1.0
 10
163.1215459499134
 20
1031.083927686367
 30
0.0
 10
163.1681125856076
 20
1031.035556086111
 30
0.0
 10
163.2091424839755
 20
1030.993033019383
 30
0.0
 10
163.2181905473897
 20
1030.983601182145
 30
0.0
 10
163.2181037636524
 20
1030.983683358951
 30
0.0
 10
163.2181025992305
 20
1030.983684486854
 30
0.0
  0
SPLINE
  5
74
330
6F
100
AcDbEntity
  8
DV1_Default
 62
     7
100
AcDbSpline
210
0.0
220
0.0
230
1.0
 70
     8
 71
     3
 72
    33
 73
    29
 74
     0
 42
0.000000001
 43
0.0000000001
 40
0.0
 40
0.0
 40
0.0
 40
0.0
 40
0.0688776010321532
 40
0.1450153418285003
 40
0.2176349852264316
 40
0.2867683444250167
 40
0.3205312303292041
 40
0.3533842230828821
 40
0.3854471214040507
 40
0.4166558162136165
 40
0.4465605548642583
 40
0.4735679640058792
 40
0.4954431528920925
 40
0.5040885911331354
 40
0.5116619062297852
 40
0.5266803002851222
 40
0.5356965895187125
 40
0.5463340766974614
 40
0.571540147782906
 40
0.6002822482185589
 40
0.6310726714281634
 40
0.6628455845736677
 40
0.6952033988352307
 40
0.7281900688374385
 40
0.7966724719937888
 40
0.8680002070891997
 40
0.9332728185940518
 40
1.0
 40
1.0
 40
1.0
 40
1.0
 10
163.2177310360008
 20
1070.983298764047
 30
0.0
 10
163.215072399656
 20
1070.98058324906
 30
0.0
 10
162.8199000064257
 20
1070.569814292245
 30
0.0
 10
161.1481792277204
 20
1068.825385083998
 30
0.0
 10
158.746567707812
 20
1066.2923976778
 30
0.0
 10
156.473274538848
 20
1063.849197857475
 30
0.0
 10
154.6170375462547
 20
1061.797790697038
 30
0.0
 10
153.2391732883362
 20
1060.234284183153
 30
0.0
 10
151.8916220367882
 20
1058.64346084609
 30
0.0
 10
150.6069620114249
 20
1057.029392852248
 30
0.0
 10
149.4591376454582
 20
1055.414208499109
 30
0.0
 10
148.564341635953
 20
1053.8566908162
 30
0.0
 10
148.1640624053566
 20
1052.583001352422
 30
0.0
 10
148.0933614401811
 20
1051.708829988317
 30
0.0
 10
148.0860759207588
 20
1050.990683011164
 30
0.0
 10
148.0828633477717
 20
1050.262563998955
 30
0.0
 10
148.1716755354274
 20
1049.469511408364
 30
0.0
 10
148.4320339906738
 20
1048.4713087902
 30
0.0
 10
149.0888962663674
 20
1047.140630717826
 30
0.0
 10
150.1517758009885
 20
1045.549072635178
 30
0.0
 10
151.3916728532517
 20
1043.935488364023
 30
0.0
 10
152.7178309006754
 20
1042.338154967885
 30
0.0
 10
154.0788448401637
 20
1040.773271789778
 30
0.0
 10
155.9271698954297
 20
1038.711898882244
 30
0.0
 10
158.2107619221723
 20
1036.244738063162
 30
0.0
 10
160.5722632012675
 20
1033.746616733146
 30
0.0
 10
162.346542241193
 20
1031.890370394329
 30
0.0
 10
162.9739055584694
 20
1031.23729075179
 30
0.0
 10
163.1215459499134
 20
1031.083927686367
 30
0.0
  0
SPLINE
  5
75
330
6F
100
AcDbEntity
  8
DV1_Default
 62
     7
100
AcDbSpline
210
0.0
220
0.0
230
1.0
 70
     8
 71
     3
 72
     8
 73
     4
 74
     0
 42
0.000000001
 43
0.0000000001
 40
0.0
 40
0.0
 40
0.0
 40
0.0
 40
1.0
 40
1.0
 40
1.0
 40
1.0
 10
158.2651292607232
 20
1026.036346322651
 30
0.0
 10
158.2659589991692
 20
1026.035519352548
 30
0.0
 10
158.2354475023016
 20
1026.067315898757
 30
0.0
 10
158.1729100617399
 20
1026.132418498004
 30
0.0
  0
LINE
  5
76
330
6F
100
AcDbEntity
  8
DV1_Default
 62
     7
100
AcDbLine
 10
116.9683645991
 20
1089.9827688113
 30
0.0
 11
157.5683645991
 21
1089.9827688113
 31
0.0
  0
LINE
  5
77
330
6F
100
AcDbEntity
  8
DV1_Default
 62
     7
100
AcDbLine
 10
188.278480137
 20
1070.2836819574
 30
0.0
 11
188.278480137
 21
1031.6836819574
 31
0.0
  0
LINE
  5
78
330
6F
100
AcDbEntity
  8
DV1_Default
 62
     7
100
AcDbLine
 10
113.9622560242
 20
986.9888243101
 30
0.0
 11
160.5744731739
 21
986.9888243101
 31
0.0
  0
LINE
  5
79
330
6F
100
AcDbEntity
  8
DV1_Default
 62
     7
100
AcDbLine
 10
187.578480137
 20
1070.9836819574
 30
0.0
 11
163.2003491649
 21
1070.9836819574
 31
0.0
  0
LINE
  5
7A
330
6F
100
AcDbEntity
  8
DV1_Default
 62
     7
100
AcDbLine
 10
163.1898629732
 20
1030.9836819574
 30
0.0
 11
187.578480137
 21
1030.9836819574
 31
0.0
  0
SPLINE
  5
7B
330
6F
100
AcDbEntity
  8
DV1_Default
 62
     7
100
AcDbSpline
210
0.0
220
0.0
230
1.0
 70
     8
 71
     3
 72
    14
 73
    10
 74
     0
 42
0.000000001
 43
0.0000000001
 40
0.0
 40
0.0
 40
0.0
 40
0.0
 40
0.23177129228196
 40
0.3523034056569193
 40
0.4706327213164485
 40
0.5903956486177736
 40
0.7200350756118962
 40
0.8585754960066522
 40
1.0
 40
1.0
 40
1.0
 40
1.0
 10
163.2181028975584
 20
1070.982759268151
 30
0.0
 10
162.5188876395073
 20
1070.980070462706
 30
0.0
 10
161.6212867266804
 20
1071.001529568942
 30
0.0
 10
160.3538904047115
 20
1071.359925039658
 30
0.0
 10
159.4948038369871
 20
1071.863942038934
 30
0.0
 10
158.8372127864615
 20
1072.657725951736
 30
0.0
 10
158.4440535241776
 20
1073.655115601668
 30
0.0
 10
158.2737350834383
 20
1074.793460964566
 30
0.0
 10
158.2655976323211
 20
1075.505858102016
 30
0.0
 10
158.2683551375529
 20
1075.932506433056
 30
0.0
  0
SPLINE
  5
7C
330
6F
100
AcDbEntity
  8
DV1_Default
 62
     7
100
AcDbSpline
210
0.0
220
0.0
230
1.0
 70
     8
 71
     3
 72
    14
 73
    10
 74
     0
 42
0.000000001
 43
0.0000000001
 40
0.0
 40
0.0
 40
0.0
 40
0.0
 40
0.2317711642736839
 40
0.352303293842668
 40
0.4706326795470258
 40
0.5903956951533954
 40
0.7200351748902123
 40
0.8585755792899353
 40
1.0
 40
1.0
 40
1.0
 40
1.0
 10
158.2683564486023
 20
1026.033029609194
 30
0.0
 10
158.2656687791142
 20
1026.732243936212
 30
0.0
 10
158.2871292577686
 20
1027.629843799774
 30
0.0
 10
158.6455257867483
 20
1028.897238747574
 30
0.0
 10
159.149543167531
 20
1029.756324733901
 30
0.0
 10
159.9433267660875
 20
1030.413915757324
 30
0.0
 10
160.9407156621235
 20
1030.807075705761
 30
0.0
 10
162.0790599235277
 20
1030.97739534338
 30
0.0
 10
162.7914562491613
 20
1030.985533841454
 30
0.0
 10
163.2181040058781
 20
1030.982776986689
 30
0.0
  0
ARC
  5
7D
330
6F
100
AcDbEntity
  8
DV1_Default
 62
     7
100
AcDbCircle
 10
116.9683645991
 20
1089.2827688113
 30
0.0
 40
0.7000000000000062
100
AcDbArc
 50
90.0
 51
180.0
  0
ARC
  5
7E
330
6F
100
AcDbEntity
  8
DV1_Default
 62
     7
100
AcDbCircle
 10
157.5683645991
 20
1089.2827688113
 30
0.0
 40
0.6999999999999993
100
AcDbArc
 50
0.0
 51
90.0
  0
ARC
  5
7F
330
6F
100
AcDbEntity
  8
DV1_Default
 62
     7
100
AcDbCircle
 10
187.578480137
 20
1070.2836819574
 30
0.0
 40
0.6999999999999993
100
AcDbArc
 50
0.0
 51
90.0
  0
ARC
  5
80
330
6F
100
AcDbEntity
  8
DV1_Default
 62
     7
100
AcDbCircle
 10
187.578480137
 20
1031.6836819574
 30
0.0
 40
0.6999999999999993
100
AcDbArc
 50
270.0
 51
0.0
  0
LINE
  5
81
330
6F
100
AcDbEntity
  8
DV1_Default
 62
     7
100
AcDbLine
 10
161.2683645991
 20
982.9827688113
 30
0.0
 11
161.2683645991
 21
986.2888509639
 31
0.0
  0
LINE
  5
82
330
6F
100
AcDbEntity
  8
DV1_Default
 62
     7
100
AcDbLine
 10
113.2683645991
 20
986.2888509639
 30
0.0
 11
113.2683645991
 21
982.9827688113
 31
0.0
  0
LINE
  5
83
330
6F
100
AcDbEntity
  8
DV1_Default
 62
     7
100
AcDbLine
 10
158.2683645991
 20
1075.8995137156
 30
0.0
 11
158.2683645991
 21
1089.2827688113
 31
0.0
  0
LINE
  5
84
330
6F
100
AcDbEntity
  8
DV1_Default
 62
     7
100
AcDbLine
 10
158.2683645991
 20
988.4959162306
 30
0.0
 11
158.2683645991
 21
1026.062787126
 31
0.0
  0
LINE
  5
85
330
6F
100
AcDbEntity
  8
DV1_Default
 62
     7
100
AcDbLine
 10
116.2683645991
 20
1089.2827688113
 30
0.0
 11
116.2683645991
 21
988.4959162306
 31
0.0
  0
LINE
  5
86
330
6F
100
AcDbEntity
  8
DV1_Default
 62
     7
100
AcDbLine
 10
160.5744731739
 20
986.9888243101
 30
0.0
 11
159.7552747958
 21
986.995973346
 31
0.0
  0
LINE
  5
87
330
6F
100
AcDbEntity
  8
DV1_Default
 62
     7
100
AcDbLine
 10
114.7814544024
 20
986.995973346
 30
0.0
 11
113.9622560242
 21
986.9888243101
 31
0.0
  0
ARC
  5
88
330
6F
100
AcDbEntity
  8
DV1_Default
 62
     7
100
AcDbCircle
 10
159.7683645991
 20
988.4959162306
 30
0.0
 40
1.499999999999999
100
AcDbArc
 50
180.0
 51
269.5
  0
ARC
  5
89
330
6F
100
AcDbEntity
  8
DV1_Default
 62
     7
100
AcDbCircle
 10
114.7683645991
 20
988.4959162306
 30
0.0
 40
1.500000000000001
100
AcDbArc
 50
270.5
 51
0.0
  0
ARC
  5
8A
330
6F
100
AcDbEntity
  8
DV1_Default
 62
     7
100
AcDbCircle
 10
113.9683645991
 20
986.2888509639
 30
0.0
 40
0.699999999999998
100
AcDbArc
 50
90.5
 51
180.0
  0
ARC
  5
8B
330
6F
100
AcDbEntity
  8
DV1_Default
 62
     7
100
AcDbCircle
 10
160.5683645991
 20
986.2888509639
 30
0.0
 40
0.6999999999999993
100
AcDbArc
 50
0.0
 51
89.5
  0
ELLIPSE
  5
8C
330
6F
100
AcDbEntity
  8
DV1_Default
 62
     7
100
AcDbEllipse
 10
137.2683645991
 20
1230.5638516797
 30
0.0
 11
12.50000000000001
 21
0.0
 31
0.0
210
0.0
220
0.0
230
1.0
 40
0.1736481777
 41
0.0
 42
0.0114125368641233
  0
ELLIPSE
  5
8D
330
6F
100
AcDbEntity
  8
DV1_Default
 62
     7
100
AcDbEllipse
 10
137.2683645991
 20
1192.4517916381
 30
0.0
 11
12.50000000000001
 21
0.0
 31
0.0
210
0.0
220
0.0
230
1.0
 40
0.1736481777
 41
0.0
 42
3.140735996070258
  0
ELLIPSE
  5
8E
330
6F
100
AcDbEntity
  8
DV1_Default
 62
     7
100
AcDbEllipse
 10
137.2683645991
 20
1191.4669838851
 30
0.0
 11
11.50000000000001
 21
0.0
 31
0.0
210
0.0
220
0.0
230
1.0
 40
0.1736481777
 41
0.0
 42
0.828328869727285
  0
ELLIPSE
  5
8F
330
6F
100
AcDbEntity
  8
DV1_Default
 62
     7
100
AcDbEllipse
 10
137.2683645991
 20
1191.4669838851
 30
0.0
 11
11.50000000000001
 21
0.0
 31
0.0
210
0.0
220
0.0
230
1.0
 40
0.1736481777
 41
0.8283288697272848
 42
2.460863753750159
  0
ELLIPSE
  5
90
330
6F
100
AcDbEntity
  8
DV1_Default
 62
     7
100
AcDbEllipse
 10
137.2683645991
 20
1191.4669838851
 30
0.0
 11
11.50000000000001
 21
0.0
 31
0.0
210
0.0
220
0.0
230
1.0
 40
0.1736481777
 41
2.460863753750159
 42
4.36166846565657
  0
ELLIPSE
  5
91
330
6F
100
AcDbEntity
  8
DV1_Default
 62
     7
100
AcDbEllipse
 10
137.2683645991
 20
1191.4669838851
 30
0.0
 11
11.50000000000001
 21
0.0
 31
0.0
210
0.0
220
0.0
230
1.0
 40
0.1736481777
 41
4.361668465656571
 42
5.156420602932217
  0
ELLIPSE
  5
92
330
6F
100
AcDbEntity
  8
DV1_Default
 62
     7
100
AcDbEllipse
 10
137.2683645991
 20
1191.4669838851
 30
0.0
 11
11.50000000000001
 21
0.0
 31
0.0
210
0.0
220
0.0
230
1.0
 40
0.1736481777
 41
5.156420602932217
 42
6.283185307179586
  0
ELLIPSE
  5
93
330
6F
100
AcDbEntity
  8
DV1_Default
 62
     7
100
AcDbEllipse
 10
137.2683645991
 20
1191.4669838851
 30
0.0
 11
9.904382473088253
 21
0.0
 31
0.0
210
0.0
220
0.0
230
1.0
 40
0.1736481777
 41
5.759151376383032
 42
6.283185307179586
  0
ELLIPSE
  5
94
330
6F
100
AcDbEntity
  8
DV1_Default
 62
     7
100
AcDbEllipse
 10
137.2683645991
 20
1191.4669838851
 30
0.0
 11
9.904382473088253
 21
0.0
 31
0.0
210
0.0
220
0.0
230
1.0
 40
0.1736481777
 41
3.510408213967182
 42
5.759151376383032
  0
ELLIPSE
  5
95
330
6F
100
AcDbEntity
  8
DV1_Default
 62
     7
100
AcDbEllipse
 10
137.2683645991
 20
1191.4669838851
 30
0.0
 11
9.904382473088253
 21
0.0
 31
0.0
210
0.0
220
0.0
230
1.0
 40
0.1736481777
 41
2.835969737451428
 42
3.510408213967183
  0
ELLIPSE
  5
96
330
6F
100
AcDbEntity
  8
DV1_Default
 62
     7
100
AcDbEllipse
 10
137.2683645991
 20
1191.4669838851
 30
0.0
 11
9.904382473088253
 21
0.0
 31
0.0
210
0.0
220
0.0
230
1.0
 40
0.1736481777
 41
0.3063219231041181
 42
2.835969737451428
  0
ELLIPSE
  5
97
330
6F
100
AcDbEntity
  8
DV1_Default
 62
     7
100
AcDbEllipse
 10
137.2683645991
 20
1191.4669838851
 30
0.0
 11
9.904382473088253
 21
0.0
 31
0.0
210
0.0
220
0.0
230
1.0
 40
0.1736481777
 41
0.0
 42
0.3063219231041178
  0
ELLIPSE
  5
98
330
6F
100
AcDbEntity
  8
DV1_Default
 62
     7
100
AcDbEllipse
 10
137.2683645991
 20
1191.9636847415
 30
0.0
 11
9.404401511556161
 21
0.0
 31
0.0
210
0.0
220
0.0
230
1.0
 40
0.1736481777
 41
3.161863360024357
 42
3.440500727809214
  0
ELLIPSE
  5
99
330
6F
100
AcDbEntity
  8
DV1_Default
 62
     7
100
AcDbEllipse
 10
137.2683645991
 20
1191.9636847415
 30
0.0
 11
9.404401511556161
 21
0.0
 31
0.0
210
0.0
220
0.0
230
1.0
 40
0.1736481777
 41
5.984277232960146
 42
6.283185307179586
  0
LINE
  5
9A
330
6F
100
AcDbEntity
  8
DV1_Default
 62
     7
100
AcDbLine
 10
124.7683645991
 20
1230.5638516797
 30
0.0
 11
124.7683645991
 21
1192.4517916381
 31
0.0
  0
LINE
  5
9B
330
6F
100
AcDbEntity
  8
DV1_Default
 62
     7
100
AcDbLine
 10
149.7683645991
 20
1192.4517916381
 30
0.0
 11
149.7683645991
 21
1230.5638516797
 31
0.0
  0
ARC
  5
9C
330
6F
100
AcDbEntity
  8
DV1_Default
 62
     7
100
AcDbCircle
 10
125.6454563742
 20
1230.5110835717
 30
0.0
 40
0.8786776741791672
100
AcDbArc
 50
151.1053193144
 51
176.5570877403
  0
SPLINE
  5
9D
330
6F
100
AcDbEntity
  8
DV1_Default
 62
     7
100
AcDbSpline
210
0.0
220
0.0
230
1.0
 70
     8
 71
     3
 72
     9
 73
     5
 74
     0
 42
0.000000001
 43
0.0000000001
 40
0.0
 40
0.0
 40
0.0
 40
0.0
 40
0.3013984651606542
 40
1.0
 40
1.0
 40
1.0
 40
1.0
 10
149.7676126934408
 20
1230.587972725487
 30
0.0
 10
149.7682891336495
 20
1230.630549338782
 30
0.0
 10
149.7695403100437
 20
1230.750596019037
 30
0.0
 10
149.7108007355061
 20
1230.869048091925
 30
0.0
 10
149.6582806684303
 20
1230.946114585869
 30
0.0
  0
SPLINE
  5
9E
330
6F
100
AcDbEntity
  8
DV1_Default
 62
     7
100
AcDbSpline
210
0.0
220
0.0
230
1.0
 70
     8
 71
     3
 72
    18
 73
    14
 74
     0
 42
0.000000001
 43
0.0000000001
 40
0.0
 40
0.0
 40
0.0
 40
0.0
 40
0.0692159678769673
 40
0.1751215263885686
 40
0.2815210466553578
 40
0.3887178138227148
 40
0.497264126004283
 40
0.6082725189563879
 40
0.7242375968523651
 40
0.8156168558465496
 40
0.8845203992159489
 40
0.946890220517818
 40
1.0
 40
1.0
 40
1.0
 40
1.0
 10
142.3248819904436
 20
1189.658524109675
 30
0.0
 10
142.6365171507814
 20
1189.684185246989
 30
0.0
 10
143.3037347272097
 20
1189.740024563963
 30
0.0
 10
144.3897896125698
 20
1189.868809569616
 30
0.0
 10
145.4926426642498
 20
1190.033499710276
 30
0.0
 10
146.4953430884915
 20
1190.225988636182
 30
0.0
 10
147.3808648048253
 20
1190.44505726069
 30
0.0
 10
148.1523575638022
 20
1190.698169059986
 30
0.0
 10
148.7559717715877
 20
1190.975392001871
 30
0.0
 10
149.2042221445606
 20
1191.284118777681
 30
0.0
 10
149.5198393298128
 20
1191.626043940361
 30
0.0
 10
149.7291587720613
 20
1192.029384960928
 30
0.0
 10
149.7554089864283
 20
1192.302035752525
 30
0.0
 10
149.7683645990891
 20
1192.451791638096
 30
0.0
  0
SPLINE
  5
9F
330
6F
100
AcDbEntity
  8
DV1_Default
 62
     7
100
AcDbSpline
210
0.0
220
0.0
230
1.0
 70
     8
 71
     3
 72
    19
 73
    15
 74
     0
 42
0.000000001
 43
0.0000000001
 40
0.0
 40
0.0
 40
0.0
 40
0.0
 40
0.0343279623304656
 40
0.0915518815924102
 40
0.1497724995197407
 40
0.2170058220511123
 40
0.3033699893966529
 40
0.4137763601623715
 40
0.5222339894856635
 40
0.6251266318715467
 40
0.7253755414312463
 40
0.8242838958580722
 40
0.9224421778905235
 40
1.0
 40
1.0
 40
1.0
 40
1.0
 10
124.7917330316547
 20
1192.458819188372
 30
0.0
 10
124.787256060246
 20
1192.353720417058
 30
0.0
 10
124.7786636178423
 20
1192.117256596142
 30
0.0
 10
124.9487813196612
 20
1191.736319745487
 30
0.0
 10
125.2106429202061
 20
1191.400606795148
 30
0.0
 10
125.5678436074955
 20
1191.110419706741
 30
0.0
 10
126.0656141453591
 20
1190.832909204688
 30
0.0
 10
126.7532550226383
 20
1190.565865094304
 30
0.0
 10
127.6310728595617
 20
1190.319329714978
 30
0.0
 10
128.6250321980039
 20
1190.107841894014
 30
0.0
 10
129.7174790548837
 20
1189.927603756999
 30
0.0
 10
130.89435867597
 20
1189.777281902439
 30
0.0
 10
132.0957941529361
 20
1189.658260863145
 30
0.0
 10
132.8436868589983
 20
1189.608000321817
 30
0.0
 10
133.234563711868
 20
1189.58231278577
 30
0.0
  0
SPLINE
  5
A0
330
6F
100
AcDbEntity
  8
DV1_Default
 62
     7
100
AcDbSpline
210
0.0
220
0.0
230
1.0
 70
     8
 71
     3
 72
    10
 73
     6
 74
     0
 42
0.000000001
 43
0.0000000001
 40
0.0
 40
0.0
 40
0.0
 40
0.0
 40
0.3483199784128909
 40
0.8716553816374586
 40
1.0
 40
1.0
 40
1.0
 40
1.0
 10
146.4558016852984
 20
1192.042291998259
 30
0.0
 10
146.5154450016493
 20
1192.009485259987
 30
0.0
 10
146.6390500237868
 20
1191.943696140032
 30
0.0
 10
146.6877387263467
 20
1191.884628758855
 30
0.0
 10
146.6901837892677
 20
1191.88089766368
 30
0.0
 10
146.689908058026
 20
1191.881404094572
 30
0.0
  0
SPLINE
  5
A1
330
6F
100
AcDbEntity
  8
DV1_Default
 62
     7
100
AcDbSpline
210
0.0
220
0.0
230
1.0
 70
     8
 71
     3
 72
    10
 73
     6
 74
     0
 42
0.000000001
 43
0.0000000001
 40
0.0
 40
0.0
 40
0.0
 40
0.0
 40
0.0630123064188554
 40
0.6387635673265043
 40
1.0
 40
1.0
 40
1.0
 40
1.0
 10
127.8466192978635
 20
1191.881149115336
 30
0.0
 10
127.846303251125
 20
1191.880662970868
 30
0.0
 10
127.8452450830405
 20
1191.879185427906
 30
0.0
 10
127.8879322204788
 20
1191.937936730895
 30
0.0
 10
128.0176017165124
 20
1192.007317868326
 30
0.0
 10
128.078067592688
 20
1192.041181330338
 30
0.0
  0
ARC
  5
A2
330
6F
100
AcDbEntity
  8
DV1_Default
 62
     7
100
AcDbCircle
 10
223.5141671681
 20
1111.8483596928
 30
0.0
 40
7.417062172983203
100
AcDbArc
 50
174.5869470303
 51
175.360324967
  0
SPLINE
  5
A3
330
6F
100
AcDbEntity
  8
DV1_Default
 62
     7
100
AcDbSpline
210
0.0
220
0.0
230
1.0
 70
     8
 71
     3
 72
    26
 73
    22
 74
     0
 42
0.000000001
 43
0.0000000001
 40
0.0
 40
0.0
 40
0.0
 40
0.0
 40
0.2500000000000001
 40
0.2500000000000001
 40
0.5000000000000001
 40
0.5000000000000001
 40
0.6250000000000002
 40
0.6250000000000002
 40
0.6875000000000002
 40
0.6875000000000002
 40
0.7500000000000002
 40
0.7500000000000002
 40
0.7812500000000002
 40
0.7812500000000002
 40
0.8125000000000002
 40
0.8125000000000002
 40
0.8437500000000001
 40
0.8437500000000001
 40
0.8750000000000001
 40
0.8750000000000001
 40
1.0
 40
1.0
 40
1.0
 40
1.0
 10
218.7057275044685
 20
1106.669995711695
 30
0.0
 10
218.6496561114303
 20
1099.790862002422
 30
0.0
 10
218.6366691726284
 20
1092.91196357971
 30
0.0
 10
218.5433121426193
 20
1079.153664950794
 30
0.0
 10
218.4846223654911
 20
1072.274393502231
 30
0.0
 10
218.3696742880084
 20
1061.95504701662
 30
0.0
 10
218.3288717208249
 20
1058.515174242287
 30
0.0
 10
218.2355690545453
 20
1053.355411471195
 30
0.0
 10
218.239318425517
 20
1051.621522947564
 30
0.0
 10
217.0385375723584
 20
1048.356747928372
 30
0.0
 10
215.8497972382076
 20
1046.888733351722
 30
0.0
 10
213.5689079156708
 20
1045.370166433188
 30
0.0
 10
212.7111615985328
 20
1044.972371807568
 30
0.0
 10
210.9369426611871
 20
1044.419011866755
 30
0.0
 10
209.9988035525272
 20
1044.26547579233
 30
0.0
 10
208.1376679001602
 20
1044.09537893598
 30
0.0
 10
207.2048200462507
 20
1044.058992272022
 30
0.0
 10
205.3402838067629
 20
1043.961669161349
 30
0.0
 10
204.4078727736691
 20
1043.916131511547
 30
0.0
 10
199.7450886124105
 20
1043.70432176514
 30
0.0
 10
196.0123923267616
 20
1043.582904036652
 30
0.0
 10
192.2791899154418
 20
1043.500585259574
 30
0.0
  0
ARC
  5
A4
330
6F
100
AcDbEntity
  8
DV1_Default
 62
     7
100
AcDbCircle
 10
330.2626806338
 20
1106.2253117086
 30
0.0
 40
111.5578394168361
100
AcDbArc
 50
179.1649069327
 51
179.7716109939
  0
SPLINE
  5
A5
330
6F
100
AcDbEntity
  8
DV1_Default
 62
     7
100
AcDbSpline
210
0.0
220
0.0
230
1.0
 70
     8
 71
     3
 72
    16
 73
    12
 74
     0
 42
0.000000001
 43
0.0000000001
 40
0.0
 40
0.0
 40
0.0
 40
0.0
 40
0.0811975352690988
 40
0.0811975352690988
 40
0.264958028215279
 40
0.264958028215279
 40
0.4487185211614593
 40
0.4487185211614593
 40
0.6324790141076395
 40
0.6324790141076395
 40
1.0
 40
1.0
 40
1.0
 40
1.0
 10
218.724676759716
 20
1122.253074326128
 30
0.0
 10
218.7200349783054
 20
1122.253295880851
 30
0.0
 10
218.7144828455044
 20
1122.209811595732
 30
0.0
 10
218.6933379275415
 20
1121.924398315158
 30
0.0
 10
218.6575567956952
 20
1121.497583592485
 30
0.0
 10
218.6571735326105
 20
1120.238459199083
 30
0.0
 10
218.6933331243555
 20
1119.403346266256
 30
0.0
 10
218.7226059375809
 20
1117.476483210748
 30
0.0
 10
218.7325645701072
 20
1116.357230903022
 30
0.0
 10
218.7486609010136
 20
1112.823664500373
 30
0.0
 10
218.7476326871514
 20
1110.161032033911
 30
0.0
 10
218.7166903588749
 20
1107.851223437041
 30
0.0
  0
ARC
  5
A6
330
6F
100
AcDbEntity
  8
DV1_Default
 62
     7
100
AcDbCircle
 10
193.8333812924
 20
887.975276975
 30
0.0
 40
155.5330737427012
100
AcDbArc
 50
90.5725476026
 51
91.1690151636
  0
ARC
  5
A7
330
6F
100
AcDbEntity
  8
DV1_Default
 62
     7
100
AcDbCircle
 10
205.1155568619
 20
1046.2162450238
 30
0.0
 40
15.00195700744689
100
AcDbArc
 50
190.2567366917
 51
212.6167917304
  0
ARC
  5
A8
330
6F
100
AcDbEntity
  8
DV1_Default
 62
     7
100
AcDbCircle
 10
212.7932104874
 20
1047.8242828265
 30
0.0
 40
22.84426019834597
100
AcDbArc
 50
179.6641687216
 51
190.7966486138
  0
LINE
  5
A9
330
6F
100
AcDbEntity
  8
DV1_Default
 62
     7
100
AcDbLine
 10
189.9493427016
 20
1047.9581805279
 30
0.0
 11
189.9493427016
 21
1070.8949265333
 31
0.0
  0
SPLINE
  5
AA
330
6F
100
AcDbEntity
  8
DV1_Default
 62
     7
100
AcDbSpline
210
0.0
220
0.0
230
1.0
 70
     8
 71
     3
 72
    12
 73
     8
 74
     0
 42
0.000000001
 43
0.0000000001
 40
0.0
 40
0.0
 40
0.0
 40
0.0
 40
0.3185834714050539
 40
0.3185834714050539
 40
0.9879129533482963
 40
0.9879129533482963
 40
1.0
 40
1.0
 40
1.0
 40
1.0
 10
197.33422924982
 20
1032.624439593484
 30
0.0
 10
197.503227286061
 20
1032.509177510668
 30
0.0
 10
197.6659345377681
 20
1032.413110677566
 30
0.0
 10
198.1498193750533
 20
1032.176316898216
 30
0.0
 10
198.449636648241
 20
1032.104612028451
 30
0.0
 10
198.712200179142
 20
1032.127240953911
 30
0.0
 10
198.7168450847499
 20
1032.127672223959
 30
0.0
 10
198.7214775047919
 20
1032.128133389537
 30
0.0
  0
SPLINE
  5
AB
330
6F
100
AcDbEntity
  8
DV1_Default
 62
     7
100
AcDbSpline
210
0.0
220
0.0
230
1.0
 70
     8
 71
     3
 72
    10
 73
     6
 74
     0
 42
0.000000001
 43
0.0000000001
 40
0.0
 40
0.0
 40
0.0
 40
0.0
 40
0.4199623795467229
 40
0.4199623795467229
 40
1.0
 40
1.0
 40
1.0
 40
1.0
 10
196.9567687434128
 20
1032.85505136149
 30
0.0
 10
196.4372296531379
 20
1033.218161466384
 30
0.0
 10
195.8601842355364
 20
1033.75557189042
 30
0.0
 10
194.3744024319613
 20
1035.415999661013
 30
0.0
 10
193.4547712442284
 20
1036.645009815655
 30
0.0
 10
192.4794915441282
 20
1038.129925258934
 30
0.0
  0
SPLINE
  5
AC
330
6F
100
AcDbEntity
  8
DV1_Default
 62
     7
100
AcDbSpline
210
0.0
220
0.0
230
1.0
 70
     8
 71
     3
 72
    10
 73
     6
 74
     0
 42
0.000000001
 43
0.0000000001
 40
0.0
 40
0.0
 40
0.0
 40
0.0
 40
0.4390354388274629
 40
0.4390354388274629
 40
1.0
 40
1.0
 40
1.0
 40
1.0
 10
190.3569954171652
 20
1043.524855702924
 30
0.0
 10
190.367014812084
 20
1043.501825598888
 30
0.0
 10
190.3968494501651
 20
1043.483323222276
 30
0.0
 10
190.4990935105543
 20
1043.460347040019
 30
0.0
 10
190.5802025941393
 20
1043.461381289966
 30
0.0
 10
190.6602347102659
 20
1043.475978480222
 30
0.0
  0
LINE
  5
AD
330
6F
100
AcDbEntity
  8
DV1_Default
 62
     7
100
AcDbLine
 10
220.1436183525
 20
1122.2464664097
 30
0.0
 11
218.6484172278
 21
1122.2538461846
 31
0.0
  0
ARC
  5
AE
330
6F
100
AcDbEntity
  8
DV1_Default
 62
     7
100
AcDbCircle
 10
-741.1653554559
 20
1078.3586513271
 30
0.0
 40
962.9304288222762
100
AcDbArc
 50
357.4167385403
 51
2.5720882723
  0
SPLINE
  5
AF
330
6F
100
AcDbEntity
  8
DV1_Default
 62
     7
100
AcDbSpline
210
0.0
220
0.0
230
1.0
 70
     8
 71
     3
 72
    36
 73
    32
 74
     0
 42
0.000000001
 43
0.0000000001
 40
0.0
 40
0.0
 40
0.0
 40
0.0
 40
0.0749664369686702
 40
0.1416024719130382
 40
0.1999712063114389
 40
0.2501114756780656
 40
0.2920457127307707
 40
0.3257871118933843
 40
0.3514079443158385
 40
0.3962737560091197
 40
0.448440487943376
 40
0.504337165377773
 40
0.5511865834738193
 40
0.5977231231122558
 40
0.625185347841506
 40
0.6480403962198011
 40
0.6660791236516641
 40
0.6746288086594835
 40
0.6866331829393403
 40
0.7022604774123796
 40
0.7163413100327458
 40
0.7323815298679575
 40
0.7503735652572959
 40
0.7703919696970695
 40
0.8041462274189688
 40
0.8425957021421692
 40
0.8858045410510235
 40
0.9501925811239091
 40
0.9811910456614339
 40
0.9953490672131888
 40
1.0
 40
1.0
 40
1.0
 40
1.0
 10
216.1178949530269
 20
1112.448873977844
 30
0.0
 10
215.9985678782114
 20
1110.707513213102
 30
0.0
 10
215.8099660391404
 20
1107.940295047518
 30
0.0
 10
215.5911845694591
 20
1103.614107895888
 30
0.0
 10
215.4205066111634
 20
1099.903898439654
 30
0.0
 10
215.2859545533437
 20
1096.694101322342
 30
0.0
 10
215.1800419417623
 20
1094.013766853788
 30
0.0
 10
215.0981555269799
 20
1091.862573522809
 30
0.0
 10
215.0157347260791
 20
1089.654928982234
 30
0.0
 10
214.9237452395475
 20
1087.15703519435
 30
0.0
 10
214.8123753324629
 20
1084.213769689038
 30
0.0
 10
214.693810571636
 20
1081.399948810456
 30
0.0
 10
214.5390499234257
 20
1078.889942950291
 30
0.0
 10
214.3323890456159
 20
1077.051954032574
 30
0.0
 10
213.9767791871415
 20
1075.604430369362
 30
0.0
 10
213.5409815647535
 20
1074.601433831441
 30
0.0
 10
213.0760908181075
 20
1073.92205782451
 30
0.0
 10
212.6162579790339
 20
1073.400007413096
 30
0.0
 10
212.0950369906361
 20
1072.906589123314
 30
0.0
 10
211.4050235634078
 20
1072.386882369416
 30
0.0
 10
210.5492264001105
 20
1071.891807586287
 30
0.0
 10
209.5345543896585
 20
1071.501390023386
 30
0.0
 10
208.296861534761
 20
1071.242326850687
 30
0.0
 10
206.5982884411031
 20
1071.06306426898
 30
0.0
 10
204.3760804432822
 20
1071.000908418639
 30
0.0
 10
201.5855193944045
 20
1071.006733032521
 30
0.0
 10
198.0523734728483
 20
1071.047531502932
 30
0.0
 10
194.679933601425
 20
1071.106571733808
 30
0.0
 10
192.048551284201
 20
1071.160943843638
 30
0.0
 10
190.8096945447906
 20
1071.18252164135
 30
0.0
 10
190.3814548225305
 20
1071.194595280035
 30
0.0
 10
190.25745945477
 20
1071.198081367123
 30
0.0
  0
ARC
  5
B0
330
6F
100
AcDbEntity
  8
DV1_Default
 62
     7
100
AcDbCircle
 10
240.623024845
 20
1112.24909947
 30
0.0
 40
24.4919583035604
100
AcDbArc
 50
157.0477137915
 51
179.2974469636
  0
SPLINE
  5
B1
330
6F
100
AcDbEntity
  8
DV1_Default
 62
     7
100
AcDbSpline
210
0.0
220
0.0
230
1.0
 70
     8
 71
     3
 72
     8
 73
     4
 74
     0
 42
0.000000001
 43
0.0000000001
 40
0.0
 40
0.0
 40
0.0
 40
0.0
 40
1.0
 40
1.0
 40
1.0
 40
1.0
 10
198.7017154666072
 20
1032.125873283364
 30
0.0
 10
203.1947446027035
 20
1032.573947218094
 30
0.0
 10
210.3463919146876
 20
1033.285558824189
 30
0.0
 10
220.1566574025593
 20
1034.26070810165
 30
0.0
  0
ARC
  5
B2
330
6F
100
AcDbEntity
  8
DV1_Default
 62
     7
100
AcDbCircle
 10
190.2493322653
 20
1070.8982075846
 30
0.0
 40
0.3000001431864975
100
AcDbArc
 50
88.3826017489
 51
180.4819756814
  0
ARC
  5
B3
330
6F
100
AcDbEntity
  8
DV1_Default
 62
     7
100
AcDbCircle
 10
179.750566712
 20
1050.9836800748
 30
0.0
 40
20.19999999999999
100
AcDbArc
 50
59.6759560151
 51
64.1580672368
  0
ARC
  5
B4
330
6F
100
AcDbEntity
  8
DV1_Default
 62
     7
100
AcDbCircle
 10
179.750566712
 20
1050.9836800748
 30
0.0
 40
20.2
100
AcDbArc
 50
295.8419327632
 51
313.6621303491
  0
ARC
  5
B5
330
6F
100
AcDbEntity
  8
DV1_Default
 62
     7
100
AcDbCircle
 10
188.4683645991
 20
1032.9836800748
 30
0.0
 40
0.1999999999999988
100
AcDbArc
 50
198.3005778897
 51
295.8419327653
  0
ARC
  5
B6
330
6F
100
AcDbEntity
  8
DV1_Default
 62
     7
100
AcDbCircle
 10
188.4683645991
 20
1068.9836800748
 30
0.0
 40
0.2000000000000082
100
AcDbArc
 50
64.1580672347
 51
161.6994221101
  0
ELLIPSE
  5
B7
330
6F
100
AcDbEntity
  8
DV1_Default
 62
     7
100
AcDbEllipse
 10
137.2683645991
 20
1231.8441017586
 30
0.0
 11
12.4
 21
2.775557561562891E-14
 31
0.0
210
0.0
220
0.0
230
1.0
 40
0.1736481777
 41
0.0
 42
3.14159265358978
  0
ELLIPSE
  5
B8
330
6F
100
AcDbEntity
  8
DV1_Default
 62
     7
100
AcDbEllipse
 10
137.2683645991
 20
1230.8592940056
 30
0.0
 11
12.4
 21
2.775557561562891E-14
 31
0.0
210
0.0
220
0.0
230
1.0
 40
0.1736481777
 41
0.0403318847116738
 42
3.106118815347283
  0
LINE
  5
B9
330
6F
100
AcDbEntity
  8
DV1_Default
 62
     7
100
AcDbLine
 10
149.6683645991
 20
1230.9305921734
 30
0.0
 11
149.6683645991
 21
1231.8441017586
 31
0.0
  0
LINE
  5
BA
330
6F
100
AcDbEntity
  8
DV1_Default
 62
     7
100
AcDbLine
 10
124.8683645991
 20
1231.8441017586
 30
0.0
 11
124.8683645991
 21
1230.9212089528
 31
0.0
  0
LINE
  5
BB
330
6F
100
AcDbEntity
  8
DV1_Default
 62
     7
100
AcDbLine
 10
136.7683645991
 20
1090.0327688113
 30
0.0
 11
136.7683645991
 21
1089.9827688113
 31
0.0
  0
LINE
  5
BC
330
6F
100
AcDbEntity
  8
DV1_Default
 62
     7
100
AcDbLine
 10
137.7683645991
 20
1089.9827688113
 30
0.0
 11
137.7683645991
 21
1090.0327688113
 31
0.0
  0
LINE
  5
BD
330
6F
100
AcDbEntity
  8
DV1_Default
 62
     7
100
AcDbLine
 10
149.5183645991
 20
1089.9827688113
 30
0.0
 11
149.5183645991
 21
1090.0327688113
 31
0.0
  0
LINE
  5
BE
330
6F
100
AcDbEntity
  8
DV1_Default
 62
     7
100
AcDbLine
 10
125.0183645991
 20
1090.0327688113
 30
0.0
 11
125.0183645991
 21
1089.9827688113
 31
0.0
  0
LINE
  5
BF
330
6F
100
AcDbEntity
  8
DV1_Default
 62
     7
100
AcDbLine
 10
124.8683645991
 20
1090.0327688113
 30
0.0
 11
149.6683645991
 21
1090.0327688113
 31
0.0
  0
LINE
  5
C0
330
6F
100
AcDbEntity
  8
DV1_Default
 62
     7
100
AcDbLine
 10
124.8683645991
 20
1191.9888628712
 30
0.0
 11
124.8683645991
 21
1090.0327688113
 31
0.0
  0
LINE
  5
C1
330
6F
100
AcDbEntity
  8
DV1_Default
 62
     7
100
AcDbLine
 10
149.6683645991
 20
1090.0327688113
 30
0.0
 11
149.6683645991
 21
1191.9707347388
 31
0.0
  0
ARC
  5
C2
330
6F
100
AcDbEntity
  8
DV1_Default
 62
     7
100
AcDbCircle
 10
137.2683645991
 20
1327.6327688113
 30
0.0
 40
12.4
100
AcDbArc
 50
0.0
 51
180.0
  0
LINE
  5
C3
330
6F
100
AcDbEntity
  8
DV1_Default
 62
     7
100
AcDbLine
 10
124.8683645991
 20
1327.6327688113
 30
0.0
 11
124.8683645991
 21
1241.6921792887
 31
0.0
  0
LINE
  5
C4
330
6F
100
AcDbEntity
  8
DV1_Default
 62
     7
100
AcDbLine
 10
149.6683645991
 20
1241.6921792887
 30
0.0
 11
149.6683645991
 21
1327.6327688113
 31
0.0
  0
LINE
  5
C5
330
6F
100
AcDbEntity
  8
DV1_Default
 62
     7
100
AcDbLine
 10
149.6683645991
 20
1231.8441017586
 30
0.0
 11
149.6683645991
 21
1241.6921792887
 31
0.0
  0
LINE
  5
C6
330
6F
100
AcDbEntity
  8
DV1_Default
 62
     7
100
AcDbLine
 10
124.8683645991
 20
1241.6921792887
 30
0.0
 11
124.8683645991
 21
1231.8441017586
 31
0.0
  0
ELLIPSE
  5
C7
330
6F
100
AcDbEntity
  8
DV1_Default
 62
     7
100
AcDbEllipse
 10
137.2683645991
 20
1191.5654646604
 30
0.0
 11
-9.0
 21
0.0
 31
0.0
210
0.0
220
0.0
230
1.0
 40
0.1736481777
 41
0.0
 42
6.283185307179586
  0
ELLIPSE
  5
C8
330
6F
100
AcDbEntity
  8
DV1_Default
 62
     7
100
AcDbEllipse
 10
137.2683645991
 20
1191.5654646604
 30
0.0
 11
5.250000000000002
 21
0.0
 31
0.0
210
0.0
220
0.0
230
1.0
 40
0.1736481777
 41
0.0
 42
6.283185307179586
  0
ELLIPSE
  5
C9
330
6F
100
AcDbEntity
  8
DV1_Default
 62
     7
100
AcDbEllipse
 10
137.2683645991
 20
1191.5654646604
 30
0.0
 11
-6.250000000000001
 21
0.0
 31
0.0
210
0.0
220
0.0
230
1.0
 40
0.1736481777
 41
0.0
 42
6.283185307179586
  0
ELLIPSE
  5
CA
330
6F
100
AcDbEntity
  8
DV1_Default
 62
     7
100
AcDbEllipse
 10
137.2683645991
 20
1191.5654646604
 30
0.0
 11
-2.750000000000001
 21
-2.775557561562891E-14
 31
0.0
210
0.0
220
0.0
230
1.0
 40
0.1736481777
 41
0.0
 42
6.283185307179586
  0
ELLIPSE
  5
CB
330
6F
100
AcDbEntity
  8
DV1_Default
 62
     7
100
AcDbEllipse
 10
137.2683645991
 20
1191.5654646604
 30
0.0
 11
2.150000000000001
 21
0.0
 31
0.0
210
0.0
220
0.0
230
1.0
 40
0.1736481777
 41
0.0
 42
6.283185307179586
  0
ELLIPSE
  5
CC
330
6F
100
AcDbEntity
  8
DV1_Default
 62
     7
100
AcDbEllipse
 10
137.2683645991
 20
1191.762426211
 30
0.0
 11
0.5196299438963558
 21
0.0
 31
0.0
210
0.0
220
0.0
230
1.0
 40
0.1736481777
 41
0.0
 42
6.283185307179586
  0
ELLIPSE
  5
CD
330
6F
100
AcDbEntity
  8
DV1_Default
 62
     7
100
AcDbEllipse
 10
137.2683645991
 20
1191.5654646604
 30
0.0
 11
8.700000000000005
 21
0.0
 31
0.0
210
0.0
220
0.0
230
1.0
 40
0.1736481777
 41
0.0
 42
6.283185307179586
  0
ARC
  5
CE
330
6F
100
AcDbEntity
  8
DV1_Default
 62
     7
100
AcDbCircle
 10
129.0252414783
 20
1191.762426211
 30
0.0
 40
0.256876225979309
100
AcDbArc
 50
176.1238526717
 51
183.8761473283
  0
ARC
  5
CF
330
6F
100
AcDbEntity
  8
DV1_Default
 62
     7
100
AcDbCircle
 10
131.2076010858
 20
1191.762426211
 30
0.0
 40
0.1892348465220835
100
AcDbArc
 50
174.7349422714
 51
180.0
  0
ELLIPSE
  5
D0
330
6F
100
AcDbEntity
  8
DV1_Default
 62
     7
100
AcDbEllipse
 10
137.2683645991
 20
1191.762426211
 30
0.0
 11
-8.50000000003029
 21
-1.304512053934559E-12
 31
0.0
210
0.0
220
0.0
230
1.0
 40
0.1736481777
 41
0.0117649772882631
 42
0.2500344105105875
  0
LINE
  5
D1
330
6F
100
AcDbEntity
  8
DV1_Default
 62
     7
100
AcDbLine
 10
131.0191646503
 20
1191.7797910288
 30
0.0
 11
131.0191646503
 21
1192.0352171594
 31
0.0
  0
LINE
  5
D2
330
6F
100
AcDbEntity
  8
DV1_Default
 62
     7
100
AcDbLine
 10
131.0191646503
 20
1191.7797910288
 30
0.0
 11
128.7689528547
 21
1191.7797910288
 31
0.0
  0
LINE
  5
D3
330
6F
100
AcDbEntity
  8
DV1_Default
 62
     7
100
AcDbLine
 10
131.0183645991
 20
1191.7450613932
 30
0.0
 11
128.7689528547
 21
1191.7450613932
 31
0.0
  0
LINE
  5
D4
330
6F
100
AcDbEntity
  8
DV1_Default
 62
     7
100
AcDbLine
 10
138.5525787752
 20
1191.7065414762
 30
0.0
 11
137.8222272197
 21
1191.9262074631
 31
0.0
  0
LINE
  5
D5
330
6F
100
AcDbEntity
  8
DV1_Default
 62
     7
100
AcDbLine
 10
138.5525787752
 20
1191.8648904156
 30
0.0
 11
138.5525787752
 21
1191.7065414762
 31
0.0
  0
LINE
  5
D6
330
6F
100
AcDbEntity
  8
DV1_Default
 62
     7
100
AcDbLine
 10
138.1195660733
 20
1191.6631294318
 30
0.0
 11
137.787994543
 21
1191.7628553609
 31
0.0
  0
ELLIPSE
  5
D7
330
6F
100
AcDbEntity
  8
DV1_Default
 62
     7
100
AcDbEllipse
 10
137.2683645991
 20
1192.0059672314
 30
0.0
 11
2.150000000001532
 21
-7.771561172376096E-13
 31
0.0
210
0.0
220
0.0
230
1.0
 40
0.1736481777
 41
-1.16374025964551
 42
-0.9306548427469972
  0
ELLIPSE
  5
D8
330
6F
100
AcDbEntity
  8
DV1_Default
 62
     7
100
AcDbEllipse
 10
137.2683645991
 20
1191.762426211
 30
0.0
 11
-8.500000000026468
 21
1.193489751472043E-12
 31
0.0
210
0.0
220
0.0
230
1.0
 40
0.1736481777
 41
6.171271384236254
 42
6.271420329891163
  0
ELLIPSE
  5
D9
330
6F
100
AcDbEntity
  8
DV1_Default
 62
     7
100
AcDbEllipse
 10
137.2683645774
 20
1191.762426212
 30
0.0
 11
-6.249999978293154
 21
-9.846012893888201E-10
 31
0.0
210
0.0
220
0.0
230
1.0
 40
0.1736481779
 41
-0.2778000710498434
 42
-0.245798705501719
  0
LINE
  5
DA
330
6F
100
AcDbEntity
  8
DV1_Default
 62
     7
100
AcDbLine
 10
131.2579828794
 20
1192.0600599769
 30
0.0
 11
131.2579828794
 21
1192.3449508071
 31
0.0
  0
LINE
  5
DB
330
6F
100
AcDbEntity
  8
DV1_Default
 62
     7
100
AcDbLine
 10
131.2579828794
 20
1192.0600599769
 30
0.0
 11
129.253988702
 21
1192.1533035995
 31
0.0
  0
LINE
  5
DC
330
6F
100
AcDbEntity
  8
DV1_Default
 62
     7
100
AcDbLine
 10
131.2062190704
 20
1192.026513725
 30
0.0
 11
129.177699812
 21
1192.1208984724
 31
0.0
  0
ELLIPSE
  5
DD
330
6F
100
AcDbEntity
  8
DV1_Default
 62
     7
100
AcDbEllipse
 10
137.2683646039
 20
1191.7624262106
 30
0.0
 11
-6.250000004833228
 21
3.871625242624077E-10
 31
0.0
210
0.0
220
0.0
230
1.0
 40
0.1736481776
 41
-0.5395994581341013
 42
-0.5075980926576378
  0
LINE
  5
DE
330
6F
100
AcDbEntity
  8
DV1_Default
 62
     7
100
AcDbLine
 10
131.9063986901
 20
1192.3200456758
 30
0.0
 11
131.9063986901
 21
1192.668964259
 31
0.0
  0
LINE
  5
DF
330
6F
100
AcDbEntity
  8
DV1_Default
 62
     7
100
AcDbLine
 10
131.9063986901
 20
1192.3200456758
 30
0.0
 11
130.333618859
 21
1192.4777260108
 31
0.0
  0
LINE
  5
E0
330
6F
100
AcDbEntity
  8
DV1_Default
 62
     7
100
AcDbLine
 10
131.8063986901
 20
1192.2899689292
 30
0.0
 11
130.2139355243
 21
1192.449622633
 31
0.0
  0
ELLIPSE
  5
E1
330
6F
100
AcDbEntity
  8
DV1_Default
 62
     7
100
AcDbEllipse
 10
137.268364621
 20
1191.7624262072
 30
0.0
 11
-6.2500000232598
 21
2.774780405445654E-9
 31
0.0
210
0.0
220
0.0
230
1.0
 40
0.1736481777
 41
-0.8013988447850204
 42
-0.7693974793737386
  0
LINE
  5
E2
330
6F
100
AcDbEntity
  8
DV1_Default
 62
     7
100
AcDbLine
 10
132.9202236164
 20
1192.5420305297
 30
0.0
 11
132.9202236164
 21
1192.8739894633
 31
0.0
  0
LINE
  5
E3
330
6F
100
AcDbEntity
  8
DV1_Default
 62
     7
100
AcDbLine
 10
132.9202236164
 20
1192.5420305297
 30
0.0
 11
131.7875302706
 21
1192.738720665
 31
0.0
  0
LINE
  5
E4
330
6F
100
AcDbEntity
  8
DV1_Default
 62
     7
100
AcDbLine
 10
132.7788022602
 20
1192.5174729689
 30
0.0
 11
131.6330148486
 21
1192.7164368649
 31
0.0
  0
ELLIPSE
  5
E5
330
6F
100
AcDbEntity
  8
DV1_Default
 62
     7
100
AcDbEllipse
 10
137.2683646279
 20
1191.7624262023
 30
0.0
 11
-6.250000036048723
 21
4.471062409194815E-9
 31
0.0
210
0.0
220
0.0
230
1.0
 40
0.1736481781
 41
-1.063198231744288
 42
-1.031196866401319
  0
LINE
  5
E6
330
6F
100
AcDbEntity
  8
DV1_Default
 62
     7
100
AcDbLine
 10
134.2303671651
 20
1192.7108866376
 30
0.0
 11
134.2303671651
 21
1192.9811028369
 31
0.0
  0
LINE
  5
E7
330
6F
100
AcDbEntity
  8
DV1_Default
 62
     7
100
AcDbLine
 10
134.2303671651
 20
1192.7108866376
 30
0.0
 11
133.5089224886
 21
1192.927873725
 31
0.0
  0
LINE
  5
E8
330
6F
100
AcDbEntity
  8
DV1_Default
 62
     7
100
AcDbLine
 10
134.0571620843
 20
1192.6935218198
 30
0.0
 11
133.3291843633
 21
1192.9124738345
 31
0.0
  0
ELLIPSE
  5
E9
330
6F
100
AcDbEntity
  8
DV1_Default
 62
     7
100
AcDbEllipse
 10
137.2683646174
 20
1191.7624261992
 30
0.0
 11
-6.250000037555838
 21
3.165107065328243E-9
 31
0.0
210
0.0
220
0.0
230
1.0
 40
0.1736481785
 41
-1.324997620146734
 42
-1.292996254836233
  0
LINE
  5
EA
330
6F
100
AcDbEntity
  8
DV1_Default
 62
     7
100
AcDbLine
 10
135.7475452183
 20
1192.8151067348
 30
0.0
 11
135.7475452183
 21
1193.0529425766
 31
0.0
  0
LINE
  5
EB
330
6F
100
AcDbEntity
  8
DV1_Default
 62
     7
100
AcDbLine
 10
135.7475452183
 20
1192.8151067348
 30
0.0
 11
135.3991007719
 21
1193.0409209744
 31
0.0
  0
LINE
  5
EC
330
6F
100
AcDbEntity
  8
DV1_Default
 62
     7
100
AcDbLine
 10
135.5543600531
 20
1192.8061180437
 30
0.0
 11
135.2041678113
 21
1193.0330649662
 31
0.0
  0
ARC
  5
ED
330
6F
100
AcDbEntity
  8
DV1_Default
 62
     7
100
AcDbCircle
 10
137.2683645991
 20
1156.8598801861
 30
0.0
 40
35.98784714392372
100
AcDbArc
 50
89.8407911065
 51
90.1592088935
  0
LINE
  5
EE
330
6F
100
AcDbEntity
  8
DV1_Default
 62
     7
100
AcDbLine
 10
137.3683645991
 20
1192.847588394
 30
0.0
 11
137.3683645991
 21
1193.076104005
 31
0.0
  0
LINE
  5
EF
330
6F
100
AcDbEntity
  8
DV1_Default
 62
     7
100
AcDbLine
 10
137.1683645991
 20
1192.847588394
 30
0.0
 11
137.1683645991
 21
1193.076104005
 31
0.0
  0
ELLIPSE
  5
F0
330
6F
100
AcDbEntity
  8
DV1_Default
 62
     7
100
AcDbEllipse
 10
137.2683645822
 20
1191.7624262
 30
0.0
 11
6.250000034782332
 21
2.920386155125243E-9
 31
0.0
210
0.0
220
0.0
230
1.0
 40
0.1736481785
 41
1.292996254953447
 42
1.324997620277169
  0
LINE
  5
F1
330
6F
100
AcDbEntity
  8
DV1_Default
 62
     7
100
AcDbLine
 10
138.9823691451
 20
1192.8061180437
 30
0.0
 11
139.3325613869
 21
1193.0330649662
 31
0.0
  0
LINE
  5
F2
330
6F
100
AcDbEntity
  8
DV1_Default
 62
     7
100
AcDbLine
 10
138.7891839799
 20
1192.8151067348
 30
0.0
 11
139.1376284263
 21
1193.0409209744
 31
0.0
  0
LINE
  5
F3
330
6F
100
AcDbEntity
  8
DV1_Default
 62
     7
100
AcDbLine
 10
138.7891839799
 20
1192.8151067348
 30
0.0
 11
138.7891839799
 21
1193.0529425766
 31
0.0
  0
ELLIPSE
  5
F4
330
6F
100
AcDbEntity
  8
DV1_Default
 62
     7
100
AcDbEllipse
 10
137.2683645698
 20
1191.7624262022
 30
0.0
 11
6.25000003657331
 21
4.536176989589080E-9
 31
0.0
210
0.0
220
0.0
230
1.0
 40
0.1736481781
 41
1.031196866375245
 42
1.063198231715996
  0
LINE
  5
F5
330
6F
100
AcDbEntity
  8
DV1_Default
 62
     7
100
AcDbLine
 10
140.4795671139
 20
1192.6935218198
 30
0.0
 11
141.2075448349
 21
1192.9124738345
 31
0.0
  0
LINE
  5
F6
330
6F
100
AcDbEntity
  8
DV1_Default
 62
     7
100
AcDbLine
 10
140.3063620331
 20
1192.7108866376
 30
0.0
 11
141.0278067096
 21
1192.927873725
 31
0.0
  0
LINE
  5
F7
330
6F
100
AcDbEntity
  8
DV1_Default
 62
     7
100
AcDbLine
 10
140.3063620331
 20
1192.7108866376
 30
0.0
 11
140.3063620331
 21
1192.9811028369
 31
0.0
  0
ELLIPSE
  5
F8
330
6F
100
AcDbEntity
  8
DV1_Default
 62
     7
100
AcDbEllipse
 10
137.2683645951
 20
1191.7624262103
 30
0.0
 11
6.250000004199784
 21
4.987399382372359E-10
 31
0.0
210
0.0
220
0.0
230
1.0
 40
0.1736481777
 41
0.7693974804220574
 42
0.8013988458983398
  0
LINE
  5
F9
330
6F
100
AcDbEntity
  8
DV1_Default
 62
     7
100
AcDbLine
 10
141.757926938
 20
1192.5174729689
 30
0.0
 11
142.9037143496
 21
1192.7164368649
 31
0.0
  0
LINE
  5
FA
330
6F
100
AcDbEntity
  8
DV1_Default
 62
     7
100
AcDbLine
 10
141.6165055818
 20
1192.5420305297
 30
0.0
 11
142.7491989276
 21
1192.738720665
 31
0.0
  0
LINE
  5
FB
330
6F
100
AcDbEntity
  8
DV1_Default
 62
     7
100
AcDbLine
 10
141.6165055818
 20
1192.5420305297
 30
0.0
 11
141.6165055818
 21
1192.8739894633
 31
0.0
  0
ELLIPSE
  5
FC
330
6F
100
AcDbEntity
  8
DV1_Default
 62
     7
100
AcDbEllipse
 10
137.2683645708
 20
1191.7624262082
 30
0.0
 11
6.250000028610873
 21
2.494116024820414E-9
 31
0.0
210
0.0
220
0.0
230
1.0
 40
0.1736481774
 41
0.5075980916929179
 42
0.5395994570997932
  0
LINE
  5
FD
330
6F
100
AcDbEntity
  8
DV1_Default
 62
     7
100
AcDbLine
 10
142.7303305081
 20
1192.2899689292
 30
0.0
 11
144.3227936738
 21
1192.449622633
 31
0.0
  0
LINE
  5
FE
330
6F
100
AcDbEntity
  8
DV1_Default
 62
     7
100
AcDbLine
 10
142.6303305081
 20
1192.3200456758
 30
0.0
 11
144.2031103392
 21
1192.4777260108
 31
0.0
  0
LINE
  5
FF
330
6F
100
AcDbEntity
  8
DV1_Default
 62
     7
100
AcDbLine
 10
142.6303305081
 20
1192.3200456758
 30
0.0
 11
142.6303305081
 21
1192.668964259
 31
0.0
  0
ELLIPSE
  5
100
330
6F
100
AcDbEntity
  8
DV1_Default
 62
     7
100
AcDbEllipse
 10
137.2683645684
 20
1191.7624262095
 30
0.0
 11
6.250000030690036
 21
1.442457264744235E-9
 31
0.0
210
0.0
220
0.0
230
1.0
 40
0.1736481773
 41
0.2457987044192489
 42
0.2778000698286082
  0
LINE
  5
101
330
6F
100
AcDbEntity
  8
DV1_Default
 62
     7
100
AcDbLine
 10
143.3305101278
 20
1192.026513725
 30
0.0
 11
145.3590293861
 21
1192.1208984724
 31
0.0
  0
LINE
  5
102
330
6F
100
AcDbEntity
  8
DV1_Default
 62
     7
100
AcDbLine
 10
143.2787463188
 20
1192.0600599769
 30
0.0
 11
145.2827404962
 21
1192.1533035995
 31
0.0
  0
LINE
  5
103
330
6F
100
AcDbEntity
  8
DV1_Default
 62
     7
100
AcDbLine
 10
143.2787463188
 20
1192.0600599769
 30
0.0
 11
143.2787463188
 21
1192.3449508071
 31
0.0
  0
ARC
  5
104
330
6F
100
AcDbEntity
  8
DV1_Default
 62
     7
100
AcDbCircle
 10
145.5114877199
 20
1191.762426211
 30
0.0
 40
0.2568762259794977
100
AcDbArc
 50
356.1238526717
 51
3.8761473283
  0
ELLIPSE
  5
105
330
6F
100
AcDbEntity
  8
DV1_Default
 62
     7
100
AcDbEllipse
 10
137.2683645991
 20
1191.762426211
 30
0.0
 11
8.500000000035403
 21
1.415534356397075E-12
 31
0.0
210
0.0
220
0.0
230
1.0
 40
0.1736481777
 41
0.0117649772882062
 42
0.1119139229432794
  0
ARC
  5
106
330
6F
100
AcDbEntity
  8
DV1_Default
 62
     7
100
AcDbCircle
 10
143.3291281123
 20
1191.762426211
 30
0.0
 40
0.1892348465220819
100
AcDbArc
 50
0.0
 51
5.2650577286
  0
LINE
  5
107
330
6F
100
AcDbEntity
  8
DV1_Default
 62
     7
100
AcDbLine
 10
143.5183645991
 20
1191.7450613932
 30
0.0
 11
145.7677763434
 21
1191.7450613932
 31
0.0
  0
LINE
  5
108
330
6F
100
AcDbEntity
  8
DV1_Default
 62
     7
100
AcDbLine
 10
143.5175645479
 20
1191.7797910288
 30
0.0
 11
145.7677763434
 21
1191.7797910288
 31
0.0
  0
LINE
  5
109
330
6F
100
AcDbEntity
  8
DV1_Default
 62
     7
100
AcDbLine
 10
143.5175645479
 20
1191.7797910288
 30
0.0
 11
143.5175645479
 21
1192.0352171594
 31
0.0
  0
ELLIPSE
  5
10A
330
6F
100
AcDbEntity
  8
DV1_Default
 62
     7
100
AcDbEllipse
 10
137.2683649896
 20
1191.7624261929
 30
0.0
 11
8.499999609235827
 21
1.798430848687360E-8
 31
0.0
210
0.0
220
0.0
230
1.0
 40
0.1736481812
 41
-0.273564371681271
 42
-0.2500344165455592
  0
ELLIPSE
  5
10B
330
6F
100
AcDbEntity
  8
DV1_Default
 62
     7
100
AcDbEllipse
 10
137.2683645991
 20
1191.762426211
 30
0.0
 11
8.500000000025572
 21
-1.193489751472043E-12
 31
0.0
210
0.0
220
0.0
230
1.0
 40
0.1736481777
 41
6.03315089666894
 42
6.271420329891597
  0
LINE
  5
10C
330
6F
100
AcDbEntity
  8
DV1_Default
 62
     7
100
AcDbLine
 10
145.5040478157
 20
1191.3972064032
 30
0.0
 11
145.5040478157
 21
1191.7450613932
 31
0.0
  0
LINE
  5
10D
330
6F
100
AcDbEntity
  8
DV1_Default
 62
     7
100
AcDbLine
 10
143.4859943065
 20
1191.4551494264
 30
0.0
 11
145.4522840067
 21
1191.3636601513
 31
0.0
  0
LINE
  5
10E
330
6F
100
AcDbEntity
  8
DV1_Default
 62
     7
100
AcDbLine
 10
143.5033559839
 20
1191.4902963713
 30
0.0
 11
145.5040478157
 21
1191.3972064032
 31
0.0
  0
ELLIPSE
  5
10F
330
6F
100
AcDbEntity
  8
DV1_Default
 62
     7
100
AcDbEllipse
 10
137.2683650077
 20
1191.76242617
 30
0.0
 11
8.499999587160357
 21
3.664360481714368E-8
 31
0.0
210
0.0
220
0.0
230
1.0
 40
0.1736481801
 41
-0.535363765980124
 42
-0.5118338107508595
  0
ELLIPSE
  5
110
330
6F
100
AcDbEntity
  8
DV1_Default
 62
     7
100
AcDbEllipse
 10
137.2683645991
 20
1191.762426211
 30
0.0
 11
8.500000000024709
 21
-1.998401444325282E-12
 31
0.0
210
0.0
220
0.0
230
1.0
 40
0.1736481777
 41
-0.5118337983094143
 42
-0.2735643650868118
  0
LINE
  5
111
330
6F
100
AcDbEntity
  8
DV1_Default
 62
     7
100
AcDbLine
 10
144.6790710869
 20
1191.039510904
 30
0.0
 11
144.6790710869
 21
1191.3996368894
 31
0.0
  0
LINE
  5
112
330
6F
100
AcDbEntity
  8
DV1_Default
 62
     7
100
AcDbLine
 10
143.0679671886
 20
1191.160931121
 30
0.0
 11
144.5790710869
 21
1191.0094341573
 31
0.0
  0
LINE
  5
113
330
6F
100
AcDbEntity
  8
DV1_Default
 62
     7
100
AcDbLine
 10
143.1403987517
 20
1191.1937717639
 30
0.0
 11
144.6790710869
 21
1191.039510904
 31
0.0
  0
ELLIPSE
  5
114
330
6F
100
AcDbEntity
  8
DV1_Default
 62
     7
100
AcDbEllipse
 10
137.2683649329
 20
1191.7624261531
 30
0.0
 11
8.499999645910652
 21
4.219979921060713E-8
 31
0.0
210
0.0
220
0.0
230
1.0
 40
0.1736481777
 41
-0.7971631557616936
 42
-0.7736332005320214
  0
ELLIPSE
  5
115
330
6F
100
AcDbEntity
  8
DV1_Default
 62
     7
100
AcDbEllipse
 10
137.2683645991
 20
1191.762426211
 30
0.0
 11
8.50000000001498
 21
-1.165734175856415E-12
 31
0.0
210
0.0
220
0.0
230
1.0
 40
0.1736481777
 41
-0.77363318610867
 42
-0.5353637528859494
  0
LINE
  5
116
330
6F
100
AcDbEntity
  8
DV1_Default
 62
     7
100
AcDbLine
 10
143.3490669577
 20
1190.7310808883
 30
0.0
 11
143.3490669577
 21
1191.1327492325
 31
0.0
  0
LINE
  5
117
330
6F
100
AcDbEntity
  8
DV1_Default
 62
     7
100
AcDbLine
 10
142.1562305726
 20
1190.8890996312
 30
0.0
 11
143.2076456015
 21
1190.7065233275
 31
0.0
  0
LINE
  5
118
330
6F
100
AcDbEntity
  8
DV1_Default
 62
     7
100
AcDbLine
 10
142.2793501053
 20
1190.9168352703
 30
0.0
 11
143.3490669577
 21
1190.7310808883
 31
0.0
  0
ELLIPSE
  5
119
330
6F
100
AcDbEntity
  8
DV1_Default
 62
     7
100
AcDbEllipse
 10
137.268364818
 20
1191.7624261451
 30
0.0
 11
8.499999726415128
 21
3.396075087813699E-8
 31
0.0
210
0.0
220
0.0
230
1.0
 40
0.1736481754
 41
-1.058962540638207
 42
-1.035432585456222
  0
ELLIPSE
  5
11A
330
6F
100
AcDbEntity
  8
DV1_Default
 62
     7
100
AcDbEllipse
 10
137.2683645991
 20
1191.762426211
 30
0.0
 11
8.500000000017188
 21
-1.443289932012704E-12
 31
0.0
210
0.0
220
0.0
230
1.0
 40
0.1736481777
 41
-1.035432573907626
 42
-0.7971631406850035
  0
LINE
  5
11B
330
6F
100
AcDbEntity
  8
DV1_Default
 62
     7
100
AcDbLine
 10
141.6046730116
 20
1190.4929353519
 30
0.0
 11
141.6046730116
 21
1190.7838755948
 31
0.0
  0
LINE
  5
11C
330
6F
100
AcDbEntity
  8
DV1_Default
 62
     7
100
AcDbLine
 10
140.7891688983
 20
1190.6687531868
 30
0.0
 11
141.4314679309
 21
1190.4755705342
 31
0.0
  0
LINE
  5
11D
330
6F
100
AcDbEntity
  8
DV1_Default
 62
     7
100
AcDbLine
 10
140.9532611528
 20
1190.6888588463
 30
0.0
 11
141.6046730116
 21
1190.4929353519
 31
0.0
  0
ELLIPSE
  5
11E
330
6F
100
AcDbEntity
  8
DV1_Default
 62
     7
100
AcDbEllipse
 10
137.2683647117
 20
1191.7624261382
 30
0.0
 11
8.499999768015117
 21
1.945787975188296E-8
 31
0.0
210
0.0
220
0.0
230
1.0
 40
0.1736481738
 41
-1.320761923387494
 42
-1.297231968209474
  0
ELLIPSE
  5
11F
330
6F
100
AcDbEntity
  8
DV1_Default
 62
     7
100
AcDbEllipse
 10
137.2683645991
 20
1191.762426211
 30
0.0
 11
8.499999999997979
 21
1.387778780781446E-13
 31
0.0
210
0.0
220
0.0
230
1.0
 40
0.1736481777
 41
-1.297231961707771
 42
-1.058962528484774
  0
LINE
  5
120
330
6F
100
AcDbEntity
  8
DV1_Default
 62
     7
100
AcDbLine
 10
139.5647668133
 20
1190.3413035197
 30
0.0
 11
139.5647668133
 21
1190.5560766627
 31
0.0
  0
LINE
  5
121
330
6F
100
AcDbEntity
  8
DV1_Default
 62
     7
100
AcDbLine
 10
139.0721791537
 20
1190.5263467533
 30
0.0
 11
139.3715816481
 21
1190.3323148286
 31
0.0
  0
LINE
  5
122
330
6F
100
AcDbEntity
  8
DV1_Default
 62
     7
100
AcDbLine
 10
139.2629299347
 20
1190.5369130808
 30
0.0
 11
139.5647668133
 21
1190.3413035197
 31
0.0
  0
ARC
  5
123
330
6F
100
AcDbEntity
  8
DV1_Default
 62
     7
100
AcDbCircle
 10
137.2683645991
 20
1239.2326803257
 30
0.0
 40
48.94626362829068
100
AcDbArc
 50
269.8829413828
 51
270.1170586172
  0
ELLIPSE
  5
124
330
6F
100
AcDbEntity
  8
DV1_Default
 62
     7
100
AcDbEllipse
 10
137.2683645991
 20
1191.762426211
 30
0.0
 11
8.499999999991202
 21
3.608224830031759E-13
 31
0.0
210
0.0
220
0.0
230
1.0
 40
0.1736481777
 41
4.724153957672546
 42
4.962423390895769
  0
LINE
  5
125
330
6F
100
AcDbEntity
  8
DV1_Default
 62
     7
100
AcDbLine
 10
137.1683645991
 20
1190.4803024774
 30
0.0
 11
137.1683645991
 21
1190.2865188503
 31
0.0
  0
LINE
  5
126
330
6F
100
AcDbEntity
  8
DV1_Default
 62
     7
100
AcDbLine
 10
137.3683645991
 20
1190.4803024774
 30
0.0
 11
137.3683645991
 21
1190.2865188503
 31
0.0
  0
ELLIPSE
  5
127
330
6F
100
AcDbEntity
  8
DV1_Default
 62
     7
100
AcDbEllipse
 10
137.2683644855
 20
1191.7624261372
 30
0.0
 11
-8.499999765681528
 21
1.967387364132378E-8
 31
0.0
210
0.0
220
0.0
230
1.0
 40
0.1736481738
 41
1.297231968256984
 42
1.320761923441149
  0
ELLIPSE
  5
128
330
6F
100
AcDbEntity
  8
DV1_Default
 62
     7
100
AcDbEllipse
 10
137.2683645991
 20
1191.762426211
 30
0.0
 11
-8.49999999998877
 21
4.718447854656915E-13
 31
0.0
210
0.0
220
0.0
230
1.0
 40
0.1736481777
 41
1.32076191628385
 42
1.559031349507136
  0
LINE
  5
129
330
6F
100
AcDbEntity
  8
DV1_Default
 62
     7
100
AcDbLine
 10
134.9719623849
 20
1190.3413035197
 30
0.0
 11
134.9719623849
 21
1190.5560766627
 31
0.0
  0
LINE
  5
12A
330
6F
100
AcDbEntity
  8
DV1_Default
 62
     7
100
AcDbLine
 10
135.2737992634
 20
1190.5369130808
 30
0.0
 11
134.9719623849
 21
1190.3413035197
 31
0.0
  0
LINE
  5
12B
330
6F
100
AcDbEntity
  8
DV1_Default
 62
     7
100
AcDbLine
 10
135.4645500445
 20
1190.5263467533
 30
0.0
 11
135.1651475501
 21
1190.3323148286
 31
0.0
  0
ELLIPSE
  5
12C
330
6F
100
AcDbEntity
  8
DV1_Default
 62
     7
100
AcDbEllipse
 10
137.2683643638
 20
1191.7624261402
 30
0.0
 11
-8.499999705944909
 21
3.649261448579466E-8
 31
0.0
210
0.0
220
0.0
230
1.0
 40
0.1736481753
 41
1.035432586313517
 42
1.058962541540903
  0
ELLIPSE
  5
12D
330
6F
100
AcDbEntity
  8
DV1_Default
 62
     7
100
AcDbEllipse
 10
137.2683645991
 20
1191.762426211
 30
0.0
 11
-8.500000000000101
 21
-1.387778780781446E-13
 31
0.0
210
0.0
220
0.0
230
1.0
 40
0.1736481777
 41
1.058962528484667
 42
1.297231961707627
  0
LINE
  5
12E
330
6F
100
AcDbEntity
  8
DV1_Default
 62
     7
100
AcDbLine
 10
132.9320561865
 20
1190.4929353519
 30
0.0
 11
132.9320561865
 21
1190.7838755948
 31
0.0
  0
LINE
  5
12F
330
6F
100
AcDbEntity
  8
DV1_Default
 62
     7
100
AcDbLine
 10
133.5834680454
 20
1190.6888588463
 30
0.0
 11
132.9320561865
 21
1190.4929353519
 31
0.0
  0
LINE
  5
130
330
6F
100
AcDbEntity
  8
DV1_Default
 62
     7
100
AcDbLine
 10
133.7475602998
 20
1190.6687531868
 30
0.0
 11
133.1052612673
 21
1190.4755705342
 31
0.0
  0
ELLIPSE
  5
131
330
6F
100
AcDbEntity
  8
DV1_Default
 62
     7
100
AcDbEllipse
 10
137.2683643136
 20
1191.7624261614
 30
0.0
 11
-8.499999697139847
 21
3.615110988341996E-8
 31
0.0
210
0.0
220
0.0
230
1.0
 40
0.1736481777
 41
0.7736331984383105
 42
0.7971631535735901
  0
ELLIPSE
  5
132
330
6F
100
AcDbEntity
  8
DV1_Default
 62
     7
100
AcDbEllipse
 10
137.2683645991
 20
1191.762426211
 30
0.0
 11
-8.500000000009731
 21
-1.693090112553364E-12
 31
0.0
210
0.0
220
0.0
230
1.0
 40
0.1736481777
 41
0.7971631406852255
 42
1.035432573907975
  0
LINE
  5
133
330
6F
100
AcDbEntity
  8
DV1_Default
 62
     7
100
AcDbLine
 10
131.1876622404
 20
1190.7310808883
 30
0.0
 11
131.1876622404
 21
1191.1327492325
 31
0.0
  0
LINE
  5
134
330
6F
100
AcDbEntity
  8
DV1_Default
 62
     7
100
AcDbLine
 10
132.2573790929
 20
1190.9168352703
 30
0.0
 11
131.1876622404
 21
1190.7310808883
 31
0.0
  0
LINE
  5
135
330
6F
100
AcDbEntity
  8
DV1_Default
 62
     7
100
AcDbLine
 10
132.3804986256
 20
1190.8890996312
 30
0.0
 11
131.3290835967
 21
1190.7065233275
 31
0.0
  0
ELLIPSE
  5
136
330
6F
100
AcDbEntity
  8
DV1_Default
 62
     7
100
AcDbEllipse
 10
137.2683642499
 20
1191.7624261759
 30
0.0
 11
-8.499999647146904
 21
3.132694104124312E-8
 31
0.0
210
0.0
220
0.0
230
1.0
 40
0.1736481797
 41
0.5118338089401817
 42
0.5353637640746388
  0
ELLIPSE
  5
137
330
6F
100
AcDbEntity
  8
DV1_Default
 62
     7
100
AcDbEllipse
 10
137.2683645991
 20
1191.762426211
 30
0.0
 11
-8.500000000041537
 21
-4.912736883966318E-12
 31
0.0
210
0.0
220
0.0
230
1.0
 40
0.1736481777
 41
0.5353637528851758
 42
0.7736331861074474
  0
LINE
  5
138
330
6F
100
AcDbEntity
  8
DV1_Default
 62
     7
100
AcDbLine
 10
129.8576581113
 20
1191.039510904
 30
0.0
 11
129.8576581113
 21
1191.3996368894
 31
0.0
  0
LINE
  5
139
330
6F
100
AcDbEntity
  8
DV1_Default
 62
     7
100
AcDbLine
 10
131.3963304465
 20
1191.1937717639
 30
0.0
 11
129.8576581113
 21
1191.039510904
 31
0.0
  0
LINE
  5
13A
330
6F
100
AcDbEntity
  8
DV1_Default
 62
     7
100
AcDbLine
 10
131.4687620096
 20
1191.160931121
 30
0.0
 11
129.9576581113
 21
1191.0094341573
 31
0.0
  0
ELLIPSE
  5
13B
330
6F
100
AcDbEntity
  8
DV1_Default
 62
     7
100
AcDbEllipse
 10
137.2683640773
 20
1191.7624261868
 30
0.0
 11
-8.499999477851247
 21
2.406963517387339E-8
 31
0.0
210
0.0
220
0.0
230
1.0
 40
0.1736481825
 41
0.2500344185753063
 42
0.2735643738991562
  0
ELLIPSE
  5
13C
330
6F
100
AcDbEntity
  8
DV1_Default
 62
     7
100
AcDbEllipse
 10
137.2683645991
 20
1191.762426211
 30
0.0
 11
-8.500000000024754
 21
-1.998401444325282E-12
 31
0.0
210
0.0
220
0.0
230
1.0
 40
0.1736481777
 41
0.2735643650868189
 42
0.5118337983094436
  0
LINE
  5
13D
330
6F
100
AcDbEntity
  8
DV1_Default
 62
     7
100
AcDbLine
 10
129.0326813824
 20
1191.3972064032
 30
0.0
 11
129.0326813824
 21
1191.7450613932
 31
0.0
  0
LINE
  5
13E
330
6F
100
AcDbEntity
  8
DV1_Default
 62
     7
100
AcDbLine
 10
131.0333732143
 20
1191.4902963713
 30
0.0
 11
129.0326813824
 21
1191.3972064032
 31
0.0
  0
LINE
  5
13F
330
6F
100
AcDbEntity
  8
DV1_Default
 62
     7
100
AcDbLine
 10
131.0507348917
 20
1191.4551494264
 30
0.0
 11
129.0844451915
 21
1191.3636601513
 31
0.0
  0
LINE
  5
140
330
6F
100
AcDbEntity
  8
DV1_Default
 62
     7
100
AcDbLine
 10
134.5239384296
 20
1192.0024813751
 30
0.0
 11
134.5239384296
 21
1191.7928146421
 31
0.0
  0
ELLIPSE
  5
141
330
6F
100
AcDbEntity
  8
DV1_Default
 62
     7
100
AcDbEllipse
 10
137.2683645991
 20
1191.762426211
 30
0.0
 11
2.750000000002432
 21
0.0
 31
0.0
210
0.0
220
0.0
230
1.0
 40
0.1736481777
 41
3.077913261332817
 42
3.141592653589793
  0
LINE
  5
142
330
6F
100
AcDbEntity
  8
DV1_Default
 62
     7
100
AcDbLine
 10
134.5239384296
 20
1191.7928146421
 30
0.0
 11
132.1842375576
 21
1191.7928146421
 31
0.0
  0
LINE
  5
143
330
6F
100
AcDbEntity
  8
DV1_Default
 62
     7
100
AcDbLine
 10
134.5183645991
 20
1191.7320377799
 30
0.0
 11
132.1067439981
 21
1191.7320377799
 31
0.0
  0
LINE
  5
144
330
6F
100
AcDbEntity
  8
DV1_Default
 62
     7
100
AcDbLine
 10
134.9791218175
 20
1192.3858832509
 30
0.0
 11
134.9791218175
 21
1192.0270256658
 31
0.0
  0
ELLIPSE
  5
145
330
6F
100
AcDbEntity
  8
DV1_Default
 62
     7
100
AcDbEllipse
 10
137.2683645992
 20
1191.762426211
 30
0.0
 11
-2.750000000080073
 21
3.358424649491099E-12
 31
0.0
210
0.0
220
0.0
230
1.0
 40
0.1736481777
 41
-0.5872781678468737
 42
-0.4599193833348867
  0
LINE
  5
146
330
6F
100
AcDbEntity
  8
DV1_Default
 62
     7
100
AcDbLine
 10
134.9791218175
 20
1192.0270256658
 30
0.0
 11
133.4122204142
 21
1192.1841166542
 31
0.0
  0
LINE
  5
147
330
6F
100
AcDbEntity
  8
DV1_Default
 62
     7
100
AcDbLine
 10
134.8041218175
 20
1191.9743913592
 30
0.0
 11
133.1794535761
 21
1192.1372738094
 31
0.0
  0
LINE
  5
148
330
6F
100
AcDbEntity
  8
DV1_Default
 62
     7
100
AcDbLine
 10
136.04770596
 20
1192.452133621
 30
0.0
 11
136.04770596
 21
1192.1903374793
 31
0.0
  0
ELLIPSE
  5
149
330
6F
100
AcDbEntity
  8
DV1_Default
 62
     7
100
AcDbEllipse
 10
137.2683645991
 20
1191.762426211
 30
0.0
 11
-2.750000000058291
 21
7.355227538141662E-12
 31
0.0
210
0.0
220
0.0
230
1.0
 40
0.1736481777
 41
-1.110876943444667
 42
-0.9835181589327799
  0
LINE
  5
14A
330
6F
100
AcDbEntity
  8
DV1_Default
 62
     7
100
AcDbLine
 10
136.04770596
 20
1192.1903374793
 30
0.0
 11
135.3124251894
 21
1192.4114860138
 31
0.0
  0
LINE
  5
14B
330
6F
100
AcDbEntity
  8
DV1_Default
 62
     7
100
AcDbLine
 10
135.7445970687
 20
1192.1599490483
 30
0.0
 11
134.9902899265
 21
1192.3868200963
 31
0.0
  0
ARC
  5
14C
330
6F
100
AcDbEntity
  8
DV1_Default
 62
     7
100
AcDbCircle
 10
137.2683645991
 20
1176.4344703958
 30
0.0
 40
15.80548925698495
100
AcDbArc
 50
89.3656022836
 51
90.6343977164
  0
LINE
  5
14D
330
6F
100
AcDbEntity
  8
DV1_Default
 62
     7
100
AcDbLine
 10
137.4433645991
 20
1192.2389908141
 30
0.0
 11
137.4433645991
 21
1192.4766109785
 31
0.0
  0
LINE
  5
14E
330
6F
100
AcDbEntity
  8
DV1_Default
 62
     7
100
AcDbLine
 10
137.0933645991
 20
1192.2389908141
 30
0.0
 11
137.0933645991
 21
1192.4766109785
 31
0.0
  0
ELLIPSE
  5
14F
330
6F
100
AcDbEntity
  8
DV1_Default
 62
     7
100
AcDbEllipse
 10
137.2683645991
 20
1191.762426211
 30
0.0
 11
2.749999999998534
 21
-1.387778780781446E-13
 31
0.0
210
0.0
220
0.0
230
1.0
 40
0.1736481777
 41
0.983518158939833
 42
1.110876943453915
  0
LINE
  5
150
330
6F
100
AcDbEntity
  8
DV1_Default
 62
     7
100
AcDbLine
 10
138.4890232382
 20
1192.452133621
 30
0.0
 11
138.4890232382
 21
1192.1903374793
 31
0.0
  0
LINE
  5
151
330
6F
100
AcDbEntity
  8
DV1_Default
 62
     7
100
AcDbLine
 10
138.7921321295
 20
1192.1599490483
 30
0.0
 11
139.5464392717
 21
1192.3868200963
 31
0.0
  0
LINE
  5
152
330
6F
100
AcDbEntity
  8
DV1_Default
 62
     7
100
AcDbLine
 10
138.4890232382
 20
1192.1903374793
 30
0.0
 11
139.2243040088
 21
1192.4114860138
 31
0.0
  0
ELLIPSE
  5
153
330
6F
100
AcDbEntity
  8
DV1_Default
 62
     7
100
AcDbEllipse
 10
137.2683645991
 20
1191.762426211
 30
0.0
 11
2.749999999995302
 21
1.942890293094024E-12
 31
0.0
210
0.0
220
0.0
230
1.0
 40
0.1736481777
 41
0.459919383341572
 42
0.5872781678556948
  0
LINE
  5
154
330
6F
100
AcDbEntity
  8
DV1_Default
 62
     7
100
AcDbLine
 10
139.5576073807
 20
1192.3858832509
 30
0.0
 11
139.5576073807
 21
1192.0270256658
 31
0.0
  0
LINE
  5
155
330
6F
100
AcDbEntity
  8
DV1_Default
 62
     7
100
AcDbLine
 10
139.7326073807
 20
1191.9743913592
 30
0.0
 11
141.357275622
 21
1192.1372738094
 31
0.0
  0
LINE
  5
156
330
6F
100
AcDbEntity
  8
DV1_Default
 62
     7
100
AcDbLine
 10
139.5576073807
 20
1192.0270256658
 30
0.0
 11
141.124508784
 21
1192.1841166542
 31
0.0
  0
ELLIPSE
  5
157
330
6F
100
AcDbEntity
  8
DV1_Default
 62
     7
100
AcDbEllipse
 10
137.2683645991
 20
1191.762426211
 30
0.0
 11
-2.750000000010395
 21
0.0
 31
0.0
210
0.0
220
0.0
230
1.0
 40
0.1736481777
 41
3.141592653589793
 42
3.205272045846705
  0
LINE
  5
158
330
6F
100
AcDbEntity
  8
DV1_Default
 62
     7
100
AcDbLine
 10
140.0127907686
 20
1192.0024813751
 30
0.0
 11
140.0127907686
 21
1191.7928146421
 31
0.0
  0
LINE
  5
159
330
6F
100
AcDbEntity
  8
DV1_Default
 62
     7
100
AcDbLine
 10
140.0183645991
 20
1191.7320377799
 30
0.0
 11
142.4299852001
 21
1191.7320377799
 31
0.0
  0
LINE
  5
15A
330
6F
100
AcDbEntity
  8
DV1_Default
 62
     7
100
AcDbLine
 10
140.0127907686
 20
1191.7928146421
 30
0.0
 11
142.3524916405
 21
1191.7928146421
 31
0.0
  0
ELLIPSE
  5
15B
330
6F
100
AcDbEntity
  8
DV1_Default
 62
     7
100
AcDbEllipse
 10
137.2683645996
 20
1191.7624262109
 30
0.0
 11
5.249999999465013
 21
5.229150445984487E-11
 31
0.0
210
0.0
220
0.0
230
1.0
 40
0.1736481777
 41
-0.5569382848885231
 42
-0.4902592663620116
  0
LINE
  5
15C
330
6F
100
AcDbEntity
  8
DV1_Default
 62
     7
100
AcDbLine
 10
139.948650169
 20
1191.4586224399
 30
0.0
 11
141.7249713595
 21
1191.2805358986
 31
0.0
  0
LINE
  5
15D
330
6F
100
AcDbEntity
  8
DV1_Default
 62
     7
100
AcDbLine
 10
140.0074232031
 20
1191.5229091766
 30
0.0
 11
141.8999713595
 21
1191.3331702052
 31
0.0
  0
LINE
  5
15E
330
6F
100
AcDbEntity
  8
DV1_Default
 62
     7
100
AcDbLine
 10
141.8999713595
 20
1191.7320377799
 30
0.0
 11
141.8999713595
 21
1191.3331702052
 31
0.0
  0
ELLIPSE
  5
15F
330
6F
100
AcDbEntity
  8
DV1_Default
 62
     7
100
AcDbEllipse
 10
137.2683645988
 20
1191.7624262111
 30
0.0
 11
5.250000000420864
 21
-5.095923683029469E-11
 31
0.0
210
0.0
220
0.0
230
1.0
 40
0.1736481777
 41
-1.080537060426166
 42
-1.013858041907824
  0
LINE
  5
160
330
6F
100
AcDbEntity
  8
DV1_Default
 62
     7
100
AcDbLine
 10
138.9689071877
 20
1191.190181463
 30
0.0
 11
139.7403514148
 21
1190.9581561374
 31
0.0
  0
LINE
  5
161
330
6F
100
AcDbEntity
  8
DV1_Default
 62
     7
100
AcDbLine
 10
139.235051518
 20
1191.2316876314
 30
0.0
 11
140.0434603061
 21
1190.9885445685
 31
0.0
  0
LINE
  5
162
330
6F
100
AcDbEntity
  8
DV1_Default
 62
     7
100
AcDbLine
 10
140.0434603061
 20
1191.4491171717
 30
0.0
 11
140.0434603061
 21
1190.9885445685
 31
0.0
  0
ARC
  5
163
330
6F
100
AcDbEntity
  8
DV1_Default
 62
     7
100
AcDbCircle
 10
137.2683645991
 20
1221.0680238476
 30
0.0
 40
30.21725070590837
100
AcDbArc
 50
269.6681757198
 51
270.3318242802
  0
LINE
  5
164
330
6F
100
AcDbEntity
  8
DV1_Default
 62
     7
100
AcDbLine
 10
137.0933645991
 20
1191.0889000573
 30
0.0
 11
137.0933645991
 21
1190.8512798929
 31
0.0
  0
LINE
  5
165
330
6F
100
AcDbEntity
  8
DV1_Default
 62
     7
100
AcDbLine
 10
137.4433645991
 20
1191.0889000573
 30
0.0
 11
137.4433645991
 21
1190.8512798929
 31
0.0
  0
ELLIPSE
  5
166
330
6F
100
AcDbEntity
  8
DV1_Default
 62
     7
100
AcDbEllipse
 10
137.2683645973
 20
1191.7624262105
 30
0.0
 11
-5.24999999779866
 21
2.748634653215731E-10
 31
0.0
210
0.0
220
0.0
230
1.0
 40
0.1736481776
 41
1.013858042079018
 42
1.080537060623992
  0
LINE
  5
167
330
6F
100
AcDbEntity
  8
DV1_Default
 62
     7
100
AcDbLine
 10
135.3016776802
 20
1191.2316876314
 30
0.0
 11
134.4932688921
 21
1190.9885445685
 31
0.0
  0
LINE
  5
168
330
6F
100
AcDbEntity
  8
DV1_Default
 62
     7
100
AcDbLine
 10
135.5678220105
 20
1191.190181463
 30
0.0
 11
134.7963777834
 21
1190.9581561374
 31
0.0
  0
LINE
  5
169
330
6F
100
AcDbEntity
  8
DV1_Default
 62
     7
100
AcDbLine
 10
134.4932688921
 20
1191.4491171717
 30
0.0
 11
134.4932688921
 21
1190.9885445685
 31
0.0
  0
ELLIPSE
  5
16A
330
6F
100
AcDbEntity
  8
DV1_Default
 62
     7
100
AcDbEllipse
 10
137.2683645982
 20
1191.7624262109
 30
0.0
 11
-5.249999999079108
 21
8.659739592076222E-11
 31
0.0
210
0.0
220
0.0
230
1.0
 40
0.1736481777
 41
0.4902592663800309
 42
0.5569382849092919
  0
LINE
  5
16B
330
6F
100
AcDbEntity
  8
DV1_Default
 62
     7
100
AcDbLine
 10
134.5293059951
 20
1191.5229091766
 30
0.0
 11
132.6367578387
 21
1191.3331702052
 31
0.0
  0
LINE
  5
16C
330
6F
100
AcDbEntity
  8
DV1_Default
 62
     7
100
AcDbLine
 10
134.5880790292
 20
1191.4586224399
 30
0.0
 11
132.8117578387
 21
1191.2805358986
 31
0.0
  0
LINE
  5
16D
330
6F
100
AcDbEntity
  8
DV1_Default
 62
     7
100
AcDbLine
 10
132.6367578387
 20
1191.7320377799
 30
0.0
 11
132.6367578387
 21
1191.3331702052
 31
0.0
  0
LINE
  5
16E
330
6F
100
AcDbEntity
  8
DV1_Default
 62
     7
100
AcDbLine
 10
128.2683645991
 20
1192.1849890135
 30
0.0
 11
128.2683645991
 21
1191.5654646604
 31
0.0
  0
LINE
  5
16F
330
6F
100
AcDbEntity
  8
DV1_Default
 62
     7
100
AcDbLine
 10
146.2683645991
 20
1191.5654646604
 30
0.0
 11
146.2683645991
 21
1192.1849890135
 31
0.0
  0
LINE
  5
170
330
6F
100
AcDbEntity
  8
DV1_Default
 62
     7
100
AcDbLine
 10
131.0183645991
 20
1191.762426211
 30
0.0
 11
131.0183645991
 21
1191.5654646604
 31
0.0
  0
LINE
  5
171
330
6F
100
AcDbEntity
  8
DV1_Default
 62
     7
100
AcDbLine
 10
143.5183645991
 20
1191.5654646604
 30
0.0
 11
143.5183645991
 21
1191.762426211
 31
0.0
  0
LINE
  5
172
330
6F
100
AcDbEntity
  8
DV1_Default
 62
     7
100
AcDbLine
 10
134.5183645991
 20
1191.762426211
 30
0.0
 11
134.5183645991
 21
1191.5654646604
 31
0.0
  0
LINE
  5
173
330
6F
100
AcDbEntity
  8
DV1_Default
 62
     7
100
AcDbLine
 10
140.0183645991
 20
1191.5654646604
 30
0.0
 11
140.0183645991
 21
1191.762426211
 31
0.0
  0
LINE
  5
174
330
6F
100
AcDbEntity
  8
DV1_Default
 62
     7
100
AcDbLine
 10
136.7487346552
 20
1191.9277400712
 30
0.0
 11
136.7487346552
 21
1191.762426211
 31
0.0
  0
LINE
  5
175
330
6F
100
AcDbEntity
  8
DV1_Default
 62
     7
100
AcDbLine
 10
137.787994543
 20
1191.762426211
 30
0.0
 11
137.787994543
 21
1191.9277400712
 31
0.0
  0
ARC
  5
176
330
6F
100
AcDbEntity
  8
DV1_Default
 62
     7
100
AcDbCircle
 10
218.7202407522
 20
1121.5678861916
 30
0.0
 40
0.6896235934268234
100
AcDbArc
 50
95.9580629271
 51
161.119852036
  0
ARC
  5
177
330
6F
100
AcDbEntity
  8
DV1_Default
 62
     7
100
AcDbCircle
 10
220.1157954856
 20
1121.5679344484
 30
0.0
 40
0.6791715513018628
100
AcDbArc
 50
0.2954919862
 51
87.6607521648
  0
ARC
  5
178
330
6F
100
AcDbEntity
  8
DV1_Default
 62
     7
100
AcDbCircle
 10
199.232130622
 20
1036.1559889869
 30
0.0
 40
4.009218255529372
100
AcDbArc
 50
235.3889564184
 51
241.7493654212
  0
ARC
  5
179
330
6F
100
AcDbEntity
  8
DV1_Default
 62
     7
100
AcDbCircle
 10
219.9562179255
 20
1035.0740558891
 30
0.0
 40
0.8383221773101811
100
AcDbArc
 50
283.757110399
 51
352.1212580592
  0
LINE
  5
17A
330
6F
100
AcDbEntity
  8
DV1_Default
 62
     7
100
AcDbLine
 10
157.2683641521
 20
982.9827688113
 30
0.0
 11
117.2683650461
 21
982.9827688113
 31
0.0
  0
LINE
  5
17B
330
6F
100
AcDbEntity
  8
DV1_Default
 62
     7
100
AcDbLine
 10
137.2683645991
 20
1002.9827683643
 30
0.0
 11
137.2683645991
 21
962.9827692584
 31
0.0
  0
ENDBLK
  5
17D
330
6F
100
AcDbEntity
  8
0
100
AcDbBlockEnd
  0
BLOCK
  5
1AB
330
17E
100
AcDbEntity
  8
0
100
AcDbBlockBegin
  2
SE1
 70
     0
 10
0.0
 20
0.0
 30
0.0
  3
SE1
  1

  0
LINE
  5
181
330
17E
100
AcDbEntity
  8
DV2_Default
 62
     7
100
AcDbLine
 10
312.7983722809
 20
982.9827688113
 30
0.0
 11
360.7983722809
 21
982.9827688113
 31
0.0
  0
LINE
  5
182
330
17E
100
AcDbEntity
  8
DV2_Default
 62
     7
100
AcDbLine
 10
316.4983722809
 20
1089.9827688113
 30
0.0
 11
357.0983722809
 21
1089.9827688113
 31
0.0
  0
LINE
  5
183
330
17E
100
AcDbEntity
  8
DV2_Default
 62
     7
100
AcDbLine
 10
313.492263706
 20
986.9888243101
 30
0.0
 11
360.1044808557
 21
986.9888243101
 31
0.0
  0
ARC
  5
184
330
17E
100
AcDbEntity
  8
DV2_Default
 62
     7
100
AcDbCircle
 10
316.4983722809
 20
1089.2827688113
 30
0.0
 40
0.7000000000000062
100
AcDbArc
 50
90.0
 51
180.0
  0
ARC
  5
185
330
17E
100
AcDbEntity
  8
DV2_Default
 62
     7
100
AcDbCircle
 10
357.0983722809
 20
1089.2827688113
 30
0.0
 40
0.6999999999999993
100
AcDbArc
 50
0.0
 51
90.0
  0
LINE
  5
186
330
17E
100
AcDbEntity
  8
DV2_Default
 62
     7
100
AcDbLine
 10
360.7983722809
 20
982.9827688113
 30
0.0
 11
360.7983722809
 21
986.2888509639
 31
0.0
  0
LINE
  5
187
330
17E
100
AcDbEntity
  8
DV2_Default
 62
     7
100
AcDbLine
 10
312.7983722809
 20
986.2888509639
 30
0.0
 11
312.7983722809
 21
982.9827688113
 31
0.0
  0
LINE
  5
188
330
17E
100
AcDbEntity
  8
DV2_Default
 62
     7
100
AcDbLine
 10
357.7983722809
 20
988.4959162306
 30
0.0
 11
357.7983722809
 21
1089.2827688113
 31
0.0
  0
LINE
  5
189
330
17E
100
AcDbEntity
  8
DV2_Default
 62
     7
100
AcDbLine
 10
315.7983722809
 20
1089.2827688113
 30
0.0
 11
315.7983722809
 21
988.4959162306
 31
0.0
  0
LINE
  5
18A
330
17E
100
AcDbEntity
  8
DV2_Default
 62
     7
100
AcDbLine
 10
360.1044808557
 20
986.9888243101
 30
0.0
 11
359.2852824776
 21
986.995973346
 31
0.0
  0
LINE
  5
18B
330
17E
100
AcDbEntity
  8
DV2_Default
 62
     7
100
AcDbLine
 10
314.3114620841
 20
986.995973346
 30
0.0
 11
313.492263706
 21
986.9888243101
 31
0.0
  0
ARC
  5
18C
330
17E
100
AcDbEntity
  8
DV2_Default
 62
     7
100
AcDbCircle
 10
359.2983722809
 20
988.4959162306
 30
0.0
 40
1.499999999999999
100
AcDbArc
 50
180.0
 51
269.5
  0
ARC
  5
18D
330
17E
100
AcDbEntity
  8
DV2_Default
 62
     7
100
AcDbCircle
 10
314.2983722809
 20
988.4959162306
 30
0.0
 40
1.500000000000001
100
AcDbArc
 50
270.5
 51
0.0
  0
ARC
  5
18E
330
17E
100
AcDbEntity
  8
DV2_Default
 62
     7
100
AcDbCircle
 10
313.4983722809
 20
986.2888509639
 30
0.0
 40
0.699999999999998
100
AcDbArc
 50
90.5
 51
180.0
  0
ARC
  5
18F
330
17E
100
AcDbEntity
  8
DV2_Default
 62
     7
100
AcDbCircle
 10
360.0983722809
 20
986.2888509639
 30
0.0
 40
0.6999999999999993
100
AcDbArc
 50
0.0
 51
89.5
  0
LINE
  5
190
330
17E
100
AcDbEntity
  8
DV2_Default
 62
     7
100
AcDbLine
 10
563.3997248148
 20
1193.4639379283
 30
0.0
 11
540.7491464955
 21
1189.4700298419
 31
0.0
  0
LINE
  5
191
330
17E
100
AcDbEntity
  8
DV2_Default
 62
     7
100
AcDbLine
 10
532.8705060891
 20
1228.3932494588
 30
0.0
 11
539.5906905648
 21
1190.2811894173
 31
0.0
  0
LINE
  5
192
330
17E
100
AcDbEntity
  8
DV2_Default
 62
     7
100
AcDbLine
 10
564.2108843901
 20
1194.6223938589
 30
0.0
 11
557.4906999144
 21
1232.7344539005
 31
0.0
  0
ARC
  5
193
330
17E
100
AcDbEntity
  8
DV2_Default
 62
     7
100
AcDbCircle
 10
533.165948415
 20
1228.4453439121
 30
0.0
 40
0.3000000000000074
100
AcDbArc
 50
100.0
 51
190.0
  0
ARC
  5
194
330
17E
100
AcDbEntity
  8
DV2_Default
 62
     7
100
AcDbCircle
 10
557.1952575885
 20
1232.6823594472
 30
0.0
 40
0.2999999999999799
100
AcDbArc
 50
9.9999999999
 51
100.0
  0
ARC
  5
195
330
17E
100
AcDbEntity
  8
DV2_Default
 62
     7
100
AcDbCircle
 10
563.2260766371
 20
1194.4487456813
 30
0.0
 40
0.9999999999999729
100
AcDbArc
 50
280.0
 51
10.0
  0
ARC
  5
196
330
17E
100
AcDbEntity
  8
DV2_Default
 62
     7
100
AcDbCircle
 10
540.5754983178
 20
1190.4548375949
 30
0.0
 40
0.9999999999999777
100
AcDbArc
 50
190.0
 51
280.0
  0
SPLINE
  5
197
330
17E
100
AcDbEntity
  8
DV2_Default
 62
     7
100
AcDbSpline
210
0.0
220
0.0
230
1.0
 70
     8
 71
     3
 72
    14
 73
    10
 74
     0
 42
0.000000001
 43
0.0000000001
 40
0.0
 40
0.0
 40
0.0
 40
0.0
 40
0.3780554552810798
 40
0.3780554552810798
 40
0.7561109105621595
 40
0.7561109105621595
 40
0.9451386382026995
 40
0.9451386382026995
 40
0.9999999999999999
 40
0.9999999999999999
 40
0.9999999999999999
 40
0.9999999999999999
 10
380.992691410151
 20
1106.669995711695
 30
0.0
 10
378.0679078233982
 20
1099.790862002422
 30
0.0
 10
375.1417869111571
 20
1092.91196357971
 30
0.0
 10
369.2919204597427
 20
1079.153664950794
 30
0.0
 10
366.3674795835336
 20
1072.274393502231
 30
0.0
 10
361.9823110849023
 20
1061.95504701662
 30
0.0
 10
360.5207756085839
 20
1058.515174242287
 30
0.0
 10
358.636142726454
 20
1054.076989926986
 30
0.0
 10
358.2096493975882
 20
1053.073941329089
 30
0.0
 10
357.795627807863
 20
1052.088769368017
 30
0.0
  0
SPLINE
  5
198
330
17E
100
AcDbEntity
  8
DV2_Default
 62
     7
100
AcDbSpline
210
0.0
220
0.0
230
1.0
 70
     8
 71
     3
 72
     8
 73
     4
 74
     0
 42
0.000000001
 43
0.0000000001
 40
0.0
 40
0.0
 40
0.0
 40
0.0
 40
1.0
 40
1.0
 40
1.0
 40
1.0
 10
381.4948656499889
 20
1107.851223437041
 30
0.0
 10
381.3276584413413
 20
1107.457658298715
 30
0.0
 10
381.1601022964203
 20
1107.063757574494
 30
0.0
 10
380.992691410151
 20
1106.669995711695
 30
0.0
  0
SPLINE
  5
199
330
17E
100
AcDbEntity
  8
DV2_Default
 62
     7
100
AcDbSpline
210
0.0
220
0.0
230
1.0
 70
     8
 71
     3
 72
     8
 73
     4
 74
     0
 42
0.000000001
 43
0.0000000001
 40
0.0
 40
0.0
 40
0.0
 40
0.0
 40
1.0
 40
1.0
 40
1.0
 40
1.0
 10
362.9269758986995
 20
1117.100242998298
 30
0.0
 10
363.1842783349028
 20
1117.442106174162
 30
0.0
 10
363.4416285956041
 20
1117.784164812784
 30
0.0
 10
363.698862265375
 20
1118.125752892802
 30
0.0
  0
SPLINE
  5
19A
330
17E
100
AcDbEntity
  8
DV2_Default
 62
     7
100
AcDbSpline
210
0.0
220
0.0
230
1.0
 70
     8
 71
     3
 72
    10
 73
     6
 74
     0
 42
0.000000001
 43
0.0000000001
 40
0.0
 40
0.0
 40
0.0
 40
0.0
 40
0.0179483634708857
 40
0.0179483634708857
 40
1.0
 40
1.0
 40
1.0
 40
1.0
 10
349.1994644453019
 20
1098.85853535388
 30
0.0
 10
349.281598011412
 20
1098.967666732964
 30
0.0
 10
349.3637314601962
 20
1099.076798233281
 30
0.0
 10
353.9398218712946
 20
1105.157108535846
 30
0.0
 10
358.4329609541844
 20
1111.129197862659
 30
0.0
 10
362.9269758986995
 20
1117.100242998298
 30
0.0
  0
ARC
  5
19B
330
17E
100
AcDbEntity
  8
DV2_Default
 62
     7
100
AcDbCircle
 10
371.9703063978
 20
1111.9032588604
 30
0.0
 40
10.35066278167078
100
AcDbArc
 50
336.9536321967
 51
143.0463576077
  0
LINE
  5
19C
330
17E
100
AcDbEntity
  8
DV2_Default
 62
     7
100
AcDbLine
 10
557.1664765081
 20
1233.9973391617
 30
0.0
 11
532.7432442334
 21
1229.6908643555
 31
0.0
  0
LINE
  5
19D
330
17E
100
AcDbEntity
  8
DV2_Default
 62
     7
100
AcDbLine
 10
557.3401246858
 20
1233.0125314086
 30
0.0
 11
532.9168924111
 21
1228.7060566025
 31
0.0
  0
LINE
  5
19E
330
17E
100
AcDbEntity
  8
DV2_Default
 62
     7
100
AcDbLine
 10
557.3401246858
 20
1233.0125314086
 30
0.0
 11
557.1664765081
 21
1233.9973391617
 31
0.0
  0
LINE
  5
19F
330
17E
100
AcDbEntity
  8
DV2_Default
 62
     7
100
AcDbLine
 10
532.7432442334
 20
1229.6908643555
 30
0.0
 11
532.9168924111
 21
1228.7060566025
 31
0.0
  0
LINE
  5
1A0
330
17E
100
AcDbEntity
  8
DV2_Default
 62
     7
100
AcDbLine
 10
349.0381639457
 20
1090.0327688113
 30
0.0
 11
349.0381639457
 21
1089.9827688113
 31
0.0
  0
LINE
  5
1A1
330
17E
100
AcDbEntity
  8
DV2_Default
 62
     7
100
AcDbLine
 10
324.5483722809
 20
1090.0327688113
 30
0.0
 11
324.5483722809
 21
1089.9827688113
 31
0.0
  0
LINE
  5
1A2
330
17E
100
AcDbEntity
  8
DV2_Default
 62
     7
100
AcDbLine
 10
324.3983722809
 20
1090.0327688113
 30
0.0
 11
349.1983722809
 21
1090.0327688113
 31
0.0
  0
LINE
  5
1A3
330
17E
100
AcDbEntity
  8
DV2_Default
 62
     7
100
AcDbLine
 10
324.3983722809
 20
1223.6327688113
 30
0.0
 11
324.3983722809
 21
1090.0327688113
 31
0.0
  0
LINE
  5
1A4
330
17E
100
AcDbEntity
  8
DV2_Default
 62
     7
100
AcDbLine
 10
349.1983722809
 20
1090.0327688113
 30
0.0
 11
349.1983722809
 21
1223.6327688113
 31
0.0
  0
ARC
  5
1A5
330
17E
100
AcDbEntity
  8
DV2_Default
 62
     7
100
AcDbCircle
 10
440.7983722809
 20
1223.6327688113
 30
0.0
 40
91.59999999999998
100
AcDbArc
 50
10.0
 51
180.0
  0
ARC
  5
1A6
330
17E
100
AcDbEntity
  8
DV2_Default
 62
     7
100
AcDbCircle
 10
440.7983722809
 20
1223.6327688113
 30
0.0
 40
116.4
100
AcDbArc
 50
10.0
 51
180.0
  0
LINE
  5
1A7
330
17E
100
AcDbEntity
  8
DV2_Default
 62
     7
100
AcDbLine
 10
557.1664765081
 20
1233.9973391617
 30
0.0
 11
555.4299947315
 21
1243.8454166918
 31
0.0
  0
LINE
  5
1A8
330
17E
100
AcDbEntity
  8
DV2_Default
 62
     7
100
AcDbLine
 10
531.0067624568
 20
1239.5389418856
 30
0.0
 11
532.7432442334
 21
1229.6908643555
 31
0.0
  0
LINE
  5
1A9
330
17E
100
AcDbEntity
  8
DV2_Default
 62
     7
100
AcDbLine
 10
356.7983718338
 20
982.9827688113
 30
0.0
 11
316.7983727279
 21
982.9827688113
 31
0.0
  0
LINE
  5
1AA
330
17E
100
AcDbEntity
  8
DV2_Default
 62
     7
100
AcDbLine
 10
336.7983722809
 20
1002.9827683643
 30
0.0
 11
336.7983722809
 21
962.9827692584
 31
0.0
  0
ENDBLK
  5
1AC
330
17E
100
AcDbEntity
  8
0
100
AcDbBlockEnd
  0
BLOCK
  5
1E7
330
1AD
100
AcDbEntity
  8
0
100
AcDbBlockBegin
  2
SE2
 70
     0
 10
0.0
 20
0.0
 30
0.0
  3
SE2
  1

  0
ARC
  5
1B0
330
1AD
100
AcDbEntity
  8
DV3_Default
 62
     7
100
AcDbCircle
 10
137.2683645991
 20
333.7625121093
 30
0.0
 40
21.0
100
AcDbArc
 50
306.1908074062
 51
0.0
  0
ARC
  5
1B1
330
1AD
100
AcDbEntity
  8
DV3_Default
 62
     7
100
AcDbCircle
 10
137.2683645991
 20
333.7625121093
 30
0.0
 40
21.0
100
AcDbArc
 50
0.0
 51
233.8091925938
  0
LINE
  5
1B2
330
1AD
100
AcDbEntity
  8
DV3_Default
 62
     7
100
AcDbLine
 10
188.278480137
 20
314.4625121093
 30
0.0
 11
188.278480137
 21
353.0625121093
 31
0.0
  0
ARC
  5
1B3
330
1AD
100
AcDbEntity
  8
DV3_Default
 62
     7
100
AcDbCircle
 10
137.2683645991
 20
333.7625121093
 30
0.0
 40
24.0
100
AcDbArc
 50
301.1089225105
 51
303.5573097619
  0
ARC
  5
1B4
330
1AD
100
AcDbEntity
  8
DV3_Default
 62
     7
100
AcDbCircle
 10
137.2683645991
 20
333.7625121093
 30
0.0
 40
24.0
100
AcDbArc
 50
56.4426902381
 51
238.8910774895
  0
LINE
  5
1B5
330
1AD
100
AcDbEntity
  8
DV3_Default
 62
     7
100
AcDbLine
 10
187.578480137
 20
353.7625121093
 30
0.0
 11
148.0746351299
 21
353.7625121093
 31
0.0
  0
LINE
  5
1B6
330
1AD
100
AcDbEntity
  8
DV3_Default
 62
     7
100
AcDbLine
 10
149.6683645991
 20
313.7625121093
 30
0.0
 11
187.578480137
 21
313.7625121093
 31
0.0
  0
ARC
  5
1B7
330
1AD
100
AcDbEntity
  8
DV3_Default
 62
     7
100
AcDbCircle
 10
147.4179562772
 20
384.1383558615
 30
0.0
 40
30.38326686364015
100
AcDbArc
 50
260.8290028167
 51
271.2631303537
  0
ARC
  5
1B8
330
1AD
100
AcDbEntity
  8
DV3_Default
 62
     7
100
AcDbCircle
 10
137.1563833803
 20
333.7512103335
 30
0.0
 40
21.1085494132208
100
AcDbArc
 50
74.5461600067
 51
74.7864513256
  0
ARC
  5
1B9
330
1AD
100
AcDbEntity
  8
DV3_Default
 62
     7
100
AcDbCircle
 10
136.3734994789
 20
331.8974927327
 30
0.0
 40
23.06787625532219
100
AcDbArc
 50
74.7100726302
 51
74.8282061892
  0
ARC
  5
1BA
330
1AD
100
AcDbEntity
  8
DV3_Default
 62
     7
100
AcDbCircle
 10
187.578480137
 20
353.0625121093
 30
0.0
 40
0.6999999999999993
100
AcDbArc
 50
0.0
 51
90.0
  0
ARC
  5
1BB
330
1AD
100
AcDbEntity
  8
DV3_Default
 62
     7
100
AcDbCircle
 10
187.578480137
 20
314.4625121093
 30
0.0
 40
0.6999999999999993
100
AcDbArc
 50
270.0
 51
0.0
  0
ELLIPSE
  5
1BC
330
1AD
100
AcDbEntity
  8
DV3_Default
 62
     7
100
AcDbEllipse
 10
137.2683645991
 20
125.3802813884
 30
0.0
 11
12.49999999999997
 21
-1.471045507628332E-12
 31
0.0
210
0.0
220
0.0
230
1.0
 40
0.984807753
 41
3.015017067627185
 42
6.283185307179586
  0
ELLIPSE
  5
1BD
330
1AD
100
AcDbEntity
  8
DV3_Default
 62
     7
100
AcDbEllipse
 10
137.2683645991
 20
125.3802813884
 30
0.0
 11
12.49999999999997
 21
-1.471045507628332E-12
 31
0.0
210
0.0
220
0.0
230
1.0
 40
0.984807753
 41
0.0
 42
0.126575585962819
  0
ELLIPSE
  5
1BE
330
1AD
100
AcDbEntity
  8
DV3_Default
 62
     7
100
AcDbEllipse
 10
137.2683645991
 20
118.6600969127
 30
0.0
 11
12.49999999999993
 21
3.136380044566067E-12
 31
0.0
210
0.0
220
0.0
230
1.0
 40
0.984807753
 41
3.141592653589793
 42
6.283185307179586
  0
LINE
  5
1BF
330
1AD
100
AcDbEntity
  8
DV3_Default
 62
     7
100
AcDbLine
 10
124.7683645991
 20
125.3802813884
 30
0.0
 11
124.7683645991
 21
118.6600969127
 31
0.0
  0
LINE
  5
1C0
330
1AD
100
AcDbEntity
  8
DV3_Default
 62
     7
100
AcDbLine
 10
149.7683645991
 20
118.6600969127
 30
0.0
 11
149.7683645991
 21
125.3802813884
 31
0.0
  0
ARC
  5
1C1
330
1AD
100
AcDbEntity
  8
DV3_Default
 62
     7
100
AcDbCircle
 10
199.4062418426
 20
598.1591329349
 30
0.0
 40
248.7887217823899
100
AcDbArc
 50
267.9853887485
 51
268.362366308
  0
ARC
  5
1C2
330
1AD
100
AcDbEntity
  8
DV3_Default
 62
     7
100
AcDbCircle
 10
236.4797540846
 20
298.2805740103
 30
0.0
 40
20.36412051959866
100
AcDbArc
 50
187.8899201938
 51
189.3339294026
  0
ARC
  5
1C3
330
1AD
100
AcDbEntity
  8
DV3_Default
 62
     7
100
AcDbCircle
 10
266.3610324634
 20
307.9246900383
 30
0.0
 40
47.65619156733844
100
AcDbArc
 50
180.3496011374
 51
181.2777234467
  0
SPLINE
  5
1C4
330
1AD
100
AcDbEntity
  8
DV3_Default
 62
     7
100
AcDbSpline
210
0.0
220
0.0
230
1.0
 70
     8
 71
     3
 72
    26
 73
    22
 74
     0
 42
0.000000001
 43
0.0000000001
 40
0.0
 40
0.0
 40
0.0
 40
0.0
 40
0.1249999999999999
 40
0.1249999999999999
 40
0.1562499999999999
 40
0.1562499999999999
 40
0.1874999999999999
 40
0.1874999999999999
 40
0.2187499999999999
 40
0.2187499999999999
 40
0.25
 40
0.25
 40
0.3125
 40
0.3125
 40
0.375
 40
0.375
 40
0.4999999999999999
 40
0.4999999999999999
 40
0.75
 40
0.75
 40
1.0
 40
1.0
 40
1.0
 40
1.0
 10
192.2963059041596
 20
349.4720265199112
 30
0.0
 10
196.0294883038237
 20
349.3358826277002
 30
0.0
 10
199.7621706434236
 20
349.1701142733334
 30
0.0
 10
204.4249277799525
 20
348.9272377629669
 30
0.0
 10
205.3573433870065
 20
348.8768588809275
 30
0.0
 10
207.2218947173406
 20
348.7723921926719
 30
0.0
 10
208.1547461348771
 20
348.7280006463897
 30
0.0
 10
210.0158353673522
 20
348.5767941574271
 30
0.0
 10
210.9535377756304
 20
348.4577985435716
 30
0.0
 10
212.7264031952739
 20
348.0617508204431
 30
0.0
 10
213.5835107622457
 20
347.7852352272885
 30
0.0
 10
215.8605697752101
 20
346.7448068609831
 30
0.0
 10
217.0469531744411
 20
345.7562283665044
 30
0.0
 10
218.2408658096736
 20
343.5981626087914
 30
0.0
 10
218.2362303248867
 20
342.4656916406428
 30
0.0
 10
218.3285023979006
 20
339.0935729872003
 30
0.0
 10
218.3697937253754
 20
336.8458623634775
 30
0.0
 10
218.4847288309446
 20
330.1032774658543
 30
0.0
 10
218.5432145740485
 20
325.6089766730734
 30
0.0
 10
218.6368380193204
 20
316.6210625188246
 30
0.0
 10
218.6496707273865
 20
312.1279234359347
 30
0.0
 10
218.7057280283434
 20
307.6339084914197
 30
0.0
  0
SPLINE
  5
1C5
330
1AD
100
AcDbEntity
  8
DV3_Default
 62
     7
100
AcDbSpline
210
0.0
220
0.0
230
1.0
 70
     8
 71
     3
 72
    18
 73
    14
 74
     0
 42
0.000000001
 43
0.0000000001
 40
0.0
 40
0.0
 40
0.0
 40
0.0
 40
0.2916749238508597
 40
0.2916749238508597
 40
0.4375123857762891
 40
0.4375123857762891
 40
0.5833498477017185
 40
0.5833498477017185
 40
0.7291873096271477
 40
0.7291873096271477
 40
0.8750247715525772
 40
0.8750247715525772
 40
1.0
 40
1.0
 40
1.0
 40
1.0
 10
218.7166903899548
 20
306.8620221247442
 30
0.0
 10
218.7477294339757
 20
305.3518789594848
 30
0.0
 10
218.7489116659534
 20
303.1002666605099
 30
0.0
 10
218.7330558268903
 20
299.4449017429862
 30
0.0
 10
218.7232244724957
 20
298.1715890963067
 30
0.0
 10
218.6940521266384
 20
295.7112397983591
 30
0.0
 10
218.6583484321363
 20
294.5026797982535
 30
0.0
 10
218.6581049486244
 20
292.3201921394713
 30
0.0
 10
218.6943271212959
 20
291.3437367832891
 30
0.0
 10
218.7237004976606
 20
289.7738389089996
 30
0.0
 10
218.7336985563587
 20
289.1583278699697
 30
0.0
 10
218.7437086590476
 20
288.4284684857964
 30
0.0
 10
218.7461588898826
 20
288.2539638878455
 30
0.0
 10
218.7450137241517
 20
288.2417471831067
 30
0.0
  0
LINE
  5
1C6
330
1AD
100
AcDbEntity
  8
DV3_Default
 62
     7
100
AcDbLine
 10
189.9493427016
 20
313.9630206875
 30
0.0
 11
189.9493427016
 21
346.1450354021
 31
0.0
  0
SPLINE
  5
1C7
330
1AD
100
AcDbEntity
  8
DV3_Default
 62
     7
100
AcDbSpline
210
0.0
220
0.0
230
1.0
 70
     8
 71
     3
 72
     8
 73
     4
 74
     0
 42
0.000000001
 43
0.0000000001
 40
0.0
 40
0.0
 40
0.0
 40
0.0
 40
1.0
 40
1.0
 40
1.0
 40
1.0
 10
195.4097951602579
 20
353.1702613435891
 30
0.0
 10
194.5831429727018
 20
353.2339117691265
 30
0.0
 10
193.6925548791395
 20
352.9793682484939
 30
0.0
 10
192.767336594961
 20
352.4281774357066
 30
0.0
  0
ARC
  5
1C8
330
1AD
100
AcDbEntity
  8
DV3_Default
 62
     7
100
AcDbCircle
 10
200.9493101321
 20
346.3517097287
 30
0.0
 40
11.00190882295954
100
AcDbArc
 50
164.3873934344
 51
181.0763825996
  0
SPLINE
  5
1C9
330
1AD
100
AcDbEntity
  8
DV3_Default
 62
     7
100
AcDbSpline
210
0.0
220
0.0
230
1.0
 70
     8
 71
     3
 72
    10
 73
     6
 74
     0
 42
0.000000001
 43
0.0000000001
 40
0.0
 40
0.0
 40
0.0
 40
0.0
 40
0.5000000000000001
 40
0.5000000000000001
 40
0.6662293760194364
 40
0.6662293760194364
 40
0.6662293760194364
 40
0.6662293760194364
 10
190.6602348809209
 20
349.524188793223
 30
0.0
 10
190.5802028888388
 20
349.535460798289
 30
0.0
 10
190.4990937220271
 20
349.5188838860883
 30
0.0
 10
190.422670069258
 20
349.4662586548121
 30
0.0
 10
190.4063182366912
 20
349.4506578107055
 30
0.0
 10
190.3930478108871
 20
349.4332781374101
 30
0.0
  0
ELLIPSE
  5
1CA
330
1AD
100
AcDbEntity
  8
DV3_Default
 62
     7
100
AcDbEllipse
 10
192.749129758
 20
352.1430386243
 30
0.0
 11
0.1518369815641796
 21
-0.2587383447219989
 31
0.0
210
0.0
220
0.0
230
1.0
 40
0.8682010123
 41
2.480009868588442
 42
3.165457565185657
  0
LINE
  5
1CB
330
1AD
100
AcDbEntity
  8
DV3_Default
 62
     7
100
AcDbLine
 10
218.6124842169
 20
288.2393717162
 30
0.0
 11
220.1811109714
 21
288.2733789122
 31
0.0
  0
ARC
  5
1CC
330
1AD
100
AcDbEntity
  8
DV3_Default
 62
     7
100
AcDbCircle
 10
-259.5384758595
 20
319.6979773413
 30
0.0
 40
481.322655262644
100
AcDbArc
 50
356.3365347581
 51
3.6729524418
  0
SPLINE
  5
1CD
330
1AD
100
AcDbEntity
  8
DV3_Default
 62
     7
100
AcDbSpline
210
0.0
220
0.0
230
1.0
 70
     8
 71
     3
 72
    18
 73
    14
 74
     0
 42
0.000000001
 43
0.0000000001
 40
0.0
 40
0.0
 40
0.0
 40
0.0
 40
0.0166857608125403
 40
0.190333379573127
 40
0.3301901319880129
 40
0.4482971484455897
 40
0.5470942489906296
 40
0.6238286640024615
 40
0.6745201845458049
 40
0.7180520897773741
 40
0.7778553812626925
 40
0.8947070173366007
 40
0.9999999999999999
 40
0.9999999999999999
 40
0.9999999999999999
 40
0.9999999999999999
 10
220.1811085415977
 20
288.2733789121648
 30
0.0
 10
220.1884130287719
 20
288.2733788705002
 30
0.0
 10
220.271136866129
 20
288.2755595440887
 30
0.0
 10
220.4208934448308
 20
288.333866673646
 30
0.0
 10
220.5808359931464
 20
288.4469322162918
 30
0.0
 10
220.6856488795356
 20
288.5733069579322
 30
0.0
 10
220.7474324727642
 20
288.6909031431703
 30
0.0
 10
220.7779673647882
 20
288.7855684645344
 30
0.0
 10
220.7901534041915
 20
288.8450117373582
 30
0.0
 10
220.7954120301653
 20
288.880911019401
 30
0.0
 10
220.7986581899347
 20
288.9117309707521
 30
0.0
 10
220.8000982811122
 20
288.9327505635442
 30
0.0
 10
220.8005693733658
 20
288.9434019424763
 30
0.0
 10
220.8007262737505
 20
288.9486404391845
 30
0.0
  0
SPLINE
  5
1CE
330
1AD
100
AcDbEntity
  8
DV3_Default
 62
     7
100
AcDbSpline
210
0.0
220
0.0
230
1.0
 70
     8
 71
     3
 72
    25
 73
    21
 74
     0
 42
0.000000001
 43
0.0000000001
 40
0.0
 40
0.0
 40
0.0
 40
0.0
 40
0.0320353792214994
 40
0.0696465728873756
 40
0.1346330747139621
 40
0.2437130081509975
 40
0.3335301221522258
 40
0.4161841918812073
 40
0.5052470876143513
 40
0.5843011006618507
 40
0.6538433987435659
 40
0.7059549024815063
 40
0.7518943494466896
 40
0.7918378728354611
 40
0.8256026328380134
 40
0.8608261637604221
 40
0.8914542521681478
 40
0.9288542535598396
 40
0.9978605857619026
 40
1.0
 40
1.0
 40
1.0
 40
1.0
 10
190.268287894254
 20
313.6609868872698
 30
0.0
 10
190.6219852108475
 20
313.6818174158839
 30
0.0
 10
191.2715824131309
 20
313.7201293404998
 30
0.0
 10
192.6494515719603
 20
313.790097021532
 30
0.0
 10
194.7594567891737
 20
313.9002807620429
 30
0.0
 10
197.412172044958
 20
314.0338711188493
 30
0.0
 10
200.2304810126608
 20
314.1712029302905
 30
0.0
 10
202.8470041243889
 20
314.292827276904
 30
0.0
 10
205.3485250975466
 20
314.4006995822121
 30
0.0
 10
207.715387169187
 20
314.4922894165968
 30
0.0
 10
209.6557328578102
 20
314.4598303525132
 30
0.0
 10
211.1566330681319
 20
314.3358315477331
 30
0.0
 10
212.2554731274218
 20
314.1579208509145
 30
0.0
 10
213.0563015034333
 20
313.9489078254843
 30
0.0
 10
213.6554808692055
 20
313.7372801020712
 30
0.0
 10
214.0790452111686
 20
313.5454351777781
 30
0.0
 10
214.3487819650071
 20
313.3992694102747
 30
0.0
 10
214.6230005604158
 20
313.2211940712193
 30
0.0
 10
214.7448658964175
 20
313.1047101020559
 30
0.0
 10
214.7986858446582
 20
313.0372406540649
 30
0.0
 10
214.8002810636389
 20
313.0352198922355
 30
0.0
  0
ARC
  5
1CF
330
1AD
100
AcDbEntity
  8
DV3_Default
 62
     7
100
AcDbCircle
 10
243.8680528132
 20
298.9972419676
 30
0.0
 40
27.77490853919047
100
AcDbArc
 50
188.3190703444
 51
202.0584653821
  0
ARC
  5
1D0
330
1AD
100
AcDbEntity
  8
DV3_Default
 62
     7
100
AcDbCircle
 10
1771.1553966627
 20
20574.6599426997
 30
0.0
 40
20282.79017255504
100
AcDbArc
 50
265.544267746
 51
265.6143683568
  0
ARC
  5
1D1
330
1AD
100
AcDbEntity
  8
DV3_Default
 62
     7
100
AcDbCircle
 10
194.9059729004
 20
348.2427561661
 30
0.0
 40
4.66845310944343
100
AcDbArc
 50
145.2100535845
 51
165.2561391881
  0
ARC
  5
1D2
330
1AD
100
AcDbEntity
  8
DV3_Default
 62
     7
100
AcDbCircle
 10
194.4641258652
 20
348.9719393926
 30
0.0
 40
3.904961357618808
100
AcDbArc
 50
118.5590981783
 51
150.3042793736
  0
ARC
  5
1D3
330
1AD
100
AcDbEntity
  8
DV3_Default
 62
     7
100
AcDbCircle
 10
190.2493427016
 20
313.9642577766
 30
0.0
 40
0.2999999998649121
100
AcDbArc
 50
179.9368450209
 51
274.0499172476
  0
ARC
  5
1D4
330
1AD
100
AcDbEntity
  8
DV3_Default
 62
     7
100
AcDbCircle
 10
179.750566712
 20
333.7625121093
 30
0.0
 40
20.2
100
AcDbArc
 50
295.8419327632
 51
300.3240439849
  0
ARC
  5
1D5
330
1AD
100
AcDbEntity
  8
DV3_Default
 62
     7
100
AcDbCircle
 10
179.750566712
 20
333.7625121093
 30
0.0
 40
20.19999999999999
100
AcDbArc
 50
56.5470817532
 51
64.1580672368
  0
ARC
  5
1D6
330
1AD
100
AcDbEntity
  8
DV3_Default
 62
     7
100
AcDbCircle
 10
188.4683645991
 20
315.7625121093
 30
0.0
 40
0.1999999999999988
100
AcDbArc
 50
198.3005778897
 51
295.8419327653
  0
ARC
  5
1D7
330
1AD
100
AcDbEntity
  8
DV3_Default
 62
     7
100
AcDbCircle
 10
188.4683645991
 20
351.7625121093
 30
0.0
 40
0.2000000000000019
100
AcDbArc
 50
64.1580672347
 51
161.6994221103
  0
ELLIPSE
  5
1D8
330
1AD
100
AcDbEntity
  8
DV3_Default
 62
     7
100
AcDbEllipse
 10
137.2683645991
 20
125.4323758417
 30
0.0
 11
12.39999999999996
 21
-1.360023205165817E-12
 31
0.0
210
0.0
220
0.0
230
1.0
 40
0.984807753
 41
3.141592653589793
 42
6.283185307179586
  0
LINE
  5
1D9
330
1AD
100
AcDbEntity
  8
DV3_Default
 62
     7
100
AcDbLine
 10
149.6683645991
 20
125.4323758417
 30
0.0
 11
149.6683645991
 21
125.6060240193
 31
0.0
  0
LINE
  5
1DA
330
1AD
100
AcDbEntity
  8
DV3_Default
 62
     7
100
AcDbLine
 10
124.8683645991
 20
125.6060240193
 30
0.0
 11
124.8683645991
 21
125.4323758417
 31
0.0
  0
ARC
  5
1DB
330
1AD
100
AcDbEntity
  8
DV3_Default
 62
     7
100
AcDbCircle
 10
137.2683645991
 20
333.7625121093
 30
0.0
 40
12.4
100
AcDbArc
 50
0.0
 51
180.0
  0
LINE
  5
1DC
330
1AD
100
AcDbEntity
  8
DV3_Default
 62
     7
100
AcDbLine
 10
124.8683645991
 20
333.7625121093
 30
0.0
 11
124.8683645991
 21
127.342505796
 31
0.0
  0
LINE
  5
1DD
330
1AD
100
AcDbEntity
  8
DV3_Default
 62
     7
100
AcDbLine
 10
149.6683645991
 20
127.342505796
 30
0.0
 11
149.6683645991
 21
333.7625121093
 31
0.0
  0
LINE
  5
1DE
330
1AD
100
AcDbEntity
  8
DV3_Default
 62
     7
100
AcDbLine
 10
149.6683645991
 20
125.6060240193
 30
0.0
 11
149.6683645991
 21
127.342505796
 31
0.0
  0
LINE
  5
1DF
330
1AD
100
AcDbEntity
  8
DV3_Default
 62
     7
100
AcDbLine
 10
124.8683645991
 20
127.342505796
 30
0.0
 11
124.8683645991
 21
125.6060240193
 31
0.0
  0
SPLINE
  5
1E0
330
1AD
100
AcDbEntity
  8
DV3_Default
 62
     7
100
AcDbSpline
210
0.0
220
0.0
230
1.0
 70
     8
 71
     3
 72
     8
 73
     4
 74
     0
 42
0.000000001
 43
0.0000000001
 40
0.6662293760194364
 40
0.6662293760194364
 40
0.6662293760194364
 40
0.6662293760194364
 40
1.0
 40
1.0
 40
1.0
 40
1.0
 10
190.3930478108871
 20
349.4332781374101
 30
0.0
 10
190.3664022299003
 20
349.3983816315139
 30
0.0
 10
190.3521797409682
 20
349.3563135444331
 30
0.0
 10
190.3533346230278
 20
349.312672538407
 30
0.0
  0
ARC
  5
1E1
330
1AD
100
AcDbEntity
  8
DV3_Default
 62
     7
100
AcDbCircle
 10
219.9886707243
 20
350.4660241619
 30
0.0
 40
0.8096124200958452
100
AcDbArc
 50
4.6389522834
 51
78.4846411843
  0
ARC
  5
1E2
330
1AD
100
AcDbEntity
  8
DV3_Default
 62
     7
100
AcDbCircle
 10
218.6124842169
 20
288.7643639893
 30
0.0
 40
0.5249922730859058
100
AcDbArc
 50
202.1199526941
 51
272.053636936
  0
SPLINE
  5
1E3
330
1AD
100
AcDbEntity
  8
DV3_Default
 62
     7
100
AcDbSpline
210
0.0
220
0.0
230
1.0
 70
     8
 71
     3
 72
    25
 73
    21
 74
     0
 42
0.000000001
 43
0.0000000001
 40
0.0
 40
0.0
 40
0.0
 40
0.0
 40
0.0345567644580445
 40
0.0929213826328292
 40
0.1502274431449285
 40
0.1981802938693422
 40
0.2376926207728016
 40
0.2786096020939698
 40
0.3293451824535259
 40
0.390010917310067
 40
0.4550076707305071
 40
0.509860689800706
 40
0.5538548047947272
 40
0.5917993542572422
 40
0.6382076765421502
 40
0.6941410071021249
 40
0.7592009910233813
 40
0.8316135617522926
 40
0.9116420954188196
 40
1.0
 40
1.0
 40
1.0
 40
1.0
 10
214.8068898393782
 20
312.9937641562774
 30
0.0
 10
214.8080377879765
 20
312.9779328789389
 30
0.0
 10
214.8186451220555
 20
312.884444646174
 30
0.0
 10
214.8444923437778
 20
312.5993148113258
 30
0.0
 10
214.8771448396792
 20
312.1719886452618
 30
0.0
 10
214.91145257023
 20
311.6996637047613
 30
0.0
 10
214.9512699929246
 20
311.1379025350595
 30
0.0
 10
215.0012898413709
 20
310.4111878690981
 30
0.0
 10
215.061774440656
 20
309.5093050070439
 30
0.0
 10
215.1358843118588
 20
308.4060431289652
 30
0.0
 10
215.2152937540534
 20
307.2486046744955
 30
0.0
 10
215.2899699719191
 20
306.1910735573537
 30
0.0
 10
215.3550935976616
 20
305.2969003872664
 30
0.0
 10
215.4199444239183
 20
304.4326885840328
 30
0.0
 10
215.4956580163723
 20
303.4582922500753
 30
0.0
 10
215.5911278202631
 20
302.2868137224086
 30
0.0
 10
215.7090242852783
 20
300.9239624669929
 30
0.0
 10
215.8621330461087
 20
299.3015491708971
 30
0.0
 10
216.0582275416889
 20
297.4232785662344
 30
0.0
 10
216.2118720430371
 20
296.2304194395031
 30
0.0
 10
216.3084179919754
 20
295.4851512623798
 30
0.0
  0
LINE
  5
1E4
330
1AD
100
AcDbEntity
  8
DV3_Default
 62
     7
100
AcDbLine
 10
214.8068954548
 20
312.9937410598
 30
0.0
 11
214.800282792
 21
313.0352364613
 31
0.0
  0
LINE
  5
1E5
330
1AD
100
AcDbEntity
  8
DV3_Default
 62
     7
100
AcDbLine
 10
157.2683641521
 20
333.7625121093
 30
0.0
 11
117.2683650461
 21
333.7625121093
 31
0.0
  0
LINE
  5
1E6
330
1AD
100
AcDbEntity
  8
DV3_Default
 62
     7
100
AcDbLine
 10
137.2683645991
 20
353.7625116622
 30
0.0
 11
137.2683645991
 21
313.7625125563
 31
0.0
  0
ENDBLK
  5
1E8
330
1AD
100
AcDbEntity
  8
0
100
AcDbBlockEnd
  0
ENDSEC
  0
SECTION
  2
ENTITIES
  0
INSERT
  5
70
330
1F
100
AcDbEntity
  8
Default
100
AcDbBlockReference
  2
SE
 10
0.0
 20
0.0
 30
0.0
  0
INSERT
  5
17F
330
1F
100
AcDbEntity
  8
Default
100
AcDbBlockReference
  2
SE1
 10
0.0
 20
0.0
 30
0.0
  0
INSERT
  5
1AE
330
1F
100
AcDbEntity
  8
Default
100
AcDbBlockReference
  2
SE2
 10
0.0
 20
0.0
 30
0.0
  0
MTEXT
  5
1E9
330
1F
100
AcDbEntity
  8
Default
100
AcDbMText
 10
5.9362635081
 20
63.4225120485
 30
0.0
 40
10.0
 41
113.8626497168
 46
65.4545454545
 71
     1
 72
     1
  1
{\fArial Narrow|b0||i0||c0|p34;\C7;\H10.;\W1.;Grohe AG\P}{\fArial Narrow|b0||i0||c0|p34;\C7;\H10.;\W1.;\P}{\fArial Narrow|b0||i0||c0|p34;\C7;\H10.;\W1.;ecn:\P}{\fArial Narrow|b0||i0||c0|p34;\C7;\H10.;\W1.;unit: mm}
 73
     1
 44
1.0
1001
ACAD
1000
ACAD_MTEXT_DEFINED_HEIGHT_BEGIN
1070
    46
1040
65.4545454545
1000
ACAD_MTEXT_DEFINED_HEIGHT_END
  0
LINE
  5
1EA
330
1F
100
AcDbEntity
  8
Default
 62
     7
100
AcDbLine
 10
0.0
 20
0.0
 30
0.0
 11
100.0
 21
0.0
 31
0.0
  0
LINE
  5
1EB
330
1F
100
AcDbEntity
  8
Default
 62
     7
100
AcDbLine
 10
0.0
 20
0.0
 30
0.0
 11
0.0
 21
100.0
 31
0.0
  0
MTEXT
  5
1EC
330
1F
100
AcDbEntity
  8
Default
100
AcDbMText
 10
24.3923665681
 20
-8.2375342018
 30
0.0
 40
10.0
 41
35.00001
 46
16.3636363636
 71
     1
 72
     1
  1
{\fArial Narrow|b0||i0||c0|p34;\C7;\H10.;\W0.82;100 mm}
 73
     1
 44
1.0
1001
ACAD
1000
ACAD_MTEXT_DEFINED_HEIGHT_BEGIN
1070
    46
1040
16.3636363636
1000
ACAD_MTEXT_DEFINED_HEIGHT_END
  0
MTEXT
  5
1ED
330
1F
100
AcDbEntity
  8
Default
100
AcDbMText
 10
-17.6150308803
 20
24.6231930421
 30
0.0
 40
10.0
 41
35.00001
 46
16.3636363636
 71
     1
 72
     1
  1
{\fArial Narrow|b0||i0||c0|p34;\C7;\H10.;\W0.82;100 mm}
 11
6.123233995736766E-17
 21
1.0
 31
0.0
 73
     1
 44
1.0
1001
ACAD
1000
ACAD_MTEXT_DEFINED_HEIGHT_BEGIN
1070
    46
1040
16.3636363636
1000
ACAD_MTEXT_DEFINED_HEIGHT_END
  0
MTEXT
  5
1EE
330
1F
100
AcDbEntity
  8
Default
100
AcDbMText
 10
28.4878128572
 20
24.8634936442
 30
0.0
 40
10.0
 41
86.691737001
 46
16.3636363636
 71
     4
 72
     1
  1
{\fArial Narrow|b0||i0||c0|p34;\C7;\H10.;\W1.;251698}
 73
     1
 44
1.0
1001
ACAD
1000
ACAD_MTEXT_DEFINED_HEIGHT_BEGIN
1070
    46
1040
16.3636363636
1000
ACAD_MTEXT_DEFINED_HEIGHT_END
  0
MTEXT
  5
1EF
330
1F
100
AcDbEntity
  8
Default
100
AcDbMText
 10
5.9012241913
 20
41.4970052916
 30
0.0
 40
10.0
 41
109.9146987306
 46
16.3636363636
 71
     4
 72
     1
  1
{\fArial Narrow|b0||i0||c0|p34;\C7;\H10.;\W1.;30562000}
 73
     1
 44
1.0
1001
ACAD
1000
ACAD_MTEXT_DEFINED_HEIGHT_BEGIN
1070
    46
1040
16.3636363636
1000
ACAD_MTEXT_DEFINED_HEIGHT_END
  0
ENDSEC
  0
SECTION
  2
OBJECTS
  0
DICTIONARY
  5
C
330
0
100
AcDbDictionary
281
     1
  3
ACAD_DETAILVIEWSTYLE
350
22B
  3
ACAD_GROUP
350
D
  3
ACAD_LAYOUT
350
1A
  3
ACAD_MATERIAL
350
43
  3
ACAD_MLEADERSTYLE
350
6B
  3
ACAD_MLINESTYLE
350
17
  3
ACAD_PLOTSETTINGS
350
19
  3
ACAD_PLOTSTYLENAME
350
E
  3
ACAD_SCALELIST
350
47
  3
ACAD_SECTIONVIEWSTYLE
350
22C
  3
ACAD_TABLESTYLE
350
69
  3
ACAD_VISUALSTYLE
350
2A
  3
ACDB_RECOMPOSE_DATA
350
228
  3
AcDbVariableDictionary
350
1F0
  0
SUN
  5
6D
330
29
100
AcDbSun
 90
        1
290
     0
 63
     7
421
 16777215
 40
1.0
291
     1
 91
  2455826
 92
 54000000
292
     0
 70
     2
 71
   256
280
     1
  0
DICTIONARY
  5
22B
102
{ACAD_REACTORS
330
C
102
}
330
C
100
AcDbDictionary
281
     1
  0
DICTIONARY
  5
D
102
{ACAD_REACTORS
330
C
102
}
330
C
100
AcDbDictionary
281
     1
  0
DICTIONARY
  5
1A
102
{ACAD_REACTORS
330
C
102
}
330
C
100
AcDbDictionary
281
     1
  3
Layout1
350
1E
  3
Model
350
22
  0
DICTIONARY
  5
43
102
{ACAD_REACTORS
330
C
102
}
330
C
100
AcDbDictionary
281
     1
  3
ByBlock
350
45
  3
ByLayer
350
44
  3
Global
350
46
  0
DICTIONARY
  5
6B
102
{ACAD_REACTORS
330
C
102
}
330
C
100
AcDbDictionary
281
     1
  3
Standard
350
6C
  0
DICTIONARY
  5
17
102
{ACAD_REACTORS
330
C
102
}
330
C
100
AcDbDictionary
281
     1
  3
Standard
350
18
  0
DICTIONARY
  5
19
102
{ACAD_REACTORS
330
C
102
}
330
C
100
AcDbDictionary
281
     1
  0
ACDBDICTIONARYWDFLT
  5
E
102
{ACAD_REACTORS
330
C
102
}
330
C
100
AcDbDictionary
281
     1
  3
Normal
350
F
100
AcDbDictionaryWithDefault
340
F
  0
DICTIONARY
  5
47
102
{ACAD_REACTORS
330
C
102
}
330
C
100
AcDbDictionary
281
     1
  3
A0
350
48
  3
A1
350
49
  3
A2
350
4A
  3
A3
350
4B
  3
A4
350
4C
  3
A5
350
4D
  3
A6
350
4E
  3
A7
350
4F
  3
A8
350
50
  3
A9
350
51
  3
B0
350
52
  3
B1
350
53
  3
B2
350
54
  3
B3
350
55
  3
B4
350
56
  3
B5
350
57
  3
B6
350
58
  3
B7
350
59
  3
B8
350
5A
  3
B9
350
5B
  3
C0
350
5C
  3
C1
350
5D
  3
C2
350
5E
  3
C3
350
5F
  3
C4
350
60
  3
C5
350
61
  3
C6
350
62
  3
C7
350
63
  3
C8
350
64
  3
C9
350
65
  3
D0
350
66
  3
D1
350
67
  3
D2
350
68
  0
DICTIONARY
  5
22C
102
{ACAD_REACTORS
330
C
102
}
330
C
100
AcDbDictionary
281
     1
  0
DICTIONARY
  5
69
102
{ACAD_REACTORS
330
C
102
}
330
C
100
AcDbDictionary
281
     1
  3
Standard
350
6A
  0
DICTIONARY
  5
2A
102
{ACAD_REACTORS
330
C
102
}
330
C
100
AcDbDictionary
281
     1
  3
2dWireframe
350
2F
  3
Basic
350
32
  3
Brighten
350
36
  3
ColorChange
350
3A
  3
Conceptual
350
34
  3
Dim
350
35
  3
EdgeColorOff
350
3D
  3
Facepattern
350
39
  3
Flat
350
2B
  3
FlatWithEdges
350
2C
  3
Gouraud
350
2D
  3
GouraudWithEdges
350
2E
  3
Hidden
350
31
  3
JitterOff
350
3B
  3
Linepattern
350
38
  3
OverhangOff
350
3C
  3
Realistic
350
33
  3
Shaded
350
42
  3
Shaded with edges
350
41
  3
Shades of Gray
350
3E
  3
Sketchy
350
3F
  3
Thicken
350
37
  3
Wireframe
350
30
  3
X-Ray
350
40
  0
XRECORD
  5
228
102
{ACAD_REACTORS
330
C
102
}
330
C
100
AcDbXrecord
280
     1
 90
        1
330
6A
  0
DICTIONARY
  5
1F0
102
{ACAD_REACTORS
330
C
102
}
330
C
100
AcDbDictionary
281
     1
  3
CANNOSCALE
350
1F1
  3
CENTEREXE
350
22D
  3
CENTERLTYPEFILE
350
22E
  3
CMLEADERSTYLE
350
22A
  3
CTABLESTYLE
350
229
  3
XCLIPFRAME
350
1F2
  0
LAYOUT
  5
1E
102
{ACAD_REACTORS
330
1A
102
}
330
1A
100
AcDbPlotSettings
  1

  2
none_device
  4

  6

 40
0.0
 41
0.0
 42
0.0
 43
0.0
 44
0.0
 45
0.0
 46
0.0
 47
0.0
 48
0.0
 49
0.0
140
0.0
141
0.0
142
1.0
143
1.0
 70
   688
 72
     1
 73
     0
 74
     5
  7

 75
    16
 76
     0
 77
     2
 78
   300
147
1.0
148
0.0
149
0.0
100
AcDbLayout
  1
Layout1
 70
     1
 71
     1
 10
0.0
 20
0.0
 11
3000.0
 21
4500.0
 12
0.0
 22
0.0
 32
0.0
 14
0.0
 24
0.0
 34
0.0
 15
3000.0
 25
4500.0
 35
0.0
146
0.0
 13
0.0
 23
0.0
 33
0.0
 16
1.0
 26
0.0
 36
0.0
 17
0.0
 27
1.0
 37
0.0
 76
     0
330
1B
  0
LAYOUT
  5
22
102
{ACAD_REACTORS
330
1A
102
}
330
1A
100
AcDbPlotSettings
  1

  2
none_device
  4
Letter_(8.50_x_11.00_Inches)
  6

 40
6.35
 41
6.35
 42
6.35000508
 43
6.35000508
 44
215.9
 45
279.4
 46
0.0
 47
0.0
 48
0.0
 49
0.0
140
0.0
141
0.0
142
1.0
143
1.0
 70
  1712
 72
     1
 73
     0
 74
     0
  7

 75
     0
 76
     0
 77
     2
 78
   300
147
1.0
148
0.0
149
0.0
100
AcDbLayout
  1
Model
 70
     1
 71
     0
 10
0.0
 20
0.0
 11
3000.0
 21
4500.0
 12
0.0
 22
0.0
 32
0.0
 14
0.0
 24
0.0
 34
0.0
 15
3000.0
 25
4500.0
 35
0.0
146
0.0
 13
0.0
 23
0.0
 33
0.0
 16
1.0
 26
0.0
 36
0.0
 17
0.0
 27
1.0
 37
0.0
 76
     0
330
1F
331
29
  0
MATERIAL
  5
45
102
{ACAD_REACTORS
330
43
102
}
330
43
100
AcDbMaterial
  1
ByBlock
 72
     1
 94
      127
  0
MATERIAL
  5
44
102
{ACAD_REACTORS
330
43
102
}
330
43
100
AcDbMaterial
  1
ByLayer
 72
     1
 94
      127
  0
MATERIAL
  5
46
102
{ACAD_REACTORS
330
43
102
}
330
43
100
AcDbMaterial
  1
Global
 72
     1
 94
      127
  0
MLEADERSTYLE
  5
6C
102
{ACAD_REACTORS
330
6B
102
}
102
{ACAD_XDICTIONARY
360
226
102
}
330
6B
100
AcDbMLeaderStyle
170
     2
171
     1
172
     0
 90
        2
 40
0.0
 41
0.0
173
     1
 91
-1056964608
340
14
 92
       -2
290
     1
 42
2.0
291
     1
 43
8.0
  3
Standard
341
0
 44
4.0
300

342
11
174
     1
178
     6
175
     1
176
     0
 93
-1056964608
 45
4.0
292
     0
297
     0
 46
4.0
343
0
 94
-1056964608
 47
1.0
 49
1.0
140
1.0
293
     1
141
0.0
294
     1
177
     0
142
1.0
295
     0
296
     0
143
3.75
1001
ACAD_MLEADERVER
1070
     2
  0
MLINESTYLE
  5
18
102
{ACAD_REACTORS
330
17
102
}
330
17
100
AcDbMlineStyle
  2
Standard
 70
     0
  3

 62
   256
 51
90.0
 52
90.0
 71
     2
 49
0.5
 62
   256
  6
BYLAYER
 49
-0.5
 62
   256
  6
BYLAYER
  0
ACDBPLACEHOLDER
  5
F
102
{ACAD_REACTORS
330
E
102
}
330
E
  0
SCALE
  5
48
102
{ACAD_REACTORS
330
47
102
}
330
47
100
AcDbScale
 70
     0
300
1:1
140
1.0
141
1.0
290
     1
  0
SCALE
  5
49
102
{ACAD_REACTORS
330
47
102
}
330
47
100
AcDbScale
 70
     0
300
1:2
140
1.0
141
2.0
290
     0
  0
SCALE
  5
4A
102
{ACAD_REACTORS
330
47
102
}
330
47
100
AcDbScale
 70
     0
300
1:4
140
1.0
141
4.0
290
     0
  0
SCALE
  5
4B
102
{ACAD_REACTORS
330
47
102
}
330
47
100
AcDbScale
 70
     0
300
1:5
140
1.0
141
5.0
290
     0
  0
SCALE
  5
4C
102
{ACAD_REACTORS
330
47
102
}
330
47
100
AcDbScale
 70
     0
300
1:8
140
1.0
141
8.0
290
     0
  0
SCALE
  5
4D
102
{ACAD_REACTORS
330
47
102
}
330
47
100
AcDbScale
 70
     0
300
1:10
140
1.0
141
10.0
290
     0
  0
SCALE
  5
4E
102
{ACAD_REACTORS
330
47
102
}
330
47
100
AcDbScale
 70
     0
300
1:16
140
1.0
141
16.0
290
     0
  0
SCALE
  5
4F
102
{ACAD_REACTORS
330
47
102
}
330
47
100
AcDbScale
 70
     0
300
1:20
140
1.0
141
20.0
290
     0
  0
SCALE
  5
50
102
{ACAD_REACTORS
330
47
102
}
330
47
100
AcDbScale
 70
     0
300
1:30
140
1.0
141
30.0
290
     0
  0
SCALE
  5
51
102
{ACAD_REACTORS
330
47
102
}
330
47
100
AcDbScale
 70
     0
300
1:40
140
1.0
141
40.0
290
     0
  0
SCALE
  5
52
102
{ACAD_REACTORS
330
47
102
}
330
47
100
AcDbScale
 70
     0
300
1:50
140
1.0
141
50.0
290
     0
  0
SCALE
  5
53
102
{ACAD_REACTORS
330
47
102
}
330
47
100
AcDbScale
 70
     0
300
1:100
140
1.0
141
100.0
290
     0
  0
SCALE
  5
54
102
{ACAD_REACTORS
330
47
102
}
330
47
100
AcDbScale
 70
     0
300
2:1
140
2.0
141
1.0
290
     0
  0
SCALE
  5
55
102
{ACAD_REACTORS
330
47
102
}
330
47
100
AcDbScale
 70
     0
300
4:1
140
4.0
141
1.0
290
     0
  0
SCALE
  5
56
102
{ACAD_REACTORS
330
47
102
}
330
47
100
AcDbScale
 70
     0
300
8:1
140
8.0
141
1.0
290
     0
  0
SCALE
  5
57
102
{ACAD_REACTORS
330
47
102
}
330
47
100
AcDbScale
 70
     0
300
10:1
140
10.0
141
1.0
290
     0
  0
SCALE
  5
58
102
{ACAD_REACTORS
330
47
102
}
330
47
100
AcDbScale
 70
     0
300
100:1
140
100.0
141
1.0
290
     0
  0
SCALE
  5
59
102
{ACAD_REACTORS
330
47
102
}
330
47
100
AcDbScale
 70
     0
300
1/128" = 1'-0"
140
0.0078125
141
12.0
290
     0
  0
SCALE
  5
5A
102
{ACAD_REACTORS
330
47
102
}
330
47
100
AcDbScale
 70
     0
300
1/64" = 1'-0"
140
0.015625
141
12.0
290
     0
  0
SCALE
  5
5B
102
{ACAD_REACTORS
330
47
102
}
330
47
100
AcDbScale
 70
     0
300
1/32" = 1'-0"
140
0.03125
141
12.0
290
     0
  0
SCALE
  5
5C
102
{ACAD_REACTORS
330
47
102
}
330
47
100
AcDbScale
 70
     0
300
1/16" = 1'-0"
140
0.0625
141
12.0
290
     0
  0
SCALE
  5
5D
102
{ACAD_REACTORS
330
47
102
}
330
47
100
AcDbScale
 70
     0
300
3/32" = 1'-0"
140
0.09375
141
12.0
290
     0
  0
SCALE
  5
5E
102
{ACAD_REACTORS
330
47
102
}
330
47
100
AcDbScale
 70
     0
300
1/8" = 1'-0"
140
0.125
141
12.0
290
     0
  0
SCALE
  5
5F
102
{ACAD_REACTORS
330
47
102
}
330
47
100
AcDbScale
 70
     0
300
3/16" = 1'-0"
140
0.1875
141
12.0
290
     0
  0
SCALE
  5
60
102
{ACAD_REACTORS
330
47
102
}
330
47
100
AcDbScale
 70
     0
300
1/4" = 1'-0"
140
0.25
141
12.0
290
     0
  0
SCALE
  5
61
102
{ACAD_REACTORS
330
47
102
}
330
47
100
AcDbScale
 70
     0
300
3/8" = 1'-0"
140
0.375
141
12.0
290
     0
  0
SCALE
  5
62
102
{ACAD_REACTORS
330
47
102
}
330
47
100
AcDbScale
 70
     0
300
1/2" = 1'-0"
140
0.5
141
12.0
290
     0
  0
SCALE
  5
63
102
{ACAD_REACTORS
330
47
102
}
330
47
100
AcDbScale
 70
     0
300
3/4" = 1'-0"
140
0.75
141
12.0
290
     0
  0
SCALE
  5
64
102
{ACAD_REACTORS
330
47
102
}
330
47
100
AcDbScale
 70
     0
300
1" = 1'-0"
140
1.0
141
12.0
290
     0
  0
SCALE
  5
65
102
{ACAD_REACTORS
330
47
102
}
330
47
100
AcDbScale
 70
     0
300
1-1/2" = 1'-0"
140
1.5
141
12.0
290
     0
  0
SCALE
  5
66
102
{ACAD_REACTORS
330
47
102
}
330
47
100
AcDbScale
 70
     0
300
3" = 1'-0"
140
3.0
141
12.0
290
     0
  0
SCALE
  5
67
102
{ACAD_REACTORS
330
47
102
}
330
47
100
AcDbScale
 70
     0
300
6" = 1'-0"
140
6.0
141
12.0
290
     0
  0
SCALE
  5
68
102
{ACAD_REACTORS
330
47
102
}
330
47
100
AcDbScale
 70
     0
300
1'-0" = 1'-0"
140
12.0
141
12.0
290
     0
  0
TABLESTYLE
  5
6A
102
{ACAD_REACTORS
330
69
102
}
102
{ACAD_XDICTIONARY
360
223
102
}
330
69
100
AcDbTableStyle
  3
Standard
 70
     0
 71
     0
 40
0.06
 41
0.06
280
     0
281
     0
  7
Standard
140
4.5
170
     2
 62
     0
 63
   257
283
     0
 90
        4
 91
        0
  1

274
    -2
284
     1
 64
     0
275
    -2
285
     1
 65
     0
276
    -2
286
     1
 66
     0
277
    -2
287
     1
 67
     0
278
    -2
288
     1
 68
     0
279
    -2
289
     1
 69
     0
  7
Standard
140
6.0
170
     5
 62
     0
 63
   257
283
     0
 90
        4
 91
        0
  1

274
    -2
284
     1
 64
     0
275
    -2
285
     1
 65
     0
276
    -2
286
     1
 66
     0
277
    -2
287
     1
 67
     0
278
    -2
288
     1
 68
     0
279
    -2
289
     1
 69
     0
  7
Standard
140
4.5
170
     5
 62
     0
 63
   257
283
     0
 90
        4
 91
        0
  1

274
    -2
284
     1
 64
     0
275
    -2
285
     1
 65
     0
276
    -2
286
     1
 66
     0
277
    -2
287
     1
 67
     0
278
    -2
288
     1
 68
     0
279
    -2
289
     1
 69
     0
  0
VISUALSTYLE
  5
2F
102
{ACAD_REACTORS
330
2A
102
}
102
{ACAD_XDICTIONARY
360
1FB
102
}
330
2A
100
AcDbVisualStyle
  2
2dWireframe
 70
     4
 71
     0
 72
     2
 73
     0
 90
        0
 40
0.6
 41
30.0
 62
     5
 63
     7
421
 16777215
 74
     1
 91
        4
 64
     7
 65
   257
 75
     1
175
     1
 42
1.0
 92
        0
 66
   257
 43
1.0
 76
     1
 77
     6
 78
     2
 67
     7
 79
     5
170
     0
171
     0
290
     0
174
     0
 93
        1
 44
0.0
173
     0
291
     0
 45
0.0
  0
VISUALSTYLE
  5
32
102
{ACAD_REACTORS
330
2A
102
}
102
{ACAD_XDICTIONARY
360
201
102
}
330
2A
100
AcDbVisualStyle
  2
Basic
 70
     7
 71
     1
 72
     0
 73
     1
 90
        0
 40
0.6
 41
30.0
 62
     5
 63
     7
421
 16777215
 74
     0
 91
        4
 64
     7
 65
   257
 75
     1
175
     1
 42
1.0
 92
        8
 66
     7
 43
1.0
 76
     1
 77
     6
 78
     2
 67
     7
 79
     5
170
     0
171
     0
290
     0
174
     0
 93
        1
 44
0.0
173
     0
291
     1
 45
0.0
  0
VISUALSTYLE
  5
36
102
{ACAD_REACTORS
330
2A
102
}
102
{ACAD_XDICTIONARY
360
209
102
}
330
2A
100
AcDbVisualStyle
  2
Brighten
 70
    12
 71
     2
 72
     2
 73
     0
 90
        0
 40
0.6
 41
30.0
 62
     5
 63
     7
421
 16777215
 74
     1
 91
        4
 64
     7
 65
   257
 75
     1
175
     1
 42
1.0
 92
        8
 66
     7
 43
1.0
 76
     1
 77
     6
 78
     2
 67
     7
 79
     5
170
     0
171
     0
290
     0
174
     0
 93
        1
 44
50.0
173
     0
291
     1
 45
0.0
  0
VISUALSTYLE
  5
3A
102
{ACAD_REACTORS
330
2A
102
}
102
{ACAD_XDICTIONARY
360
211
102
}
330
2A
100
AcDbVisualStyle
  2
ColorChange
 70
    16
 71
     2
 72
     2
 73
     3
 90
        0
 40
0.6
 41
30.0
 62
     5
 63
     8
421
  8421504
 74
     1
 91
        4
 64
     7
 65
   257
 75
     1
175
     1
 42
1.0
 92
        8
 66
     8
424
  8421504
 43
1.0
 76
     1
 77
     6
 78
     2
 67
     7
 79
     5
170
     0
171
     0
290
     0
174
     0
 93
        1
 44
0.0
173
     0
291
     1
 45
0.0
  0
VISUALSTYLE
  5
34
102
{ACAD_REACTORS
330
2A
102
}
102
{ACAD_XDICTIONARY
360
205
102
}
330
2A
100
AcDbVisualStyle
  2
Conceptual
 70
     9
 71
     3
 72
     2
 73
     0
 90
        0
 40
0.6
 41
30.0
 62
     5
 63
     7
421
 16777215
 74
     2
 91
        2
 64
     7
 65
   257
 75
     1
175
     1
 42
179.0
 92
        8
 66
     7
 43
1.0
 76
     1
 77
     6
 78
     2
 67
     7
 79
     3
170
     0
171
     0
290
     0
174
     0
 93
        1
 44
0.0
173
     0
291
     0
 45
0.0
  0
VISUALSTYLE
  5
35
102
{ACAD_REACTORS
330
2A
102
}
102
{ACAD_XDICTIONARY
360
207
102
}
330
2A
100
AcDbVisualStyle
  2
Dim
 70
    11
 71
     2
 72
     2
 73
     0
 90
        0
 40
0.6
 41
30.0
 62
     5
 63
     7
421
 16777215
 74
     1
 91
        4
 64
     7
 65
   257
 75
     1
175
     1
 42
1.0
 92
        8
 66
     7
 43
1.0
 76
     1
 77
     6
 78
     2
 67
     7
 79
     5
170
     0
171
     0
290
     0
174
     0
 93
        1
 44
-50.0
173
     0
291
     1
 45
0.0
  0
VISUALSTYLE
  5
3D
102
{ACAD_REACTORS
330
2A
102
}
102
{ACAD_XDICTIONARY
360
217
102
}
330
2A
100
AcDbVisualStyle
  2
EdgeColorOff
 70
    22
 71
     2
 72
     2
 73
     0
 90
        0
 40
0.6
 41
30.0
 62
     5
 63
     7
421
 16777215
 74
     1
 91
        4
 64
     7
 65
   257
 75
     1
175
     1
 42
1.0
 92
        8
 66
     7
 43
1.0
 76
     1
 77
     6
 78
     2
 67
     7
 79
     5
170
     0
171
     0
290
     0
174
     0
 93
        1
 44
0.0
173
     0
291
     1
 45
0.0
  0
VISUALSTYLE
  5
39
102
{ACAD_REACTORS
330
2A
102
}
102
{ACAD_XDICTIONARY
360
20F
102
}
330
2A
100
AcDbVisualStyle
  2
Facepattern
 70
    15
 71
     2
 72
     2
 73
     0
 90
        0
 40
0.6
 41
30.0
 62
     5
 63
     7
421
 16777215
 74
     1
 91
        4
 64
     7
 65
   257
 75
     1
175
     1
 42
1.0
 92
        8
 66
     7
 43
1.0
 76
     1
 77
     6
 78
     2
 67
     7
 79
     5
170
     0
171
     0
290
     0
174
     0
 93
        1
 44
0.0
173
     0
291
     1
 45
0.0
  0
VISUALSTYLE
  5
2B
102
{ACAD_REACTORS
330
2A
102
}
102
{ACAD_XDICTIONARY
360
1F3
102
}
330
2A
100
AcDbVisualStyle
  2
Flat
 70
     0
 71
     2
 72
     1
 73
     1
 90
        2
 40
0.6
 41
30.0
 62
     5
 63
     7
421
 16777215
 74
     0
 91
        0
 64
     7
 65
   257
 75
     1
175
     1
 42
1.0
 92
        8
 66
     7
 43
1.0
 76
     1
 77
     6
 78
     2
 67
     7
 79
     5
170
     0
171
     0
290
     0
174
     0
 93
       13
 44
0.0
173
     0
291
     1
 45
0.0
  0
VISUALSTYLE
  5
2C
102
{ACAD_REACTORS
330
2A
102
}
102
{ACAD_XDICTIONARY
360
1F5
102
}
330
2A
100
AcDbVisualStyle
  2
FlatWithEdges
 70
     1
 71
     2
 72
     1
 73
     1
 90
        2
 40
0.6
 41
30.0
 62
     5
 63
     7
421
 16777215
 74
     1
 91
        0
 64
     7
 65
   257
 75
     1
175
     1
 42
1.0
 92
        0
 66
   257
 43
1.0
 76
     1
 77
     6
 78
     2
 67
     7
 79
     5
170
     0
171
     0
290
     0
174
     0
 93
       13
 44
0.0
173
     0
291
     1
 45
0.0
  0
VISUALSTYLE
  5
2D
102
{ACAD_REACTORS
330
2A
102
}
102
{ACAD_XDICTIONARY
360
1F7
102
}
330
2A
100
AcDbVisualStyle
  2
Gouraud
 70
     2
 71
     2
 72
     2
 73
     1
 90
        2
 40
0.6
 41
30.0
 62
     5
 63
     7
421
 16777215
 74
     0
 91
        0
 64
     7
 65
   257
 75
     1
175
     1
 42
1.0
 92
        0
 66
     7
 43
1.0
 76
     1
 77
     6
 78
     2
 67
     7
 79
     5
170
     0
171
     0
290
     0
174
     0
 93
       13
 44
0.0
173
     0
291
     1
 45
0.0
  0
VISUALSTYLE
  5
2E
102
{ACAD_REACTORS
330
2A
102
}
102
{ACAD_XDICTIONARY
360
1F9
102
}
330
2A
100
AcDbVisualStyle
  2
GouraudWithEdges
 70
     3
 71
     2
 72
     2
 73
     1
 90
        2
 40
0.6
 41
30.0
 62
     5
 63
     7
421
 16777215
 74
     1
 91
        0
 64
     7
 65
   257
 75
     1
175
     1
 42
1.0
 92
        0
 66
   257
 43
1.0
 76
     1
 77
     6
 78
     2
 67
     7
 79
     5
170
     0
171
     0
290
     0
174
     0
 93
       13
 44
0.0
173
     0
291
     1
 45
0.0
  0
VISUALSTYLE
  5
31
102
{ACAD_REACTORS
330
2A
102
}
102
{ACAD_XDICTIONARY
360
1FF
102
}
330
2A
100
AcDbVisualStyle
  2
Hidden
 70
     6
 71
     1
 72
     2
 73
     2
 90
        0
 40
0.6
 41
30.0
 62
     5
 63
     7
421
 16777215
 74
     2
 91
        2
 64
     7
 65
   257
 75
     2
175
     1
 42
40.0
 92
        0
 66
   257
 43
1.0
 76
     1
 77
     6
 78
     2
 67
     7
 79
     3
170
     0
171
     0
290
     0
174
     0
 93
        1
 44
0.0
173
     0
291
     0
 45
0.0
  0
VISUALSTYLE
  5
3B
102
{ACAD_REACTORS
330
2A
102
}
102
{ACAD_XDICTIONARY
360
213
102
}
330
2A
100
AcDbVisualStyle
  2
JitterOff
 70
    20
 71
     2
 72
     2
 73
     0
 90
        0
 40
0.6
 41
30.0
 62
     5
 63
     7
421
 16777215
 74
     1
 91
        4
 64
     7
 65
   257
 75
     1
175
     1
 42
1.0
 92
       10
 66
     7
 43
1.0
 76
     1
 77
     6
 78
     2
 67
     7
 79
     5
170
     0
171
     0
290
     0
174
     0
 93
        1
 44
0.0
173
     0
291
     1
 45
0.0
  0
VISUALSTYLE
  5
38
102
{ACAD_REACTORS
330
2A
102
}
102
{ACAD_XDICTIONARY
360
20D
102
}
330
2A
100
AcDbVisualStyle
  2
Linepattern
 70
    14
 71
     2
 72
     2
 73
     0
 90
        0
 40
0.6
 41
30.0
 62
     5
 63
     7
421
 16777215
 74
     1
 91
        4
 64
     7
 65
   257
 75
     7
175
     7
 42
1.0
 92
        8
 66
     7
 43
1.0
 76
     1
 77
     6
 78
     2
 67
     7
 79
     5
170
     0
171
     0
290
     0
174
     0
 93
        1
 44
0.0
173
     0
291
     1
 45
0.0
  0
VISUALSTYLE
  5
3C
102
{ACAD_REACTORS
330
2A
102
}
102
{ACAD_XDICTIONARY
360
215
102
}
330
2A
100
AcDbVisualStyle
  2
OverhangOff
 70
    21
 71
     2
 72
     2
 73
     0
 90
        0
 40
0.6
 41
30.0
 62
     5
 63
     7
421
 16777215
 74
     1
 91
        4
 64
     7
 65
   257
 75
     1
175
     1
 42
1.0
 92
        9
 66
     7
 43
1.0
 76
     1
 77
     6
 78
     2
 67
     7
 79
     5
170
     0
171
     0
290
     0
174
     0
 93
        1
 44
0.0
173
     0
291
     1
 45
0.0
  0
VISUALSTYLE
  5
33
102
{ACAD_REACTORS
330
2A
102
}
102
{ACAD_XDICTIONARY
360
203
102
}
330
2A
100
AcDbVisualStyle
  2
Realistic
 70
     8
 71
     2
 72
     3
 73
     0
 90
        2
 40
0.6
 41
30.0
 62
     5
 63
     7
421
 16777215
 74
     0
 91
        0
 64
     7
 65
   257
 75
     1
175
     1
 42
1.0
 92
        8
 66
   257
 43
1.0
 76
     1
 77
     6
 78
     2
 67
     7
 79
     3
170
     0
171
     0
290
     0
174
     0
 93
       13
 44
0.0
173
     0
291
     0
 45
0.0
  0
VISUALSTYLE
  5
42
102
{ACAD_REACTORS
330
2A
102
}
102
{ACAD_XDICTIONARY
360
221
102
}
330
2A
100
AcDbVisualStyle
  2
Shaded
 70
    27
 71
     2
 72
     2
 73
     1
 90
        2
 40
0.6
 41
30.0
 62
     5
 63
     7
421
 16777215
 74
     0
 91
        4
 64
     7
 65
   257
 75
     1
175
     1
 42
1.0
 92
        8
 66
   257
 43
1.0
 76
     1
 77
     6
 78
     2
 67
     8
425
  7895160
 79
     3
170
     0
171
     0
290
     0
174
     0
 93
        5
 44
0.0
173
     0
291
     0
 45
0.0
  0
VISUALSTYLE
  5
41
102
{ACAD_REACTORS
330
2A
102
}
102
{ACAD_XDICTIONARY
360
21F
102
}
330
2A
100
AcDbVisualStyle
  2
Shaded with edges
 70
    26
 71
     2
 72
     2
 73
     1
 90
        2
 40
0.6
 41
30.0
 62
     5
 63
     7
421
 16777215
 74
     1
 91
       10
 64
     7
 65
   257
 75
     2
175
     1
 42
1.0
 92
        8
 66
   257
 43
1.0
 76
     1
 77
     6
 78
     2
 67
     7
 79
     3
170
     0
171
     0
290
     0
174
     0
 93
        5
 44
0.0
173
     0
291
     0
 45
0.0
  0
VISUALSTYLE
  5
3E
102
{ACAD_REACTORS
330
2A
102
}
102
{ACAD_XDICTIONARY
360
219
102
}
330
2A
100
AcDbVisualStyle
  2
Shades of Gray
 70
    23
 71
     2
 72
     2
 73
     3
 90
        0
 40
0.6
 41
30.0
 62
     5
 63
     7
421
 16777215
 74
     2
 91
        2
 64
     7
 65
     7
 75
     1
175
     1
 42
40.0
 92
        8
 66
     7
 43
1.0
 76
     1
 77
     6
 78
     2
 67
     7
 79
     3
170
     0
171
     0
290
     0
174
     0
 93
        1
 44
0.0
173
     0
291
     0
 45
0.0
  0
VISUALSTYLE
  5
3F
102
{ACAD_REACTORS
330
2A
102
}
102
{ACAD_XDICTIONARY
360
21B
102
}
330
2A
100
AcDbVisualStyle
  2
Sketchy
 70
    24
 71
     1
 72
     2
 73
     2
 90
        0
 40
0.6
 41
30.0
 62
     5
 63
     7
421
 16777215
 74
     2
 91
        2
 64
     7
 65
     7
 75
     1
175
     1
 42
40.0
 92
       11
 66
     7
 43
1.0
 76
     1
 77
     6
 78
     2
 67
     7
 79
     6
170
     0
171
     0
290
     0
174
     0
 93
        1
 44
0.0
173
     0
291
     0
 45
0.0
  0
VISUALSTYLE
  5
37
102
{ACAD_REACTORS
330
2A
102
}
102
{ACAD_XDICTIONARY
360
20B
102
}
330
2A
100
AcDbVisualStyle
  2
Thicken
 70
    13
 71
     2
 72
     2
 73
     0
 90
        0
 40
0.6
 41
30.0
 62
     5
 63
     7
421
 16777215
 74
     1
 91
        4
 64
     7
 65
   257
 75
     1
175
     1
 42
1.0
 92
       12
 66
     7
 43
1.0
 76
     1
 77
     6
 78
     2
 67
     7
 79
     5
170
     0
171
     0
290
     0
174
     0
 93
        1
 44
0.0
173
     0
291
     1
 45
0.0
  0
VISUALSTYLE
  5
30
102
{ACAD_REACTORS
330
2A
102
}
102
{ACAD_XDICTIONARY
360
1FD
102
}
330
2A
100
AcDbVisualStyle
  2
Wireframe
 70
     5
 71
     0
 72
     2
 73
     0
 90
        0
 40
0.6
 41
30.0
 62
     5
 63
     7
421
 16777215
 74
     1
 91
        4
 64
     7
 65
   257
 75
     1
175
     1
 42
1.0
 92
        0
 66
   257
 43
1.0
 76
     1
 77
     6
 78
     2
 67
     7
 79
     3
170
     0
171
     0
290
     0
174
     0
 93
        1
 44
0.0
173
     0
291
     0
 45
0.0
  0
VISUALSTYLE
  5
40
102
{ACAD_REACTORS
330
2A
102
}
102
{ACAD_XDICTIONARY
360
21D
102
}
330
2A
100
AcDbVisualStyle
  2
X-Ray
 70
    25
 71
     2
 72
     2
 73
     1
 90
        1
 40
0.5
 41
30.0
 62
     5
 63
     7
421
 16777215
 74
     1
 91
        0
 64
     7
 65
   257
 75
     1
175
     1
 42
1.0
 92
        8
 66
     7
 43
1.0
 76
     1
 77
     6
 78
     2
 67
     7
 79
     3
170
     0
171
     0
290
     0
174
     0
 93
       13
 44
0.0
173
     0
291
     0
 45
0.0
  0
DICTIONARYVAR
  5
1F1
102
{ACAD_REACTORS
330
1F0
102
}
330
1F0
100
DictionaryVariables
280
     0
  1
1:1
  0
DICTIONARYVAR
  5
22D
102
{ACAD_REACTORS
330
1F0
102
}
330
1F0
100
DictionaryVariables
280
     0
  1
3.500000
  0
DICTIONARYVAR
  5
22E
102
{ACAD_REACTORS
330
1F0
102
}
330
1F0
100
DictionaryVariables
280
     0
  1
acadiso.lin
  0
DICTIONARYVAR
  5
22A
102
{ACAD_REACTORS
330
1F0
102
}
330
1F0
100
DictionaryVariables
280
     0
  1
Standard
  0
DICTIONARYVAR
  5
229
102
{ACAD_REACTORS
330
1F0
102
}
330
1F0
100
DictionaryVariables
280
     0
  1
Standard
  0
DICTIONARYVAR
  5
1F2
102
{ACAD_REACTORS
330
1F0
102
}
330
1F0
100
DictionaryVariables
280
     0
  1
2
  0
DICTIONARY
  5
226
330
6C
100
AcDbDictionary
280
     1
281
     1
  3
ACAD_XREC_ROUNDTRIP
360
227
  0
DICTIONARY
  5
223
330
6A
100
AcDbDictionary
280
     1
281
     1
  3
ACAD_ROUNDTRIP_2008_TABLESTYLE_CELLSTYLEMAP
360
224
  0
DICTIONARY
  5
1FB
330
2F
100
AcDbDictionary
280
     1
281
     1
  3
ACAD_XREC_ROUNDTRIP
360
1FC
  0
DICTIONARY
  5
201
330
32
100
AcDbDictionary
280
     1
281
     1
  3
ACAD_XREC_ROUNDTRIP
360
202
  0
DICTIONARY
  5
209
330
36
100
AcDbDictionary
280
     1
281
     1
  3
ACAD_XREC_ROUNDTRIP
360
20A
  0
DICTIONARY
  5
211
330
3A
100
AcDbDictionary
280
     1
281
     1
  3
ACAD_XREC_ROUNDTRIP
360
212
  0
DICTIONARY
  5
205
330
34
100
AcDbDictionary
280
     1
281
     1
  3
ACAD_XREC_ROUNDTRIP
360
206
  0
DICTIONARY
  5
207
330
35
100
AcDbDictionary
280
     1
281
     1
  3
ACAD_XREC_ROUNDTRIP
360
208
  0
DICTIONARY
  5
217
330
3D
100
AcDbDictionary
280
     1
281
     1
  3
ACAD_XREC_ROUNDTRIP
360
218
  0
DICTIONARY
  5
20F
330
39
100
AcDbDictionary
280
     1
281
     1
  3
ACAD_XREC_ROUNDTRIP
360
210
  0
DICTIONARY
  5
1F3
330
2B
100
AcDbDictionary
280
     1
281
     1
  3
ACAD_XREC_ROUNDTRIP
360
1F4
  0
DICTIONARY
  5
1F5
330
2C
100
AcDbDictionary
280
     1
281
     1
  3
ACAD_XREC_ROUNDTRIP
360
1F6
  0
DICTIONARY
  5
1F7
330
2D
100
AcDbDictionary
280
     1
281
     1
  3
ACAD_XREC_ROUNDTRIP
360
1F8
  0
DICTIONARY
  5
1F9
330
2E
100
AcDbDictionary
280
     1
281
     1
  3
ACAD_XREC_ROUNDTRIP
360
1FA
  0
DICTIONARY
  5
1FF
330
31
100
AcDbDictionary
280
     1
281
     1
  3
ACAD_XREC_ROUNDTRIP
360
200
  0
DICTIONARY
  5
213
330
3B
100
AcDbDictionary
280
     1
281
     1
  3
ACAD_XREC_ROUNDTRIP
360
214
  0
DICTIONARY
  5
20D
330
38
100
AcDbDictionary
280
     1
281
     1
  3
ACAD_XREC_ROUNDTRIP
360
20E
  0
DICTIONARY
  5
215
330
3C
100
AcDbDictionary
280
     1
281
     1
  3
ACAD_XREC_ROUNDTRIP
360
216
  0
DICTIONARY
  5
203
330
33
100
AcDbDictionary
280
     1
281
     1
  3
ACAD_XREC_ROUNDTRIP
360
204
  0
DICTIONARY
  5
221
330
42
100
AcDbDictionary
280
     1
281
     1
  3
ACAD_XREC_ROUNDTRIP
360
222
  0
DICTIONARY
  5
21F
330
41
100
AcDbDictionary
280
     1
281
     1
  3
ACAD_XREC_ROUNDTRIP
360
220
  0
DICTIONARY
  5
219
330
3E
100
AcDbDictionary
280
     1
281
     1
  3
ACAD_XREC_ROUNDTRIP
360
21A
  0
DICTIONARY
  5
21B
330
3F
100
AcDbDictionary
280
     1
281
     1
  3
ACAD_XREC_ROUNDTRIP
360
21C
  0
DICTIONARY
  5
20B
330
37
100
AcDbDictionary
280
     1
281
     1
  3
ACAD_XREC_ROUNDTRIP
360
20C
  0
DICTIONARY
  5
1FD
330
30
100
AcDbDictionary
280
     1
281
     1
  3
ACAD_XREC_ROUNDTRIP
360
1FE
  0
DICTIONARY
  5
21D
330
40
100
AcDbDictionary
280
     1
281
     1
  3
ACAD_XREC_ROUNDTRIP
360
21E
  0
XRECORD
  5
227
102
{ACAD_REACTORS
330
226
102
}
330
226
100
AcDbXrecord
280
     1
102
ACAD_ROUNDTRIP_2010_MLEADER_STYLE
  0
CELLSTYLEMAP
  5
224
102
{ACAD_REACTORS
330
223
102
}
330
223
100
AcDbCellStyleMap
 90
        3
300
CELLSTYLE
  1
TABLEFORMAT_BEGIN
 90
        5
170
     1
 91
        0
 92
    32768
 62
   257
 93
        1
300
CONTENTFORMAT
  1
CONTENTFORMAT_BEGIN
 90
        0
 91
        0
 92
        4
 93
        0
300

 40
0.0
140
1.0
 94
        5
 62
     0
340
11
144
6.0
309
CONTENTFORMAT_END
171
     1
301
MARGIN
  1
CELLMARGIN_BEGIN
 40
1.5
 40
1.5
 40
1.5
 40
1.5
 40
1.5
 40
1.5
309
CELLMARGIN_END
 94
        6
 95
        1
302
GRIDFORMAT
  1
GRIDFORMAT_BEGIN
 90
        0
 91
        1
 62
     0
 92
       -2
340
14
 93
        0
 40
0.045
309
GRIDFORMAT_END
 95
        2
302
GRIDFORMAT
  1
GRIDFORMAT_BEGIN
 90
        0
 91
        1
 62
     0
 92
       -2
340
14
 93
        0
 40
0.045
309
GRIDFORMAT_END
 95
        4
302
GRIDFORMAT
  1
GRIDFORMAT_BEGIN
 90
        0
 91
        1
 62
     0
 92
       -2
340
14
 93
        0
 40
0.045
309
GRIDFORMAT_END
 95
        8
302
GRIDFORMAT
  1
GRIDFORMAT_BEGIN
 90
        0
 91
        1
 62
     0
 92
       -2
340
14
 93
        0
 40
0.045
309
GRIDFORMAT_END
 95
       16
302
GRIDFORMAT
  1
GRIDFORMAT_BEGIN
 90
        0
 91
        1
 62
     0
 92
       -2
340
14
 93
        0
 40
0.045
309
GRIDFORMAT_END
 95
       32
302
GRIDFORMAT
  1
GRIDFORMAT_BEGIN
 90
        0
 91
        1
 62
     0
 92
       -2
340
14
 93
        0
 40
0.045
309
GRIDFORMAT_END
309
TABLEFORMAT_END
  1
CELLSTYLE_BEGIN
 90
        1
 91
        1
300
_TITLE
309
CELLSTYLE_END
300
CELLSTYLE
  1
TABLEFORMAT_BEGIN
 90
        5
170
     1
 91
        0
 92
        0
 62
   257
 93
        1
300
CONTENTFORMAT
  1
CONTENTFORMAT_BEGIN
 90
        0
 91
        0
 92
        4
 93
        0
300

 40
0.0
140
1.0
 94
        5
 62
     0
340
11
144
4.5
309
CONTENTFORMAT_END
171
     1
301
MARGIN
  1
CELLMARGIN_BEGIN
 40
1.5
 40
1.5
 40
1.5
 40
1.5
 40
1.5
 40
1.5
309
CELLMARGIN_END
 94
        6
 95
        1
302
GRIDFORMAT
  1
GRIDFORMAT_BEGIN
 90
        0
 91
        1
 62
     0
 92
       -2
340
14
 93
        0
 40
0.045
309
GRIDFORMAT_END
 95
        2
302
GRIDFORMAT
  1
GRIDFORMAT_BEGIN
 90
        0
 91
        1
 62
     0
 92
       -2
340
14
 93
        0
 40
0.045
309
GRIDFORMAT_END
 95
        4
302
GRIDFORMAT
  1
GRIDFORMAT_BEGIN
 90
        0
 91
        1
 62
     0
 92
       -2
340
14
 93
        0
 40
0.045
309
GRIDFORMAT_END
 95
        8
302
GRIDFORMAT
  1
GRIDFORMAT_BEGIN
 90
        0
 91
        1
 62
     0
 92
       -2
340
14
 93
        0
 40
0.045
309
GRIDFORMAT_END
 95
       16
302
GRIDFORMAT
  1
GRIDFORMAT_BEGIN
 90
        0
 91
        1
 62
     0
 92
       -2
340
14
 93
        0
 40
0.045
309
GRIDFORMAT_END
 95
       32
302
GRIDFORMAT
  1
GRIDFORMAT_BEGIN
 90
        0
 91
        1
 62
     0
 92
       -2
340
14
 93
        0
 40
0.045
309
GRIDFORMAT_END
309
TABLEFORMAT_END
  1
CELLSTYLE_BEGIN
 90
        2
 91
        1
300
_HEADER
309
CELLSTYLE_END
300
CELLSTYLE
  1
TABLEFORMAT_BEGIN
 90
        5
170
     1
 91
        0
 92
        0
 62
   257
 93
        1
300
CONTENTFORMAT
  1
CONTENTFORMAT_BEGIN
 90
        0
 91
        0
 92
        4
 93
        0
300

 40
0.0
140
1.0
 94
        2
 62
     0
340
11
144
4.5
309
CONTENTFORMAT_END
171
     1
301
MARGIN
  1
CELLMARGIN_BEGIN
 40
1.5
 40
1.5
 40
1.5
 40
1.5
 40
1.5
 40
1.5
309
CELLMARGIN_END
 94
        6
 95
        1
302
GRIDFORMAT
  1
GRIDFORMAT_BEGIN
 90
        0
 91
        1
 62
     0
 92
       -2
340
14
 93
        0
 40
0.045
309
GRIDFORMAT_END
 95
        2
302
GRIDFORMAT
  1
GRIDFORMAT_BEGIN
 90
        0
 91
        1
 62
     0
 92
       -2
340
14
 93
        0
 40
0.045
309
GRIDFORMAT_END
 95
        4
302
GRIDFORMAT
  1
GRIDFORMAT_BEGIN
 90
        0
 91
        1
 62
     0
 92
       -2
340
14
 93
        0
 40
0.045
309
GRIDFORMAT_END
 95
        8
302
GRIDFORMAT
  1
GRIDFORMAT_BEGIN
 90
        0
 91
        1
 62
     0
 92
       -2
340
14
 93
        0
 40
0.045
309
GRIDFORMAT_END
 95
       16
302
GRIDFORMAT
  1
GRIDFORMAT_BEGIN
 90
        0
 91
        1
 62
     0
 92
       -2
340
14
 93
        0
 40
0.045
309
GRIDFORMAT_END
 95
       32
302
GRIDFORMAT
  1
GRIDFORMAT_BEGIN
 90
        0
 91
        1
 62
     0
 92
       -2
340
14
 93
        0
 40
0.045
309
GRIDFORMAT_END
309
TABLEFORMAT_END
  1
CELLSTYLE_BEGIN
 90
        3
 91
        2
300
_DATA
309
CELLSTYLE_END
  0
XRECORD
  5
1FC
102
{ACAD_REACTORS
330
1FB
102
}
330
1FB
100
AcDbXrecord
280
     1
102
RTVSPropertyOp0
 70
     1
102
RTVSPropertyOp1
 70
     1
102
RTVSPropertyOp2
 70
     1
102
RTVSPropertyOp3
 70
     1
102
RTVSPropertyOp4
 70
     1
102
RTVSPropertyOp5
 70
     1
102
RTVSPropertyOp6
 70
     1
102
RTVSPropertyOp7
 70
     1
102
RTVSPropertyOp8
 70
     1
102
RTVSPropertyOp9
 70
     1
102
RTVSPropertyOp10
 70
     1
102
RTVSPropertyOp11
 70
     1
102
RTVSPropertyOp12
 70
     1
102
RTVSPropertyOp13
 70
     1
102
RTVSPropertyOp14
 70
     1
102
RTVSPropertyOp15
 70
     1
102
RTVSPropertyOp16
 70
     1
102
RTVSPropertyOp17
 70
     1
102
RTVSPropertyOp18
 70
     1
102
RTVSPropertyOp19
 70
     1
102
RTVSPropertyOp20
 70
     1
102
RTVSPropertyOp21
 70
     1
102
RTVSPropertyOp22
 70
     1
102
RTVSPropertyOp23
 70
     1
102
RTVSPropertyOp24
 70
     1
102
RTVSPropertyOp25
 70
     1
102
RTVSPropertyOp26
 70
     1
102
RTVSPropertyOp27
 70
     1
102
RTVSPropertyOp28
 70
     1
102
RTVSPropertyOp29
 70
     1
102
RTVSPropertyOp30
 70
     1
102
RTVSPropertyOp31
 70
     1
102
RTVSPropertyOp32
 70
     1
102
RTVSPropertyOp33
 70
     1
102
RTVSPropertyOp34
 70
     1
102
RTVSPropertyOp35
 70
     1
102
RTVSPropertyOp36
 70
     1
102
RTVSPropertyOp37
 70
     1
102
RTVSPropertyOp38
 70
     1
102
RTVSPropertyOp39
 70
     1
102
RTVSPropertyOp40
 70
     1
102
RTVSPropertyOp41
 70
     1
102
RTVSPropertyOp42
 70
     1
102
RTVSPropertyOp43
 70
     1
102
RTVSPropertyOp44
 70
     1
102
RTVSPropertyOp45
 70
     1
102
RTVSPropertyOp46
 70
     1
102
RTVSPropertyOp47
 70
     1
102
RTVSPropertyOp48
 70
     1
102
RTVSPropertyOp49
 70
     1
102
RTVSPropertyOp50
 70
     1
102
RTVSPropertyOp51
 70
     0
102
RTVSPropertyOp52
 70
     0
102
RTVSPropertyOp53
 70
     1
102
RTVSPropertyOp54
 70
     1
102
RTVSPropertyOp55
 70
     1
102
RTVSPropertyOp56
 70
     1
102
RTVSPropertyOp57
 70
     1
102
RTVSPost2010Prop28
280
     1
102
RTVSPost2010PropOp28
 70
     1
102
RTVSPost2010Prop29
280
     1
102
RTVSPost2010PropOp29
 70
     1
102
RTVSPost2010Prop30
280
     0
102
RTVSPost2010PropOp30
 70
     1
102
RTVSPost2010Prop31
280
     0
102
RTVSPost2010PropOp31
 70
     1
102
RTVSPost2010Prop32
280
     0
102
RTVSPost2010PropOp32
 70
     1
102
RTVSPost2010Prop33
280
     0
102
RTVSPost2010PropOp33
 70
     1
102
RTVSPost2010Prop34
280
     0
102
RTVSPost2010PropOp34
 70
     1
102
RTVSPost2010Prop35
280
     0
102
RTVSPost2010PropOp35
 70
     1
102
RTVSPost2010Prop36
280
     0
102
RTVSPost2010PropOp36
 70
     1
102
RTVSPost2010Prop37
 90
       50
102
RTVSPost2010PropOp37
 70
     1
102
RTVSPost2010Prop38
140
0.0
102
RTVSPost2010PropOp38
 70
     1
102
RTVSPost2010Prop39
140
1.0
102
RTVSPost2010PropOp39
 70
     1
102
RTVSPost2010Prop40
 90
        0
102
RTVSPost2010PropOp40
 70
     1
102
RTVSPost2010Prop41ColorIndex
 90
       18
102
RTVSPost2010Prop41ColorRGB
 90
        0
102
RTVSPost2010PropOp41
 70
     1
102
RTVSPost2010Prop42
 90
       50
102
RTVSPost2010PropOp42
 70
     1
102
RTVSPost2010Prop43
 90
        3
102
RTVSPost2010PropOp43
 70
     1
102
RTVSPost2010Prop44ColorIndex
 90
        5
102
RTVSPost2010Prop44ColorRGB
 90
      255
102
RTVSPost2010PropOp44
 70
     1
102
RTVSPost2010Prop45
280
     0
102
RTVSPost2010PropOp45
 70
     1
102
RTVSPost2010Prop46
 90
       50
102
RTVSPost2010PropOp46
 70
     1
102
RTVSPost2010Prop47
 90
       50
102
RTVSPost2010PropOp47
 70
     1
102
RTVSPost2010Prop48
 90
       50
102
RTVSPost2010PropOp48
 70
     1
102
RTVSPost2010Prop49
280
     0
102
RTVSPost2010PropOp49
 70
     1
102
RTVSPost2010Prop50
 90
       50
102
RTVSPost2010PropOp50
 70
     1
102
RTVSPost2010Prop51ColorIndex
 90
      256
102
RTVSPost2010Prop51ColorRGB
 90
-16777216
102
RTVSPost2010PropOp51
 70
     0
102
RTVSPost2010Prop52
140
1.0
102
RTVSPost2010PropOp52
 70
     0
102
RTVSPost2010Prop53
 90
        2
102
RTVSPost2010PropOp53
 70
     1
102
RTVSPost2010Prop54
  1
strokes_ogs.tif
102
RTVSPost2010PropOp54
 70
     1
102
RTVSPost2010Prop55
280
     0
102
RTVSPost2010PropOp55
 70
     1
102
RTVSPost2010Prop56
140
1.0
102
RTVSPost2010PropOp56
 70
     1
102
RTVSPost2010Prop57
140
1.0
102
RTVSPost2010PropOp57
 70
     1
  0
XRECORD
  5
202
102
{ACAD_REACTORS
330
201
102
}
330
201
100
AcDbXrecord
280
     1
102
RTVSPropertyOp0
 70
     1
102
RTVSPropertyOp1
 70
     1
102
RTVSPropertyOp2
 70
     1
102
RTVSPropertyOp3
 70
     1
102
RTVSPropertyOp4
 70
     1
102
RTVSPropertyOp5
 70
     1
102
RTVSPropertyOp6
 70
     1
102
RTVSPropertyOp7
 70
     1
102
RTVSPropertyOp8
 70
     1
102
RTVSPropertyOp9
 70
     1
102
RTVSPropertyOp10
 70
     1
102
RTVSPropertyOp11
 70
     1
102
RTVSPropertyOp12
 70
     1
102
RTVSPropertyOp13
 70
     1
102
RTVSPropertyOp14
 70
     1
102
RTVSPropertyOp15
 70
     1
102
RTVSPropertyOp16
 70
     1
102
RTVSPropertyOp17
 70
     1
102
RTVSPropertyOp18
 70
     1
102
RTVSPropertyOp19
 70
     1
102
RTVSPropertyOp20
 70
     1
102
RTVSPropertyOp21
 70
     1
102
RTVSPropertyOp22
 70
     1
102
RTVSPropertyOp23
 70
     1
102
RTVSPropertyOp24
 70
     1
102
RTVSPropertyOp25
 70
     1
102
RTVSPropertyOp26
 70
     1
102
RTVSPropertyOp27
 70
     1
102
RTVSPropertyOp28
 70
     1
102
RTVSPropertyOp29
 70
     1
102
RTVSPropertyOp30
 70
     1
102
RTVSPropertyOp31
 70
     1
102
RTVSPropertyOp32
 70
     1
102
RTVSPropertyOp33
 70
     1
102
RTVSPropertyOp34
 70
     1
102
RTVSPropertyOp35
 70
     1
102
RTVSPropertyOp36
 70
     1
102
RTVSPropertyOp37
 70
     1
102
RTVSPropertyOp38
 70
     1
102
RTVSPropertyOp39
 70
     1
102
RTVSPropertyOp40
 70
     1
102
RTVSPropertyOp41
 70
     1
102
RTVSPropertyOp42
 70
     1
102
RTVSPropertyOp43
 70
     1
102
RTVSPropertyOp44
 70
     1
102
RTVSPropertyOp45
 70
     1
102
RTVSPropertyOp46
 70
     1
102
RTVSPropertyOp47
 70
     1
102
RTVSPropertyOp48
 70
     1
102
RTVSPropertyOp49
 70
     1
102
RTVSPropertyOp50
 70
     1
102
RTVSPropertyOp51
 70
     0
102
RTVSPropertyOp52
 70
     0
102
RTVSPropertyOp53
 70
     1
102
RTVSPropertyOp54
 70
     1
102
RTVSPropertyOp55
 70
     1
102
RTVSPropertyOp56
 70
     1
102
RTVSPropertyOp57
 70
     1
102
RTVSPost2010Prop28
280
     0
102
RTVSPost2010PropOp28
 70
     1
102
RTVSPost2010Prop29
280
     1
102
RTVSPost2010PropOp29
 70
     1
102
RTVSPost2010Prop30
280
     1
102
RTVSPost2010PropOp30
 70
     1
102
RTVSPost2010Prop31
280
     0
102
RTVSPost2010PropOp31
 70
     1
102
RTVSPost2010Prop32
280
     0
102
RTVSPost2010PropOp32
 70
     1
102
RTVSPost2010Prop33
280
     0
102
RTVSPost2010PropOp33
 70
     1
102
RTVSPost2010Prop34
280
     0
102
RTVSPost2010PropOp34
 70
     1
102
RTVSPost2010Prop35
280
     0
102
RTVSPost2010PropOp35
 70
     1
102
RTVSPost2010Prop36
280
     0
102
RTVSPost2010PropOp36
 70
     1
102
RTVSPost2010Prop37
 90
       50
102
RTVSPost2010PropOp37
 70
     1
102
RTVSPost2010Prop38
140
0.0
102
RTVSPost2010PropOp38
 70
     1
102
RTVSPost2010Prop39
140
1.0
102
RTVSPost2010PropOp39
 70
     1
102
RTVSPost2010Prop40
 90
        0
102
RTVSPost2010PropOp40
 70
     1
102
RTVSPost2010Prop41ColorIndex
 90
       18
102
RTVSPost2010Prop41ColorRGB
 90
        0
102
RTVSPost2010PropOp41
 70
     1
102
RTVSPost2010Prop42
 90
       50
102
RTVSPost2010PropOp42
 70
     1
102
RTVSPost2010Prop43
 90
        3
102
RTVSPost2010PropOp43
 70
     1
102
RTVSPost2010Prop44ColorIndex
 90
        5
102
RTVSPost2010Prop44ColorRGB
 90
      255
102
RTVSPost2010PropOp44
 70
     1
102
RTVSPost2010Prop45
280
     0
102
RTVSPost2010PropOp45
 70
     1
102
RTVSPost2010Prop46
 90
       50
102
RTVSPost2010PropOp46
 70
     1
102
RTVSPost2010Prop47
 90
       50
102
RTVSPost2010PropOp47
 70
     1
102
RTVSPost2010Prop48
 90
       50
102
RTVSPost2010PropOp48
 70
     1
102
RTVSPost2010Prop49
280
     0
102
RTVSPost2010PropOp49
 70
     1
102
RTVSPost2010Prop50
 90
       50
102
RTVSPost2010PropOp50
 70
     1
102
RTVSPost2010Prop51ColorIndex
 90
      256
102
RTVSPost2010Prop51ColorRGB
 90
-16777216
102
RTVSPost2010PropOp51
 70
     0
102
RTVSPost2010Prop52
140
1.0
102
RTVSPost2010PropOp52
 70
     0
102
RTVSPost2010Prop53
 90
        2
102
RTVSPost2010PropOp53
 70
     1
102
RTVSPost2010Prop54
  1
strokes_ogs.tif
102
RTVSPost2010PropOp54
 70
     1
102
RTVSPost2010Prop55
280
     0
102
RTVSPost2010PropOp55
 70
     1
102
RTVSPost2010Prop56
140
1.0
102
RTVSPost2010PropOp56
 70
     1
102
RTVSPost2010Prop57
140
1.0
102
RTVSPost2010PropOp57
 70
     1
  0
XRECORD
  5
20A
102
{ACAD_REACTORS
330
209
102
}
330
209
100
AcDbXrecord
280
     1
102
RTVSPropertyOp0
 70
     1
102
RTVSPropertyOp1
 70
     1
102
RTVSPropertyOp2
 70
     1
102
RTVSPropertyOp3
 70
     1
102
RTVSPropertyOp4
 70
     1
102
RTVSPropertyOp5
 70
     1
102
RTVSPropertyOp6
 70
     1
102
RTVSPropertyOp7
 70
     1
102
RTVSPropertyOp8
 70
     1
102
RTVSPropertyOp9
 70
     1
102
RTVSPropertyOp10
 70
     1
102
RTVSPropertyOp11
 70
     1
102
RTVSPropertyOp12
 70
     1
102
RTVSPropertyOp13
 70
     1
102
RTVSPropertyOp14
 70
     1
102
RTVSPropertyOp15
 70
     1
102
RTVSPropertyOp16
 70
     1
102
RTVSPropertyOp17
 70
     1
102
RTVSPropertyOp18
 70
     1
102
RTVSPropertyOp19
 70
     1
102
RTVSPropertyOp20
 70
     1
102
RTVSPropertyOp21
 70
     1
102
RTVSPropertyOp22
 70
     1
102
RTVSPropertyOp23
 70
     1
102
RTVSPropertyOp24
 70
     1
102
RTVSPropertyOp25
 70
     1
102
RTVSPropertyOp26
 70
     1
102
RTVSPropertyOp27
 70
     1
102
RTVSPropertyOp28
 70
     1
102
RTVSPropertyOp29
 70
     1
102
RTVSPropertyOp30
 70
     1
102
RTVSPropertyOp31
 70
     1
102
RTVSPropertyOp32
 70
     1
102
RTVSPropertyOp33
 70
     1
102
RTVSPropertyOp34
 70
     1
102
RTVSPropertyOp35
 70
     1
102
RTVSPropertyOp36
 70
     1
102
RTVSPropertyOp37
 70
     1
102
RTVSPropertyOp38
 70
     1
102
RTVSPropertyOp39
 70
     1
102
RTVSPropertyOp40
 70
     1
102
RTVSPropertyOp41
 70
     1
102
RTVSPropertyOp42
 70
     1
102
RTVSPropertyOp43
 70
     1
102
RTVSPropertyOp44
 70
     1
102
RTVSPropertyOp45
 70
     1
102
RTVSPropertyOp46
 70
     1
102
RTVSPropertyOp47
 70
     1
102
RTVSPropertyOp48
 70
     1
102
RTVSPropertyOp49
 70
     1
102
RTVSPropertyOp50
 70
     1
102
RTVSPropertyOp51
 70
     0
102
RTVSPropertyOp52
 70
     0
102
RTVSPropertyOp53
 70
     1
102
RTVSPropertyOp54
 70
     1
102
RTVSPropertyOp55
 70
     1
102
RTVSPropertyOp56
 70
     1
102
RTVSPropertyOp57
 70
     1
102
RTVSPost2010Prop28
280
     0
102
RTVSPost2010PropOp28
 70
     1
102
RTVSPost2010Prop29
280
     1
102
RTVSPost2010PropOp29
 70
     1
102
RTVSPost2010Prop30
280
     1
102
RTVSPost2010PropOp30
 70
     1
102
RTVSPost2010Prop31
280
     0
102
RTVSPost2010PropOp31
 70
     1
102
RTVSPost2010Prop32
280
     0
102
RTVSPost2010PropOp32
 70
     1
102
RTVSPost2010Prop33
280
     0
102
RTVSPost2010PropOp33
 70
     1
102
RTVSPost2010Prop34
280
     0
102
RTVSPost2010PropOp34
 70
     1
102
RTVSPost2010Prop35
280
     0
102
RTVSPost2010PropOp35
 70
     1
102
RTVSPost2010Prop36
280
     0
102
RTVSPost2010PropOp36
 70
     1
102
RTVSPost2010Prop37
 90
       50
102
RTVSPost2010PropOp37
 70
     1
102
RTVSPost2010Prop38
140
0.0
102
RTVSPost2010PropOp38
 70
     1
102
RTVSPost2010Prop39
140
1.0
102
RTVSPost2010PropOp39
 70
     1
102
RTVSPost2010Prop40
 90
        0
102
RTVSPost2010PropOp40
 70
     1
102
RTVSPost2010Prop41ColorIndex
 90
       18
102
RTVSPost2010Prop41ColorRGB
 90
        0
102
RTVSPost2010PropOp41
 70
     1
102
RTVSPost2010Prop42
 90
       50
102
RTVSPost2010PropOp42
 70
     1
102
RTVSPost2010Prop43
 90
        3
102
RTVSPost2010PropOp43
 70
     1
102
RTVSPost2010Prop44ColorIndex
 90
        5
102
RTVSPost2010Prop44ColorRGB
 90
      255
102
RTVSPost2010PropOp44
 70
     1
102
RTVSPost2010Prop45
280
     0
102
RTVSPost2010PropOp45
 70
     1
102
RTVSPost2010Prop46
 90
       50
102
RTVSPost2010PropOp46
 70
     1
102
RTVSPost2010Prop47
 90
       50
102
RTVSPost2010PropOp47
 70
     1
102
RTVSPost2010Prop48
 90
       50
102
RTVSPost2010PropOp48
 70
     1
102
RTVSPost2010Prop49
280
     0
102
RTVSPost2010PropOp49
 70
     1
102
RTVSPost2010Prop50
 90
       50
102
RTVSPost2010PropOp50
 70
     1
102
RTVSPost2010Prop51ColorIndex
 90
      256
102
RTVSPost2010Prop51ColorRGB
 90
-16777216
102
RTVSPost2010PropOp51
 70
     0
102
RTVSPost2010Prop52
140
1.0
102
RTVSPost2010PropOp52
 70
     0
102
RTVSPost2010Prop53
 90
        2
102
RTVSPost2010PropOp53
 70
     1
102
RTVSPost2010Prop54
  1
strokes_ogs.tif
102
RTVSPost2010PropOp54
 70
     1
102
RTVSPost2010Prop55
280
     0
102
RTVSPost2010PropOp55
 70
     1
102
RTVSPost2010Prop56
140
1.0
102
RTVSPost2010PropOp56
 70
     1
102
RTVSPost2010Prop57
140
1.0
102
RTVSPost2010PropOp57
 70
     1
  0
XRECORD
  5
212
102
{ACAD_REACTORS
330
211
102
}
330
211
100
AcDbXrecord
280
     1
102
RTVSPropertyOp0
 70
     1
102
RTVSPropertyOp1
 70
     1
102
RTVSPropertyOp2
 70
     1
102
RTVSPropertyOp3
 70
     1
102
RTVSPropertyOp4
 70
     1
102
RTVSPropertyOp5
 70
     1
102
RTVSPropertyOp6
 70
     1
102
RTVSPropertyOp7
 70
     1
102
RTVSPropertyOp8
 70
     1
102
RTVSPropertyOp9
 70
     1
102
RTVSPropertyOp10
 70
     1
102
RTVSPropertyOp11
 70
     1
102
RTVSPropertyOp12
 70
     1
102
RTVSPropertyOp13
 70
     1
102
RTVSPropertyOp14
 70
     1
102
RTVSPropertyOp15
 70
     1
102
RTVSPropertyOp16
 70
     1
102
RTVSPropertyOp17
 70
     1
102
RTVSPropertyOp18
 70
     1
102
RTVSPropertyOp19
 70
     1
102
RTVSPropertyOp20
 70
     1
102
RTVSPropertyOp21
 70
     1
102
RTVSPropertyOp22
 70
     1
102
RTVSPropertyOp23
 70
     1
102
RTVSPropertyOp24
 70
     1
102
RTVSPropertyOp25
 70
     1
102
RTVSPropertyOp26
 70
     1
102
RTVSPropertyOp27
 70
     1
102
RTVSPropertyOp28
 70
     1
102
RTVSPropertyOp29
 70
     1
102
RTVSPropertyOp30
 70
     1
102
RTVSPropertyOp31
 70
     1
102
RTVSPropertyOp32
 70
     1
102
RTVSPropertyOp33
 70
     1
102
RTVSPropertyOp34
 70
     1
102
RTVSPropertyOp35
 70
     1
102
RTVSPropertyOp36
 70
     1
102
RTVSPropertyOp37
 70
     1
102
RTVSPropertyOp38
 70
     1
102
RTVSPropertyOp39
 70
     1
102
RTVSPropertyOp40
 70
     1
102
RTVSPropertyOp41
 70
     1
102
RTVSPropertyOp42
 70
     1
102
RTVSPropertyOp43
 70
     1
102
RTVSPropertyOp44
 70
     1
102
RTVSPropertyOp45
 70
     1
102
RTVSPropertyOp46
 70
     1
102
RTVSPropertyOp47
 70
     1
102
RTVSPropertyOp48
 70
     1
102
RTVSPropertyOp49
 70
     1
102
RTVSPropertyOp50
 70
     1
102
RTVSPropertyOp51
 70
     0
102
RTVSPropertyOp52
 70
     0
102
RTVSPropertyOp53
 70
     1
102
RTVSPropertyOp54
 70
     1
102
RTVSPropertyOp55
 70
     1
102
RTVSPropertyOp56
 70
     1
102
RTVSPropertyOp57
 70
     1
102
RTVSPost2010Prop28
280
     0
102
RTVSPost2010PropOp28
 70
     1
102
RTVSPost2010Prop29
280
     1
102
RTVSPost2010PropOp29
 70
     1
102
RTVSPost2010Prop30
280
     1
102
RTVSPost2010PropOp30
 70
     1
102
RTVSPost2010Prop31
280
     0
102
RTVSPost2010PropOp31
 70
     1
102
RTVSPost2010Prop32
280
     0
102
RTVSPost2010PropOp32
 70
     1
102
RTVSPost2010Prop33
280
     0
102
RTVSPost2010PropOp33
 70
     1
102
RTVSPost2010Prop34
280
     0
102
RTVSPost2010PropOp34
 70
     1
102
RTVSPost2010Prop35
280
     0
102
RTVSPost2010PropOp35
 70
     1
102
RTVSPost2010Prop36
280
     0
102
RTVSPost2010PropOp36
 70
     1
102
RTVSPost2010Prop37
 90
       50
102
RTVSPost2010PropOp37
 70
     1
102
RTVSPost2010Prop38
140
0.0
102
RTVSPost2010PropOp38
 70
     1
102
RTVSPost2010Prop39
140
1.0
102
RTVSPost2010PropOp39
 70
     1
102
RTVSPost2010Prop40
 90
        0
102
RTVSPost2010PropOp40
 70
     1
102
RTVSPost2010Prop41ColorIndex
 90
       18
102
RTVSPost2010Prop41ColorRGB
 90
        0
102
RTVSPost2010PropOp41
 70
     1
102
RTVSPost2010Prop42
 90
       50
102
RTVSPost2010PropOp42
 70
     1
102
RTVSPost2010Prop43
 90
        3
102
RTVSPost2010PropOp43
 70
     1
102
RTVSPost2010Prop44ColorIndex
 90
        5
102
RTVSPost2010Prop44ColorRGB
 90
      255
102
RTVSPost2010PropOp44
 70
     1
102
RTVSPost2010Prop45
280
     0
102
RTVSPost2010PropOp45
 70
     1
102
RTVSPost2010Prop46
 90
       50
102
RTVSPost2010PropOp46
 70
     1
102
RTVSPost2010Prop47
 90
       50
102
RTVSPost2010PropOp47
 70
     1
102
RTVSPost2010Prop48
 90
       50
102
RTVSPost2010PropOp48
 70
     1
102
RTVSPost2010Prop49
280
     0
102
RTVSPost2010PropOp49
 70
     1
102
RTVSPost2010Prop50
 90
       50
102
RTVSPost2010PropOp50
 70
     1
102
RTVSPost2010Prop51ColorIndex
 90
      256
102
RTVSPost2010Prop51ColorRGB
 90
-16777216
102
RTVSPost2010PropOp51
 70
     0
102
RTVSPost2010Prop52
140
1.0
102
RTVSPost2010PropOp52
 70
     0
102
RTVSPost2010Prop53
 90
        2
102
RTVSPost2010PropOp53
 70
     1
102
RTVSPost2010Prop54
  1
strokes_ogs.tif
102
RTVSPost2010PropOp54
 70
     1
102
RTVSPost2010Prop55
280
     0
102
RTVSPost2010PropOp55
 70
     1
102
RTVSPost2010Prop56
140
1.0
102
RTVSPost2010PropOp56
 70
     1
102
RTVSPost2010Prop57
140
1.0
102
RTVSPost2010PropOp57
 70
     1
  0
XRECORD
  5
206
102
{ACAD_REACTORS
330
205
102
}
330
205
100
AcDbXrecord
280
     1
102
RTVSPropertyOp0
 70
     1
102
RTVSPropertyOp1
 70
     1
102
RTVSPropertyOp2
 70
     1
102
RTVSPropertyOp3
 70
     1
102
RTVSPropertyOp4
 70
     1
102
RTVSPropertyOp5
 70
     1
102
RTVSPropertyOp6
 70
     1
102
RTVSPropertyOp7
 70
     1
102
RTVSPropertyOp8
 70
     1
102
RTVSPropertyOp9
 70
     1
102
RTVSPropertyOp10
 70
     1
102
RTVSPropertyOp11
 70
     1
102
RTVSPropertyOp12
 70
     1
102
RTVSPropertyOp13
 70
     1
102
RTVSPropertyOp14
 70
     1
102
RTVSPropertyOp15
 70
     1
102
RTVSPropertyOp16
 70
     1
102
RTVSPropertyOp17
 70
     1
102
RTVSPropertyOp18
 70
     1
102
RTVSPropertyOp19
 70
     1
102
RTVSPropertyOp20
 70
     1
102
RTVSPropertyOp21
 70
     1
102
RTVSPropertyOp22
 70
     1
102
RTVSPropertyOp23
 70
     1
102
RTVSPropertyOp24
 70
     1
102
RTVSPropertyOp25
 70
     1
102
RTVSPropertyOp26
 70
     1
102
RTVSPropertyOp27
 70
     1
102
RTVSPropertyOp28
 70
     1
102
RTVSPropertyOp29
 70
     1
102
RTVSPropertyOp30
 70
     1
102
RTVSPropertyOp31
 70
     1
102
RTVSPropertyOp32
 70
     1
102
RTVSPropertyOp33
 70
     1
102
RTVSPropertyOp34
 70
     1
102
RTVSPropertyOp35
 70
     1
102
RTVSPropertyOp36
 70
     1
102
RTVSPropertyOp37
 70
     1
102
RTVSPropertyOp38
 70
     1
102
RTVSPropertyOp39
 70
     1
102
RTVSPropertyOp40
 70
     1
102
RTVSPropertyOp41
 70
     1
102
RTVSPropertyOp42
 70
     1
102
RTVSPropertyOp43
 70
     1
102
RTVSPropertyOp44
 70
     1
102
RTVSPropertyOp45
 70
     1
102
RTVSPropertyOp46
 70
     1
102
RTVSPropertyOp47
 70
     1
102
RTVSPropertyOp48
 70
     1
102
RTVSPropertyOp49
 70
     1
102
RTVSPropertyOp50
 70
     1
102
RTVSPropertyOp51
 70
     0
102
RTVSPropertyOp52
 70
     0
102
RTVSPropertyOp53
 70
     1
102
RTVSPropertyOp54
 70
     1
102
RTVSPropertyOp55
 70
     1
102
RTVSPropertyOp56
 70
     1
102
RTVSPropertyOp57
 70
     1
102
RTVSPost2010Prop28
280
     0
102
RTVSPost2010PropOp28
 70
     1
102
RTVSPost2010Prop29
280
     1
102
RTVSPost2010PropOp29
 70
     1
102
RTVSPost2010Prop30
280
     1
102
RTVSPost2010PropOp30
 70
     1
102
RTVSPost2010Prop31
280
     0
102
RTVSPost2010PropOp31
 70
     1
102
RTVSPost2010Prop32
280
     0
102
RTVSPost2010PropOp32
 70
     1
102
RTVSPost2010Prop33
280
     0
102
RTVSPost2010PropOp33
 70
     1
102
RTVSPost2010Prop34
280
     0
102
RTVSPost2010PropOp34
 70
     1
102
RTVSPost2010Prop35
280
     0
102
RTVSPost2010PropOp35
 70
     1
102
RTVSPost2010Prop36
280
     0
102
RTVSPost2010PropOp36
 70
     1
102
RTVSPost2010Prop37
 90
       50
102
RTVSPost2010PropOp37
 70
     1
102
RTVSPost2010Prop38
140
0.0
102
RTVSPost2010PropOp38
 70
     1
102
RTVSPost2010Prop39
140
1.0
102
RTVSPost2010PropOp39
 70
     1
102
RTVSPost2010Prop40
 90
        0
102
RTVSPost2010PropOp40
 70
     1
102
RTVSPost2010Prop41ColorIndex
 90
       18
102
RTVSPost2010Prop41ColorRGB
 90
        0
102
RTVSPost2010PropOp41
 70
     1
102
RTVSPost2010Prop42
 90
       50
102
RTVSPost2010PropOp42
 70
     1
102
RTVSPost2010Prop43
 90
        3
102
RTVSPost2010PropOp43
 70
     1
102
RTVSPost2010Prop44ColorIndex
 90
        5
102
RTVSPost2010Prop44ColorRGB
 90
      255
102
RTVSPost2010PropOp44
 70
     1
102
RTVSPost2010Prop45
280
     0
102
RTVSPost2010PropOp45
 70
     1
102
RTVSPost2010Prop46
 90
       50
102
RTVSPost2010PropOp46
 70
     1
102
RTVSPost2010Prop47
 90
       50
102
RTVSPost2010PropOp47
 70
     1
102
RTVSPost2010Prop48
 90
       50
102
RTVSPost2010PropOp48
 70
     1
102
RTVSPost2010Prop49
280
     0
102
RTVSPost2010PropOp49
 70
     1
102
RTVSPost2010Prop50
 90
       50
102
RTVSPost2010PropOp50
 70
     1
102
RTVSPost2010Prop51ColorIndex
 90
      256
102
RTVSPost2010Prop51ColorRGB
 90
-16777216
102
RTVSPost2010PropOp51
 70
     0
102
RTVSPost2010Prop52
140
1.0
102
RTVSPost2010PropOp52
 70
     0
102
RTVSPost2010Prop53
 90
        2
102
RTVSPost2010PropOp53
 70
     1
102
RTVSPost2010Prop54
  1
strokes_ogs.tif
102
RTVSPost2010PropOp54
 70
     1
102
RTVSPost2010Prop55
280
     0
102
RTVSPost2010PropOp55
 70
     1
102
RTVSPost2010Prop56
140
1.0
102
RTVSPost2010PropOp56
 70
     1
102
RTVSPost2010Prop57
140
1.0
102
RTVSPost2010PropOp57
 70
     1
  0
XRECORD
  5
208
102
{ACAD_REACTORS
330
207
102
}
330
207
100
AcDbXrecord
280
     1
102
RTVSPropertyOp0
 70
     1
102
RTVSPropertyOp1
 70
     1
102
RTVSPropertyOp2
 70
     1
102
RTVSPropertyOp3
 70
     1
102
RTVSPropertyOp4
 70
     1
102
RTVSPropertyOp5
 70
     1
102
RTVSPropertyOp6
 70
     1
102
RTVSPropertyOp7
 70
     1
102
RTVSPropertyOp8
 70
     1
102
RTVSPropertyOp9
 70
     1
102
RTVSPropertyOp10
 70
     1
102
RTVSPropertyOp11
 70
     1
102
RTVSPropertyOp12
 70
     1
102
RTVSPropertyOp13
 70
     1
102
RTVSPropertyOp14
 70
     1
102
RTVSPropertyOp15
 70
     1
102
RTVSPropertyOp16
 70
     1
102
RTVSPropertyOp17
 70
     1
102
RTVSPropertyOp18
 70
     1
102
RTVSPropertyOp19
 70
     1
102
RTVSPropertyOp20
 70
     1
102
RTVSPropertyOp21
 70
     1
102
RTVSPropertyOp22
 70
     1
102
RTVSPropertyOp23
 70
     1
102
RTVSPropertyOp24
 70
     1
102
RTVSPropertyOp25
 70
     1
102
RTVSPropertyOp26
 70
     1
102
RTVSPropertyOp27
 70
     1
102
RTVSPropertyOp28
 70
     1
102
RTVSPropertyOp29
 70
     1
102
RTVSPropertyOp30
 70
     1
102
RTVSPropertyOp31
 70
     1
102
RTVSPropertyOp32
 70
     1
102
RTVSPropertyOp33
 70
     1
102
RTVSPropertyOp34
 70
     1
102
RTVSPropertyOp35
 70
     1
102
RTVSPropertyOp36
 70
     1
102
RTVSPropertyOp37
 70
     1
102
RTVSPropertyOp38
 70
     1
102
RTVSPropertyOp39
 70
     1
102
RTVSPropertyOp40
 70
     1
102
RTVSPropertyOp41
 70
     1
102
RTVSPropertyOp42
 70
     1
102
RTVSPropertyOp43
 70
     1
102
RTVSPropertyOp44
 70
     1
102
RTVSPropertyOp45
 70
     1
102
RTVSPropertyOp46
 70
     1
102
RTVSPropertyOp47
 70
     1
102
RTVSPropertyOp48
 70
     1
102
RTVSPropertyOp49
 70
     1
102
RTVSPropertyOp50
 70
     1
102
RTVSPropertyOp51
 70
     0
102
RTVSPropertyOp52
 70
     0
102
RTVSPropertyOp53
 70
     1
102
RTVSPropertyOp54
 70
     1
102
RTVSPropertyOp55
 70
     1
102
RTVSPropertyOp56
 70
     1
102
RTVSPropertyOp57
 70
     1
102
RTVSPost2010Prop28
280
     0
102
RTVSPost2010PropOp28
 70
     1
102
RTVSPost2010Prop29
280
     1
102
RTVSPost2010PropOp29
 70
     1
102
RTVSPost2010Prop30
280
     1
102
RTVSPost2010PropOp30
 70
     1
102
RTVSPost2010Prop31
280
     0
102
RTVSPost2010PropOp31
 70
     1
102
RTVSPost2010Prop32
280
     0
102
RTVSPost2010PropOp32
 70
     1
102
RTVSPost2010Prop33
280
     0
102
RTVSPost2010PropOp33
 70
     1
102
RTVSPost2010Prop34
280
     0
102
RTVSPost2010PropOp34
 70
     1
102
RTVSPost2010Prop35
280
     0
102
RTVSPost2010PropOp35
 70
     1
102
RTVSPost2010Prop36
280
     0
102
RTVSPost2010PropOp36
 70
     1
102
RTVSPost2010Prop37
 90
       50
102
RTVSPost2010PropOp37
 70
     1
102
RTVSPost2010Prop38
140
0.0
102
RTVSPost2010PropOp38
 70
     1
102
RTVSPost2010Prop39
140
1.0
102
RTVSPost2010PropOp39
 70
     1
102
RTVSPost2010Prop40
 90
        0
102
RTVSPost2010PropOp40
 70
     1
102
RTVSPost2010Prop41ColorIndex
 90
       18
102
RTVSPost2010Prop41ColorRGB
 90
        0
102
RTVSPost2010PropOp41
 70
     1
102
RTVSPost2010Prop42
 90
       50
102
RTVSPost2010PropOp42
 70
     1
102
RTVSPost2010Prop43
 90
        3
102
RTVSPost2010PropOp43
 70
     1
102
RTVSPost2010Prop44ColorIndex
 90
        5
102
RTVSPost2010Prop44ColorRGB
 90
      255
102
RTVSPost2010PropOp44
 70
     1
102
RTVSPost2010Prop45
280
     0
102
RTVSPost2010PropOp45
 70
     1
102
RTVSPost2010Prop46
 90
       50
102
RTVSPost2010PropOp46
 70
     1
102
RTVSPost2010Prop47
 90
       50
102
RTVSPost2010PropOp47
 70
     1
102
RTVSPost2010Prop48
 90
       50
102
RTVSPost2010PropOp48
 70
     1
102
RTVSPost2010Prop49
280
     0
102
RTVSPost2010PropOp49
 70
     1
102
RTVSPost2010Prop50
 90
       50
102
RTVSPost2010PropOp50
 70
     1
102
RTVSPost2010Prop51ColorIndex
 90
      256
102
RTVSPost2010Prop51ColorRGB
 90
-16777216
102
RTVSPost2010PropOp51
 70
     0
102
RTVSPost2010Prop52
140
1.0
102
RTVSPost2010PropOp52
 70
     0
102
RTVSPost2010Prop53
 90
        2
102
RTVSPost2010PropOp53
 70
     1
102
RTVSPost2010Prop54
  1
strokes_ogs.tif
102
RTVSPost2010PropOp54
 70
     1
102
RTVSPost2010Prop55
280
     0
102
RTVSPost2010PropOp55
 70
     1
102
RTVSPost2010Prop56
140
1.0
102
RTVSPost2010PropOp56
 70
     1
102
RTVSPost2010Prop57
140
1.0
102
RTVSPost2010PropOp57
 70
     1
  0
XRECORD
  5
218
102
{ACAD_REACTORS
330
217
102
}
330
217
100
AcDbXrecord
280
     1
102
RTVSPropertyOp0
 70
     0
102
RTVSPropertyOp1
 70
     0
102
RTVSPropertyOp2
 70
     0
102
RTVSPropertyOp3
 70
     0
102
RTVSPropertyOp4
 70
     0
102
RTVSPropertyOp5
 70
     0
102
RTVSPropertyOp6
 70
     0
102
RTVSPropertyOp7
 70
     0
102
RTVSPropertyOp8
 70
     0
102
RTVSPropertyOp9
 70
     0
102
RTVSPropertyOp10
 70
     0
102
RTVSPropertyOp11
 70
     0
102
RTVSPropertyOp12
 70
     0
102
RTVSPropertyOp13
 70
     0
102
RTVSPropertyOp14
 70
     2
102
RTVSPropertyOp15
 70
     0
102
RTVSPropertyOp16
 70
     0
102
RTVSPropertyOp17
 70
     0
102
RTVSPropertyOp18
 70
     0
102
RTVSPropertyOp19
 70
     0
102
RTVSPropertyOp20
 70
     0
102
RTVSPropertyOp21
 70
     0
102
RTVSPropertyOp22
 70
     0
102
RTVSPropertyOp23
 70
     0
102
RTVSPropertyOp24
 70
     0
102
RTVSPropertyOp25
 70
     0
102
RTVSPropertyOp26
 70
     0
102
RTVSPropertyOp27
 70
     0
102
RTVSPropertyOp28
 70
     0
102
RTVSPropertyOp29
 70
     0
102
RTVSPropertyOp30
 70
     0
102
RTVSPropertyOp31
 70
     0
102
RTVSPropertyOp32
 70
     0
102
RTVSPropertyOp33
 70
     0
102
RTVSPropertyOp34
 70
     0
102
RTVSPropertyOp35
 70
     0
102
RTVSPropertyOp36
 70
     0
102
RTVSPropertyOp37
 70
     0
102
RTVSPropertyOp38
 70
     0
102
RTVSPropertyOp39
 70
     0
102
RTVSPropertyOp40
 70
     0
102
RTVSPropertyOp41
 70
     0
102
RTVSPropertyOp42
 70
     0
102
RTVSPropertyOp43
 70
     0
102
RTVSPropertyOp44
 70
     0
102
RTVSPropertyOp45
 70
     0
102
RTVSPropertyOp46
 70
     0
102
RTVSPropertyOp47
 70
     0
102
RTVSPropertyOp48
 70
     0
102
RTVSPropertyOp49
 70
     0
102
RTVSPropertyOp50
 70
     0
102
RTVSPropertyOp51
 70
     0
102
RTVSPropertyOp52
 70
     0
102
RTVSPropertyOp53
 70
     0
102
RTVSPropertyOp54
 70
     0
102
RTVSPropertyOp55
 70
     0
102
RTVSPropertyOp56
 70
     0
102
RTVSPropertyOp57
 70
     0
102
RTVSPost2010Prop28
280
     0
102
RTVSPost2010PropOp28
 70
     0
102
RTVSPost2010Prop29
280
     1
102
RTVSPost2010PropOp29
 70
     0
102
RTVSPost2010Prop30
280
     1
102
RTVSPost2010PropOp30
 70
     0
102
RTVSPost2010Prop31
280
     0
102
RTVSPost2010PropOp31
 70
     0
102
RTVSPost2010Prop32
280
     0
102
RTVSPost2010PropOp32
 70
     0
102
RTVSPost2010Prop33
280
     0
102
RTVSPost2010PropOp33
 70
     0
102
RTVSPost2010Prop34
280
     0
102
RTVSPost2010PropOp34
 70
     0
102
RTVSPost2010Prop35
280
     0
102
RTVSPost2010PropOp35
 70
     0
102
RTVSPost2010Prop36
280
     0
102
RTVSPost2010PropOp36
 70
     0
102
RTVSPost2010Prop37
 90
       50
102
RTVSPost2010PropOp37
 70
     0
102
RTVSPost2010Prop38
140
0.0
102
RTVSPost2010PropOp38
 70
     0
102
RTVSPost2010Prop39
140
1.0
102
RTVSPost2010PropOp39
 70
     0
102
RTVSPost2010Prop40
 90
        0
102
RTVSPost2010PropOp40
 70
     0
102
RTVSPost2010Prop41ColorIndex
 90
       18
102
RTVSPost2010Prop41ColorRGB
 90
        0
102
RTVSPost2010PropOp41
 70
     0
102
RTVSPost2010Prop42
 90
       50
102
RTVSPost2010PropOp42
 70
     0
102
RTVSPost2010Prop43
 90
        3
102
RTVSPost2010PropOp43
 70
     0
102
RTVSPost2010Prop44ColorIndex
 90
        5
102
RTVSPost2010Prop44ColorRGB
 90
      255
102
RTVSPost2010PropOp44
 70
     0
102
RTVSPost2010Prop45
280
     0
102
RTVSPost2010PropOp45
 70
     0
102
RTVSPost2010Prop46
 90
       50
102
RTVSPost2010PropOp46
 70
     0
102
RTVSPost2010Prop47
 90
       50
102
RTVSPost2010PropOp47
 70
     0
102
RTVSPost2010Prop48
 90
       50
102
RTVSPost2010PropOp48
 70
     0
102
RTVSPost2010Prop49
280
     0
102
RTVSPost2010PropOp49
 70
     0
102
RTVSPost2010Prop50
 90
       50
102
RTVSPost2010PropOp50
 70
     0
102
RTVSPost2010Prop51ColorIndex
 90
      256
102
RTVSPost2010Prop51ColorRGB
 90
-16777216
102
RTVSPost2010PropOp51
 70
     0
102
RTVSPost2010Prop52
140
1.0
102
RTVSPost2010PropOp52
 70
     0
102
RTVSPost2010Prop53
 90
        2
102
RTVSPost2010PropOp53
 70
     0
102
RTVSPost2010Prop54
  1
strokes_ogs.tif
102
RTVSPost2010PropOp54
 70
     0
102
RTVSPost2010Prop55
280
     0
102
RTVSPost2010PropOp55
 70
     0
102
RTVSPost2010Prop56
140
1.0
102
RTVSPost2010PropOp56
 70
     0
102
RTVSPost2010Prop57
140
1.0
102
RTVSPost2010PropOp57
 70
     0
  0
XRECORD
  5
210
102
{ACAD_REACTORS
330
20F
102
}
330
20F
100
AcDbXrecord
280
     1
102
RTVSPropertyOp0
 70
     1
102
RTVSPropertyOp1
 70
     1
102
RTVSPropertyOp2
 70
     1
102
RTVSPropertyOp3
 70
     1
102
RTVSPropertyOp4
 70
     1
102
RTVSPropertyOp5
 70
     1
102
RTVSPropertyOp6
 70
     1
102
RTVSPropertyOp7
 70
     1
102
RTVSPropertyOp8
 70
     1
102
RTVSPropertyOp9
 70
     1
102
RTVSPropertyOp10
 70
     1
102
RTVSPropertyOp11
 70
     1
102
RTVSPropertyOp12
 70
     1
102
RTVSPropertyOp13
 70
     1
102
RTVSPropertyOp14
 70
     1
102
RTVSPropertyOp15
 70
     1
102
RTVSPropertyOp16
 70
     1
102
RTVSPropertyOp17
 70
     1
102
RTVSPropertyOp18
 70
     1
102
RTVSPropertyOp19
 70
     1
102
RTVSPropertyOp20
 70
     1
102
RTVSPropertyOp21
 70
     1
102
RTVSPropertyOp22
 70
     1
102
RTVSPropertyOp23
 70
     1
102
RTVSPropertyOp24
 70
     1
102
RTVSPropertyOp25
 70
     1
102
RTVSPropertyOp26
 70
     1
102
RTVSPropertyOp27
 70
     1
102
RTVSPropertyOp28
 70
     1
102
RTVSPropertyOp29
 70
     1
102
RTVSPropertyOp30
 70
     1
102
RTVSPropertyOp31
 70
     1
102
RTVSPropertyOp32
 70
     1
102
RTVSPropertyOp33
 70
     1
102
RTVSPropertyOp34
 70
     1
102
RTVSPropertyOp35
 70
     1
102
RTVSPropertyOp36
 70
     1
102
RTVSPropertyOp37
 70
     1
102
RTVSPropertyOp38
 70
     1
102
RTVSPropertyOp39
 70
     1
102
RTVSPropertyOp40
 70
     1
102
RTVSPropertyOp41
 70
     1
102
RTVSPropertyOp42
 70
     1
102
RTVSPropertyOp43
 70
     1
102
RTVSPropertyOp44
 70
     1
102
RTVSPropertyOp45
 70
     1
102
RTVSPropertyOp46
 70
     1
102
RTVSPropertyOp47
 70
     1
102
RTVSPropertyOp48
 70
     1
102
RTVSPropertyOp49
 70
     1
102
RTVSPropertyOp50
 70
     1
102
RTVSPropertyOp51
 70
     0
102
RTVSPropertyOp52
 70
     0
102
RTVSPropertyOp53
 70
     1
102
RTVSPropertyOp54
 70
     1
102
RTVSPropertyOp55
 70
     1
102
RTVSPropertyOp56
 70
     1
102
RTVSPropertyOp57
 70
     1
102
RTVSPost2010Prop28
280
     0
102
RTVSPost2010PropOp28
 70
     1
102
RTVSPost2010Prop29
280
     1
102
RTVSPost2010PropOp29
 70
     1
102
RTVSPost2010Prop30
280
     1
102
RTVSPost2010PropOp30
 70
     1
102
RTVSPost2010Prop31
280
     0
102
RTVSPost2010PropOp31
 70
     1
102
RTVSPost2010Prop32
280
     0
102
RTVSPost2010PropOp32
 70
     1
102
RTVSPost2010Prop33
280
     0
102
RTVSPost2010PropOp33
 70
     1
102
RTVSPost2010Prop34
280
     0
102
RTVSPost2010PropOp34
 70
     1
102
RTVSPost2010Prop35
280
     0
102
RTVSPost2010PropOp35
 70
     1
102
RTVSPost2010Prop36
280
     0
102
RTVSPost2010PropOp36
 70
     1
102
RTVSPost2010Prop37
 90
       50
102
RTVSPost2010PropOp37
 70
     1
102
RTVSPost2010Prop38
140
0.0
102
RTVSPost2010PropOp38
 70
     1
102
RTVSPost2010Prop39
140
1.0
102
RTVSPost2010PropOp39
 70
     1
102
RTVSPost2010Prop40
 90
        0
102
RTVSPost2010PropOp40
 70
     1
102
RTVSPost2010Prop41ColorIndex
 90
       18
102
RTVSPost2010Prop41ColorRGB
 90
        0
102
RTVSPost2010PropOp41
 70
     1
102
RTVSPost2010Prop42
 90
       50
102
RTVSPost2010PropOp42
 70
     1
102
RTVSPost2010Prop43
 90
        3
102
RTVSPost2010PropOp43
 70
     1
102
RTVSPost2010Prop44ColorIndex
 90
        5
102
RTVSPost2010Prop44ColorRGB
 90
      255
102
RTVSPost2010PropOp44
 70
     1
102
RTVSPost2010Prop45
280
     0
102
RTVSPost2010PropOp45
 70
     1
102
RTVSPost2010Prop46
 90
       50
102
RTVSPost2010PropOp46
 70
     1
102
RTVSPost2010Prop47
 90
       50
102
RTVSPost2010PropOp47
 70
     1
102
RTVSPost2010Prop48
 90
       50
102
RTVSPost2010PropOp48
 70
     1
102
RTVSPost2010Prop49
280
     0
102
RTVSPost2010PropOp49
 70
     1
102
RTVSPost2010Prop50
 90
       50
102
RTVSPost2010PropOp50
 70
     1
102
RTVSPost2010Prop51ColorIndex
 90
      256
102
RTVSPost2010Prop51ColorRGB
 90
-16777216
102
RTVSPost2010PropOp51
 70
     0
102
RTVSPost2010Prop52
140
1.0
102
RTVSPost2010PropOp52
 70
     0
102
RTVSPost2010Prop53
 90
        2
102
RTVSPost2010PropOp53
 70
     1
102
RTVSPost2010Prop54
  1
strokes_ogs.tif
102
RTVSPost2010PropOp54
 70
     1
102
RTVSPost2010Prop55
280
     0
102
RTVSPost2010PropOp55
 70
     1
102
RTVSPost2010Prop56
140
1.0
102
RTVSPost2010PropOp56
 70
     1
102
RTVSPost2010Prop57
140
1.0
102
RTVSPost2010PropOp57
 70
     1
  0
XRECORD
  5
1F4
102
{ACAD_REACTORS
330
1F3
102
}
330
1F3
100
AcDbXrecord
280
     1
102
RTVSPropertyOp0
 70
     1
102
RTVSPropertyOp1
 70
     1
102
RTVSPropertyOp2
 70
     1
102
RTVSPropertyOp3
 70
     1
102
RTVSPropertyOp4
 70
     1
102
RTVSPropertyOp5
 70
     1
102
RTVSPropertyOp6
 70
     1
102
RTVSPropertyOp7
 70
     1
102
RTVSPropertyOp8
 70
     1
102
RTVSPropertyOp9
 70
     1
102
RTVSPropertyOp10
 70
     1
102
RTVSPropertyOp11
 70
     1
102
RTVSPropertyOp12
 70
     1
102
RTVSPropertyOp13
 70
     1
102
RTVSPropertyOp14
 70
     1
102
RTVSPropertyOp15
 70
     1
102
RTVSPropertyOp16
 70
     1
102
RTVSPropertyOp17
 70
     1
102
RTVSPropertyOp18
 70
     1
102
RTVSPropertyOp19
 70
     1
102
RTVSPropertyOp20
 70
     1
102
RTVSPropertyOp21
 70
     1
102
RTVSPropertyOp22
 70
     1
102
RTVSPropertyOp23
 70
     1
102
RTVSPropertyOp24
 70
     1
102
RTVSPropertyOp25
 70
     1
102
RTVSPropertyOp26
 70
     1
102
RTVSPropertyOp27
 70
     1
102
RTVSPropertyOp28
 70
     1
102
RTVSPropertyOp29
 70
     1
102
RTVSPropertyOp30
 70
     1
102
RTVSPropertyOp31
 70
     1
102
RTVSPropertyOp32
 70
     1
102
RTVSPropertyOp33
 70
     1
102
RTVSPropertyOp34
 70
     1
102
RTVSPropertyOp35
 70
     1
102
RTVSPropertyOp36
 70
     1
102
RTVSPropertyOp37
 70
     1
102
RTVSPropertyOp38
 70
     1
102
RTVSPropertyOp39
 70
     1
102
RTVSPropertyOp40
 70
     1
102
RTVSPropertyOp41
 70
     1
102
RTVSPropertyOp42
 70
     1
102
RTVSPropertyOp43
 70
     1
102
RTVSPropertyOp44
 70
     1
102
RTVSPropertyOp45
 70
     1
102
RTVSPropertyOp46
 70
     1
102
RTVSPropertyOp47
 70
     1
102
RTVSPropertyOp48
 70
     1
102
RTVSPropertyOp49
 70
     1
102
RTVSPropertyOp50
 70
     1
102
RTVSPropertyOp51
 70
     0
102
RTVSPropertyOp52
 70
     0
102
RTVSPropertyOp53
 70
     1
102
RTVSPropertyOp54
 70
     1
102
RTVSPropertyOp55
 70
     1
102
RTVSPropertyOp56
 70
     1
102
RTVSPropertyOp57
 70
     1
102
RTVSPost2010Prop28
280
     0
102
RTVSPost2010PropOp28
 70
     1
102
RTVSPost2010Prop29
280
     1
102
RTVSPost2010PropOp29
 70
     1
102
RTVSPost2010Prop30
280
     1
102
RTVSPost2010PropOp30
 70
     1
102
RTVSPost2010Prop31
280
     0
102
RTVSPost2010PropOp31
 70
     1
102
RTVSPost2010Prop32
280
     0
102
RTVSPost2010PropOp32
 70
     1
102
RTVSPost2010Prop33
280
     0
102
RTVSPost2010PropOp33
 70
     1
102
RTVSPost2010Prop34
280
     0
102
RTVSPost2010PropOp34
 70
     1
102
RTVSPost2010Prop35
280
     0
102
RTVSPost2010PropOp35
 70
     1
102
RTVSPost2010Prop36
280
     0
102
RTVSPost2010PropOp36
 70
     1
102
RTVSPost2010Prop37
 90
       50
102
RTVSPost2010PropOp37
 70
     1
102
RTVSPost2010Prop38
140
0.0
102
RTVSPost2010PropOp38
 70
     1
102
RTVSPost2010Prop39
140
1.0
102
RTVSPost2010PropOp39
 70
     1
102
RTVSPost2010Prop40
 90
        0
102
RTVSPost2010PropOp40
 70
     1
102
RTVSPost2010Prop41ColorIndex
 90
       18
102
RTVSPost2010Prop41ColorRGB
 90
        0
102
RTVSPost2010PropOp41
 70
     1
102
RTVSPost2010Prop42
 90
       50
102
RTVSPost2010PropOp42
 70
     1
102
RTVSPost2010Prop43
 90
        3
102
RTVSPost2010PropOp43
 70
     1
102
RTVSPost2010Prop44ColorIndex
 90
        5
102
RTVSPost2010Prop44ColorRGB
 90
      255
102
RTVSPost2010PropOp44
 70
     1
102
RTVSPost2010Prop45
280
     0
102
RTVSPost2010PropOp45
 70
     1
102
RTVSPost2010Prop46
 90
       50
102
RTVSPost2010PropOp46
 70
     1
102
RTVSPost2010Prop47
 90
       50
102
RTVSPost2010PropOp47
 70
     1
102
RTVSPost2010Prop48
 90
       50
102
RTVSPost2010PropOp48
 70
     1
102
RTVSPost2010Prop49
280
     0
102
RTVSPost2010PropOp49
 70
     1
102
RTVSPost2010Prop50
 90
       50
102
RTVSPost2010PropOp50
 70
     1
102
RTVSPost2010Prop51ColorIndex
 90
      256
102
RTVSPost2010Prop51ColorRGB
 90
-16777216
102
RTVSPost2010PropOp51
 70
     0
102
RTVSPost2010Prop52
140
1.0
102
RTVSPost2010PropOp52
 70
     0
102
RTVSPost2010Prop53
 90
        2
102
RTVSPost2010PropOp53
 70
     1
102
RTVSPost2010Prop54
  1
strokes_ogs.tif
102
RTVSPost2010PropOp54
 70
     1
102
RTVSPost2010Prop55
280
     0
102
RTVSPost2010PropOp55
 70
     1
102
RTVSPost2010Prop56
140
1.0
102
RTVSPost2010PropOp56
 70
     1
102
RTVSPost2010Prop57
140
1.0
102
RTVSPost2010PropOp57
 70
     1
  0
XRECORD
  5
1F6
102
{ACAD_REACTORS
330
1F5
102
}
330
1F5
100
AcDbXrecord
280
     1
102
RTVSPropertyOp0
 70
     1
102
RTVSPropertyOp1
 70
     1
102
RTVSPropertyOp2
 70
     1
102
RTVSPropertyOp3
 70
     1
102
RTVSPropertyOp4
 70
     1
102
RTVSPropertyOp5
 70
     1
102
RTVSPropertyOp6
 70
     1
102
RTVSPropertyOp7
 70
     1
102
RTVSPropertyOp8
 70
     1
102
RTVSPropertyOp9
 70
     1
102
RTVSPropertyOp10
 70
     1
102
RTVSPropertyOp11
 70
     1
102
RTVSPropertyOp12
 70
     1
102
RTVSPropertyOp13
 70
     1
102
RTVSPropertyOp14
 70
     1
102
RTVSPropertyOp15
 70
     1
102
RTVSPropertyOp16
 70
     1
102
RTVSPropertyOp17
 70
     1
102
RTVSPropertyOp18
 70
     1
102
RTVSPropertyOp19
 70
     1
102
RTVSPropertyOp20
 70
     1
102
RTVSPropertyOp21
 70
     1
102
RTVSPropertyOp22
 70
     1
102
RTVSPropertyOp23
 70
     1
102
RTVSPropertyOp24
 70
     1
102
RTVSPropertyOp25
 70
     1
102
RTVSPropertyOp26
 70
     1
102
RTVSPropertyOp27
 70
     1
102
RTVSPropertyOp28
 70
     1
102
RTVSPropertyOp29
 70
     1
102
RTVSPropertyOp30
 70
     1
102
RTVSPropertyOp31
 70
     1
102
RTVSPropertyOp32
 70
     1
102
RTVSPropertyOp33
 70
     1
102
RTVSPropertyOp34
 70
     1
102
RTVSPropertyOp35
 70
     1
102
RTVSPropertyOp36
 70
     1
102
RTVSPropertyOp37
 70
     1
102
RTVSPropertyOp38
 70
     1
102
RTVSPropertyOp39
 70
     1
102
RTVSPropertyOp40
 70
     1
102
RTVSPropertyOp41
 70
     1
102
RTVSPropertyOp42
 70
     1
102
RTVSPropertyOp43
 70
     1
102
RTVSPropertyOp44
 70
     1
102
RTVSPropertyOp45
 70
     1
102
RTVSPropertyOp46
 70
     1
102
RTVSPropertyOp47
 70
     1
102
RTVSPropertyOp48
 70
     1
102
RTVSPropertyOp49
 70
     1
102
RTVSPropertyOp50
 70
     1
102
RTVSPropertyOp51
 70
     0
102
RTVSPropertyOp52
 70
     0
102
RTVSPropertyOp53
 70
     1
102
RTVSPropertyOp54
 70
     1
102
RTVSPropertyOp55
 70
     1
102
RTVSPropertyOp56
 70
     1
102
RTVSPropertyOp57
 70
     1
102
RTVSPost2010Prop28
280
     0
102
RTVSPost2010PropOp28
 70
     1
102
RTVSPost2010Prop29
280
     1
102
RTVSPost2010PropOp29
 70
     1
102
RTVSPost2010Prop30
280
     1
102
RTVSPost2010PropOp30
 70
     1
102
RTVSPost2010Prop31
280
     0
102
RTVSPost2010PropOp31
 70
     1
102
RTVSPost2010Prop32
280
     0
102
RTVSPost2010PropOp32
 70
     1
102
RTVSPost2010Prop33
280
     0
102
RTVSPost2010PropOp33
 70
     1
102
RTVSPost2010Prop34
280
     0
102
RTVSPost2010PropOp34
 70
     1
102
RTVSPost2010Prop35
280
     0
102
RTVSPost2010PropOp35
 70
     1
102
RTVSPost2010Prop36
280
     0
102
RTVSPost2010PropOp36
 70
     1
102
RTVSPost2010Prop37
 90
       50
102
RTVSPost2010PropOp37
 70
     1
102
RTVSPost2010Prop38
140
0.0
102
RTVSPost2010PropOp38
 70
     1
102
RTVSPost2010Prop39
140
1.0
102
RTVSPost2010PropOp39
 70
     1
102
RTVSPost2010Prop40
 90
        0
102
RTVSPost2010PropOp40
 70
     1
102
RTVSPost2010Prop41ColorIndex
 90
       18
102
RTVSPost2010Prop41ColorRGB
 90
        0
102
RTVSPost2010PropOp41
 70
     1
102
RTVSPost2010Prop42
 90
       50
102
RTVSPost2010PropOp42
 70
     1
102
RTVSPost2010Prop43
 90
        3
102
RTVSPost2010PropOp43
 70
     1
102
RTVSPost2010Prop44ColorIndex
 90
        5
102
RTVSPost2010Prop44ColorRGB
 90
      255
102
RTVSPost2010PropOp44
 70
     1
102
RTVSPost2010Prop45
280
     0
102
RTVSPost2010PropOp45
 70
     1
102
RTVSPost2010Prop46
 90
       50
102
RTVSPost2010PropOp46
 70
     1
102
RTVSPost2010Prop47
 90
       50
102
RTVSPost2010PropOp47
 70
     1
102
RTVSPost2010Prop48
 90
       50
102
RTVSPost2010PropOp48
 70
     1
102
RTVSPost2010Prop49
280
     0
102
RTVSPost2010PropOp49
 70
     1
102
RTVSPost2010Prop50
 90
       50
102
RTVSPost2010PropOp50
 70
     1
102
RTVSPost2010Prop51ColorIndex
 90
      256
102
RTVSPost2010Prop51ColorRGB
 90
-16777216
102
RTVSPost2010PropOp51
 70
     0
102
RTVSPost2010Prop52
140
1.0
102
RTVSPost2010PropOp52
 70
     0
102
RTVSPost2010Prop53
 90
        2
102
RTVSPost2010PropOp53
 70
     1
102
RTVSPost2010Prop54
  1
strokes_ogs.tif
102
RTVSPost2010PropOp54
 70
     1
102
RTVSPost2010Prop55
280
     0
102
RTVSPost2010PropOp55
 70
     1
102
RTVSPost2010Prop56
140
1.0
102
RTVSPost2010PropOp56
 70
     1
102
RTVSPost2010Prop57
140
1.0
102
RTVSPost2010PropOp57
 70
     1
  0
XRECORD
  5
1F8
102
{ACAD_REACTORS
330
1F7
102
}
330
1F7
100
AcDbXrecord
280
     1
102
RTVSPropertyOp0
 70
     1
102
RTVSPropertyOp1
 70
     1
102
RTVSPropertyOp2
 70
     1
102
RTVSPropertyOp3
 70
     1
102
RTVSPropertyOp4
 70
     1
102
RTVSPropertyOp5
 70
     1
102
RTVSPropertyOp6
 70
     1
102
RTVSPropertyOp7
 70
     1
102
RTVSPropertyOp8
 70
     1
102
RTVSPropertyOp9
 70
     1
102
RTVSPropertyOp10
 70
     1
102
RTVSPropertyOp11
 70
     1
102
RTVSPropertyOp12
 70
     1
102
RTVSPropertyOp13
 70
     1
102
RTVSPropertyOp14
 70
     1
102
RTVSPropertyOp15
 70
     1
102
RTVSPropertyOp16
 70
     1
102
RTVSPropertyOp17
 70
     1
102
RTVSPropertyOp18
 70
     1
102
RTVSPropertyOp19
 70
     1
102
RTVSPropertyOp20
 70
     1
102
RTVSPropertyOp21
 70
     1
102
RTVSPropertyOp22
 70
     1
102
RTVSPropertyOp23
 70
     1
102
RTVSPropertyOp24
 70
     1
102
RTVSPropertyOp25
 70
     1
102
RTVSPropertyOp26
 70
     1
102
RTVSPropertyOp27
 70
     1
102
RTVSPropertyOp28
 70
     1
102
RTVSPropertyOp29
 70
     1
102
RTVSPropertyOp30
 70
     1
102
RTVSPropertyOp31
 70
     1
102
RTVSPropertyOp32
 70
     1
102
RTVSPropertyOp33
 70
     1
102
RTVSPropertyOp34
 70
     1
102
RTVSPropertyOp35
 70
     1
102
RTVSPropertyOp36
 70
     1
102
RTVSPropertyOp37
 70
     1
102
RTVSPropertyOp38
 70
     1
102
RTVSPropertyOp39
 70
     1
102
RTVSPropertyOp40
 70
     1
102
RTVSPropertyOp41
 70
     1
102
RTVSPropertyOp42
 70
     1
102
RTVSPropertyOp43
 70
     1
102
RTVSPropertyOp44
 70
     1
102
RTVSPropertyOp45
 70
     1
102
RTVSPropertyOp46
 70
     1
102
RTVSPropertyOp47
 70
     1
102
RTVSPropertyOp48
 70
     1
102
RTVSPropertyOp49
 70
     1
102
RTVSPropertyOp50
 70
     1
102
RTVSPropertyOp51
 70
     0
102
RTVSPropertyOp52
 70
     0
102
RTVSPropertyOp53
 70
     1
102
RTVSPropertyOp54
 70
     1
102
RTVSPropertyOp55
 70
     1
102
RTVSPropertyOp56
 70
     1
102
RTVSPropertyOp57
 70
     1
102
RTVSPost2010Prop28
280
     0
102
RTVSPost2010PropOp28
 70
     1
102
RTVSPost2010Prop29
280
     1
102
RTVSPost2010PropOp29
 70
     1
102
RTVSPost2010Prop30
280
     1
102
RTVSPost2010PropOp30
 70
     1
102
RTVSPost2010Prop31
280
     0
102
RTVSPost2010PropOp31
 70
     1
102
RTVSPost2010Prop32
280
     0
102
RTVSPost2010PropOp32
 70
     1
102
RTVSPost2010Prop33
280
     0
102
RTVSPost2010PropOp33
 70
     1
102
RTVSPost2010Prop34
280
     0
102
RTVSPost2010PropOp34
 70
     1
102
RTVSPost2010Prop35
280
     0
102
RTVSPost2010PropOp35
 70
     1
102
RTVSPost2010Prop36
280
     0
102
RTVSPost2010PropOp36
 70
     1
102
RTVSPost2010Prop37
 90
       50
102
RTVSPost2010PropOp37
 70
     1
102
RTVSPost2010Prop38
140
0.0
102
RTVSPost2010PropOp38
 70
     1
102
RTVSPost2010Prop39
140
1.0
102
RTVSPost2010PropOp39
 70
     1
102
RTVSPost2010Prop40
 90
        0
102
RTVSPost2010PropOp40
 70
     1
102
RTVSPost2010Prop41ColorIndex
 90
       18
102
RTVSPost2010Prop41ColorRGB
 90
        0
102
RTVSPost2010PropOp41
 70
     1
102
RTVSPost2010Prop42
 90
       50
102
RTVSPost2010PropOp42
 70
     1
102
RTVSPost2010Prop43
 90
        3
102
RTVSPost2010PropOp43
 70
     1
102
RTVSPost2010Prop44ColorIndex
 90
        5
102
RTVSPost2010Prop44ColorRGB
 90
      255
102
RTVSPost2010PropOp44
 70
     1
102
RTVSPost2010Prop45
280
     0
102
RTVSPost2010PropOp45
 70
     1
102
RTVSPost2010Prop46
 90
       50
102
RTVSPost2010PropOp46
 70
     1
102
RTVSPost2010Prop47
 90
       50
102
RTVSPost2010PropOp47
 70
     1
102
RTVSPost2010Prop48
 90
       50
102
RTVSPost2010PropOp48
 70
     1
102
RTVSPost2010Prop49
280
     0
102
RTVSPost2010PropOp49
 70
     1
102
RTVSPost2010Prop50
 90
       50
102
RTVSPost2010PropOp50
 70
     1
102
RTVSPost2010Prop51ColorIndex
 90
      256
102
RTVSPost2010Prop51ColorRGB
 90
-16777216
102
RTVSPost2010PropOp51
 70
     0
102
RTVSPost2010Prop52
140
1.0
102
RTVSPost2010PropOp52
 70
     0
102
RTVSPost2010Prop53
 90
        2
102
RTVSPost2010PropOp53
 70
     1
102
RTVSPost2010Prop54
  1
strokes_ogs.tif
102
RTVSPost2010PropOp54
 70
     1
102
RTVSPost2010Prop55
280
     0
102
RTVSPost2010PropOp55
 70
     1
102
RTVSPost2010Prop56
140
1.0
102
RTVSPost2010PropOp56
 70
     1
102
RTVSPost2010Prop57
140
1.0
102
RTVSPost2010PropOp57
 70
     1
  0
XRECORD
  5
1FA
102
{ACAD_REACTORS
330
1F9
102
}
330
1F9
100
AcDbXrecord
280
     1
102
RTVSPropertyOp0
 70
     1
102
RTVSPropertyOp1
 70
     1
102
RTVSPropertyOp2
 70
     1
102
RTVSPropertyOp3
 70
     1
102
RTVSPropertyOp4
 70
     1
102
RTVSPropertyOp5
 70
     1
102
RTVSPropertyOp6
 70
     1
102
RTVSPropertyOp7
 70
     1
102
RTVSPropertyOp8
 70
     1
102
RTVSPropertyOp9
 70
     1
102
RTVSPropertyOp10
 70
     1
102
RTVSPropertyOp11
 70
     1
102
RTVSPropertyOp12
 70
     1
102
RTVSPropertyOp13
 70
     1
102
RTVSPropertyOp14
 70
     1
102
RTVSPropertyOp15
 70
     1
102
RTVSPropertyOp16
 70
     1
102
RTVSPropertyOp17
 70
     1
102
RTVSPropertyOp18
 70
     1
102
RTVSPropertyOp19
 70
     1
102
RTVSPropertyOp20
 70
     1
102
RTVSPropertyOp21
 70
     1
102
RTVSPropertyOp22
 70
     1
102
RTVSPropertyOp23
 70
     1
102
RTVSPropertyOp24
 70
     1
102
RTVSPropertyOp25
 70
     1
102
RTVSPropertyOp26
 70
     1
102
RTVSPropertyOp27
 70
     1
102
RTVSPropertyOp28
 70
     1
102
RTVSPropertyOp29
 70
     1
102
RTVSPropertyOp30
 70
     1
102
RTVSPropertyOp31
 70
     1
102
RTVSPropertyOp32
 70
     1
102
RTVSPropertyOp33
 70
     1
102
RTVSPropertyOp34
 70
     1
102
RTVSPropertyOp35
 70
     1
102
RTVSPropertyOp36
 70
     1
102
RTVSPropertyOp37
 70
     1
102
RTVSPropertyOp38
 70
     1
102
RTVSPropertyOp39
 70
     1
102
RTVSPropertyOp40
 70
     1
102
RTVSPropertyOp41
 70
     1
102
RTVSPropertyOp42
 70
     1
102
RTVSPropertyOp43
 70
     1
102
RTVSPropertyOp44
 70
     1
102
RTVSPropertyOp45
 70
     1
102
RTVSPropertyOp46
 70
     1
102
RTVSPropertyOp47
 70
     1
102
RTVSPropertyOp48
 70
     1
102
RTVSPropertyOp49
 70
     1
102
RTVSPropertyOp50
 70
     1
102
RTVSPropertyOp51
 70
     0
102
RTVSPropertyOp52
 70
     0
102
RTVSPropertyOp53
 70
     1
102
RTVSPropertyOp54
 70
     1
102
RTVSPropertyOp55
 70
     1
102
RTVSPropertyOp56
 70
     1
102
RTVSPropertyOp57
 70
     1
102
RTVSPost2010Prop28
280
     0
102
RTVSPost2010PropOp28
 70
     1
102
RTVSPost2010Prop29
280
     1
102
RTVSPost2010PropOp29
 70
     1
102
RTVSPost2010Prop30
280
     1
102
RTVSPost2010PropOp30
 70
     1
102
RTVSPost2010Prop31
280
     0
102
RTVSPost2010PropOp31
 70
     1
102
RTVSPost2010Prop32
280
     0
102
RTVSPost2010PropOp32
 70
     1
102
RTVSPost2010Prop33
280
     0
102
RTVSPost2010PropOp33
 70
     1
102
RTVSPost2010Prop34
280
     0
102
RTVSPost2010PropOp34
 70
     1
102
RTVSPost2010Prop35
280
     0
102
RTVSPost2010PropOp35
 70
     1
102
RTVSPost2010Prop36
280
     0
102
RTVSPost2010PropOp36
 70
     1
102
RTVSPost2010Prop37
 90
       50
102
RTVSPost2010PropOp37
 70
     1
102
RTVSPost2010Prop38
140
0.0
102
RTVSPost2010PropOp38
 70
     1
102
RTVSPost2010Prop39
140
1.0
102
RTVSPost2010PropOp39
 70
     1
102
RTVSPost2010Prop40
 90
        0
102
RTVSPost2010PropOp40
 70
     1
102
RTVSPost2010Prop41ColorIndex
 90
       18
102
RTVSPost2010Prop41ColorRGB
 90
        0
102
RTVSPost2010PropOp41
 70
     1
102
RTVSPost2010Prop42
 90
       50
102
RTVSPost2010PropOp42
 70
     1
102
RTVSPost2010Prop43
 90
        3
102
RTVSPost2010PropOp43
 70
     1
102
RTVSPost2010Prop44ColorIndex
 90
        5
102
RTVSPost2010Prop44ColorRGB
 90
      255
102
RTVSPost2010PropOp44
 70
     1
102
RTVSPost2010Prop45
280
     0
102
RTVSPost2010PropOp45
 70
     1
102
RTVSPost2010Prop46
 90
       50
102
RTVSPost2010PropOp46
 70
     1
102
RTVSPost2010Prop47
 90
       50
102
RTVSPost2010PropOp47
 70
     1
102
RTVSPost2010Prop48
 90
       50
102
RTVSPost2010PropOp48
 70
     1
102
RTVSPost2010Prop49
280
     0
102
RTVSPost2010PropOp49
 70
     1
102
RTVSPost2010Prop50
 90
       50
102
RTVSPost2010PropOp50
 70
     1
102
RTVSPost2010Prop51ColorIndex
 90
      256
102
RTVSPost2010Prop51ColorRGB
 90
-16777216
102
RTVSPost2010PropOp51
 70
     0
102
RTVSPost2010Prop52
140
1.0
102
RTVSPost2010PropOp52
 70
     0
102
RTVSPost2010Prop53
 90
        2
102
RTVSPost2010PropOp53
 70
     1
102
RTVSPost2010Prop54
  1
strokes_ogs.tif
102
RTVSPost2010PropOp54
 70
     1
102
RTVSPost2010Prop55
280
     0
102
RTVSPost2010PropOp55
 70
     1
102
RTVSPost2010Prop56
140
1.0
102
RTVSPost2010PropOp56
 70
     1
102
RTVSPost2010Prop57
140
1.0
102
RTVSPost2010PropOp57
 70
     1
  0
XRECORD
  5
200
102
{ACAD_REACTORS
330
1FF
102
}
330
1FF
100
AcDbXrecord
280
     1
102
RTVSPropertyOp0
 70
     1
102
RTVSPropertyOp1
 70
     1
102
RTVSPropertyOp2
 70
     1
102
RTVSPropertyOp3
 70
     1
102
RTVSPropertyOp4
 70
     1
102
RTVSPropertyOp5
 70
     1
102
RTVSPropertyOp6
 70
     1
102
RTVSPropertyOp7
 70
     1
102
RTVSPropertyOp8
 70
     1
102
RTVSPropertyOp9
 70
     1
102
RTVSPropertyOp10
 70
     1
102
RTVSPropertyOp11
 70
     1
102
RTVSPropertyOp12
 70
     1
102
RTVSPropertyOp13
 70
     1
102
RTVSPropertyOp14
 70
     1
102
RTVSPropertyOp15
 70
     1
102
RTVSPropertyOp16
 70
     1
102
RTVSPropertyOp17
 70
     1
102
RTVSPropertyOp18
 70
     1
102
RTVSPropertyOp19
 70
     1
102
RTVSPropertyOp20
 70
     1
102
RTVSPropertyOp21
 70
     1
102
RTVSPropertyOp22
 70
     1
102
RTVSPropertyOp23
 70
     1
102
RTVSPropertyOp24
 70
     1
102
RTVSPropertyOp25
 70
     1
102
RTVSPropertyOp26
 70
     1
102
RTVSPropertyOp27
 70
     1
102
RTVSPropertyOp28
 70
     1
102
RTVSPropertyOp29
 70
     1
102
RTVSPropertyOp30
 70
     1
102
RTVSPropertyOp31
 70
     1
102
RTVSPropertyOp32
 70
     1
102
RTVSPropertyOp33
 70
     1
102
RTVSPropertyOp34
 70
     1
102
RTVSPropertyOp35
 70
     1
102
RTVSPropertyOp36
 70
     1
102
RTVSPropertyOp37
 70
     1
102
RTVSPropertyOp38
 70
     1
102
RTVSPropertyOp39
 70
     1
102
RTVSPropertyOp40
 70
     1
102
RTVSPropertyOp41
 70
     1
102
RTVSPropertyOp42
 70
     1
102
RTVSPropertyOp43
 70
     1
102
RTVSPropertyOp44
 70
     1
102
RTVSPropertyOp45
 70
     1
102
RTVSPropertyOp46
 70
     1
102
RTVSPropertyOp47
 70
     1
102
RTVSPropertyOp48
 70
     1
102
RTVSPropertyOp49
 70
     1
102
RTVSPropertyOp50
 70
     1
102
RTVSPropertyOp51
 70
     0
102
RTVSPropertyOp52
 70
     0
102
RTVSPropertyOp53
 70
     1
102
RTVSPropertyOp54
 70
     1
102
RTVSPropertyOp55
 70
     1
102
RTVSPropertyOp56
 70
     1
102
RTVSPropertyOp57
 70
     1
102
RTVSPost2010Prop28
280
     0
102
RTVSPost2010PropOp28
 70
     1
102
RTVSPost2010Prop29
280
     1
102
RTVSPost2010PropOp29
 70
     1
102
RTVSPost2010Prop30
280
     1
102
RTVSPost2010PropOp30
 70
     1
102
RTVSPost2010Prop31
280
     0
102
RTVSPost2010PropOp31
 70
     1
102
RTVSPost2010Prop32
280
     0
102
RTVSPost2010PropOp32
 70
     1
102
RTVSPost2010Prop33
280
     0
102
RTVSPost2010PropOp33
 70
     1
102
RTVSPost2010Prop34
280
     0
102
RTVSPost2010PropOp34
 70
     1
102
RTVSPost2010Prop35
280
     0
102
RTVSPost2010PropOp35
 70
     1
102
RTVSPost2010Prop36
280
     0
102
RTVSPost2010PropOp36
 70
     1
102
RTVSPost2010Prop37
 90
       50
102
RTVSPost2010PropOp37
 70
     1
102
RTVSPost2010Prop38
140
0.0
102
RTVSPost2010PropOp38
 70
     1
102
RTVSPost2010Prop39
140
1.0
102
RTVSPost2010PropOp39
 70
     1
102
RTVSPost2010Prop40
 90
        0
102
RTVSPost2010PropOp40
 70
     1
102
RTVSPost2010Prop41ColorIndex
 90
       18
102
RTVSPost2010Prop41ColorRGB
 90
        0
102
RTVSPost2010PropOp41
 70
     1
102
RTVSPost2010Prop42
 90
       50
102
RTVSPost2010PropOp42
 70
     1
102
RTVSPost2010Prop43
 90
        3
102
RTVSPost2010PropOp43
 70
     1
102
RTVSPost2010Prop44ColorIndex
 90
        5
102
RTVSPost2010Prop44ColorRGB
 90
      255
102
RTVSPost2010PropOp44
 70
     1
102
RTVSPost2010Prop45
280
     0
102
RTVSPost2010PropOp45
 70
     1
102
RTVSPost2010Prop46
 90
       50
102
RTVSPost2010PropOp46
 70
     1
102
RTVSPost2010Prop47
 90
       50
102
RTVSPost2010PropOp47
 70
     1
102
RTVSPost2010Prop48
 90
       50
102
RTVSPost2010PropOp48
 70
     1
102
RTVSPost2010Prop49
280
     0
102
RTVSPost2010PropOp49
 70
     1
102
RTVSPost2010Prop50
 90
       50
102
RTVSPost2010PropOp50
 70
     1
102
RTVSPost2010Prop51ColorIndex
 90
      256
102
RTVSPost2010Prop51ColorRGB
 90
-16777216
102
RTVSPost2010PropOp51
 70
     0
102
RTVSPost2010Prop52
140
1.0
102
RTVSPost2010PropOp52
 70
     0
102
RTVSPost2010Prop53
 90
        2
102
RTVSPost2010PropOp53
 70
     1
102
RTVSPost2010Prop54
  1
strokes_ogs.tif
102
RTVSPost2010PropOp54
 70
     1
102
RTVSPost2010Prop55
280
     0
102
RTVSPost2010PropOp55
 70
     1
102
RTVSPost2010Prop56
140
1.0
102
RTVSPost2010PropOp56
 70
     1
102
RTVSPost2010Prop57
140
1.0
102
RTVSPost2010PropOp57
 70
     1
  0
XRECORD
  5
214
102
{ACAD_REACTORS
330
213
102
}
330
213
100
AcDbXrecord
280
     1
102
RTVSPropertyOp0
 70
     0
102
RTVSPropertyOp1
 70
     0
102
RTVSPropertyOp2
 70
     0
102
RTVSPropertyOp3
 70
     0
102
RTVSPropertyOp4
 70
     0
102
RTVSPropertyOp5
 70
     0
102
RTVSPropertyOp6
 70
     0
102
RTVSPropertyOp7
 70
     0
102
RTVSPropertyOp8
 70
     0
102
RTVSPropertyOp9
 70
     0
102
RTVSPropertyOp10
 70
     0
102
RTVSPropertyOp11
 70
     0
102
RTVSPropertyOp12
 70
     0
102
RTVSPropertyOp13
 70
     0
102
RTVSPropertyOp14
 70
     2
102
RTVSPropertyOp15
 70
     0
102
RTVSPropertyOp16
 70
     0
102
RTVSPropertyOp17
 70
     0
102
RTVSPropertyOp18
 70
     0
102
RTVSPropertyOp19
 70
     0
102
RTVSPropertyOp20
 70
     0
102
RTVSPropertyOp21
 70
     0
102
RTVSPropertyOp22
 70
     0
102
RTVSPropertyOp23
 70
     0
102
RTVSPropertyOp24
 70
     0
102
RTVSPropertyOp25
 70
     0
102
RTVSPropertyOp26
 70
     0
102
RTVSPropertyOp27
 70
     0
102
RTVSPropertyOp28
 70
     0
102
RTVSPropertyOp29
 70
     0
102
RTVSPropertyOp30
 70
     0
102
RTVSPropertyOp31
 70
     0
102
RTVSPropertyOp32
 70
     0
102
RTVSPropertyOp33
 70
     0
102
RTVSPropertyOp34
 70
     0
102
RTVSPropertyOp35
 70
     0
102
RTVSPropertyOp36
 70
     0
102
RTVSPropertyOp37
 70
     0
102
RTVSPropertyOp38
 70
     0
102
RTVSPropertyOp39
 70
     0
102
RTVSPropertyOp40
 70
     0
102
RTVSPropertyOp41
 70
     0
102
RTVSPropertyOp42
 70
     0
102
RTVSPropertyOp43
 70
     0
102
RTVSPropertyOp44
 70
     0
102
RTVSPropertyOp45
 70
     0
102
RTVSPropertyOp46
 70
     0
102
RTVSPropertyOp47
 70
     0
102
RTVSPropertyOp48
 70
     0
102
RTVSPropertyOp49
 70
     0
102
RTVSPropertyOp50
 70
     0
102
RTVSPropertyOp51
 70
     0
102
RTVSPropertyOp52
 70
     0
102
RTVSPropertyOp53
 70
     0
102
RTVSPropertyOp54
 70
     0
102
RTVSPropertyOp55
 70
     0
102
RTVSPropertyOp56
 70
     0
102
RTVSPropertyOp57
 70
     0
102
RTVSPost2010Prop28
280
     0
102
RTVSPost2010PropOp28
 70
     0
102
RTVSPost2010Prop29
280
     1
102
RTVSPost2010PropOp29
 70
     0
102
RTVSPost2010Prop30
280
     1
102
RTVSPost2010PropOp30
 70
     0
102
RTVSPost2010Prop31
280
     0
102
RTVSPost2010PropOp31
 70
     0
102
RTVSPost2010Prop32
280
     0
102
RTVSPost2010PropOp32
 70
     0
102
RTVSPost2010Prop33
280
     0
102
RTVSPost2010PropOp33
 70
     0
102
RTVSPost2010Prop34
280
     0
102
RTVSPost2010PropOp34
 70
     0
102
RTVSPost2010Prop35
280
     0
102
RTVSPost2010PropOp35
 70
     0
102
RTVSPost2010Prop36
280
     0
102
RTVSPost2010PropOp36
 70
     0
102
RTVSPost2010Prop37
 90
       50
102
RTVSPost2010PropOp37
 70
     0
102
RTVSPost2010Prop38
140
0.0
102
RTVSPost2010PropOp38
 70
     0
102
RTVSPost2010Prop39
140
1.0
102
RTVSPost2010PropOp39
 70
     0
102
RTVSPost2010Prop40
 90
        0
102
RTVSPost2010PropOp40
 70
     0
102
RTVSPost2010Prop41ColorIndex
 90
       18
102
RTVSPost2010Prop41ColorRGB
 90
        0
102
RTVSPost2010PropOp41
 70
     0
102
RTVSPost2010Prop42
 90
       50
102
RTVSPost2010PropOp42
 70
     0
102
RTVSPost2010Prop43
 90
        3
102
RTVSPost2010PropOp43
 70
     0
102
RTVSPost2010Prop44ColorIndex
 90
        5
102
RTVSPost2010Prop44ColorRGB
 90
      255
102
RTVSPost2010PropOp44
 70
     0
102
RTVSPost2010Prop45
280
     0
102
RTVSPost2010PropOp45
 70
     0
102
RTVSPost2010Prop46
 90
       50
102
RTVSPost2010PropOp46
 70
     0
102
RTVSPost2010Prop47
 90
       50
102
RTVSPost2010PropOp47
 70
     0
102
RTVSPost2010Prop48
 90
       50
102
RTVSPost2010PropOp48
 70
     0
102
RTVSPost2010Prop49
280
     0
102
RTVSPost2010PropOp49
 70
     0
102
RTVSPost2010Prop50
 90
       50
102
RTVSPost2010PropOp50
 70
     0
102
RTVSPost2010Prop51ColorIndex
 90
      256
102
RTVSPost2010Prop51ColorRGB
 90
-16777216
102
RTVSPost2010PropOp51
 70
     0
102
RTVSPost2010Prop52
140
1.0
102
RTVSPost2010PropOp52
 70
     0
102
RTVSPost2010Prop53
 90
        2
102
RTVSPost2010PropOp53
 70
     0
102
RTVSPost2010Prop54
  1
strokes_ogs.tif
102
RTVSPost2010PropOp54
 70
     0
102
RTVSPost2010Prop55
280
     0
102
RTVSPost2010PropOp55
 70
     0
102
RTVSPost2010Prop56
140
1.0
102
RTVSPost2010PropOp56
 70
     0
102
RTVSPost2010Prop57
140
1.0
102
RTVSPost2010PropOp57
 70
     0
  0
XRECORD
  5
20E
102
{ACAD_REACTORS
330
20D
102
}
330
20D
100
AcDbXrecord
280
     1
102
RTVSPropertyOp0
 70
     1
102
RTVSPropertyOp1
 70
     1
102
RTVSPropertyOp2
 70
     1
102
RTVSPropertyOp3
 70
     1
102
RTVSPropertyOp4
 70
     1
102
RTVSPropertyOp5
 70
     1
102
RTVSPropertyOp6
 70
     1
102
RTVSPropertyOp7
 70
     1
102
RTVSPropertyOp8
 70
     1
102
RTVSPropertyOp9
 70
     1
102
RTVSPropertyOp10
 70
     1
102
RTVSPropertyOp11
 70
     1
102
RTVSPropertyOp12
 70
     1
102
RTVSPropertyOp13
 70
     1
102
RTVSPropertyOp14
 70
     1
102
RTVSPropertyOp15
 70
     1
102
RTVSPropertyOp16
 70
     1
102
RTVSPropertyOp17
 70
     1
102
RTVSPropertyOp18
 70
     1
102
RTVSPropertyOp19
 70
     1
102
RTVSPropertyOp20
 70
     1
102
RTVSPropertyOp21
 70
     1
102
RTVSPropertyOp22
 70
     1
102
RTVSPropertyOp23
 70
     1
102
RTVSPropertyOp24
 70
     1
102
RTVSPropertyOp25
 70
     1
102
RTVSPropertyOp26
 70
     1
102
RTVSPropertyOp27
 70
     1
102
RTVSPropertyOp28
 70
     1
102
RTVSPropertyOp29
 70
     1
102
RTVSPropertyOp30
 70
     1
102
RTVSPropertyOp31
 70
     1
102
RTVSPropertyOp32
 70
     1
102
RTVSPropertyOp33
 70
     1
102
RTVSPropertyOp34
 70
     1
102
RTVSPropertyOp35
 70
     1
102
RTVSPropertyOp36
 70
     1
102
RTVSPropertyOp37
 70
     1
102
RTVSPropertyOp38
 70
     1
102
RTVSPropertyOp39
 70
     1
102
RTVSPropertyOp40
 70
     1
102
RTVSPropertyOp41
 70
     1
102
RTVSPropertyOp42
 70
     1
102
RTVSPropertyOp43
 70
     1
102
RTVSPropertyOp44
 70
     1
102
RTVSPropertyOp45
 70
     1
102
RTVSPropertyOp46
 70
     1
102
RTVSPropertyOp47
 70
     1
102
RTVSPropertyOp48
 70
     1
102
RTVSPropertyOp49
 70
     1
102
RTVSPropertyOp50
 70
     1
102
RTVSPropertyOp51
 70
     0
102
RTVSPropertyOp52
 70
     0
102
RTVSPropertyOp53
 70
     1
102
RTVSPropertyOp54
 70
     1
102
RTVSPropertyOp55
 70
     1
102
RTVSPropertyOp56
 70
     1
102
RTVSPropertyOp57
 70
     1
102
RTVSPost2010Prop28
280
     0
102
RTVSPost2010PropOp28
 70
     1
102
RTVSPost2010Prop29
280
     1
102
RTVSPost2010PropOp29
 70
     1
102
RTVSPost2010Prop30
280
     1
102
RTVSPost2010PropOp30
 70
     1
102
RTVSPost2010Prop31
280
     0
102
RTVSPost2010PropOp31
 70
     1
102
RTVSPost2010Prop32
280
     0
102
RTVSPost2010PropOp32
 70
     1
102
RTVSPost2010Prop33
280
     0
102
RTVSPost2010PropOp33
 70
     1
102
RTVSPost2010Prop34
280
     0
102
RTVSPost2010PropOp34
 70
     1
102
RTVSPost2010Prop35
280
     0
102
RTVSPost2010PropOp35
 70
     1
102
RTVSPost2010Prop36
280
     0
102
RTVSPost2010PropOp36
 70
     1
102
RTVSPost2010Prop37
 90
       50
102
RTVSPost2010PropOp37
 70
     1
102
RTVSPost2010Prop38
140
0.0
102
RTVSPost2010PropOp38
 70
     1
102
RTVSPost2010Prop39
140
1.0
102
RTVSPost2010PropOp39
 70
     1
102
RTVSPost2010Prop40
 90
        0
102
RTVSPost2010PropOp40
 70
     1
102
RTVSPost2010Prop41ColorIndex
 90
       18
102
RTVSPost2010Prop41ColorRGB
 90
        0
102
RTVSPost2010PropOp41
 70
     1
102
RTVSPost2010Prop42
 90
       50
102
RTVSPost2010PropOp42
 70
     1
102
RTVSPost2010Prop43
 90
        3
102
RTVSPost2010PropOp43
 70
     1
102
RTVSPost2010Prop44ColorIndex
 90
        5
102
RTVSPost2010Prop44ColorRGB
 90
      255
102
RTVSPost2010PropOp44
 70
     1
102
RTVSPost2010Prop45
280
     0
102
RTVSPost2010PropOp45
 70
     1
102
RTVSPost2010Prop46
 90
       50
102
RTVSPost2010PropOp46
 70
     1
102
RTVSPost2010Prop47
 90
       50
102
RTVSPost2010PropOp47
 70
     1
102
RTVSPost2010Prop48
 90
       50
102
RTVSPost2010PropOp48
 70
     1
102
RTVSPost2010Prop49
280
     0
102
RTVSPost2010PropOp49
 70
     1
102
RTVSPost2010Prop50
 90
       50
102
RTVSPost2010PropOp50
 70
     1
102
RTVSPost2010Prop51ColorIndex
 90
      256
102
RTVSPost2010Prop51ColorRGB
 90
-16777216
102
RTVSPost2010PropOp51
 70
     0
102
RTVSPost2010Prop52
140
1.0
102
RTVSPost2010PropOp52
 70
     0
102
RTVSPost2010Prop53
 90
        2
102
RTVSPost2010PropOp53
 70
     1
102
RTVSPost2010Prop54
  1
strokes_ogs.tif
102
RTVSPost2010PropOp54
 70
     1
102
RTVSPost2010Prop55
280
     0
102
RTVSPost2010PropOp55
 70
     1
102
RTVSPost2010Prop56
140
1.0
102
RTVSPost2010PropOp56
 70
     1
102
RTVSPost2010Prop57
140
1.0
102
RTVSPost2010PropOp57
 70
     1
  0
XRECORD
  5
216
102
{ACAD_REACTORS
330
215
102
}
330
215
100
AcDbXrecord
280
     1
102
RTVSPropertyOp0
 70
     0
102
RTVSPropertyOp1
 70
     0
102
RTVSPropertyOp2
 70
     0
102
RTVSPropertyOp3
 70
     0
102
RTVSPropertyOp4
 70
     0
102
RTVSPropertyOp5
 70
     0
102
RTVSPropertyOp6
 70
     0
102
RTVSPropertyOp7
 70
     0
102
RTVSPropertyOp8
 70
     0
102
RTVSPropertyOp9
 70
     0
102
RTVSPropertyOp10
 70
     0
102
RTVSPropertyOp11
 70
     0
102
RTVSPropertyOp12
 70
     0
102
RTVSPropertyOp13
 70
     0
102
RTVSPropertyOp14
 70
     2
102
RTVSPropertyOp15
 70
     0
102
RTVSPropertyOp16
 70
     0
102
RTVSPropertyOp17
 70
     0
102
RTVSPropertyOp18
 70
     0
102
RTVSPropertyOp19
 70
     0
102
RTVSPropertyOp20
 70
     0
102
RTVSPropertyOp21
 70
     0
102
RTVSPropertyOp22
 70
     0
102
RTVSPropertyOp23
 70
     0
102
RTVSPropertyOp24
 70
     0
102
RTVSPropertyOp25
 70
     0
102
RTVSPropertyOp26
 70
     0
102
RTVSPropertyOp27
 70
     0
102
RTVSPropertyOp28
 70
     0
102
RTVSPropertyOp29
 70
     0
102
RTVSPropertyOp30
 70
     0
102
RTVSPropertyOp31
 70
     0
102
RTVSPropertyOp32
 70
     0
102
RTVSPropertyOp33
 70
     0
102
RTVSPropertyOp34
 70
     0
102
RTVSPropertyOp35
 70
     0
102
RTVSPropertyOp36
 70
     0
102
RTVSPropertyOp37
 70
     0
102
RTVSPropertyOp38
 70
     0
102
RTVSPropertyOp39
 70
     0
102
RTVSPropertyOp40
 70
     0
102
RTVSPropertyOp41
 70
     0
102
RTVSPropertyOp42
 70
     0
102
RTVSPropertyOp43
 70
     0
102
RTVSPropertyOp44
 70
     0
102
RTVSPropertyOp45
 70
     0
102
RTVSPropertyOp46
 70
     0
102
RTVSPropertyOp47
 70
     0
102
RTVSPropertyOp48
 70
     0
102
RTVSPropertyOp49
 70
     0
102
RTVSPropertyOp50
 70
     0
102
RTVSPropertyOp51
 70
     0
102
RTVSPropertyOp52
 70
     0
102
RTVSPropertyOp53
 70
     0
102
RTVSPropertyOp54
 70
     0
102
RTVSPropertyOp55
 70
     0
102
RTVSPropertyOp56
 70
     0
102
RTVSPropertyOp57
 70
     0
102
RTVSPost2010Prop28
280
     0
102
RTVSPost2010PropOp28
 70
     0
102
RTVSPost2010Prop29
280
     1
102
RTVSPost2010PropOp29
 70
     0
102
RTVSPost2010Prop30
280
     1
102
RTVSPost2010PropOp30
 70
     0
102
RTVSPost2010Prop31
280
     0
102
RTVSPost2010PropOp31
 70
     0
102
RTVSPost2010Prop32
280
     0
102
RTVSPost2010PropOp32
 70
     0
102
RTVSPost2010Prop33
280
     0
102
RTVSPost2010PropOp33
 70
     0
102
RTVSPost2010Prop34
280
     0
102
RTVSPost2010PropOp34
 70
     0
102
RTVSPost2010Prop35
280
     0
102
RTVSPost2010PropOp35
 70
     0
102
RTVSPost2010Prop36
280
     0
102
RTVSPost2010PropOp36
 70
     0
102
RTVSPost2010Prop37
 90
       50
102
RTVSPost2010PropOp37
 70
     0
102
RTVSPost2010Prop38
140
0.0
102
RTVSPost2010PropOp38
 70
     0
102
RTVSPost2010Prop39
140
1.0
102
RTVSPost2010PropOp39
 70
     0
102
RTVSPost2010Prop40
 90
        0
102
RTVSPost2010PropOp40
 70
     0
102
RTVSPost2010Prop41ColorIndex
 90
       18
102
RTVSPost2010Prop41ColorRGB
 90
        0
102
RTVSPost2010PropOp41
 70
     0
102
RTVSPost2010Prop42
 90
       50
102
RTVSPost2010PropOp42
 70
     0
102
RTVSPost2010Prop43
 90
        3
102
RTVSPost2010PropOp43
 70
     0
102
RTVSPost2010Prop44ColorIndex
 90
        5
102
RTVSPost2010Prop44ColorRGB
 90
      255
102
RTVSPost2010PropOp44
 70
     0
102
RTVSPost2010Prop45
280
     0
102
RTVSPost2010PropOp45
 70
     0
102
RTVSPost2010Prop46
 90
       50
102
RTVSPost2010PropOp46
 70
     0
102
RTVSPost2010Prop47
 90
       50
102
RTVSPost2010PropOp47
 70
     0
102
RTVSPost2010Prop48
 90
       50
102
RTVSPost2010PropOp48
 70
     0
102
RTVSPost2010Prop49
280
     0
102
RTVSPost2010PropOp49
 70
     0
102
RTVSPost2010Prop50
 90
       50
102
RTVSPost2010PropOp50
 70
     0
102
RTVSPost2010Prop51ColorIndex
 90
      256
102
RTVSPost2010Prop51ColorRGB
 90
-16777216
102
RTVSPost2010PropOp51
 70
     0
102
RTVSPost2010Prop52
140
1.0
102
RTVSPost2010PropOp52
 70
     0
102
RTVSPost2010Prop53
 90
        2
102
RTVSPost2010PropOp53
 70
     0
102
RTVSPost2010Prop54
  1
strokes_ogs.tif
102
RTVSPost2010PropOp54
 70
     0
102
RTVSPost2010Prop55
280
     0
102
RTVSPost2010PropOp55
 70
     0
102
RTVSPost2010Prop56
140
1.0
102
RTVSPost2010PropOp56
 70
     0
102
RTVSPost2010Prop57
140
1.0
102
RTVSPost2010PropOp57
 70
     0
  0
XRECORD
  5
204
102
{ACAD_REACTORS
330
203
102
}
330
203
100
AcDbXrecord
280
     1
102
RTVSPropertyOp0
 70
     1
102
RTVSPropertyOp1
 70
     1
102
RTVSPropertyOp2
 70
     1
102
RTVSPropertyOp3
 70
     1
102
RTVSPropertyOp4
 70
     1
102
RTVSPropertyOp5
 70
     1
102
RTVSPropertyOp6
 70
     1
102
RTVSPropertyOp7
 70
     1
102
RTVSPropertyOp8
 70
     1
102
RTVSPropertyOp9
 70
     1
102
RTVSPropertyOp10
 70
     1
102
RTVSPropertyOp11
 70
     1
102
RTVSPropertyOp12
 70
     1
102
RTVSPropertyOp13
 70
     1
102
RTVSPropertyOp14
 70
     1
102
RTVSPropertyOp15
 70
     1
102
RTVSPropertyOp16
 70
     1
102
RTVSPropertyOp17
 70
     1
102
RTVSPropertyOp18
 70
     1
102
RTVSPropertyOp19
 70
     1
102
RTVSPropertyOp20
 70
     1
102
RTVSPropertyOp21
 70
     1
102
RTVSPropertyOp22
 70
     1
102
RTVSPropertyOp23
 70
     1
102
RTVSPropertyOp24
 70
     1
102
RTVSPropertyOp25
 70
     1
102
RTVSPropertyOp26
 70
     1
102
RTVSPropertyOp27
 70
     1
102
RTVSPropertyOp28
 70
     1
102
RTVSPropertyOp29
 70
     1
102
RTVSPropertyOp30
 70
     1
102
RTVSPropertyOp31
 70
     1
102
RTVSPropertyOp32
 70
     1
102
RTVSPropertyOp33
 70
     1
102
RTVSPropertyOp34
 70
     1
102
RTVSPropertyOp35
 70
     1
102
RTVSPropertyOp36
 70
     1
102
RTVSPropertyOp37
 70
     1
102
RTVSPropertyOp38
 70
     1
102
RTVSPropertyOp39
 70
     1
102
RTVSPropertyOp40
 70
     1
102
RTVSPropertyOp41
 70
     1
102
RTVSPropertyOp42
 70
     1
102
RTVSPropertyOp43
 70
     1
102
RTVSPropertyOp44
 70
     1
102
RTVSPropertyOp45
 70
     1
102
RTVSPropertyOp46
 70
     1
102
RTVSPropertyOp47
 70
     1
102
RTVSPropertyOp48
 70
     1
102
RTVSPropertyOp49
 70
     1
102
RTVSPropertyOp50
 70
     1
102
RTVSPropertyOp51
 70
     0
102
RTVSPropertyOp52
 70
     0
102
RTVSPropertyOp53
 70
     1
102
RTVSPropertyOp54
 70
     1
102
RTVSPropertyOp55
 70
     1
102
RTVSPropertyOp56
 70
     1
102
RTVSPropertyOp57
 70
     1
102
RTVSPost2010Prop28
280
     0
102
RTVSPost2010PropOp28
 70
     1
102
RTVSPost2010Prop29
280
     1
102
RTVSPost2010PropOp29
 70
     1
102
RTVSPost2010Prop30
280
     1
102
RTVSPost2010PropOp30
 70
     1
102
RTVSPost2010Prop31
280
     0
102
RTVSPost2010PropOp31
 70
     1
102
RTVSPost2010Prop32
280
     0
102
RTVSPost2010PropOp32
 70
     1
102
RTVSPost2010Prop33
280
     0
102
RTVSPost2010PropOp33
 70
     1
102
RTVSPost2010Prop34
280
     0
102
RTVSPost2010PropOp34
 70
     1
102
RTVSPost2010Prop35
280
     0
102
RTVSPost2010PropOp35
 70
     1
102
RTVSPost2010Prop36
280
     0
102
RTVSPost2010PropOp36
 70
     1
102
RTVSPost2010Prop37
 90
       50
102
RTVSPost2010PropOp37
 70
     1
102
RTVSPost2010Prop38
140
0.0
102
RTVSPost2010PropOp38
 70
     1
102
RTVSPost2010Prop39
140
1.0
102
RTVSPost2010PropOp39
 70
     1
102
RTVSPost2010Prop40
 90
        0
102
RTVSPost2010PropOp40
 70
     1
102
RTVSPost2010Prop41ColorIndex
 90
       18
102
RTVSPost2010Prop41ColorRGB
 90
        0
102
RTVSPost2010PropOp41
 70
     1
102
RTVSPost2010Prop42
 90
       50
102
RTVSPost2010PropOp42
 70
     1
102
RTVSPost2010Prop43
 90
        3
102
RTVSPost2010PropOp43
 70
     1
102
RTVSPost2010Prop44ColorIndex
 90
        5
102
RTVSPost2010Prop44ColorRGB
 90
      255
102
RTVSPost2010PropOp44
 70
     1
102
RTVSPost2010Prop45
280
     0
102
RTVSPost2010PropOp45
 70
     1
102
RTVSPost2010Prop46
 90
       50
102
RTVSPost2010PropOp46
 70
     1
102
RTVSPost2010Prop47
 90
       50
102
RTVSPost2010PropOp47
 70
     1
102
RTVSPost2010Prop48
 90
       50
102
RTVSPost2010PropOp48
 70
     1
102
RTVSPost2010Prop49
280
     0
102
RTVSPost2010PropOp49
 70
     1
102
RTVSPost2010Prop50
 90
       50
102
RTVSPost2010PropOp50
 70
     1
102
RTVSPost2010Prop51ColorIndex
 90
      256
102
RTVSPost2010Prop51ColorRGB
 90
-16777216
102
RTVSPost2010PropOp51
 70
     0
102
RTVSPost2010Prop52
140
1.0
102
RTVSPost2010PropOp52
 70
     0
102
RTVSPost2010Prop53
 90
        2
102
RTVSPost2010PropOp53
 70
     1
102
RTVSPost2010Prop54
  1
strokes_ogs.tif
102
RTVSPost2010PropOp54
 70
     1
102
RTVSPost2010Prop55
280
     0
102
RTVSPost2010PropOp55
 70
     1
102
RTVSPost2010Prop56
140
1.0
102
RTVSPost2010PropOp56
 70
     1
102
RTVSPost2010Prop57
140
1.0
102
RTVSPost2010PropOp57
 70
     1
  0
XRECORD
  5
222
102
{ACAD_REACTORS
330
221
102
}
330
221
100
AcDbXrecord
280
     1
102
RTVSPropertyOp0
 70
     1
102
RTVSPropertyOp1
 70
     1
102
RTVSPropertyOp2
 70
     1
102
RTVSPropertyOp3
 70
     1
102
RTVSPropertyOp4
 70
     1
102
RTVSPropertyOp5
 70
     1
102
RTVSPropertyOp6
 70
     1
102
RTVSPropertyOp7
 70
     1
102
RTVSPropertyOp8
 70
     1
102
RTVSPropertyOp9
 70
     1
102
RTVSPropertyOp10
 70
     1
102
RTVSPropertyOp11
 70
     1
102
RTVSPropertyOp12
 70
     1
102
RTVSPropertyOp13
 70
     1
102
RTVSPropertyOp14
 70
     1
102
RTVSPropertyOp15
 70
     1
102
RTVSPropertyOp16
 70
     1
102
RTVSPropertyOp17
 70
     1
102
RTVSPropertyOp18
 70
     1
102
RTVSPropertyOp19
 70
     1
102
RTVSPropertyOp20
 70
     1
102
RTVSPropertyOp21
 70
     1
102
RTVSPropertyOp22
 70
     1
102
RTVSPropertyOp23
 70
     1
102
RTVSPropertyOp24
 70
     1
102
RTVSPropertyOp25
 70
     1
102
RTVSPropertyOp26
 70
     1
102
RTVSPropertyOp27
 70
     1
102
RTVSPropertyOp28
 70
     1
102
RTVSPropertyOp29
 70
     1
102
RTVSPropertyOp30
 70
     1
102
RTVSPropertyOp31
 70
     1
102
RTVSPropertyOp32
 70
     1
102
RTVSPropertyOp33
 70
     1
102
RTVSPropertyOp34
 70
     1
102
RTVSPropertyOp35
 70
     1
102
RTVSPropertyOp36
 70
     1
102
RTVSPropertyOp37
 70
     1
102
RTVSPropertyOp38
 70
     1
102
RTVSPropertyOp39
 70
     1
102
RTVSPropertyOp40
 70
     1
102
RTVSPropertyOp41
 70
     1
102
RTVSPropertyOp42
 70
     1
102
RTVSPropertyOp43
 70
     1
102
RTVSPropertyOp44
 70
     1
102
RTVSPropertyOp45
 70
     1
102
RTVSPropertyOp46
 70
     1
102
RTVSPropertyOp47
 70
     1
102
RTVSPropertyOp48
 70
     1
102
RTVSPropertyOp49
 70
     1
102
RTVSPropertyOp50
 70
     1
102
RTVSPropertyOp51
 70
     0
102
RTVSPropertyOp52
 70
     0
102
RTVSPropertyOp53
 70
     1
102
RTVSPropertyOp54
 70
     1
102
RTVSPropertyOp55
 70
     1
102
RTVSPropertyOp56
 70
     1
102
RTVSPropertyOp57
 70
     1
102
RTVSPost2010Prop28
280
     0
102
RTVSPost2010PropOp28
 70
     1
102
RTVSPost2010Prop29
280
     1
102
RTVSPost2010PropOp29
 70
     1
102
RTVSPost2010Prop30
280
     1
102
RTVSPost2010PropOp30
 70
     1
102
RTVSPost2010Prop31
280
     0
102
RTVSPost2010PropOp31
 70
     1
102
RTVSPost2010Prop32
280
     0
102
RTVSPost2010PropOp32
 70
     1
102
RTVSPost2010Prop33
280
     0
102
RTVSPost2010PropOp33
 70
     1
102
RTVSPost2010Prop34
280
     0
102
RTVSPost2010PropOp34
 70
     1
102
RTVSPost2010Prop35
280
     0
102
RTVSPost2010PropOp35
 70
     1
102
RTVSPost2010Prop36
280
     0
102
RTVSPost2010PropOp36
 70
     1
102
RTVSPost2010Prop37
 90
       50
102
RTVSPost2010PropOp37
 70
     1
102
RTVSPost2010Prop38
140
0.0
102
RTVSPost2010PropOp38
 70
     1
102
RTVSPost2010Prop39
140
1.0
102
RTVSPost2010PropOp39
 70
     1
102
RTVSPost2010Prop40
 90
        0
102
RTVSPost2010PropOp40
 70
     1
102
RTVSPost2010Prop41ColorIndex
 90
       18
102
RTVSPost2010Prop41ColorRGB
 90
        0
102
RTVSPost2010PropOp41
 70
     1
102
RTVSPost2010Prop42
 90
       50
102
RTVSPost2010PropOp42
 70
     1
102
RTVSPost2010Prop43
 90
        3
102
RTVSPost2010PropOp43
 70
     1
102
RTVSPost2010Prop44ColorIndex
 90
        5
102
RTVSPost2010Prop44ColorRGB
 90
      255
102
RTVSPost2010PropOp44
 70
     1
102
RTVSPost2010Prop45
280
     0
102
RTVSPost2010PropOp45
 70
     1
102
RTVSPost2010Prop46
 90
       50
102
RTVSPost2010PropOp46
 70
     1
102
RTVSPost2010Prop47
 90
       50
102
RTVSPost2010PropOp47
 70
     1
102
RTVSPost2010Prop48
 90
       50
102
RTVSPost2010PropOp48
 70
     1
102
RTVSPost2010Prop49
280
     0
102
RTVSPost2010PropOp49
 70
     1
102
RTVSPost2010Prop50
 90
       50
102
RTVSPost2010PropOp50
 70
     1
102
RTVSPost2010Prop51ColorIndex
 90
      256
102
RTVSPost2010Prop51ColorRGB
 90
-16777216
102
RTVSPost2010PropOp51
 70
     0
102
RTVSPost2010Prop52
140
1.0
102
RTVSPost2010PropOp52
 70
     0
102
RTVSPost2010Prop53
 90
        2
102
RTVSPost2010PropOp53
 70
     1
102
RTVSPost2010Prop54
  1
strokes_ogs.tif
102
RTVSPost2010PropOp54
 70
     1
102
RTVSPost2010Prop55
280
     0
102
RTVSPost2010PropOp55
 70
     1
102
RTVSPost2010Prop56
140
1.0
102
RTVSPost2010PropOp56
 70
     1
102
RTVSPost2010Prop57
140
1.0
102
RTVSPost2010PropOp57
 70
     1
  0
XRECORD
  5
220
102
{ACAD_REACTORS
330
21F
102
}
330
21F
100
AcDbXrecord
280
     1
102
RTVSPropertyOp0
 70
     1
102
RTVSPropertyOp1
 70
     1
102
RTVSPropertyOp2
 70
     1
102
RTVSPropertyOp3
 70
     1
102
RTVSPropertyOp4
 70
     1
102
RTVSPropertyOp5
 70
     1
102
RTVSPropertyOp6
 70
     1
102
RTVSPropertyOp7
 70
     1
102
RTVSPropertyOp8
 70
     1
102
RTVSPropertyOp9
 70
     1
102
RTVSPropertyOp10
 70
     1
102
RTVSPropertyOp11
 70
     1
102
RTVSPropertyOp12
 70
     1
102
RTVSPropertyOp13
 70
     1
102
RTVSPropertyOp14
 70
     1
102
RTVSPropertyOp15
 70
     1
102
RTVSPropertyOp16
 70
     1
102
RTVSPropertyOp17
 70
     1
102
RTVSPropertyOp18
 70
     1
102
RTVSPropertyOp19
 70
     1
102
RTVSPropertyOp20
 70
     1
102
RTVSPropertyOp21
 70
     1
102
RTVSPropertyOp22
 70
     1
102
RTVSPropertyOp23
 70
     1
102
RTVSPropertyOp24
 70
     1
102
RTVSPropertyOp25
 70
     1
102
RTVSPropertyOp26
 70
     1
102
RTVSPropertyOp27
 70
     1
102
RTVSPropertyOp28
 70
     1
102
RTVSPropertyOp29
 70
     1
102
RTVSPropertyOp30
 70
     1
102
RTVSPropertyOp31
 70
     1
102
RTVSPropertyOp32
 70
     1
102
RTVSPropertyOp33
 70
     1
102
RTVSPropertyOp34
 70
     1
102
RTVSPropertyOp35
 70
     1
102
RTVSPropertyOp36
 70
     1
102
RTVSPropertyOp37
 70
     1
102
RTVSPropertyOp38
 70
     1
102
RTVSPropertyOp39
 70
     1
102
RTVSPropertyOp40
 70
     1
102
RTVSPropertyOp41
 70
     1
102
RTVSPropertyOp42
 70
     1
102
RTVSPropertyOp43
 70
     1
102
RTVSPropertyOp44
 70
     1
102
RTVSPropertyOp45
 70
     1
102
RTVSPropertyOp46
 70
     1
102
RTVSPropertyOp47
 70
     1
102
RTVSPropertyOp48
 70
     1
102
RTVSPropertyOp49
 70
     1
102
RTVSPropertyOp50
 70
     1
102
RTVSPropertyOp51
 70
     0
102
RTVSPropertyOp52
 70
     0
102
RTVSPropertyOp53
 70
     1
102
RTVSPropertyOp54
 70
     1
102
RTVSPropertyOp55
 70
     1
102
RTVSPropertyOp56
 70
     1
102
RTVSPropertyOp57
 70
     1
102
RTVSPost2010Prop28
280
     0
102
RTVSPost2010PropOp28
 70
     1
102
RTVSPost2010Prop29
280
     1
102
RTVSPost2010PropOp29
 70
     1
102
RTVSPost2010Prop30
280
     1
102
RTVSPost2010PropOp30
 70
     1
102
RTVSPost2010Prop31
280
     0
102
RTVSPost2010PropOp31
 70
     1
102
RTVSPost2010Prop32
280
     0
102
RTVSPost2010PropOp32
 70
     1
102
RTVSPost2010Prop33
280
     0
102
RTVSPost2010PropOp33
 70
     1
102
RTVSPost2010Prop34
280
     0
102
RTVSPost2010PropOp34
 70
     1
102
RTVSPost2010Prop35
280
     0
102
RTVSPost2010PropOp35
 70
     1
102
RTVSPost2010Prop36
280
     0
102
RTVSPost2010PropOp36
 70
     1
102
RTVSPost2010Prop37
 90
       50
102
RTVSPost2010PropOp37
 70
     1
102
RTVSPost2010Prop38
140
0.0
102
RTVSPost2010PropOp38
 70
     1
102
RTVSPost2010Prop39
140
1.0
102
RTVSPost2010PropOp39
 70
     1
102
RTVSPost2010Prop40
 90
        0
102
RTVSPost2010PropOp40
 70
     1
102
RTVSPost2010Prop41ColorIndex
 90
       18
102
RTVSPost2010Prop41ColorRGB
 90
        0
102
RTVSPost2010PropOp41
 70
     1
102
RTVSPost2010Prop42
 90
       50
102
RTVSPost2010PropOp42
 70
     1
102
RTVSPost2010Prop43
 90
        3
102
RTVSPost2010PropOp43
 70
     1
102
RTVSPost2010Prop44ColorIndex
 90
        5
102
RTVSPost2010Prop44ColorRGB
 90
      255
102
RTVSPost2010PropOp44
 70
     1
102
RTVSPost2010Prop45
280
     0
102
RTVSPost2010PropOp45
 70
     1
102
RTVSPost2010Prop46
 90
       50
102
RTVSPost2010PropOp46
 70
     1
102
RTVSPost2010Prop47
 90
       50
102
RTVSPost2010PropOp47
 70
     1
102
RTVSPost2010Prop48
 90
       50
102
RTVSPost2010PropOp48
 70
     1
102
RTVSPost2010Prop49
280
     0
102
RTVSPost2010PropOp49
 70
     1
102
RTVSPost2010Prop50
 90
       50
102
RTVSPost2010PropOp50
 70
     1
102
RTVSPost2010Prop51ColorIndex
 90
      256
102
RTVSPost2010Prop51ColorRGB
 90
-16777216
102
RTVSPost2010PropOp51
 70
     0
102
RTVSPost2010Prop52
140
1.0
102
RTVSPost2010PropOp52
 70
     0
102
RTVSPost2010Prop53
 90
        2
102
RTVSPost2010PropOp53
 70
     1
102
RTVSPost2010Prop54
  1
strokes_ogs.tif
102
RTVSPost2010PropOp54
 70
     1
102
RTVSPost2010Prop55
280
     0
102
RTVSPost2010PropOp55
 70
     1
102
RTVSPost2010Prop56
140
1.0
102
RTVSPost2010PropOp56
 70
     1
102
RTVSPost2010Prop57
140
1.0
102
RTVSPost2010PropOp57
 70
     1
  0
XRECORD
  5
21A
102
{ACAD_REACTORS
330
219
102
}
330
219
100
AcDbXrecord
280
     1
102
RTVSPropertyOp0
 70
     1
102
RTVSPropertyOp1
 70
     1
102
RTVSPropertyOp2
 70
     1
102
RTVSPropertyOp3
 70
     1
102
RTVSPropertyOp4
 70
     1
102
RTVSPropertyOp5
 70
     1
102
RTVSPropertyOp6
 70
     1
102
RTVSPropertyOp7
 70
     1
102
RTVSPropertyOp8
 70
     1
102
RTVSPropertyOp9
 70
     1
102
RTVSPropertyOp10
 70
     1
102
RTVSPropertyOp11
 70
     1
102
RTVSPropertyOp12
 70
     1
102
RTVSPropertyOp13
 70
     1
102
RTVSPropertyOp14
 70
     1
102
RTVSPropertyOp15
 70
     1
102
RTVSPropertyOp16
 70
     1
102
RTVSPropertyOp17
 70
     1
102
RTVSPropertyOp18
 70
     1
102
RTVSPropertyOp19
 70
     1
102
RTVSPropertyOp20
 70
     1
102
RTVSPropertyOp21
 70
     1
102
RTVSPropertyOp22
 70
     1
102
RTVSPropertyOp23
 70
     1
102
RTVSPropertyOp24
 70
     1
102
RTVSPropertyOp25
 70
     1
102
RTVSPropertyOp26
 70
     1
102
RTVSPropertyOp27
 70
     1
102
RTVSPropertyOp28
 70
     1
102
RTVSPropertyOp29
 70
     1
102
RTVSPropertyOp30
 70
     1
102
RTVSPropertyOp31
 70
     1
102
RTVSPropertyOp32
 70
     1
102
RTVSPropertyOp33
 70
     1
102
RTVSPropertyOp34
 70
     1
102
RTVSPropertyOp35
 70
     1
102
RTVSPropertyOp36
 70
     1
102
RTVSPropertyOp37
 70
     1
102
RTVSPropertyOp38
 70
     1
102
RTVSPropertyOp39
 70
     1
102
RTVSPropertyOp40
 70
     1
102
RTVSPropertyOp41
 70
     1
102
RTVSPropertyOp42
 70
     1
102
RTVSPropertyOp43
 70
     1
102
RTVSPropertyOp44
 70
     1
102
RTVSPropertyOp45
 70
     1
102
RTVSPropertyOp46
 70
     1
102
RTVSPropertyOp47
 70
     1
102
RTVSPropertyOp48
 70
     1
102
RTVSPropertyOp49
 70
     1
102
RTVSPropertyOp50
 70
     1
102
RTVSPropertyOp51
 70
     0
102
RTVSPropertyOp52
 70
     0
102
RTVSPropertyOp53
 70
     1
102
RTVSPropertyOp54
 70
     1
102
RTVSPropertyOp55
 70
     1
102
RTVSPropertyOp56
 70
     1
102
RTVSPropertyOp57
 70
     1
102
RTVSPost2010Prop28
280
     0
102
RTVSPost2010PropOp28
 70
     1
102
RTVSPost2010Prop29
280
     1
102
RTVSPost2010PropOp29
 70
     1
102
RTVSPost2010Prop30
280
     1
102
RTVSPost2010PropOp30
 70
     1
102
RTVSPost2010Prop31
280
     0
102
RTVSPost2010PropOp31
 70
     1
102
RTVSPost2010Prop32
280
     0
102
RTVSPost2010PropOp32
 70
     1
102
RTVSPost2010Prop33
280
     0
102
RTVSPost2010PropOp33
 70
     1
102
RTVSPost2010Prop34
280
     0
102
RTVSPost2010PropOp34
 70
     1
102
RTVSPost2010Prop35
280
     0
102
RTVSPost2010PropOp35
 70
     1
102
RTVSPost2010Prop36
280
     0
102
RTVSPost2010PropOp36
 70
     1
102
RTVSPost2010Prop37
 90
       50
102
RTVSPost2010PropOp37
 70
     1
102
RTVSPost2010Prop38
140
0.0
102
RTVSPost2010PropOp38
 70
     1
102
RTVSPost2010Prop39
140
1.0
102
RTVSPost2010PropOp39
 70
     1
102
RTVSPost2010Prop40
 90
        0
102
RTVSPost2010PropOp40
 70
     1
102
RTVSPost2010Prop41ColorIndex
 90
       18
102
RTVSPost2010Prop41ColorRGB
 90
        0
102
RTVSPost2010PropOp41
 70
     1
102
RTVSPost2010Prop42
 90
       50
102
RTVSPost2010PropOp42
 70
     1
102
RTVSPost2010Prop43
 90
        3
102
RTVSPost2010PropOp43
 70
     1
102
RTVSPost2010Prop44ColorIndex
 90
        5
102
RTVSPost2010Prop44ColorRGB
 90
      255
102
RTVSPost2010PropOp44
 70
     1
102
RTVSPost2010Prop45
280
     0
102
RTVSPost2010PropOp45
 70
     1
102
RTVSPost2010Prop46
 90
       50
102
RTVSPost2010PropOp46
 70
     1
102
RTVSPost2010Prop47
 90
       50
102
RTVSPost2010PropOp47
 70
     1
102
RTVSPost2010Prop48
 90
       50
102
RTVSPost2010PropOp48
 70
     1
102
RTVSPost2010Prop49
280
     0
102
RTVSPost2010PropOp49
 70
     1
102
RTVSPost2010Prop50
 90
       50
102
RTVSPost2010PropOp50
 70
     1
102
RTVSPost2010Prop51ColorIndex
 90
      256
102
RTVSPost2010Prop51ColorRGB
 90
-16777216
102
RTVSPost2010PropOp51
 70
     0
102
RTVSPost2010Prop52
140
1.0
102
RTVSPost2010PropOp52
 70
     0
102
RTVSPost2010Prop53
 90
        2
102
RTVSPost2010PropOp53
 70
     1
102
RTVSPost2010Prop54
  1
strokes_ogs.tif
102
RTVSPost2010PropOp54
 70
     1
102
RTVSPost2010Prop55
280
     0
102
RTVSPost2010PropOp55
 70
     1
102
RTVSPost2010Prop56
140
1.0
102
RTVSPost2010PropOp56
 70
     1
102
RTVSPost2010Prop57
140
1.0
102
RTVSPost2010PropOp57
 70
     1
  0
XRECORD
  5
21C
102
{ACAD_REACTORS
330
21B
102
}
330
21B
100
AcDbXrecord
280
     1
102
RTVSPropertyOp0
 70
     1
102
RTVSPropertyOp1
 70
     1
102
RTVSPropertyOp2
 70
     1
102
RTVSPropertyOp3
 70
     1
102
RTVSPropertyOp4
 70
     1
102
RTVSPropertyOp5
 70
     1
102
RTVSPropertyOp6
 70
     1
102
RTVSPropertyOp7
 70
     1
102
RTVSPropertyOp8
 70
     1
102
RTVSPropertyOp9
 70
     1
102
RTVSPropertyOp10
 70
     1
102
RTVSPropertyOp11
 70
     1
102
RTVSPropertyOp12
 70
     1
102
RTVSPropertyOp13
 70
     1
102
RTVSPropertyOp14
 70
     1
102
RTVSPropertyOp15
 70
     1
102
RTVSPropertyOp16
 70
     1
102
RTVSPropertyOp17
 70
     1
102
RTVSPropertyOp18
 70
     1
102
RTVSPropertyOp19
 70
     1
102
RTVSPropertyOp20
 70
     1
102
RTVSPropertyOp21
 70
     1
102
RTVSPropertyOp22
 70
     1
102
RTVSPropertyOp23
 70
     1
102
RTVSPropertyOp24
 70
     1
102
RTVSPropertyOp25
 70
     1
102
RTVSPropertyOp26
 70
     1
102
RTVSPropertyOp27
 70
     1
102
RTVSPropertyOp28
 70
     1
102
RTVSPropertyOp29
 70
     1
102
RTVSPropertyOp30
 70
     1
102
RTVSPropertyOp31
 70
     1
102
RTVSPropertyOp32
 70
     1
102
RTVSPropertyOp33
 70
     1
102
RTVSPropertyOp34
 70
     1
102
RTVSPropertyOp35
 70
     1
102
RTVSPropertyOp36
 70
     1
102
RTVSPropertyOp37
 70
     1
102
RTVSPropertyOp38
 70
     1
102
RTVSPropertyOp39
 70
     1
102
RTVSPropertyOp40
 70
     1
102
RTVSPropertyOp41
 70
     1
102
RTVSPropertyOp42
 70
     1
102
RTVSPropertyOp43
 70
     1
102
RTVSPropertyOp44
 70
     1
102
RTVSPropertyOp45
 70
     1
102
RTVSPropertyOp46
 70
     1
102
RTVSPropertyOp47
 70
     1
102
RTVSPropertyOp48
 70
     1
102
RTVSPropertyOp49
 70
     1
102
RTVSPropertyOp50
 70
     1
102
RTVSPropertyOp51
 70
     0
102
RTVSPropertyOp52
 70
     0
102
RTVSPropertyOp53
 70
     1
102
RTVSPropertyOp54
 70
     1
102
RTVSPropertyOp55
 70
     1
102
RTVSPropertyOp56
 70
     1
102
RTVSPropertyOp57
 70
     1
102
RTVSPost2010Prop28
280
     0
102
RTVSPost2010PropOp28
 70
     1
102
RTVSPost2010Prop29
280
     1
102
RTVSPost2010PropOp29
 70
     1
102
RTVSPost2010Prop30
280
     1
102
RTVSPost2010PropOp30
 70
     1
102
RTVSPost2010Prop31
280
     0
102
RTVSPost2010PropOp31
 70
     1
102
RTVSPost2010Prop32
280
     0
102
RTVSPost2010PropOp32
 70
     1
102
RTVSPost2010Prop33
280
     0
102
RTVSPost2010PropOp33
 70
     1
102
RTVSPost2010Prop34
280
     0
102
RTVSPost2010PropOp34
 70
     1
102
RTVSPost2010Prop35
280
     0
102
RTVSPost2010PropOp35
 70
     1
102
RTVSPost2010Prop36
280
     0
102
RTVSPost2010PropOp36
 70
     1
102
RTVSPost2010Prop37
 90
       50
102
RTVSPost2010PropOp37
 70
     1
102
RTVSPost2010Prop38
140
0.0
102
RTVSPost2010PropOp38
 70
     1
102
RTVSPost2010Prop39
140
1.0
102
RTVSPost2010PropOp39
 70
     1
102
RTVSPost2010Prop40
 90
        0
102
RTVSPost2010PropOp40
 70
     1
102
RTVSPost2010Prop41ColorIndex
 90
       18
102
RTVSPost2010Prop41ColorRGB
 90
        0
102
RTVSPost2010PropOp41
 70
     1
102
RTVSPost2010Prop42
 90
       50
102
RTVSPost2010PropOp42
 70
     1
102
RTVSPost2010Prop43
 90
        3
102
RTVSPost2010PropOp43
 70
     1
102
RTVSPost2010Prop44ColorIndex
 90
        5
102
RTVSPost2010Prop44ColorRGB
 90
      255
102
RTVSPost2010PropOp44
 70
     1
102
RTVSPost2010Prop45
280
     0
102
RTVSPost2010PropOp45
 70
     1
102
RTVSPost2010Prop46
 90
       50
102
RTVSPost2010PropOp46
 70
     1
102
RTVSPost2010Prop47
 90
       50
102
RTVSPost2010PropOp47
 70
     1
102
RTVSPost2010Prop48
 90
       50
102
RTVSPost2010PropOp48
 70
     1
102
RTVSPost2010Prop49
280
     0
102
RTVSPost2010PropOp49
 70
     1
102
RTVSPost2010Prop50
 90
       50
102
RTVSPost2010PropOp50
 70
     1
102
RTVSPost2010Prop51ColorIndex
 90
      256
102
RTVSPost2010Prop51ColorRGB
 90
-16777216
102
RTVSPost2010PropOp51
 70
     0
102
RTVSPost2010Prop52
140
1.0
102
RTVSPost2010PropOp52
 70
     0
102
RTVSPost2010Prop53
 90
        2
102
RTVSPost2010PropOp53
 70
     1
102
RTVSPost2010Prop54
  1
strokes_ogs.tif
102
RTVSPost2010PropOp54
 70
     1
102
RTVSPost2010Prop55
280
     0
102
RTVSPost2010PropOp55
 70
     1
102
RTVSPost2010Prop56
140
1.0
102
RTVSPost2010PropOp56
 70
     1
102
RTVSPost2010Prop57
140
1.0
102
RTVSPost2010PropOp57
 70
     1
  0
XRECORD
  5
20C
102
{ACAD_REACTORS
330
20B
102
}
330
20B
100
AcDbXrecord
280
     1
102
RTVSPropertyOp0
 70
     1
102
RTVSPropertyOp1
 70
     1
102
RTVSPropertyOp2
 70
     1
102
RTVSPropertyOp3
 70
     1
102
RTVSPropertyOp4
 70
     1
102
RTVSPropertyOp5
 70
     1
102
RTVSPropertyOp6
 70
     1
102
RTVSPropertyOp7
 70
     1
102
RTVSPropertyOp8
 70
     1
102
RTVSPropertyOp9
 70
     1
102
RTVSPropertyOp10
 70
     1
102
RTVSPropertyOp11
 70
     1
102
RTVSPropertyOp12
 70
     1
102
RTVSPropertyOp13
 70
     1
102
RTVSPropertyOp14
 70
     1
102
RTVSPropertyOp15
 70
     1
102
RTVSPropertyOp16
 70
     1
102
RTVSPropertyOp17
 70
     1
102
RTVSPropertyOp18
 70
     1
102
RTVSPropertyOp19
 70
     1
102
RTVSPropertyOp20
 70
     1
102
RTVSPropertyOp21
 70
     1
102
RTVSPropertyOp22
 70
     1
102
RTVSPropertyOp23
 70
     1
102
RTVSPropertyOp24
 70
     1
102
RTVSPropertyOp25
 70
     1
102
RTVSPropertyOp26
 70
     1
102
RTVSPropertyOp27
 70
     1
102
RTVSPropertyOp28
 70
     1
102
RTVSPropertyOp29
 70
     1
102
RTVSPropertyOp30
 70
     1
102
RTVSPropertyOp31
 70
     1
102
RTVSPropertyOp32
 70
     1
102
RTVSPropertyOp33
 70
     1
102
RTVSPropertyOp34
 70
     1
102
RTVSPropertyOp35
 70
     1
102
RTVSPropertyOp36
 70
     1
102
RTVSPropertyOp37
 70
     1
102
RTVSPropertyOp38
 70
     1
102
RTVSPropertyOp39
 70
     1
102
RTVSPropertyOp40
 70
     1
102
RTVSPropertyOp41
 70
     1
102
RTVSPropertyOp42
 70
     1
102
RTVSPropertyOp43
 70
     1
102
RTVSPropertyOp44
 70
     1
102
RTVSPropertyOp45
 70
     1
102
RTVSPropertyOp46
 70
     1
102
RTVSPropertyOp47
 70
     1
102
RTVSPropertyOp48
 70
     1
102
RTVSPropertyOp49
 70
     1
102
RTVSPropertyOp50
 70
     1
102
RTVSPropertyOp51
 70
     0
102
RTVSPropertyOp52
 70
     0
102
RTVSPropertyOp53
 70
     1
102
RTVSPropertyOp54
 70
     1
102
RTVSPropertyOp55
 70
     1
102
RTVSPropertyOp56
 70
     1
102
RTVSPropertyOp57
 70
     1
102
RTVSPost2010Prop28
280
     0
102
RTVSPost2010PropOp28
 70
     1
102
RTVSPost2010Prop29
280
     1
102
RTVSPost2010PropOp29
 70
     1
102
RTVSPost2010Prop30
280
     1
102
RTVSPost2010PropOp30
 70
     1
102
RTVSPost2010Prop31
280
     0
102
RTVSPost2010PropOp31
 70
     1
102
RTVSPost2010Prop32
280
     0
102
RTVSPost2010PropOp32
 70
     1
102
RTVSPost2010Prop33
280
     0
102
RTVSPost2010PropOp33
 70
     1
102
RTVSPost2010Prop34
280
     0
102
RTVSPost2010PropOp34
 70
     1
102
RTVSPost2010Prop35
280
     0
102
RTVSPost2010PropOp35
 70
     1
102
RTVSPost2010Prop36
280
     0
102
RTVSPost2010PropOp36
 70
     1
102
RTVSPost2010Prop37
 90
       50
102
RTVSPost2010PropOp37
 70
     1
102
RTVSPost2010Prop38
140
0.0
102
RTVSPost2010PropOp38
 70
     1
102
RTVSPost2010Prop39
140
1.0
102
RTVSPost2010PropOp39
 70
     1
102
RTVSPost2010Prop40
 90
        0
102
RTVSPost2010PropOp40
 70
     1
102
RTVSPost2010Prop41ColorIndex
 90
       18
102
RTVSPost2010Prop41ColorRGB
 90
        0
102
RTVSPost2010PropOp41
 70
     1
102
RTVSPost2010Prop42
 90
       50
102
RTVSPost2010PropOp42
 70
     1
102
RTVSPost2010Prop43
 90
        3
102
RTVSPost2010PropOp43
 70
     1
102
RTVSPost2010Prop44ColorIndex
 90
        5
102
RTVSPost2010Prop44ColorRGB
 90
      255
102
RTVSPost2010PropOp44
 70
     1
102
RTVSPost2010Prop45
280
     0
102
RTVSPost2010PropOp45
 70
     1
102
RTVSPost2010Prop46
 90
       50
102
RTVSPost2010PropOp46
 70
     1
102
RTVSPost2010Prop47
 90
       50
102
RTVSPost2010PropOp47
 70
     1
102
RTVSPost2010Prop48
 90
       50
102
RTVSPost2010PropOp48
 70
     1
102
RTVSPost2010Prop49
280
     0
102
RTVSPost2010PropOp49
 70
     1
102
RTVSPost2010Prop50
 90
       50
102
RTVSPost2010PropOp50
 70
     1
102
RTVSPost2010Prop51ColorIndex
 90
      256
102
RTVSPost2010Prop51ColorRGB
 90
-16777216
102
RTVSPost2010PropOp51
 70
     0
102
RTVSPost2010Prop52
140
1.0
102
RTVSPost2010PropOp52
 70
     0
102
RTVSPost2010Prop53
 90
        2
102
RTVSPost2010PropOp53
 70
     1
102
RTVSPost2010Prop54
  1
strokes_ogs.tif
102
RTVSPost2010PropOp54
 70
     1
102
RTVSPost2010Prop55
280
     0
102
RTVSPost2010PropOp55
 70
     1
102
RTVSPost2010Prop56
140
1.0
102
RTVSPost2010PropOp56
 70
     1
102
RTVSPost2010Prop57
140
1.0
102
RTVSPost2010PropOp57
 70
     1
  0
XRECORD
  5
1FE
102
{ACAD_REACTORS
330
1FD
102
}
330
1FD
100
AcDbXrecord
280
     1
102
RTVSPropertyOp0
 70
     1
102
RTVSPropertyOp1
 70
     1
102
RTVSPropertyOp2
 70
     1
102
RTVSPropertyOp3
 70
     1
102
RTVSPropertyOp4
 70
     1
102
RTVSPropertyOp5
 70
     1
102
RTVSPropertyOp6
 70
     1
102
RTVSPropertyOp7
 70
     1
102
RTVSPropertyOp8
 70
     1
102
RTVSPropertyOp9
 70
     1
102
RTVSPropertyOp10
 70
     1
102
RTVSPropertyOp11
 70
     1
102
RTVSPropertyOp12
 70
     1
102
RTVSPropertyOp13
 70
     1
102
RTVSPropertyOp14
 70
     1
102
RTVSPropertyOp15
 70
     1
102
RTVSPropertyOp16
 70
     1
102
RTVSPropertyOp17
 70
     1
102
RTVSPropertyOp18
 70
     1
102
RTVSPropertyOp19
 70
     1
102
RTVSPropertyOp20
 70
     1
102
RTVSPropertyOp21
 70
     1
102
RTVSPropertyOp22
 70
     1
102
RTVSPropertyOp23
 70
     1
102
RTVSPropertyOp24
 70
     1
102
RTVSPropertyOp25
 70
     1
102
RTVSPropertyOp26
 70
     1
102
RTVSPropertyOp27
 70
     1
102
RTVSPropertyOp28
 70
     1
102
RTVSPropertyOp29
 70
     1
102
RTVSPropertyOp30
 70
     1
102
RTVSPropertyOp31
 70
     1
102
RTVSPropertyOp32
 70
     1
102
RTVSPropertyOp33
 70
     1
102
RTVSPropertyOp34
 70
     1
102
RTVSPropertyOp35
 70
     1
102
RTVSPropertyOp36
 70
     1
102
RTVSPropertyOp37
 70
     1
102
RTVSPropertyOp38
 70
     1
102
RTVSPropertyOp39
 70
     1
102
RTVSPropertyOp40
 70
     1
102
RTVSPropertyOp41
 70
     1
102
RTVSPropertyOp42
 70
     1
102
RTVSPropertyOp43
 70
     1
102
RTVSPropertyOp44
 70
     1
102
RTVSPropertyOp45
 70
     1
102
RTVSPropertyOp46
 70
     1
102
RTVSPropertyOp47
 70
     1
102
RTVSPropertyOp48
 70
     1
102
RTVSPropertyOp49
 70
     1
102
RTVSPropertyOp50
 70
     1
102
RTVSPropertyOp51
 70
     0
102
RTVSPropertyOp52
 70
     0
102
RTVSPropertyOp53
 70
     1
102
RTVSPropertyOp54
 70
     1
102
RTVSPropertyOp55
 70
     1
102
RTVSPropertyOp56
 70
     1
102
RTVSPropertyOp57
 70
     1
102
RTVSPost2010Prop28
280
     0
102
RTVSPost2010PropOp28
 70
     1
102
RTVSPost2010Prop29
280
     1
102
RTVSPost2010PropOp29
 70
     1
102
RTVSPost2010Prop30
280
     1
102
RTVSPost2010PropOp30
 70
     1
102
RTVSPost2010Prop31
280
     0
102
RTVSPost2010PropOp31
 70
     1
102
RTVSPost2010Prop32
280
     0
102
RTVSPost2010PropOp32
 70
     1
102
RTVSPost2010Prop33
280
     0
102
RTVSPost2010PropOp33
 70
     1
102
RTVSPost2010Prop34
280
     0
102
RTVSPost2010PropOp34
 70
     1
102
RTVSPost2010Prop35
280
     0
102
RTVSPost2010PropOp35
 70
     1
102
RTVSPost2010Prop36
280
     0
102
RTVSPost2010PropOp36
 70
     1
102
RTVSPost2010Prop37
 90
       50
102
RTVSPost2010PropOp37
 70
     1
102
RTVSPost2010Prop38
140
0.0
102
RTVSPost2010PropOp38
 70
     1
102
RTVSPost2010Prop39
140
1.0
102
RTVSPost2010PropOp39
 70
     1
102
RTVSPost2010Prop40
 90
        0
102
RTVSPost2010PropOp40
 70
     1
102
RTVSPost2010Prop41ColorIndex
 90
       18
102
RTVSPost2010Prop41ColorRGB
 90
        0
102
RTVSPost2010PropOp41
 70
     1
102
RTVSPost2010Prop42
 90
       50
102
RTVSPost2010PropOp42
 70
     1
102
RTVSPost2010Prop43
 90
        3
102
RTVSPost2010PropOp43
 70
     1
102
RTVSPost2010Prop44ColorIndex
 90
        5
102
RTVSPost2010Prop44ColorRGB
 90
      255
102
RTVSPost2010PropOp44
 70
     1
102
RTVSPost2010Prop45
280
     0
102
RTVSPost2010PropOp45
 70
     1
102
RTVSPost2010Prop46
 90
       50
102
RTVSPost2010PropOp46
 70
     1
102
RTVSPost2010Prop47
 90
       50
102
RTVSPost2010PropOp47
 70
     1
102
RTVSPost2010Prop48
 90
       50
102
RTVSPost2010PropOp48
 70
     1
102
RTVSPost2010Prop49
280
     0
102
RTVSPost2010PropOp49
 70
     1
102
RTVSPost2010Prop50
 90
       50
102
RTVSPost2010PropOp50
 70
     1
102
RTVSPost2010Prop51ColorIndex
 90
      256
102
RTVSPost2010Prop51ColorRGB
 90
-16777216
102
RTVSPost2010PropOp51
 70
     0
102
RTVSPost2010Prop52
140
1.0
102
RTVSPost2010PropOp52
 70
     0
102
RTVSPost2010Prop53
 90
        2
102
RTVSPost2010PropOp53
 70
     1
102
RTVSPost2010Prop54
  1
strokes_ogs.tif
102
RTVSPost2010PropOp54
 70
     1
102
RTVSPost2010Prop55
280
     0
102
RTVSPost2010PropOp55
 70
     1
102
RTVSPost2010Prop56
140
1.0
102
RTVSPost2010PropOp56
 70
     1
102
RTVSPost2010Prop57
140
1.0
102
RTVSPost2010PropOp57
 70
     1
  0
XRECORD
  5
21E
102
{ACAD_REACTORS
330
21D
102
}
330
21D
100
AcDbXrecord
280
     1
102
RTVSPropertyOp0
 70
     1
102
RTVSPropertyOp1
 70
     1
102
RTVSPropertyOp2
 70
     1
102
RTVSPropertyOp3
 70
     1
102
RTVSPropertyOp4
 70
     1
102
RTVSPropertyOp5
 70
     1
102
RTVSPropertyOp6
 70
     1
102
RTVSPropertyOp7
 70
     1
102
RTVSPropertyOp8
 70
     1
102
RTVSPropertyOp9
 70
     1
102
RTVSPropertyOp10
 70
     1
102
RTVSPropertyOp11
 70
     1
102
RTVSPropertyOp12
 70
     1
102
RTVSPropertyOp13
 70
     1
102
RTVSPropertyOp14
 70
     1
102
RTVSPropertyOp15
 70
     1
102
RTVSPropertyOp16
 70
     1
102
RTVSPropertyOp17
 70
     1
102
RTVSPropertyOp18
 70
     1
102
RTVSPropertyOp19
 70
     1
102
RTVSPropertyOp20
 70
     1
102
RTVSPropertyOp21
 70
     1
102
RTVSPropertyOp22
 70
     1
102
RTVSPropertyOp23
 70
     1
102
RTVSPropertyOp24
 70
     1
102
RTVSPropertyOp25
 70
     1
102
RTVSPropertyOp26
 70
     1
102
RTVSPropertyOp27
 70
     1
102
RTVSPropertyOp28
 70
     1
102
RTVSPropertyOp29
 70
     1
102
RTVSPropertyOp30
 70
     1
102
RTVSPropertyOp31
 70
     1
102
RTVSPropertyOp32
 70
     1
102
RTVSPropertyOp33
 70
     1
102
RTVSPropertyOp34
 70
     1
102
RTVSPropertyOp35
 70
     1
102
RTVSPropertyOp36
 70
     1
102
RTVSPropertyOp37
 70
     1
102
RTVSPropertyOp38
 70
     1
102
RTVSPropertyOp39
 70
     1
102
RTVSPropertyOp40
 70
     1
102
RTVSPropertyOp41
 70
     1
102
RTVSPropertyOp42
 70
     1
102
RTVSPropertyOp43
 70
     1
102
RTVSPropertyOp44
 70
     1
102
RTVSPropertyOp45
 70
     1
102
RTVSPropertyOp46
 70
     1
102
RTVSPropertyOp47
 70
     1
102
RTVSPropertyOp48
 70
     1
102
RTVSPropertyOp49
 70
     1
102
RTVSPropertyOp50
 70
     1
102
RTVSPropertyOp51
 70
     0
102
RTVSPropertyOp52
 70
     0
102
RTVSPropertyOp53
 70
     1
102
RTVSPropertyOp54
 70
     1
102
RTVSPropertyOp55
 70
     1
102
RTVSPropertyOp56
 70
     1
102
RTVSPropertyOp57
 70
     1
102
RTVSPost2010Prop28
280
     0
102
RTVSPost2010PropOp28
 70
     1
102
RTVSPost2010Prop29
280
     1
102
RTVSPost2010PropOp29
 70
     1
102
RTVSPost2010Prop30
280
     1
102
RTVSPost2010PropOp30
 70
     1
102
RTVSPost2010Prop31
280
     0
102
RTVSPost2010PropOp31
 70
     1
102
RTVSPost2010Prop32
280
     0
102
RTVSPost2010PropOp32
 70
     1
102
RTVSPost2010Prop33
280
     0
102
RTVSPost2010PropOp33
 70
     1
102
RTVSPost2010Prop34
280
     0
102
RTVSPost2010PropOp34
 70
     1
102
RTVSPost2010Prop35
280
     0
102
RTVSPost2010PropOp35
 70
     1
102
RTVSPost2010Prop36
280
     0
102
RTVSPost2010PropOp36
 70
     1
102
RTVSPost2010Prop37
 90
       50
102
RTVSPost2010PropOp37
 70
     1
102
RTVSPost2010Prop38
140
0.0
102
RTVSPost2010PropOp38
 70
     1
102
RTVSPost2010Prop39
140
1.0
102
RTVSPost2010PropOp39
 70
     1
102
RTVSPost2010Prop40
 90
        0
102
RTVSPost2010PropOp40
 70
     1
102
RTVSPost2010Prop41ColorIndex
 90
       18
102
RTVSPost2010Prop41ColorRGB
 90
        0
102
RTVSPost2010PropOp41
 70
     1
102
RTVSPost2010Prop42
 90
       50
102
RTVSPost2010PropOp42
 70
     1
102
RTVSPost2010Prop43
 90
        3
102
RTVSPost2010PropOp43
 70
     1
102
RTVSPost2010Prop44ColorIndex
 90
        5
102
RTVSPost2010Prop44ColorRGB
 90
      255
102
RTVSPost2010PropOp44
 70
     1
102
RTVSPost2010Prop45
280
     0
102
RTVSPost2010PropOp45
 70
     1
102
RTVSPost2010Prop46
 90
       50
102
RTVSPost2010PropOp46
 70
     1
102
RTVSPost2010Prop47
 90
       50
102
RTVSPost2010PropOp47
 70
     1
102
RTVSPost2010Prop48
 90
       50
102
RTVSPost2010PropOp48
 70
     1
102
RTVSPost2010Prop49
280
     0
102
RTVSPost2010PropOp49
 70
     1
102
RTVSPost2010Prop50
 90
       50
102
RTVSPost2010PropOp50
 70
     1
102
RTVSPost2010Prop51ColorIndex
 90
      256
102
RTVSPost2010Prop51ColorRGB
 90
-16777216
102
RTVSPost2010PropOp51
 70
     0
102
RTVSPost2010Prop52
140
1.0
102
RTVSPost2010PropOp52
 70
     0
102
RTVSPost2010Prop53
 90
        2
102
RTVSPost2010PropOp53
 70
     1
102
RTVSPost2010Prop54
  1
strokes_ogs.tif
102
RTVSPost2010PropOp54
 70
     1
102
RTVSPost2010Prop55
280
     0
102
RTVSPost2010PropOp55
 70
     1
102
RTVSPost2010Prop56
140
1.0
102
RTVSPost2010PropOp56
 70
     1
102
RTVSPost2010Prop57
140
1.0
102
RTVSPost2010PropOp57
 70
     1
  0
ENDSEC
  0
EOF
