  0
SECTION
  2
HEADER
  9
$ACADVER
  1
AC1015
  9
$ACADMAINTVER
 70
     6
  9
$DWGCODEPAGE
  3
ANSI_1252
  9
$INSBASE
 10
0.0
 20
0.0
 30
0.0
  9
$EXTMIN
 10
0.0
 20
0.0
 30
0.0
  9
$EXTMAX
 10
1682.0
 20
2378.0
 30
0.0
  9
$LIMMIN
 10
0.0
 20
0.0
  9
$LIMMAX
 10
1682.0
 20
2378.0
  9
$ORTHOMODE
 70
     0
  9
$REGENMODE
 70
     1
  9
$FILLMODE
 70
     1
  9
$QTEXTMODE
 70
     0
  9
$MIRRTEXT
 70
     1
  9
$LTSCALE
 40
1.0
  9
$ATTMODE
 70
     1
  9
$TEXTSIZE
 40
2.5
  9
$TRACEWID
 40
1.0
  9
$TEXTSTYLE
  7
Standard
  9
$CLAYER
  8
0
  9
$CELTYPE
  6
ByLayer
  9
$CECOLOR
 62
   256
  9
$CELTSCALE
 40
1.0
  9
$DISPSILH
 70
     0
  9
$DIMSCALE
 40
1.0
  9
$DIMASZ
 40
2.5
  9
$DIMEXO
 40
0.625
  9
$DIMDLI
 40
3.75
  9
$DIMRND
 40
0.0
  9
$DIMDLE
 40
0.0
  9
$DIMEXE
 40
1.25
  9
$DIMTP
 40
0.0
  9
$DIMTM
 40
0.0
  9
$DIMTXT
 40
2.5
  9
$DIMCEN
 40
2.5
  9
$DIMTSZ
 40
0.0
  9
$DIMTOL
 70
     0
  9
$DIMLIM
 70
     0
  9
$DIMTIH
 70
     0
  9
$DIMTOH
 70
     0
  9
$DIMSE1
 70
     0
  9
$DIMSE2
 70
     0
  9
$DIMTAD
 70
     1
  9
$DIMZIN
 70
     8
  9
$DIMBLK
  1

  9
$DIMASO
 70
     1
  9
$DIMSHO
 70
     1
  9
$DIMPOST
  1

  9
$DIMAPOST
  1

  9
$DIMALT
 70
     0
  9
$DIMALTD
 70
     3
  9
$DIMALTF
 40
0.0393700787
  9
$DIMLFAC
 40
1.0
  9
$DIMTOFL
 70
     1
  9
$DIMTVP
 40
0.0
  9
$DIMTIX
 70
     0
  9
$DIMSOXD
 70
     0
  9
$DIMSAH
 70
     0
  9
$DIMBLK1
  1

  9
$DIMBLK2
  1

  9
$DIMSTYLE
  2
ISO-25
  9
$DIMCLRD
 70
     0
  9
$DIMCLRE
 70
     0
  9
$DIMCLRT
 70
     0
  9
$DIMTFAC
 40
1.0
  9
$DIMGAP
 40
0.625
  9
$DIMJUST
 70
     0
  9
$DIMSD1
 70
     0
  9
$DIMSD2
 70
     0
  9
$DIMTOLJ
 70
     0
  9
$DIMTZIN
 70
     8
  9
$DIMALTZ
 70
     0
  9
$DIMALTTZ
 70
     0
  9
$DIMUPT
 70
     0
  9
$DIMDEC
 70
     2
  9
$DIMTDEC
 70
     2
  9
$DIMALTU
 70
     2
  9
$DIMALTTD
 70
     3
  9
$DIMTXSTY
  7
Standard
  9
$DIMAUNIT
 70
     0
  9
$DIMADEC
 70
     0
  9
$DIMALTRND
 40
0.0
  9
$DIMAZIN
 70
     0
  9
$DIMDSEP
 70
    44
  9
$DIMATFIT
 70
     3
  9
$DIMFRAC
 70
     0
  9
$DIMLDRBLK
  1

  9
$DIMLUNIT
 70
     2
  9
$DIMLWD
 70
    -2
  9
$DIMLWE
 70
    -2
  9
$DIMTMOVE
 70
     0
  9
$LUNITS
 70
     2
  9
$LUPREC
 70
     4
  9
$SKETCHINC
 40
1.0
  9
$FILLETRAD
 40
10.0
  9
$AUNITS
 70
     0
  9
$AUPREC
 70
     0
  9
$MENU
  1
.
  9
$ELEVATION
 40
0.0
  9
$PELEVATION
 40
0.0
  9
$THICKNESS
 40
0.0
  9
$LIMCHECK
 70
     0
  9
$CHAMFERA
 40
10.0
  9
$CHAMFERB
 40
10.0
  9
$CHAMFERC
 40
20.0
  9
$CHAMFERD
 40
0.0
  9
$SKPOLY
 70
     0
  9
$TDCREATE
 40
2455203.449660845
  9
$TDUCREATE
 40
2455203.407994178
  9
$TDUPDATE
 40
2455203.449660856
  9
$TDUUPDATE
 40
2455203.40799419
  9
$TDINDWG
 40
0.0000000116
  9
$TDUSRTIMER
 40
0.0000000116
  9
$USRTIMER
 70
     1
  9
$ANGBASE
 50
0.0
  9
$ANGDIR
 70
     0
  9
$PDMODE
 70
     0
  9
$PDSIZE
 40
0.0
  9
$PLINEWID
 40
0.0
  9
$SPLFRAME
 70
     0
  9
$SPLINETYPE
 70
     6
  9
$SPLINESEGS
 70
     8
  9
$HANDSEED
  5
411
  9
$SURFTAB1
 70
     6
  9
$SURFTAB2
 70
     6
  9
$SURFTYPE
 70
     6
  9
$SURFU
 70
     6
  9
$SURFV
 70
     6
  9
$UCSBASE
  2

  9
$UCSNAME
  2

  9
$UCSORG
 10
0.0
 20
0.0
 30
0.0
  9
$UCSXDIR
 10
1.0
 20
0.0
 30
0.0
  9
$UCSYDIR
 10
0.0
 20
1.0
 30
0.0
  9
$UCSORTHOREF
  2

  9
$UCSORTHOVIEW
 70
     0
  9
$UCSORGTOP
 10
0.0
 20
0.0
 30
0.0
  9
$UCSORGBOTTOM
 10
0.0
 20
0.0
 30
0.0
  9
$UCSORGLEFT
 10
0.0
 20
0.0
 30
0.0
  9
$UCSORGRIGHT
 10
0.0
 20
0.0
 30
0.0
  9
$UCSORGFRONT
 10
0.0
 20
0.0
 30
0.0
  9
$UCSORGBACK
 10
0.0
 20
0.0
 30
0.0
  9
$PUCSBASE
  2

  9
$PUCSNAME
  2

  9
$PUCSORG
 10
0.0
 20
0.0
 30
0.0
  9
$PUCSXDIR
 10
1.0
 20
0.0
 30
0.0
  9
$PUCSYDIR
 10
0.0
 20
1.0
 30
0.0
  9
$PUCSORTHOREF
  2

  9
$PUCSORTHOVIEW
 70
     0
  9
$PUCSORGTOP
 10
0.0
 20
0.0
 30
0.0
  9
$PUCSORGBOTTOM
 10
0.0
 20
0.0
 30
0.0
  9
$PUCSORGLEFT
 10
0.0
 20
0.0
 30
0.0
  9
$PUCSORGRIGHT
 10
0.0
 20
0.0
 30
0.0
  9
$PUCSORGFRONT
 10
0.0
 20
0.0
 30
0.0
  9
$PUCSORGBACK
 10
0.0
 20
0.0
 30
0.0
  9
$USERI1
 70
     0
  9
$USERI2
 70
     0
  9
$USERI3
 70
     0
  9
$USERI4
 70
     0
  9
$USERI5
 70
     0
  9
$USERR1
 40
0.0
  9
$USERR2
 40
0.0
  9
$USERR3
 40
0.0
  9
$USERR4
 40
0.0
  9
$USERR5
 40
0.0
  9
$WORLDVIEW
 70
     1
  9
$SHADEDGE
 70
     3
  9
$SHADEDIF
 70
    70
  9
$TILEMODE
 70
     1
  9
$MAXACTVP
 70
    64
  9
$PINSBASE
 10
0.0
 20
0.0
 30
0.0
  9
$PLIMCHECK
 70
     0
  9
$PEXTMIN
 10
0.0
 20
0.0
 30
0.0
  9
$PEXTMAX
 10
1682.0
 20
2378.0
 30
0.0
  9
$PLIMMIN
 10
0.0
 20
0.0
  9
$PLIMMAX
 10
1682.0
 20
2378.0
  9
$UNITMODE
 70
     0
  9
$VISRETAIN
 70
     1
  9
$PLINEGEN
 70
     0
  9
$PSLTSCALE
 70
     1
  9
$TREEDEPTH
 70
  3020
  9
$CMLSTYLE
  2
Standard
  9
$CMLJUST
 70
     0
  9
$CMLSCALE
 40
20.0
  9
$PROXYGRAPHICS
 70
     1
  9
$MEASUREMENT
 70
     1
  9
$CELWEIGHT
370
    -1
  9
$ENDCAPS
280
     0
  9
$JOINSTYLE
280
     0
  9
$LWDISPLAY
290
     0
  9
$INSUNITS
 70
     4
  9
$HYPERLINKBASE
  1

  9
$STYLESHEET
  1

  9
$XEDIT
290
     1
  9
$CEPSNTYPE
380
     0
  9
$PSTYLEMODE
290
     1
  9
$FINGERPRINTGUID
  2
{E002F910-FC06-439E-8238-BBE170D5DF58}
  9
$VERSIONGUID
  2
{FAEB1C32-E019-11D5-929B-00C0DF256EC4}
  9
$EXTNAMES
290
     1
  9
$PSVPSCALE
 40
0.0
  9
$OLESTARTUP
290
     0
  0
ENDSEC
  0
SECTION
  2
CLASSES
  0
CLASS
  1
ACDBDICTIONARYWDFLT
  2
AcDbDictionaryWithDefault
  3
ObjectDBX Classes
 90
        0
280
     0
281
     0
  0
CLASS
  1
VISUALSTYLE
  2
AcDbVisualStyle
  3
ObjectDBX Classes
 90
     4095
280
     0
281
     0
  0
CLASS
  1
SCALE
  2
AcDbScale
  3
ObjectDBX Classes
 90
     1153
280
     0
281
     0
  0
CLASS
  1
DICTIONARYVAR
  2
AcDbDictionaryVar
  3
ObjectDBX Classes
 90
        0
280
     0
281
     0
  0
CLASS
  1
ACDBPLACEHOLDER
  2
AcDbPlaceHolder
  3
ObjectDBX Classes
 90
        0
280
     0
281
     0
  0
CLASS
  1
LAYOUT
  2
AcDbLayout
  3
ObjectDBX Classes
 90
        0
280
     0
281
     0
  0
ENDSEC
  0
SECTION
  2
TABLES
  0
TABLE
  2
VPORT
  5
8
330
0
100
AcDbSymbolTable
 70
     1
  0
VPORT
  5
29
330
8
100
AcDbSymbolTableRecord
100
AcDbViewportTableRecord
  2
*Active
 70
     0
 10
0.0
 20
0.0
 11
1.0
 21
1.0
 12
344.1869158879
 22
148.5
 13
0.0
 23
0.0
 14
10.0
 24
10.0
 15
10.0
 25
10.0
 16
0.0
 26
0.0
 36
1.0
 17
0.0
 27
0.0
 37
0.0
 40
297.0
 41
1.9729729729
 42
50.0
 43
0.0
 44
0.0
 50
0.0
 51
0.0
 71
     0
 72
   100
 73
     1
 74
     3
 75
     0
 76
     0
 77
     0
 78
     0
281
     0
 65
     1
110
0.0
120
0.0
130
0.0
111
1.0
121
0.0
131
0.0
112
0.0
122
1.0
132
0.0
 79
     0
146
0.0
  0
ENDTAB
  0
TABLE
  2
LTYPE
  5
5
330
0
100
AcDbSymbolTable
 70
     2
  0
LTYPE
  5
14
330
5
100
AcDbSymbolTableRecord
100
AcDbLinetypeTableRecord
  2
ByBlock
 70
     0
  3

 72
    65
 73
     0
 40
0.0
  0
LTYPE
  5
15
330
5
100
AcDbSymbolTableRecord
100
AcDbLinetypeTableRecord
  2
ByLayer
 70
     0
  3

 72
    65
 73
     0
 40
0.0
  0
LTYPE
  5
16
330
5
100
AcDbSymbolTableRecord
100
AcDbLinetypeTableRecord
  2
Continuous
 70
     0
  3
Solid line
 72
    65
 73
     0
 40
0.0
  0
LTYPE
  5
22B
330
5
100
AcDbSymbolTableRecord
100
AcDbLinetypeTableRecord
  2
CENTER2
 70
     0
  3
Center (.5x) ___ _ ___ _ ___ _ ___ _ ___ _ ___
 72
    65
 73
     4
 40
28.575
 49
19.05
 74
     4
 75
     0
340
0
 46
0.0
 50
0.0
 44
0.0
 45
0.0
 49
-3.175
 74
     4
 75
     0
340
0
 46
0.0
 50
0.0
 44
0.0
 45
0.0
 49
3.175
 74
     4
 75
     0
340
0
 46
0.0
 50
0.0
 44
0.0
 45
0.0
 49
-3.175
 74
     4
 75
     0
340
0
 46
0.0
 50
0.0
 44
0.0
 45
0.0
  0
ENDTAB
  0
TABLE
  2
LAYER
  5
2
330
0
100
AcDbSymbolTable
 70
    17
  0
LAYER
  5
10
330
2
100
AcDbSymbolTableRecord
100
AcDbLayerTableRecord
  2
0
 70
     0
 62
     7
  6
Continuous
370
    -3
390
F
  0
LAYER
  5
5D
330
2
100
AcDbSymbolTableRecord
100
AcDbLayerTableRecord
  2
Default
 70
     0
 62
     7
  6
Continuous
370
    -3
390
F
  0
LAYER
  5
60
330
2
100
AcDbSymbolTableRecord
100
AcDbLayerTableRecord
  2
$DDT_AUDIT_GENERATED_(60)
 70
     0
 62
     7
  6
Continuous
370
    -3
390
F
  0
LAYER
  5
73
330
2
100
AcDbSymbolTableRecord
100
AcDbLayerTableRecord
  2
$DDT_AUDIT_GENERATED_(73)
 70
     0
 62
     7
  6
Continuous
370
    -3
390
F
  0
LAYER
  5
98
330
2
100
AcDbSymbolTableRecord
100
AcDbLayerTableRecord
  2
$DDT_AUDIT_GENERATED_(98)
 70
     0
 62
     7
  6
Continuous
370
    -3
390
F
  0
LAYER
  5
D3
330
2
100
AcDbSymbolTableRecord
100
AcDbLayerTableRecord
  2
$DDT_AUDIT_GENERATED_(D3)
 70
     0
 62
     7
  6
Continuous
370
    -3
390
F
  0
LAYER
  5
136
330
2
100
AcDbSymbolTableRecord
100
AcDbLayerTableRecord
  2
$DDT_AUDIT_GENERATED_(136)
 70
     0
 62
     7
  6
Continuous
370
    -3
390
F
  0
LAYER
  5
17A
330
2
100
AcDbSymbolTableRecord
100
AcDbLayerTableRecord
  2
$DDT_AUDIT_GENERATED_(17A)
 70
     0
 62
     7
  6
Continuous
370
    -3
390
F
  0
LAYER
  5
17E
330
2
100
AcDbSymbolTableRecord
100
AcDbLayerTableRecord
  2
$DDT_AUDIT_GENERATED_(17E)
 70
     0
 62
     7
  6
Continuous
370
    -3
390
F
  0
LAYER
  5
193
330
2
100
AcDbSymbolTableRecord
100
AcDbLayerTableRecord
  2
$DDT_AUDIT_GENERATED_(193)
 70
     0
 62
     7
  6
Continuous
370
    -3
390
F
  0
LAYER
  5
1A4
330
2
100
AcDbSymbolTableRecord
100
AcDbLayerTableRecord
  2
$DDT_AUDIT_GENERATED_(1A4)
 70
     0
 62
     7
  6
Continuous
370
    -3
390
F
  0
LAYER
  5
1F6
330
2
100
AcDbSymbolTableRecord
100
AcDbLayerTableRecord
  2
$DDT_AUDIT_GENERATED_(1F6)
 70
     0
 62
     7
  6
Continuous
370
    -3
390
F
  0
LAYER
  5
229
330
2
100
AcDbSymbolTableRecord
100
AcDbLayerTableRecord
  2
DV1_Standard
 70
     0
 62
     7
  6
Continuous
370
    -3
390
F
  0
LAYER
  5
250
330
2
100
AcDbSymbolTableRecord
100
AcDbLayerTableRecord
  2
$DDT_AUDIT_GENERATED_(250)
 70
     0
 62
     7
  6
Continuous
370
    -3
390
F
  0
LAYER
  5
2E8
330
2
100
AcDbSymbolTableRecord
100
AcDbLayerTableRecord
  2
$DDT_AUDIT_GENERATED_(2E8)
 70
     0
 62
     7
  6
Continuous
370
    -3
390
F
  0
LAYER
  5
2EB
330
2
100
AcDbSymbolTableRecord
100
AcDbLayerTableRecord
  2
DV2_Standard
 70
     0
 62
     7
  6
Continuous
370
    -3
390
F
  0
LAYER
  5
3F7
330
2
100
AcDbSymbolTableRecord
100
AcDbLayerTableRecord
  2
DV3_Standard
 70
     0
 62
     7
  6
Continuous
370
    -3
390
F
  0
ENDTAB
  0
TABLE
  2
STYLE
  5
3
330
0
100
AcDbSymbolTable
 70
     2
  0
STYLE
  5
11
330
3
100
AcDbSymbolTableRecord
100
AcDbTextStyleTableRecord
  2
Standard
 70
     0
 40
0.0
 41
1.0
 50
0.0
 71
     0
 42
2.5
  3
txt
  4

  0
STYLE
  5
400
330
3
100
AcDbSymbolTableRecord
100
AcDbTextStyleTableRecord
  2
SEACAD_seiso_ttf
 70
     0
 40
0.0
 41
1.0
 50
0.0
 71
     0
 42
0.2
  3
seiso.ttf
  4

  0
ENDTAB
  0
TABLE
  2
VIEW
  5
6
330
0
100
AcDbSymbolTable
 70
     0
  0
ENDTAB
  0
TABLE
  2
UCS
  5
7
330
0
100
AcDbSymbolTable
 70
     0
  0
ENDTAB
  0
TABLE
  2
APPID
  5
9
330
0
100
AcDbSymbolTable
 70
     1
  0
APPID
  5
12
330
9
100
AcDbSymbolTableRecord
100
AcDbRegAppTableRecord
  2
ACAD
 70
     0
  0
ENDTAB
  0
TABLE
  2
DIMSTYLE
  5
A
330
0
100
AcDbSymbolTable
 70
     1
100
AcDbDimStyleTable
  0
DIMSTYLE
105
27
330
A
100
AcDbSymbolTableRecord
100
AcDbDimStyleTableRecord
  2
ISO-25
 70
     0
 41
2.5
 42
0.625
 43
3.75
 44
1.25
 73
     0
 74
     0
 77
     1
 78
     8
140
2.5
141
2.5
143
0.0393700787
147
0.625
171
     3
172
     1
271
     2
272
     2
274
     3
278
    44
283
     0
284
     8
340
11
  0
ENDTAB
  0
TABLE
  2
BLOCK_RECORD
  5
1
330
0
100
AcDbSymbolTable
 70
     4
  0
BLOCK_RECORD
  5
1F
330
1
100
AcDbSymbolTableRecord
100
AcDbBlockTableRecord
  2
*Model_Space
340
22
  0
BLOCK_RECORD
  5
1B
330
1
100
AcDbSymbolTableRecord
100
AcDbBlockTableRecord
  2
*Paper_Space
340
1E
  0
BLOCK_RECORD
  5
5E
330
1
100
AcDbSymbolTableRecord
100
AcDbBlockTableRecord
  2
SE
340
0
102
{BLKREFS
331
5F
102
}
  0
BLOCK_RECORD
  5
23A
330
1
100
AcDbSymbolTableRecord
100
AcDbBlockTableRecord
  2
SE1
340
0
102
{BLKREFS
331
23B
102
}
  0
BLOCK_RECORD
  5
2F0
330
1
100
AcDbSymbolTableRecord
100
AcDbBlockTableRecord
  2
SE2
340
0
102
{BLKREFS
331
2F1
102
}
  0
ENDTAB
  0
ENDSEC
  0
SECTION
  2
BLOCKS
  0
BLOCK
  5
20
330
1F
100
AcDbEntity
  8
0
100
AcDbBlockBegin
  2
*Model_Space
 70
     0
 10
0.0
 20
0.0
 30
0.0
  3
*Model_Space
  1

  0
ENDBLK
  5
21
330
1F
100
AcDbEntity
  8
0
100
AcDbBlockEnd
  0
BLOCK
  5
1C
330
1B
100
AcDbEntity
 67
     1
  8
0
100
AcDbBlockBegin
  2
*Paper_Space
 70
     0
 10
0.0
 20
0.0
 30
0.0
  3
*Paper_Space
  1

  0
ENDBLK
  5
1D
330
1B
100
AcDbEntity
 67
     1
  8
0
100
AcDbBlockEnd
  0
BLOCK
  5
238
330
5E
100
AcDbEntity
  8
0
100
AcDbBlockBegin
  2
SE
 70
     0
 10
0.0
 20
0.0
 30
0.0
  3
SE
  1

  0
ELLIPSE
  5
61
330
5E
100
AcDbEntity
  8
$DDT_AUDIT_GENERATED_(60)
  6
Continuous
 62
     7
100
AcDbEllipse
 10
62.3874713721
 20
457.3045702673
 30
0.0
 11
-3.699999999999995
 21
2.053912595556537E-16
 31
0.0
210
0.0
220
0.0
230
1.0
 40
0.0174524064
 41
0.0174532925200115
 42
3.124139361069782
  0
ELLIPSE
  5
62
330
5E
100
AcDbEntity
  8
$DDT_AUDIT_GENERATED_(60)
  6
Continuous
 62
     7
100
AcDbEllipse
 10
62.3874713721
 20
458.3044179625
 30
0.0
 11
-2.000000000000002
 21
1.110223024625157E-16
 31
0.0
210
0.0
220
0.0
230
1.0
 40
0.0174524064
 41
0.0
 42
3.141592653589796
  0
ELLIPSE
  5
63
330
5E
100
AcDbEntity
  8
$DDT_AUDIT_GENERATED_(60)
  6
Continuous
 62
     7
100
AcDbEllipse
 10
62.3874713721
 20
458.404402732
 30
0.0
 11
-2.000000000000002
 21
1.110223024625157E-16
 31
0.0
210
0.0
220
0.0
230
1.0
 40
0.0174524064
 41
0.0
 42
3.141592653589796
  0
LINE
  5
64
330
5E
100
AcDbEntity
  8
$DDT_AUDIT_GENERATED_(60)
  6
Continuous
 62
     7
100
AcDbLine
 10
65.8869078442
 20
458.3943342704
 30
0.0
 11
64.3874713721
 21
458.3943342704
 31
0.0
  0
LINE
  5
65
330
5E
100
AcDbEntity
  8
$DDT_AUDIT_GENERATED_(60)
  6
Continuous
 62
     7
100
AcDbLine
 10
60.3874713721
 20
458.3943342704
 30
0.0
 11
58.8880349001
 21
458.3943342704
 31
0.0
  0
ELLIPSE
  5
66
330
5E
100
AcDbEntity
  8
$DDT_AUDIT_GENERATED_(60)
  6
Continuous
 62
     7
100
AcDbEllipse
 10
62.3874713721
 20
458.3044179625
 30
0.0
 11
-3.500000000000003
 21
1.942890293094026E-16
 31
0.0
210
0.0
220
0.0
230
1.0
 40
0.0174524064
 41
0.0647461055226411
 42
3.061399862053861
  0
ELLIPSE
  5
67
330
5E
100
AcDbEntity
  8
$DDT_AUDIT_GENERATED_(60)
  6
Continuous
 62
     7
100
AcDbEllipse
 10
58.8880349001
 20
458.1943647313
 30
0.0
 11
-0.2000000000000404
 21
1.457278742122980E-13
 31
0.0
210
0.0
220
0.0
230
1.0
 40
0.9998476952
 41
4.712388980385418
 42
6.283185307179586
  0
ELLIPSE
  5
68
330
5E
100
AcDbEntity
  8
$DDT_AUDIT_GENERATED_(60)
  6
Continuous
 62
     7
100
AcDbEllipse
 10
65.8869078442
 20
458.1943647313
 30
0.0
 11
-0.1999999999999641
 21
-1.182386411002767E-11
 31
0.0
210
0.0
220
0.0
230
1.0
 40
0.9998476952
 41
3.141592653589793
 42
4.712388980325509
  0
LINE
  5
69
330
5E
100
AcDbEntity
  8
$DDT_AUDIT_GENERATED_(60)
  6
Continuous
 62
     7
100
AcDbLine
 10
66.0869078442
 20
458.1033214534
 30
0.0
 11
66.0869078442
 21
457.3034432973
 31
0.0
  0
LINE
  5
6A
330
5E
100
AcDbEntity
  8
$DDT_AUDIT_GENERATED_(60)
  6
Continuous
 62
     7
100
AcDbLine
 10
66.0869078442
 20
458.1943647313
 30
0.0
 11
66.0869078442
 21
458.1033214534
 31
0.0
  0
LINE
  5
6B
330
5E
100
AcDbEntity
  8
$DDT_AUDIT_GENERATED_(60)
  6
Continuous
 62
     7
100
AcDbLine
 10
58.6880349001
 20
458.1033214534
 30
0.0
 11
58.6880349001
 21
457.3034432973
 31
0.0
  0
LINE
  5
6C
330
5E
100
AcDbEntity
  8
$DDT_AUDIT_GENERATED_(60)
  6
Continuous
 62
     7
100
AcDbLine
 10
58.6880349001
 20
458.1033214534
 30
0.0
 11
58.6880349001
 21
458.1943647313
 31
0.0
  0
ARC
  5
6D
330
5E
100
AcDbEntity
  8
$DDT_AUDIT_GENERATED_(60)
  6
Continuous
 62
     7
100
AcDbCircle
 10
58.8880571032
 20
458.1032996735
 30
0.0
 40
0.2000222043119834
100
AcDbArc
 50
90.006360021
 51
179.9937612121
  0
ARC
  5
6E
330
5E
100
AcDbEntity
  8
$DDT_AUDIT_GENERATED_(60)
  6
Continuous
 62
     7
100
AcDbCircle
 10
65.8868856411
 20
458.1032996735
 30
0.0
 40
0.2000222043119596
100
AcDbArc
 50
0.0062387879
 51
89.993639979
  0
LINE
  5
6F
330
5E
100
AcDbEntity
  8
$DDT_AUDIT_GENERATED_(60)
  6
Continuous
 62
     7
100
AcDbLine
 10
64.3874713721
 20
458.3044179625
 30
0.0
 11
64.3874713721
 21
458.404402732
 31
0.0
  0
LINE
  5
70
330
5E
100
AcDbEntity
  8
$DDT_AUDIT_GENERATED_(60)
  6
Continuous
 62
     7
100
AcDbLine
 10
60.3874713721
 20
458.404402732
 30
0.0
 11
60.3874713721
 21
458.3044179625
 31
0.0
  0
LINE
  5
71
330
5E
100
AcDbEntity
  8
$DDT_AUDIT_GENERATED_(60)
  6
Continuous
 62
     7
100
AcDbLine
 10
58.9202568995
 20
457.2820274336
 30
0.0
 11
59.8104876425
 21
457.240322693
 31
0.0
  0
LINE
  5
72
330
5E
100
AcDbEntity
  8
$DDT_AUDIT_GENERATED_(60)
  6
Continuous
 62
     7
100
AcDbLine
 10
64.9644551018
 20
457.240322693
 30
0.0
 11
65.8546858447
 21
457.2820274336
 31
0.0
  0
ELLIPSE
  5
74
330
5E
100
AcDbEntity
  8
$DDT_AUDIT_GENERATED_(73)
  6
Continuous
 62
     7
100
AcDbEllipse
 10
62.3874713721
 20
547.6908019094
 30
0.0
 11
-3.4
 21
1.887379141862766E-16
 31
0.0
210
0.0
220
0.0
230
1.0
 40
0.0174524064
 41
0.0
 42
3.141592653589793
  0
ELLIPSE
  5
75
330
5E
100
AcDbEntity
  8
$DDT_AUDIT_GENERATED_(73)
  6
Continuous
 62
     7
100
AcDbEllipse
 10
62.3874713721
 20
545.6911065191
 30
0.0
 11
-3.4
 21
1.887379141862766E-16
 31
0.0
210
0.0
220
0.0
230
1.0
 40
0.0174524064
 41
6.242491873608783
 42
6.283185307179586
  0
ELLIPSE
  5
76
330
5E
100
AcDbEntity
  8
$DDT_AUDIT_GENERATED_(73)
  6
Continuous
 62
     7
100
AcDbEllipse
 10
62.3874713721
 20
545.6911065191
 30
0.0
 11
-3.4
 21
1.887379141862766E-16
 31
0.0
210
0.0
220
0.0
230
1.0
 40
0.0174524064
 41
0.0
 42
3.194413061018417
  0
ELLIPSE
  5
77
330
5E
100
AcDbEntity
  8
$DDT_AUDIT_GENERATED_(73)
  6
Continuous
 62
     7
100
AcDbEllipse
 10
62.3874713721
 20
543.3914568203
 30
0.0
 11
-3.4
 21
1.887379141862766E-16
 31
0.0
210
0.0
220
0.0
230
1.0
 40
0.0174524064
 41
0.0
 42
3.141592653589793
  0
ELLIPSE
  5
78
330
5E
100
AcDbEntity
  8
$DDT_AUDIT_GENERATED_(73)
  6
Continuous
 62
     7
100
AcDbEllipse
 10
62.3874713721
 20
541.3917614299
 30
0.0
 11
-3.4
 21
1.887379141862766E-16
 31
0.0
210
0.0
220
0.0
230
1.0
 40
0.0174524064
 41
6.242491873608783
 42
6.283185307179586
  0
ELLIPSE
  5
79
330
5E
100
AcDbEntity
  8
$DDT_AUDIT_GENERATED_(73)
  6
Continuous
 62
     7
100
AcDbEllipse
 10
62.3874713721
 20
541.3917614299
 30
0.0
 11
-3.4
 21
1.887379141862766E-16
 31
0.0
210
0.0
220
0.0
230
1.0
 40
0.0174524064
 41
0.0
 42
3.194413061018417
  0
ELLIPSE
  5
7A
330
5E
100
AcDbEntity
  8
$DDT_AUDIT_GENERATED_(73)
  6
Continuous
 62
     7
100
AcDbEllipse
 10
62.3874713721
 20
538.8921421921
 30
0.0
 11
-3.4
 21
1.887379141862766E-16
 31
0.0
210
0.0
220
0.0
230
1.0
 40
0.0174524064
 41
0.0
 42
3.141592653589793
  0
ELLIPSE
  5
7B
330
5E
100
AcDbEntity
  8
$DDT_AUDIT_GENERATED_(73)
  6
Continuous
 62
     7
100
AcDbEllipse
 10
62.3874713721
 20
536.7924620322
 30
0.0
 11
-2.750000000000003
 21
1.526556658859591E-16
 31
0.0
210
0.0
220
0.0
230
1.0
 40
0.0174524064
 41
0.0
 42
3.141592653589796
  0
ELLIPSE
  5
7C
330
5E
100
AcDbEntity
  8
$DDT_AUDIT_GENERATED_(73)
  6
Continuous
 62
     7
100
AcDbEllipse
 10
62.3874713721
 20
537.2923858798
 30
0.0
 11
-2.975511056911569
 21
1.651740442704979E-16
 31
0.0
210
0.0
220
0.0
230
1.0
 40
0.0174524064
 41
0.11954963436288
 42
3.069000510460326
  0
ELLIPSE
  5
7D
330
5E
100
AcDbEntity
  8
$DDT_AUDIT_GENERATED_(73)
  6
Continuous
 62
     7
100
AcDbEllipse
 10
62.3874713721
 20
531.3932844784
 30
0.0
 11
-2.650000000000003
 21
1.471045507628334E-16
 31
0.0
210
0.0
220
0.0
230
1.0
 40
0.0174524064
 41
0.0000000000000032
 42
3.141592653589796
  0
LINE
  5
7E
330
5E
100
AcDbEntity
  8
$DDT_AUDIT_GENERATED_(73)
  6
Continuous
 62
     7
100
AcDbLine
 10
65.6374713721
 20
545.8410836734
 30
0.0
 11
65.6374713721
 21
547.5408247552
 31
0.0
  0
LINE
  5
7F
330
5E
100
AcDbEntity
  8
$DDT_AUDIT_GENERATED_(73)
  6
Continuous
 62
     7
100
AcDbLine
 10
59.1374713721
 20
547.5408247552
 30
0.0
 11
59.1374713721
 21
545.8410836734
 31
0.0
  0
LINE
  5
80
330
5E
100
AcDbEntity
  8
$DDT_AUDIT_GENERATED_(73)
  6
Continuous
 62
     7
100
AcDbLine
 10
65.7874713721
 20
543.3914568203
 30
0.0
 11
65.7874713721
 21
545.6911065191
 31
0.0
  0
LINE
  5
81
330
5E
100
AcDbEntity
  8
$DDT_AUDIT_GENERATED_(73)
  6
Continuous
 62
     7
100
AcDbLine
 10
58.9874713721
 20
545.6911065191
 30
0.0
 11
58.9874713721
 21
543.3914568203
 31
0.0
  0
LINE
  5
82
330
5E
100
AcDbEntity
  8
$DDT_AUDIT_GENERATED_(73)
  6
Continuous
 62
     7
100
AcDbLine
 10
65.6374713721
 20
541.5417385842
 30
0.0
 11
65.6374713721
 21
543.241479666
 31
0.0
  0
LINE
  5
83
330
5E
100
AcDbEntity
  8
$DDT_AUDIT_GENERATED_(73)
  6
Continuous
 62
     7
100
AcDbLine
 10
59.1374713721
 20
543.241479666
 30
0.0
 11
59.1374713721
 21
541.5417385842
 31
0.0
  0
LINE
  5
84
330
5E
100
AcDbEntity
  8
$DDT_AUDIT_GENERATED_(73)
  6
Continuous
 62
     7
100
AcDbLine
 10
65.7874713721
 20
538.8921421921
 30
0.0
 11
65.7874713721
 21
541.3917614299
 31
0.0
  0
LINE
  5
85
330
5E
100
AcDbEntity
  8
$DDT_AUDIT_GENERATED_(73)
  6
Continuous
 62
     7
100
AcDbLine
 10
58.9874713721
 20
541.3917614299
 30
0.0
 11
58.9874713721
 21
538.8921421921
 31
0.0
  0
LINE
  5
86
330
5E
100
AcDbEntity
  8
$DDT_AUDIT_GENERATED_(73)
  6
Continuous
 62
     7
100
AcDbLine
 10
58.9874895815
 20
538.8919479886
 30
0.0
 11
59.2645462127
 21
537.4145455858
 31
0.0
  0
LINE
  5
87
330
5E
100
AcDbEntity
  8
$DDT_AUDIT_GENERATED_(73)
  6
Continuous
 62
     7
100
AcDbLine
 10
65.5103965315
 20
537.4145455858
 30
0.0
 11
65.7874531627
 21
538.8919479886
 31
0.0
  0
LINE
  5
88
330
5E
100
AcDbEntity
  8
$DDT_AUDIT_GENERATED_(73)
  6
Continuous
 62
     7
100
AcDbLine
 10
65.1374713721
 20
536.7924620322
 30
0.0
 11
65.1374713721
 21
537.2725547998
 31
0.0
  0
LINE
  5
89
330
5E
100
AcDbEntity
  8
$DDT_AUDIT_GENERATED_(73)
  6
Continuous
 62
     7
100
AcDbLine
 10
59.6374713721
 20
537.2725547998
 30
0.0
 11
59.6374713721
 21
536.7924620322
 31
0.0
  0
LINE
  5
8A
330
5E
100
AcDbEntity
  8
$DDT_AUDIT_GENERATED_(73)
  6
Continuous
 62
     7
100
AcDbLine
 10
65.7874713721
 20
547.6908019094
 30
0.0
 11
65.7874713721
 21
551.0487543125
 31
0.0
  0
LINE
  5
8B
330
5E
100
AcDbEntity
  8
$DDT_AUDIT_GENERATED_(73)
  6
Continuous
 62
     7
100
AcDbLine
 10
58.9874713721
 20
551.0487543125
 30
0.0
 11
58.9874713721
 21
547.6908019094
 31
0.0
  0
ARC
  5
8C
330
5E
100
AcDbEntity
  8
$DDT_AUDIT_GENERATED_(73)
  6
Continuous
 62
     7
100
AcDbCircle
 10
65.7826178203
 20
545.838650303
 30
0.0
 40
0.1444303390607046
100
AcDbArc
 50
178.7653326587
 51
249.6578811813
  0
SPLINE
  5
8D
330
5E
100
AcDbEntity
  8
$DDT_AUDIT_GENERATED_(73)
  6
Continuous
 62
     7
100
AcDbSpline
210
0.0
220
0.0
230
1.0
 70
     8
 71
     3
 72
    13
 73
     9
 74
     0
 42
0.0000000585792432
 43
0.0000000001
 40
0.0
 40
0.0
 40
0.0
 40
0.0
 40
0.0399571564799345
 40
0.3166438240942954
 40
0.5408847609355794
 40
0.7413697765313986
 40
0.9368766702902379
 40
1.0
 40
1.0
 40
1.0
 40
1.0
 10
59.13607391357905
 20
545.8396703293325
 30
0.0
 10
59.13654382927474
 20
545.8366497169357
 30
0.0
 10
59.13969491015954
 20
545.8160419010081
 30
0.0
 10
59.12556566114986
 20
545.7771284299265
 30
0.0
 10
59.09968551075781
 20
545.7393148235927
 30
0.0
 10
59.07315797658316
 20
545.717625146113
 30
0.0
 10
59.05635719440068
 20
545.7085818763405
 30
0.0
 10
59.0518124596465
 20
545.7067992064245
 30
0.0
 10
59.05054008248371
 20
545.7063311908222
 30
0.0
  0
ARC
  5
8E
330
5E
100
AcDbEntity
  8
$DDT_AUDIT_GENERATED_(73)
  6
Continuous
 62
     7
100
AcDbCircle
 10
58.9918943275
 20
547.542584296
 30
0.0
 40
0.1451808126321964
100
AcDbArc
 50
358.3351240299
 51
72.2966069831
  0
SPLINE
  5
8F
330
5E
100
AcDbEntity
  8
$DDT_AUDIT_GENERATED_(73)
  6
Continuous
 62
     7
100
AcDbSpline
210
0.0
220
0.0
230
1.0
 70
     8
 71
     3
 72
    13
 73
     9
 74
     0
 42
0.0000000574836229
 43
0.0000000001
 40
0.0
 40
0.0
 40
0.0
 40
0.0
 40
0.0398832687624657
 40
0.304338831852931
 40
0.5186670599950796
 40
0.7102895120190835
 40
0.897153903147404
 40
1.0
 40
1.0
 40
1.0
 40
1.0
 10
65.63891683722463
 20
547.5418722223046
 30
0.0
 10
65.63842315736304
 20
547.5450263932432
 30
0.0
 10
65.63523800273244
 20
547.56574490012
 30
0.0
 10
65.6493792300577
 20
547.6047881885861
 30
0.0
 10
65.67522042587812
 20
547.6425662649866
 30
0.0
 10
65.70191325446662
 20
547.6643740581213
 30
0.0
 10
65.71983186275864
 20
547.6739342723996
 30
0.0
 10
65.72499033783366
 20
547.6759357007332
 30
0.0
 10
65.72706894427628
 20
547.6766591962217
 30
0.0
  0
ARC
  5
90
330
5E
100
AcDbEntity
  8
$DDT_AUDIT_GENERATED_(73)
  6
Continuous
 62
     7
100
AcDbCircle
 10
65.7826178203
 20
541.5393052139
 30
0.0
 40
0.1444303390605947
100
AcDbArc
 50
178.7653326588
 51
249.6578811813
  0
SPLINE
  5
91
330
5E
100
AcDbEntity
  8
$DDT_AUDIT_GENERATED_(73)
  6
Continuous
 62
     7
100
AcDbSpline
210
0.0
220
0.0
230
1.0
 70
     8
 71
     3
 72
    13
 73
     9
 74
     0
 42
0.0000000585792432
 43
0.0000000001
 40
0.0
 40
0.0
 40
0.0
 40
0.0
 40
0.0399571564799279
 40
0.3166438240942396
 40
0.5408847609355278
 40
0.7413697765313816
 40
0.9368766702902107
 40
1.0
 40
1.0
 40
1.0
 40
1.0
 10
59.13607391357905
 20
541.5403252401602
 30
0.0
 10
59.13654382927475
 20
541.5373046277632
 30
0.0
 10
59.13969491015953
 20
541.5166968118352
 30
0.0
 10
59.12556566114984
 20
541.4777833407543
 30
0.0
 10
59.09968551075782
 20
541.4399697344202
 30
0.0
 10
59.07315797658316
 20
541.4182800569404
 30
0.0
 10
59.05635719440068
 20
541.4092367871681
 30
0.0
 10
59.0518124596465
 20
541.4074541172521
 30
0.0
 10
59.05054008248371
 20
541.4069861016497
 30
0.0
  0
ARC
  5
92
330
5E
100
AcDbEntity
  8
$DDT_AUDIT_GENERATED_(73)
  6
Continuous
 62
     7
100
AcDbCircle
 10
58.9918943275
 20
543.2432392068
 30
0.0
 40
0.1451808126320918
100
AcDbArc
 50
358.3351240299
 51
72.2966069831
  0
SPLINE
  5
93
330
5E
100
AcDbEntity
  8
$DDT_AUDIT_GENERATED_(73)
  6
Continuous
 62
     7
100
AcDbSpline
210
0.0
220
0.0
230
1.0
 70
     8
 71
     3
 72
    13
 73
     9
 74
     0
 42
0.0000000574836229
 43
0.0000000001
 40
0.0
 40
0.0
 40
0.0
 40
0.0
 40
0.0398832687624674
 40
0.3043388318529902
 40
0.5186670599950519
 40
0.710289512019085
 40
0.8971539031474067
 40
1.0
 40
1.0
 40
1.0
 40
1.0
 10
65.63891683722463
 20
543.2425271331322
 30
0.0
 10
65.63842315736304
 20
543.2456813040708
 30
0.0
 10
65.63523800273242
 20
543.2663998109475
 30
0.0
 10
65.6493792300577
 20
543.3054430994137
 30
0.0
 10
65.67522042587814
 20
543.3432211758143
 30
0.0
 10
65.70191325446662
 20
543.3650289689488
 30
0.0
 10
65.71983186275864
 20
543.3745891832272
 30
0.0
 10
65.72499033783366
 20
543.3765906115607
 30
0.0
 10
65.72706894427628
 20
543.3773141070494
 30
0.0
  0
SPLINE
  5
94
330
5E
100
AcDbEntity
  8
$DDT_AUDIT_GENERATED_(73)
  6
Continuous
 62
     7
100
AcDbSpline
210
0.0
220
0.0
230
1.0
 70
     8
 71
     3
 72
    12
 73
     8
 74
     0
 42
0.0000000565589359
 43
0.0000000001
 40
0.0
 40
0.0
 40
0.0
 40
0.0
 40
0.2344612934306442
 40
0.5071740835282705
 40
0.6901571939337167
 40
0.8924213273182692
 40
1.0
 40
1.0
 40
1.0
 40
1.0
 10
65.39214433512653
 20
537.2935351010643
 30
0.0
 10
65.39716127122536
 20
537.2944239407026
 30
0.0
 10
65.40716784968824
 20
537.297313735035
 30
0.0
 10
65.43653954454886
 20
537.3083645723
 30
0.0
 10
65.4745428317664
 20
537.3385424672799
 30
0.0
 10
65.5010205204214
 20
537.3748159001246
 30
0.0
 10
65.50523224680374
 20
537.4004125542018
 30
0.0
 10
65.50686242047273
 20
537.410822190234
 30
0.0
  0
SPLINE
  5
95
330
5E
100
AcDbEntity
  8
$DDT_AUDIT_GENERATED_(73)
  6
Continuous
 62
     7
100
AcDbSpline
210
0.0
220
0.0
230
1.0
 70
     8
 71
     3
 72
    15
 73
    11
 74
     0
 42
0.0000000478491876
 43
0.0000000001
 40
0.0
 40
0.0
 40
0.0
 40
0.0
 40
0.03408814554113
 40
0.1583524717968002
 40
0.2653700118442426
 40
0.3649305921591799
 40
0.471715069892874
 40
0.6300957017597015
 40
0.8928675890879707
 40
1.0
 40
1.0
 40
1.0
 40
1.0
 10
59.26684992467908
 20
537.4132846056083
 30
0.0
 10
59.26715163032598
 20
537.4081954472958
 30
0.0
 10
59.26843672450781
 20
537.3878985492577
 30
0.0
 10
59.28767805747425
 20
537.3551256453422
 30
0.0
 10
59.31515459175473
 20
537.3253526136044
 30
0.0
 10
59.3418777556096
 20
537.3081028927531
 30
0.0
 10
59.36462766532666
 20
537.2982168526554
 30
0.0
 10
59.38546911189945
 20
537.2922714717438
 30
0.0
 10
59.39938656350395
 20
537.2894335046701
 30
0.0
 10
59.40874796428209
 20
537.2882977512141
 30
0.0
 10
59.41184589652723
 20
537.287948186242
 30
0.0
  0
LINE
  5
96
330
5E
100
AcDbEntity
  8
$DDT_AUDIT_GENERATED_(73)
  6
Continuous
 62
     7
100
AcDbLine
 10
59.7374713721
 20
536.7796371851
 30
0.0
 11
59.7374713721
 21
531.3932844784
 31
0.0
  0
LINE
  5
97
330
5E
100
AcDbEntity
  8
$DDT_AUDIT_GENERATED_(73)
  6
Continuous
 62
     7
100
AcDbLine
 10
65.0374713721
 20
531.3932844784
 30
0.0
 11
65.0374713721
 21
536.7796371851
 31
0.0
  0
LINE
  5
99
330
5E
100
AcDbEntity
  8
$DDT_AUDIT_GENERATED_(98)
  6
Continuous
 62
     7
100
AcDbLine
 10
64.3874713721
 20
458.3044179625
 30
0.0
 11
64.3874713721
 21
531.3629428788
 31
0.0
  0
LINE
  5
9A
330
5E
100
AcDbEntity
  8
$DDT_AUDIT_GENERATED_(98)
  6
Continuous
 62
     7
100
AcDbLine
 10
60.3874713721
 20
531.3629428788
 30
0.0
 11
60.3874713721
 21
458.3044179625
 31
0.0
  0
ELLIPSE
  5
9B
330
5E
100
AcDbEntity
  8
$DDT_AUDIT_GENERATED_(60)
  6
Continuous
 62
     7
100
AcDbEllipse
 10
54.3874713721
 20
457.3045702673
 30
0.0
 11
-3.700000000000007
 21
2.053912595556543E-16
 31
0.0
210
0.0
220
0.0
230
1.0
 40
0.0174524064
 41
0.0174532925198779
 42
3.124139361069693
  0
ELLIPSE
  5
9C
330
5E
100
AcDbEntity
  8
$DDT_AUDIT_GENERATED_(60)
  6
Continuous
 62
     7
100
AcDbEllipse
 10
54.3874713721
 20
458.3044179625
 30
0.0
 11
-2.0
 21
1.110223024625156E-16
 31
0.0
210
0.0
220
0.0
230
1.0
 40
0.0174524064
 41
0.0000000000000032
 42
3.141592653589796
  0
ELLIPSE
  5
9D
330
5E
100
AcDbEntity
  8
$DDT_AUDIT_GENERATED_(60)
  6
Continuous
 62
     7
100
AcDbEllipse
 10
54.3874713721
 20
458.404402732
 30
0.0
 11
-2.0
 21
1.110223024625156E-16
 31
0.0
210
0.0
220
0.0
230
1.0
 40
0.0174524064
 41
0.0000000000000032
 42
3.141592653589796
  0
LINE
  5
9E
330
5E
100
AcDbEntity
  8
$DDT_AUDIT_GENERATED_(60)
  6
Continuous
 62
     7
100
AcDbLine
 10
57.8869078442
 20
458.3943342704
 30
0.0
 11
56.3874713721
 21
458.3943342704
 31
0.0
  0
LINE
  5
9F
330
5E
100
AcDbEntity
  8
$DDT_AUDIT_GENERATED_(60)
  6
Continuous
 62
     7
100
AcDbLine
 10
52.3874713721
 20
458.3943342704
 30
0.0
 11
50.8880349001
 21
458.3943342704
 31
0.0
  0
ELLIPSE
  5
A0
330
5E
100
AcDbEntity
  8
$DDT_AUDIT_GENERATED_(60)
  6
Continuous
 62
     7
100
AcDbEllipse
 10
54.3874713721
 20
458.3044179625
 30
0.0
 11
-3.500000000000001
 21
1.942890293094024E-16
 31
0.0
210
0.0
220
0.0
230
1.0
 40
0.0174524064
 41
0.0647461055226308
 42
3.061399862053843
  0
ELLIPSE
  5
A1
330
5E
100
AcDbEntity
  8
$DDT_AUDIT_GENERATED_(60)
  6
Continuous
 62
     7
100
AcDbEllipse
 10
50.8880349001
 20
458.1943647313
 30
0.0
 11
-0.2000000000000421
 21
1.457278742122980E-13
 31
0.0
210
0.0
220
0.0
230
1.0
 40
0.9998476952
 41
4.712388980385418
 42
6.283185307179586
  0
ELLIPSE
  5
A2
330
5E
100
AcDbEntity
  8
$DDT_AUDIT_GENERATED_(60)
  6
Continuous
 62
     7
100
AcDbEllipse
 10
57.8869078442
 20
458.1943647313
 30
0.0
 11
-0.1999999999999225
 21
-4.371392137159091E-13
 31
0.0
210
0.0
220
0.0
230
1.0
 40
0.9998476952
 41
3.141592653587607
 42
4.712388980382505
  0
LINE
  5
A3
330
5E
100
AcDbEntity
  8
$DDT_AUDIT_GENERATED_(60)
  6
Continuous
 62
     7
100
AcDbLine
 10
58.0869078442
 20
458.1033214534
 30
0.0
 11
58.0869078442
 21
457.3034432973
 31
0.0
  0
LINE
  5
A4
330
5E
100
AcDbEntity
  8
$DDT_AUDIT_GENERATED_(60)
  6
Continuous
 62
     7
100
AcDbLine
 10
58.0869078442
 20
458.1943647313
 30
0.0
 11
58.0869078442
 21
458.1033214534
 31
0.0
  0
LINE
  5
A5
330
5E
100
AcDbEntity
  8
$DDT_AUDIT_GENERATED_(60)
  6
Continuous
 62
     7
100
AcDbLine
 10
50.6880349001
 20
458.1033214534
 30
0.0
 11
50.6880349001
 21
457.3034432973
 31
0.0
  0
LINE
  5
A6
330
5E
100
AcDbEntity
  8
$DDT_AUDIT_GENERATED_(60)
  6
Continuous
 62
     7
100
AcDbLine
 10
50.6880349001
 20
458.1033214534
 30
0.0
 11
50.6880349001
 21
458.1943647313
 31
0.0
  0
ARC
  5
A7
330
5E
100
AcDbEntity
  8
$DDT_AUDIT_GENERATED_(60)
  6
Continuous
 62
     7
100
AcDbCircle
 10
50.8880571032
 20
458.1032996735
 30
0.0
 40
0.2000222043119819
100
AcDbArc
 50
90.006360021
 51
179.9937612121
  0
ARC
  5
A8
330
5E
100
AcDbEntity
  8
$DDT_AUDIT_GENERATED_(60)
  6
Continuous
 62
     7
100
AcDbCircle
 10
57.8868856411
 20
458.1032996735
 30
0.0
 40
0.2000222043119655
100
AcDbArc
 50
0.0062387879
 51
89.993639979
  0
LINE
  5
A9
330
5E
100
AcDbEntity
  8
$DDT_AUDIT_GENERATED_(60)
  6
Continuous
 62
     7
100
AcDbLine
 10
56.3874713721
 20
458.3044179625
 30
0.0
 11
56.3874713721
 21
458.404402732
 31
0.0
  0
LINE
  5
AA
330
5E
100
AcDbEntity
  8
$DDT_AUDIT_GENERATED_(60)
  6
Continuous
 62
     7
100
AcDbLine
 10
52.3874713721
 20
458.404402732
 30
0.0
 11
52.3874713721
 21
458.3044179625
 31
0.0
  0
LINE
  5
AB
330
5E
100
AcDbEntity
  8
$DDT_AUDIT_GENERATED_(60)
  6
Continuous
 62
     7
100
AcDbLine
 10
50.9202568995
 20
457.2820274336
 30
0.0
 11
51.8104876425
 21
457.240322693
 31
0.0
  0
LINE
  5
AC
330
5E
100
AcDbEntity
  8
$DDT_AUDIT_GENERATED_(60)
  6
Continuous
 62
     7
100
AcDbLine
 10
56.9644551018
 20
457.240322693
 30
0.0
 11
57.8546858447
 21
457.2820274336
 31
0.0
  0
ELLIPSE
  5
AD
330
5E
100
AcDbEntity
  8
$DDT_AUDIT_GENERATED_(73)
  6
Continuous
 62
     7
100
AcDbEllipse
 10
54.3874713721
 20
547.6908019094
 30
0.0
 11
-3.400000000000002
 21
1.887379141862767E-16
 31
0.0
210
0.0
220
0.0
230
1.0
 40
0.0174524064
 41
0.0
 42
3.141592653589793
  0
ELLIPSE
  5
AE
330
5E
100
AcDbEntity
  8
$DDT_AUDIT_GENERATED_(73)
  6
Continuous
 62
     7
100
AcDbEllipse
 10
54.3874713721
 20
545.6911065191
 30
0.0
 11
-3.400000000000002
 21
1.887379141862767E-16
 31
0.0
210
0.0
220
0.0
230
1.0
 40
0.0174524064
 41
6.24249187360887
 42
6.283185307179586
  0
ELLIPSE
  5
AF
330
5E
100
AcDbEntity
  8
$DDT_AUDIT_GENERATED_(73)
  6
Continuous
 62
     7
100
AcDbEllipse
 10
54.3874713721
 20
545.6911065191
 30
0.0
 11
-3.400000000000002
 21
1.887379141862767E-16
 31
0.0
210
0.0
220
0.0
230
1.0
 40
0.0174524064
 41
0.0
 42
3.194413061018388
  0
ELLIPSE
  5
B0
330
5E
100
AcDbEntity
  8
$DDT_AUDIT_GENERATED_(73)
  6
Continuous
 62
     7
100
AcDbEllipse
 10
54.3874713721
 20
543.3914568203
 30
0.0
 11
-3.400000000000002
 21
1.887379141862767E-16
 31
0.0
210
0.0
220
0.0
230
1.0
 40
0.0174524064
 41
0.0
 42
3.141592653589793
  0
ELLIPSE
  5
B1
330
5E
100
AcDbEntity
  8
$DDT_AUDIT_GENERATED_(73)
  6
Continuous
 62
     7
100
AcDbEllipse
 10
54.3874713721
 20
541.3917614299
 30
0.0
 11
-3.400000000000002
 21
1.887379141862767E-16
 31
0.0
210
0.0
220
0.0
230
1.0
 40
0.0174524064
 41
6.24249187360887
 42
6.283185307179586
  0
ELLIPSE
  5
B2
330
5E
100
AcDbEntity
  8
$DDT_AUDIT_GENERATED_(73)
  6
Continuous
 62
     7
100
AcDbEllipse
 10
54.3874713721
 20
541.3917614299
 30
0.0
 11
-3.400000000000002
 21
1.887379141862767E-16
 31
0.0
210
0.0
220
0.0
230
1.0
 40
0.0174524064
 41
0.0
 42
3.194413061018388
  0
ELLIPSE
  5
B3
330
5E
100
AcDbEntity
  8
$DDT_AUDIT_GENERATED_(73)
  6
Continuous
 62
     7
100
AcDbEllipse
 10
54.3874713721
 20
538.8921421921
 30
0.0
 11
-3.400000000000002
 21
1.887379141862767E-16
 31
0.0
210
0.0
220
0.0
230
1.0
 40
0.0174524064
 41
0.0
 42
3.141592653589793
  0
ELLIPSE
  5
B4
330
5E
100
AcDbEntity
  8
$DDT_AUDIT_GENERATED_(73)
  6
Continuous
 62
     7
100
AcDbEllipse
 10
54.3874713721
 20
536.7924620322
 30
0.0
 11
-2.750000000000001
 21
1.526556658859590E-16
 31
0.0
210
0.0
220
0.0
230
1.0
 40
0.0174524064
 41
0.0
 42
3.141592653589793
  0
ELLIPSE
  5
B5
330
5E
100
AcDbEntity
  8
$DDT_AUDIT_GENERATED_(73)
  6
Continuous
 62
     7
100
AcDbEllipse
 10
54.3874713721
 20
537.2923858798
 30
0.0
 11
-2.975511056911567
 21
1.651740442704978E-16
 31
0.0
210
0.0
220
0.0
230
1.0
 40
0.0174524064
 41
0.1195496343628567
 42
3.069000510460298
  0
ELLIPSE
  5
B6
330
5E
100
AcDbEntity
  8
$DDT_AUDIT_GENERATED_(73)
  6
Continuous
 62
     7
100
AcDbEllipse
 10
54.3874713721
 20
531.3932844784
 30
0.0
 11
-2.650000000000001
 21
1.471045507628333E-16
 31
0.0
210
0.0
220
0.0
230
1.0
 40
0.0174524064
 41
0.0
 42
3.141592653589793
  0
LINE
  5
B7
330
5E
100
AcDbEntity
  8
$DDT_AUDIT_GENERATED_(73)
  6
Continuous
 62
     7
100
AcDbLine
 10
57.6374713721
 20
545.8410836734
 30
0.0
 11
57.6374713721
 21
547.5408247552
 31
0.0
  0
LINE
  5
B8
330
5E
100
AcDbEntity
  8
$DDT_AUDIT_GENERATED_(73)
  6
Continuous
 62
     7
100
AcDbLine
 10
51.1374713721
 20
547.5408247552
 30
0.0
 11
51.1374713721
 21
545.8410836734
 31
0.0
  0
LINE
  5
B9
330
5E
100
AcDbEntity
  8
$DDT_AUDIT_GENERATED_(73)
  6
Continuous
 62
     7
100
AcDbLine
 10
57.7874713721
 20
543.3914568203
 30
0.0
 11
57.7874713721
 21
545.6911065191
 31
0.0
  0
LINE
  5
BA
330
5E
100
AcDbEntity
  8
$DDT_AUDIT_GENERATED_(73)
  6
Continuous
 62
     7
100
AcDbLine
 10
50.9874713721
 20
545.6911065191
 30
0.0
 11
50.9874713721
 21
543.3914568203
 31
0.0
  0
LINE
  5
BB
330
5E
100
AcDbEntity
  8
$DDT_AUDIT_GENERATED_(73)
  6
Continuous
 62
     7
100
AcDbLine
 10
57.6374713721
 20
541.5417385842
 30
0.0
 11
57.6374713721
 21
543.241479666
 31
0.0
  0
LINE
  5
BC
330
5E
100
AcDbEntity
  8
$DDT_AUDIT_GENERATED_(73)
  6
Continuous
 62
     7
100
AcDbLine
 10
51.1374713721
 20
543.241479666
 30
0.0
 11
51.1374713721
 21
541.5417385842
 31
0.0
  0
LINE
  5
BD
330
5E
100
AcDbEntity
  8
$DDT_AUDIT_GENERATED_(73)
  6
Continuous
 62
     7
100
AcDbLine
 10
57.7874713721
 20
538.8921421921
 30
0.0
 11
57.7874713721
 21
541.3917614299
 31
0.0
  0
LINE
  5
BE
330
5E
100
AcDbEntity
  8
$DDT_AUDIT_GENERATED_(73)
  6
Continuous
 62
     7
100
AcDbLine
 10
50.9874713721
 20
541.3917614299
 30
0.0
 11
50.9874713721
 21
538.8921421921
 31
0.0
  0
LINE
  5
BF
330
5E
100
AcDbEntity
  8
$DDT_AUDIT_GENERATED_(73)
  6
Continuous
 62
     7
100
AcDbLine
 10
50.9874895815
 20
538.8919479886
 30
0.0
 11
51.2645462127
 21
537.4145455858
 31
0.0
  0
LINE
  5
C0
330
5E
100
AcDbEntity
  8
$DDT_AUDIT_GENERATED_(73)
  6
Continuous
 62
     7
100
AcDbLine
 10
57.5103965315
 20
537.4145455858
 30
0.0
 11
57.7874531627
 21
538.8919479886
 31
0.0
  0
LINE
  5
C1
330
5E
100
AcDbEntity
  8
$DDT_AUDIT_GENERATED_(73)
  6
Continuous
 62
     7
100
AcDbLine
 10
57.1374713721
 20
536.7924620322
 30
0.0
 11
57.1374713721
 21
537.2725547998
 31
0.0
  0
LINE
  5
C2
330
5E
100
AcDbEntity
  8
$DDT_AUDIT_GENERATED_(73)
  6
Continuous
 62
     7
100
AcDbLine
 10
51.6374713721
 20
537.2725547998
 30
0.0
 11
51.6374713721
 21
536.7924620322
 31
0.0
  0
LINE
  5
C3
330
5E
100
AcDbEntity
  8
$DDT_AUDIT_GENERATED_(73)
  6
Continuous
 62
     7
100
AcDbLine
 10
57.7874713721
 20
547.6908019094
 30
0.0
 11
57.7874713721
 21
551.0487543125
 31
0.0
  0
LINE
  5
C4
330
5E
100
AcDbEntity
  8
$DDT_AUDIT_GENERATED_(73)
  6
Continuous
 62
     7
100
AcDbLine
 10
50.9874713721
 20
551.0487543125
 30
0.0
 11
50.9874713721
 21
547.6908019094
 31
0.0
  0
ARC
  5
C5
330
5E
100
AcDbEntity
  8
$DDT_AUDIT_GENERATED_(73)
  6
Continuous
 62
     7
100
AcDbCircle
 10
57.7826178203
 20
545.838650303
 30
0.0
 40
0.1444303390606986
100
AcDbArc
 50
178.7653326587
 51
249.6578811813
  0
SPLINE
  5
C6
330
5E
100
AcDbEntity
  8
$DDT_AUDIT_GENERATED_(73)
  6
Continuous
 62
     7
100
AcDbSpline
210
0.0
220
0.0
230
1.0
 70
     8
 71
     3
 72
    13
 73
     9
 74
     0
 42
0.0000000585792432
 43
0.0000000001
 40
0.0
 40
0.0
 40
0.0
 40
0.0
 40
0.0399571564799338
 40
0.3166438240942978
 40
0.5408847609355791
 40
0.7413697765313952
 40
0.9368766702902356
 40
1.0
 40
1.0
 40
1.0
 40
1.0
 10
51.13607391357907
 20
545.8396703293325
 30
0.0
 10
51.13654382927476
 20
545.8366497169357
 30
0.0
 10
51.13969491015955
 20
545.8160419010078
 30
0.0
 10
51.12556566114987
 20
545.7771284299268
 30
0.0
 10
51.09968551075781
 20
545.7393148235925
 30
0.0
 10
51.07315797658318
 20
545.7176251461129
 30
0.0
 10
51.0563571944007
 20
545.7085818763405
 30
0.0
 10
51.05181245964651
 20
545.7067992064245
 30
0.0
 10
51.05054008248373
 20
545.7063311908222
 30
0.0
  0
ARC
  5
C7
330
5E
100
AcDbEntity
  8
$DDT_AUDIT_GENERATED_(73)
  6
Continuous
 62
     7
100
AcDbCircle
 10
50.9918943275
 20
547.542584296
 30
0.0
 40
0.1451808126324601
100
AcDbArc
 50
358.3351240299
 51
72.296606983
  0
SPLINE
  5
C8
330
5E
100
AcDbEntity
  8
$DDT_AUDIT_GENERATED_(73)
  6
Continuous
 62
     7
100
AcDbSpline
210
0.0
220
0.0
230
1.0
 70
     8
 71
     3
 72
    13
 73
     9
 74
     0
 42
0.0000000574836229
 43
0.0000000001
 40
0.0
 40
0.0
 40
0.0
 40
0.0
 40
0.0398832687624672
 40
0.3043388318529329
 40
0.5186670599950823
 40
0.7102895120190852
 40
0.8971539031474045
 40
1.0
 40
1.0
 40
1.0
 40
1.0
 10
57.63891683722463
 20
547.5418722223046
 30
0.0
 10
57.63842315736306
 20
547.5450263932432
 30
0.0
 10
57.63523800273244
 20
547.5657449001199
 30
0.0
 10
57.6493792300577
 20
547.6047881885862
 30
0.0
 10
57.67522042587815
 20
547.6425662649866
 30
0.0
 10
57.70191325446665
 20
547.6643740581213
 30
0.0
 10
57.71983186275865
 20
547.6739342723996
 30
0.0
 10
57.72499033783367
 20
547.6759357007332
 30
0.0
 10
57.72706894427629
 20
547.6766591962217
 30
0.0
  0
ARC
  5
C9
330
5E
100
AcDbEntity
  8
$DDT_AUDIT_GENERATED_(73)
  6
Continuous
 62
     7
100
AcDbCircle
 10
57.7826178203
 20
541.5393052139
 30
0.0
 40
0.1444303390607419
100
AcDbArc
 50
178.7653326588
 51
249.6578811813
  0
SPLINE
  5
CA
330
5E
100
AcDbEntity
  8
$DDT_AUDIT_GENERATED_(73)
  6
Continuous
 62
     7
100
AcDbSpline
210
0.0
220
0.0
230
1.0
 70
     8
 71
     3
 72
    13
 73
     9
 74
     0
 42
0.0000000585792432
 43
0.0000000001
 40
0.0
 40
0.0
 40
0.0
 40
0.0
 40
0.0399571564799289
 40
0.3166438240942415
 40
0.5408847609355321
 40
0.7413697765313819
 40
0.9368766702902147
 40
1.0
 40
1.0
 40
1.0
 40
1.0
 10
51.13607391357907
 20
541.5403252401602
 30
0.0
 10
51.13654382927476
 20
541.5373046277632
 30
0.0
 10
51.13969491015956
 20
541.5166968118355
 30
0.0
 10
51.12556566114986
 20
541.4777833407543
 30
0.0
 10
51.09968551075782
 20
541.4399697344201
 30
0.0
 10
51.07315797658318
 20
541.4182800569404
 30
0.0
 10
51.0563571944007
 20
541.4092367871681
 30
0.0
 10
51.05181245964651
 20
541.4074541172521
 30
0.0
 10
51.05054008248373
 20
541.4069861016497
 30
0.0
  0
ARC
  5
CB
330
5E
100
AcDbEntity
  8
$DDT_AUDIT_GENERATED_(73)
  6
Continuous
 62
     7
100
AcDbCircle
 10
50.9918943275
 20
543.2432392068
 30
0.0
 40
0.1451808126322202
100
AcDbArc
 50
358.3351240299
 51
72.2966069831
  0
SPLINE
  5
CC
330
5E
100
AcDbEntity
  8
$DDT_AUDIT_GENERATED_(73)
  6
Continuous
 62
     7
100
AcDbSpline
210
0.0
220
0.0
230
1.0
 70
     8
 71
     3
 72
    13
 73
     9
 74
     0
 42
0.0000000574836229
 43
0.0000000001
 40
0.0
 40
0.0
 40
0.0
 40
0.0
 40
0.0398832687624688
 40
0.3043388318529893
 40
0.5186670599950561
 40
0.7102895120190875
 40
0.8971539031474076
 40
1.0
 40
1.0
 40
1.0
 40
1.0
 10
57.63891683722463
 20
543.2425271331322
 30
0.0
 10
57.63842315736306
 20
543.2456813040708
 30
0.0
 10
57.63523800273241
 20
543.2663998109473
 30
0.0
 10
57.64937923005775
 20
543.3054430994138
 30
0.0
 10
57.67522042587814
 20
543.3432211758143
 30
0.0
 10
57.70191325446664
 20
543.3650289689488
 30
0.0
 10
57.71983186275864
 20
543.3745891832272
 30
0.0
 10
57.72499033783367
 20
543.3765906115607
 30
0.0
 10
57.72706894427629
 20
543.3773141070494
 30
0.0
  0
SPLINE
  5
CD
330
5E
100
AcDbEntity
  8
$DDT_AUDIT_GENERATED_(73)
  6
Continuous
 62
     7
100
AcDbSpline
210
0.0
220
0.0
230
1.0
 70
     8
 71
     3
 72
    12
 73
     8
 74
     0
 42
0.0000000565589359
 43
0.0000000001
 40
0.0
 40
0.0
 40
0.0
 40
0.0
 40
0.2344612934306404
 40
0.5071740835282661
 40
0.6901571939337189
 40
0.8924213273182708
 40
1.0
 40
1.0
 40
1.0
 40
1.0
 10
57.39214433512655
 20
537.2935351010643
 30
0.0
 10
57.39716127122538
 20
537.2944239407026
 30
0.0
 10
57.40716784968827
 20
537.2973137350352
 30
0.0
 10
57.43653954454888
 20
537.3083645723
 30
0.0
 10
57.47454283176642
 20
537.3385424672799
 30
0.0
 10
57.50102052042141
 20
537.3748159001246
 30
0.0
 10
57.50523224680375
 20
537.4004125542018
 30
0.0
 10
57.50686242047274
 20
537.410822190234
 30
0.0
  0
SPLINE
  5
CE
330
5E
100
AcDbEntity
  8
$DDT_AUDIT_GENERATED_(73)
  6
Continuous
 62
     7
100
AcDbSpline
210
0.0
220
0.0
230
1.0
 70
     8
 71
     3
 72
    15
 73
    11
 74
     0
 42
0.0000000478491876
 43
0.0000000001
 40
0.0
 40
0.0
 40
0.0
 40
0.0
 40
0.0340881455411302
 40
0.1583524717968037
 40
0.2653700118442281
 40
0.3649305921591727
 40
0.4717150698928677
 40
0.6300957017596986
 40
0.8928675890879699
 40
1.0
 40
1.0
 40
1.0
 40
1.0
 10
51.2668499246791
 20
537.4132846056083
 30
0.0
 10
51.267151630326
 20
537.4081954472958
 30
0.0
 10
51.26843672450782
 20
537.3878985492579
 30
0.0
 10
51.28767805747425
 20
537.3551256453421
 30
0.0
 10
51.31515459175475
 20
537.3253526136045
 30
0.0
 10
51.34187775560958
 20
537.308102892753
 30
0.0
 10
51.36462766532669
 20
537.2982168526555
 30
0.0
 10
51.38546911189946
 20
537.2922714717437
 30
0.0
 10
51.39938656350397
 20
537.2894335046702
 30
0.0
 10
51.40874796428211
 20
537.2882977512141
 30
0.0
 10
51.41184589652725
 20
537.287948186242
 30
0.0
  0
LINE
  5
CF
330
5E
100
AcDbEntity
  8
$DDT_AUDIT_GENERATED_(73)
  6
Continuous
 62
     7
100
AcDbLine
 10
51.7374713721
 20
536.7796371851
 30
0.0
 11
51.7374713721
 21
531.3932844784
 31
0.0
  0
LINE
  5
D0
330
5E
100
AcDbEntity
  8
$DDT_AUDIT_GENERATED_(73)
  6
Continuous
 62
     7
100
AcDbLine
 10
57.0374713721
 20
531.3932844784
 30
0.0
 11
57.0374713721
 21
536.7796371851
 31
0.0
  0
LINE
  5
D1
330
5E
100
AcDbEntity
  8
$DDT_AUDIT_GENERATED_(98)
  6
Continuous
 62
     7
100
AcDbLine
 10
56.3874713721
 20
458.3044179625
 30
0.0
 11
56.3874713721
 21
531.3629428788
 31
0.0
  0
LINE
  5
D2
330
5E
100
AcDbEntity
  8
$DDT_AUDIT_GENERATED_(98)
  6
Continuous
 62
     7
100
AcDbLine
 10
52.3874713721
 20
531.3629428788
 30
0.0
 11
52.3874713721
 21
458.3044179625
 31
0.0
  0
LINE
  5
D4
330
5E
100
AcDbEntity
  8
$DDT_AUDIT_GENERATED_(D3)
  6
Continuous
 62
     7
100
AcDbLine
 10
53.9906694561
 20
209.6026060682
 30
0.0
 11
53.9906694561
 21
200.1040529643
 31
0.0
  0
LINE
  5
D5
330
5E
100
AcDbEntity
  8
$DDT_AUDIT_GENERATED_(D3)
  6
Continuous
 62
     7
100
AcDbLine
 10
65.4710877948
 20
209.6026060682
 30
0.0
 11
65.4710877948
 21
200.1040529643
 31
0.0
  0
ARC
  5
D6
330
5E
100
AcDbEntity
  8
$DDT_AUDIT_GENERATED_(D3)
  6
Continuous
 62
     7
100
AcDbCircle
 10
59.7308786255
 20
63.4605107152
 30
0.0
 40
146.2547846584553
100
AcDbArc
 50
87.7606885716
 51
92.2493230261
  0
LINE
  5
D7
330
5E
100
AcDbEntity
  8
$DDT_AUDIT_GENERATED_(D3)
  6
Continuous
 62
     7
100
AcDbLine
 10
55.686271699
 20
219.5318291077
 30
0.0
 11
63.7754855519
 21
219.5318291077
 31
0.0
  0
LINE
  5
D8
330
5E
100
AcDbEntity
  8
$DDT_AUDIT_GENERATED_(D3)
  6
Continuous
 62
     7
100
AcDbLine
 10
65.4710877948
 20
209.6026060682
 30
0.0
 11
63.7754855519
 21
219.5318291077
 31
0.0
  0
LINE
  5
D9
330
5E
100
AcDbEntity
  8
$DDT_AUDIT_GENERATED_(D3)
  6
Continuous
 62
     7
100
AcDbLine
 10
53.9906694561
 20
209.6026060682
 30
0.0
 11
55.686271699
 21
219.5318291077
 31
0.0
  0
LINE
  5
DA
330
5E
100
AcDbEntity
  8
$DDT_AUDIT_GENERATED_(D3)
  6
Continuous
 62
     7
100
AcDbLine
 10
55.686271699
 20
234.529544535
 30
0.0
 11
55.686271699
 21
233.0776294591
 31
0.0
  0
LINE
  5
DB
330
5E
100
AcDbEntity
  8
$DDT_AUDIT_GENERATED_(D3)
  6
Continuous
 62
     7
100
AcDbLine
 10
63.7754855519
 20
234.529544535
 30
0.0
 11
63.7754855519
 21
233.0776294591
 31
0.0
  0
LINE
  5
DC
330
5E
100
AcDbEntity
  8
$DDT_AUDIT_GENERATED_(D3)
  6
Continuous
 62
     7
100
AcDbLine
 10
55.686271699
 20
231.2077115254
 30
0.0
 11
55.686271699
 21
228.0783909833
 31
0.0
  0
LINE
  5
DD
330
5E
100
AcDbEntity
  8
$DDT_AUDIT_GENERATED_(D3)
  6
Continuous
 62
     7
100
AcDbLine
 10
57.686271699
 20
233.0776294591
 30
0.0
 11
55.686271699
 21
233.0776294591
 31
0.0
  0
LINE
  5
DE
330
5E
100
AcDbEntity
  8
$DDT_AUDIT_GENERATED_(D3)
  6
Continuous
 62
     7
100
AcDbLine
 10
57.686271699
 20
233.041112895
 30
0.0
 11
55.686271699
 21
233.041112895
 31
0.0
  0
LINE
  5
DF
330
5E
100
AcDbEntity
  8
$DDT_AUDIT_GENERATED_(D3)
  6
Continuous
 62
     7
100
AcDbLine
 10
55.686271699
 20
233.0776294591
 30
0.0
 11
55.686271699
 21
233.041112895
 31
0.0
  0
LINE
  5
E0
330
5E
100
AcDbEntity
  8
$DDT_AUDIT_GENERATED_(D3)
  6
Continuous
 62
     7
100
AcDbLine
 10
55.686271699
 20
233.041112895
 30
0.0
 11
55.686271699
 21
231.2077115254
 31
0.0
  0
LINE
  5
E1
330
5E
100
AcDbEntity
  8
$DDT_AUDIT_GENERATED_(D3)
  6
Continuous
 62
     7
100
AcDbLine
 10
55.686271699
 20
226.2084730496
 30
0.0
 11
55.686271699
 21
223.0791525075
 31
0.0
  0
LINE
  5
E2
330
5E
100
AcDbEntity
  8
$DDT_AUDIT_GENERATED_(D3)
  6
Continuous
 62
     7
100
AcDbLine
 10
57.686271699
 20
226.2084730496
 30
0.0
 11
57.686271699
 21
228.0783909833
 31
0.0
  0
LINE
  5
E3
330
5E
100
AcDbEntity
  8
$DDT_AUDIT_GENERATED_(D3)
  6
Continuous
 62
     7
100
AcDbLine
 10
57.686271699
 20
228.0783909833
 30
0.0
 11
55.686271699
 21
228.0783909833
 31
0.0
  0
LINE
  5
E4
330
5E
100
AcDbEntity
  8
$DDT_AUDIT_GENERATED_(D3)
  6
Continuous
 62
     7
100
AcDbLine
 10
57.686271699
 20
226.2084730496
 30
0.0
 11
55.686271699
 21
226.2084730496
 31
0.0
  0
LINE
  5
E5
330
5E
100
AcDbEntity
  8
$DDT_AUDIT_GENERATED_(D3)
  6
Continuous
 62
     7
100
AcDbLine
 10
57.686271699
 20
228.0418744193
 30
0.0
 11
55.686271699
 21
228.0418744193
 31
0.0
  0
LINE
  5
E6
330
5E
100
AcDbEntity
  8
$DDT_AUDIT_GENERATED_(D3)
  6
Continuous
 62
     7
100
AcDbLine
 10
55.686271699
 20
228.0783909833
 30
0.0
 11
55.686271699
 21
228.0418744193
 31
0.0
  0
LINE
  5
E7
330
5E
100
AcDbEntity
  8
$DDT_AUDIT_GENERATED_(D3)
  6
Continuous
 62
     7
100
AcDbLine
 10
55.686271699
 20
228.0418744193
 30
0.0
 11
55.686271699
 21
226.2084730496
 31
0.0
  0
LINE
  5
E8
330
5E
100
AcDbEntity
  8
$DDT_AUDIT_GENERATED_(D3)
  6
Continuous
 62
     7
100
AcDbLine
 10
55.686271699
 20
221.2092345738
 30
0.0
 11
55.686271699
 21
219.5318291077
 31
0.0
  0
LINE
  5
E9
330
5E
100
AcDbEntity
  8
$DDT_AUDIT_GENERATED_(D3)
  6
Continuous
 62
     7
100
AcDbLine
 10
57.686271699
 20
221.2092345738
 30
0.0
 11
57.686271699
 21
223.0791525075
 31
0.0
  0
LINE
  5
EA
330
5E
100
AcDbEntity
  8
$DDT_AUDIT_GENERATED_(D3)
  6
Continuous
 62
     7
100
AcDbLine
 10
57.686271699
 20
223.0791525075
 30
0.0
 11
55.686271699
 21
223.0791525075
 31
0.0
  0
LINE
  5
EB
330
5E
100
AcDbEntity
  8
$DDT_AUDIT_GENERATED_(D3)
  6
Continuous
 62
     7
100
AcDbLine
 10
57.686271699
 20
221.2092345738
 30
0.0
 11
55.686271699
 21
221.2092345738
 31
0.0
  0
LINE
  5
EC
330
5E
100
AcDbEntity
  8
$DDT_AUDIT_GENERATED_(D3)
  6
Continuous
 62
     7
100
AcDbLine
 10
57.686271699
 20
223.0426359435
 30
0.0
 11
55.686271699
 21
223.0426359435
 31
0.0
  0
LINE
  5
ED
330
5E
100
AcDbEntity
  8
$DDT_AUDIT_GENERATED_(D3)
  6
Continuous
 62
     7
100
AcDbLine
 10
55.686271699
 20
223.0791525075
 30
0.0
 11
55.686271699
 21
223.0426359435
 31
0.0
  0
LINE
  5
EE
330
5E
100
AcDbEntity
  8
$DDT_AUDIT_GENERATED_(D3)
  6
Continuous
 62
     7
100
AcDbLine
 10
55.686271699
 20
223.0426359435
 30
0.0
 11
55.686271699
 21
221.2092345738
 31
0.0
  0
LINE
  5
EF
330
5E
100
AcDbEntity
  8
$DDT_AUDIT_GENERATED_(D3)
  6
Continuous
 62
     7
100
AcDbLine
 10
63.7754855519
 20
231.2077115254
 30
0.0
 11
63.7754855519
 21
228.0783909833
 31
0.0
  0
LINE
  5
F0
330
5E
100
AcDbEntity
  8
$DDT_AUDIT_GENERATED_(D3)
  6
Continuous
 62
     7
100
AcDbLine
 10
61.7754855519
 20
231.2077115254
 30
0.0
 11
63.7754855519
 21
231.2077115254
 31
0.0
  0
LINE
  5
F1
330
5E
100
AcDbEntity
  8
$DDT_AUDIT_GENERATED_(D3)
  6
Continuous
 62
     7
100
AcDbLine
 10
63.7754855519
 20
233.0776294591
 30
0.0
 11
63.7754855519
 21
233.041112895
 31
0.0
  0
LINE
  5
F2
330
5E
100
AcDbEntity
  8
$DDT_AUDIT_GENERATED_(D3)
  6
Continuous
 62
     7
100
AcDbLine
 10
61.7754855519
 20
233.0776294591
 30
0.0
 11
63.7754855519
 21
233.0776294591
 31
0.0
  0
LINE
  5
F3
330
5E
100
AcDbEntity
  8
$DDT_AUDIT_GENERATED_(D3)
  6
Continuous
 62
     7
100
AcDbLine
 10
63.7754855519
 20
233.041112895
 30
0.0
 11
63.7754855519
 21
231.2077115254
 31
0.0
  0
LINE
  5
F4
330
5E
100
AcDbEntity
  8
$DDT_AUDIT_GENERATED_(D3)
  6
Continuous
 62
     7
100
AcDbLine
 10
61.7754855519
 20
233.041112895
 30
0.0
 11
63.7754855519
 21
233.041112895
 31
0.0
  0
LINE
  5
F5
330
5E
100
AcDbEntity
  8
$DDT_AUDIT_GENERATED_(D3)
  6
Continuous
 62
     7
100
AcDbLine
 10
61.7754855519
 20
231.2077115254
 30
0.0
 11
61.7754855519
 21
233.0776294591
 31
0.0
  0
LINE
  5
F6
330
5E
100
AcDbEntity
  8
$DDT_AUDIT_GENERATED_(D3)
  6
Continuous
 62
     7
100
AcDbLine
 10
63.7754855519
 20
226.2084730496
 30
0.0
 11
63.7754855519
 21
223.0791525075
 31
0.0
  0
LINE
  5
F7
330
5E
100
AcDbEntity
  8
$DDT_AUDIT_GENERATED_(D3)
  6
Continuous
 62
     7
100
AcDbLine
 10
61.7754855519
 20
226.2084730496
 30
0.0
 11
63.7754855519
 21
226.2084730496
 31
0.0
  0
LINE
  5
F8
330
5E
100
AcDbEntity
  8
$DDT_AUDIT_GENERATED_(D3)
  6
Continuous
 62
     7
100
AcDbLine
 10
63.7754855519
 20
228.0783909833
 30
0.0
 11
63.7754855519
 21
228.0418744193
 31
0.0
  0
LINE
  5
F9
330
5E
100
AcDbEntity
  8
$DDT_AUDIT_GENERATED_(D3)
  6
Continuous
 62
     7
100
AcDbLine
 10
61.7754855519
 20
228.0783909833
 30
0.0
 11
63.7754855519
 21
228.0783909833
 31
0.0
  0
LINE
  5
FA
330
5E
100
AcDbEntity
  8
$DDT_AUDIT_GENERATED_(D3)
  6
Continuous
 62
     7
100
AcDbLine
 10
63.7754855519
 20
228.0418744193
 30
0.0
 11
63.7754855519
 21
226.2084730496
 31
0.0
  0
LINE
  5
FB
330
5E
100
AcDbEntity
  8
$DDT_AUDIT_GENERATED_(D3)
  6
Continuous
 62
     7
100
AcDbLine
 10
61.7754855519
 20
228.0418744193
 30
0.0
 11
63.7754855519
 21
228.0418744193
 31
0.0
  0
LINE
  5
FC
330
5E
100
AcDbEntity
  8
$DDT_AUDIT_GENERATED_(D3)
  6
Continuous
 62
     7
100
AcDbLine
 10
61.7754855519
 20
226.2084730496
 30
0.0
 11
61.7754855519
 21
228.0783909833
 31
0.0
  0
LINE
  5
FD
330
5E
100
AcDbEntity
  8
$DDT_AUDIT_GENERATED_(D3)
  6
Continuous
 62
     7
100
AcDbLine
 10
63.7754855519
 20
221.2092345738
 30
0.0
 11
63.7754855519
 21
219.5318291077
 31
0.0
  0
LINE
  5
FE
330
5E
100
AcDbEntity
  8
$DDT_AUDIT_GENERATED_(D3)
  6
Continuous
 62
     7
100
AcDbLine
 10
61.7754855519
 20
221.2092345738
 30
0.0
 11
63.7754855519
 21
221.2092345738
 31
0.0
  0
LINE
  5
FF
330
5E
100
AcDbEntity
  8
$DDT_AUDIT_GENERATED_(D3)
  6
Continuous
 62
     7
100
AcDbLine
 10
63.7754855519
 20
223.0791525075
 30
0.0
 11
63.7754855519
 21
223.0426359435
 31
0.0
  0
LINE
  5
100
330
5E
100
AcDbEntity
  8
$DDT_AUDIT_GENERATED_(D3)
  6
Continuous
 62
     7
100
AcDbLine
 10
61.7754855519
 20
223.0791525075
 30
0.0
 11
63.7754855519
 21
223.0791525075
 31
0.0
  0
LINE
  5
101
330
5E
100
AcDbEntity
  8
$DDT_AUDIT_GENERATED_(D3)
  6
Continuous
 62
     7
100
AcDbLine
 10
63.7754855519
 20
223.0426359435
 30
0.0
 11
63.7754855519
 21
221.2092345738
 31
0.0
  0
LINE
  5
102
330
5E
100
AcDbEntity
  8
$DDT_AUDIT_GENERATED_(D3)
  6
Continuous
 62
     7
100
AcDbLine
 10
61.7754855519
 20
223.0426359435
 30
0.0
 11
63.7754855519
 21
223.0426359435
 31
0.0
  0
LINE
  5
103
330
5E
100
AcDbEntity
  8
$DDT_AUDIT_GENERATED_(D3)
  6
Continuous
 62
     7
100
AcDbLine
 10
61.7754855519
 20
221.2092345738
 30
0.0
 11
61.7754855519
 21
223.0791525075
 31
0.0
  0
LINE
  5
104
330
5E
100
AcDbEntity
  8
$DDT_AUDIT_GENERATED_(D3)
  6
Continuous
 62
     7
100
AcDbLine
 10
55.686271699
 20
234.3879286715
 30
0.0
 11
54.4672645094
 21
234.3879286715
 31
0.0
  0
LINE
  5
105
330
5E
100
AcDbEntity
  8
$DDT_AUDIT_GENERATED_(D3)
  6
Continuous
 62
     7
100
AcDbLine
 10
54.4672645094
 20
234.3879286715
 30
0.0
 11
54.4672645094
 21
234.529544535
 31
0.0
  0
LINE
  5
106
330
5E
100
AcDbEntity
  8
$DDT_AUDIT_GENERATED_(D3)
  6
Continuous
 62
     7
100
AcDbLine
 10
54.4672645094
 20
234.529544535
 30
0.0
 11
55.686271699
 21
234.529544535
 31
0.0
  0
LINE
  5
107
330
5E
100
AcDbEntity
  8
$DDT_AUDIT_GENERATED_(D3)
  6
Continuous
 62
     7
100
AcDbLine
 10
63.7754855519
 20
234.529544535
 30
0.0
 11
64.4944927416
 21
234.529544535
 31
0.0
  0
LINE
  5
108
330
5E
100
AcDbEntity
  8
$DDT_AUDIT_GENERATED_(D3)
  6
Continuous
 62
     7
100
AcDbLine
 10
52.7308786255
 20
193.2678929396
 30
0.0
 11
52.7308786255
 21
193.6620692642
 31
0.0
  0
LINE
  5
109
330
5E
100
AcDbEntity
  8
$DDT_AUDIT_GENERATED_(D3)
  6
Continuous
 62
     7
100
AcDbLine
 10
52.7308786255
 20
193.6620692642
 30
0.0
 11
52.7308786255
 21
199.1612315875
 31
0.0
  0
LINE
  5
10A
330
5E
100
AcDbEntity
  8
$DDT_AUDIT_GENERATED_(D3)
  6
Continuous
 62
     7
100
AcDbLine
 10
59.3773252349
 20
193.7816802635
 30
0.0
 11
59.3773252349
 21
199.2808425868
 31
0.0
  0
LINE
  5
10B
330
5E
100
AcDbEntity
  8
$DDT_AUDIT_GENERATED_(D3)
  6
Continuous
 62
     7
100
AcDbLine
 10
60.0844320161
 20
199.2808425868
 30
0.0
 11
60.0844320161
 21
193.7816802635
 31
0.0
  0
LINE
  5
10C
330
5E
100
AcDbEntity
  8
$DDT_AUDIT_GENERATED_(D3)
  6
Continuous
 62
     7
100
AcDbLine
 10
66.7308786255
 20
199.1612315875
 30
0.0
 11
66.7308786255
 21
193.6620692642
 31
0.0
  0
LINE
  5
10D
330
5E
100
AcDbEntity
  8
$DDT_AUDIT_GENERATED_(D3)
  6
Continuous
 62
     7
100
AcDbLine
 10
66.7308786255
 20
193.6620692642
 30
0.0
 11
66.7308786255
 21
193.2678929396
 31
0.0
  0
LINE
  5
10E
330
5E
100
AcDbEntity
  8
$DDT_AUDIT_GENERATED_(D3)
  6
Continuous
 62
     7
100
AcDbLine
 10
54.9672645094
 20
236.5205137221
 30
0.0
 11
64.4944927416
 21
236.5205137221
 31
0.0
  0
LINE
  5
10F
330
5E
100
AcDbEntity
  8
$DDT_AUDIT_GENERATED_(D3)
  6
Continuous
 62
     7
100
AcDbLine
 10
54.4672645094
 20
236.0293160778
 30
0.0
 11
54.4672645094
 21
234.529544535
 31
0.0
  0
LINE
  5
110
330
5E
100
AcDbEntity
  8
$DDT_AUDIT_GENERATED_(D3)
  6
Continuous
 62
     7
100
AcDbLine
 10
57.686271699
 20
231.7076353729
 30
0.0
 11
57.686271699
 21
233.0776294591
 31
0.0
  0
LINE
  5
111
330
5E
100
AcDbEntity
  8
$DDT_AUDIT_GENERATED_(D3)
  6
Continuous
 62
     7
100
AcDbLine
 10
57.186271699
 20
231.2077115254
 30
0.0
 11
55.686271699
 21
231.2077115254
 31
0.0
  0
LINE
  5
112
330
5E
100
AcDbEntity
  8
$DDT_AUDIT_GENERATED_(D3)
  6
Continuous
 62
     7
100
AcDbLine
 10
64.4944927416
 20
234.3879286715
 30
0.0
 11
63.7754855519
 21
234.3879286715
 31
0.0
  0
LINE
  5
113
330
5E
100
AcDbEntity
  8
$DDT_AUDIT_GENERATED_(D3)
  6
Continuous
 62
     7
100
AcDbLine
 10
64.9944927416
 20
235.0207421794
 30
0.0
 11
64.9944927416
 21
234.8965787223
 31
0.0
  0
LINE
  5
114
330
5E
100
AcDbEntity
  8
$DDT_AUDIT_GENERATED_(D3)
  6
Continuous
 62
     7
100
AcDbLine
 10
64.9944927416
 20
236.0205898745
 30
0.0
 11
64.9944927416
 21
235.0207421794
 31
0.0
  0
ELLIPSE
  5
115
330
5E
100
AcDbEntity
  8
$DDT_AUDIT_GENERATED_(D3)
  6
Continuous
 62
     7
100
AcDbEllipse
 10
57.186271699
 20
231.7076353729
 30
0.0
 11
0.4999999999996951
 21
1.057484655397900E-11
 31
0.0
210
0.0
220
0.0
230
1.0
 40
0.9998476952
 41
4.712388980363543
 42
6.283185307179586
  0
ELLIPSE
  5
116
330
5E
100
AcDbEntity
  8
$DDT_AUDIT_GENERATED_(D3)
  6
Continuous
 62
     7
100
AcDbEllipse
 10
59.7308786255
 20
199.2746722294
 30
0.0
 11
0.008724874580336828
 21
-0.4999238707679154
 31
0.0
210
0.0
220
0.0
230
1.0
 40
0.7069990854
 41
3.116912476245897
 42
3.141592653589793
  0
ELLIPSE
  5
117
330
5E
100
AcDbEntity
  8
$DDT_AUDIT_GENERATED_(D3)
  6
Continuous
 62
     7
100
AcDbEllipse
 10
53.2308786255
 20
199.1612315875
 30
0.0
 11
-0.5000000000000264
 21
-7.216172104307361E-13
 31
0.0
210
0.0
220
0.0
230
1.0
 40
0.9998476952
 41
4.712388980383246
 42
6.283185307178143
  0
ELLIPSE
  5
118
330
5E
100
AcDbEntity
  8
$DDT_AUDIT_GENERATED_(D3)
  6
Continuous
 62
     7
100
AcDbEllipse
 10
59.7308786255
 20
199.2746722294
 30
0.0
 11
-0.008724874580350761
 21
-0.4999238707679154
 31
0.0
210
0.0
220
0.0
230
1.0
 40
0.7069990854
 41
3.141592653589793
 42
3.166272830933725
  0
ELLIPSE
  5
119
330
5E
100
AcDbEntity
  8
$DDT_AUDIT_GENERATED_(D3)
  6
Continuous
 62
     7
100
AcDbEllipse
 10
66.2308786255
 20
199.1612315875
 30
0.0
 11
-0.4999999999998582
 21
3.608502385787915E-13
 31
0.0
210
0.0
220
0.0
230
1.0
 40
0.9998476952
 41
3.141592653589793
 42
4.712388980385411
  0
ELLIPSE
  5
11A
330
5E
100
AcDbEntity
  8
$DDT_AUDIT_GENERATED_(D3)
  6
Continuous
 62
     7
100
AcDbEllipse
 10
53.2308786255
 20
193.2678929396
 30
0.0
 11
0.500000000000023
 21
-3.608502385787915E-13
 31
0.0
210
0.0
220
0.0
230
1.0
 40
0.9998476952
 41
3.141592653589793
 42
4.712388980385411
  0
ELLIPSE
  5
11B
330
5E
100
AcDbEntity
  8
$DDT_AUDIT_GENERATED_(D3)
  6
Continuous
 62
     7
100
AcDbEllipse
 10
53.2308786255
 20
193.2678929396
 30
0.0
 11
0.008724874580307393
 21
0.4999238707678599
 31
0.0
210
0.0
220
0.0
230
0.9999999999999998
 40
0.7069990854
 41
3.141592653589793
 42
3.166272830933163
  0
ELLIPSE
  5
11C
330
5E
100
AcDbEntity
  8
$DDT_AUDIT_GENERATED_(D3)
  6
Continuous
 62
     7
100
AcDbEllipse
 10
66.2308786255
 20
193.2678929396
 30
0.0
 11
0.5000000000000109
 21
1.032507135345639E-10
 31
0.0
210
0.0
220
0.0
230
1.0
 40
0.9998476952
 41
4.71238898017822
 42
6.283185307179586
  0
ELLIPSE
  5
11D
330
5E
100
AcDbEntity
  8
$DDT_AUDIT_GENERATED_(D3)
  6
Continuous
 62
     7
100
AcDbEllipse
 10
64.4944927416
 20
234.8965787223
 30
0.0
 11
-8.676440954873393E-14
 21
-0.5086500507968383
 31
0.0
210
0.0
220
0.0
230
1.0
 40
0.9829941022
 41
0.0000000000001735
 42
1.570796326795064
  0
ELLIPSE
  5
11E
330
5E
100
AcDbEntity
  8
$DDT_AUDIT_GENERATED_(D3)
  6
Continuous
 62
     7
100
AcDbEllipse
 10
64.4944927416
 20
235.0207421794
 30
0.0
 11
-0.5000000000000004
 21
-7.771283616619939E-13
 31
0.0
210
0.0
220
0.0
230
1.0
 40
0.9823952887
 41
1.57079632679337
 42
3.141592653589793
  0
ELLIPSE
  5
11F
330
5E
100
AcDbEntity
  8
$DDT_AUDIT_GENERATED_(D3)
  6
Continuous
 62
     7
100
AcDbEllipse
 10
64.4944927416
 20
236.0205898745
 30
0.0
 11
0.5000000000000282
 21
-7.216727215819674E-13
 31
0.0
210
0.0
220
0.0
230
1.0
 40
0.9998476952
 41
0.0000000000014436
 42
1.57079632679634
  0
ELLIPSE
  5
120
330
5E
100
AcDbEntity
  8
$DDT_AUDIT_GENERATED_(D3)
  6
Continuous
 62
     7
100
AcDbEllipse
 10
54.9672645094
 20
236.0205898745
 30
0.0
 11
0.3566252245772242
 21
-0.3566252245769675
 31
0.0
210
0.0
220
0.0
230
1.0
 40
0.9826972631
 41
2.347467843932032
 42
3.918264170726942
  0
LINE
  5
121
330
5E
100
AcDbEntity
  8
$DDT_AUDIT_GENERATED_(D3)
  6
Continuous
 62
     7
100
AcDbLine
 10
57.8308786255
 20
386.4565291548
 30
0.0
 11
57.8308786255
 21
236.5205137221
 31
0.0
  0
LINE
  5
122
330
5E
100
AcDbEntity
  8
$DDT_AUDIT_GENERATED_(D3)
  6
Continuous
 62
     7
100
AcDbLine
 10
61.6308786255
 20
386.4565291548
 30
0.0
 11
61.6308786255
 21
236.5205137221
 31
0.0
  0
ELLIPSE
  5
123
330
5E
100
AcDbEntity
  8
$DDT_AUDIT_GENERATED_(D3)
  6
Continuous
 62
     7
100
AcDbEllipse
 10
59.7308786255
 20
386.4565291548
 30
0.0
 11
-1.899999999999999
 21
1.054711873393898E-16
 31
0.0
210
0.0
220
0.0
230
1.0
 40
0.0174524064
 41
3.141592653589793
 42
6.283185307179586
  0
ARC
  5
124
330
5E
100
AcDbEntity
  8
$DDT_AUDIT_GENERATED_(D3)
  6
Continuous
 62
     7
100
AcDbCircle
 10
54.298417405
 20
209.6861296342
 30
0.0
 40
0.2893730930863735
100
AcDbArc
 50
168.9934181596
 51
194.307045404
  0
ARC
  5
125
330
5E
100
AcDbEntity
  8
$DDT_AUDIT_GENERATED_(D3)
  6
Continuous
 62
     7
100
AcDbCircle
 10
65.163093024
 20
209.6860195413
 30
0.0
 40
0.2896364003438923
100
AcDbArc
 50
345.4674296077
 51
11.0186377666
  0
LINE
  5
126
330
5E
100
AcDbEntity
  8
$DDT_AUDIT_GENERATED_(D3)
  6
Continuous
 62
     7
100
AcDbLine
 10
59.7221537509
 20
199.7745961001
 30
0.0
 11
53.2221537509
 21
199.6611554583
 31
0.0
  0
LINE
  5
127
330
5E
100
AcDbEntity
  8
$DDT_AUDIT_GENERATED_(D3)
  6
Continuous
 62
     7
100
AcDbLine
 10
66.2396035001
 20
199.6611554583
 30
0.0
 11
59.7396035001
 21
199.7745961001
 31
0.0
  0
LINE
  5
128
330
5E
100
AcDbEntity
  8
$DDT_AUDIT_GENERATED_(D3)
  6
Continuous
 62
     7
100
AcDbLine
 10
53.2221537509
 20
192.7679690688
 30
0.0
 11
58.2308786255
 21
192.6805547665
 31
0.0
  0
LINE
  5
129
330
5E
100
AcDbEntity
  8
$DDT_AUDIT_GENERATED_(D3)
  6
Continuous
 62
     7
100
AcDbLine
 10
61.2308786255
 20
192.6805547665
 30
0.0
 11
66.2396035001
 21
192.7679690688
 31
0.0
  0
SPLINE
  5
12A
330
5E
100
AcDbEntity
  8
$DDT_AUDIT_GENERATED_(D3)
  6
Continuous
 62
     7
100
AcDbSpline
210
0.0
220
0.0
230
1.0
 70
     8
 71
     3
 72
    13
 73
     9
 74
     0
 42
0.0000000069554794
 43
0.0000000001
 40
0.627779675796609
 40
0.627779675796609
 40
0.627779675796609
 40
0.627779675796609
 40
0.6687968755463414
 40
0.738886086616556
 40
0.8167715239745768
 40
0.8995596025275819
 40
0.9851739477706405
 40
1.0
 40
1.0
 40
1.0
 40
1.0
 10
65.7296740489966
 20
199.6679597904991
 30
0.0
 10
65.71644959029321
 20
199.6751304443584
 30
0.0
 10
65.67832333014559
 20
199.6979079096304
 30
0.0
 10
65.61070378435092
 20
199.7528848414207
 30
0.0
 10
65.54012581608116
 20
199.8419432736863
 30
0.0
 10
65.48852957977846
 20
199.9535092421771
 30
0.0
 10
65.47195245770978
 20
200.0482486873745
 30
0.0
 10
65.47118008174988
 20
200.0958566622293
 30
0.0
 10
65.4710877948301
 20
200.1040529642552
 30
0.0
  0
ARC
  5
12B
330
5E
100
AcDbEntity
  8
$DDT_AUDIT_GENERATED_(D3)
  6
Continuous
 62
     7
100
AcDbCircle
 10
53.4989653096
 20
200.101992337
 30
0.0
 40
0.4917084643119237
100
AcDbArc
 50
298.6951229405
 51
0.2401129963
  0
ELLIPSE
  5
12C
330
5E
100
AcDbEntity
  8
$DDT_AUDIT_GENERATED_(D3)
  6
Continuous
 62
     7
100
AcDbEllipse
 10
59.7308786255
 20
182.1280259613
 30
0.0
 11
-1.500000000000001
 21
8.326672684688680E-17
 31
0.0
210
0.0
220
0.0
230
1.0
 40
0.0174524064
 41
3.141592653589793
 42
6.283185307179586
  0
ELLIPSE
  5
12D
330
5E
100
AcDbEntity
  8
$DDT_AUDIT_GENERATED_(D3)
  6
Continuous
 62
     7
100
AcDbEllipse
 10
59.7308786255
 20
193.126350608
 30
0.0
 11
-1.500000000000001
 21
8.326672684688680E-17
 31
0.0
210
0.0
220
0.0
230
1.0
 40
0.0174524064
 41
3.141592653589793
 42
6.283185307179586
  0
LINE
  5
12E
330
5E
100
AcDbEntity
  8
$DDT_AUDIT_GENERATED_(D3)
  6
Continuous
 62
     7
100
AcDbLine
 10
58.2308786255
 20
193.126350608
 30
0.0
 11
58.2308786255
 21
182.1280259613
 31
0.0
  0
LINE
  5
12F
330
5E
100
AcDbEntity
  8
$DDT_AUDIT_GENERATED_(D3)
  6
Continuous
 62
     7
100
AcDbLine
 10
61.2308786255
 20
182.1280259613
 30
0.0
 11
61.2308786255
 21
193.126350608
 31
0.0
  0
LINE
  5
130
330
5E
100
AcDbEntity
  8
$DDT_AUDIT_GENERATED_(D3)
  6
Continuous
 62
     7
100
AcDbLine
 10
58.2308786255
 20
176.1289397903
 30
0.0
 11
58.2308786255
 21
175.8063530829
 31
0.0
  0
LINE
  5
131
330
5E
100
AcDbEntity
  8
$DDT_AUDIT_GENERATED_(D3)
  6
Continuous
 62
     7
100
AcDbLine
 10
61.2308786255
 20
175.8063530829
 30
0.0
 11
61.2308786255
 21
176.1289397903
 31
0.0
  0
ELLIPSE
  5
132
330
5E
100
AcDbEntity
  8
$DDT_AUDIT_GENERATED_(D3)
  6
Continuous
 62
     7
100
AcDbEllipse
 10
59.7308786255
 20
182.1280259613
 30
0.0
 11
-1.500000000000001
 21
8.326672684688680E-17
 31
0.0
210
0.0
220
0.0
230
1.0
 40
0.0174524064
 41
3.141592653589793
 42
6.283185307179586
  0
ARC
  5
133
330
5E
100
AcDbEntity
  8
$DDT_AUDIT_GENERATED_(D3)
  6
Continuous
 62
     7
100
AcDbCircle
 10
59.7308786255
 20
176.1289397903
 30
0.0
 40
1.499999999999998
100
AcDbArc
 50
180.0
 51
0.0
  0
LINE
  5
134
330
5E
100
AcDbEntity
  8
$DDT_AUDIT_GENERATED_(D3)
  6
Continuous
 62
     7
100
AcDbLine
 10
58.2308786255
 20
182.1280259613
 30
0.0
 11
58.2308786255
 21
176.1289397903
 31
0.0
  0
LINE
  5
135
330
5E
100
AcDbEntity
  8
$DDT_AUDIT_GENERATED_(D3)
  6
Continuous
 62
     7
100
AcDbLine
 10
61.2308786255
 20
176.1289397903
 30
0.0
 11
61.2308786255
 21
182.1280259613
 31
0.0
  0
ELLIPSE
  5
137
330
5E
100
AcDbEntity
  8
$DDT_AUDIT_GENERATED_(136)
  6
Continuous
 62
     7
100
AcDbEllipse
 10
28.5291326644
 20
671.1629000517
 30
0.0
 11
-5.100000000000002
 21
2.831068712794149E-16
 31
0.0
210
0.0
220
0.0
230
1.0
 40
0.0174524064
 41
5.772785005609823
 42
6.283185307179586
  0
ELLIPSE
  5
138
330
5E
100
AcDbEntity
  8
$DDT_AUDIT_GENERATED_(136)
  6
Continuous
 62
     7
100
AcDbEllipse
 10
28.5291326644
 20
671.1629000517
 30
0.0
 11
-5.100000000000002
 21
2.831068712794149E-16
 31
0.0
210
0.0
220
0.0
230
1.0
 40
0.0174524064
 41
0.0
 42
3.651992955159561
  0
ELLIPSE
  5
139
330
5E
100
AcDbEntity
  8
$DDT_AUDIT_GENERATED_(136)
  6
Continuous
 62
     7
100
AcDbEllipse
 10
28.5291326644
 20
667.163509271
 30
0.0
 11
-5.100000000000002
 21
2.831068712794150E-16
 31
0.0
210
0.0
220
0.0
230
1.0
 40
0.0174524064
 41
0.0
 42
3.141592653589793
  0
ELLIPSE
  5
13A
330
5E
100
AcDbEntity
  8
$DDT_AUDIT_GENERATED_(136)
  6
Continuous
 62
     7
100
AcDbEllipse
 10
28.5291326644
 20
662.8641641819
 30
0.0
 11
-4.450000000000001
 21
2.470246229790973E-16
 31
0.0
210
0.0
220
0.0
230
1.0
 40
0.0174524064
 41
0.0026385593880617
 42
3.141592653589793
  0
ELLIPSE
  5
13B
330
5E
100
AcDbEntity
  8
$DDT_AUDIT_GENERATED_(136)
  6
Continuous
 62
     7
100
AcDbEllipse
 10
28.5291326644
 20
671.1629000517
 30
0.0
 11
-4.449999999999999
 21
2.470246229790972E-16
 31
0.0
210
0.0
220
0.0
230
1.0
 40
0.0174524064
 41
0.0000000000000032
 42
3.141592653589793
  0
ELLIPSE
  5
13C
330
5E
100
AcDbEntity
  8
$DDT_AUDIT_GENERATED_(136)
  6
Continuous
 62
     7
100
AcDbEllipse
 10
28.5291326644
 20
674.8623365237
 30
0.0
 11
-4.449999999999999
 21
2.470246229790972E-16
 31
0.0
210
0.0
220
0.0
230
1.0
 40
0.0174524064
 41
0.0000000000000032
 42
3.510881511848275
  0
ELLIPSE
  5
13D
330
5E
100
AcDbEntity
  8
$DDT_AUDIT_GENERATED_(136)
  6
Continuous
 62
     7
100
AcDbEllipse
 10
28.5291326644
 20
674.8623365237
 30
0.0
 11
-4.449999999999999
 21
2.470246229790972E-16
 31
0.0
210
0.0
220
0.0
230
1.0
 40
0.0174524064
 41
5.913896448921102
 42
6.283185307179586
  0
LINE
  5
13E
330
5E
100
AcDbEntity
  8
$DDT_AUDIT_GENERATED_(136)
  6
Continuous
 62
     7
100
AcDbLine
 10
32.3090136149
 20
681.8254929566
 30
0.0
 11
32.3090136149
 21
679.1259041797
 31
0.0
  0
LINE
  5
13F
330
5E
100
AcDbEntity
  8
$DDT_AUDIT_GENERATED_(136)
  6
Continuous
 62
     7
100
AcDbLine
 10
24.7492517139
 20
681.8254929566
 30
0.0
 11
24.7492517139
 21
679.1259041797
 31
0.0
  0
ELLIPSE
  5
140
330
5E
100
AcDbEntity
  8
$DDT_AUDIT_GENERATED_(136)
  6
Continuous
 62
     7
100
AcDbEllipse
 10
28.5291326644
 20
681.8612703898
 30
0.0
 11
4.299999999999998
 21
-2.386979502944085E-16
 31
0.0
210
0.0
220
0.0
230
1.0
 40
0.0174524064
 41
-0.4969471560304353
 42
0.2649091969228832
  0
ELLIPSE
  5
141
330
5E
100
AcDbEntity
  8
$DDT_AUDIT_GENERATED_(136)
  6
Continuous
 62
     7
100
AcDbEllipse
 10
28.5291326644
 20
681.8612703898
 30
0.0
 11
4.299999999999998
 21
-2.386979502944085E-16
 31
0.0
210
0.0
220
0.0
230
1.0
 40
0.0174524064
 41
2.876683456666917
 42
3.638539809620235
  0
LINE
  5
142
330
5E
100
AcDbEntity
  8
$DDT_AUDIT_GENERATED_(136)
  6
Continuous
 62
     7
100
AcDbLine
 10
24.7492517139
 20
681.8254929566
 30
0.0
 11
32.3090136149
 21
681.8254929566
 31
0.0
  0
LINE
  5
143
330
5E
100
AcDbEntity
  8
$DDT_AUDIT_GENERATED_(136)
  6
Continuous
 62
     7
100
AcDbLine
 10
24.8396205015
 20
681.8281108176
 30
0.0
 11
32.2186448273
 21
681.8281108176
 31
0.0
  0
ELLIPSE
  5
144
330
5E
100
AcDbEntity
  8
$DDT_AUDIT_GENERATED_(136)
  6
Continuous
 62
     7
100
AcDbEllipse
 10
28.5291326644
 20
681.8612703898
 30
0.0
 11
4.150000000000001
 21
-2.303712776097201E-16
 31
0.0
210
0.0
220
0.0
230
1.0
 40
0.0174524064
 41
-0.4755543151305548
 42
0.0000000000000033
  0
ELLIPSE
  5
145
330
5E
100
AcDbEntity
  8
$DDT_AUDIT_GENERATED_(136)
  6
Continuous
 62
     7
100
AcDbEllipse
 10
28.5291326644
 20
681.8612703898
 30
0.0
 11
4.150000000000001
 21
-2.303712776097201E-16
 31
0.0
210
0.0
220
0.0
230
1.0
 40
0.0174524064
 41
3.141592653589797
 42
3.617146968720355
  0
ELLIPSE
  5
146
330
5E
100
AcDbEntity
  8
$DDT_AUDIT_GENERATED_(136)
  6
Continuous
 62
     7
100
AcDbEllipse
 10
28.5291326644
 20
683.061087624
 30
0.0
 11
4.150000000000001
 21
-2.303712776097201E-16
 31
0.0
210
0.0
220
0.0
230
1.0
 40
0.0174524064
 41
-0.4755543151271933
 42
3.617146968716993
  0
LINE
  5
147
330
5E
100
AcDbEntity
  8
$DDT_AUDIT_GENERATED_(136)
  6
Continuous
 62
     7
100
AcDbLine
 10
32.2186448273
 20
681.8281108176
 30
0.0
 11
32.2186448273
 21
683.0279280518
 31
0.0
  0
LINE
  5
148
330
5E
100
AcDbEntity
  8
$DDT_AUDIT_GENERATED_(136)
  6
Continuous
 62
     7
100
AcDbLine
 10
24.8396205015
 20
683.0279280518
 30
0.0
 11
32.2186448273
 21
683.0279280518
 31
0.0
  0
LINE
  5
149
330
5E
100
AcDbEntity
  8
$DDT_AUDIT_GENERATED_(136)
  6
Continuous
 62
     7
100
AcDbLine
 10
24.8396205015
 20
681.8281108176
 30
0.0
 11
24.8396205015
 21
683.0279280518
 31
0.0
  0
ELLIPSE
  5
14A
330
5E
100
AcDbEntity
  8
$DDT_AUDIT_GENERATED_(136)
  6
Continuous
 62
     7
100
AcDbEllipse
 10
28.5291326644
 20
676.8620319141
 30
0.0
 11
4.299999999999999
 21
-2.386979502944098E-16
 31
0.0
210
0.0
220
0.0
230
1.0
 40
0.0174524064
 41
-0.4969471560288081
 42
0.0000000000000033
  0
ELLIPSE
  5
14B
330
5E
100
AcDbEntity
  8
$DDT_AUDIT_GENERATED_(136)
  6
Continuous
 62
     7
100
AcDbEllipse
 10
28.5291326644
 20
676.8620319141
 30
0.0
 11
4.299999999999999
 21
-2.386979502944098E-16
 31
0.0
210
0.0
220
0.0
230
1.0
 40
0.0174524064
 41
3.141592653589797
 42
3.638539809618607
  0
LINE
  5
14C
330
5E
100
AcDbEntity
  8
$DDT_AUDIT_GENERATED_(136)
  6
Continuous
 62
     7
100
AcDbLine
 10
24.7492517139
 20
676.8262544809
 30
0.0
 11
32.3090136149
 21
676.8262544809
 31
0.0
  0
ELLIPSE
  5
14D
330
5E
100
AcDbEntity
  8
$DDT_AUDIT_GENERATED_(136)
  6
Continuous
 62
     7
100
AcDbEllipse
 10
28.5291326644
 20
674.8623365237
 30
0.0
 11
4.150000000000003
 21
5.528077995364810E-14
 31
0.0
210
0.0
220
0.0
230
1.0
 40
0.0174524064
 41
-0.4755543151295114
 42
-0.0000000000007632
  0
ELLIPSE
  5
14E
330
5E
100
AcDbEntity
  8
$DDT_AUDIT_GENERATED_(136)
  6
Continuous
 62
     7
100
AcDbEllipse
 10
28.5291326644
 20
674.8623365237
 30
0.0
 11
4.150000000000003
 21
5.528077995364810E-14
 31
0.0
210
0.0
220
0.0
230
1.0
 40
0.0174524064
 41
3.14159265358903
 42
3.617146968717779
  0
LINE
  5
14F
330
5E
100
AcDbEntity
  8
$DDT_AUDIT_GENERATED_(136)
  6
Continuous
 62
     7
100
AcDbLine
 10
24.8396205015
 20
674.8291769515
 30
0.0
 11
32.2186448273
 21
674.8291769515
 31
0.0
  0
LINE
  5
150
330
5E
100
AcDbEntity
  8
$DDT_AUDIT_GENERATED_(136)
  6
Continuous
 62
     7
100
AcDbLine
 10
24.8396205015
 20
676.8262544809
 30
0.0
 11
24.8396205015
 21
674.8291769515
 31
0.0
  0
LINE
  5
151
330
5E
100
AcDbEntity
  8
$DDT_AUDIT_GENERATED_(136)
  6
Continuous
 62
     7
100
AcDbLine
 10
32.2186448273
 20
676.8262544809
 30
0.0
 11
32.2186448273
 21
674.8291769515
 31
0.0
  0
LINE
  5
152
330
5E
100
AcDbEntity
  8
$DDT_AUDIT_GENERATED_(136)
  6
Continuous
 62
     7
100
AcDbLine
 10
32.3090136149
 20
677.1262087894
 30
0.0
 11
32.3090136149
 21
676.8262544809
 31
0.0
  0
LINE
  5
153
330
5E
100
AcDbEntity
  8
$DDT_AUDIT_GENERATED_(136)
  6
Continuous
 62
     7
100
AcDbLine
 10
24.7492517139
 20
677.1262087894
 30
0.0
 11
24.7492517139
 21
676.8262544809
 31
0.0
  0
ELLIPSE
  5
154
330
5E
100
AcDbEntity
  8
$DDT_AUDIT_GENERATED_(136)
  6
Continuous
 62
     7
100
AcDbEllipse
 10
28.5291326644
 20
679.1616816129
 30
0.0
 11
4.3
 21
5.527245328096342E-14
 31
0.0
210
0.0
220
0.0
230
1.0
 40
0.0174524064
 41
-0.4969471560298115
 42
-0.0000000000022513
  0
ELLIPSE
  5
155
330
5E
100
AcDbEntity
  8
$DDT_AUDIT_GENERATED_(136)
  6
Continuous
 62
     7
100
AcDbEllipse
 10
28.5291326644
 20
679.1616816129
 30
0.0
 11
4.3
 21
5.527245328096342E-14
 31
0.0
210
0.0
220
0.0
230
1.0
 40
0.0174524064
 41
3.141592653590571
 42
3.638539809618174
  0
LINE
  5
156
330
5E
100
AcDbEntity
  8
$DDT_AUDIT_GENERATED_(136)
  6
Continuous
 62
     7
100
AcDbLine
 10
24.7492517139
 20
679.1259041797
 30
0.0
 11
32.3090136149
 21
679.1259041797
 31
0.0
  0
ELLIPSE
  5
157
330
5E
100
AcDbEntity
  8
$DDT_AUDIT_GENERATED_(136)
  6
Continuous
 62
     7
100
AcDbEllipse
 10
28.5291326644
 20
677.1619862226
 30
0.0
 11
4.150000000000003
 21
5.528077995364810E-14
 31
0.0
210
0.0
220
0.0
230
1.0
 40
0.0174524064
 41
-0.4755543151295119
 42
-0.0000000000007632
  0
ELLIPSE
  5
158
330
5E
100
AcDbEntity
  8
$DDT_AUDIT_GENERATED_(136)
  6
Continuous
 62
     7
100
AcDbEllipse
 10
28.5291326644
 20
677.1619862226
 30
0.0
 11
4.150000000000003
 21
5.528077995364810E-14
 31
0.0
210
0.0
220
0.0
230
1.0
 40
0.0174524064
 41
3.14159265358903
 42
3.617146968717779
  0
LINE
  5
159
330
5E
100
AcDbEntity
  8
$DDT_AUDIT_GENERATED_(136)
  6
Continuous
 62
     7
100
AcDbLine
 10
24.8396205015
 20
677.1288266504
 30
0.0
 11
32.2186448273
 21
677.1288266504
 31
0.0
  0
ELLIPSE
  5
15A
330
5E
100
AcDbEntity
  8
$DDT_AUDIT_GENERATED_(136)
  6
Continuous
 62
     7
100
AcDbEllipse
 10
28.5291326644
 20
677.1619862226
 30
0.0
 11
4.299999999999998
 21
-2.386979502944097E-16
 31
0.0
210
0.0
220
0.0
230
1.0
 40
0.0174524064
 41
-0.4969471560304357
 42
0.2649091969244433
  0
ELLIPSE
  5
15B
330
5E
100
AcDbEntity
  8
$DDT_AUDIT_GENERATED_(136)
  6
Continuous
 62
     7
100
AcDbEllipse
 10
28.5291326644
 20
677.1619862226
 30
0.0
 11
4.299999999999998
 21
-2.386979502944097E-16
 31
0.0
210
0.0
220
0.0
230
1.0
 40
0.0174524064
 41
2.876683456665356
 42
3.638539809620235
  0
LINE
  5
15C
330
5E
100
AcDbEntity
  8
$DDT_AUDIT_GENERATED_(136)
  6
Continuous
 62
     7
100
AcDbLine
 10
24.7492517139
 20
677.1262087894
 30
0.0
 11
32.3090136149
 21
677.1262087894
 31
0.0
  0
LINE
  5
15D
330
5E
100
AcDbEntity
  8
$DDT_AUDIT_GENERATED_(136)
  6
Continuous
 62
     7
100
AcDbLine
 10
24.8396205015
 20
679.1259041797
 30
0.0
 11
24.8396205015
 21
677.1288266504
 31
0.0
  0
LINE
  5
15E
330
5E
100
AcDbEntity
  8
$DDT_AUDIT_GENERATED_(136)
  6
Continuous
 62
     7
100
AcDbLine
 10
32.2186448273
 20
679.1259041797
 30
0.0
 11
32.2186448273
 21
677.1288266504
 31
0.0
  0
ELLIPSE
  5
15F
330
5E
100
AcDbEntity
  8
$DDT_AUDIT_GENERATED_(136)
  6
Continuous
 62
     7
100
AcDbEllipse
 10
31.0291326644
 20
683.0523614208
 30
0.0
 11
-1.249999999999999
 21
6.938893903907223E-17
 31
0.0
210
0.0
220
0.0
230
1.0
 40
0.0174524064
 41
0.0
 42
6.283185307179586
  0
ELLIPSE
  5
160
330
5E
100
AcDbEntity
  8
$DDT_AUDIT_GENERATED_(136)
  6
Continuous
 62
     7
100
AcDbEllipse
 10
26.0291326644
 20
683.0523614208
 30
0.0
 11
-1.249999999999999
 21
6.938893903907223E-17
 31
0.0
210
0.0
220
0.0
230
1.0
 40
0.0174524064
 41
0.0
 42
6.283185307179586
  0
ELLIPSE
  5
161
330
5E
100
AcDbEntity
  8
$DDT_AUDIT_GENERATED_(136)
  6
Continuous
 62
     7
100
AcDbEllipse
 10
28.5291326644
 20
683.0959924369
 30
0.0
 11
-1.249999999999999
 21
6.938893903907223E-17
 31
0.0
210
0.0
220
0.0
230
1.0
 40
0.0174524064
 41
0.0
 42
6.283185307179586
  0
ELLIPSE
  5
162
330
5E
100
AcDbEntity
  8
$DDT_AUDIT_GENERATED_(136)
  6
Continuous
 62
     7
100
AcDbEllipse
 10
28.5291326644
 20
658.3648495537
 30
0.0
 11
3.950000000000001
 21
-2.192690473634684E-16
 31
0.0
210
0.0
220
0.0
230
1.0
 40
0.0174524064
 41
3.387993919320446
 42
6.079683680501411
  0
ELLIPSE
  5
163
330
5E
100
AcDbEntity
  8
$DDT_AUDIT_GENERATED_(136)
  6
Continuous
 62
     7
100
AcDbEllipse
 10
28.5291326644
 20
651.8658395351
 30
0.0
 11
-2.5
 21
1.387778780781446E-16
 31
0.0
210
0.0
220
0.0
230
1.0
 40
0.0174524064
 41
0.0000000000000032
 42
3.141592653589793
  0
LINE
  5
164
330
5E
100
AcDbEntity
  8
$DDT_AUDIT_GENERATED_(136)
  6
Continuous
 62
     7
100
AcDbLine
 10
33.6291326644
 20
667.163509271
 30
0.0
 11
33.6291326644
 21
671.1629000517
 31
0.0
  0
LINE
  5
165
330
5E
100
AcDbEntity
  8
$DDT_AUDIT_GENERATED_(136)
  6
Continuous
 62
     7
100
AcDbLine
 10
23.4291326644
 20
671.1629000517
 30
0.0
 11
23.4291326644
 21
667.163509271
 31
0.0
  0
LINE
  5
166
330
5E
100
AcDbEntity
  8
$DDT_AUDIT_GENERATED_(136)
  6
Continuous
 62
     7
100
AcDbLine
 10
23.4291504175
 20
667.1632744203
 30
0.0
 11
24.0791481548
 21
662.8639592631
 31
0.0
  0
LINE
  5
167
330
5E
100
AcDbEntity
  8
$DDT_AUDIT_GENERATED_(136)
  6
Continuous
 62
     7
100
AcDbLine
 10
32.9791171739
 20
662.8639592631
 30
0.0
 11
33.6291149113
 21
667.1632744203
 31
0.0
  0
LINE
  5
168
330
5E
100
AcDbEntity
  8
$DDT_AUDIT_GENERATED_(136)
  6
Continuous
 62
     7
100
AcDbLine
 10
32.9791326644
 20
658.8647734012
 30
0.0
 11
32.9791326644
 21
662.8640617223
 31
0.0
  0
LINE
  5
169
330
5E
100
AcDbEntity
  8
$DDT_AUDIT_GENERATED_(136)
  6
Continuous
 62
     7
100
AcDbLine
 10
24.0791326644
 20
662.8640617223
 30
0.0
 11
24.0791326644
 21
658.8647734012
 31
0.0
  0
LINE
  5
16A
330
5E
100
AcDbEntity
  8
$DDT_AUDIT_GENERATED_(136)
  6
Continuous
 62
     7
100
AcDbLine
 10
31.0291326644
 20
651.8658395351
 30
0.0
 11
31.0291326644
 21
658.3114768532
 31
0.0
  0
LINE
  5
16B
330
5E
100
AcDbEntity
  8
$DDT_AUDIT_GENERATED_(136)
  6
Continuous
 62
     7
100
AcDbLine
 10
26.0291326644
 20
658.3114768532
 30
0.0
 11
26.0291326644
 21
651.8658395351
 31
0.0
  0
LINE
  5
16C
330
5E
100
AcDbEntity
  8
$DDT_AUDIT_GENERATED_(136)
  6
Continuous
 62
     7
100
AcDbLine
 10
32.9791326644
 20
671.1629000517
 30
0.0
 11
32.9791326644
 21
674.8623365237
 31
0.0
  0
LINE
  5
16D
330
5E
100
AcDbEntity
  8
$DDT_AUDIT_GENERATED_(136)
  6
Continuous
 62
     7
100
AcDbLine
 10
24.0791326644
 20
674.8623365237
 30
0.0
 11
24.0791326644
 21
671.1629000517
 31
0.0
  0
LINE
  5
16E
330
5E
100
AcDbEntity
  8
$DDT_AUDIT_GENERATED_(136)
  6
Continuous
 62
     7
100
AcDbLine
 10
32.8291326644
 20
679.1616816129
 30
0.0
 11
32.8291326644
 21
681.8612703898
 31
0.0
  0
LINE
  5
16F
330
5E
100
AcDbEntity
  8
$DDT_AUDIT_GENERATED_(136)
  6
Continuous
 62
     7
100
AcDbLine
 10
24.2291326644
 20
681.8612703898
 30
0.0
 11
24.2291326644
 21
679.1616816129
 31
0.0
  0
LINE
  5
170
330
5E
100
AcDbEntity
  8
$DDT_AUDIT_GENERATED_(136)
  6
Continuous
 62
     7
100
AcDbLine
 10
24.3791326644
 20
683.061087624
 30
0.0
 11
24.3791326644
 21
681.8612703898
 31
0.0
  0
LINE
  5
171
330
5E
100
AcDbEntity
  8
$DDT_AUDIT_GENERATED_(136)
  6
Continuous
 62
     7
100
AcDbLine
 10
32.6791326644
 20
681.8612703898
 30
0.0
 11
32.6791326644
 21
683.061087624
 31
0.0
  0
LINE
  5
172
330
5E
100
AcDbEntity
  8
$DDT_AUDIT_GENERATED_(136)
  6
Continuous
 62
     7
100
AcDbLine
 10
32.6791326644
 20
674.8623365237
 30
0.0
 11
32.6791326644
 21
676.8423834185
 31
0.0
  0
LINE
  5
173
330
5E
100
AcDbEntity
  8
$DDT_AUDIT_GENERATED_(136)
  6
Continuous
 62
     7
100
AcDbLine
 10
24.3791326644
 20
676.8423834185
 30
0.0
 11
24.3791326644
 21
674.8623365237
 31
0.0
  0
LINE
  5
174
330
5E
100
AcDbEntity
  8
$DDT_AUDIT_GENERATED_(136)
  6
Continuous
 62
     7
100
AcDbLine
 10
32.8291326644
 20
676.8620319141
 30
0.0
 11
32.8291326644
 21
677.1619862226
 31
0.0
  0
LINE
  5
175
330
5E
100
AcDbEntity
  8
$DDT_AUDIT_GENERATED_(136)
  6
Continuous
 62
     7
100
AcDbLine
 10
24.2291326644
 20
677.1619862226
 30
0.0
 11
24.2291326644
 21
676.8620319141
 31
0.0
  0
LINE
  5
176
330
5E
100
AcDbEntity
  8
$DDT_AUDIT_GENERATED_(136)
  6
Continuous
 62
     7
100
AcDbLine
 10
32.6791326644
 20
677.1619862226
 30
0.0
 11
32.6791326644
 21
679.1420331174
 31
0.0
  0
LINE
  5
177
330
5E
100
AcDbEntity
  8
$DDT_AUDIT_GENERATED_(136)
  6
Continuous
 62
     7
100
AcDbLine
 10
24.3791326644
 20
679.1420331174
 30
0.0
 11
24.3791326644
 21
677.1619862226
 31
0.0
  0
ARC
  5
178
330
5E
100
AcDbEntity
  8
$DDT_AUDIT_GENERATED_(136)
  6
Continuous
 62
     7
100
AcDbCircle
 10
32.4610184637
 20
658.8715178002
 30
0.0
 40
0.518158095470591
100
AcDbArc
 50
268.2287308715
 51
359.254211198
  0
SPLINE
  5
179
330
5E
100
AcDbEntity
  8
$DDT_AUDIT_GENERATED_(136)
  6
Continuous
 62
     7
100
AcDbSpline
210
0.0
220
0.0
230
1.0
 70
     8
 71
     3
 72
    19
 73
    15
 74
     0
 42
0.0000000114221598
 43
0.0000000001
 40
0.0
 40
0.0
 40
0.0
 40
0.0
 40
0.0768878936757853
 40
0.1609284444480958
 40
0.2360504989650127
 40
0.3041973659225533
 40
0.3659312871709876
 40
0.4218875895261158
 40
0.4768249921766717
 40
0.539214345470168
 40
0.6201353427309163
 40
0.741295256915062
 40
0.9628313161877288
 40
1.0
 40
1.0
 40
1.0
 40
1.0
 10
24.08233658722249
 20
658.8638329557853
 30
0.0
 10
24.08329265568779
 20
658.8227241313036
 30
0.0
 10
24.08616302876113
 20
658.7494431706864
 30
0.0
 10
24.12832649128039
 20
658.6386368536297
 30
0.0
 10
24.18823510485891
 20
658.5468168162598
 30
0.0
 10
24.25767563831971
 20
658.4774754911745
 30
0.0
 10
24.32792827614676
 20
658.4291415766239
 30
0.0
 10
24.39207709021472
 20
658.3982972630442
 30
0.0
 10
24.444947499959
 20
658.3803026138823
 30
0.0
 10
24.48794466504556
 20
658.3697316959489
 30
0.0
 10
24.5281746919848
 20
658.362467602498
 30
0.0
 10
24.57907407284949
 20
658.3559900231255
 30
0.0
 10
24.62152740656789
 20
658.3518399868067
 30
0.0
 10
24.65854878564679
 20
658.3496400928809
 30
0.0
 10
24.66473401612376
 20
658.3492765899249
 30
0.0
  0
ELLIPSE
  5
17B
330
5E
100
AcDbEntity
  8
$DDT_AUDIT_GENERATED_(17A)
  6
Continuous
 62
     7
100
AcDbEllipse
 10
28.5291326644
 20
458.3953105224
 30
0.0
 11
-1.500000000000001
 21
8.326672684688680E-17
 31
0.0
210
0.0
220
0.0
230
1.0
 40
0.0174524064
 41
0.0
 42
3.141592653589793
  0
LINE
  5
17C
330
5E
100
AcDbEntity
  8
$DDT_AUDIT_GENERATED_(17A)
  6
Continuous
 62
     7
100
AcDbLine
 10
27.0291326644
 20
651.8309347223
 30
0.0
 11
27.0291326644
 21
458.3953105224
 31
0.0
  0
LINE
  5
17D
330
5E
100
AcDbEntity
  8
$DDT_AUDIT_GENERATED_(17A)
  6
Continuous
 62
     7
100
AcDbLine
 10
30.0291326644
 20
458.3953105224
 30
0.0
 11
30.0291326644
 21
651.8309347223
 31
0.0
  0
ELLIPSE
  5
17F
330
5E
100
AcDbEntity
  8
$DDT_AUDIT_GENERATED_(17E)
  6
Continuous
 62
     7
100
AcDbEllipse
 10
28.5291326644
 20
457.2954780577
 30
0.0
 11
-3.000000000000006
 21
-6.772360450213454E-15
 31
0.0
210
0.0
220
0.0
230
1.0
 40
0.0174524064
 41
0.0174532925199288
 42
3.124139361069597
  0
ELLIPSE
  5
180
330
5E
100
AcDbEntity
  8
$DDT_AUDIT_GENERATED_(17E)
  6
Continuous
 62
     7
100
AcDbEllipse
 10
28.5291326644
 20
457.8953866748
 30
0.0
 11
-1.500000000000001
 21
8.326672684688680E-17
 31
0.0
210
0.0
220
0.0
230
1.0
 40
0.0174524064
 41
0.0
 42
3.141592653589793
  0
ELLIPSE
  5
181
330
5E
100
AcDbEntity
  8
$DDT_AUDIT_GENERATED_(17E)
  6
Continuous
 62
     7
100
AcDbEllipse
 10
28.5291326644
 20
458.3953105224
 30
0.0
 11
-1.500000000000001
 21
8.326672684688680E-17
 31
0.0
210
0.0
220
0.0
230
1.0
 40
0.0174524064
 41
0.0
 42
3.141592653589793
  0
LINE
  5
182
330
5E
100
AcDbEntity
  8
$DDT_AUDIT_GENERATED_(17E)
  6
Continuous
 62
     7
100
AcDbLine
 10
31.3286757498
 20
457.9977310171
 30
0.0
 11
30.0291326644
 21
457.9977310171
 31
0.0
  0
LINE
  5
183
330
5E
100
AcDbEntity
  8
$DDT_AUDIT_GENERATED_(17E)
  6
Continuous
 62
     7
100
AcDbLine
 10
27.0291326644
 20
457.9977310171
 30
0.0
 11
25.7295895789
 21
457.9977310171
 31
0.0
  0
ELLIPSE
  5
184
330
5E
100
AcDbEntity
  8
$DDT_AUDIT_GENERATED_(17E)
  6
Continuous
 62
     7
100
AcDbEllipse
 10
25.7295895789
 20
457.7977614781
 30
0.0
 11
-0.2000000000000421
 21
1.457278742122980E-13
 31
0.0
210
0.0
220
0.0
230
1.0
 40
0.9998476952
 41
4.712388980385418
 42
6.283185307179586
  0
ELLIPSE
  5
185
330
5E
100
AcDbEntity
  8
$DDT_AUDIT_GENERATED_(17E)
  6
Continuous
 62
     7
100
AcDbEllipse
 10
31.3286757498
 20
457.7977614781
 30
0.0
 11
-0.1999999999999615
 21
-4.371392137159091E-13
 31
0.0
210
0.0
220
0.0
230
1.0
 40
0.9998476952
 41
3.141592653587607
 42
4.712388980382505
  0
ELLIPSE
  5
186
330
5E
100
AcDbEntity
  8
$DDT_AUDIT_GENERATED_(17E)
  6
Continuous
 62
     7
100
AcDbEllipse
 10
28.5291326644
 20
457.8953866748
 30
0.0
 11
-2.8
 21
1.554312234475219E-16
 31
0.0
210
0.0
220
0.0
230
1.0
 40
0.0174524064
 41
0.0659198335154476
 42
3.071445863371362
  0
LINE
  5
187
330
5E
100
AcDbEntity
  8
$DDT_AUDIT_GENERATED_(17E)
  6
Continuous
 62
     7
100
AcDbLine
 10
31.5286757498
 20
457.6945033763
 30
0.0
 11
31.5286757498
 21
457.2945642982
 31
0.0
  0
LINE
  5
188
330
5E
100
AcDbEntity
  8
$DDT_AUDIT_GENERATED_(17E)
  6
Continuous
 62
     7
100
AcDbLine
 10
31.5286757498
 20
457.7977614781
 30
0.0
 11
31.5286757498
 21
457.6945033763
 31
0.0
  0
LINE
  5
189
330
5E
100
AcDbEntity
  8
$DDT_AUDIT_GENERATED_(17E)
  6
Continuous
 62
     7
100
AcDbLine
 10
25.5295895789
 20
457.6945033763
 30
0.0
 11
25.5295895789
 21
457.2945642982
 31
0.0
  0
LINE
  5
18A
330
5E
100
AcDbEntity
  8
$DDT_AUDIT_GENERATED_(17E)
  6
Continuous
 62
     7
100
AcDbLine
 10
25.5295895789
 20
457.6945033763
 30
0.0
 11
25.5295895789
 21
457.7977614781
 31
0.0
  0
ARC
  5
18B
330
5E
100
AcDbEntity
  8
$DDT_AUDIT_GENERATED_(17E)
  6
Continuous
 62
     7
100
AcDbCircle
 10
25.7296119422
 20
457.6944815385
 30
0.0
 40
0.2000223644619107
100
AcDbArc
 50
90.0064058886
 51
179.9937446234
  0
ARC
  5
18C
330
5E
100
AcDbEntity
  8
$DDT_AUDIT_GENERATED_(17E)
  6
Continuous
 62
     7
100
AcDbCircle
 10
31.3286533866
 20
457.6944815385
 30
0.0
 40
0.20002236446191
100
AcDbArc
 50
0.0062553766
 51
89.9935941114
  0
ELLIPSE
  5
18D
330
5E
100
AcDbEntity
  8
$DDT_AUDIT_GENERATED_(17E)
  6
Continuous
 62
     7
100
AcDbEllipse
 10
28.5291326644
 20
457.245485673
 30
0.0
 11
2.000000000000002
 21
-1.110223024625158E-16
 31
0.0
210
0.0
220
0.0
230
1.0
 40
0.0174524064
 41
3.498204546297
 42
5.926573414472385
  0
LINE
  5
18E
330
5E
100
AcDbEntity
  8
$DDT_AUDIT_GENERATED_(17E)
  6
Continuous
 62
     7
100
AcDbLine
 10
30.6317972527
 20
457.2326304162
 30
0.0
 11
30.6317972527
 21
457.2440046701
 31
0.0
  0
LINE
  5
18F
330
5E
100
AcDbEntity
  8
$DDT_AUDIT_GENERATED_(17E)
  6
Continuous
 62
     7
100
AcDbLine
 10
27.0291326644
 20
458.3953105224
 30
0.0
 11
27.0291326644
 21
457.8953866748
 31
0.0
  0
LINE
  5
190
330
5E
100
AcDbEntity
  8
$DDT_AUDIT_GENERATED_(17E)
  6
Continuous
 62
     7
100
AcDbLine
 10
30.0291326644
 20
457.8953866748
 30
0.0
 11
30.0291326644
 21
458.3953105224
 31
0.0
  0
LINE
  5
191
330
5E
100
AcDbEntity
  8
$DDT_AUDIT_GENERATED_(17E)
  6
Continuous
 62
     7
100
AcDbLine
 10
25.7178776866
 20
457.2772000845
 30
0.0
 11
26.6549626792
 21
457.2333003575
 31
0.0
  0
LINE
  5
192
330
5E
100
AcDbEntity
  8
$DDT_AUDIT_GENERATED_(17E)
  6
Continuous
 62
     7
100
AcDbLine
 10
30.4033026496
 20
457.2333003575
 30
0.0
 11
31.3403876422
 21
457.2772000845
 31
0.0
  0
ELLIPSE
  5
194
330
5E
100
AcDbEntity
  8
$DDT_AUDIT_GENERATED_(193)
  6
Continuous
 62
     7
100
AcDbEllipse
 10
59.7308786255
 20
390.4634321889
 30
0.0
 11
4.384001844244819
 21
-3.712807941327601E-15
 31
0.0
210
0.0
220
0.0
230
1.0
 40
0.0174524064
 41
0.017453292519827
 42
3.124139361069966
  0
LINE
  5
195
330
5E
100
AcDbEntity
  8
$DDT_AUDIT_GENERATED_(193)
  6
Continuous
 62
     7
100
AcDbLine
 10
55.347544486
 20
390.4647674966
 30
0.0
 11
55.2310005924
 21
390.3482413532
 31
0.0
  0
LINE
  5
196
330
5E
100
AcDbEntity
  8
$DDT_AUDIT_GENERATED_(193)
  6
Continuous
 62
     7
100
AcDbLine
 10
64.2307566586
 20
390.3482413532
 30
0.0
 11
64.114212765
 21
390.4647674966
 31
0.0
  0
LINE
  5
197
330
5E
100
AcDbEntity
  8
$DDT_AUDIT_GENERATED_(193)
  6
Continuous
 62
     7
100
AcDbLine
 10
64.2307566586
 20
390.3482413532
 30
0.0
 11
64.2298423421
 21
388.8493839877
 31
0.0
  0
LINE
  5
198
330
5E
100
AcDbEntity
  8
$DDT_AUDIT_GENERATED_(193)
  6
Continuous
 62
     7
100
AcDbLine
 10
55.732295845
 20
388.3497648658
 30
0.0
 11
57.8308786255
 21
388.3497648658
 31
0.0
  0
LINE
  5
199
330
5E
100
AcDbEntity
  8
$DDT_AUDIT_GENERATED_(193)
  6
Continuous
 62
     7
100
AcDbLine
 10
61.6308786255
 20
388.3497648658
 30
0.0
 11
63.729461406
 21
388.3497648658
 31
0.0
  0
ELLIPSE
  5
19A
330
5E
100
AcDbEntity
  8
$DDT_AUDIT_GENERATED_(193)
  6
Continuous
 62
     7
100
AcDbEllipse
 10
59.7308786255
 20
388.4637367985
 30
0.0
 11
3.884001844244818
 21
6.723288490148871E-15
 31
0.0
210
0.0
220
0.0
230
1.0
 40
0.0174524064
 41
0.144836915493546
 42
2.993324714623265
  0
LINE
  5
19B
330
5E
100
AcDbEntity
  8
$DDT_AUDIT_GENERATED_(193)
  6
Continuous
 62
     7
100
AcDbLine
 10
55.2319149088
 20
388.8493839877
 30
0.0
 11
55.2310005924
 21
390.3482413532
 31
0.0
  0
ELLIPSE
  5
19C
330
5E
100
AcDbEntity
  8
$DDT_AUDIT_GENERATED_(193)
  6
Continuous
 62
     7
100
AcDbEllipse
 10
63.7297661781
 20
388.8493839877
 30
0.0
 11
0.4786766979785439
 21
0.1448826061573871
 31
0.0
210
0.0
220
0.0
230
1.0
 40
0.9989015902
 41
4.418176655195012
 42
5.988972981989885
  0
ELLIPSE
  5
19D
330
5E
100
AcDbEntity
  8
$DDT_AUDIT_GENERATED_(193)
  6
Continuous
 62
     7
100
AcDbEllipse
 10
55.7319910728
 20
388.8493839877
 30
0.0
 11
0.4786766979796853
 21
-0.1448826061536193
 31
0.0
210
0.0
220
0.0
230
1.0
 40
0.9989015902
 41
3.435804978771524
 42
5.006601305566504
  0
ELLIPSE
  5
19E
330
5E
100
AcDbEntity
  8
$DDT_AUDIT_GENERATED_(193)
  6
Continuous
 62
     7
100
AcDbEllipse
 10
59.7308786255
 20
388.4562245451
 30
0.0
 11
1.900000000000002
 21
-1.054711873393900E-16
 31
0.0
210
0.0
220
0.0
230
1.0
 40
0.0174524064
 41
0.0
 42
3.141592653589793
  0
LINE
  5
19F
330
5E
100
AcDbEntity
  8
$DDT_AUDIT_GENERATED_(193)
  6
Continuous
 62
     7
100
AcDbLine
 10
57.8308786255
 20
388.4562245451
 30
0.0
 11
57.8308786255
 21
386.4565291548
 31
0.0
  0
LINE
  5
1A0
330
5E
100
AcDbEntity
  8
$DDT_AUDIT_GENERATED_(193)
  6
Continuous
 62
     7
100
AcDbLine
 10
61.6308786255
 20
388.4562245451
 30
0.0
 11
61.6308786255
 21
386.4565291548
 31
0.0
  0
LINE
  5
1A1
330
5E
100
AcDbEntity
  8
$DDT_AUDIT_GENERATED_(193)
  6
Continuous
 62
     7
100
AcDbLine
 10
61.6308786255
 20
386.4146433793
 30
0.0
 11
61.6308786255
 21
386.4565291548
 31
0.0
  0
ELLIPSE
  5
1A2
330
5E
100
AcDbEntity
  8
$DDT_AUDIT_GENERATED_(193)
  6
Continuous
 62
     7
100
AcDbEllipse
 10
59.7308786255
 20
386.4565291548
 30
0.0
 11
1.900000000000002
 21
-1.054711873393900E-16
 31
0.0
210
0.0
220
0.0
230
1.0
 40
0.0174524064
 41
0.0
 42
3.141592653589793
  0
LINE
  5
1A3
330
5E
100
AcDbEntity
  8
$DDT_AUDIT_GENERATED_(193)
  6
Continuous
 62
     7
100
AcDbLine
 10
57.8308786255
 20
386.4565291548
 30
0.0
 11
57.8308786255
 21
386.4146433793
 31
0.0
  0
LINE
  5
1A5
330
5E
100
AcDbEntity
  8
$DDT_AUDIT_GENERATED_(1A4)
  6
Continuous
 62
     7
100
AcDbLine
 10
25.5295895789
 20
457.3478300152
 30
0.0
 11
17.6307263206
 21
457.3478300152
 31
0.0
  0
ELLIPSE
  5
1A6
330
5E
100
AcDbEntity
  8
$DDT_AUDIT_GENERATED_(1A4)
  6
Continuous
 62
     7
100
AcDbEllipse
 10
28.6308786255
 20
457.2437552083
 30
0.0
 11
-2.1
 21
1.165734175856414E-16
 31
0.0
210
0.0
220
0.0
230
1.0
 40
0.0174524064
 41
0.1629185709824762
 42
3.124139361069718
  0
LINE
  5
1A7
330
5E
100
AcDbEntity
  8
$DDT_AUDIT_GENERATED_(1A4)
  6
Continuous
 62
     7
100
AcDbLine
 10
30.7305587853
 20
457.2431155766
 30
0.0
 11
30.7363465952
 21
457.248902505
 31
0.0
  0
ARC
  5
1A8
330
5E
100
AcDbEntity
  8
$DDT_AUDIT_GENERATED_(1A4)
  6
Continuous
 62
     7
100
AcDbCircle
 10
42.6308786255
 20
387.1478300152
 30
0.0
 40
1.586909698313849
100
AcDbArc
 50
0.0
 51
180.0
  0
LINE
  5
1A9
330
5E
100
AcDbEntity
  8
$DDT_AUDIT_GENERATED_(1A4)
  6
Continuous
 62
     7
100
AcDbLine
 10
41.0439689272
 20
383.7191113074
 30
0.0
 11
41.0439689272
 21
387.1478300152
 31
0.0
  0
LINE
  5
1AA
330
5E
100
AcDbEntity
  8
$DDT_AUDIT_GENERATED_(1A4)
  6
Continuous
 62
     7
100
AcDbLine
 10
44.2177883238
 20
387.1478300152
 30
0.0
 11
44.2177883238
 21
383.7191113074
 31
0.0
  0
ARC
  5
1AB
330
5E
100
AcDbEntity
  8
$DDT_AUDIT_GENERATED_(1A4)
  6
Continuous
 62
     7
100
AcDbCircle
 10
42.6308786255
 20
467.1478300152
 30
0.0
 40
1.599999999999997
100
AcDbArc
 50
0.0
 51
180.0
  0
LINE
  5
1AC
330
5E
100
AcDbEntity
  8
$DDT_AUDIT_GENERATED_(1A4)
  6
Continuous
 62
     7
100
AcDbLine
 10
44.2308786255
 20
467.1478300152
 30
0.0
 11
44.2308786255
 21
463.7191113074
 31
0.0
  0
ARC
  5
1AD
330
5E
100
AcDbEntity
  8
$DDT_AUDIT_GENERATED_(1A4)
  6
Continuous
 62
     7
100
AcDbCircle
 10
42.6308786255
 20
460.9478300152
 30
0.0
 40
3.199999999999995
100
AcDbArc
 50
281.582786888
 51
60.0
  0
LINE
  5
1AE
330
5E
100
AcDbEntity
  8
$DDT_AUDIT_GENERATED_(1A4)
  6
Continuous
 62
     7
100
AcDbLine
 10
41.0308786255
 20
463.7191113074
 30
0.0
 11
41.0308786255
 21
467.1478300152
 31
0.0
  0
LINE
  5
1AF
330
5E
100
AcDbEntity
  8
$DDT_AUDIT_GENERATED_(1A4)
  6
Continuous
 62
     7
100
AcDbLine
 10
41.0308786255
 20
463.7191113074
 30
0.0
 11
41.0439689272
 21
463.7115432845
 31
0.0
  0
LINE
  5
1B0
330
5E
100
AcDbEntity
  8
$DDT_AUDIT_GENERATED_(1A4)
  6
Continuous
 62
     7
100
AcDbLine
 10
44.2308786255
 20
463.7191113074
 30
0.0
 11
44.2177883238
 21
463.7115432845
 31
0.0
  0
LINE
  5
1B1
330
5E
100
AcDbEntity
  8
$DDT_AUDIT_GENERATED_(1A4)
  6
Continuous
 62
     7
100
AcDbLine
 10
17.6307263206
 20
390.3478300152
 30
0.0
 11
36.117845437
 21
390.3478300152
 31
0.0
  0
LINE
  5
1B2
330
5E
100
AcDbEntity
  8
$DDT_AUDIT_GENERATED_(1A4)
  6
Continuous
 62
     7
100
AcDbLine
 10
16.6308786255
 20
456.3479823201
 30
0.0
 11
16.6308786255
 21
391.3476777104
 31
0.0
  0
LINE
  5
1B3
330
5E
100
AcDbEntity
  8
$DDT_AUDIT_GENERATED_(1A4)
  6
Continuous
 62
     7
100
AcDbLine
 10
67.6310309303
 20
457.3478300152
 30
0.0
 11
66.0869078442
 21
457.3478300152
 31
0.0
  0
LINE
  5
1B4
330
5E
100
AcDbEntity
  8
$DDT_AUDIT_GENERATED_(1A4)
  6
Continuous
 62
     7
100
AcDbLine
 10
68.6308786255
 20
391.3476777104
 30
0.0
 11
68.6308786255
 21
456.3479823201
 31
0.0
  0
ELLIPSE
  5
1B5
330
5E
100
AcDbEntity
  8
$DDT_AUDIT_GENERATED_(1A4)
  6
Continuous
 62
     7
100
AcDbEllipse
 10
67.6307262974
 20
456.3476776872
 30
0.0
 11
-0.7073221891695815
 21
-0.7073221891695815
 31
0.0
210
0.0
220
0.0
230
0.9999999999999998
 40
0.9996954599
 41
2.35634678343996
 42
3.926838523739697
  0
ELLIPSE
  5
1B6
330
5E
100
AcDbEntity
  8
$DDT_AUDIT_GENERATED_(1A4)
  6
Continuous
 62
     7
100
AcDbEllipse
 10
67.6307262974
 20
391.3479823433
 30
0.0
 11
-0.7073221891695815
 21
0.7073221891695815
 31
0.0
210
0.0
220
0.0
230
0.9999999999999998
 40
0.9996954599
 41
2.356346783439889
 42
3.926838523739754
  0
ELLIPSE
  5
1B7
330
5E
100
AcDbEntity
  8
$DDT_AUDIT_GENERATED_(1A4)
  6
Continuous
 62
     7
100
AcDbEllipse
 10
17.6310309535
 20
456.3476776872
 30
0.0
 11
0.7073221891695815
 21
-0.7073221891695815
 31
0.0
210
0.0
220
0.0
230
0.9999999999999998
 40
0.9996954599
 41
2.356346783439903
 42
3.92683852373963
  0
ELLIPSE
  5
1B8
330
5E
100
AcDbEntity
  8
$DDT_AUDIT_GENERATED_(1A4)
  6
Continuous
 62
     7
100
AcDbEllipse
 10
17.6310309535
 20
391.3479823433
 30
0.0
 11
0.7073221891695815
 21
0.7073221891695815
 31
0.0
210
0.0
220
0.0
230
0.9999999999999998
 40
0.9996954599
 41
2.356346783439843
 42
3.926838523739676
  0
LINE
  5
1B9
330
5E
100
AcDbEntity
  8
$DDT_AUDIT_GENERATED_(1A4)
  6
Continuous
 62
     7
100
AcDbLine
 10
36.1352039817
 20
446.55217441
 30
0.0
 11
36.1352039817
 21
435.5434856205
 31
0.0
  0
LINE
  5
1BA
330
5E
100
AcDbEntity
  8
$DDT_AUDIT_GENERATED_(1A4)
  6
Continuous
 62
     7
100
AcDbLine
 10
24.1265532692
 20
435.5434856205
 30
0.0
 11
24.1265532692
 21
446.55217441
 31
0.0
  0
LINE
  5
1BB
330
5E
100
AcDbEntity
  8
$DDT_AUDIT_GENERATED_(1A4)
  6
Continuous
 62
     7
100
AcDbLine
 10
35.6352230202
 20
435.043504659
 30
0.0
 11
24.6265342308
 21
435.043504659
 31
0.0
  0
LINE
  5
1BC
330
5E
100
AcDbEntity
  8
$DDT_AUDIT_GENERATED_(1A4)
  6
Continuous
 62
     7
100
AcDbLine
 10
24.6265342308
 20
447.0521553715
 30
0.0
 11
35.6352230202
 21
447.0521553715
 31
0.0
  0
ARC
  5
1BD
330
5E
100
AcDbEntity
  8
$DDT_AUDIT_GENERATED_(1A4)
  6
Continuous
 62
     7
100
AcDbCircle
 10
24.6265723084
 20
435.5435236982
 30
0.0
 40
0.5000190406427355
100
AcDbArc
 50
180.0043632124
 51
269.9956367876
  0
ARC
  5
1BE
330
5E
100
AcDbEntity
  8
$DDT_AUDIT_GENERATED_(1A4)
  6
Continuous
 62
     7
100
AcDbCircle
 10
24.6265723084
 20
446.5521363323
 30
0.0
 40
0.5000190406427268
100
AcDbArc
 50
90.0043632124
 51
179.9956367876
  0
ARC
  5
1BF
330
5E
100
AcDbEntity
  8
$DDT_AUDIT_GENERATED_(1A4)
  6
Continuous
 62
     7
100
AcDbCircle
 10
35.6351849425
 20
435.5435236982
 30
0.0
 40
0.5000190406427367
100
AcDbArc
 50
270.0043632124
 51
359.9956367876
  0
ARC
  5
1C0
330
5E
100
AcDbEntity
  8
$DDT_AUDIT_GENERATED_(1A4)
  6
Continuous
 62
     7
100
AcDbCircle
 10
35.6351849425
 20
446.5521363323
 30
0.0
 40
0.5000190406427146
100
AcDbArc
 50
0.0043632124
 51
89.9956367876
  0
LINE
  5
1C1
330
5E
100
AcDbEntity
  8
$DDT_AUDIT_GENERATED_(1A4)
  6
Continuous
 62
     7
100
AcDbLine
 10
61.1352039817
 20
446.55217441
 30
0.0
 11
61.1352039817
 21
435.5434856205
 31
0.0
  0
LINE
  5
1C2
330
5E
100
AcDbEntity
  8
$DDT_AUDIT_GENERATED_(1A4)
  6
Continuous
 62
     7
100
AcDbLine
 10
49.1265532692
 20
435.5434856205
 30
0.0
 11
49.1265532692
 21
446.55217441
 31
0.0
  0
LINE
  5
1C3
330
5E
100
AcDbEntity
  8
$DDT_AUDIT_GENERATED_(1A4)
  6
Continuous
 62
     7
100
AcDbLine
 10
60.6352230202
 20
435.043504659
 30
0.0
 11
49.6265342308
 21
435.043504659
 31
0.0
  0
LINE
  5
1C4
330
5E
100
AcDbEntity
  8
$DDT_AUDIT_GENERATED_(1A4)
  6
Continuous
 62
     7
100
AcDbLine
 10
49.6265342308
 20
447.0521553715
 30
0.0
 11
60.6352230202
 21
447.0521553715
 31
0.0
  0
ARC
  5
1C5
330
5E
100
AcDbEntity
  8
$DDT_AUDIT_GENERATED_(1A4)
  6
Continuous
 62
     7
100
AcDbCircle
 10
49.6265723084
 20
446.5521363323
 30
0.0
 40
0.5000190406427355
100
AcDbArc
 50
90.0043632124
 51
179.9956367876
  0
ARC
  5
1C6
330
5E
100
AcDbEntity
  8
$DDT_AUDIT_GENERATED_(1A4)
  6
Continuous
 62
     7
100
AcDbCircle
 10
49.6265723084
 20
435.5435236982
 30
0.0
 40
0.5000190406427372
100
AcDbArc
 50
180.0043632124
 51
269.9956367876
  0
ARC
  5
1C7
330
5E
100
AcDbEntity
  8
$DDT_AUDIT_GENERATED_(1A4)
  6
Continuous
 62
     7
100
AcDbCircle
 10
60.6351849425
 20
446.5521363323
 30
0.0
 40
0.5000190406427146
100
AcDbArc
 50
0.0043632124
 51
89.9956367876
  0
ARC
  5
1C8
330
5E
100
AcDbEntity
  8
$DDT_AUDIT_GENERATED_(1A4)
  6
Continuous
 62
     7
100
AcDbCircle
 10
60.6351849425
 20
435.5435236982
 30
0.0
 40
0.5000190406427355
100
AcDbArc
 50
270.0043632124
 51
359.9956367876
  0
LINE
  5
1C9
330
5E
100
AcDbEntity
  8
$DDT_AUDIT_GENERATED_(1A4)
  6
Continuous
 62
     7
100
AcDbLine
 10
49.1439118139
 20
390.3478300152
 30
0.0
 11
55.2310008433
 21
390.3478300152
 31
0.0
  0
LINE
  5
1CA
330
5E
100
AcDbEntity
  8
$DDT_AUDIT_GENERATED_(1A4)
  6
Continuous
 62
     7
100
AcDbLine
 10
38.6265342308
 20
390.3825878287
 30
0.0
 11
46.6352230202
 21
390.3825878287
 31
0.0
  0
LINE
  5
1CB
330
5E
100
AcDbEntity
  8
$DDT_AUDIT_GENERATED_(1A4)
  6
Continuous
 62
     7
100
AcDbLine
 10
48.6439689272
 20
389.8478300123
 30
0.0
 11
48.6439689272
 21
384.2191113074
 31
0.0
  0
LINE
  5
1CC
330
5E
100
AcDbEntity
  8
$DDT_AUDIT_GENERATED_(1A4)
  6
Continuous
 62
     7
100
AcDbLine
 10
36.117845437
 20
457.3478300152
 30
0.0
 11
31.5286757498
 21
457.3478300152
 31
0.0
  0
LINE
  5
1CD
330
5E
100
AcDbEntity
  8
$DDT_AUDIT_GENERATED_(1A4)
  6
Continuous
 62
     7
100
AcDbLine
 10
46.6352230202
 20
457.3130722018
 30
0.0
 11
43.2733862182
 21
457.3130722018
 31
0.0
  0
SPLINE
  5
1CE
330
5E
100
AcDbEntity
  8
$DDT_AUDIT_GENERATED_(1A4)
  6
Continuous
 62
     7
100
AcDbSpline
210
0.0
220
0.0
230
1.0
 70
     8
 71
     3
 72
    11
 73
     7
 74
     0
 42
0.000000007782009
 43
0.0000000001
 40
0.0
 40
0.0
 40
0.0
 40
0.0
 40
0.3539904296867054
 40
0.3539904296867054
 40
0.3539904296867054
 40
1.0
 40
1.0
 40
1.0
 40
1.0
 10
43.27338621816318
 20
457.3130722018361
 30
0.0
 10
43.12174952646528
 20
457.3130722018361
 30
0.0
 10
42.97012290495039
 20
457.3131154375635
 30
0.0
 10
42.81849013350952
 20
457.3131344670439
 30
0.0
 10
42.54178836478917
 20
457.3131691923268
 30
0.0
 10
42.26507995526935
 20
457.3130722018361
 30
0.0
 10
41.98837103280483
 20
457.3130722018361
 30
0.0
  0
LINE
  5
1CF
330
5E
100
AcDbEntity
  8
$DDT_AUDIT_GENERATED_(1A4)
  6
Continuous
 62
     7
100
AcDbLine
 10
41.9883710328
 20
457.3130722018
 30
0.0
 11
38.6265342308
 21
457.3130722018
 31
0.0
  0
LINE
  5
1D0
330
5E
100
AcDbEntity
  8
$DDT_AUDIT_GENERATED_(1A4)
  6
Continuous
 62
     7
100
AcDbLine
 10
36.6177883238
 20
457.8478300181
 30
0.0
 11
36.6177883238
 21
470.8478300152
 31
0.0
  0
ARC
  5
1D1
330
5E
100
AcDbEntity
  8
$DDT_AUDIT_GENERATED_(1A4)
  6
Continuous
 62
     7
100
AcDbCircle
 10
42.6308786255
 20
460.9478300152
 30
0.0
 40
3.199999999999991
100
AcDbArc
 50
258.417213112
 51
281.582786888
  0
ARC
  5
1D2
330
5E
100
AcDbEntity
  8
$DDT_AUDIT_GENERATED_(1A4)
  6
Continuous
 62
     7
100
AcDbCircle
 10
42.6308786255
 20
460.9478300152
 30
0.0
 40
3.199999999999981
100
AcDbArc
 50
120.0
 51
258.417213112
  0
ELLIPSE
  5
1D3
330
5E
100
AcDbEntity
  8
$DDT_AUDIT_GENERATED_(1A4)
  6
Continuous
 62
     7
100
AcDbEllipse
 10
49.1439879664
 20
389.8477538512
 30
0.0
 11
0.2236357461231395
 21
-0.4473055582420339
 31
0.0
210
0.0
220
0.0
230
0.9999999999999999
 40
0.9998096356
 41
2.678051653514052
 42
4.248695681264298
  0
ELLIPSE
  5
1D4
330
5E
100
AcDbEntity
  8
$DDT_AUDIT_GENERATED_(1A4)
  6
Continuous
 62
     7
100
AcDbEllipse
 10
36.1177692846
 20
389.8477538512
 30
0.0
 11
-0.2236357461231396
 21
-0.4473055582420339
 31
0.0
210
0.0
220
0.0
230
1.0
 40
0.9998096356
 41
2.034489625915281
 42
3.605133653665577
  0
ELLIPSE
  5
1D5
330
5E
100
AcDbEntity
  8
$DDT_AUDIT_GENERATED_(1A4)
  6
Continuous
 62
     7
100
AcDbEllipse
 10
49.1439879664
 20
457.8479061793
 30
0.0
 11
0.2236357461231396
 21
0.4473055582420339
 31
0.0
210
0.0
220
0.0
230
1.0
 40
0.9998096356
 41
2.034489625915174
 42
3.605133653665108
  0
ELLIPSE
  5
1D6
330
5E
100
AcDbEntity
  8
$DDT_AUDIT_GENERATED_(1A4)
  6
Continuous
 62
     7
100
AcDbEllipse
 10
36.1177692846
 20
457.8479061793
 30
0.0
 11
-0.2236357461231395
 21
0.4473055582420339
 31
0.0
210
0.0
220
0.0
230
0.9999999999999999
 40
0.9998096356
 41
2.678051653514464
 42
4.248695681264419
  0
LINE
  5
1D7
330
5E
100
AcDbEntity
  8
$DDT_AUDIT_GENERATED_(1A4)
  6
Continuous
 62
     7
100
AcDbLine
 10
48.6439689272
 20
470.8478300152
 30
0.0
 11
48.6439689272
 21
457.8478300181
 31
0.0
  0
LINE
  5
1D8
330
5E
100
AcDbEntity
  8
$DDT_AUDIT_GENERATED_(1A4)
  6
Continuous
 62
     7
100
AcDbLine
 10
36.6177883238
 20
384.2191113074
 30
0.0
 11
36.6177883238
 21
389.8478300123
 31
0.0
  0
ELLIPSE
  5
1D9
330
5E
100
AcDbEntity
  8
$DDT_AUDIT_GENERATED_(1A4)
  6
Continuous
 62
     7
100
AcDbEllipse
 10
37.117807363
 20
384.2191113074
 30
0.0
 11
-0.5000190391928681
 21
2.775663250314353E-17
 31
0.0
210
0.0
220
0.0
230
1.0
 40
0.9999619231
 41
0.0000000000000001
 42
1.570796326794897
  0
ELLIPSE
  5
1DA
330
5E
100
AcDbEntity
  8
$DDT_AUDIT_GENERATED_(1A4)
  6
Continuous
 62
     7
100
AcDbEllipse
 10
48.143949888
 20
384.2191113074
 30
0.0
 11
0.5000190391928681
 21
-2.775663250314353E-17
 31
0.0
210
0.0
220
0.0
230
1.0
 40
0.9999619231
 41
4.71238898038469
 42
6.283185307179586
  0
ELLIPSE
  5
1DB
330
5E
100
AcDbEntity
  8
$DDT_AUDIT_GENERATED_(1A4)
  6
Continuous
 62
     7
100
AcDbEllipse
 10
48.143949888
 20
470.8478300152
 30
0.0
 11
0.5000190391928681
 21
-2.775663250314353E-17
 31
0.0
210
0.0
220
0.0
230
1.0
 40
0.9999619231
 41
0.0000000000000001
 42
1.570796326794783
  0
ELLIPSE
  5
1DC
330
5E
100
AcDbEntity
  8
$DDT_AUDIT_GENERATED_(1A4)
  6
Continuous
 62
     7
100
AcDbEllipse
 10
37.117807363
 20
470.8478300152
 30
0.0
 11
-0.5000190391928681
 21
2.775663250314353E-17
 31
0.0
210
0.0
220
0.0
230
1.0
 40
0.9999619231
 41
4.71238898038469
 42
6.283185307179586
  0
LINE
  5
1DD
330
5E
100
AcDbEntity
  8
$DDT_AUDIT_GENERATED_(1A4)
  6
Continuous
 62
     7
100
AcDbLine
 10
37.129067925
 20
471.3478300152
 30
0.0
 11
37.994970948
 21
471.3478300152
 31
0.0
  0
LINE
  5
1DE
330
5E
100
AcDbEntity
  8
$DDT_AUDIT_GENERATED_(1A4)
  6
Continuous
 62
     7
100
AcDbLine
 10
48.132689326
 20
471.3478300152
 30
0.0
 11
48.143949888
 21
471.3478300152
 31
0.0
  0
LINE
  5
1DF
330
5E
100
AcDbEntity
  8
$DDT_AUDIT_GENERATED_(1A4)
  6
Continuous
 62
     7
100
AcDbLine
 10
37.117807363
 20
471.3478300152
 30
0.0
 11
37.129067925
 21
471.3478300152
 31
0.0
  0
LINE
  5
1E0
330
5E
100
AcDbEntity
  8
$DDT_AUDIT_GENERATED_(1A4)
  6
Continuous
 62
     7
100
AcDbLine
 10
48.132324724
 20
383.7191113074
 30
0.0
 11
47.3794846811
 21
383.7191113074
 31
0.0
  0
LINE
  5
1E1
330
5E
100
AcDbEntity
  8
$DDT_AUDIT_GENERATED_(1A4)
  6
Continuous
 62
     7
100
AcDbLine
 10
44.2265151916
 20
383.7191113074
 30
0.0
 11
44.2177883238
 21
383.7191113074
 31
0.0
  0
LINE
  5
1E2
330
5E
100
AcDbEntity
  8
$DDT_AUDIT_GENERATED_(1A4)
  6
Continuous
 62
     7
100
AcDbLine
 10
47.3794846811
 20
383.7191113074
 30
0.0
 11
46.6352230202
 21
383.7191113074
 31
0.0
  0
LINE
  5
1E3
330
5E
100
AcDbEntity
  8
$DDT_AUDIT_GENERATED_(1A4)
  6
Continuous
 62
     7
100
AcDbLine
 10
46.6352230202
 20
383.7191113074
 30
0.0
 11
44.2265151916
 21
383.7191113074
 31
0.0
  0
LINE
  5
1E4
330
5E
100
AcDbEntity
  8
$DDT_AUDIT_GENERATED_(1A4)
  6
Continuous
 62
     7
100
AcDbLine
 10
48.143949888
 20
383.7191113074
 30
0.0
 11
48.132324724
 21
383.7191113074
 31
0.0
  0
LINE
  5
1E5
330
5E
100
AcDbEntity
  8
$DDT_AUDIT_GENERATED_(1A4)
  6
Continuous
 62
     7
100
AcDbLine
 10
41.0352420594
 20
383.7191113074
 30
0.0
 11
41.0439689272
 21
383.7191113074
 31
0.0
  0
LINE
  5
1E6
330
5E
100
AcDbEntity
  8
$DDT_AUDIT_GENERATED_(1A4)
  6
Continuous
 62
     7
100
AcDbLine
 10
37.8822725698
 20
383.7191113074
 30
0.0
 11
37.129432527
 21
383.7191113074
 31
0.0
  0
LINE
  5
1E7
330
5E
100
AcDbEntity
  8
$DDT_AUDIT_GENERATED_(1A4)
  6
Continuous
 62
     7
100
AcDbLine
 10
38.6265342308
 20
383.7191113074
 30
0.0
 11
37.8822725698
 21
383.7191113074
 31
0.0
  0
LINE
  5
1E8
330
5E
100
AcDbEntity
  8
$DDT_AUDIT_GENERATED_(1A4)
  6
Continuous
 62
     7
100
AcDbLine
 10
41.0352420594
 20
383.7191113074
 30
0.0
 11
38.6265342308
 21
383.7191113074
 31
0.0
  0
LINE
  5
1E9
330
5E
100
AcDbEntity
  8
$DDT_AUDIT_GENERATED_(1A4)
  6
Continuous
 62
     7
100
AcDbLine
 10
37.129432527
 20
383.7191113074
 30
0.0
 11
37.117807363
 21
383.7191113074
 31
0.0
  0
ELLIPSE
  5
1EA
330
5E
100
AcDbEntity
  8
$DDT_AUDIT_GENERATED_(1A4)
  6
Continuous
 62
     7
100
AcDbEllipse
 10
37.129432527
 20
384.2191113074
 30
0.0
 11
2.915608726672403E-12
 21
-0.4999999999992302
 31
0.0
210
0.0
220
0.0
230
1.0
 40
0.9999619231
 41
4.712388980378859
 42
6.283185307179586
  0
LINE
  5
1EB
330
5E
100
AcDbEntity
  8
$DDT_AUDIT_GENERATED_(1A4)
  6
Continuous
 62
     7
100
AcDbLine
 10
47.2667863029
 20
471.3478300152
 30
0.0
 11
48.132689326
 21
471.3478300152
 31
0.0
  0
LINE
  5
1EC
330
5E
100
AcDbEntity
  8
$DDT_AUDIT_GENERATED_(1A4)
  6
Continuous
 62
     7
100
AcDbLine
 10
46.6352230202
 20
471.3478300152
 30
0.0
 11
47.2667863029
 21
471.3478300152
 31
0.0
  0
LINE
  5
1ED
330
5E
100
AcDbEntity
  8
$DDT_AUDIT_GENERATED_(1A4)
  6
Continuous
 62
     7
100
AcDbLine
 10
38.6265342308
 20
471.3478300152
 30
0.0
 11
46.6352230202
 21
471.3478300152
 31
0.0
  0
LINE
  5
1EE
330
5E
100
AcDbEntity
  8
$DDT_AUDIT_GENERATED_(1A4)
  6
Continuous
 62
     7
100
AcDbLine
 10
37.994970948
 20
471.3478300152
 30
0.0
 11
38.6265342308
 21
471.3478300152
 31
0.0
  0
LINE
  5
1EF
330
5E
100
AcDbEntity
  8
$DDT_AUDIT_GENERATED_(1A4)
  6
Continuous
 62
     7
100
AcDbLine
 10
64.2307564077
 20
390.3478300152
 30
0.0
 11
67.6310309303
 21
390.3478300152
 31
0.0
  0
LINE
  5
1F0
330
5E
100
AcDbEntity
  8
$DDT_AUDIT_GENERATED_(1A4)
  6
Continuous
 62
     7
100
AcDbLine
 10
50.6880349001
 20
457.3478300152
 30
0.0
 11
49.1439118139
 21
457.3478300152
 31
0.0
  0
ELLIPSE
  5
1F1
330
5E
100
AcDbEntity
  8
$DDT_AUDIT_GENERATED_(1A4)
  6
Continuous
 62
     7
100
AcDbEllipse
 10
54.3874713721
 20
457.2570775018
 30
0.0
 11
-2.750000000000025
 21
1.526556658859604E-16
 31
0.0
210
0.0
220
0.0
230
1.0
 40
0.0174524064
 41
0.3566118927072296
 42
2.784980760882564
  0
LINE
  5
1F2
330
5E
100
AcDbEntity
  8
$DDT_AUDIT_GENERATED_(1A4)
  6
Continuous
 62
     7
100
AcDbLine
 10
58.6880349001
 20
457.3478300152
 30
0.0
 11
58.0869078442
 21
457.3478300152
 31
0.0
  0
ELLIPSE
  5
1F3
330
5E
100
AcDbEntity
  8
$DDT_AUDIT_GENERATED_(1A4)
  6
Continuous
 62
     7
100
AcDbEllipse
 10
62.3874713721
 20
457.2570775018
 30
0.0
 11
-2.750000000000027
 21
1.526556658859605E-16
 31
0.0
210
0.0
220
0.0
230
1.0
 40
0.0174524064
 41
0.3566118927072312
 42
2.784980760882569
  0
CIRCLE
  5
1F4
330
5E
100
AcDbEntity
  8
$DDT_AUDIT_GENERATED_(1A4)
  6
Continuous
 62
     7
100
AcDbCircle
 10
30.1308786255
 20
441.0478300152
 30
0.0
 40
2.33692873750673
  0
CIRCLE
  5
1F5
330
5E
100
AcDbEntity
  8
$DDT_AUDIT_GENERATED_(1A4)
  6
Continuous
 62
     7
100
AcDbCircle
 10
55.1308786255
 20
441.0478300152
 30
0.0
 40
2.33692873750673
  0
ELLIPSE
  5
1F7
330
5E
100
AcDbEntity
  8
$DDT_AUDIT_GENERATED_(1F6)
  6
Continuous
 62
     7
100
AcDbEllipse
 10
62.3874713721
 20
551.090284073
 30
0.0
 11
-4.150000000000001
 21
2.303712776097200E-16
 31
0.0
210
0.0
220
0.0
230
1.0
 40
0.0174524064
 41
0.2696829249606048
 42
3.141592653589793
  0
ELLIPSE
  5
1F8
330
5E
100
AcDbEntity
  8
$DDT_AUDIT_GENERATED_(1F6)
  6
Continuous
 62
     7
100
AcDbEllipse
 10
62.3874713721
 20
561.0887610245
 30
0.0
 11
-4.150000000000001
 21
2.303712776097200E-16
 31
0.0
210
0.0
220
0.0
230
1.0
 40
0.0174524064
 41
0.0
 42
3.179006235894184
  0
ELLIPSE
  5
1F9
330
5E
100
AcDbEntity
  8
$DDT_AUDIT_GENERATED_(1F6)
  6
Continuous
 62
     7
100
AcDbEllipse
 10
62.3874713721
 20
562.7885021063
 30
0.0
 11
-4.150000000000001
 21
2.303712776097200E-16
 31
0.0
210
0.0
220
0.0
230
1.0
 40
0.0174524064
 41
0.0366168990873209
 42
3.141592653589793
  0
ELLIPSE
  5
1FA
330
5E
100
AcDbEntity
  8
$DDT_AUDIT_GENERATED_(1F6)
  6
Continuous
 62
     7
100
AcDbEllipse
 10
62.3874713721
 20
565.0881518052
 30
0.0
 11
-4.150000000000001
 21
2.303712776097200E-16
 31
0.0
210
0.0
220
0.0
230
1.0
 40
0.0174524064
 41
0.0
 42
3.179006235894184
  0
ELLIPSE
  5
1FB
330
5E
100
AcDbEntity
  8
$DDT_AUDIT_GENERATED_(1F6)
  6
Continuous
 62
     7
100
AcDbEllipse
 10
62.3874713721
 20
566.7878928869
 30
0.0
 11
-4.150000000000001
 21
2.303712776097200E-16
 31
0.0
210
0.0
220
0.0
230
1.0
 40
0.0174524064
 41
0.0366168990873664
 42
3.141592653589793
  0
ELLIPSE
  5
1FC
330
5E
100
AcDbEntity
  8
$DDT_AUDIT_GENERATED_(1F6)
  6
Continuous
 62
     7
100
AcDbEllipse
 10
62.3874713721
 20
569.2875121248
 30
0.0
 11
-4.150000000000001
 21
2.303712776097200E-16
 31
0.0
210
0.0
220
0.0
230
1.0
 40
0.0174524064
 41
0.0
 42
3.147163447806403
  0
ELLIPSE
  5
1FD
330
5E
100
AcDbEntity
  8
$DDT_AUDIT_GENERATED_(1F6)
  6
Continuous
 62
     7
100
AcDbEllipse
 10
62.3874713721
 20
573.986796292
 30
0.0
 11
-2.650000000000003
 21
1.471045507628334E-16
 31
0.0
210
0.0
220
0.0
230
1.0
 40
0.0174524064
 41
0.0
 42
3.147163447805944
  0
ELLIPSE
  5
1FE
330
5E
100
AcDbEntity
  8
$DDT_AUDIT_GENERATED_(1F6)
  6
Continuous
 62
     7
100
AcDbEllipse
 10
62.3874713721
 20
579.3859738459
 30
0.0
 11
-2.649999999999999
 21
1.471045507628332E-16
 31
0.0
210
0.0
220
0.0
230
1.0
 40
0.0174524064
 41
0.0
 42
6.283185307179586
  0
LINE
  5
1FF
330
5E
100
AcDbEntity
  8
$DDT_AUDIT_GENERATED_(1F6)
  6
Continuous
 62
     7
100
AcDbLine
 10
66.5374713721
 20
551.090284073
 30
0.0
 11
66.5374713721
 21
561.0887610245
 31
0.0
  0
LINE
  5
200
330
5E
100
AcDbEntity
  8
$DDT_AUDIT_GENERATED_(1F6)
  6
Continuous
 62
     7
100
AcDbLine
 10
58.3874713721
 20
562.559408219
 30
0.0
 11
58.3874713721
 21
561.3178549119
 31
0.0
  0
LINE
  5
201
330
5E
100
AcDbEntity
  8
$DDT_AUDIT_GENERATED_(1F6)
  6
Continuous
 62
     7
100
AcDbLine
 10
66.3874713721
 20
561.3178549119
 30
0.0
 11
66.3874713721
 21
562.559408219
 31
0.0
  0
LINE
  5
202
330
5E
100
AcDbEntity
  8
$DDT_AUDIT_GENERATED_(1F6)
  6
Continuous
 62
     7
100
AcDbLine
 10
66.5374713721
 20
562.7885021063
 30
0.0
 11
66.5374713721
 21
565.0881518052
 31
0.0
  0
LINE
  5
203
330
5E
100
AcDbEntity
  8
$DDT_AUDIT_GENERATED_(1F6)
  6
Continuous
 62
     7
100
AcDbLine
 10
58.3874713721
 20
566.5587989996
 30
0.0
 11
58.3874713721
 21
565.3172456925
 31
0.0
  0
LINE
  5
204
330
5E
100
AcDbEntity
  8
$DDT_AUDIT_GENERATED_(1F6)
  6
Continuous
 62
     7
100
AcDbLine
 10
66.3874713721
 20
565.3172456925
 30
0.0
 11
66.3874713721
 21
566.5587989996
 31
0.0
  0
LINE
  5
205
330
5E
100
AcDbEntity
  8
$DDT_AUDIT_GENERATED_(1F6)
  6
Continuous
 62
     7
100
AcDbLine
 10
66.5374713721
 20
566.7878928869
 30
0.0
 11
66.5374713721
 21
569.2875121248
 31
0.0
  0
LINE
  5
206
330
5E
100
AcDbEntity
  8
$DDT_AUDIT_GENERATED_(1F6)
  6
Continuous
 62
     7
100
AcDbLine
 10
66.5374069773
 20
569.2879156013
 30
0.0
 11
65.0374713721
 21
573.9869251139
 31
0.0
  0
LINE
  5
207
330
5E
100
AcDbEntity
  8
$DDT_AUDIT_GENERATED_(1F6)
  6
Continuous
 62
     7
100
AcDbLine
 10
59.7374713721
 20
573.9869251139
 30
0.0
 11
58.3874713721
 21
569.7576349896
 31
0.0
  0
LINE
  5
208
330
5E
100
AcDbEntity
  8
$DDT_AUDIT_GENERATED_(1F6)
  6
Continuous
 62
     7
100
AcDbLine
 10
59.7374713721
 20
579.3859738459
 30
0.0
 11
59.7374713721
 21
573.986796292
 31
0.0
  0
LINE
  5
209
330
5E
100
AcDbEntity
  8
$DDT_AUDIT_GENERATED_(1F6)
  6
Continuous
 62
     7
100
AcDbLine
 10
65.0374713721
 20
573.986796292
 30
0.0
 11
65.0374713721
 21
579.3859738459
 31
0.0
  0
ARC
  5
20A
330
5E
100
AcDbEntity
  8
$DDT_AUDIT_GENERATED_(1F6)
  6
Continuous
 62
     7
100
AcDbCircle
 10
66.6328249046
 20
561.3168747739
 30
0.0
 40
0.2453554902125137
100
AcDbArc
 50
179.7711161102
 51
244.5635664447
  0
ARC
  5
20B
330
5E
100
AcDbEntity
  8
$DDT_AUDIT_GENERATED_(1F6)
  6
Continuous
 62
     7
100
AcDbCircle
 10
66.6342506199
 20
566.559453908
 30
0.0
 40
0.2467002157265284
100
AcDbArc
 50
117.7907176052
 51
180.4166279173
  0
ARC
  5
20C
330
5E
100
AcDbEntity
  8
$DDT_AUDIT_GENERATED_(1F6)
  6
Continuous
 62
     7
100
AcDbCircle
 10
66.6328249046
 20
565.3162655545
 30
0.0
 40
0.2453554902126104
100
AcDbArc
 50
179.7711161102
 51
244.5635664446
  0
ARC
  5
20D
330
5E
100
AcDbEntity
  8
$DDT_AUDIT_GENERATED_(1F6)
  6
Continuous
 62
     7
100
AcDbCircle
 10
66.6342506199
 20
562.5600631274
 30
0.0
 40
0.2467002157265941
100
AcDbArc
 50
117.7907176053
 51
180.4166279173
  0
ELLIPSE
  5
20E
330
5E
100
AcDbEntity
  8
$DDT_AUDIT_GENERATED_(1F6)
  6
Continuous
 62
     7
100
AcDbEllipse
 10
54.3874713721
 20
551.090284073
 30
0.0
 11
-4.150000000000001
 21
2.303712776097200E-16
 31
0.0
210
0.0
220
0.0
230
1.0
 40
0.0174524064
 41
0.0
 42
2.871909727792854
  0
ELLIPSE
  5
20F
330
5E
100
AcDbEntity
  8
$DDT_AUDIT_GENERATED_(1F6)
  6
Continuous
 62
     7
100
AcDbEllipse
 10
54.3874713721
 20
561.0887610245
 30
0.0
 11
-4.150000000000001
 21
2.303712776097200E-16
 31
0.0
210
0.0
220
0.0
230
1.0
 40
0.0174524064
 41
0.0
 42
3.141592653589793
  0
ELLIPSE
  5
210
330
5E
100
AcDbEntity
  8
$DDT_AUDIT_GENERATED_(1F6)
  6
Continuous
 62
     7
100
AcDbEllipse
 10
54.3874713721
 20
561.0887610245
 30
0.0
 11
-4.150000000000001
 21
2.303712776097200E-16
 31
0.0
210
0.0
220
0.0
230
1.0
 40
0.0174524064
 41
6.243313422221912
 42
6.283185307179586
  0
ELLIPSE
  5
211
330
5E
100
AcDbEntity
  8
$DDT_AUDIT_GENERATED_(1F6)
  6
Continuous
 62
     7
100
AcDbEllipse
 10
54.3874713721
 20
562.7885021063
 30
0.0
 11
-4.149999999999999
 21
2.303712776097199E-16
 31
0.0
210
0.0
220
0.0
230
1.0
 40
0.0174524064
 41
0.0
 42
3.108121150548315
  0
ELLIPSE
  5
212
330
5E
100
AcDbEntity
  8
$DDT_AUDIT_GENERATED_(1F6)
  6
Continuous
 62
     7
100
AcDbEllipse
 10
54.3874713721
 20
565.0881518052
 30
0.0
 11
-4.150000000000001
 21
2.303712776097200E-16
 31
0.0
210
0.0
220
0.0
230
1.0
 40
0.0174524064
 41
0.0
 42
3.141592653589793
  0
ELLIPSE
  5
213
330
5E
100
AcDbEntity
  8
$DDT_AUDIT_GENERATED_(1F6)
  6
Continuous
 62
     7
100
AcDbEllipse
 10
54.3874713721
 20
565.0881518052
 30
0.0
 11
-4.150000000000001
 21
2.303712776097200E-16
 31
0.0
210
0.0
220
0.0
230
1.0
 40
0.0174524064
 41
6.243313422221912
 42
6.283185307179586
  0
ELLIPSE
  5
214
330
5E
100
AcDbEntity
  8
$DDT_AUDIT_GENERATED_(1F6)
  6
Continuous
 62
     7
100
AcDbEllipse
 10
54.3874713721
 20
566.7878928869
 30
0.0
 11
-4.150000000000001
 21
2.303712776097200E-16
 31
0.0
210
0.0
220
0.0
230
1.0
 40
0.0174524064
 41
0.0
 42
3.108121150548302
  0
ELLIPSE
  5
215
330
5E
100
AcDbEntity
  8
$DDT_AUDIT_GENERATED_(1F6)
  6
Continuous
 62
     7
100
AcDbEllipse
 10
54.3874713721
 20
569.2875121248
 30
0.0
 11
-4.149999999999999
 21
2.303712776097199E-16
 31
0.0
210
0.0
220
0.0
230
1.0
 40
0.0174524064
 41
0.0
 42
3.141592653589793
  0
ELLIPSE
  5
216
330
5E
100
AcDbEntity
  8
$DDT_AUDIT_GENERATED_(1F6)
  6
Continuous
 62
     7
100
AcDbEllipse
 10
54.3874713721
 20
569.2875121248
 30
0.0
 11
-4.149999999999999
 21
2.303712776097199E-16
 31
0.0
210
0.0
220
0.0
230
1.0
 40
0.0174524064
 41
6.277614512963056
 42
6.283185307179586
  0
ELLIPSE
  5
217
330
5E
100
AcDbEntity
  8
$DDT_AUDIT_GENERATED_(1F6)
  6
Continuous
 62
     7
100
AcDbEllipse
 10
54.3874713721
 20
573.986796292
 30
0.0
 11
2.650000000000001
 21
-1.471045507628333E-16
 31
0.0
210
0.0
220
0.0
230
1.0
 40
0.0174524064
 41
0.0
 42
0.00557079421651
  0
ELLIPSE
  5
218
330
5E
100
AcDbEntity
  8
$DDT_AUDIT_GENERATED_(1F6)
  6
Continuous
 62
     7
100
AcDbEllipse
 10
54.3874713721
 20
573.986796292
 30
0.0
 11
2.650000000000001
 21
-1.471045507628333E-16
 31
0.0
210
0.0
220
0.0
230
1.0
 40
0.0174524064
 41
3.141592653589793
 42
6.283185307179586
  0
ELLIPSE
  5
219
330
5E
100
AcDbEntity
  8
$DDT_AUDIT_GENERATED_(1F6)
  6
Continuous
 62
     7
100
AcDbEllipse
 10
54.3874713721
 20
579.3859738459
 30
0.0
 11
-2.650000000000001
 21
1.471045507628333E-16
 31
0.0
210
0.0
220
0.0
230
1.0
 40
0.0174524064
 41
0.0
 42
6.283185307179586
  0
LINE
  5
21A
330
5E
100
AcDbEntity
  8
$DDT_AUDIT_GENERATED_(1F6)
  6
Continuous
 62
     7
100
AcDbLine
 10
50.2374713721
 20
561.0887610245
 30
0.0
 11
50.2374713721
 21
551.090284073
 31
0.0
  0
LINE
  5
21B
330
5E
100
AcDbEntity
  8
$DDT_AUDIT_GENERATED_(1F6)
  6
Continuous
 62
     7
100
AcDbLine
 10
50.3874713721
 20
562.559408219
 30
0.0
 11
50.3874713721
 21
561.3178549119
 31
0.0
  0
LINE
  5
21C
330
5E
100
AcDbEntity
  8
$DDT_AUDIT_GENERATED_(1F6)
  6
Continuous
 62
     7
100
AcDbLine
 10
58.3874713721
 20
561.3178549119
 30
0.0
 11
58.3874713721
 21
562.559408219
 31
0.0
  0
LINE
  5
21D
330
5E
100
AcDbEntity
  8
$DDT_AUDIT_GENERATED_(1F6)
  6
Continuous
 62
     7
100
AcDbLine
 10
50.2374713721
 20
565.0881518052
 30
0.0
 11
50.2374713721
 21
562.7885021063
 31
0.0
  0
LINE
  5
21E
330
5E
100
AcDbEntity
  8
$DDT_AUDIT_GENERATED_(1F6)
  6
Continuous
 62
     7
100
AcDbLine
 10
50.3874713721
 20
566.5587989996
 30
0.0
 11
50.3874713721
 21
565.3172456925
 31
0.0
  0
LINE
  5
21F
330
5E
100
AcDbEntity
  8
$DDT_AUDIT_GENERATED_(1F6)
  6
Continuous
 62
     7
100
AcDbLine
 10
58.3874713721
 20
565.3172456925
 30
0.0
 11
58.3874713721
 21
566.5587989996
 31
0.0
  0
LINE
  5
220
330
5E
100
AcDbEntity
  8
$DDT_AUDIT_GENERATED_(1F6)
  6
Continuous
 62
     7
100
AcDbLine
 10
50.2374713721
 20
569.2875121248
 30
0.0
 11
50.2374713721
 21
566.7878928869
 31
0.0
  0
LINE
  5
221
330
5E
100
AcDbEntity
  8
$DDT_AUDIT_GENERATED_(1F6)
  6
Continuous
 62
     7
100
AcDbLine
 10
58.3874713721
 20
569.7576349896
 30
0.0
 11
57.0374713721
 21
573.9869251139
 31
0.0
  0
LINE
  5
222
330
5E
100
AcDbEntity
  8
$DDT_AUDIT_GENERATED_(1F6)
  6
Continuous
 62
     7
100
AcDbLine
 10
51.7374713721
 20
573.9869251139
 30
0.0
 11
50.237535767
 21
569.2879156013
 31
0.0
  0
LINE
  5
223
330
5E
100
AcDbEntity
  8
$DDT_AUDIT_GENERATED_(1F6)
  6
Continuous
 62
     7
100
AcDbLine
 10
51.7374713721
 20
579.3859738459
 30
0.0
 11
51.7374713721
 21
573.986796292
 31
0.0
  0
LINE
  5
224
330
5E
100
AcDbEntity
  8
$DDT_AUDIT_GENERATED_(1F6)
  6
Continuous
 62
     7
100
AcDbLine
 10
57.0374713721
 20
573.986796292
 30
0.0
 11
57.0374713721
 21
579.3859738459
 31
0.0
  0
ARC
  5
225
330
5E
100
AcDbEntity
  8
$DDT_AUDIT_GENERATED_(1F6)
  6
Continuous
 62
     7
100
AcDbCircle
 10
50.1416482859
 20
561.3170156163
 30
0.0
 40
0.2457961820776575
100
AcDbArc
 50
294.3259248089
 51
0.3959018084
  0
ARC
  5
226
330
5E
100
AcDbEntity
  8
$DDT_AUDIT_GENERATED_(1F6)
  6
Continuous
 62
     7
100
AcDbCircle
 10
50.14252442
 20
566.5598773569
 30
0.0
 40
0.2449493258095705
100
AcDbArc
 50
359.7477620218
 51
63.9649593677
  0
ARC
  5
227
330
5E
100
AcDbEntity
  8
$DDT_AUDIT_GENERATED_(1F6)
  6
Continuous
 62
     7
100
AcDbCircle
 10
50.1416482859
 20
565.3164063969
 30
0.0
 40
0.2457961820775677
100
AcDbArc
 50
294.3259248089
 51
0.3959018085
  0
ARC
  5
228
330
5E
100
AcDbEntity
  8
$DDT_AUDIT_GENERATED_(1F6)
  6
Continuous
 62
     7
100
AcDbCircle
 10
50.14252442
 20
562.5604865763
 30
0.0
 40
0.2449493258094428
100
AcDbArc
 50
359.7477620218
 51
63.9649593677
  0
LINE
  5
22A
330
5E
100
AcDbEntity
  8
DV1_Standard
  6
Continuous
 62
     7
100
AcDbLine
 10
58.3835201931
 20
569.7700132728
 30
0.0
 11
58.3835201931
 21
551.0712387475
 31
0.0
  0
LINE
  5
22C
330
5E
100
AcDbEntity
  8
DV1_Standard
  6
CENTER2
 62
     7
100
AcDbLine
 10
62.6308781784
 20
387.1478300152
 30
0.0
 11
22.6308790725
 21
387.1478300152
 31
0.0
  0
LINE
  5
22D
330
5E
100
AcDbEntity
  8
DV1_Standard
  6
CENTER2
 62
     7
100
AcDbLine
 10
42.6308786255
 20
407.1478295682
 30
0.0
 11
42.6308786255
 21
367.1478304623
 31
0.0
  0
LINE
  5
22E
330
5E
100
AcDbEntity
  8
DV1_Standard
  6
CENTER2
 62
     7
100
AcDbLine
 10
67.6308780667
 20
387.1478300152
 30
0.0
 11
47.7177883238
 21
387.1478300152
 31
0.0
  0
LINE
  5
22F
330
5E
100
AcDbEntity
  8
DV1_Standard
  6
CENTER2
 62
     7
100
AcDbLine
 10
42.6308786255
 20
412.1478294565
 30
0.0
 11
42.6308786255
 21
392.2347397136
 31
0.0
  0
LINE
  5
230
330
5E
100
AcDbEntity
  8
DV1_Standard
  6
CENTER2
 62
     7
100
AcDbLine
 10
17.6308791843
 20
387.1478300152
 30
0.0
 11
37.5439689272
 21
387.1478300152
 31
0.0
  0
LINE
  5
231
330
5E
100
AcDbEntity
  8
DV1_Standard
  6
CENTER2
 62
     7
100
AcDbLine
 10
42.6308786255
 20
362.147830574
 30
0.0
 11
42.6308786255
 21
382.0609203169
 31
0.0
  0
LINE
  5
232
330
5E
100
AcDbEntity
  8
DV1_Standard
  6
CENTER2
 62
     7
100
AcDbLine
 10
62.6308781784
 20
467.1478300152
 30
0.0
 11
22.6308790725
 21
467.1478300152
 31
0.0
  0
LINE
  5
233
330
5E
100
AcDbEntity
  8
DV1_Standard
  6
CENTER2
 62
     7
100
AcDbLine
 10
42.6308786255
 20
487.1478295682
 30
0.0
 11
42.6308786255
 21
447.1478304623
 31
0.0
  0
LINE
  5
234
330
5E
100
AcDbEntity
  8
DV1_Standard
  6
CENTER2
 62
     7
100
AcDbLine
 10
67.6308780667
 20
467.1478300152
 30
0.0
 11
47.7308786255
 21
467.1478300152
 31
0.0
  0
LINE
  5
235
330
5E
100
AcDbEntity
  8
DV1_Standard
  6
CENTER2
 62
     7
100
AcDbLine
 10
42.6308786255
 20
492.1478294565
 30
0.0
 11
42.6308786255
 21
472.2478300152
 31
0.0
  0
LINE
  5
236
330
5E
100
AcDbEntity
  8
DV1_Standard
  6
CENTER2
 62
     7
100
AcDbLine
 10
17.6308791843
 20
467.1478300152
 30
0.0
 11
37.5308786255
 21
467.1478300152
 31
0.0
  0
LINE
  5
237
330
5E
100
AcDbEntity
  8
DV1_Standard
  6
CENTER2
 62
     7
100
AcDbLine
 10
42.6308786255
 20
442.147830574
 30
0.0
 11
42.6308786255
 21
462.0478300152
 31
0.0
  0
ENDBLK
  5
239
330
5E
100
AcDbEntity
  8
0
100
AcDbBlockEnd
  0
BLOCK
  5
2EE
330
23A
100
AcDbEntity
  8
0
100
AcDbBlockBegin
  2
SE1
 70
     0
 10
0.0
 20
0.0
 30
0.0
  3
SE1
  1

  0
LINE
  5
23C
330
23A
100
AcDbEntity
  8
$DDT_AUDIT_GENERATED_(60)
  6
Continuous
 62
     7
100
AcDbLine
 10
65.8869078442
 20
139.0401081352
 30
0.0
 11
58.8880349001
 21
139.0401081352
 31
0.0
  0
LINE
  5
23D
330
23A
100
AcDbEntity
  8
$DDT_AUDIT_GENERATED_(60)
  6
Continuous
 62
     7
100
AcDbLine
 10
58.6880349001
 20
139.0435986165
 30
0.0
 11
58.6880349001
 21
139.0576399879
 31
0.0
  0
LINE
  5
23E
330
23A
100
AcDbEntity
  8
$DDT_AUDIT_GENERATED_(60)
  6
Continuous
 62
     7
100
AcDbLine
 10
66.0869078442
 20
139.0435986165
 30
0.0
 11
66.0869078442
 21
139.0576399879
 31
0.0
  0
ELLIPSE
  5
23F
330
23A
100
AcDbEntity
  8
$DDT_AUDIT_GENERATED_(60)
  6
Continuous
 62
     7
100
AcDbEllipse
 10
58.8880349001
 20
139.0435986165
 30
0.0
 11
-0.1999999999999988
 21
-8.575738999112980E-16
 31
0.0
210
0.0
220
0.0
230
1.0
 40
0.0174524064
 41
0.0
 42
1.570796326794897
  0
ELLIPSE
  5
240
330
23A
100
AcDbEntity
  8
$DDT_AUDIT_GENERATED_(60)
  6
Continuous
 62
     7
100
AcDbEllipse
 10
65.8869078442
 20
139.0435986165
 30
0.0
 11
-0.2000000000000057
 21
9.787838077105893E-18
 31
0.0
210
0.0
220
0.0
230
1.0
 40
0.0174524064
 41
1.570796326794897
 42
3.141592653589793
  0
LINE
  5
241
330
23A
100
AcDbEntity
  8
$DDT_AUDIT_GENERATED_(60)
  6
Continuous
 62
     7
100
AcDbLine
 10
66.0869078442
 20
139.0435986165
 30
0.0
 11
66.0869078442
 21
134.1495401335
 31
0.0
  0
LINE
  5
242
330
23A
100
AcDbEntity
  8
$DDT_AUDIT_GENERATED_(60)
  6
Continuous
 62
     7
100
AcDbLine
 10
58.6880349001
 20
134.1495401335
 30
0.0
 11
58.6880349001
 21
139.0435986165
 31
0.0
  0
LINE
  5
243
330
23A
100
AcDbEntity
  8
$DDT_AUDIT_GENERATED_(60)
  6
Continuous
 62
     7
100
AcDbLine
 10
59.5971300817
 20
139.058433162
 30
0.0
 11
59.5971300817
 21
139.0741403278
 31
0.0
  0
LINE
  5
244
330
23A
100
AcDbEntity
  8
$DDT_AUDIT_GENERATED_(60)
  6
Continuous
 62
     7
100
AcDbLine
 10
66.0869078442
 20
139.0576399879
 30
0.0
 11
65.1778126625
 21
139.058433162
 31
0.0
  0
LINE
  5
245
330
23A
100
AcDbEntity
  8
$DDT_AUDIT_GENERATED_(60)
  6
Continuous
 62
     7
100
AcDbLine
 10
59.5971300817
 20
139.058433162
 30
0.0
 11
58.6880349001
 21
139.0576399879
 31
0.0
  0
LINE
  5
246
330
23A
100
AcDbEntity
  8
$DDT_AUDIT_GENERATED_(60)
  6
Continuous
 62
     7
100
AcDbLine
 10
57.8869078442
 20
139.0401081352
 30
0.0
 11
50.8880349001
 21
139.0401081352
 31
0.0
  0
LINE
  5
247
330
23A
100
AcDbEntity
  8
$DDT_AUDIT_GENERATED_(60)
  6
Continuous
 62
     7
100
AcDbLine
 10
50.6880349001
 20
139.0435986165
 30
0.0
 11
50.6880349001
 21
139.0576399879
 31
0.0
  0
LINE
  5
248
330
23A
100
AcDbEntity
  8
$DDT_AUDIT_GENERATED_(60)
  6
Continuous
 62
     7
100
AcDbLine
 10
58.0869078442
 20
139.0435986165
 30
0.0
 11
58.0869078442
 21
139.0576399879
 31
0.0
  0
ELLIPSE
  5
249
330
23A
100
AcDbEntity
  8
$DDT_AUDIT_GENERATED_(60)
  6
Continuous
 62
     7
100
AcDbEllipse
 10
50.8880349001
 20
139.0435986165
 30
0.0
 11
-0.1999999999999988
 21
-9.863237917144489E-17
 31
0.0
210
0.0
220
0.0
230
1.0
 40
0.0174524064
 41
0.0
 42
1.570796326794897
  0
ELLIPSE
  5
24A
330
23A
100
AcDbEntity
  8
$DDT_AUDIT_GENERATED_(60)
  6
Continuous
 62
     7
100
AcDbEllipse
 10
57.8869078442
 20
139.0435986165
 30
0.0
 11
-0.2000000000000023
 21
9.787838077105722E-18
 31
0.0
210
0.0
220
0.0
230
1.0
 40
0.0174524064
 41
1.570796326794897
 42
3.141592653589793
  0
LINE
  5
24B
330
23A
100
AcDbEntity
  8
$DDT_AUDIT_GENERATED_(60)
  6
Continuous
 62
     7
100
AcDbLine
 10
58.0869078442
 20
139.0435986165
 30
0.0
 11
58.0869078442
 21
134.1495401335
 31
0.0
  0
LINE
  5
24C
330
23A
100
AcDbEntity
  8
$DDT_AUDIT_GENERATED_(60)
  6
Continuous
 62
     7
100
AcDbLine
 10
50.6880349001
 20
134.1495401335
 30
0.0
 11
50.6880349001
 21
139.0435986165
 31
0.0
  0
LINE
  5
24D
330
23A
100
AcDbEntity
  8
$DDT_AUDIT_GENERATED_(60)
  6
Continuous
 62
     7
100
AcDbLine
 10
57.1778126625
 20
139.058433162
 30
0.0
 11
57.1778126625
 21
139.0741403278
 31
0.0
  0
LINE
  5
24E
330
23A
100
AcDbEntity
  8
$DDT_AUDIT_GENERATED_(60)
  6
Continuous
 62
     7
100
AcDbLine
 10
58.0869078442
 20
139.0576399879
 30
0.0
 11
57.1778126625
 21
139.058433162
 31
0.0
  0
LINE
  5
24F
330
23A
100
AcDbEntity
  8
$DDT_AUDIT_GENERATED_(60)
  6
Continuous
 62
     7
100
AcDbLine
 10
51.5971300817
 20
139.058433162
 30
0.0
 11
50.6880349001
 21
139.0576399879
 31
0.0
  0
LINE
  5
251
330
23A
100
AcDbEntity
  8
$DDT_AUDIT_GENERATED_(250)
  6
Continuous
 62
     7
100
AcDbLine
 10
54.9191020239
 20
114.1415187161
 30
0.0
 11
54.7311020239
 21
114.1415187161
 31
0.0
  0
LINE
  5
252
330
23A
100
AcDbEntity
  8
$DDT_AUDIT_GENERATED_(250)
  6
Continuous
 62
     7
100
AcDbLine
 10
54.9191020239
 20
114.1415187161
 30
0.0
 11
55.1071020239
 21
114.1415187161
 31
0.0
  0
ARC
  5
253
330
23A
100
AcDbEntity
  8
$DDT_AUDIT_GENERATED_(250)
  6
Continuous
 62
     7
100
AcDbCircle
 10
54.7311020239
 20
115.7315187161
 30
0.0
 40
1.589999999999999
100
AcDbArc
 50
203.1551315872
 51
270.0
  0
ARC
  5
254
330
23A
100
AcDbEntity
  8
$DDT_AUDIT_GENERATED_(250)
  6
Continuous
 62
     7
100
AcDbCircle
 10
55.1071020239
 20
115.7315187161
 30
0.0
 40
1.590000000000001
100
AcDbArc
 50
270.0
 51
336.8448684128
  0
LINE
  5
255
330
23A
100
AcDbEntity
  8
$DDT_AUDIT_GENERATED_(250)
  6
Continuous
 62
     7
100
AcDbLine
 10
29.9191010239
 20
114.1415187161
 30
0.0
 11
29.7311010239
 21
114.1415187161
 31
0.0
  0
LINE
  5
256
330
23A
100
AcDbEntity
  8
$DDT_AUDIT_GENERATED_(250)
  6
Continuous
 62
     7
100
AcDbLine
 10
29.9191010239
 20
114.1415187161
 30
0.0
 11
30.1071010239
 21
114.1415187161
 31
0.0
  0
ARC
  5
257
330
23A
100
AcDbEntity
  8
$DDT_AUDIT_GENERATED_(250)
  6
Continuous
 62
     7
100
AcDbCircle
 10
29.7311010239
 20
115.7315187161
 30
0.0
 40
1.589999999999999
100
AcDbArc
 50
203.1551315872
 51
270.0
  0
ARC
  5
258
330
23A
100
AcDbEntity
  8
$DDT_AUDIT_GENERATED_(250)
  6
Continuous
 62
     7
100
AcDbCircle
 10
30.1071010239
 20
115.7315187161
 30
0.0
 40
1.590000000000001
100
AcDbArc
 50
270.0
 51
336.8448684128
  0
ARC
  5
259
330
23A
100
AcDbEntity
  8
$DDT_AUDIT_GENERATED_(D3)
  6
Continuous
 62
     7
100
AcDbCircle
 10
59.7308786255
 20
122.9313990991
 30
0.0
 40
5.740209221900503
100
AcDbArc
 50
284.3437730624
 51
302.6959409934
  0
ARC
  5
25A
330
23A
100
AcDbEntity
  8
$DDT_AUDIT_GENERATED_(D3)
  6
Continuous
 62
     7
100
AcDbCircle
 10
59.7308786255
 20
138.9781204419
 30
0.0
 40
5.740209221964549
100
AcDbArc
 50
1.2807239619
 51
178.7190815424
  0
LINE
  5
25B
330
23A
100
AcDbEntity
  8
$DDT_AUDIT_GENERATED_(D3)
  6
Continuous
 62
     7
100
AcDbLine
 10
60.0844320161
 20
148.9151925572
 30
0.0
 11
66.5844320161
 21
142.4161825387
 31
0.0
  0
ELLIPSE
  5
25C
330
23A
100
AcDbEntity
  8
$DDT_AUDIT_GENERATED_(D3)
  6
Continuous
 62
     7
100
AcDbEllipse
 10
59.7308786255
 20
122.7648244844
 30
0.0
 11
-5.740209169346486
 21
4.184433945245450E-12
 31
0.0
210
0.0
220
0.0
230
1.0
 40
0.9998476952
 41
1.820463896561578
 42
2.194562471426268
  0
LINE
  5
25D
330
23A
100
AcDbEntity
  8
$DDT_AUDIT_GENERATED_(D3)
  6
Continuous
 62
     7
100
AcDbLine
 10
52.7308786255
 20
139.1062957161
 30
0.0
 11
52.7308786255
 21
142.062682996
 31
0.0
  0
LINE
  5
25E
330
23A
100
AcDbEntity
  8
$DDT_AUDIT_GENERATED_(D3)
  6
Continuous
 62
     7
100
AcDbLine
 10
56.8024760432
 20
115.1062957161
 30
0.0
 11
59.3773252349
 21
112.5318386864
 31
0.0
  0
LINE
  5
25F
330
23A
100
AcDbEntity
  8
$DDT_AUDIT_GENERATED_(D3)
  6
Continuous
 62
     7
100
AcDbLine
 10
60.0844320161
 20
112.5318386864
 30
0.0
 11
65.6597381919
 21
118.1062957161
 31
0.0
  0
LINE
  5
260
330
23A
100
AcDbEntity
  8
$DDT_AUDIT_GENERATED_(D3)
  6
Continuous
 62
     7
100
AcDbLine
 10
52.8773252349
 20
142.4161825387
 30
0.0
 11
59.3773252349
 21
148.9151925572
 31
0.0
  0
LINE
  5
261
330
23A
100
AcDbEntity
  8
$DDT_AUDIT_GENERATED_(D3)
  6
Continuous
 62
     7
100
AcDbLine
 10
66.7308786255
 20
142.062682996
 30
0.0
 11
66.7308786255
 21
139.1062957161
 31
0.0
  0
ELLIPSE
  5
262
330
23A
100
AcDbEntity
  8
$DDT_AUDIT_GENERATED_(D3)
  6
Continuous
 62
     7
100
AcDbEllipse
 10
53.2308786255
 20
142.062682996
 30
0.0
 11
-0.4999999999995702
 21
-1.403215372758120E-11
 31
0.0
210
0.0
220
0.0
230
1.0
 40
0.9998476952
 41
5.497787143754925
 42
6.283185307151575
  0
ELLIPSE
  5
263
330
23A
100
AcDbEntity
  8
$DDT_AUDIT_GENERATED_(D3)
  6
Continuous
 62
     7
100
AcDbEllipse
 10
66.2308786255
 20
142.062682996
 30
0.0
 11
-0.4999999999997194
 21
-2.182279685819304E-11
 31
0.0
210
0.0
220
0.0
230
1.0
 40
0.9998476952
 41
3.141592653589793
 42
3.926990816943074
  0
ARC
  5
264
330
23A
100
AcDbEntity
  8
$DDT_AUDIT_GENERATED_(D3)
  6
Continuous
 62
     7
100
AcDbCircle
 10
59.7308786255
 20
112.8853382291
 30
0.0
 40
0.4999999999999948
100
AcDbArc
 50
225.0043635447
 51
314.9956364553
  0
ARC
  5
265
330
23A
100
AcDbEntity
  8
$DDT_AUDIT_GENERATED_(D3)
  6
Continuous
 62
     7
100
AcDbCircle
 10
59.7308786255
 20
148.5616930145
 30
0.0
 40
0.4999999999999973
100
AcDbArc
 50
45.0043635447
 51
90.0
  0
ARC
  5
266
330
23A
100
AcDbEntity
  8
$DDT_AUDIT_GENERATED_(D3)
  6
Continuous
 62
     7
100
AcDbCircle
 10
59.7308786255
 20
148.5616930145
 30
0.0
 40
0.4999999999999935
100
AcDbArc
 50
90.0
 51
134.9956364553
  0
ELLIPSE
  5
267
330
23A
100
AcDbEntity
  8
$DDT_AUDIT_GENERATED_(136)
  6
Continuous
 62
     7
100
AcDbEllipse
 10
28.5291326644
 20
129.5090499158
 30
0.0
 11
-5.09999999999978
 21
8.494197426662463E-10
 31
0.0
210
0.0
220
0.0
230
1.0
 40
0.9998476952
 41
0.0
 42
6.283185307179586
  0
ELLIPSE
  5
268
330
23A
100
AcDbEntity
  8
$DDT_AUDIT_GENERATED_(136)
  6
Continuous
 62
     7
100
AcDbEllipse
 10
28.5291326644
 20
129.444476012
 30
0.0
 11
4.450000000001783
 21
-6.751823276760763E-9
 31
0.0
210
0.0
220
0.0
230
1.0
 40
0.9998476952
 41
0.0
 42
6.283185307179586
  0
ELLIPSE
  5
269
330
23A
100
AcDbEntity
  8
$DDT_AUDIT_GENERATED_(136)
  6
Continuous
 62
     7
100
AcDbEllipse
 10
28.5291326644
 20
129.3223091669
 30
0.0
 11
4.29999999999936
 21
2.278173966645351E-9
 31
0.0
210
0.0
220
0.0
230
1.0
 40
0.9998476952
 41
-0.4969471565595887
 42
3.638539809089679
  0
LINE
  5
26A
330
23A
100
AcDbEntity
  8
$DDT_AUDIT_GENERATED_(136)
  6
Continuous
 62
     7
100
AcDbLine
 10
24.7492517139
 20
127.2726213919
 30
0.0
 11
32.3090136149
 21
127.2726213919
 31
0.0
  0
ELLIPSE
  5
26B
330
23A
100
AcDbEntity
  8
$DDT_AUDIT_GENERATED_(136)
  6
Continuous
 62
     7
100
AcDbEllipse
 10
28.5291326644
 20
129.3013662792
 30
0.0
 11
4.149999999998456
 21
-5.227462763140002E-9
 31
0.0
210
0.0
220
0.0
230
1.0
 40
0.9998476952
 41
-0.4755543138688367
 42
3.617146969978114
  0
LINE
  5
26C
330
23A
100
AcDbEntity
  8
$DDT_AUDIT_GENERATED_(136)
  6
Continuous
 62
     7
100
AcDbLine
 10
24.8396205015
 20
127.4016556584
 30
0.0
 11
32.2186448273
 21
127.4016556584
 31
0.0
  0
ELLIPSE
  5
26D
330
23A
100
AcDbEntity
  8
$DDT_AUDIT_GENERATED_(136)
  6
Continuous
 62
     7
100
AcDbEllipse
 10
31.0291326644
 20
128.9410616831
 30
0.0
 11
-0.7499999999999156
 21
-3.229395550304016E-10
 31
0.0
210
0.0
220
0.0
230
1.0
 40
0.9998476952
 41
0.0873865014737921
 42
3.054206151254633
  0
ELLIPSE
  5
26E
330
23A
100
AcDbEntity
  8
$DDT_AUDIT_GENERATED_(136)
  6
Continuous
 62
     7
100
AcDbEllipse
 10
26.0291326644
 20
128.9410616831
 30
0.0
 11
-0.7499999999999156
 21
-3.229395550304016E-10
 31
0.0
210
0.0
220
0.0
230
1.0
 40
0.9998476952
 41
0.0873865014719476
 42
3.054206151256098
  0
ELLIPSE
  5
26F
330
23A
100
AcDbEntity
  8
$DDT_AUDIT_GENERATED_(136)
  6
Continuous
 62
     7
100
AcDbEllipse
 10
28.5291326644
 20
131.440680921
 30
0.0
 11
0.7500000000000718
 21
-2.645896022394933E-10
 31
0.0
210
0.0
220
0.0
230
1.0
 40
0.9998476952
 41
3.228979155852204
 42
6.195798805622966
  0
ELLIPSE
  5
270
330
23A
100
AcDbEntity
  8
$DDT_AUDIT_GENERATED_(136)
  6
Continuous
 62
     7
100
AcDbEllipse
 10
28.5291326644
 20
131.3097878727
 30
0.0
 11
0.7500000000000718
 21
-2.645896022394933E-10
 31
0.0
210
0.0
220
0.0
230
1.0
 40
0.9998476952
 41
0.0
 42
6.283185307179586
  0
ELLIPSE
  5
271
330
23A
100
AcDbEntity
  8
$DDT_AUDIT_GENERATED_(136)
  6
Continuous
 62
     7
100
AcDbEllipse
 10
31.0291326644
 20
128.8014424316
 30
0.0
 11
1.250000000000737
 21
2.795305592439424E-9
 31
0.0
210
0.0
220
0.0
230
1.0
 40
0.9998476952
 41
0.0
 42
6.283185307179586
  0
ELLIPSE
  5
272
330
23A
100
AcDbEntity
  8
$DDT_AUDIT_GENERATED_(136)
  6
Continuous
 62
     7
100
AcDbEllipse
 10
26.0291326644
 20
128.8014424316
 30
0.0
 11
1.250000000000737
 21
2.795305592439424E-9
 31
0.0
210
0.0
220
0.0
230
1.0
 40
0.9998476952
 41
0.0
 42
6.283185307179586
  0
ELLIPSE
  5
273
330
23A
100
AcDbEntity
  8
$DDT_AUDIT_GENERATED_(136)
  6
Continuous
 62
     7
100
AcDbEllipse
 10
28.5291326644
 20
131.3010616695
 30
0.0
 11
1.250000000000737
 21
2.792052985921967E-9
 31
0.0
210
0.0
220
0.0
230
1.0
 40
0.9998476952
 41
0.0
 42
6.283185307179586
  0
ELLIPSE
  5
274
330
23A
100
AcDbEntity
  8
$DDT_AUDIT_GENERATED_(136)
  6
Continuous
 62
     7
100
AcDbEllipse
 10
26.0291326644
 20
128.8101686349
 30
0.0
 11
-0.7499999999999156
 21
-3.229395550304016E-10
 31
0.0
210
0.0
220
0.0
230
1.0
 40
0.9998476952
 41
0.0
 42
6.283185307179586
  0
ELLIPSE
  5
275
330
23A
100
AcDbEntity
  8
$DDT_AUDIT_GENERATED_(136)
  6
Continuous
 62
     7
100
AcDbEllipse
 10
31.0291326644
 20
128.8101686349
 30
0.0
 11
-0.7499999999999156
 21
-3.229395550304016E-10
 31
0.0
210
0.0
220
0.0
230
1.0
 40
0.9998476952
 41
0.0
 42
6.283185307179586
  0
LINE
  5
276
330
23A
100
AcDbEntity
  8
$DDT_AUDIT_GENERATED_(136)
  6
Continuous
 62
     7
100
AcDbLine
 10
23.4291326644
 20
129.5788595416
 30
0.0
 11
23.4291326644
 21
129.5090499158
 31
0.0
  0
LINE
  5
277
330
23A
100
AcDbEntity
  8
$DDT_AUDIT_GENERATED_(136)
  6
Continuous
 62
     7
100
AcDbLine
 10
33.6291326644
 20
129.5090499158
 30
0.0
 11
33.6291326644
 21
129.5788595416
 31
0.0
  0
LINE
  5
278
330
23A
100
AcDbEntity
  8
$DDT_AUDIT_GENERATED_(136)
  6
Continuous
 62
     7
100
AcDbLine
 10
24.0791326644
 20
129.5090499158
 30
0.0
 11
24.0791326644
 21
129.444476012
 31
0.0
  0
LINE
  5
279
330
23A
100
AcDbEntity
  8
$DDT_AUDIT_GENERATED_(136)
  6
Continuous
 62
     7
100
AcDbLine
 10
32.9791326644
 20
129.444476012
 30
0.0
 11
32.9791326644
 21
129.5090499158
 31
0.0
  0
LINE
  5
27A
330
23A
100
AcDbEntity
  8
$DDT_AUDIT_GENERATED_(136)
  6
Continuous
 62
     7
100
AcDbLine
 10
24.2291326644
 20
129.3694306643
 30
0.0
 11
24.2291326644
 21
129.3223091669
 31
0.0
  0
LINE
  5
27B
330
23A
100
AcDbEntity
  8
$DDT_AUDIT_GENERATED_(136)
  6
Continuous
 62
     7
100
AcDbLine
 10
32.8291326644
 20
129.3223091669
 30
0.0
 11
32.8291326644
 21
129.3694306643
 31
0.0
  0
LINE
  5
27C
330
23A
100
AcDbEntity
  8
$DDT_AUDIT_GENERATED_(136)
  6
Continuous
 62
     7
100
AcDbLine
 10
32.6791326644
 20
129.3013662792
 30
0.0
 11
32.6791326644
 21
129.3223091669
 31
0.0
  0
LINE
  5
27D
330
23A
100
AcDbEntity
  8
$DDT_AUDIT_GENERATED_(136)
  6
Continuous
 62
     7
100
AcDbLine
 10
24.3791326644
 20
129.3223091669
 30
0.0
 11
24.3791326644
 21
129.3013662792
 31
0.0
  0
LINE
  5
27E
330
23A
100
AcDbEntity
  8
$DDT_AUDIT_GENERATED_(136)
  6
Continuous
 62
     7
100
AcDbLine
 10
24.2291326644
 20
129.4095711991
 30
0.0
 11
24.2291326644
 21
129.4043354772
 31
0.0
  0
LINE
  5
27F
330
23A
100
AcDbEntity
  8
$DDT_AUDIT_GENERATED_(136)
  6
Continuous
 62
     7
100
AcDbLine
 10
32.8291326644
 20
129.4043354772
 30
0.0
 11
32.8291326644
 21
129.4095711991
 31
0.0
  0
LINE
  5
280
330
23A
100
AcDbEntity
  8
$DDT_AUDIT_GENERATED_(17E)
  6
Continuous
 62
     7
100
AcDbLine
 10
25.7295895789
 20
139.1333469461
 30
0.0
 11
31.3286757498
 21
139.1333469461
 31
0.0
  0
LINE
  5
281
330
23A
100
AcDbEntity
  8
$DDT_AUDIT_GENERATED_(17E)
  6
Continuous
 62
     7
100
AcDbLine
 10
25.5295895789
 20
139.0984421332
 30
0.0
 11
25.5295895789
 21
139.1055132009
 31
0.0
  0
LINE
  5
282
330
23A
100
AcDbEntity
  8
$DDT_AUDIT_GENERATED_(17E)
  6
Continuous
 62
     7
100
AcDbLine
 10
31.3286757498
 20
139.0949516519
 30
0.0
 11
25.7295895789
 21
139.0949516519
 31
0.0
  0
LINE
  5
283
330
23A
100
AcDbEntity
  8
$DDT_AUDIT_GENERATED_(17E)
  6
Continuous
 62
     7
100
AcDbLine
 10
31.5286757498
 20
139.0984421332
 30
0.0
 11
31.5286757498
 21
139.1055132009
 31
0.0
  0
LINE
  5
284
330
23A
100
AcDbEntity
  8
$DDT_AUDIT_GENERATED_(17E)
  6
Continuous
 62
     7
100
AcDbLine
 10
31.5286757498
 20
139.1298564648
 30
0.0
 11
31.5286757498
 21
139.1227853971
 31
0.0
  0
LINE
  5
285
330
23A
100
AcDbEntity
  8
$DDT_AUDIT_GENERATED_(17E)
  6
Continuous
 62
     7
100
AcDbLine
 10
25.5295895789
 20
139.1298564648
 30
0.0
 11
25.5295895789
 21
139.1227853971
 31
0.0
  0
ELLIPSE
  5
286
330
23A
100
AcDbEntity
  8
$DDT_AUDIT_GENERATED_(17E)
  6
Continuous
 62
     7
100
AcDbEllipse
 10
25.7295895789
 20
139.0984421332
 30
0.0
 11
-0.2000000000000005
 21
9.787838077105637E-18
 31
0.0
210
0.0
220
0.0
230
1.0
 40
0.0174524064
 41
0.0
 42
1.570796326794897
  0
ELLIPSE
  5
287
330
23A
100
AcDbEntity
  8
$DDT_AUDIT_GENERATED_(17E)
  6
Continuous
 62
     7
100
AcDbEllipse
 10
31.3286757498
 20
139.0984421332
 30
0.0
 11
-0.2000000000000005
 21
9.787838077105637E-18
 31
0.0
210
0.0
220
0.0
230
1.0
 40
0.0174524064
 41
1.570796326794897
 42
3.141592653589793
  0
ELLIPSE
  5
288
330
23A
100
AcDbEntity
  8
$DDT_AUDIT_GENERATED_(17E)
  6
Continuous
 62
     7
100
AcDbEllipse
 10
31.3286757498
 20
139.1298564648
 30
0.0
 11
0.1999999999999997
 21
8.575738999112979E-16
 31
0.0
210
0.0
220
0.0
230
1.0
 40
0.0174524064
 41
0.0
 42
1.570796326794897
  0
ELLIPSE
  5
289
330
23A
100
AcDbEntity
  8
$DDT_AUDIT_GENERATED_(17E)
  6
Continuous
 62
     7
100
AcDbEllipse
 10
25.7295895789
 20
139.1298564648
 30
0.0
 11
0.2000000000000005
 21
-9.787838077105637E-18
 31
0.0
210
0.0
220
0.0
230
1.0
 40
0.0174524064
 41
1.570796326794897
 42
3.141592653589793
  0
LINE
  5
28A
330
23A
100
AcDbEntity
  8
$DDT_AUDIT_GENERATED_(17E)
  6
Continuous
 62
     7
100
AcDbLine
 10
31.5286757498
 20
139.0984421332
 30
0.0
 11
31.5286757498
 21
133.7028817805
 31
0.0
  0
LINE
  5
28B
330
23A
100
AcDbEntity
  8
$DDT_AUDIT_GENERATED_(17E)
  6
Continuous
 62
     7
100
AcDbLine
 10
25.5295895789
 20
133.7028817805
 30
0.0
 11
25.5295895789
 21
139.0984421332
 31
0.0
  0
LINE
  5
28C
330
23A
100
AcDbEntity
  8
$DDT_AUDIT_GENERATED_(17E)
  6
Continuous
 62
     7
100
AcDbLine
 10
31.5286757498
 20
139.1055132009
 30
0.0
 11
30.6317972527
 21
139.1062957161
 31
0.0
  0
LINE
  5
28D
330
23A
100
AcDbEntity
  8
$DDT_AUDIT_GENERATED_(17E)
  6
Continuous
 62
     7
100
AcDbLine
 10
26.4264680761
 20
139.1062957161
 30
0.0
 11
25.5295895789
 21
139.1055132009
 31
0.0
  0
LINE
  5
28E
330
23A
100
AcDbEntity
  8
$DDT_AUDIT_GENERATED_(17E)
  6
Continuous
 62
     7
100
AcDbLine
 10
26.4264680761
 20
139.1220028819
 30
0.0
 11
26.4264680761
 21
139.1062957161
 31
0.0
  0
LINE
  5
28F
330
23A
100
AcDbEntity
  8
$DDT_AUDIT_GENERATED_(17E)
  6
Continuous
 62
     7
100
AcDbLine
 10
30.6317972527
 20
139.1220028819
 30
0.0
 11
30.6317972527
 21
139.1062957161
 31
0.0
  0
LINE
  5
290
330
23A
100
AcDbEntity
  8
$DDT_AUDIT_GENERATED_(17E)
  6
Continuous
 62
     7
100
AcDbLine
 10
25.5295895789
 20
139.1062957161
 30
0.0
 11
25.5295895789
 21
139.1227853971
 31
0.0
  0
LINE
  5
291
330
23A
100
AcDbEntity
  8
$DDT_AUDIT_GENERATED_(17E)
  6
Continuous
 62
     7
100
AcDbLine
 10
25.5295895789
 20
139.1227853971
 30
0.0
 11
26.4264680761
 21
139.1220028819
 31
0.0
  0
LINE
  5
292
330
23A
100
AcDbEntity
  8
$DDT_AUDIT_GENERATED_(17E)
  6
Continuous
 62
     7
100
AcDbLine
 10
30.6317972527
 20
139.1220028819
 30
0.0
 11
31.5286757498
 21
139.1227853971
 31
0.0
  0
LINE
  5
293
330
23A
100
AcDbEntity
  8
$DDT_AUDIT_GENERATED_(17E)
  6
Continuous
 62
     7
100
AcDbLine
 10
31.5286757498
 20
139.1227853971
 30
0.0
 11
31.5286757498
 21
139.1062957161
 31
0.0
  0
LINE
  5
294
330
23A
100
AcDbEntity
  8
$DDT_AUDIT_GENERATED_(1A4)
  6
Continuous
 62
     7
100
AcDbLine
 10
26.4264680761
 20
139.1062957161
 30
0.0
 11
17.6307263206
 21
139.1062957161
 31
0.0
  0
LINE
  5
295
330
23A
100
AcDbEntity
  8
$DDT_AUDIT_GENERATED_(1A4)
  6
Continuous
 62
     7
100
AcDbLine
 10
30.8352860754
 20
139.1061181746
 30
0.0
 11
30.8352891749
 21
139.1062957161
 31
0.0
  0
LINE
  5
296
330
23A
100
AcDbEntity
  8
$DDT_AUDIT_GENERATED_(1A4)
  6
Continuous
 62
     7
100
AcDbLine
 10
67.6310309303
 20
139.1062957161
 30
0.0
 11
65.2286566119
 21
139.1062957161
 31
0.0
  0
LINE
  5
297
330
23A
100
AcDbEntity
  8
$DDT_AUDIT_GENERATED_(1A4)
  6
Continuous
 62
     7
100
AcDbLine
 10
67.6310309303
 20
139.1062957161
 30
0.0
 11
68.6308786255
 21
139.1062957161
 31
0.0
  0
LINE
  5
298
330
23A
100
AcDbEntity
  8
$DDT_AUDIT_GENERATED_(1A4)
  6
Continuous
 62
     7
100
AcDbLine
 10
16.6308786255
 20
139.1062957161
 30
0.0
 11
17.6307263206
 21
139.1062957161
 31
0.0
  0
LINE
  5
299
330
23A
100
AcDbEntity
  8
$DDT_AUDIT_GENERATED_(1A4)
  6
Continuous
 62
     7
100
AcDbLine
 10
16.9802845569
 20
119.0888433096
 30
0.0
 11
16.6308786255
 21
139.1062957161
 31
0.0
  0
LINE
  5
29A
330
23A
100
AcDbEntity
  8
$DDT_AUDIT_GENERATED_(1A4)
  6
Continuous
 62
     7
100
AcDbLine
 10
68.6308786255
 20
139.1062957161
 30
0.0
 11
68.281472694
 21
119.0888433096
 31
0.0
  0
LINE
  5
29B
330
23A
100
AcDbEntity
  8
$DDT_AUDIT_GENERATED_(1A4)
  6
Continuous
 62
     7
100
AcDbLine
 10
67.2816249989
 20
118.1062957161
 30
0.0
 11
17.9801322521
 21
118.1062957161
 31
0.0
  0
ARC
  5
29C
330
23A
100
AcDbEntity
  8
$DDT_AUDIT_GENERATED_(1A4)
  6
Continuous
 62
     7
100
AcDbCircle
 10
67.2816249989
 20
119.1062957161
 30
0.0
 40
1.000000000000005
100
AcDbArc
 50
270.0
 51
359.0
  0
ARC
  5
29D
330
23A
100
AcDbEntity
  8
$DDT_AUDIT_GENERATED_(1A4)
  6
Continuous
 62
     7
100
AcDbCircle
 10
17.9801322521
 20
119.1062957161
 30
0.0
 40
1.000000000000001
100
AcDbArc
 50
181.0
 51
270.0
  0
LINE
  5
29E
330
23A
100
AcDbEntity
  8
$DDT_AUDIT_GENERATED_(1A4)
  6
Continuous
 62
     7
100
AcDbLine
 10
36.1527338726
 20
117.6106589838
 30
0.0
 11
36.1352039817
 21
115.6019324483
 31
0.0
  0
LINE
  5
29F
330
23A
100
AcDbEntity
  8
$DDT_AUDIT_GENERATED_(1A4)
  6
Continuous
 62
     7
100
AcDbLine
 10
24.1265532692
 20
115.6019324483
 30
0.0
 11
24.1090233783
 21
117.6106589838
 31
0.0
  0
LINE
  5
2A0
330
23A
100
AcDbEntity
  8
$DDT_AUDIT_GENERATED_(1A4)
  6
Continuous
 62
     7
100
AcDbLine
 10
35.6352230202
 20
115.1062957161
 30
0.0
 11
24.6265342308
 21
115.1062957161
 31
0.0
  0
ARC
  5
2A1
330
23A
100
AcDbEntity
  8
$DDT_AUDIT_GENERATED_(1A4)
  6
Continuous
 62
     7
100
AcDbCircle
 10
24.6265342308
 20
115.6062957161
 30
0.0
 40
0.5000000000000051
100
AcDbArc
 50
180.5
 51
270.0
  0
ARC
  5
2A2
330
23A
100
AcDbEntity
  8
$DDT_AUDIT_GENERATED_(1A4)
  6
Continuous
 62
     7
100
AcDbCircle
 10
35.6352230202
 20
115.6062957161
 30
0.0
 40
0.5000000000000004
100
AcDbArc
 50
270.0
 51
359.5
  0
ARC
  5
2A3
330
23A
100
AcDbEntity
  8
$DDT_AUDIT_GENERATED_(1A4)
  6
Continuous
 62
     7
100
AcDbCircle
 10
23.6090424168
 20
117.6062957161
 30
0.0
 40
0.499999999999997
100
AcDbArc
 50
0.5
 51
90.0
  0
ARC
  5
2A4
330
23A
100
AcDbEntity
  8
$DDT_AUDIT_GENERATED_(1A4)
  6
Continuous
 62
     7
100
AcDbCircle
 10
36.6527148342
 20
117.6062957161
 30
0.0
 40
0.499999999999997
100
AcDbArc
 50
90.0
 51
179.5
  0
LINE
  5
2A5
330
23A
100
AcDbEntity
  8
$DDT_AUDIT_GENERATED_(1A4)
  6
Continuous
 62
     7
100
AcDbLine
 10
61.1527338726
 20
117.6106589838
 30
0.0
 11
61.1352039817
 21
115.6019324483
 31
0.0
  0
LINE
  5
2A6
330
23A
100
AcDbEntity
  8
$DDT_AUDIT_GENERATED_(1A4)
  6
Continuous
 62
     7
100
AcDbLine
 10
49.1265532692
 20
115.6019324483
 30
0.0
 11
49.1090233783
 21
117.6106589838
 31
0.0
  0
LINE
  5
2A7
330
23A
100
AcDbEntity
  8
$DDT_AUDIT_GENERATED_(1A4)
  6
Continuous
 62
     7
100
AcDbLine
 10
60.6352230202
 20
115.1062957161
 30
0.0
 11
49.6265342308
 21
115.1062957161
 31
0.0
  0
ARC
  5
2A8
330
23A
100
AcDbEntity
  8
$DDT_AUDIT_GENERATED_(1A4)
  6
Continuous
 62
     7
100
AcDbCircle
 10
49.6265342308
 20
115.6062957161
 30
0.0
 40
0.5000000000000084
100
AcDbArc
 50
180.5
 51
270.0
  0
ARC
  5
2A9
330
23A
100
AcDbEntity
  8
$DDT_AUDIT_GENERATED_(1A4)
  6
Continuous
 62
     7
100
AcDbCircle
 10
60.6352230202
 20
115.6062957161
 30
0.0
 40
0.5000000000000004
100
AcDbArc
 50
270.0
 51
359.5
  0
ARC
  5
2AA
330
23A
100
AcDbEntity
  8
$DDT_AUDIT_GENERATED_(1A4)
  6
Continuous
 62
     7
100
AcDbCircle
 10
48.6090424168
 20
117.6062957161
 30
0.0
 40
0.499999999999997
100
AcDbArc
 50
0.5
 51
90.0
  0
ARC
  5
2AB
330
23A
100
AcDbEntity
  8
$DDT_AUDIT_GENERATED_(1A4)
  6
Continuous
 62
     7
100
AcDbCircle
 10
61.6527148342
 20
117.6062957161
 30
0.0
 40
0.499999999999997
100
AcDbArc
 50
90.0
 51
179.5
  0
LINE
  5
2AC
330
23A
100
AcDbEntity
  8
$DDT_AUDIT_GENERATED_(1A4)
  6
Continuous
 62
     7
100
AcDbLine
 10
36.117845437
 20
139.1062957161
 30
0.0
 11
30.8352891749
 21
139.1062957161
 31
0.0
  0
LINE
  5
2AD
330
23A
100
AcDbEntity
  8
$DDT_AUDIT_GENERATED_(1A4)
  6
Continuous
 62
     7
100
AcDbLine
 10
49.0066506579
 20
123.3777251283
 30
0.0
 11
46.7551065931
 21
123.3777251283
 31
0.0
  0
LINE
  5
2AE
330
23A
100
AcDbEntity
  8
$DDT_AUDIT_GENERATED_(1A4)
  6
Continuous
 62
     7
100
AcDbLine
 10
38.5066506579
 20
123.3777251283
 30
0.0
 11
36.2551065931
 21
123.3777251283
 31
0.0
  0
LINE
  5
2AF
330
23A
100
AcDbEntity
  8
$DDT_AUDIT_GENERATED_(1A4)
  6
Continuous
 62
     7
100
AcDbLine
 10
48.6439689272
 20
139.1062957161
 30
0.0
 11
49.1439118139
 21
139.1062957161
 31
0.0
  0
LINE
  5
2B0
330
23A
100
AcDbEntity
  8
$DDT_AUDIT_GENERATED_(1A4)
  6
Continuous
 62
     7
100
AcDbLine
 10
36.117845437
 20
139.1062957161
 30
0.0
 11
36.6177883238
 21
139.1062957161
 31
0.0
  0
ELLIPSE
  5
2B1
330
23A
100
AcDbEntity
  8
$DDT_AUDIT_GENERATED_(1A4)
  6
Continuous
 62
     7
100
AcDbEllipse
 10
36.2426577083
 20
124.7954998234
 30
0.0
 11
0.01463688108436834
 21
-1.008709550561888
 31
0.0
210
0.0
220
0.0
230
0.9999999999999999
 40
0.4956051995
 41
0.7651559833318196
 42
1.559128493944323
  0
ELLIPSE
  5
2B2
330
23A
100
AcDbEntity
  8
$DDT_AUDIT_GENERATED_(1A4)
  6
Continuous
 62
     7
100
AcDbEllipse
 10
36.2551065931
 20
123.3689989251
 30
0.0
 11
0.4913193552606686
 21
0.9955225343385929
 31
0.0
210
0.0
220
0.0
230
1.0
 40
0.003478782
 41
0.7870761386149527
 42
1.563747655754355
  0
LINE
  5
2B3
330
23A
100
AcDbEntity
  8
$DDT_AUDIT_GENERATED_(1A4)
  6
Continuous
 62
     7
100
AcDbLine
 10
36.7427161543
 20
124.7909842566
 30
0.0
 11
36.6290869635
 21
137.8115998492
 31
0.0
  0
LINE
  5
2B4
330
23A
100
AcDbEntity
  8
$DDT_AUDIT_GENERATED_(1A4)
  6
Continuous
 62
     7
100
AcDbLine
 10
36.6290869635
 20
137.8115998492
 30
0.0
 11
36.6177883238
 21
139.1062957161
 31
0.0
  0
LINE
  5
2B5
330
23A
100
AcDbEntity
  8
$DDT_AUDIT_GENERATED_(1A4)
  6
Continuous
 62
     7
100
AcDbLine
 10
37.117807363
 20
139.1062957161
 30
0.0
 11
48.143949888
 21
139.1062957161
 31
0.0
  0
LINE
  5
2B6
330
23A
100
AcDbEntity
  8
$DDT_AUDIT_GENERATED_(1A4)
  6
Continuous
 62
     7
100
AcDbLine
 10
48.143949888
 20
139.1062957161
 30
0.0
 11
48.6439689272
 21
139.1062957161
 31
0.0
  0
LINE
  5
2B7
330
23A
100
AcDbEntity
  8
$DDT_AUDIT_GENERATED_(1A4)
  6
Continuous
 62
     7
100
AcDbLine
 10
36.6177883238
 20
139.1062957161
 30
0.0
 11
37.117807363
 21
139.1062957161
 31
0.0
  0
ELLIPSE
  5
2B8
330
23A
100
AcDbEntity
  8
$DDT_AUDIT_GENERATED_(1A4)
  6
Continuous
 62
     7
100
AcDbEllipse
 10
49.0190995426
 20
124.7954998234
 30
0.0
 11
-0.01463688108438795
 21
-1.008709550561931
 31
0.0
210
0.0
220
0.0
230
1.0
 40
0.4956051995
 41
4.724056813235301
 42
5.518029323847854
  0
ELLIPSE
  5
2B9
330
23A
100
AcDbEntity
  8
$DDT_AUDIT_GENERATED_(1A4)
  6
Continuous
 62
     7
100
AcDbEllipse
 10
49.0066506579
 20
123.3689989251
 30
0.0
 11
-0.4913193552606877
 21
0.9955225343386171
 31
0.0
210
0.0
220
0.0
230
1.0
 40
0.003478782
 41
-1.563747655754278
 42
-0.7870761386112335
  0
LINE
  5
2BA
330
23A
100
AcDbEntity
  8
$DDT_AUDIT_GENERATED_(1A4)
  6
Continuous
 62
     7
100
AcDbLine
 10
48.6326702875
 20
137.8115998492
 30
0.0
 11
48.5190410967
 21
124.7909842566
 31
0.0
  0
LINE
  5
2BB
330
23A
100
AcDbEntity
  8
$DDT_AUDIT_GENERATED_(1A4)
  6
Continuous
 62
     7
100
AcDbLine
 10
48.6439689272
 20
139.1062957161
 30
0.0
 11
48.6326702875
 21
137.8115998492
 31
0.0
  0
ELLIPSE
  5
2BC
330
23A
100
AcDbEntity
  8
$DDT_AUDIT_GENERATED_(1A4)
  6
Continuous
 62
     7
100
AcDbEllipse
 10
46.7432801526
 20
124.7241747785
 30
0.0
 11
0.01441038286158643
 21
-0.9578320991429981
 31
0.0
210
0.0
220
0.0
230
1.0
 40
0.5219252757
 41
0.7647209640281328
 42
1.55869347464064
  0
ELLIPSE
  5
2BD
330
23A
100
AcDbEntity
  8
$DDT_AUDIT_GENERATED_(1A4)
  6
Continuous
 62
     7
100
AcDbEllipse
 10
46.7551065931
 20
123.3689989251
 30
0.0
 11
0.4917510634130148
 21
0.9459679925468093
 31
0.0
210
0.0
220
0.0
230
1.0
 40
0.003775252
 41
0.7868625889111427
 42
1.563534106055292
  0
ELLIPSE
  5
2BE
330
23A
100
AcDbEntity
  8
$DDT_AUDIT_GENERATED_(1A4)
  6
Continuous
 62
     7
100
AcDbEllipse
 10
38.5184770984
 20
124.7241747785
 30
0.0
 11
-0.0144103828615837
 21
-0.9578320991429894
 31
0.0
210
0.0
220
0.0
230
1.0
 40
0.5219252757
 41
4.724491832538945
 42
5.518464343151482
  0
ELLIPSE
  5
2BF
330
23A
100
AcDbEntity
  8
$DDT_AUDIT_GENERATED_(1A4)
  6
Continuous
 62
     7
100
AcDbEllipse
 10
38.5066506579
 20
123.3689989251
 30
0.0
 11
-0.4917510634130111
 21
0.9459679925467989
 31
0.0
210
0.0
220
0.0
230
1.0
 40
0.003775252
 41
-1.563534106055455
 42
-0.7868625889194449
  0
LINE
  5
2C0
330
23A
100
AcDbEntity
  8
$DDT_AUDIT_GENERATED_(1A4)
  6
Continuous
 62
     7
100
AcDbLine
 10
38.1265532692
 20
137.1106589838
 30
0.0
 11
38.0184225267
 21
124.7201031534
 31
0.0
  0
ARC
  5
2C1
330
23A
100
AcDbEntity
  8
$DDT_AUDIT_GENERATED_(1A4)
  6
Continuous
 62
     7
100
AcDbCircle
 10
38.6265342308
 20
137.1062957161
 30
0.0
 40
0.4999999999999993
100
AcDbArc
 50
134.8074735495
 51
179.5
  0
ARC
  5
2C2
330
23A
100
AcDbEntity
  8
$DDT_AUDIT_GENERATED_(1A4)
  6
Continuous
 62
     7
100
AcDbCircle
 10
38.6265342306
 20
137.1062957162
 30
0.0
 40
0.4999999997735374
100
AcDbArc
 50
131.667248805
 51
134.8074735502
  0
ARC
  5
2C3
330
23A
100
AcDbEntity
  8
$DDT_AUDIT_GENERATED_(1A4)
  6
Continuous
 62
     7
100
AcDbCircle
 10
38.6265342308
 20
137.1062957161
 30
0.0
 40
0.5
100
AcDbArc
 50
90.0
 51
131.6672488057
  0
ARC
  5
2C4
330
23A
100
AcDbEntity
  8
$DDT_AUDIT_GENERATED_(1A4)
  6
Continuous
 62
     7
100
AcDbCircle
 10
46.6352230202
 20
137.1062957161
 30
0.0
 40
0.5000000000000236
100
AcDbArc
 50
48.3327511943
 51
90.0
  0
ARC
  5
2C5
330
23A
100
AcDbEntity
  8
$DDT_AUDIT_GENERATED_(1A4)
  6
Continuous
 62
     7
100
AcDbCircle
 10
46.6352230202
 20
137.1062957161
 30
0.0
 40
0.5000000000080229
100
AcDbArc
 50
45.1925264505
 51
48.3327511942
  0
ARC
  5
2C6
330
23A
100
AcDbEntity
  8
$DDT_AUDIT_GENERATED_(1A4)
  6
Continuous
 62
     7
100
AcDbCircle
 10
46.6352230202
 20
137.1062957161
 30
0.0
 40
0.4999999999999989
100
AcDbArc
 50
0.5
 51
45.1925264505
  0
LINE
  5
2C7
330
23A
100
AcDbEntity
  8
$DDT_AUDIT_GENERATED_(1A4)
  6
Continuous
 62
     7
100
AcDbLine
 10
46.6352230202
 20
137.6062957161
 30
0.0
 11
38.6265342308
 21
137.6062957161
 31
0.0
  0
LINE
  5
2C8
330
23A
100
AcDbEntity
  8
$DDT_AUDIT_GENERATED_(1A4)
  6
Continuous
 62
     7
100
AcDbLine
 10
47.2433347243
 20
124.7201031534
 30
0.0
 11
47.1352039817
 21
137.1106589838
 31
0.0
  0
LINE
  5
2C9
330
23A
100
AcDbEntity
  8
$DDT_AUDIT_GENERATED_(1A4)
  6
Continuous
 62
     7
100
AcDbLine
 10
51.5462861324
 20
139.1062957161
 30
0.0
 11
49.1439118139
 21
139.1062957161
 31
0.0
  0
LINE
  5
2CA
330
23A
100
AcDbEntity
  8
$DDT_AUDIT_GENERATED_(1A4)
  6
Continuous
 62
     7
100
AcDbLine
 10
51.5462861324
 20
139.1062957161
 30
0.0
 11
51.5471224653
 21
139.058389531
 31
0.0
  0
LINE
  5
2CB
330
23A
100
AcDbEntity
  8
$DDT_AUDIT_GENERATED_(1A4)
  6
Continuous
 62
     7
100
AcDbLine
 10
57.2278202789
 20
139.058389531
 30
0.0
 11
57.2286566119
 21
139.1062957161
 31
0.0
  0
LINE
  5
2CC
330
23A
100
AcDbEntity
  8
$DDT_AUDIT_GENERATED_(1A4)
  6
Continuous
 62
     7
100
AcDbLine
 10
51.5462861324
 20
139.1062957161
 30
0.0
 11
51.5465907653
 21
139.1062957161
 31
0.0
  0
LINE
  5
2CD
330
23A
100
AcDbEntity
  8
$DDT_AUDIT_GENERATED_(1A4)
  6
Continuous
 62
     7
100
AcDbLine
 10
57.228351979
 20
139.1062957161
 30
0.0
 11
57.2286566119
 21
139.1062957161
 31
0.0
  0
LINE
  5
2CE
330
23A
100
AcDbEntity
  8
$DDT_AUDIT_GENERATED_(1A4)
  6
Continuous
 62
     7
100
AcDbLine
 10
57.228351979
 20
139.1062957161
 30
0.0
 11
57.2275156507
 21
139.0583897967
 31
0.0
  0
LINE
  5
2CF
330
23A
100
AcDbEntity
  8
$DDT_AUDIT_GENERATED_(1A4)
  6
Continuous
 62
     7
100
AcDbLine
 10
51.5474270936
 20
139.0583897967
 30
0.0
 11
51.5465907653
 21
139.1062957161
 31
0.0
  0
LINE
  5
2D0
330
23A
100
AcDbEntity
  8
$DDT_AUDIT_GENERATED_(1A4)
  6
Continuous
 62
     7
100
AcDbLine
 10
59.5462861324
 20
139.1062957161
 30
0.0
 11
57.2286566119
 21
139.1062957161
 31
0.0
  0
LINE
  5
2D1
330
23A
100
AcDbEntity
  8
$DDT_AUDIT_GENERATED_(1A4)
  6
Continuous
 62
     7
100
AcDbLine
 10
65.2278202789
 20
139.058389531
 30
0.0
 11
65.2286566119
 21
139.1062957161
 31
0.0
  0
LINE
  5
2D2
330
23A
100
AcDbEntity
  8
$DDT_AUDIT_GENERATED_(1A4)
  6
Continuous
 62
     7
100
AcDbLine
 10
59.5462861324
 20
139.1062957161
 30
0.0
 11
59.5471224653
 21
139.058389531
 31
0.0
  0
LINE
  5
2D3
330
23A
100
AcDbEntity
  8
$DDT_AUDIT_GENERATED_(1A4)
  6
Continuous
 62
     7
100
AcDbLine
 10
65.228351979
 20
139.1062957161
 30
0.0
 11
65.2286566119
 21
139.1062957161
 31
0.0
  0
LINE
  5
2D4
330
23A
100
AcDbEntity
  8
$DDT_AUDIT_GENERATED_(1A4)
  6
Continuous
 62
     7
100
AcDbLine
 10
59.5462861324
 20
139.1062957161
 30
0.0
 11
59.5465907653
 21
139.1062957161
 31
0.0
  0
LINE
  5
2D5
330
23A
100
AcDbEntity
  8
$DDT_AUDIT_GENERATED_(1A4)
  6
Continuous
 62
     7
100
AcDbLine
 10
59.5474270936
 20
139.0583897967
 30
0.0
 11
59.5465907653
 21
139.1062957161
 31
0.0
  0
LINE
  5
2D6
330
23A
100
AcDbEntity
  8
$DDT_AUDIT_GENERATED_(1A4)
  6
Continuous
 62
     7
100
AcDbLine
 10
65.228351979
 20
139.1062957161
 30
0.0
 11
65.2275156507
 21
139.0583897967
 31
0.0
  0
ELLIPSE
  5
2D7
330
23A
100
AcDbEntity
  8
$DDT_AUDIT_GENERATED_(1F6)
  6
Continuous
 62
     7
100
AcDbEllipse
 10
62.3874713721
 20
132.2692229881
 30
0.0
 11
4.150000000000331
 21
-1.243307743352785E-9
 31
0.0
210
0.0
220
0.0
230
1.0
 40
0.9998476952
 41
0.0
 42
2.871909728510277
  0
ELLIPSE
  5
2D8
330
23A
100
AcDbEntity
  8
$DDT_AUDIT_GENERATED_(1F6)
  6
Continuous
 62
     7
100
AcDbEllipse
 10
62.3874713721
 20
131.951589191
 30
0.0
 11
4.150000000000331
 21
-1.248185785767232E-9
 31
0.0
210
0.0
220
0.0
230
1.0
 40
0.9998476952
 41
0.0
 42
3.141592653589791
  0
ELLIPSE
  5
2D9
330
23A
100
AcDbEntity
  8
$DDT_AUDIT_GENERATED_(1F6)
  6
Continuous
 62
     7
100
AcDbEllipse
 10
62.3874713721
 20
131.951589191
 30
0.0
 11
4.150000000000331
 21
-1.248185785767232E-9
 31
0.0
210
0.0
220
0.0
230
1.0
 40
0.9998476952
 41
3.411275579269564
 42
6.283185307179584
  0
ELLIPSE
  5
2DA
330
23A
100
AcDbEntity
  8
$DDT_AUDIT_GENERATED_(1F6)
  6
Continuous
 62
     7
100
AcDbEllipse
 10
62.3874713721
 20
131.775319886
 30
0.0
 11
-2.649999999999951
 21
-1.950625862908335E-10
 31
0.0
210
0.0
220
0.0
230
1.0
 40
0.9998476952
 41
0.0
 42
6.283185307179586
  0
LINE
  5
2DB
330
23A
100
AcDbEntity
  8
$DDT_AUDIT_GENERATED_(1F6)
  6
Continuous
 62
     7
100
AcDbLine
 10
66.5374713721
 20
132.0946989238
 30
0.0
 11
66.5374713721
 21
132.2692229881
 31
0.0
  0
LINE
  5
2DC
330
23A
100
AcDbEntity
  8
$DDT_AUDIT_GENERATED_(1F6)
  6
Continuous
 62
     7
100
AcDbLine
 10
66.5374713721
 20
132.024889298
 30
0.0
 11
66.5374713721
 21
132.0650298328
 31
0.0
  0
LINE
  5
2DD
330
23A
100
AcDbEntity
  8
$DDT_AUDIT_GENERATED_(1F6)
  6
Continuous
 62
     7
100
AcDbLine
 10
66.5374713721
 20
131.951589191
 30
0.0
 11
66.5374713721
 21
131.9952202071
 31
0.0
  0
LINE
  5
2DE
330
23A
100
AcDbEntity
  8
$DDT_AUDIT_GENERATED_(1F6)
  6
Continuous
 62
     7
100
AcDbLine
 10
65.0374713721
 20
131.775319886
 30
0.0
 11
65.0374713721
 21
131.8695628807
 31
0.0
  0
LINE
  5
2DF
330
23A
100
AcDbEntity
  8
$DDT_AUDIT_GENERATED_(1F6)
  6
Continuous
 62
     7
100
AcDbLine
 10
59.7374713721
 20
131.8695628807
 30
0.0
 11
59.7374713721
 21
131.775319886
 31
0.0
  0
ELLIPSE
  5
2E0
330
23A
100
AcDbEntity
  8
$DDT_AUDIT_GENERATED_(1F6)
  6
Continuous
 62
     7
100
AcDbEllipse
 10
54.3874713721
 20
132.2692229881
 30
0.0
 11
-4.149999999999392
 21
-2.311088617219413E-9
 31
0.0
210
0.0
220
0.0
230
1.0
 40
0.9998476952
 41
3.411275578411226
 42
6.283185307179586
  0
ELLIPSE
  5
2E1
330
23A
100
AcDbEntity
  8
$DDT_AUDIT_GENERATED_(1F6)
  6
Continuous
 62
     7
100
AcDbEllipse
 10
54.3874713721
 20
131.951589191
 30
0.0
 11
4.150000000000327
 21
-1.235181431229572E-9
 31
0.0
210
0.0
220
0.0
230
1.0
 40
0.9998476952
 41
0.0
 42
6.013502382098109
  0
ELLIPSE
  5
2E2
330
23A
100
AcDbEntity
  8
$DDT_AUDIT_GENERATED_(1F6)
  6
Continuous
 62
     7
100
AcDbEllipse
 10
54.3874713721
 20
131.775319886
 30
0.0
 11
-2.649999999999951
 21
-1.911603258316237E-10
 31
0.0
210
0.0
220
0.0
230
1.0
 40
0.9998476952
 41
0.0
 42
6.283185307179586
  0
LINE
  5
2E3
330
23A
100
AcDbEntity
  8
$DDT_AUDIT_GENERATED_(1F6)
  6
Continuous
 62
     7
100
AcDbLine
 10
50.2374713721
 20
132.2692229881
 30
0.0
 11
50.2374713721
 21
132.0946989238
 31
0.0
  0
LINE
  5
2E4
330
23A
100
AcDbEntity
  8
$DDT_AUDIT_GENERATED_(1F6)
  6
Continuous
 62
     7
100
AcDbLine
 10
50.2374713721
 20
132.0650298328
 30
0.0
 11
50.2374713721
 21
132.024889298
 31
0.0
  0
LINE
  5
2E5
330
23A
100
AcDbEntity
  8
$DDT_AUDIT_GENERATED_(1F6)
  6
Continuous
 62
     7
100
AcDbLine
 10
50.2374713721
 20
131.9952202071
 30
0.0
 11
50.2374713721
 21
131.951589191
 31
0.0
  0
LINE
  5
2E6
330
23A
100
AcDbEntity
  8
$DDT_AUDIT_GENERATED_(1F6)
  6
Continuous
 62
     7
100
AcDbLine
 10
57.0374713721
 20
131.775319886
 30
0.0
 11
57.0374713721
 21
131.8695628807
 31
0.0
  0
LINE
  5
2E7
330
23A
100
AcDbEntity
  8
$DDT_AUDIT_GENERATED_(1F6)
  6
Continuous
 62
     7
100
AcDbLine
 10
51.7374713721
 20
131.8695628807
 30
0.0
 11
51.7374713721
 21
131.775319886
 31
0.0
  0
LINE
  5
2E9
330
23A
100
AcDbEntity
  8
$DDT_AUDIT_GENERATED_(2E8)
  6
Continuous
 62
     7
100
AcDbLine
 10
65.2286566119
 20
139.1062957161
 30
0.0
 11
59.5462861324
 21
139.1062957161
 31
0.0
  0
LINE
  5
2EA
330
23A
100
AcDbEntity
  8
$DDT_AUDIT_GENERATED_(2E8)
  6
Continuous
 62
     7
100
AcDbLine
 10
57.228351979
 20
139.1062957161
 30
0.0
 11
51.5465907653
 21
139.1062957161
 31
0.0
  0
LINE
  5
2EC
330
23A
100
AcDbEntity
  8
DV2_Standard
  6
CENTER2
 62
     7
100
AcDbLine
 10
62.6308781784
 20
139.1062957161
 30
0.0
 11
22.6308790725
 21
139.1062957161
 31
0.0
  0
LINE
  5
2ED
330
23A
100
AcDbEntity
  8
DV2_Standard
  6
CENTER2
 62
     7
100
AcDbLine
 10
42.6308786255
 20
159.106295269
 30
0.0
 11
42.6308786255
 21
119.1062961631
 31
0.0
  0
ENDBLK
  5
2EF
330
23A
100
AcDbEntity
  8
0
100
AcDbBlockEnd
  0
BLOCK
  5
3FE
330
2F0
100
AcDbEntity
  8
0
100
AcDbBlockBegin
  2
SE2
 70
     0
 10
0.0
 20
0.0
 30
0.0
  3
SE2
  1

  0
LINE
  5
2F2
330
2F0
100
AcDbEntity
  8
$DDT_AUDIT_GENERATED_(73)
  6
Continuous
 62
     7
100
AcDbLine
 10
142.08145862
 20
547.6314637275
 30
0.0
 11
140.8458434274
 21
547.653031471
 31
0.0
  0
LINE
  5
2F3
330
2F0
100
AcDbEntity
  8
$DDT_AUDIT_GENERATED_(73)
  6
Continuous
 62
     7
100
AcDbLine
 10
137.8463003419
 20
547.7053886903
 30
0.0
 11
135.2824942929
 21
547.7501400913
 31
0.0
  0
LINE
  5
2F4
330
2F0
100
AcDbEntity
  8
$DDT_AUDIT_GENERATED_(73)
  6
Continuous
 62
     7
100
AcDbLine
 10
142.0465538071
 20
545.6317683372
 30
0.0
 11
140.8109386145
 21
545.6533360806
 31
0.0
  0
LINE
  5
2F5
330
2F0
100
AcDbEntity
  8
$DDT_AUDIT_GENERATED_(73)
  6
Continuous
 62
     7
100
AcDbLine
 10
137.811395529
 20
545.7056933
 30
0.0
 11
135.24758948
 21
545.750444701
 31
0.0
  0
LINE
  5
2F6
330
2F0
100
AcDbEntity
  8
$DDT_AUDIT_GENERATED_(73)
  6
Continuous
 62
     7
100
AcDbLine
 10
142.0064132723
 20
543.3321186384
 30
0.0
 11
140.7707980797
 21
543.3536863818
 31
0.0
  0
LINE
  5
2F7
330
2F0
100
AcDbEntity
  8
$DDT_AUDIT_GENERATED_(73)
  6
Continuous
 62
     7
100
AcDbLine
 10
137.7712549942
 20
543.4060436011
 30
0.0
 11
135.2074489452
 21
543.4507950021
 31
0.0
  0
LINE
  5
2F8
330
2F0
100
AcDbEntity
  8
$DDT_AUDIT_GENERATED_(73)
  6
Continuous
 62
     7
100
AcDbLine
 10
141.9715084594
 20
541.3324232481
 30
0.0
 11
140.7358932668
 21
541.3539909915
 31
0.0
  0
LINE
  5
2F9
330
2F0
100
AcDbEntity
  8
$DDT_AUDIT_GENERATED_(73)
  6
Continuous
 62
     7
100
AcDbLine
 10
137.7363501813
 20
541.4063482108
 30
0.0
 11
135.1725441323
 21
541.4510996118
 31
0.0
  0
LINE
  5
2FA
330
2F0
100
AcDbEntity
  8
$DDT_AUDIT_GENERATED_(73)
  6
Continuous
 62
     7
100
AcDbLine
 10
141.9278774433
 20
538.8328040102
 30
0.0
 11
140.6922622507
 21
538.8543717536
 31
0.0
  0
LINE
  5
2FB
330
2F0
100
AcDbEntity
  8
$DDT_AUDIT_GENERATED_(73)
  6
Continuous
 62
     7
100
AcDbLine
 10
137.6927191652
 20
538.9067289729
 30
0.0
 11
135.1289131163
 21
538.9514803739
 31
0.0
  0
LINE
  5
2FC
330
2F0
100
AcDbEntity
  8
$DDT_AUDIT_GENERATED_(73)
  6
Continuous
 62
     7
100
AcDbLine
 10
141.241326388
 20
536.7444679145
 30
0.0
 11
140.6556121972
 21
536.7546915938
 31
0.0
  0
LINE
  5
2FD
330
2F0
100
AcDbEntity
  8
$DDT_AUDIT_GENERATED_(73)
  6
Continuous
 62
     7
100
AcDbLine
 10
137.6560691117
 20
536.8070488131
 30
0.0
 11
135.7421640646
 21
536.8404561499
 31
0.0
  0
LINE
  5
2FE
330
2F0
100
AcDbEntity
  8
$DDT_AUDIT_GENERATED_(73)
  6
Continuous
 62
     7
100
AcDbLine
 10
141.4755293017
 20
537.2404560515
 30
0.0
 11
140.6643384004
 21
537.2546154413
 31
0.0
  0
LINE
  5
2FF
330
2F0
100
AcDbEntity
  8
$DDT_AUDIT_GENERATED_(73)
  6
Continuous
 62
     7
100
AcDbLine
 10
137.6647953149
 20
537.3069726606
 30
0.0
 11
135.5254135573
 21
537.3443157081
 31
0.0
  0
LINE
  5
300
330
2F0
100
AcDbEntity
  8
$DDT_AUDIT_GENERATED_(73)
  6
Continuous
 62
     7
100
AcDbLine
 10
141.0470986237
 20
531.3470356013
 30
0.0
 11
140.5613692024
 21
531.3555140399
 31
0.0
  0
LINE
  5
301
330
2F0
100
AcDbEntity
  8
$DDT_AUDIT_GENERATED_(73)
  6
Continuous
 62
     7
100
AcDbLine
 10
137.561826117
 20
531.4078712592
 30
0.0
 11
135.7479058393
 21
531.4395333554
 31
0.0
  0
LINE
  5
302
330
2F0
100
AcDbEntity
  8
$DDT_AUDIT_GENERATED_(73)
  6
Continuous
 62
     7
100
AcDbLine
 10
141.8991945138
 20
545.7843633525
 30
0.0
 11
141.9288636047
 21
547.4841044342
 31
0.0
  0
LINE
  5
303
330
2F0
100
AcDbEntity
  8
$DDT_AUDIT_GENERATED_(73)
  6
Continuous
 62
     7
100
AcDbLine
 10
135.4298535862
 20
547.5975450761
 30
0.0
 11
135.4001844953
 21
545.8978039943
 31
0.0
  0
LINE
  5
304
330
2F0
100
AcDbEntity
  8
$DDT_AUDIT_GENERATED_(73)
  6
Continuous
 62
     7
100
AcDbLine
 10
142.0064132723
 20
543.3321186384
 30
0.0
 11
142.0465538071
 21
545.6317683372
 31
0.0
  0
LINE
  5
305
330
2F0
100
AcDbEntity
  8
$DDT_AUDIT_GENERATED_(73)
  6
Continuous
 62
     7
100
AcDbLine
 10
135.24758948
 20
545.750444701
 30
0.0
 11
135.2074489452
 21
543.4507950021
 31
0.0
  0
LINE
  5
306
330
2F0
100
AcDbEntity
  8
$DDT_AUDIT_GENERATED_(73)
  6
Continuous
 62
     7
100
AcDbLine
 10
141.8241491661
 20
541.4850182633
 30
0.0
 11
141.853818257
 21
543.1847593451
 31
0.0
  0
LINE
  5
307
330
2F0
100
AcDbEntity
  8
$DDT_AUDIT_GENERATED_(73)
  6
Continuous
 62
     7
100
AcDbLine
 10
135.3548082385
 20
543.2981999869
 30
0.0
 11
135.3251391476
 21
541.5984589051
 31
0.0
  0
LINE
  5
308
330
2F0
100
AcDbEntity
  8
$DDT_AUDIT_GENERATED_(73)
  6
Continuous
 62
     7
100
AcDbLine
 10
141.9278774433
 20
538.8328040102
 30
0.0
 11
141.9715084594
 21
541.3324232481
 31
0.0
  0
LINE
  5
309
330
2F0
100
AcDbEntity
  8
$DDT_AUDIT_GENERATED_(73)
  6
Continuous
 62
     7
100
AcDbLine
 10
135.1725441323
 20
541.4510996118
 30
0.0
 11
135.1289131163
 21
538.9514803739
 31
0.0
  0
LINE
  5
30A
330
2F0
100
AcDbEntity
  8
$DDT_AUDIT_GENERATED_(73)
  6
Continuous
 62
     7
100
AcDbLine
 10
135.1289131163
 20
538.9514803739
 30
0.0
 11
135.3801406029
 21
537.4692268151
 31
0.0
  0
LINE
  5
30B
330
2F0
100
AcDbEntity
  8
$DDT_AUDIT_GENERATED_(73)
  6
Continuous
 62
     7
100
AcDbLine
 10
141.6250730945
 20
537.360221113
 30
0.0
 11
141.9278774433
 21
538.8328040102
 31
0.0
  0
LINE
  5
30C
330
2F0
100
AcDbEntity
  8
$DDT_AUDIT_GENERATED_(73)
  6
Continuous
 62
     7
100
AcDbLine
 10
141.241326388
 20
536.7444679145
 30
0.0
 11
141.2500525912
 21
537.2443917621
 31
0.0
  0
LINE
  5
30D
330
2F0
100
AcDbEntity
  8
$DDT_AUDIT_GENERATED_(73)
  6
Continuous
 62
     7
100
AcDbLine
 10
135.7508902678
 20
537.3403799975
 30
0.0
 11
135.7421640646
 21
536.8404561499
 31
0.0
  0
LINE
  5
30E
330
2F0
100
AcDbEntity
  8
$DDT_AUDIT_GENERATED_(73)
  6
Continuous
 62
     7
100
AcDbLine
 10
142.08145862
 20
547.6314637275
 30
0.0
 11
142.1407968019
 21
551.0309458911
 31
0.0
  0
LINE
  5
30F
330
2F0
100
AcDbEntity
  8
$DDT_AUDIT_GENERATED_(73)
  6
Continuous
 62
     7
100
AcDbLine
 10
135.3418324748
 20
551.1496222549
 30
0.0
 11
135.2824942929
 21
547.7501400913
 31
0.0
  0
ARC
  5
310
330
2F0
100
AcDbEntity
  8
$DDT_AUDIT_GENERATED_(73)
  6
Continuous
 62
     7
100
AcDbCircle
 10
135.250207341
 20
545.9004218553
 30
0.0
 40
0.1499999999999997
100
AcDbArc
 50
269.0
 51
359.0
  0
ARC
  5
311
330
2F0
100
AcDbEntity
  8
$DDT_AUDIT_GENERATED_(73)
  6
Continuous
 62
     7
100
AcDbCircle
 10
142.0491716681
 20
545.7817454915
 30
0.0
 40
0.1500000000000198
100
AcDbArc
 50
179.0
 51
269.0
  0
ARC
  5
312
330
2F0
100
AcDbEntity
  8
$DDT_AUDIT_GENERATED_(73)
  6
Continuous
 62
     7
100
AcDbCircle
 10
142.078840759
 20
547.4814865733
 30
0.0
 40
0.1500000000000006
100
AcDbArc
 50
89.0
 51
179.0
  0
ARC
  5
313
330
2F0
100
AcDbEntity
  8
$DDT_AUDIT_GENERATED_(73)
  6
Continuous
 62
     7
100
AcDbCircle
 10
135.2798764319
 20
547.600162937
 30
0.0
 40
0.1500000000000198
100
AcDbArc
 50
358.9999999999
 51
89.0
  0
ARC
  5
314
330
2F0
100
AcDbEntity
  8
$DDT_AUDIT_GENERATED_(73)
  6
Continuous
 62
     7
100
AcDbCircle
 10
135.1751619933
 20
541.6010767661
 30
0.0
 40
0.15
100
AcDbArc
 50
269.0
 51
359.0
  0
ARC
  5
315
330
2F0
100
AcDbEntity
  8
$DDT_AUDIT_GENERATED_(73)
  6
Continuous
 62
     7
100
AcDbCircle
 10
141.9741263204
 20
541.4824004023
 30
0.0
 40
0.149999999999992
100
AcDbArc
 50
179.0
 51
269.0
  0
ARC
  5
316
330
2F0
100
AcDbEntity
  8
$DDT_AUDIT_GENERATED_(73)
  6
Continuous
 62
     7
100
AcDbCircle
 10
142.0037954113
 20
543.1821414841
 30
0.0
 40
0.1499999999999989
100
AcDbArc
 50
89.0
 51
179.0
  0
ARC
  5
317
330
2F0
100
AcDbEntity
  8
$DDT_AUDIT_GENERATED_(73)
  6
Continuous
 62
     7
100
AcDbCircle
 10
135.2048310843
 20
543.3008178479
 30
0.0
 40
0.1500000000000059
100
AcDbArc
 50
359.0
 51
89.0
  0
ARC
  5
318
330
2F0
100
AcDbEntity
  8
$DDT_AUDIT_GENERATED_(73)
  6
Continuous
 62
     7
100
AcDbCircle
 10
141.4781471626
 20
537.3904332058
 30
0.0
 40
0.1500000000000059
100
AcDbArc
 50
269.0
 51
348.3803447238
  0
ARC
  5
319
330
2F0
100
AcDbEntity
  8
$DDT_AUDIT_GENERATED_(73)
  6
Continuous
 62
     7
100
AcDbCircle
 10
135.5280314183
 20
537.4942928624
 30
0.0
 40
0.1500000000000028
100
AcDbArc
 50
189.6196552761
 51
269.0
  0
LINE
  5
31A
330
2F0
100
AcDbEntity
  8
$DDT_AUDIT_GENERATED_(73)
  6
Continuous
 62
     7
100
AcDbLine
 10
135.8421488341
 20
536.8387109093
 30
0.0
 11
135.7479058393
 21
531.4395333554
 31
0.0
  0
LINE
  5
31B
330
2F0
100
AcDbEntity
  8
$DDT_AUDIT_GENERATED_(73)
  6
Continuous
 62
     7
100
AcDbLine
 10
141.0470986237
 20
531.3470356013
 30
0.0
 11
141.1413416184
 21
536.7462131552
 31
0.0
  0
LINE
  5
31C
330
2F0
100
AcDbEntity
  8
$DDT_AUDIT_GENERATED_(98)
  6
Continuous
 62
     7
100
AcDbLine
 10
136.3978068412
 20
531.4281892913
 30
0.0
 11
135.3151578106
 21
469.4032678679
 31
0.0
  0
LINE
  5
31D
330
2F0
100
AcDbEntity
  8
$DDT_AUDIT_GENERATED_(250)
  6
Continuous
 62
     7
100
AcDbLine
 10
156.8690189104
 20
441.3902223578
 30
0.0
 11
156.8690189104
 21
441.0142223578
 31
0.0
  0
ARC
  5
31E
330
2F0
100
AcDbEntity
  8
$DDT_AUDIT_GENERATED_(250)
  6
Continuous
 62
     7
100
AcDbCircle
 10
155.2790189104
 20
441.3902223578
 30
0.0
 40
1.590000000000001
100
AcDbArc
 50
0.0
 51
66.8448684128
  0
ARC
  5
31F
330
2F0
100
AcDbEntity
  8
$DDT_AUDIT_GENERATED_(250)
  6
Continuous
 62
     7
100
AcDbCircle
 10
155.2790189104
 20
441.0142223578
 30
0.0
 40
1.590000000000001
100
AcDbArc
 50
293.1551315872
 51
0.0
  0
SPLINE
  5
320
330
2F0
100
AcDbEntity
  8
$DDT_AUDIT_GENERATED_(D3)
  6
Continuous
 62
     7
100
AcDbSpline
210
0.0
220
0.0
230
1.0
 70
     8
 71
     3
 72
    12
 73
     8
 74
     0
 42
0.000000000871397
 43
0.0000000001
 40
0.0
 40
0.0
 40
0.0
 40
0.0
 40
0.2500000000000001
 40
0.2500000000000001
 40
0.5
 40
0.5
 40
0.5002001423135576
 40
0.5002001423135576
 40
0.5002001423135576
 40
0.5002001423135576
 10
148.0799152808632
 20
209.6026060682409
 30
0.0
 10
149.5962251900396
 20
209.6290733561569
 30
0.0
 10
151.0813772463982
 20
209.6547898301591
 30
0.0
 10
153.1965098553865
 20
209.6920520529032
 30
0.0
 10
153.8183200804449
 20
209.7027561071712
 30
0.0
 10
153.8192498292166
 20
209.702786519904
 30
0.0
 10
153.8192501811313
 20
209.7027865374634
 30
0.0
 10
153.8192501413061
 20
209.7027865482553
 30
0.0
  0
SPLINE
  5
321
330
2F0
100
AcDbEntity
  8
$DDT_AUDIT_GENERATED_(D3)
  6
Continuous
 62
     7
100
AcDbSpline
210
0.0
220
0.0
230
1.0
 70
     8
 71
     3
 72
    10
 73
     6
 74
     0
 42
0.0000000008706994
 43
0.0000000001
 40
0.5002001423135578
 40
0.5002001423135578
 40
0.5002001423135578
 40
0.5002001423135578
 40
0.75
 40
0.75
 40
1.0
 40
1.0
 40
1.0
 40
1.0
 10
126.292305096842
 20
209.2223019352288
 30
0.0
 10
126.2923543027588
 20
209.2223171312368
 30
0.0
 10
126.9026448504953
 20
209.2330937377045
 30
0.0
 10
129.0402282945822
 20
209.2700577199107
 30
0.0
 10
130.5153300527242
 20
209.2960150926466
 30
0.0
 10
132.0316399578915
 20
209.3224823804925
 30
0.0
  0
LINE
  5
322
330
2F0
100
AcDbEntity
  8
$DDT_AUDIT_GENERATED_(D3)
  6
Continuous
 62
     7
100
AcDbLine
 10
132.0316399579
 20
209.3224823805
 30
0.0
 11
148.0799152809
 21
209.6026060682
 31
0.0
  0
LINE
  5
323
330
2F0
100
AcDbEntity
  8
$DDT_AUDIT_GENERATED_(D3)
  6
Continuous
 62
     7
100
AcDbLine
 10
135.824669862
 20
219.3902132442
 30
0.0
 11
143.937837248
 21
219.5318291077
 31
0.0
  0
LINE
  5
324
330
2F0
100
AcDbEntity
  8
$DDT_AUDIT_GENERATED_(D3)
  6
Continuous
 62
     7
100
AcDbLine
 10
132.0316399579
 20
209.3224823805
 30
0.0
 11
135.824669862
 21
219.3902132442
 31
0.0
  0
LINE
  5
325
330
2F0
100
AcDbEntity
  8
$DDT_AUDIT_GENERATED_(D3)
  6
Continuous
 62
     7
100
AcDbLine
 10
148.0799152809
 20
209.6026060682
 30
0.0
 11
143.937837248
 21
219.5318291077
 31
0.0
  0
LINE
  5
326
330
2F0
100
AcDbEntity
  8
$DDT_AUDIT_GENERATED_(D3)
  6
Continuous
 62
     7
100
AcDbLine
 10
143.6760511515
 20
234.529544535
 30
0.0
 11
143.7013944234
 21
233.0776294591
 31
0.0
  0
LINE
  5
327
330
2F0
100
AcDbEntity
  8
$DDT_AUDIT_GENERATED_(D3)
  6
Continuous
 62
     7
100
AcDbLine
 10
135.5628837654
 20
234.3879286715
 30
0.0
 11
135.5882270373
 21
232.9360135956
 31
0.0
  0
LINE
  5
328
330
2F0
100
AcDbEntity
  8
$DDT_AUDIT_GENERATED_(D3)
  6
Continuous
 62
     7
100
AcDbLine
 10
143.7340339623
 20
231.2077115254
 30
0.0
 11
143.7886564556
 21
228.0783909833
 31
0.0
  0
LINE
  5
329
330
2F0
100
AcDbEntity
  8
$DDT_AUDIT_GENERATED_(D3)
  6
Continuous
 62
     7
100
AcDbLine
 10
143.7013944234
 20
233.0776294591
 30
0.0
 11
141.6093618709
 21
233.041112895
 31
0.0
  0
LINE
  5
32A
330
2F0
100
AcDbEntity
  8
$DDT_AUDIT_GENERATED_(D3)
  6
Continuous
 62
     7
100
AcDbLine
 10
141.6093618709
 20
233.041112895
 30
0.0
 11
141.6420014098
 21
231.1711949613
 31
0.0
  0
LINE
  5
32B
330
2F0
100
AcDbEntity
  8
$DDT_AUDIT_GENERATED_(D3)
  6
Continuous
 62
     7
100
AcDbLine
 10
141.6420014098
 20
231.1711949613
 30
0.0
 11
143.7340339623
 21
231.2077115254
 31
0.0
  0
LINE
  5
32C
330
2F0
100
AcDbEntity
  8
$DDT_AUDIT_GENERATED_(D3)
  6
Continuous
 62
     7
100
AcDbLine
 10
135.6208665763
 20
231.0660956619
 30
0.0
 11
135.6754890695
 21
227.9367751198
 31
0.0
  0
LINE
  5
32D
330
2F0
100
AcDbEntity
  8
$DDT_AUDIT_GENERATED_(D3)
  6
Continuous
 62
     7
100
AcDbLine
 10
135.5882270373
 20
232.9360135956
 30
0.0
 11
135.6208665763
 21
231.0660956619
 31
0.0
  0
LINE
  5
32E
330
2F0
100
AcDbEntity
  8
$DDT_AUDIT_GENERATED_(D3)
  6
Continuous
 62
     7
100
AcDbLine
 10
137.6802595898
 20
232.9725301596
 30
0.0
 11
135.5882270373
 21
232.9360135956
 31
0.0
  0
LINE
  5
32F
330
2F0
100
AcDbEntity
  8
$DDT_AUDIT_GENERATED_(D3)
  6
Continuous
 62
     7
100
AcDbLine
 10
135.6208665763
 20
231.0660956619
 30
0.0
 11
137.7128991288
 21
231.1026122259
 31
0.0
  0
LINE
  5
330
330
2F0
100
AcDbEntity
  8
$DDT_AUDIT_GENERATED_(D3)
  6
Continuous
 62
     7
100
AcDbLine
 10
137.7128991288
 20
231.1026122259
 30
0.0
 11
137.6802595898
 21
232.9725301596
 31
0.0
  0
LINE
  5
331
330
2F0
100
AcDbEntity
  8
$DDT_AUDIT_GENERATED_(D3)
  6
Continuous
 62
     7
100
AcDbLine
 10
143.8212959945
 20
226.2084730496
 30
0.0
 11
143.8759184878
 21
223.0791525075
 31
0.0
  0
LINE
  5
332
330
2F0
100
AcDbEntity
  8
$DDT_AUDIT_GENERATED_(D3)
  6
Continuous
 62
     7
100
AcDbLine
 10
143.8212959945
 20
226.2084730496
 30
0.0
 11
143.7886564556
 21
228.0783909833
 31
0.0
  0
LINE
  5
333
330
2F0
100
AcDbEntity
  8
$DDT_AUDIT_GENERATED_(D3)
  6
Continuous
 62
     7
100
AcDbLine
 10
143.7886564556
 20
228.0783909833
 30
0.0
 11
141.6966239031
 21
228.0418744193
 31
0.0
  0
LINE
  5
334
330
2F0
100
AcDbEntity
  8
$DDT_AUDIT_GENERATED_(D3)
  6
Continuous
 62
     7
100
AcDbLine
 10
141.6966239031
 20
228.0418744193
 30
0.0
 11
141.729263442
 21
226.1719564856
 31
0.0
  0
LINE
  5
335
330
2F0
100
AcDbEntity
  8
$DDT_AUDIT_GENERATED_(D3)
  6
Continuous
 62
     7
100
AcDbLine
 10
141.729263442
 20
226.1719564856
 30
0.0
 11
143.8212959945
 21
226.2084730496
 31
0.0
  0
LINE
  5
336
330
2F0
100
AcDbEntity
  8
$DDT_AUDIT_GENERATED_(D3)
  6
Continuous
 62
     7
100
AcDbLine
 10
135.7081286085
 20
226.0668571861
 30
0.0
 11
135.7627511017
 21
222.937536644
 31
0.0
  0
LINE
  5
337
330
2F0
100
AcDbEntity
  8
$DDT_AUDIT_GENERATED_(D3)
  6
Continuous
 62
     7
100
AcDbLine
 10
135.6754890695
 20
227.9367751198
 30
0.0
 11
135.7081286085
 21
226.0668571861
 31
0.0
  0
LINE
  5
338
330
2F0
100
AcDbEntity
  8
$DDT_AUDIT_GENERATED_(D3)
  6
Continuous
 62
     7
100
AcDbLine
 10
137.767521622
 20
227.9732916838
 30
0.0
 11
135.6754890695
 21
227.9367751198
 31
0.0
  0
LINE
  5
339
330
2F0
100
AcDbEntity
  8
$DDT_AUDIT_GENERATED_(D3)
  6
Continuous
 62
     7
100
AcDbLine
 10
135.7081286085
 20
226.0668571861
 30
0.0
 11
137.800161161
 21
226.1033737501
 31
0.0
  0
LINE
  5
33A
330
2F0
100
AcDbEntity
  8
$DDT_AUDIT_GENERATED_(D3)
  6
Continuous
 62
     7
100
AcDbLine
 10
137.800161161
 20
226.1033737501
 30
0.0
 11
137.767521622
 21
227.9732916838
 31
0.0
  0
LINE
  5
33B
330
2F0
100
AcDbEntity
  8
$DDT_AUDIT_GENERATED_(D3)
  6
Continuous
 62
     7
100
AcDbLine
 10
143.9085580267
 20
221.2092345738
 30
0.0
 11
143.937837248
 21
219.5318291077
 31
0.0
  0
LINE
  5
33C
330
2F0
100
AcDbEntity
  8
$DDT_AUDIT_GENERATED_(D3)
  6
Continuous
 62
     7
100
AcDbLine
 10
143.9085580267
 20
221.2092345738
 30
0.0
 11
143.8759184878
 21
223.0791525075
 31
0.0
  0
LINE
  5
33D
330
2F0
100
AcDbEntity
  8
$DDT_AUDIT_GENERATED_(D3)
  6
Continuous
 62
     7
100
AcDbLine
 10
143.8759184878
 20
223.0791525075
 30
0.0
 11
141.7838859353
 21
223.0426359435
 31
0.0
  0
LINE
  5
33E
330
2F0
100
AcDbEntity
  8
$DDT_AUDIT_GENERATED_(D3)
  6
Continuous
 62
     7
100
AcDbLine
 10
141.7838859353
 20
223.0426359435
 30
0.0
 11
141.8165254742
 21
221.1727180098
 31
0.0
  0
LINE
  5
33F
330
2F0
100
AcDbEntity
  8
$DDT_AUDIT_GENERATED_(D3)
  6
Continuous
 62
     7
100
AcDbLine
 10
141.8165254742
 20
221.1727180098
 30
0.0
 11
143.9085580267
 21
221.2092345738
 31
0.0
  0
LINE
  5
340
330
2F0
100
AcDbEntity
  8
$DDT_AUDIT_GENERATED_(D3)
  6
Continuous
 62
     7
100
AcDbLine
 10
135.7953906407
 20
221.0676187103
 30
0.0
 11
135.824669862
 21
219.3902132442
 31
0.0
  0
LINE
  5
341
330
2F0
100
AcDbEntity
  8
$DDT_AUDIT_GENERATED_(D3)
  6
Continuous
 62
     7
100
AcDbLine
 10
135.7627511017
 20
222.937536644
 30
0.0
 11
135.7953906407
 21
221.0676187103
 31
0.0
  0
LINE
  5
342
330
2F0
100
AcDbEntity
  8
$DDT_AUDIT_GENERATED_(D3)
  6
Continuous
 62
     7
100
AcDbLine
 10
137.8547836542
 20
222.9740532081
 30
0.0
 11
135.7627511017
 21
222.937536644
 31
0.0
  0
LINE
  5
343
330
2F0
100
AcDbEntity
  8
$DDT_AUDIT_GENERATED_(D3)
  6
Continuous
 62
     7
100
AcDbLine
 10
135.7953906407
 20
221.0676187103
 30
0.0
 11
137.8874231931
 21
221.1041352743
 31
0.0
  0
LINE
  5
344
330
2F0
100
AcDbEntity
  8
$DDT_AUDIT_GENERATED_(D3)
  6
Continuous
 62
     7
100
AcDbLine
 10
137.8874231931
 20
221.1041352743
 30
0.0
 11
137.8547836542
 21
222.9740532081
 31
0.0
  0
LINE
  5
345
330
2F0
100
AcDbEntity
  8
$DDT_AUDIT_GENERATED_(D3)
  6
Continuous
 62
     7
100
AcDbLine
 10
135.5628837654
 20
234.3879286715
 30
0.0
 11
143.6760511515
 21
234.529544535
 31
0.0
  0
LINE
  5
346
330
2F0
100
AcDbEntity
  8
$DDT_AUDIT_GENERATED_(D3)
  6
Continuous
 62
     7
100
AcDbLine
 10
158.1339256006
 20
193.2755860584
 30
0.0
 11
151.6349155821
 21
193.1621454166
 31
0.0
  0
LINE
  5
347
330
2F0
100
AcDbEntity
  8
$DDT_AUDIT_GENERATED_(D3)
  6
Continuous
 62
     7
100
AcDbLine
 10
151.6349155821
 20
193.1621454166
 30
0.0
 11
129.0525690691
 21
192.767969092
 31
0.0
  0
LINE
  5
348
330
2F0
100
AcDbEntity
  8
$DDT_AUDIT_GENERATED_(D3)
  6
Continuous
 62
     7
100
AcDbLine
 10
129.0525690691
 20
192.767969092
 30
0.0
 11
122.5535590506
 21
192.6545284501
 31
0.0
  0
LINE
  5
349
330
2F0
100
AcDbEntity
  8
$DDT_AUDIT_GENERATED_(D3)
  6
Continuous
 62
     7
100
AcDbLine
 10
151.5214749402
 20
199.6611554351
 30
0.0
 11
158.0204849587
 21
199.774596077
 31
0.0
  0
LINE
  5
34A
330
2F0
100
AcDbEntity
  8
$DDT_AUDIT_GENERATED_(D3)
  6
Continuous
 62
     7
100
AcDbLine
 10
128.9391284273
 20
199.2669791105
 30
0.0
 11
151.5214749402
 21
199.6611554351
 31
0.0
  0
LINE
  5
34B
330
2F0
100
AcDbEntity
  8
$DDT_AUDIT_GENERATED_(D3)
  6
Continuous
 62
     7
100
AcDbLine
 10
122.4401184088
 20
199.1535384687
 30
0.0
 11
128.9391284273
 21
199.2669791105
 31
0.0
  0
LINE
  5
34C
330
2F0
100
AcDbEntity
  8
$DDT_AUDIT_GENERATED_(D3)
  6
Continuous
 62
     7
100
AcDbLine
 10
136.0279028001
 20
236.3963502651
 30
0.0
 11
143.141222491
 21
236.5205137221
 31
0.0
  0
LINE
  5
34D
330
2F0
100
AcDbEntity
  8
$DDT_AUDIT_GENERATED_(D3)
  6
Continuous
 62
     7
100
AcDbLine
 10
143.6498725418
 20
236.0293160778
 30
0.0
 11
143.6760511515
 21
234.529544535
 31
0.0
  0
LINE
  5
34E
330
2F0
100
AcDbEntity
  8
$DDT_AUDIT_GENERATED_(D3)
  6
Continuous
 62
     7
100
AcDbLine
 10
143.7253077591
 20
231.7076353729
 30
0.0
 11
143.7013944234
 21
233.0776294591
 31
0.0
  0
LINE
  5
34F
330
2F0
100
AcDbEntity
  8
$DDT_AUDIT_GENERATED_(D3)
  6
Continuous
 62
     7
100
AcDbLine
 10
135.5367051558
 20
235.8877002143
 30
0.0
 11
135.5628837654
 21
234.3879286715
 31
0.0
  0
LINE
  5
350
330
2F0
100
AcDbEntity
  8
$DDT_AUDIT_GENERATED_(D3)
  6
Continuous
 62
     7
100
AcDbLine
 10
143.7253077591
 20
231.7076353729
 30
0.0
 11
143.7340339623
 21
231.2077115254
 31
0.0
  0
ARC
  5
351
330
2F0
100
AcDbEntity
  8
$DDT_AUDIT_GENERATED_(D3)
  6
Continuous
 62
     7
100
AcDbCircle
 10
136.0366290033
 20
235.8964264175
 30
0.0
 40
0.4999999999999916
100
AcDbArc
 50
91.0
 51
181.0
  0
ARC
  5
352
330
2F0
100
AcDbEntity
  8
$DDT_AUDIT_GENERATED_(D3)
  6
Continuous
 62
     7
100
AcDbCircle
 10
143.1499486942
 20
236.0205898745
 30
0.0
 40
0.4999999999999921
100
AcDbArc
 50
1.0
 51
91.0
  0
LINE
  5
353
330
2F0
100
AcDbEntity
  8
$DDT_AUDIT_GENERATED_(D3)
  6
Continuous
 62
     7
100
AcDbLine
 10
136.9938710938
 20
386.4360605109
 30
0.0
 11
138.1665189142
 21
386.4565291548
 31
0.0
  0
LINE
  5
354
330
2F0
100
AcDbEntity
  8
$DDT_AUDIT_GENERATED_(D3)
  6
Continuous
 62
     7
100
AcDbLine
 10
138.1665189142
 20
386.4565291548
 30
0.0
 11
140.066229535
 21
386.489688727
 31
0.0
  0
LINE
  5
355
330
2F0
100
AcDbEntity
  8
$DDT_AUDIT_GENERATED_(D3)
  6
Continuous
 62
     7
100
AcDbLine
 10
153.9850480497
 20
200.2042334277
 30
0.0
 11
153.819251567
 21
209.702707559
 31
0.0
  0
LINE
  5
356
330
2F0
100
AcDbEntity
  8
$DDT_AUDIT_GENERATED_(D3)
  6
Continuous
 62
     7
100
AcDbLine
 10
126.2923064287
 20
209.2222229443
 30
0.0
 11
126.4581029114
 21
199.723748813
 31
0.0
  0
LINE
  5
357
330
2F0
100
AcDbEntity
  8
$DDT_AUDIT_GENERATED_(D3)
  6
Continuous
 62
     7
100
AcDbLine
 10
153.818110917
 20
209.7039197652
 30
0.0
 11
143.937837248
 21
219.5318291077
 31
0.0
  0
LINE
  5
358
330
2F0
100
AcDbEntity
  8
$DDT_AUDIT_GENERATED_(D3)
  6
Continuous
 62
     7
100
AcDbLine
 10
135.824669862
 20
219.3902132442
 30
0.0
 11
126.2934040785
 21
209.2234742202
 31
0.0
  0
ARC
  5
359
330
2F0
100
AcDbEntity
  8
$DDT_AUDIT_GENERATED_(D3)
  6
Continuous
 62
     7
100
AcDbCircle
 10
158.029211162
 20
199.2746722294
 30
0.0
 40
0.4999999999999985
100
AcDbArc
 50
1.0
 51
91.0
  0
LINE
  5
35A
330
2F0
100
AcDbEntity
  8
$DDT_AUDIT_GENERATED_(D3)
  6
Continuous
 62
     7
100
AcDbLine
 10
158.6251232449
 20
193.7842361092
 30
0.0
 11
158.5291350095
 21
199.2833984326
 31
0.0
  0
ARC
  5
35B
330
2F0
100
AcDbEntity
  8
$DDT_AUDIT_GENERATED_(D3)
  6
Continuous
 62
     7
100
AcDbCircle
 10
158.1251993974
 20
193.775509906
 30
0.0
 40
0.4999999999999919
100
AcDbArc
 50
271.0
 51
1.0
  0
ARC
  5
35C
330
2F0
100
AcDbEntity
  8
$DDT_AUDIT_GENERATED_(D3)
  6
Continuous
 62
     7
100
AcDbCircle
 10
122.448844612
 20
198.6536146211
 30
0.0
 40
0.4999999999999919
100
AcDbArc
 50
91.0
 51
181.0
  0
LINE
  5
35D
330
2F0
100
AcDbEntity
  8
$DDT_AUDIT_GENERATED_(D3)
  6
Continuous
 62
     7
100
AcDbLine
 10
121.9489207644
 20
198.6448884179
 30
0.0
 11
122.0449089998
 21
193.1457260945
 31
0.0
  0
ARC
  5
35E
330
2F0
100
AcDbEntity
  8
$DDT_AUDIT_GENERATED_(D3)
  6
Continuous
 62
     7
100
AcDbCircle
 10
122.5448328474
 20
193.1544522977
 30
0.0
 40
0.4999999999999985
100
AcDbArc
 50
181.0
 51
271.0
  0
ARC
  5
35F
330
2F0
100
AcDbEntity
  8
$DDT_AUDIT_GENERATED_(D3)
  6
Continuous
 62
     7
100
AcDbCircle
 10
154.4849718973
 20
200.2129596309
 30
0.0
 40
0.499999999999992
100
AcDbArc
 50
181.0
 51
271.0
  0
ARC
  5
360
330
2F0
100
AcDbEntity
  8
$DDT_AUDIT_GENERATED_(D3)
  6
Continuous
 62
     7
100
AcDbCircle
 10
125.9581790638
 20
199.7150226098
 30
0.0
 40
0.5000000000000008
100
AcDbArc
 50
271.0
 51
1.0
  0
LINE
  5
361
330
2F0
100
AcDbEntity
  8
$DDT_AUDIT_GENERATED_(D3)
  6
Continuous
 62
     7
100
AcDbLine
 10
133.9070034562
 20
384.0996457614
 30
0.0
 11
136.4850347906
 21
236.4043295336
 31
0.0
  0
LINE
  5
362
330
2F0
100
AcDbEntity
  8
$DDT_AUDIT_GENERATED_(D3)
  6
Continuous
 62
     7
100
AcDbLine
 10
142.6840905006
 20
236.5125344535
 30
0.0
 11
140.066229535
 21
386.489688727
 31
0.0
  0
LINE
  5
363
330
2F0
100
AcDbEntity
  8
$DDT_AUDIT_GENERATED_(D3)
  6
Continuous
 62
     7
100
AcDbLine
 10
151.2759803852
 20
182.1542045709
 30
0.0
 11
148.2764372997
 21
182.1018473516
 31
0.0
  0
LINE
  5
364
330
2F0
100
AcDbEntity
  8
$DDT_AUDIT_GENERATED_(D3)
  6
Continuous
 62
     7
100
AcDbLine
 10
148.0844608289
 20
193.1001719984
 30
0.0
 11
148.2764372997
 21
182.1018473516
 31
0.0
  0
LINE
  5
365
330
2F0
100
AcDbEntity
  8
$DDT_AUDIT_GENERATED_(D3)
  6
Continuous
 62
     7
100
AcDbLine
 10
151.2759803852
 20
182.1542045709
 30
0.0
 11
151.0840039144
 21
193.1525292177
 31
0.0
  0
LINE
  5
366
330
2F0
100
AcDbEntity
  8
$DDT_AUDIT_GENERATED_(D3)
  6
Continuous
 62
     7
100
AcDbLine
 10
132.7950002931
 20
181.8316178635
 30
0.0
 11
129.7954572076
 21
181.7792606442
 31
0.0
  0
ARC
  5
367
330
2F0
100
AcDbEntity
  8
$DDT_AUDIT_GENERATED_(D3)
  6
Continuous
 62
     7
100
AcDbCircle
 10
131.399943189
 20
175.8063530829
 30
0.0
 40
1.5
100
AcDbArc
 50
181.0
 51
1.0
  0
LINE
  5
368
330
2F0
100
AcDbEntity
  8
$DDT_AUDIT_GENERATED_(D3)
  6
Continuous
 62
     7
100
AcDbLine
 10
129.7954572076
 20
181.7792606442
 30
0.0
 11
129.9001716462
 21
175.7801744732
 31
0.0
  0
LINE
  5
369
330
2F0
100
AcDbEntity
  8
$DDT_AUDIT_GENERATED_(D3)
  6
Continuous
 62
     7
100
AcDbLine
 10
132.8997147317
 20
175.8325316926
 30
0.0
 11
132.7950002931
 21
181.8316178635
 31
0.0
  0
LINE
  5
36A
330
2F0
100
AcDbEntity
  8
$DDT_AUDIT_GENERATED_(D3)
  6
Continuous
 62
     7
100
AcDbLine
 10
151.2759803852
 20
182.1542045709
 30
0.0
 11
148.2764372997
 21
182.1018473516
 31
0.0
  0
ARC
  5
36B
330
2F0
100
AcDbEntity
  8
$DDT_AUDIT_GENERATED_(D3)
  6
Continuous
 62
     7
100
AcDbCircle
 10
149.8809232811
 20
176.1289397903
 30
0.0
 40
1.5
100
AcDbArc
 50
181.0
 51
1.0
  0
LINE
  5
36C
330
2F0
100
AcDbEntity
  8
$DDT_AUDIT_GENERATED_(D3)
  6
Continuous
 62
     7
100
AcDbLine
 10
148.2764372997
 20
182.1018473516
 30
0.0
 11
148.3811517383
 21
176.1027611807
 31
0.0
  0
LINE
  5
36D
330
2F0
100
AcDbEntity
  8
$DDT_AUDIT_GENERATED_(D3)
  6
Continuous
 62
     7
100
AcDbLine
 10
151.3806948238
 20
176.1551184
 30
0.0
 11
151.2759803852
 21
182.1542045709
 31
0.0
  0
LINE
  5
36E
330
2F0
100
AcDbEntity
  8
$DDT_AUDIT_GENERATED_(D3)
  6
Continuous
 62
     7
100
AcDbLine
 10
132.7950002931
 20
181.8316178635
 30
0.0
 11
129.7954572076
 21
181.7792606442
 31
0.0
  0
LINE
  5
36F
330
2F0
100
AcDbEntity
  8
$DDT_AUDIT_GENERATED_(D3)
  6
Continuous
 62
     7
100
AcDbLine
 10
129.6034807368
 20
192.7775852909
 30
0.0
 11
129.7954572076
 21
181.7792606442
 31
0.0
  0
LINE
  5
370
330
2F0
100
AcDbEntity
  8
$DDT_AUDIT_GENERATED_(D3)
  6
Continuous
 62
     7
100
AcDbLine
 10
132.7950002931
 20
181.8316178635
 30
0.0
 11
132.6030238223
 21
192.8299425102
 31
0.0
  0
LINE
  5
371
330
2F0
100
AcDbEntity
  8
$DDT_AUDIT_GENERATED_(136)
  6
Continuous
 62
     7
100
AcDbLine
 10
136.4022644653
 20
671.2519073245
 30
0.0
 11
146.6007109559
 21
671.0738927788
 31
0.0
  0
LINE
  5
372
330
2F0
100
AcDbEntity
  8
$DDT_AUDIT_GENERATED_(136)
  6
Continuous
 62
     7
100
AcDbLine
 10
136.3324548396
 20
667.2525165439
 30
0.0
 11
146.5309013302
 21
667.0745019982
 31
0.0
  0
LINE
  5
373
330
2F0
100
AcDbEntity
  8
$DDT_AUDIT_GENERATED_(136)
  6
Continuous
 62
     7
100
AcDbLine
 10
136.9073104938
 20
662.9418273905
 30
0.0
 11
145.8059549807
 21
662.7865009732
 31
0.0
  0
LINE
  5
374
330
2F0
100
AcDbEntity
  8
$DDT_AUDIT_GENERATED_(136)
  6
Continuous
 62
     7
100
AcDbLine
 10
146.0153838579
 20
674.7846733151
 30
0.0
 11
137.116739371
 21
674.9399997324
 31
0.0
  0
LINE
  5
375
330
2F0
100
AcDbEntity
  8
$DDT_AUDIT_GENERATED_(136)
  6
Continuous
 62
     7
100
AcDbLine
 10
143.7379162346
 20
681.8254929566
 30
0.0
 11
143.6907947372
 21
679.1259041797
 31
0.0
  0
LINE
  5
376
330
2F0
100
AcDbEntity
  8
$DDT_AUDIT_GENERATED_(136)
  6
Continuous
 62
     7
100
AcDbLine
 10
143.7379162346
 20
681.8254929566
 30
0.0
 11
137.3888833704
 21
681.9363157375
 31
0.0
  0
LINE
  5
377
330
2F0
100
AcDbEntity
  8
$DDT_AUDIT_GENERATED_(136)
  6
Continuous
 62
     7
100
AcDbLine
 10
143.608881968
 20
683.0279280518
 30
0.0
 11
137.5598034124
 21
683.1335151107
 31
0.0
  0
LINE
  5
378
330
2F0
100
AcDbEntity
  8
$DDT_AUDIT_GENERATED_(136)
  6
Continuous
 62
     7
100
AcDbLine
 10
143.5879390803
 20
681.8281108176
 30
0.0
 11
143.608881968
 21
683.0279280518
 31
0.0
  0
LINE
  5
379
330
2F0
100
AcDbEntity
  8
$DDT_AUDIT_GENERATED_(136)
  6
Continuous
 62
     7
100
AcDbLine
 10
143.6506542024
 20
676.8262544809
 30
0.0
 11
137.3016213382
 21
676.9370772617
 31
0.0
  0
LINE
  5
37A
330
2F0
100
AcDbEntity
  8
$DDT_AUDIT_GENERATED_(136)
  6
Continuous
 62
     7
100
AcDbLine
 10
143.5006770481
 20
676.8288723418
 30
0.0
 11
143.4657722353
 21
674.8291769515
 31
0.0
  0
LINE
  5
37B
330
2F0
100
AcDbEntity
  8
$DDT_AUDIT_GENERATED_(136)
  6
Continuous
 62
     7
100
AcDbLine
 10
143.6558899243
 20
677.1262087894
 30
0.0
 11
143.6506542024
 21
676.8262544809
 31
0.0
  0
LINE
  5
37C
330
2F0
100
AcDbEntity
  8
$DDT_AUDIT_GENERATED_(136)
  6
Continuous
 62
     7
100
AcDbLine
 10
143.6907947372
 20
679.1259041797
 30
0.0
 11
137.341761873
 21
679.2367269606
 31
0.0
  0
LINE
  5
37D
330
2F0
100
AcDbEntity
  8
$DDT_AUDIT_GENERATED_(136)
  6
Continuous
 62
     7
100
AcDbLine
 10
143.6558899243
 20
677.1262087894
 30
0.0
 11
137.3068570601
 21
677.2370315703
 31
0.0
  0
LINE
  5
37E
330
2F0
100
AcDbEntity
  8
$DDT_AUDIT_GENERATED_(136)
  6
Continuous
 62
     7
100
AcDbLine
 10
143.5408175829
 20
679.1285220407
 30
0.0
 11
143.5059127701
 21
677.1288266504
 31
0.0
  0
LINE
  5
37F
330
2F0
100
AcDbEntity
  8
$DDT_AUDIT_GENERATED_(136)
  6
Continuous
 62
     7
100
AcDbLine
 10
137.3286985124
 20
658.4337865591
 30
0.0
 11
145.2274953041
 21
658.2959125482
 31
0.0
  0
LINE
  5
380
330
2F0
100
AcDbEntity
  8
$DDT_AUDIT_GENERATED_(136)
  6
Continuous
 62
     7
100
AcDbLine
 10
138.6650370285
 20
651.9094705512
 30
0.0
 11
143.6642755043
 21
651.8222085191
 31
0.0
  0
LINE
  5
381
330
2F0
100
AcDbEntity
  8
$DDT_AUDIT_GENERATED_(136)
  6
Continuous
 62
     7
100
AcDbLine
 10
146.5309013302
 20
667.0745019982
 30
0.0
 11
146.6007109559
 21
671.0738927788
 31
0.0
  0
LINE
  5
382
330
2F0
100
AcDbEntity
  8
$DDT_AUDIT_GENERATED_(136)
  6
Continuous
 62
     7
100
AcDbLine
 10
136.4022644653
 20
671.2519073245
 30
0.0
 11
136.3324548396
 21
667.2525165439
 31
0.0
  0
LINE
  5
383
330
2F0
100
AcDbEntity
  8
$DDT_AUDIT_GENERATED_(136)
  6
Continuous
 62
     7
100
AcDbLine
 10
136.3324548396
 20
667.2525165439
 30
0.0
 11
136.9073104938
 21
662.9418273905
 31
0.0
  0
LINE
  5
384
330
2F0
100
AcDbEntity
  8
$DDT_AUDIT_GENERATED_(136)
  6
Continuous
 62
     7
100
AcDbLine
 10
145.8059549807
 20
662.7865009732
 30
0.0
 11
146.5309013302
 21
667.0745019982
 31
0.0
  0
LINE
  5
385
330
2F0
100
AcDbEntity
  8
$DDT_AUDIT_GENERATED_(136)
  6
Continuous
 62
     7
100
AcDbLine
 10
145.7361453549
 20
658.7871101926
 30
0.0
 11
145.8059549807
 21
662.7865009732
 31
0.0
  0
LINE
  5
386
330
2F0
100
AcDbEntity
  8
$DDT_AUDIT_GENERATED_(136)
  6
Continuous
 62
     7
100
AcDbLine
 10
136.9073104938
 20
662.9418273905
 30
0.0
 11
136.837500868
 21
658.9424366099
 31
0.0
  0
LINE
  5
387
330
2F0
100
AcDbEntity
  8
$DDT_AUDIT_GENERATED_(136)
  6
Continuous
 62
     7
100
AcDbLine
 10
143.6642755043
 20
651.8222085191
 30
0.0
 11
143.7777161461
 21
658.3212185376
 31
0.0
  0
LINE
  5
388
330
2F0
100
AcDbEntity
  8
$DDT_AUDIT_GENERATED_(136)
  6
Continuous
 62
     7
100
AcDbLine
 10
138.7784776704
 20
658.4084805698
 30
0.0
 11
138.6650370285
 21
651.9094705512
 31
0.0
  0
LINE
  5
389
330
2F0
100
AcDbEntity
  8
$DDT_AUDIT_GENERATED_(136)
  6
Continuous
 62
     7
100
AcDbLine
 10
145.9508099541
 20
671.085236843
 30
0.0
 11
146.0153838579
 21
674.7846733151
 31
0.0
  0
LINE
  5
38A
330
2F0
100
AcDbEntity
  8
$DDT_AUDIT_GENERATED_(136)
  6
Continuous
 62
     7
100
AcDbLine
 10
137.116739371
 20
674.9399997324
 30
0.0
 11
137.0521654672
 21
671.2405632603
 31
0.0
  0
LINE
  5
38B
330
2F0
100
AcDbEntity
  8
$DDT_AUDIT_GENERATED_(136)
  6
Continuous
 62
     7
100
AcDbLine
 10
137.3888833704
 20
681.9363157375
 30
0.0
 11
137.341761873
 21
679.2367269606
 31
0.0
  0
LINE
  5
38C
330
2F0
100
AcDbEntity
  8
$DDT_AUDIT_GENERATED_(136)
  6
Continuous
 62
     7
100
AcDbLine
 10
137.5598034124
 20
683.1335151107
 30
0.0
 11
137.5388605246
 21
681.9336978766
 31
0.0
  0
LINE
  5
38D
330
2F0
100
AcDbEntity
  8
$DDT_AUDIT_GENERATED_(136)
  6
Continuous
 62
     7
100
AcDbLine
 10
137.4515984924
 20
676.9344594008
 30
0.0
 11
137.4166936796
 21
674.9347640105
 31
0.0
  0
LINE
  5
38E
330
2F0
100
AcDbEntity
  8
$DDT_AUDIT_GENERATED_(136)
  6
Continuous
 62
     7
100
AcDbLine
 10
137.3068570601
 20
677.2370315703
 30
0.0
 11
137.3016213382
 21
676.9370772617
 31
0.0
  0
LINE
  5
38F
330
2F0
100
AcDbEntity
  8
$DDT_AUDIT_GENERATED_(136)
  6
Continuous
 62
     7
100
AcDbLine
 10
137.4917390272
 20
679.2341090996
 30
0.0
 11
137.4568342144
 21
677.2344137093
 31
0.0
  0
ARC
  5
390
330
2F0
100
AcDbEntity
  8
$DDT_AUDIT_GENERATED_(136)
  6
Continuous
 62
     7
100
AcDbCircle
 10
145.2362215073
 20
658.7958363958
 30
0.0
 40
0.4999999999999919
100
AcDbArc
 50
269.0
 51
359.0
  0
ARC
  5
391
330
2F0
100
AcDbEntity
  8
$DDT_AUDIT_GENERATED_(136)
  6
Continuous
 62
     7
100
AcDbCircle
 10
137.3374247156
 20
658.9337104067
 30
0.0
 40
0.5000000000000008
100
AcDbArc
 50
179.0
 51
269.0
  0
LINE
  5
392
330
2F0
100
AcDbEntity
  8
$DDT_AUDIT_GENERATED_(17A)
  6
Continuous
 62
     7
100
AcDbLine
 10
136.2878440781
 20
458.421489132
 30
0.0
 11
139.2873871635
 21
458.3691319127
 31
0.0
  0
LINE
  5
393
330
2F0
100
AcDbEntity
  8
$DDT_AUDIT_GENERATED_(17A)
  6
Continuous
 62
     7
100
AcDbLine
 10
139.6648847237
 20
651.8920181448
 30
0.0
 11
136.2878440781
 21
458.421489132
 31
0.0
  0
LINE
  5
394
330
2F0
100
AcDbEntity
  8
$DDT_AUDIT_GENERATED_(17A)
  6
Continuous
 62
     7
100
AcDbLine
 10
139.2873871635
 20
458.3691319127
 30
0.0
 11
142.6644278091
 21
651.8396609255
 31
0.0
  0
LINE
  5
395
330
2F0
100
AcDbEntity
  8
$DDT_AUDIT_GENERATED_(17E)
  6
Continuous
 62
     7
100
AcDbLine
 10
140.7679610592
 20
457.2431208384
 30
0.0
 11
137.8207672188
 21
457.2945642982
 31
0.0
  0
LINE
  5
396
330
2F0
100
AcDbEntity
  8
$DDT_AUDIT_GENERATED_(17E)
  6
Continuous
 62
     7
100
AcDbLine
 10
139.2873871635
 20
458.3691319127
 30
0.0
 11
136.2878440781
 21
458.421489132
 31
0.0
  0
LINE
  5
397
330
2F0
100
AcDbEntity
  8
$DDT_AUDIT_GENERATED_(17E)
  6
Continuous
 62
     7
100
AcDbLine
 10
131.9042419104
 20
455.7975939068
 30
0.0
 11
131.8771906804
 21
455.7980660878
 31
0.0
  0
LINE
  5
398
330
2F0
100
AcDbEntity
  8
$DDT_AUDIT_GENERATED_(17E)
  6
Continuous
 62
     7
100
AcDbLine
 10
131.9120954933
 20
457.7977614781
 30
0.0
 11
131.9050244256
 21
457.3926602813
 31
0.0
  0
LINE
  5
399
330
2F0
100
AcDbEntity
  8
$DDT_AUDIT_GENERATED_(17E)
  6
Continuous
 62
     7
100
AcDbLine
 10
131.8806811617
 20
455.9980356268
 30
0.0
 11
131.8877522294
 21
456.4031368236
 31
0.0
  0
LINE
  5
39A
330
2F0
100
AcDbEntity
  8
$DDT_AUDIT_GENERATED_(17E)
  6
Continuous
 62
     7
100
AcDbLine
 10
131.9120954933
 20
457.7977614781
 30
0.0
 11
131.9155859746
 21
457.9977310171
 31
0.0
  0
LINE
  5
39B
330
2F0
100
AcDbEntity
  8
$DDT_AUDIT_GENERATED_(17E)
  6
Continuous
 62
     7
100
AcDbLine
 10
131.8771906804
 20
455.7980660878
 30
0.0
 11
131.8806811617
 21
455.9980356268
 31
0.0
  0
LINE
  5
39C
330
2F0
100
AcDbEntity
  8
$DDT_AUDIT_GENERATED_(17E)
  6
Continuous
 62
     7
100
AcDbLine
 10
131.9155859746
 20
457.9977310171
 30
0.0
 11
137.8294634555
 21
457.8945039017
 31
0.0
  0
LINE
  5
39D
330
2F0
100
AcDbEntity
  8
$DDT_AUDIT_GENERATED_(17E)
  6
Continuous
 62
     7
100
AcDbLine
 10
137.8294634555
 20
457.8945039017
 30
0.0
 11
140.578462964
 21
457.8465199368
 31
0.0
  0
LINE
  5
39E
330
2F0
100
AcDbEntity
  8
$DDT_AUDIT_GENERATED_(17E)
  6
Continuous
 62
     7
100
AcDbLine
 10
137.8277481813
 20
457.6945033763
 30
0.0
 11
137.8207672188
 21
457.2945642982
 31
0.0
  0
ARC
  5
39F
330
2F0
100
AcDbEntity
  8
$DDT_AUDIT_GENERATED_(17E)
  6
Continuous
 62
     7
100
AcDbCircle
 10
132.2436281573
 20
457.8424023528
 30
0.0
 40
5.586078279985369
100
AcDbArc
 50
358.4828394668
 51
0.534407502
  0
LINE
  5
3A0
330
2F0
100
AcDbEntity
  8
$DDT_AUDIT_GENERATED_(17E)
  6
Continuous
 62
     7
100
AcDbLine
 10
131.9042419104
 20
457.3478300152
 30
0.0
 11
131.9050244256
 21
457.3926602813
 31
0.0
  0
LINE
  5
3A1
330
2F0
100
AcDbEntity
  8
$DDT_AUDIT_GENERATED_(17E)
  6
Continuous
 62
     7
100
AcDbLine
 10
131.9050244256
 20
457.3926602813
 30
0.0
 11
137.8207672188
 21
457.2945642982
 31
0.0
  0
LINE
  5
3A2
330
2F0
100
AcDbEntity
  8
$DDT_AUDIT_GENERATED_(17E)
  6
Continuous
 62
     7
100
AcDbLine
 10
131.8885347446
 20
456.4479670896
 30
0.0
 11
131.9042419104
 21
457.3478300152
 31
0.0
  0
LINE
  5
3A3
330
2F0
100
AcDbEntity
  8
$DDT_AUDIT_GENERATED_(17E)
  6
Continuous
 62
     7
100
AcDbLine
 10
131.8885347446
 20
456.4479670896
 30
0.0
 11
131.9042419104
 21
456.44769292
 31
0.0
  0
LINE
  5
3A4
330
2F0
100
AcDbEntity
  8
$DDT_AUDIT_GENERATED_(17E)
  6
Continuous
 62
     7
100
AcDbLine
 10
131.9042419104
 20
456.4028346013
 30
0.0
 11
131.8877522294
 21
456.4031368236
 31
0.0
  0
LINE
  5
3A5
330
2F0
100
AcDbEntity
  8
$DDT_AUDIT_GENERATED_(17E)
  6
Continuous
 62
     7
100
AcDbLine
 10
131.8877522294
 20
456.4031368236
 30
0.0
 11
131.8885347446
 21
456.4479670896
 31
0.0
  0
LINE
  5
3A6
330
2F0
100
AcDbEntity
  8
$DDT_AUDIT_GENERATED_(17E)
  6
Continuous
 62
     7
100
AcDbLine
 10
140.7679610592
 20
457.2431208384
 30
0.0
 11
140.7749420218
 21
457.6430599165
 31
0.0
  0
LINE
  5
3A7
330
2F0
100
AcDbEntity
  8
$DDT_AUDIT_GENERATED_(17E)
  6
Continuous
 62
     7
100
AcDbLine
 10
136.2878440781
 20
458.421489132
 30
0.0
 11
136.2791178748
 21
457.9215652845
 31
0.0
  0
LINE
  5
3A8
330
2F0
100
AcDbEntity
  8
$DDT_AUDIT_GENERATED_(17E)
  6
Continuous
 62
     7
100
AcDbLine
 10
139.2786609603
 20
457.8692080652
 30
0.0
 11
139.2873871635
 21
458.3691319127
 31
0.0
  0
ARC
  5
3A9
330
2F0
100
AcDbEntity
  8
$DDT_AUDIT_GENERATED_(17E)
  6
Continuous
 62
     7
100
AcDbCircle
 10
140.5749724827
 20
457.6465503978
 30
0.0
 40
0.2000000000000009
100
AcDbArc
 50
359.0
 51
89.0
  0
LINE
  5
3AA
330
2F0
100
AcDbEntity
  8
$DDT_AUDIT_GENERATED_(17E)
  6
Continuous
 62
     7
100
AcDbLine
 10
139.7672407437
 20
457.2105808601
 30
0.0
 11
140.7679610592
 21
457.2431208384
 31
0.0
  0
LINE
  5
3AB
330
2F0
100
AcDbEntity
  8
$DDT_AUDIT_GENERATED_(193)
  6
Continuous
 62
     7
100
AcDbLine
 10
139.6990565021
 20
388.483584354
 30
0.0
 11
142.4454011053
 21
388.5315219773
 31
0.0
  0
LINE
  5
3AC
330
2F0
100
AcDbEntity
  8
$DDT_AUDIT_GENERATED_(193)
  6
Continuous
 62
     7
100
AcDbLine
 10
138.1665189142
 20
386.4565291548
 30
0.0
 11
140.066229535
 21
386.489688727
 31
0.0
  0
LINE
  5
3AD
330
2F0
100
AcDbEntity
  8
$DDT_AUDIT_GENERATED_(193)
  6
Continuous
 62
     7
100
AcDbLine
 10
138.1665189142
 20
386.4565291548
 30
0.0
 11
136.9938710938
 21
386.4360605109
 31
0.0
  0
LINE
  5
3AE
330
2F0
100
AcDbEntity
  8
$DDT_AUDIT_GENERATED_(193)
  6
Continuous
 62
     7
100
AcDbLine
 10
142.9365987497
 20
389.0401720281
 30
0.0
 11
142.91042014
 21
390.5399435709
 31
0.0
  0
ARC
  5
3AF
330
2F0
100
AcDbEntity
  8
$DDT_AUDIT_GENERATED_(193)
  6
Continuous
 62
     7
100
AcDbCircle
 10
142.4366749021
 20
389.0314458249
 30
0.0
 40
0.4999999999999988
100
AcDbArc
 50
271.0
 51
1.0
  0
LINE
  5
3B0
330
2F0
100
AcDbEntity
  8
$DDT_AUDIT_GENERATED_(193)
  6
Continuous
 62
     7
100
AcDbLine
 10
140.066229535
 20
386.489688727
 30
0.0
 11
140.0313247221
 21
388.4893841173
 31
0.0
  0
LINE
  5
3B1
330
2F0
100
AcDbEntity
  8
$DDT_AUDIT_GENERATED_(1A4)
  6
Continuous
 62
     7
100
AcDbLine
 10
151.9216943168
 20
390.6972359467
 30
0.0
 11
131.9042419104
 21
390.3478300152
 31
0.0
  0
LINE
  5
3B2
330
2F0
100
AcDbEntity
  8
$DDT_AUDIT_GENERATED_(1A4)
  6
Continuous
 62
     7
100
AcDbLine
 10
131.9042419104
 20
456.3479823201
 30
0.0
 11
131.9042419104
 21
391.3476777104
 31
0.0
  0
LINE
  5
3B3
330
2F0
100
AcDbEntity
  8
$DDT_AUDIT_GENERATED_(1A4)
  6
Continuous
 62
     7
100
AcDbLine
 10
131.9042419104
 20
456.3479823201
 30
0.0
 11
131.9042419104
 21
457.3478300152
 31
0.0
  0
LINE
  5
3B4
330
2F0
100
AcDbEntity
  8
$DDT_AUDIT_GENERATED_(1A4)
  6
Continuous
 62
     7
100
AcDbLine
 10
131.9042419104
 20
390.3478300152
 30
0.0
 11
131.9042419104
 21
391.3476777104
 31
0.0
  0
LINE
  5
3B5
330
2F0
100
AcDbEntity
  8
$DDT_AUDIT_GENERATED_(1A4)
  6
Continuous
 62
     7
100
AcDbLine
 10
131.9042419104
 20
457.3478300152
 30
0.0
 11
151.9216943168
 21
456.9984240838
 31
0.0
  0
LINE
  5
3B6
330
2F0
100
AcDbEntity
  8
$DDT_AUDIT_GENERATED_(1A4)
  6
Continuous
 62
     7
100
AcDbLine
 10
152.9042419104
 20
455.9985763886
 30
0.0
 11
152.9042419104
 21
391.6970836419
 31
0.0
  0
ARC
  5
3B7
330
2F0
100
AcDbEntity
  8
$DDT_AUDIT_GENERATED_(1A4)
  6
Continuous
 62
     7
100
AcDbCircle
 10
151.9042419104
 20
455.9985763886
 30
0.0
 40
1.000000000000001
100
AcDbArc
 50
0.0
 51
89.0
  0
ARC
  5
3B8
330
2F0
100
AcDbEntity
  8
$DDT_AUDIT_GENERATED_(1A4)
  6
Continuous
 62
     7
100
AcDbCircle
 10
151.9042419104
 20
391.6970836419
 30
0.0
 40
0.9999999999999979
100
AcDbArc
 50
271.0
 51
0.0
  0
LINE
  5
3B9
330
2F0
100
AcDbEntity
  8
$DDT_AUDIT_GENERATED_(1A4)
  6
Continuous
 62
     7
100
AcDbLine
 10
155.4086051781
 20
435.043504659
 30
0.0
 11
153.3998786426
 21
435.0259747681
 31
0.0
  0
LINE
  5
3BA
330
2F0
100
AcDbEntity
  8
$DDT_AUDIT_GENERATED_(1A4)
  6
Continuous
 62
     7
100
AcDbLine
 10
153.3998786426
 20
447.0696852624
 30
0.0
 11
155.4086051781
 21
447.0521553715
 31
0.0
  0
LINE
  5
3BB
330
2F0
100
AcDbEntity
  8
$DDT_AUDIT_GENERATED_(1A4)
  6
Continuous
 62
     7
100
AcDbLine
 10
155.9042419104
 20
446.55217441
 30
0.0
 11
155.9042419104
 21
435.5434856205
 31
0.0
  0
ARC
  5
3BC
330
2F0
100
AcDbEntity
  8
$DDT_AUDIT_GENERATED_(1A4)
  6
Continuous
 62
     7
100
AcDbCircle
 10
155.4042419104
 20
435.5434856205
 30
0.0
 40
0.5000000000000004
100
AcDbArc
 50
270.5
 51
0.0
  0
ARC
  5
3BD
330
2F0
100
AcDbEntity
  8
$DDT_AUDIT_GENERATED_(1A4)
  6
Continuous
 62
     7
100
AcDbCircle
 10
155.4042419104
 20
446.55217441
 30
0.0
 40
0.4999999999999946
100
AcDbArc
 50
0.0
 51
89.5
  0
ARC
  5
3BE
330
2F0
100
AcDbEntity
  8
$DDT_AUDIT_GENERATED_(1A4)
  6
Continuous
 62
     7
100
AcDbCircle
 10
153.4042419104
 20
434.5259938066
 30
0.0
 40
0.500000000000012
100
AcDbArc
 50
90.5
 51
180.0
  0
ARC
  5
3BF
330
2F0
100
AcDbEntity
  8
$DDT_AUDIT_GENERATED_(1A4)
  6
Continuous
 62
     7
100
AcDbCircle
 10
153.4042419104
 20
447.5696662239
 30
0.0
 40
0.499999999999997
100
AcDbArc
 50
180.0
 51
269.5
  0
LINE
  5
3C0
330
2F0
100
AcDbEntity
  8
$DDT_AUDIT_GENERATED_(1A4)
  6
Continuous
 62
     7
100
AcDbLine
 10
131.9042419104
 20
457.8478300181
 30
0.0
 11
131.9042419104
 21
470.8478300152
 31
0.0
  0
LINE
  5
3C1
330
2F0
100
AcDbEntity
  8
$DDT_AUDIT_GENERATED_(1A4)
  6
Continuous
 62
     7
100
AcDbLine
 10
131.9042419104
 20
389.8478300123
 30
0.0
 11
131.9042419104
 21
390.3478300152
 31
0.0
  0
LINE
  5
3C2
330
2F0
100
AcDbEntity
  8
$DDT_AUDIT_GENERATED_(1A4)
  6
Continuous
 62
     7
100
AcDbLine
 10
131.9042419104
 20
457.3478300152
 30
0.0
 11
131.9042419104
 21
457.8478300181
 31
0.0
  0
ARC
  5
3C3
330
2F0
100
AcDbEntity
  8
$DDT_AUDIT_GENERATED_(1A4)
  6
Continuous
 62
     7
100
AcDbCircle
 10
147.6415387014
 20
457.573210642
 30
0.0
 40
0.5000000000000138
100
AcDbArc
 50
224.5
 51
269.0
  0
LINE
  5
3C4
330
2F0
100
AcDbEntity
  8
$DDT_AUDIT_GENERATED_(1A4)
  6
Continuous
 62
     7
100
AcDbLine
 10
133.5511997341
 20
471.1982846474
 30
0.0
 11
136.4592106119
 21
468.2390712793
 31
0.0
  0
LINE
  5
3C5
330
2F0
100
AcDbEntity
  8
$DDT_AUDIT_GENERATED_(1A4)
  6
Continuous
 62
     7
100
AcDbLine
 10
139.4073024012
 20
465.2390712793
 30
0.0
 11
146.5718153267
 21
457.9484099593
 31
0.0
  0
LINE
  5
3C6
330
2F0
100
AcDbEntity
  8
$DDT_AUDIT_GENERATED_(1A4)
  6
Continuous
 62
     7
100
AcDbLine
 10
146.5718153267
 20
457.9484099593
 30
0.0
 11
147.2849134768
 21
457.2227560098
 31
0.0
  0
LINE
  5
3C7
330
2F0
100
AcDbEntity
  8
$DDT_AUDIT_GENERATED_(1A4)
  6
Continuous
 62
     7
100
AcDbLine
 10
131.9042419104
 20
384.2191113074
 30
0.0
 11
131.9042419104
 21
389.8478300123
 31
0.0
  0
LINE
  5
3C8
330
2F0
100
AcDbEntity
  8
$DDT_AUDIT_GENERATED_(1A4)
  6
Continuous
 62
     7
100
AcDbLine
 10
131.9042419104
 20
383.7191113074
 30
0.0
 11
131.9042419104
 21
384.2191113074
 31
0.0
  0
LINE
  5
3C9
330
2F0
100
AcDbEntity
  8
$DDT_AUDIT_GENERATED_(1A4)
  6
Continuous
 62
     7
100
AcDbLine
 10
131.9042419104
 20
470.8478300152
 30
0.0
 11
131.9042419104
 21
471.3478300152
 31
0.0
  0
LINE
  5
3CA
330
2F0
100
AcDbEntity
  8
$DDT_AUDIT_GENERATED_(1A4)
  6
Continuous
 62
     7
100
AcDbLine
 10
131.9042419104
 20
471.3478300152
 30
0.0
 11
133.1945745095
 21
471.3478300152
 31
0.0
  0
ARC
  5
3CB
330
2F0
100
AcDbEntity
  8
$DDT_AUDIT_GENERATED_(1A4)
  6
Continuous
 62
     7
100
AcDbCircle
 10
133.1945745095
 20
470.8478300152
 30
0.0
 40
0.5000000000000004
100
AcDbArc
 50
44.5
 51
90.0
  0
LINE
  5
3CC
330
2F0
100
AcDbEntity
  8
$DDT_AUDIT_GENERATED_(1A4)
  6
Continuous
 62
     7
100
AcDbLine
 10
133.236353761
 20
383.7191113074
 30
0.0
 11
131.9042419104
 21
383.7191113074
 31
0.0
  0
ARC
  5
3CD
330
2F0
100
AcDbEntity
  8
$DDT_AUDIT_GENERATED_(1A4)
  6
Continuous
 62
     7
100
AcDbCircle
 10
133.236353761
 20
384.2191113074
 30
0.0
 40
0.5000000000000043
100
AcDbArc
 50
270.0
 51
307.1216616153
  0
ARC
  5
3CE
330
2F0
100
AcDbEntity
  8
$DDT_AUDIT_GENERATED_(1A4)
  6
Continuous
 62
     7
100
AcDbCircle
 10
142.5759902238
 20
390.0340299109
 30
0.0
 40
0.5000000000000058
100
AcDbArc
 50
91.0
 51
127.1216616153
  0
LINE
  5
3CF
330
2F0
100
AcDbEntity
  8
$DDT_AUDIT_GENERATED_(1A4)
  6
Continuous
 62
     7
100
AcDbLine
 10
141.1818616336
 20
389.60590257
 30
0.0
 11
133.5381085032
 21
383.8204333978
 31
0.0
  0
LINE
  5
3D0
330
2F0
100
AcDbEntity
  8
$DDT_AUDIT_GENERATED_(1A4)
  6
Continuous
 62
     7
100
AcDbLine
 10
142.2742354816
 20
390.4327078205
 30
0.0
 11
141.1818616336
 21
389.60590257
 31
0.0
  0
LINE
  5
3D1
330
2F0
100
AcDbEntity
  8
$DDT_AUDIT_GENERATED_(1F6)
  6
Continuous
 62
     7
100
AcDbLine
 10
134.5919467034
 20
551.1627115597
 30
0.0
 11
137.9056385238
 21
551.1048708538
 31
0.0
  0
LINE
  5
3D2
330
2F0
100
AcDbEntity
  8
$DDT_AUDIT_GENERATED_(1F6)
  6
Continuous
 62
     7
100
AcDbLine
 10
140.9051816092
 20
551.0525136345
 30
0.0
 11
142.8906825732
 21
551.0178565862
 31
0.0
  0
LINE
  5
3D3
330
2F0
100
AcDbEntity
  8
$DDT_AUDIT_GENERATED_(1F6)
  6
Continuous
 62
     7
100
AcDbLine
 10
134.7664707678
 20
561.1611885112
 30
0.0
 11
138.0801625882
 21
561.1033478054
 31
0.0
  0
LINE
  5
3D4
330
2F0
100
AcDbEntity
  8
$DDT_AUDIT_GENERATED_(1F6)
  6
Continuous
 62
     7
100
AcDbLine
 10
141.0797056736
 20
561.0509905861
 30
0.0
 11
143.0652066376
 21
561.0163335378
 31
0.0
  0
LINE
  5
3D5
330
2F0
100
AcDbEntity
  8
$DDT_AUDIT_GENERATED_(1F6)
  6
Continuous
 62
     7
100
AcDbLine
 10
134.7961398587
 20
562.860929593
 30
0.0
 11
138.1098316791
 21
562.8030888871
 31
0.0
  0
LINE
  5
3D6
330
2F0
100
AcDbEntity
  8
$DDT_AUDIT_GENERATED_(1F6)
  6
Continuous
 62
     7
100
AcDbLine
 10
141.1093747646
 20
562.7507316678
 30
0.0
 11
143.0948757285
 21
562.7160746196
 31
0.0
  0
LINE
  5
3D7
330
2F0
100
AcDbEntity
  8
$DDT_AUDIT_GENERATED_(1F6)
  6
Continuous
 62
     7
100
AcDbLine
 10
134.8362803935
 20
565.1605792919
 30
0.0
 11
138.1499722139
 21
565.102738586
 31
0.0
  0
LINE
  5
3D8
330
2F0
100
AcDbEntity
  8
$DDT_AUDIT_GENERATED_(1F6)
  6
Continuous
 62
     7
100
AcDbLine
 10
141.1495152994
 20
565.0503813667
 30
0.0
 11
143.1350162633
 21
565.0157243184
 31
0.0
  0
LINE
  5
3D9
330
2F0
100
AcDbEntity
  8
$DDT_AUDIT_GENERATED_(1F6)
  6
Continuous
 62
     7
100
AcDbLine
 10
134.8659494845
 20
566.8603203736
 30
0.0
 11
138.1796413048
 21
566.8024796678
 31
0.0
  0
LINE
  5
3DA
330
2F0
100
AcDbEntity
  8
$DDT_AUDIT_GENERATED_(1F6)
  6
Continuous
 62
     7
100
AcDbLine
 10
141.1791843903
 20
566.7501224484
 30
0.0
 11
143.1646853543
 21
566.7154654002
 31
0.0
  0
LINE
  5
3DB
330
2F0
100
AcDbEntity
  8
$DDT_AUDIT_GENERATED_(1F6)
  6
Continuous
 62
     7
100
AcDbLine
 10
134.9095805006
 20
569.3599396115
 30
0.0
 11
138.2232723209
 21
569.3020989056
 31
0.0
  0
LINE
  5
3DC
330
2F0
100
AcDbEntity
  8
$DDT_AUDIT_GENERATED_(1F6)
  6
Continuous
 62
     7
100
AcDbLine
 10
141.2228154064
 20
569.2497416863
 30
0.0
 11
143.2083163704
 21
569.2150846381
 31
0.0
  0
LINE
  5
3DD
330
2F0
100
AcDbEntity
  8
$DDT_AUDIT_GENERATED_(1F6)
  6
Continuous
 62
     7
100
AcDbLine
 10
136.4913783536
 20
574.0330451691
 30
0.0
 11
138.3052986312
 21
574.0013830729
 31
0.0
  0
LINE
  5
3DE
330
2F0
100
AcDbEntity
  8
$DDT_AUDIT_GENERATED_(1F6)
  6
Continuous
 62
     7
100
AcDbLine
 10
141.3048417167
 20
573.9490258536
 30
0.0
 11
141.7905711379
 21
573.940547415
 31
0.0
  0
LINE
  5
3DF
330
2F0
100
AcDbEntity
  8
$DDT_AUDIT_GENERATED_(1F6)
  6
Continuous
 62
     7
100
AcDbLine
 10
136.5856213483
 20
579.4322227229
 30
0.0
 11
138.399541626
 21
579.4005606267
 31
0.0
  0
LINE
  5
3E0
330
2F0
100
AcDbEntity
  8
$DDT_AUDIT_GENERATED_(1F6)
  6
Continuous
 62
     7
100
AcDbLine
 10
141.3990847114
 20
579.3482034074
 30
0.0
 11
141.8848141327
 21
579.3397249688
 31
0.0
  0
LINE
  5
3E1
330
2F0
100
AcDbEntity
  8
$DDT_AUDIT_GENERATED_(1F6)
  6
Continuous
 62
     7
100
AcDbLine
 10
134.7664707678
 20
561.1611885112
 30
0.0
 11
134.5919467034
 21
551.1627115597
 31
0.0
  0
LINE
  5
3E2
330
2F0
100
AcDbEntity
  8
$DDT_AUDIT_GENERATED_(1F6)
  6
Continuous
 62
     7
100
AcDbLine
 10
142.8906825732
 20
551.0178565862
 30
0.0
 11
143.0652066376
 21
561.0163335378
 31
0.0
  0
LINE
  5
3E3
330
2F0
100
AcDbEntity
  8
$DDT_AUDIT_GENERATED_(1F6)
  6
Continuous
 62
     7
100
AcDbLine
 10
134.9421181643
 20
562.6292178447
 30
0.0
 11
134.9204467707
 21
561.3876645376
 31
0.0
  0
LINE
  5
3E4
330
2F0
100
AcDbEntity
  8
$DDT_AUDIT_GENERATED_(1F6)
  6
Continuous
 62
     7
100
AcDbLine
 10
142.919228332
 20
561.2480452861
 30
0.0
 11
142.9408997256
 21
562.4895985932
 31
0.0
  0
LINE
  5
3E5
330
2F0
100
AcDbEntity
  8
$DDT_AUDIT_GENERATED_(1F6)
  6
Continuous
 62
     7
100
AcDbLine
 10
134.8362803935
 20
565.1605792919
 30
0.0
 11
134.7961398587
 21
562.860929593
 31
0.0
  0
LINE
  5
3E6
330
2F0
100
AcDbEntity
  8
$DDT_AUDIT_GENERATED_(1F6)
  6
Continuous
 62
     7
100
AcDbLine
 10
143.0948757285
 20
562.7160746196
 30
0.0
 11
143.1350162633
 21
565.0157243184
 31
0.0
  0
LINE
  5
3E7
330
2F0
100
AcDbEntity
  8
$DDT_AUDIT_GENERATED_(1F6)
  6
Continuous
 62
     7
100
AcDbLine
 10
135.0119277901
 20
566.6286086253
 30
0.0
 11
134.9902563965
 21
565.3870553182
 31
0.0
  0
LINE
  5
3E8
330
2F0
100
AcDbEntity
  8
$DDT_AUDIT_GENERATED_(1F6)
  6
Continuous
 62
     7
100
AcDbLine
 10
142.9890379577
 20
565.2474360667
 30
0.0
 11
143.0107093513
 21
566.4889893738
 31
0.0
  0
LINE
  5
3E9
330
2F0
100
AcDbEntity
  8
$DDT_AUDIT_GENERATED_(1F6)
  6
Continuous
 62
     7
100
AcDbLine
 10
134.9095805006
 20
569.3599396115
 30
0.0
 11
134.8659494845
 21
566.8603203736
 31
0.0
  0
LINE
  5
3EA
330
2F0
100
AcDbEntity
  8
$DDT_AUDIT_GENERATED_(1F6)
  6
Continuous
 62
     7
100
AcDbLine
 10
143.1646853543
 20
566.7154654002
 30
0.0
 11
143.2083163704
 21
569.2150846381
 31
0.0
  0
LINE
  5
3EB
330
2F0
100
AcDbEntity
  8
$DDT_AUDIT_GENERATED_(1F6)
  6
Continuous
 62
     7
100
AcDbLine
 10
143.2083163704
 20
569.2150846381
 30
0.0
 11
141.7905711379
 21
573.940547415
 31
0.0
  0
LINE
  5
3EC
330
2F0
100
AcDbEntity
  8
$DDT_AUDIT_GENERATED_(1F6)
  6
Continuous
 62
     7
100
AcDbLine
 10
136.4913783536
 20
574.0330451691
 30
0.0
 11
134.9095805006
 21
569.3599396115
 31
0.0
  0
LINE
  5
3ED
330
2F0
100
AcDbEntity
  8
$DDT_AUDIT_GENERATED_(1F6)
  6
Continuous
 62
     7
100
AcDbLine
 10
136.5856213483
 20
579.4322227229
 30
0.0
 11
136.4913783536
 21
574.0330451691
 31
0.0
  0
LINE
  5
3EE
330
2F0
100
AcDbEntity
  8
$DDT_AUDIT_GENERATED_(1F6)
  6
Continuous
 62
     7
100
AcDbLine
 10
141.7905711379
 20
573.940547415
 30
0.0
 11
141.8848141327
 21
579.3397249688
 31
0.0
  0
ARC
  5
3EF
330
2F0
100
AcDbEntity
  8
$DDT_AUDIT_GENERATED_(1F6)
  6
Continuous
 62
     7
100
AcDbCircle
 10
143.1691902558
 20
561.2436821845
 30
0.0
 40
0.2500000000000029
100
AcDbArc
 50
179.0
 51
245.4218215218
  0
ARC
  5
3F0
330
2F0
100
AcDbEntity
  8
$DDT_AUDIT_GENERATED_(1F6)
  6
Continuous
 62
     7
100
AcDbCircle
 10
134.670484847
 20
561.3920276392
 30
0.0
 40
0.2500000000000011
100
AcDbArc
 50
292.5781784782
 51
359.0
  0
ARC
  5
3F1
330
2F0
100
AcDbEntity
  8
$DDT_AUDIT_GENERATED_(1F6)
  6
Continuous
 62
     7
100
AcDbCircle
 10
134.7619658663
 20
566.632971727
 30
0.0
 40
0.2499999999999788
100
AcDbArc
 50
359.0
 51
65.4218215218
  0
ARC
  5
3F2
330
2F0
100
AcDbEntity
  8
$DDT_AUDIT_GENERATED_(1F6)
  6
Continuous
 62
     7
100
AcDbCircle
 10
143.2606712751
 20
566.4846262722
 30
0.0
 40
0.250000000000001
100
AcDbArc
 50
112.5781784782
 51
179.0
  0
ARC
  5
3F3
330
2F0
100
AcDbEntity
  8
$DDT_AUDIT_GENERATED_(1F6)
  6
Continuous
 62
     7
100
AcDbCircle
 10
143.2389998815
 20
565.2430729651
 30
0.0
 40
0.2499999999999791
100
AcDbArc
 50
179.0
 51
245.4218215218
  0
ARC
  5
3F4
330
2F0
100
AcDbEntity
  8
$DDT_AUDIT_GENERATED_(1F6)
  6
Continuous
 62
     7
100
AcDbCircle
 10
134.7402944727
 20
565.3914184198
 30
0.0
 40
0.2500000000000006
100
AcDbArc
 50
292.5781784782
 51
359.0
  0
ARC
  5
3F5
330
2F0
100
AcDbEntity
  8
$DDT_AUDIT_GENERATED_(1F6)
  6
Continuous
 62
     7
100
AcDbCircle
 10
134.6921562405
 20
562.6335809463
 30
0.0
 40
0.2500000000000037
100
AcDbArc
 50
359.0
 51
65.4218215218
  0
ARC
  5
3F6
330
2F0
100
AcDbEntity
  8
$DDT_AUDIT_GENERATED_(1F6)
  6
Continuous
 62
     7
100
AcDbCircle
 10
143.1908616494
 20
562.4852354916
 30
0.0
 40
0.250000000000001
100
AcDbArc
 50
112.5781784782
 51
179.0
  0
LINE
  5
3F8
330
2F0
100
AcDbEntity
  8
DV3_Standard
  6
Continuous
 62
     7
100
AcDbLine
 10
131.9042419104
 20
468.7478300152
 30
0.0
 11
131.9042419104
 21
465.5478300152
 31
0.0
  0
LINE
  5
3F9
330
2F0
100
AcDbEntity
  8
DV3_Standard
  6
Continuous
 62
     7
100
AcDbLine
 10
131.9042419104
 20
385.5609203169
 30
0.0
 11
131.9042419104
 21
388.7347397136
 31
0.0
  0
LINE
  5
3FA
330
2F0
100
AcDbEntity
  8
DV3_Standard
  6
CENTER2
 62
     7
100
AcDbLine
 10
151.9042414634
 20
467.1478300152
 30
0.0
 11
111.9042423574
 21
467.1478300152
 31
0.0
  0
LINE
  5
3FB
330
2F0
100
AcDbEntity
  8
DV3_Standard
  6
CENTER2
 62
     7
100
AcDbLine
 10
131.9042419104
 20
487.1478295682
 30
0.0
 11
131.9042419104
 21
447.1478304623
 31
0.0
  0
LINE
  5
3FC
330
2F0
100
AcDbEntity
  8
DV3_Standard
  6
CENTER2
 62
     7
100
AcDbLine
 10
151.9042414634
 20
387.1478300152
 30
0.0
 11
111.9042423574
 21
387.1478300152
 31
0.0
  0
LINE
  5
3FD
330
2F0
100
AcDbEntity
  8
DV3_Standard
  6
CENTER2
 62
     7
100
AcDbLine
 10
131.9042419104
 20
407.1478295682
 30
0.0
 11
131.9042419104
 21
367.1478304623
 31
0.0
  0
ENDBLK
  5
3FF
330
2F0
100
AcDbEntity
  8
0
100
AcDbBlockEnd
  0
ENDSEC
  0
SECTION
  2
ENTITIES
  0
INSERT
  5
5F
330
1F
100
AcDbEntity
  8
Default
100
AcDbBlockReference
  2
SE
 10
0.0
 20
0.0
 30
0.0
  0
INSERT
  5
23B
330
1F
100
AcDbEntity
  8
Default
100
AcDbBlockReference
  2
SE1
 10
0.0
 20
0.0
 30
0.0
  0
INSERT
  5
2F1
330
1F
100
AcDbEntity
  8
Default
100
AcDbBlockReference
  2
SE2
 10
0.0
 20
0.0
 30
0.0
  0
TEXT
  5
401
330
1F
100
AcDbEntity
  8
Default
  6
Continuous
 62
     7
100
AcDbText
 10
5.9362635081
 20
53.4225120485
 30
0.0
 40
10.0
  1
Grohe AG^J
  7
SEACAD_seiso_ttf
 11
5.9362635081
 21
63.4225120485
 31
0.0
100
AcDbText
 73
     3
  0
TEXT
  5
402
330
1F
100
AcDbEntity
  8
Default
  6
Continuous
 62
     7
100
AcDbText
 10
5.9362635081
 20
37.0588756849
 30
0.0
 40
10.0
  1
 
  7
SEACAD_seiso_ttf
 11
5.9362635081
 21
47.0588756849
 31
0.0
100
AcDbText
 73
     3
  0
TEXT
  5
403
330
1F
100
AcDbEntity
  8
Default
  6
Continuous
 62
     7
100
AcDbText
 10
5.9362635081
 20
20.6952393213
 30
0.0
 40
10.0
  1
ecn: 
  7
SEACAD_seiso_ttf
 11
5.9362635081
 21
30.6952393213
 31
0.0
100
AcDbText
 73
     3
  0
TEXT
  5
404
330
1F
100
AcDbEntity
  8
Default
  6
Continuous
 62
     7
100
AcDbText
 10
5.9362635081
 20
4.3316029576
 30
0.0
 40
10.0
  1
unit: mm
  7
SEACAD_seiso_ttf
 11
5.9362635081
 21
14.3316029576
 31
0.0
100
AcDbText
 73
     3
  0
LINE
  5
405
330
1F
100
AcDbEntity
  8
Default
  6
Continuous
 62
     7
100
AcDbLine
 10
0.0
 20
0.0
 30
0.0
 11
100.0
 21
0.0
 31
0.0
  0
LINE
  5
406
330
1F
100
AcDbEntity
  8
Default
  6
Continuous
 62
     7
100
AcDbLine
 10
0.0
 20
0.0
 30
0.0
 11
0.0
 21
100.0
 31
0.0
  0
TEXT
  5
407
330
1F
100
AcDbEntity
  8
Default
  6
Continuous
 62
     7
100
AcDbText
 10
24.3923665681
 20
-18.2375342018
 30
0.0
 40
10.0
  1
100 mm
  7
SEACAD_seiso_ttf
 11
24.3923665681
 21
-8.2375342018
 31
0.0
100
AcDbText
 73
     3
  0
TEXT
  5
408
330
1F
100
AcDbEntity
  8
Default
  6
Continuous
 62
     7
100
AcDbText
 10
-7.6150308803
 20
24.6231930421
 30
0.0
 40
10.0
  1
100 mm
 50
90.0
  7
SEACAD_seiso_ttf
 11
-17.6150308803
 21
24.6231930421
 31
0.0
100
AcDbText
 73
     3
  0
TEXT
  5
409
330
1F
100
AcDbEntity
  8
Default
  6
Continuous
 62
     7
100
AcDbText
 10
28.4878128572
 20
20.0907663715
 30
0.0
 40
10.0
  1
215189
  7
SEACAD_seiso_ttf
 11
28.4878128572
 21
30.0907663715
 31
0.0
100
AcDbText
 73
     3
  0
TEXT
  5
40A
330
1F
100
AcDbEntity
  8
Default
  6
Continuous
 62
     7
100
AcDbText
 10
5.9012241913
 20
36.7242780188
 30
0.0
 40
10.0
  1
64510240
  7
SEACAD_seiso_ttf
 11
5.9012241913
 21
46.7242780188
 31
0.0
100
AcDbText
 73
     3
  0
ENDSEC
  0
SECTION
  2
OBJECTS
  0
DICTIONARY
  5
C
330
0
100
AcDbDictionary
281
     1
  3
ACAD_GROUP
350
D
  3
ACAD_LAYOUT
350
1A
  3
ACAD_MLEADERSTYLE
350
40E
  3
ACAD_MLINESTYLE
350
17
  3
ACAD_PLOTSETTINGS
350
19
  3
ACAD_PLOTSTYLENAME
350
E
  3
ACAD_SCALELIST
350
3B
  3
ACAD_TABLESTYLE
350
40D
  3
ACAD_VISUALSTYLE
350
2A
  3
AcDbVariableDictionary
350
40B
  0
DICTIONARY
  5
D
102
{ACAD_REACTORS
330
C
102
}
330
C
100
AcDbDictionary
281
     1
  0
DICTIONARY
  5
1A
102
{ACAD_REACTORS
330
C
102
}
330
C
100
AcDbDictionary
281
     1
  3
Layout1
350
1E
  3
Model
350
22
  0
DICTIONARY
  5
40E
102
{ACAD_REACTORS
330
C
102
}
330
C
100
AcDbDictionary
281
     1
  0
DICTIONARY
  5
17
102
{ACAD_REACTORS
330
C
102
}
330
C
100
AcDbDictionary
281
     1
  3
Standard
350
18
  0
DICTIONARY
  5
19
102
{ACAD_REACTORS
330
C
102
}
330
C
100
AcDbDictionary
281
     1
  0
ACDBDICTIONARYWDFLT
  5
E
102
{ACAD_REACTORS
330
C
102
}
330
C
100
AcDbDictionary
281
     1
  3
Normal
350
F
100
AcDbDictionaryWithDefault
340
F
  0
DICTIONARY
  5
3B
102
{ACAD_REACTORS
330
C
102
}
330
C
100
AcDbDictionary
281
     1
  3
A0
350
3C
  3
A1
350
3D
  3
A2
350
3E
  3
A3
350
3F
  3
A4
350
40
  3
A5
350
41
  3
A6
350
42
  3
A7
350
43
  3
A8
350
44
  3
A9
350
45
  3
B0
350
46
  3
B1
350
47
  3
B2
350
48
  3
B3
350
49
  3
B4
350
4A
  3
B5
350
4B
  3
B6
350
4C
  3
B7
350
4D
  3
B8
350
4E
  3
B9
350
4F
  3
C0
350
50
  3
C1
350
51
  3
C2
350
52
  3
C3
350
53
  3
C4
350
54
  3
C5
350
55
  3
C6
350
56
  3
C7
350
57
  3
C8
350
58
  3
C9
350
59
  3
D0
350
5A
  3
D1
350
5B
  3
D2
350
5C
  0
DICTIONARY
  5
40D
102
{ACAD_REACTORS
330
C
102
}
330
C
100
AcDbDictionary
281
     1
  0
DICTIONARY
  5
2A
102
{ACAD_REACTORS
330
C
102
}
330
C
100
AcDbDictionary
281
     1
  3
2dWireframe
350
2F
  3
3D Hidden
350
31
  3
3dWireframe
350
30
  3
Basic
350
32
  3
Brighten
350
36
  3
ColorChange
350
3A
  3
Conceptual
350
34
  3
Dim
350
35
  3
Facepattern
350
39
  3
Flat
350
2B
  3
FlatWithEdges
350
2C
  3
Gouraud
350
2D
  3
GouraudWithEdges
350
2E
  3
Linepattern
350
38
  3
Realistic
350
33
  3
Thicken
350
37
  0
DICTIONARY
  5
40B
102
{ACAD_REACTORS
330
C
102
}
330
C
100
AcDbDictionary
281
     1
  3
CANNOSCALE
350
40C
  3
PSOLHEIGHT
350
410
  3
PSOLWIDTH
350
40F
  0
LAYOUT
  5
1E
102
{ACAD_REACTORS
330
1A
102
}
330
1A
100
AcDbPlotSettings
  1

  2
none_device
  4

  6

 40
0.0
 41
0.0
 42
0.0
 43
0.0
 44
0.0
 45
0.0
 46
0.0
 47
0.0
 48
0.0
 49
0.0
140
0.0
141
0.0
142
1.0
143
1.0
 70
   688
 72
     0
 73
     0
 74
     5
  7

 75
    16
147
1.0
148
0.0
149
0.0
100
AcDbLayout
  1
Layout1
 70
     1
 71
     1
 10
0.0
 20
0.0
 11
1682.0
 21
2378.0
 12
0.0
 22
0.0
 32
0.0
 14
0.0
 24
0.0
 34
0.0
 15
1682.0
 25
2378.0
 35
0.0
146
0.0
 13
0.0
 23
0.0
 33
0.0
 16
1.0
 26
0.0
 36
0.0
 17
0.0
 27
1.0
 37
0.0
 76
     0
330
1B
  0
LAYOUT
  5
22
102
{ACAD_REACTORS
330
1A
102
}
330
1A
100
AcDbPlotSettings
  1

  2
none_device
  4

  6

 40
0.0
 41
0.0
 42
0.0
 43
0.0
 44
0.0
 45
0.0
 46
0.0
 47
0.0
 48
0.0
 49
0.0
140
0.0
141
0.0
142
1.0
143
1.0
 70
  1712
 72
     0
 73
     0
 74
     0
  7

 75
     0
147
1.0
148
0.0
149
0.0
100
AcDbLayout
  1
Model
 70
     1
 71
     0
 10
0.0
 20
0.0
 11
1682.0
 21
2378.0
 12
0.0
 22
0.0
 32
0.0
 14
0.0
 24
0.0
 34
0.0
 15
1682.0
 25
2378.0
 35
0.0
146
0.0
 13
0.0
 23
0.0
 33
0.0
 16
1.0
 26
0.0
 36
0.0
 17
0.0
 27
1.0
 37
0.0
 76
     0
330
1F
331
29
  0
MLINESTYLE
  5
18
102
{ACAD_REACTORS
330
17
102
}
330
17
100
AcDbMlineStyle
  2
Standard
 70
     0
  3

 62
   256
 51
90.0
 52
90.0
 71
     2
 49
0.5
 62
   256
  6
BYLAYER
 49
-0.5
 62
   256
  6
BYLAYER
  0
ACDBPLACEHOLDER
  5
F
102
{ACAD_REACTORS
330
E
102
}
330
E
  0
SCALE
  5
3C
102
{ACAD_REACTORS
330
3B
102
}
330
3B
100
AcDbScale
 70
     0
300
1:1
140
1.0
141
1.0
290
     1
  0
SCALE
  5
3D
102
{ACAD_REACTORS
330
3B
102
}
330
3B
100
AcDbScale
 70
     0
300
1:2
140
1.0
141
2.0
290
     0
  0
SCALE
  5
3E
102
{ACAD_REACTORS
330
3B
102
}
330
3B
100
AcDbScale
 70
     0
300
1:4
140
1.0
141
4.0
290
     0
  0
SCALE
  5
3F
102
{ACAD_REACTORS
330
3B
102
}
330
3B
100
AcDbScale
 70
     0
300
1:5
140
1.0
141
5.0
290
     0
  0
SCALE
  5
40
102
{ACAD_REACTORS
330
3B
102
}
330
3B
100
AcDbScale
 70
     0
300
1:8
140
1.0
141
8.0
290
     0
  0
SCALE
  5
41
102
{ACAD_REACTORS
330
3B
102
}
330
3B
100
AcDbScale
 70
     0
300
1:10
140
1.0
141
10.0
290
     0
  0
SCALE
  5
42
102
{ACAD_REACTORS
330
3B
102
}
330
3B
100
AcDbScale
 70
     0
300
1:16
140
1.0
141
16.0
290
     0
  0
SCALE
  5
43
102
{ACAD_REACTORS
330
3B
102
}
330
3B
100
AcDbScale
 70
     0
300
1:20
140
1.0
141
20.0
290
     0
  0
SCALE
  5
44
102
{ACAD_REACTORS
330
3B
102
}
330
3B
100
AcDbScale
 70
     0
300
1:30
140
1.0
141
30.0
290
     0
  0
SCALE
  5
45
102
{ACAD_REACTORS
330
3B
102
}
330
3B
100
AcDbScale
 70
     0
300
1:40
140
1.0
141
40.0
290
     0
  0
SCALE
  5
46
102
{ACAD_REACTORS
330
3B
102
}
330
3B
100
AcDbScale
 70
     0
300
1:50
140
1.0
141
50.0
290
     0
  0
SCALE
  5
47
102
{ACAD_REACTORS
330
3B
102
}
330
3B
100
AcDbScale
 70
     0
300
1:100
140
1.0
141
100.0
290
     0
  0
SCALE
  5
48
102
{ACAD_REACTORS
330
3B
102
}
330
3B
100
AcDbScale
 70
     0
300
2:1
140
2.0
141
1.0
290
     0
  0
SCALE
  5
49
102
{ACAD_REACTORS
330
3B
102
}
330
3B
100
AcDbScale
 70
     0
300
4:1
140
4.0
141
1.0
290
     0
  0
SCALE
  5
4A
102
{ACAD_REACTORS
330
3B
102
}
330
3B
100
AcDbScale
 70
     0
300
8:1
140
8.0
141
1.0
290
     0
  0
SCALE
  5
4B
102
{ACAD_REACTORS
330
3B
102
}
330
3B
100
AcDbScale
 70
     0
300
10:1
140
10.0
141
1.0
290
     0
  0
SCALE
  5
4C
102
{ACAD_REACTORS
330
3B
102
}
330
3B
100
AcDbScale
 70
     0
300
100:1
140
100.0
141
1.0
290
     0
  0
SCALE
  5
4D
102
{ACAD_REACTORS
330
3B
102
}
330
3B
100
AcDbScale
 70
     0
300
1/128" = 1'-0"
140
0.0078125
141
12.0
290
     0
  0
SCALE
  5
4E
102
{ACAD_REACTORS
330
3B
102
}
330
3B
100
AcDbScale
 70
     0
300
1/64" = 1'-0"
140
0.015625
141
12.0
290
     0
  0
SCALE
  5
4F
102
{ACAD_REACTORS
330
3B
102
}
330
3B
100
AcDbScale
 70
     0
300
1/32" = 1'-0"
140
0.03125
141
12.0
290
     0
  0
SCALE
  5
50
102
{ACAD_REACTORS
330
3B
102
}
330
3B
100
AcDbScale
 70
     0
300
1/16" = 1'-0"
140
0.0625
141
12.0
290
     0
  0
SCALE
  5
51
102
{ACAD_REACTORS
330
3B
102
}
330
3B
100
AcDbScale
 70
     0
300
3/32" = 1'-0"
140
0.09375
141
12.0
290
     0
  0
SCALE
  5
52
102
{ACAD_REACTORS
330
3B
102
}
330
3B
100
AcDbScale
 70
     0
300
1/8" = 1'-0"
140
0.125
141
12.0
290
     0
  0
SCALE
  5
53
102
{ACAD_REACTORS
330
3B
102
}
330
3B
100
AcDbScale
 70
     0
300
3/16" = 1'-0"
140
0.1875
141
12.0
290
     0
  0
SCALE
  5
54
102
{ACAD_REACTORS
330
3B
102
}
330
3B
100
AcDbScale
 70
     0
300
1/4" = 1'-0"
140
0.25
141
12.0
290
     0
  0
SCALE
  5
55
102
{ACAD_REACTORS
330
3B
102
}
330
3B
100
AcDbScale
 70
     0
300
3/8" = 1'-0"
140
0.375
141
12.0
290
     0
  0
SCALE
  5
56
102
{ACAD_REACTORS
330
3B
102
}
330
3B
100
AcDbScale
 70
     0
300
1/2" = 1'-0"
140
0.5
141
12.0
290
     0
  0
SCALE
  5
57
102
{ACAD_REACTORS
330
3B
102
}
330
3B
100
AcDbScale
 70
     0
300
3/4" = 1'-0"
140
0.75
141
12.0
290
     0
  0
SCALE
  5
58
102
{ACAD_REACTORS
330
3B
102
}
330
3B
100
AcDbScale
 70
     0
300
1" = 1'-0"
140
1.0
141
12.0
290
     0
  0
SCALE
  5
59
102
{ACAD_REACTORS
330
3B
102
}
330
3B
100
AcDbScale
 70
     0
300
1-1/2" = 1'-0"
140
1.5
141
12.0
290
     0
  0
SCALE
  5
5A
102
{ACAD_REACTORS
330
3B
102
}
330
3B
100
AcDbScale
 70
     0
300
3" = 1'-0"
140
3.0
141
12.0
290
     0
  0
SCALE
  5
5B
102
{ACAD_REACTORS
330
3B
102
}
330
3B
100
AcDbScale
 70
     0
300
6" = 1'-0"
140
6.0
141
12.0
290
     0
  0
SCALE
  5
5C
102
{ACAD_REACTORS
330
3B
102
}
330
3B
100
AcDbScale
 70
     0
300
1'-0" = 1'-0"
140
12.0
141
12.0
290
     0
  0
VISUALSTYLE
  5
2F
102
{ACAD_REACTORS
330
2A
102
}
330
2A
100
AcDbVisualStyle
  2
2dWireframe
 70
     4
 71
     0
 72
     2
 73
     0
 90
        0
 40
-0.6
 41
-30.0
 62
     5
 63
     7
 74
     1
 91
        4
 64
     7
 65
   257
 75
     1
175
     1
 42
1.0
 92
        0
 66
   257
 43
1.0
 76
     1
 77
     6
 78
     2
 67
     7
 79
     5
170
     0
171
     0
290
     0
174
     0
 93
        1
 44
0.0
173
     0
291
     0
 45
0.0
1001
ACAD
1000
AcDbSavedByObjectVersion
1070
     0
  0
VISUALSTYLE
  5
31
102
{ACAD_REACTORS
330
2A
102
}
330
2A
100
AcDbVisualStyle
  2
3D Hidden
 70
     6
 71
     1
 72
     2
 73
     2
 90
        0
 40
-0.6
 41
-30.0
 62
     5
 63
     7
 74
     2
 91
        2
 64
     7
 65
   257
 75
     2
175
     1
 42
40.0
 92
        0
 66
   257
 43
1.0
 76
     1
 77
     6
 78
     2
 67
     7
 79
     3
170
     0
171
     0
290
     0
174
     0
 93
        1
 44
0.0
173
     0
291
     0
 45
0.0
1001
ACAD
1000
AcDbSavedByObjectVersion
1070
     0
  0
VISUALSTYLE
  5
30
102
{ACAD_REACTORS
330
2A
102
}
330
2A
100
AcDbVisualStyle
  2
3dWireframe
 70
     5
 71
     0
 72
     2
 73
     0
 90
        0
 40
-0.6
 41
-30.0
 62
     5
 63
     7
 74
     1
 91
        4
 64
     7
 65
   257
 75
     1
175
     1
 42
1.0
 92
        0
 66
   257
 43
1.0
 76
     1
 77
     6
 78
     2
 67
     7
 79
     5
170
     0
171
     0
290
     0
174
     0
 93
        1
 44
0.0
173
     0
291
     0
 45
0.0
1001
ACAD
1000
AcDbSavedByObjectVersion
1070
     0
  0
VISUALSTYLE
  5
32
102
{ACAD_REACTORS
330
2A
102
}
330
2A
100
AcDbVisualStyle
  2
Basic
 70
     7
 71
     1
 72
     0
 73
     1
 90
        0
 40
-0.6
 41
-30.0
 62
     5
 63
     7
 74
     0
 91
        4
 64
     7
 65
   257
 75
     1
175
     1
 42
1.0
 92
        8
 66
     7
 43
1.0
 76
     1
 77
     6
 78
     2
 67
     7
 79
     5
170
     0
171
     0
290
     0
174
     0
 93
        1
 44
0.0
173
     0
291
     1
 45
0.0
1001
ACAD
1000
AcDbSavedByObjectVersion
1070
     0
  0
VISUALSTYLE
  5
36
102
{ACAD_REACTORS
330
2A
102
}
330
2A
100
AcDbVisualStyle
  2
Brighten
 70
    12
 71
     2
 72
     2
 73
     0
 90
        0
 40
-0.6
 41
-30.0
 62
     5
 63
     7
 74
     1
 91
        4
 64
     7
 65
   257
 75
     1
175
     1
 42
1.0
 92
        8
 66
     7
 43
1.0
 76
     1
 77
     6
 78
     2
 67
     7
 79
     5
170
     0
171
     0
290
     0
174
     0
 93
        1
 44
50.0
173
     0
291
     1
 45
0.0
1001
ACAD
1000
AcDbSavedByObjectVersion
1070
     0
  0
VISUALSTYLE
  5
3A
102
{ACAD_REACTORS
330
2A
102
}
330
2A
100
AcDbVisualStyle
  2
ColorChange
 70
    16
 71
     2
 72
     2
 73
     3
 90
        0
 40
-0.6
 41
-30.0
 62
     5
 63
     8
 74
     1
 91
        4
 64
     7
 65
   257
 75
     1
175
     1
 42
1.0
 92
        8
 66
     8
 43
1.0
 76
     1
 77
     6
 78
     2
 67
     7
 79
     5
170
     0
171
     0
290
     0
174
     0
 93
        1
 44
0.0
173
     0
291
     1
 45
0.0
1001
ACAD
1000
AcDbSavedByObjectVersion
1070
     0
  0
VISUALSTYLE
  5
34
102
{ACAD_REACTORS
330
2A
102
}
330
2A
100
AcDbVisualStyle
  2
Conceptual
 70
     9
 71
     3
 72
     2
 73
     0
 90
        0
 40
-0.6
 41
-30.0
 62
     5
 63
     7
 74
     2
 91
        2
 64
     7
 65
   257
 75
     1
175
     1
 42
40.0
 92
        8
 66
     7
 43
1.0
 76
     1
 77
     6
 78
     2
 67
     7
 79
     3
170
     0
171
     0
290
     0
174
     0
 93
        1
 44
0.0
173
     0
291
     0
 45
0.0
1001
ACAD
1000
AcDbSavedByObjectVersion
1070
     0
  0
VISUALSTYLE
  5
35
102
{ACAD_REACTORS
330
2A
102
}
330
2A
100
AcDbVisualStyle
  2
Dim
 70
    11
 71
     2
 72
     2
 73
     0
 90
        0
 40
-0.6
 41
-30.0
 62
     5
 63
     7
 74
     1
 91
        4
 64
     7
 65
   257
 75
     1
175
     1
 42
1.0
 92
        8
 66
     7
 43
1.0
 76
     1
 77
     6
 78
     2
 67
     7
 79
     5
170
     0
171
     0
290
     0
174
     0
 93
        1
 44
-50.0
173
     0
291
     1
 45
0.0
1001
ACAD
1000
AcDbSavedByObjectVersion
1070
     0
  0
VISUALSTYLE
  5
39
102
{ACAD_REACTORS
330
2A
102
}
330
2A
100
AcDbVisualStyle
  2
Facepattern
 70
    15
 71
     2
 72
     2
 73
     0
 90
        0
 40
-0.6
 41
-30.0
 62
     5
 63
     7
 74
     1
 91
        4
 64
     7
 65
   257
 75
     1
175
     1
 42
1.0
 92
        8
 66
     7
 43
1.0
 76
     1
 77
     6
 78
     2
 67
     7
 79
     5
170
     0
171
     0
290
     0
174
     0
 93
        1
 44
0.0
173
     0
291
     1
 45
0.0
1001
ACAD
1000
AcDbSavedByObjectVersion
1070
     0
  0
VISUALSTYLE
  5
2B
102
{ACAD_REACTORS
330
2A
102
}
330
2A
100
AcDbVisualStyle
  2
Flat
 70
     0
 71
     2
 72
     1
 73
     1
 90
        2
 40
-0.6
 41
30.0
 62
     5
 63
     7
 74
     0
 91
        4
 64
     7
 65
   257
 75
     1
175
     1
 42
1.0
 92
        8
 66
     7
 43
1.0
 76
     1
 77
     6
 78
     2
 67
     7
 79
     5
170
     0
171
     0
290
     0
174
     0
 93
       13
 44
0.0
173
     0
291
     1
 45
0.0
1001
ACAD
1000
AcDbSavedByObjectVersion
1070
     0
  0
VISUALSTYLE
  5
2C
102
{ACAD_REACTORS
330
2A
102
}
330
2A
100
AcDbVisualStyle
  2
FlatWithEdges
 70
     1
 71
     2
 72
     1
 73
     1
 90
        2
 40
-0.6
 41
30.0
 62
     5
 63
     7
 74
     1
 91
        4
 64
     7
 65
   257
 75
     1
175
     1
 42
1.0
 92
        0
 66
   257
 43
1.0
 76
     1
 77
     6
 78
     2
 67
     7
 79
     5
170
     0
171
     0
290
     0
174
     0
 93
       13
 44
0.0
173
     0
291
     1
 45
0.0
1001
ACAD
1000
AcDbSavedByObjectVersion
1070
     0
  0
VISUALSTYLE
  5
2D
102
{ACAD_REACTORS
330
2A
102
}
330
2A
100
AcDbVisualStyle
  2
Gouraud
 70
     2
 71
     2
 72
     2
 73
     1
 90
        2
 40
-0.6
 41
30.0
 62
     5
 63
     7
 74
     0
 91
        4
 64
     7
 65
   257
 75
     1
175
     1
 42
1.0
 92
        0
 66
     7
 43
1.0
 76
     1
 77
     6
 78
     2
 67
     7
 79
     5
170
     0
171
     0
290
     0
174
     0
 93
       13
 44
0.0
173
     0
291
     1
 45
0.0
1001
ACAD
1000
AcDbSavedByObjectVersion
1070
     0
  0
VISUALSTYLE
  5
2E
102
{ACAD_REACTORS
330
2A
102
}
330
2A
100
AcDbVisualStyle
  2
GouraudWithEdges
 70
     3
 71
     2
 72
     2
 73
     1
 90
        2
 40
-0.6
 41
30.0
 62
     5
 63
     7
 74
     1
 91
        4
 64
     7
 65
   257
 75
     1
175
     1
 42
1.0
 92
        0
 66
   257
 43
1.0
 76
     1
 77
     6
 78
     2
 67
     7
 79
     5
170
     0
171
     0
290
     0
174
     0
 93
       13
 44
0.0
173
     0
291
     1
 45
0.0
1001
ACAD
1000
AcDbSavedByObjectVersion
1070
     0
  0
VISUALSTYLE
  5
38
102
{ACAD_REACTORS
330
2A
102
}
330
2A
100
AcDbVisualStyle
  2
Linepattern
 70
    14
 71
     2
 72
     2
 73
     0
 90
        0
 40
-0.6
 41
-30.0
 62
     5
 63
     7
 74
     1
 91
        4
 64
     7
 65
   257
 75
     7
175
     7
 42
1.0
 92
        8
 66
     7
 43
1.0
 76
     1
 77
     6
 78
     2
 67
     7
 79
     5
170
     0
171
     0
290
     0
174
     0
 93
        1
 44
0.0
173
     0
291
     1
 45
0.0
1001
ACAD
1000
AcDbSavedByObjectVersion
1070
     0
  0
VISUALSTYLE
  5
33
102
{ACAD_REACTORS
330
2A
102
}
330
2A
100
AcDbVisualStyle
  2
Realistic
 70
     8
 71
     2
 72
     2
 73
     0
 90
        0
 40
-0.6
 41
-30.0
 62
     5
 63
     7
 74
     1
 91
        0
 64
     7
 65
   257
 75
     1
175
     1
 42
1.0
 92
        8
 66
     8
 43
1.0
 76
     1
 77
     6
 78
     2
 67
     7
 79
     5
170
     0
171
     0
290
     0
174
     0
 93
       13
 44
0.0
173
     0
291
     0
 45
0.0
1001
ACAD
1000
AcDbSavedByObjectVersion
1070
     0
  0
VISUALSTYLE
  5
37
102
{ACAD_REACTORS
330
2A
102
}
330
2A
100
AcDbVisualStyle
  2
Thicken
 70
    13
 71
     2
 72
     2
 73
     0
 90
        0
 40
-0.6
 41
-30.0
 62
     5
 63
     7
 74
     1
 91
        4
 64
     7
 65
   257
 75
     1
175
     1
 42
1.0
 92
       12
 66
     7
 43
1.0
 76
     1
 77
     6
 78
     2
 67
     7
 79
     5
170
     0
171
     0
290
     0
174
     0
 93
        1
 44
0.0
173
     0
291
     1
 45
0.0
1001
ACAD
1000
AcDbSavedByObjectVersion
1070
     0
  0
DICTIONARYVAR
  5
40C
102
{ACAD_REACTORS
330
40B
102
}
330
40B
100
DictionaryVariables
280
     0
  1
1:1
  0
DICTIONARYVAR
  5
410
102
{ACAD_REACTORS
330
40B
102
}
330
40B
100
DictionaryVariables
280
     0
  1
80.000000
  0
DICTIONARYVAR
  5
40F
102
{ACAD_REACTORS
330
40B
102
}
330
40B
100
DictionaryVariables
280
     0
  1
5.000000
  0
ENDSEC
  0
EOF
