  0
SECTION
  2
HEADER
  9
$ACADVER
  1
AC1021
  9
$ACADMAINTVER
 70
    25
  9
$DWGCODEPAGE
  3
UNDEFINED
  9
$INSBASE
 10
0.0
 20
0.0
 30
0.0
  9
$EXTMIN
 10
1.000000000000000E+20
 20
1.000000000000000E+20
 30
1.000000000000000E+20
  9
$EXTMAX
 10
-1.000000000000000E+20
 20
-1.000000000000000E+20
 30
-1.000000000000000E+20
  9
$LIMMIN
 10
0.0
 20
0.0
  9
$LIMMAX
 10
12.0
 20
9.0
  9
$ORTHOMODE
 70
     0
  9
$REGENMODE
 70
     1
  9
$FILLMODE
 70
     1
  9
$QTEXTMODE
 70
     0
  9
$MIRRTEXT
 70
     1
  9
$LTSCALE
 40
1.0
  9
$ATTMODE
 70
     1
  9
$TEXTSIZE
 40
0.2
  9
$TRACEWID
 40
0.05
  9
$TEXTSTYLE
  7
Standard
  9
$CLAYER
  8
0
  9
$CELTYPE
  6
ByLayer
  9
$CECOLOR
 62
   256
  9
$CELTSCALE
 40
1.0
  9
$DISPSILH
 70
     0
  9
$DIMSCALE
 40
1.0
  9
$DIMASZ
 40
0.18
  9
$DIMEXO
 40
0.0625
  9
$DIMDLI
 40
0.38
  9
$DIMRND
 40
0.0
  9
$DIMDLE
 40
0.0
  9
$DIMEXE
 40
0.18
  9
$DIMTP
 40
0.0
  9
$DIMTM
 40
0.0
  9
$DIMTXT
 40
0.18
  9
$DIMCEN
 40
0.09
  9
$DIMTSZ
 40
0.0
  9
$DIMTOL
 70
     0
  9
$DIMLIM
 70
     0
  9
$DIMTIH
 70
     1
  9
$DIMTOH
 70
     1
  9
$DIMSE1
 70
     0
  9
$DIMSE2
 70
     0
  9
$DIMTAD
 70
     0
  9
$DIMZIN
 70
     0
  9
$DIMBLK
  1

  9
$DIMASO
 70
     1
  9
$DIMSHO
 70
     1
  9
$DIMPOST
  1

  9
$DIMAPOST
  1

  9
$DIMALT
 70
     0
  9
$DIMALTD
 70
     2
  9
$DIMALTF
 40
25.4
  9
$DIMLFAC
 40
1.0
  9
$DIMTOFL
 70
     0
  9
$DIMTVP
 40
0.0
  9
$DIMTIX
 70
     0
  9
$DIMSOXD
 70
     0
  9
$DIMSAH
 70
     0
  9
$DIMBLK1
  1

  9
$DIMBLK2
  1

  9
$DIMSTYLE
  2
Standard
  9
$DIMCLRD
 70
     0
  9
$DIMCLRE
 70
     0
  9
$DIMCLRT
 70
     0
  9
$DIMTFAC
 40
1.0
  9
$DIMGAP
 40
0.09
  9
$DIMJUST
 70
     0
  9
$DIMSD1
 70
     0
  9
$DIMSD2
 70
     0
  9
$DIMTOLJ
 70
     1
  9
$DIMTZIN
 70
     0
  9
$DIMALTZ
 70
     0
  9
$DIMALTTZ
 70
     0
  9
$DIMUPT
 70
     0
  9
$DIMDEC
 70
     4
  9
$DIMTDEC
 70
     4
  9
$DIMALTU
 70
     2
  9
$DIMALTTD
 70
     2
  9
$DIMTXSTY
  7
Standard
  9
$DIMAUNIT
 70
     0
  9
$DIMADEC
 70
     0
  9
$DIMALTRND
 40
0.0
  9
$DIMAZIN
 70
     0
  9
$DIMDSEP
 70
    46
  9
$DIMATFIT
 70
     3
  9
$DIMFRAC
 70
     0
  9
$DIMLDRBLK
  1

  9
$DIMLUNIT
 70
     2
  9
$DIMLWD
 70
    -2
  9
$DIMLWE
 70
    -2
  9
$DIMTMOVE
 70
     0
  9
$DIMFXL
 40
1.0
  9
$DIMFXLON
 70
     0
  9
$DIMJOGANG
 40
0.7853981633974483
  9
$DIMTFILL
 70
     0
  9
$DIMTFILLCLR
 70
     0
  9
$DIMARCSYM
 70
     0
  9
$DIMLTYPE
  6

  9
$DIMLTEX1
  6

  9
$DIMLTEX2
  6

  9
$LUNITS
 70
     2
  9
$LUPREC
 70
     4
  9
$SKETCHINC
 40
0.1
  9
$FILLETRAD
 40
0.5
  9
$AUNITS
 70
     0
  9
$AUPREC
 70
     0
  9
$MENU
  1
.
  9
$ELEVATION
 40
0.0
  9
$PELEVATION
 40
0.0
  9
$THICKNESS
 40
0.0
  9
$LIMCHECK
 70
     0
  9
$CHAMFERA
 40
0.5
  9
$CHAMFERB
 40
0.5
  9
$CHAMFERC
 40
1.0
  9
$CHAMFERD
 40
0.0
  9
$SKPOLY
 70
     0
  9
$TDCREATE
 40
2459380.39278934
  9
$TDUCREATE
 40
2459380.351122685
  9
$TDUPDATE
 40
2459380.39278934
  9
$TDUUPDATE
 40
2459380.351122685
  9
$TDINDWG
 40
0.0000000116
  9
$TDUSRTIMER
 40
0.0000000116
  9
$USRTIMER
 70
     1
  9
$ANGBASE
 50
0.0
  9
$ANGDIR
 70
     0
  9
$PDMODE
 70
     0
  9
$PDSIZE
 40
0.0
  9
$PLINEWID
 40
0.0
  9
$SPLFRAME
 70
     0
  9
$SPLINETYPE
 70
     6
  9
$SPLINESEGS
 70
     8
  9
$HANDSEED
  5
E3
  9
$SURFTAB1
 70
     6
  9
$SURFTAB2
 70
     6
  9
$SURFTYPE
 70
     6
  9
$SURFU
 70
     6
  9
$SURFV
 70
     6
  9
$UCSBASE
  2

  9
$UCSNAME
  2

  9
$UCSORG
 10
0.0
 20
0.0
 30
0.0
  9
$UCSXDIR
 10
1.0
 20
0.0
 30
0.0
  9
$UCSYDIR
 10
0.0
 20
1.0
 30
0.0
  9
$UCSORTHOREF
  2

  9
$UCSORTHOVIEW
 70
     0
  9
$UCSORGTOP
 10
0.0
 20
0.0
 30
0.0
  9
$UCSORGBOTTOM
 10
0.0
 20
0.0
 30
0.0
  9
$UCSORGLEFT
 10
0.0
 20
0.0
 30
0.0
  9
$UCSORGRIGHT
 10
0.0
 20
0.0
 30
0.0
  9
$UCSORGFRONT
 10
0.0
 20
0.0
 30
0.0
  9
$UCSORGBACK
 10
0.0
 20
0.0
 30
0.0
  9
$PUCSBASE
  2

  9
$PUCSNAME
  2

  9
$PUCSORG
 10
0.0
 20
0.0
 30
0.0
  9
$PUCSXDIR
 10
1.0
 20
0.0
 30
0.0
  9
$PUCSYDIR
 10
0.0
 20
1.0
 30
0.0
  9
$PUCSORTHOREF
  2

  9
$PUCSORTHOVIEW
 70
     0
  9
$PUCSORGTOP
 10
0.0
 20
0.0
 30
0.0
  9
$PUCSORGBOTTOM
 10
0.0
 20
0.0
 30
0.0
  9
$PUCSORGLEFT
 10
0.0
 20
0.0
 30
0.0
  9
$PUCSORGRIGHT
 10
0.0
 20
0.0
 30
0.0
  9
$PUCSORGFRONT
 10
0.0
 20
0.0
 30
0.0
  9
$PUCSORGBACK
 10
0.0
 20
0.0
 30
0.0
  9
$USERI1
 70
     0
  9
$USERI2
 70
     0
  9
$USERI3
 70
     0
  9
$USERI4
 70
     0
  9
$USERI5
 70
     0
  9
$USERR1
 40
0.0
  9
$USERR2
 40
0.0
  9
$USERR3
 40
0.0
  9
$USERR4
 40
0.0
  9
$USERR5
 40
0.0
  9
$WORLDVIEW
 70
     1
  9
$SHADEDGE
 70
     3
  9
$SHADEDIF
 70
    70
  9
$TILEMODE
 70
     1
  9
$MAXACTVP
 70
    64
  9
$PINSBASE
 10
0.0
 20
0.0
 30
0.0
  9
$PLIMCHECK
 70
     0
  9
$PEXTMIN
 10
1.000000000000000E+20
 20
1.000000000000000E+20
 30
1.000000000000000E+20
  9
$PEXTMAX
 10
-1.000000000000000E+20
 20
-1.000000000000000E+20
 30
-1.000000000000000E+20
  9
$PLIMMIN
 10
0.0
 20
0.0
  9
$PLIMMAX
 10
12.0
 20
9.0
  9
$UNITMODE
 70
     0
  9
$VISRETAIN
 70
     1
  9
$PLINEGEN
 70
     0
  9
$PSLTSCALE
 70
     1
  9
$TREEDEPTH
 70
  3020
  9
$CMLSTYLE
  2
Standard
  9
$CMLJUST
 70
     0
  9
$CMLSCALE
 40
1.0
  9
$PROXYGRAPHICS
 70
     1
  9
$MEASUREMENT
 70
     0
  9
$CELWEIGHT
370
    -1
  9
$ENDCAPS
280
     0
  9
$JOINSTYLE
280
     0
  9
$LWDISPLAY
290
     1
  9
$INSUNITS
 70
     1
  9
$HYPERLINKBASE
  1

  9
$STYLESHEET
  1

  9
$XEDIT
290
     1
  9
$CEPSNTYPE
380
     0
  9
$PSTYLEMODE
290
     1
  9
$FINGERPRINTGUID
  2
{8543C656-3AA3-CA85-0EFF-17DA3EF01F59}
  9
$VERSIONGUID
  2
{FAEB1C32-E019-11D5-929B-00C0DF256EC4}
  9
$EXTNAMES
290
     1
  9
$PSVPSCALE
 40
0.0
  9
$OLESTARTUP
290
     0
  9
$SORTENTS
280
   127
  9
$INDEXCTL
280
     0
  9
$HIDETEXT
280
     1
  9
$XCLIPFRAME
290
     0
  9
$HALOGAP
280
     0
  9
$OBSCOLOR
 70
   257
  9
$OBSLTYPE
280
     0
  9
$INTERSECTIONDISPLAY
280
     0
  9
$INTERSECTIONCOLOR
 70
   257
  9
$DIMASSOC
280
     2
  9
$PROJECTNAME
  1

  9
$CAMERADISPLAY
290
     0
  9
$LENSLENGTH
 40
50.0
  9
$CAMERAHEIGHT
 40
0.0
  9
$STEPSPERSEC
 40
2.0
  9
$STEPSIZE
 40
6.0
  9
$3DDWFPREC
 40
2.0
  9
$PSOLWIDTH
 40
0.25
  9
$PSOLHEIGHT
 40
4.0
  9
$LOFTANG1
 40
1.570796326794897
  9
$LOFTANG2
 40
1.570796326794897
  9
$LOFTMAG1
 40
0.0
  9
$LOFTMAG2
 40
0.0
  9
$LOFTPARAM
 70
     7
  9
$LOFTNORMALS
280
     1
  9
$LATITUDE
 40
37.795
  9
$LONGITUDE
 40
-122.394
  9
$NORTHDIRECTION
 40
0.0
  9
$TIMEZONE
 70
 -8000
  9
$LIGHTGLYPHDISPLAY
280
     1
  9
$TILEMODELIGHTSYNCH
280
     1
  9
$CMATERIAL
347
3C
  9
$SOLIDHIST
280
     1
  9
$SHOWHIST
280
     1
  9
$DWFFRAME
280
     2
  9
$DGNFRAME
280
     2
  9
$REALWORLDSCALE
290
     1
  9
$INTERFERECOLOR
 62
   256
  9
$CSHADOW
280
     0
  9
$SHADOWPLANELOCATION
 40
0.0
  0
ENDSEC
  0
SECTION
  2
CLASSES
  0
CLASS
  1
ACDBDICTIONARYWDFLT
  2
AcDbDictionaryWithDefault
  3
ObjectDBX Classes
 90
        0
 91
        4
280
     0
281
     0
  0
CLASS
  1
VISUALSTYLE
  2
AcDbVisualStyle
  3
ObjectDBX Classes
 90
     4095
 91
        4
280
     0
281
     0
  0
CLASS
  1
MATERIAL
  2
AcDbMaterial
  3
ObjectDBX Classes
 90
     1153
 91
        4
280
     0
281
     0
  0
CLASS
  1
SUN
  2
AcDbSun
  3
SCENEOE
 90
     1024
 91
        4
280
     0
281
     0
  0
ENDSEC
  0
SECTION
  2
TABLES
  0
TABLE
  2
VPORT
  5
8
330
0
100
AcDbSymbolTable
 70
     1
  0
VPORT
  5
29
330
8
100
AcDbSymbolTableRecord
100
AcDbViewportTableRecord
  2
*Active
 70
     0
 10
0.0
 20
0.0
 11
1.0
 21
1.0
 12
0.0
 22
0.0
 13
0.0
 23
0.0
 14
0.5
 24
0.5
 15
0.5
 25
0.5
 16
0.0
 26
0.0
 36
1.0
 17
105.0007777515277
 27
-148.5000416295416
 37
0.0
 40
297.0000832590831
 41
0.7070757462376333
 42
50.0
 43
0.0
 44
0.0
 50
0.0
 51
0.0
 71
     0
 72
   100
 73
     1
 74
     3
 75
     0
 76
     0
 77
     0
 78
     0
281
     0
 65
     1
110
0.0
120
0.0
130
0.0
111
1.0
121
0.0
131
0.0
112
0.0
122
1.0
132
0.0
 79
     0
146
0.0
 60
     3
 61
     5
292
     1
282
     1
141
0.0
142
0.0
 63
   250
361
3F
  0
ENDTAB
  0
TABLE
  2
LTYPE
  5
5
330
0
100
AcDbSymbolTable
 70
    11
  0
LTYPE
  5
14
330
5
100
AcDbSymbolTableRecord
100
AcDbLinetypeTableRecord
  2
ByBlock
 70
     0
  3

 72
    65
 73
     0
 40
0.0
  0
LTYPE
  5
15
330
5
100
AcDbSymbolTableRecord
100
AcDbLinetypeTableRecord
  2
ByLayer
 70
     0
  3

 72
    65
 73
     0
 40
0.0
  0
LTYPE
  5
16
330
5
100
AcDbSymbolTableRecord
100
AcDbLinetypeTableRecord
  2
Continuous
 70
     0
  3
Solid line
 72
    65
 73
     0
 40
0.0
  0
LTYPE
  5
61
330
5
100
AcDbSymbolTableRecord
100
AcDbLinetypeTableRecord
  2
AI-Linetype-1
 70
     0
  3
Adobe Illustrator Linetype No. 1
 72
    65
 73
     2
 40
8.794680126958502
 49
4.397340063479251
 74
     0
 49
-4.397340063479251
 74
     0
  0
LTYPE
  5
66
330
5
100
AcDbSymbolTableRecord
100
AcDbLinetypeTableRecord
  2
AI-Linetype-2
 70
     0
  3
Adobe Illustrator Linetype No. 2
 72
    65
 73
     4
 40
39.57625704941515
 49
26.3842368589774
 74
     0
 49
-4.397340063479251
 74
     0
 49
4.397340063479251
 74
     0
 49
-4.397340063479251
 74
     0
  0
LTYPE
  5
7B
330
5
100
AcDbSymbolTableRecord
100
AcDbLinetypeTableRecord
  2
AI-Linetype-3
 70
     0
  3
Adobe Illustrator Linetype No. 3
 72
    65
 73
     2
 40
8.776306060080433
 49
4.388153030040217
 74
     0
 49
-4.388153030040217
 74
     0
  0
LTYPE
  5
80
330
5
100
AcDbSymbolTableRecord
100
AcDbLinetypeTableRecord
  2
AI-Linetype-4
 70
     0
  3
Adobe Illustrator Linetype No. 4
 72
    65
 73
     4
 40
39.4935717298532
 49
26.32911263973256
 74
     0
 49
-4.388153030040217
 74
     0
 49
4.388153030040217
 74
     0
 49
-4.388153030040217
 74
     0
  0
LTYPE
  5
9C
330
5
100
AcDbSymbolTableRecord
100
AcDbLinetypeTableRecord
  2
AI-Linetype-5
 70
     0
  3
Adobe Illustrator Linetype No. 5
 72
    65
 73
     2
 40
9.58322143844926
 49
4.79161071922463
 74
     0
 49
-4.79161071922463
 74
     0
  0
LTYPE
  5
A1
330
5
100
AcDbSymbolTableRecord
100
AcDbLinetypeTableRecord
  2
AI-Linetype-6
 70
     0
  3
Adobe Illustrator Linetype No. 6
 72
    65
 73
     4
 40
43.12470842713844
 49
28.74987626946455
 74
     0
 49
-4.79161071922463
 74
     0
 49
4.79161071922463
 74
     0
 49
-4.79161071922463
 74
     0
  0
LTYPE
  5
B2
330
5
100
AcDbSymbolTableRecord
100
AcDbLinetypeTableRecord
  2
AI-Linetype-7
 70
     0
  3
Adobe Illustrator Linetype No. 7
 72
    65
 73
     2
 40
9.58322143844926
 49
4.79161071922463
 74
     0
 49
-4.79161071922463
 74
     0
  0
LTYPE
  5
B7
330
5
100
AcDbSymbolTableRecord
100
AcDbLinetypeTableRecord
  2
AI-Linetype-8
 70
     0
  3
Adobe Illustrator Linetype No. 8
 72
    65
 73
     4
 40
43.12470842713844
 49
28.74987626946455
 74
     0
 49
-4.79161071922463
 74
     0
 49
4.79161071922463
 74
     0
 49
-4.79161071922463
 74
     0
  0
LTYPE
  5
BE
330
5
100
AcDbSymbolTableRecord
100
AcDbLinetypeTableRecord
  2
AI-Linetype-9
 70
     0
  3
Adobe Illustrator Linetype No. 9
 72
    65
 73
     2
 40
7.270862246391072
 49
3.635375106750391
 74
     0
 49
-3.635487139640682
 74
     0
  0
LTYPE
  5
C0
330
5
100
AcDbSymbolTableRecord
100
AcDbLinetypeTableRecord
  2
AI-Linetype-10
 70
     0
  3
Adobe Illustrator Linetype No. 10
 72
    65
 73
     2
 40
7.270862246391072
 49
3.635375106750391
 74
     0
 49
-3.635487139640682
 74
     0
  0
ENDTAB
  0
TABLE
  2
LAYER
  5
2
330
0
100
AcDbSymbolTable
 70
     1
  0
LAYER
  5
10
330
2
100
AcDbSymbolTableRecord
100
AcDbLayerTableRecord
  2
0
 70
     0
 62
     7
  6
Continuous
370
    -3
390
F
347
3E
  0
ENDTAB
  0
TABLE
  2
STYLE
  5
3
330
0
100
AcDbSymbolTable
 70
     1
  0
STYLE
  5
11
330
3
100
AcDbSymbolTableRecord
100
AcDbTextStyleTableRecord
  2
Standard
 70
     0
 40
0.0
 41
1.0
 50
0.0
 71
     0
 42
0.2
  3
txt
  4

  0
ENDTAB
  0
TABLE
  2
VIEW
  5
6
330
0
100
AcDbSymbolTable
 70
     0
  0
ENDTAB
  0
TABLE
  2
UCS
  5
7
330
0
100
AcDbSymbolTable
 70
     0
  0
ENDTAB
  0
TABLE
  2
APPID
  5
9
330
0
100
AcDbSymbolTable
 70
     1
  0
APPID
  5
12
330
9
100
AcDbSymbolTableRecord
100
AcDbRegAppTableRecord
  2
ACAD
 70
     0
  0
ENDTAB
  0
TABLE
  2
DIMSTYLE
  5
A
330
0
100
AcDbSymbolTable
 70
     1
100
AcDbDimStyleTable
  0
DIMSTYLE
105
27
330
A
100
AcDbSymbolTableRecord
100
AcDbDimStyleTableRecord
  2
Standard
 70
     0
178
     0
340
11
  0
ENDTAB
  0
TABLE
  2
BLOCK_RECORD
  5
1
330
0
100
AcDbSymbolTable
 70
     9
  0
BLOCK_RECORD
  5
1F
330
1
100
AcDbSymbolTableRecord
100
AcDbBlockTableRecord
  2
*Model_Space
340
22
 70
     0
280
     1
281
     0
  0
BLOCK_RECORD
  5
1B
330
1
100
AcDbSymbolTableRecord
100
AcDbBlockTableRecord
  2
*Paper_Space
340
1E
 70
     0
280
     1
281
     0
  0
BLOCK_RECORD
  5
23
330
1
100
AcDbSymbolTableRecord
100
AcDbBlockTableRecord
  2
*Paper_Space0
340
26
 70
     0
280
     1
281
     0
  0
BLOCK_RECORD
  5
52
330
1
100
AcDbSymbolTableRecord
100
AcDbBlockTableRecord
  2
block 2
340
0
102
{BLKREFS
331
53
102
}
 70
     0
280
     1
281
     0
  0
BLOCK_RECORD
  5
56
330
1
100
AcDbSymbolTableRecord
100
AcDbBlockTableRecord
  2
block 3
340
0
102
{BLKREFS
331
57
102
}
 70
     0
280
     1
281
     0
  0
BLOCK_RECORD
  5
6C
330
1
100
AcDbSymbolTableRecord
100
AcDbBlockTableRecord
  2
block 4
340
0
102
{BLKREFS
331
6D
102
}
 70
     0
280
     1
281
     0
  0
BLOCK_RECORD
  5
70
330
1
100
AcDbSymbolTableRecord
100
AcDbBlockTableRecord
  2
block 5
340
0
102
{BLKREFS
331
71
102
}
 70
     0
280
     1
281
     0
  0
BLOCK_RECORD
  5
89
330
1
100
AcDbSymbolTableRecord
100
AcDbBlockTableRecord
  2
block 6
340
0
102
{BLKREFS
331
8A
102
}
 70
     0
280
     1
281
     0
  0
BLOCK_RECORD
  5
8D
330
1
100
AcDbSymbolTableRecord
100
AcDbBlockTableRecord
  2
block 7
340
0
102
{BLKREFS
331
8E
102
}
 70
     0
280
     1
281
     0
  0
BLOCK_RECORD
  5
91
330
1
100
AcDbSymbolTableRecord
100
AcDbBlockTableRecord
  2
block 8
340
0
102
{BLKREFS
331
92
102
}
 70
     0
280
     1
281
     0
  0
BLOCK_RECORD
  5
A7
330
1
100
AcDbSymbolTableRecord
100
AcDbBlockTableRecord
  2
block 9
340
0
102
{BLKREFS
331
A8
102
}
 70
     0
280
     1
281
     0
  0
ENDTAB
  0
ENDSEC
  0
SECTION
  2
BLOCKS
  0
BLOCK
  5
20
330
1F
100
AcDbEntity
  8
0
100
AcDbBlockBegin
  2
*Model_Space
 70
     0
 10
0.0
 20
0.0
 30
0.0
  3
*Model_Space
  1

  0
ENDBLK
  5
21
330
1F
100
AcDbEntity
  8
0
100
AcDbBlockEnd
  0
BLOCK
  5
1C
330
1B
100
AcDbEntity
 67
     1
  8
0
100
AcDbBlockBegin
  2
*Paper_Space
 70
     0
 10
0.0
 20
0.0
 30
0.0
  3
*Paper_Space
  1

  0
ENDBLK
  5
1D
330
1B
100
AcDbEntity
 67
     1
  8
0
100
AcDbBlockEnd
  0
BLOCK
  5
24
330
23
100
AcDbEntity
  8
0
100
AcDbBlockBegin
  2
*Paper_Space0
 70
     0
 10
0.0
 20
0.0
 30
0.0
  3
*Paper_Space0
  1

  0
ENDBLK
  5
25
330
23
100
AcDbEntity
  8
0
100
AcDbBlockEnd
  0
BLOCK
  5
54
330
52
100
AcDbEntity
  8
0
100
AcDbBlockBegin
  2
block 2
 70
     0
 10
0.0
 20
0.0
 30
0.0
  3
block 2
  1

  0
INSERT
  5
57
330
52
100
AcDbEntity
  8
0
100
AcDbBlockReference
  2
block 3
 10
0.0
 20
0.0
 30
0.0
  0
ENDBLK
  5
55
330
52
100
AcDbEntity
  8
0
100
AcDbBlockEnd
  0
BLOCK
  5
58
330
56
100
AcDbEntity
  8
0
100
AcDbBlockBegin
  2
block 3
 70
     0
 10
0.0
 20
0.0
 30
0.0
  3
block 3
  1

  0
POLYLINE
  5
5A
330
56
100
AcDbEntity
  8
0
 62
     4
370
    25
100
AcDb2dPolyline
 66
     1
 10
0.0
 20
0.0
 30
0.0
  0
VERTEX
  5
5B
330
5A
100
AcDbEntity
  8
0
 62
     4
370
    25
100
AcDbVertex
100
AcDb2dVertex
 10
45.63089797680571
 20
-202.2607377288402
 30
0.0
  0
VERTEX
  5
5C
330
5A
100
AcDbEntity
  8
0
 62
     4
370
    25
100
AcDbVertex
100
AcDb2dVertex
 10
56.88098109200806
 20
-202.2607377288402
 30
0.0
  0
SEQEND
  5
5D
330
5A
100
AcDbEntity
  8
0
 62
     4
370
    25
  0
POLYLINE
  5
5E
330
56
100
AcDbEntity
  8
0
  6
AI-Linetype-1
 62
     4
370
    25
100
AcDb2dPolyline
 66
     1
 10
0.0
 20
0.0
 30
0.0
  0
VERTEX
  5
5F
330
5E
100
AcDbEntity
  8
0
  6
AI-Linetype-1
 62
     4
370
    25
100
AcDbVertex
100
AcDb2dVertex
 10
61.27831711826604
 20
-202.2607377288402
 30
0.0
  0
VERTEX
  5
60
330
5E
100
AcDbEntity
  8
0
  6
AI-Linetype-1
 62
     4
370
    25
100
AcDbVertex
100
AcDb2dVertex
 10
67.87432923209555
 20
-202.2607377288402
 30
0.0
  0
SEQEND
  5
62
330
5E
100
AcDbEntity
  8
0
  6
AI-Linetype-1
 62
     4
370
    25
  0
POLYLINE
  5
63
330
56
100
AcDbEntity
  8
0
  6
AI-Linetype-2
 62
     4
370
    25
100
AcDb2dPolyline
 66
     1
 10
0.0
 20
0.0
 30
0.0
  0
VERTEX
  5
64
330
63
100
AcDbEntity
  8
0
  6
AI-Linetype-2
 62
     4
370
    25
100
AcDbVertex
100
AcDb2dVertex
 10
70.07299993670539
 20
-202.2607377288402
 30
0.0
  0
VERTEX
  5
65
330
63
100
AcDbEntity
  8
0
  6
AI-Linetype-2
 62
     4
370
    25
100
AcDbVertex
100
AcDb2dVertex
 10
147.0268460224067
 20
-202.2607377288402
 30
0.0
  0
SEQEND
  5
67
330
63
100
AcDbEntity
  8
0
  6
AI-Linetype-2
 62
     4
370
    25
  0
POLYLINE
  5
68
330
56
100
AcDbEntity
  8
0
 62
     4
370
    25
100
AcDb2dPolyline
 66
     1
 10
0.0
 20
0.0
 30
0.0
  0
VERTEX
  5
69
330
68
100
AcDbEntity
  8
0
 62
     4
370
    25
100
AcDbVertex
100
AcDb2dVertex
 10
149.2255167270166
 20
-202.2607377288402
 30
0.0
  0
VERTEX
  5
6A
330
68
100
AcDbEntity
  8
0
 62
     4
370
    25
100
AcDbVertex
100
AcDb2dVertex
 10
160.4755944592572
 20
-202.2607377288402
 30
0.0
  0
SEQEND
  5
6B
330
68
100
AcDbEntity
  8
0
 62
     4
370
    25
  0
ENDBLK
  5
59
330
56
100
AcDbEntity
  8
0
100
AcDbBlockEnd
  0
BLOCK
  5
6E
330
6C
100
AcDbEntity
  8
0
100
AcDbBlockBegin
  2
block 4
 70
     0
 10
0.0
 20
0.0
 30
0.0
  3
block 4
  1

  0
INSERT
  5
71
330
6C
100
AcDbEntity
  8
0
100
AcDbBlockReference
  2
block 5
 10
0.0
 20
0.0
 30
0.0
  0
ENDBLK
  5
6F
330
6C
100
AcDbEntity
  8
0
100
AcDbBlockEnd
  0
BLOCK
  5
72
330
70
100
AcDbEntity
  8
0
100
AcDbBlockBegin
  2
block 5
 70
     0
 10
0.0
 20
0.0
 30
0.0
  3
block 5
  1

  0
POLYLINE
  5
74
330
70
100
AcDbEntity
  8
0
 62
     4
370
    25
100
AcDb2dPolyline
 66
     1
 10
0.0
 20
0.0
 30
0.0
  0
VERTEX
  5
75
330
74
100
AcDbEntity
  8
0
 62
     4
370
    25
100
AcDbVertex
100
AcDb2dVertex
 10
103.0532489095123
 20
-145.6548905750229
 30
0.0
  0
VERTEX
  5
76
330
74
100
AcDbEntity
  8
0
 62
     4
370
    25
100
AcDbVertex
100
AcDb2dVertex
 10
103.0532489095123
 20
-156.904979073187
 30
0.0
  0
SEQEND
  5
77
330
74
100
AcDbEntity
  8
0
 62
     4
370
    25
  0
POLYLINE
  5
78
330
70
100
AcDbEntity
  8
0
  6
AI-Linetype-3
 62
     4
370
    25
100
AcDb2dPolyline
 66
     1
 10
0.0
 20
0.0
 30
0.0
  0
VERTEX
  5
79
330
78
100
AcDbEntity
  8
0
  6
AI-Linetype-3
 62
     4
370
    25
100
AcDbVertex
100
AcDb2dVertex
 10
103.0532489095123
 20
-161.2931263838304
 30
0.0
  0
VERTEX
  5
7A
330
78
100
AcDbEntity
  8
0
  6
AI-Linetype-3
 62
     4
370
    25
100
AcDbVertex
100
AcDb2dVertex
 10
103.0532489095123
 20
-167.8753581157189
 30
0.0
  0
SEQEND
  5
7C
330
78
100
AcDbEntity
  8
0
  6
AI-Linetype-3
 62
     4
370
    25
  0
POLYLINE
  5
7D
330
70
100
AcDbEntity
  8
0
  6
AI-Linetype-4
 62
     4
370
    25
100
AcDb2dPolyline
 66
     1
 10
0.0
 20
0.0
 30
0.0
  0
VERTEX
  5
7E
330
7D
100
AcDbEntity
  8
0
  6
AI-Linetype-4
 62
     4
370
    25
100
AcDbVertex
100
AcDb2dVertex
 10
103.0532489095123
 20
-170.0694317710406
 30
0.0
  0
VERTEX
  5
7F
330
7D
100
AcDbEntity
  8
0
  6
AI-Linetype-4
 62
     4
370
    25
100
AcDbVertex
100
AcDb2dVertex
 10
103.0532489095123
 20
-246.862494173853
 30
0.0
  0
SEQEND
  5
81
330
7D
100
AcDbEntity
  8
0
  6
AI-Linetype-4
 62
     4
370
    25
  0
POLYLINE
  5
82
330
70
100
AcDbEntity
  8
0
 62
     4
370
    25
100
AcDb2dPolyline
 66
     1
 10
0.0
 20
0.0
 30
0.0
  0
VERTEX
  5
83
330
82
100
AcDbEntity
  8
0
 62
     4
370
    25
100
AcDbVertex
100
AcDb2dVertex
 10
103.0532489095123
 20
-249.0565893610215
 30
0.0
  0
VERTEX
  5
84
330
82
100
AcDbEntity
  8
0
 62
     4
370
    25
100
AcDbVertex
100
AcDb2dVertex
 10
103.0532489095123
 20
-260.3066563273387
 30
0.0
  0
SEQEND
  5
85
330
82
100
AcDbEntity
  8
0
 62
     4
370
    25
  0
ENDBLK
  5
73
330
70
100
AcDbEntity
  8
0
100
AcDbBlockEnd
  0
BLOCK
  5
8B
330
89
100
AcDbEntity
  8
0
100
AcDbBlockBegin
  2
block 6
 70
     0
 10
0.0
 20
0.0
 30
0.0
  3
block 6
  1

  0
INSERT
  5
8E
330
89
100
AcDbEntity
  8
0
100
AcDbBlockReference
  2
block 7
 10
0.0
 20
0.0
 30
0.0
  0
ENDBLK
  5
8C
330
89
100
AcDbEntity
  8
0
100
AcDbBlockEnd
  0
BLOCK
  5
8F
330
8D
100
AcDbEntity
  8
0
100
AcDbBlockBegin
  2
block 7
 70
     0
 10
0.0
 20
0.0
 30
0.0
  3
block 7
  1

  0
INSERT
  5
92
330
8D
100
AcDbEntity
  8
0
100
AcDbBlockReference
  2
block 8
 10
0.0
 20
0.0
 30
0.0
  0
INSERT
  5
A8
330
8D
100
AcDbEntity
  8
0
100
AcDbBlockReference
  2
block 9
 10
0.0
 20
0.0
 30
0.0
  0
ENDBLK
  5
90
330
8D
100
AcDbEntity
  8
0
100
AcDbBlockEnd
  0
BLOCK
  5
93
330
91
100
AcDbEntity
  8
0
100
AcDbBlockBegin
  2
block 8
 70
     0
 10
0.0
 20
0.0
 30
0.0
  3
block 8
  1

  0
POLYLINE
  5
95
330
91
100
AcDbEntity
  8
0
 62
     4
370
    25
100
AcDb2dPolyline
 66
     1
 10
0.0
 20
0.0
 30
0.0
  0
VERTEX
  5
96
330
95
100
AcDbEntity
  8
0
 62
     4
370
    25
100
AcDbVertex
100
AcDb2dVertex
 10
143.4841574416138
 20
-52.06686925646028
 30
0.0
  0
VERTEX
  5
97
330
95
100
AcDbEntity
  8
0
 62
     4
370
    25
100
AcDbVertex
100
AcDb2dVertex
 10
132.2340797093731
 20
-52.06686925646028
 30
0.0
  0
SEQEND
  5
98
330
95
100
AcDbEntity
  8
0
 62
     4
370
    25
  0
POLYLINE
  5
99
330
91
100
AcDbEntity
  8
0
  6
AI-Linetype-5
 62
     4
370
    25
100
AcDb2dPolyline
 66
     1
 10
0.0
 20
0.0
 30
0.0
  0
VERTEX
  5
9A
330
99
100
AcDbEntity
  8
0
  6
AI-Linetype-5
 62
     4
370
    25
100
AcDbVertex
100
AcDb2dVertex
 10
127.4424686537134
 20
-52.06686925646028
 30
0.0
  0
VERTEX
  5
9B
330
99
100
AcDbEntity
  8
0
  6
AI-Linetype-5
 62
     4
370
    25
100
AcDbVertex
100
AcDb2dVertex
 10
120.2550520702238
 20
-52.06686925646028
 30
0.0
  0
SEQEND
  5
9D
330
99
100
AcDbEntity
  8
0
  6
AI-Linetype-5
 62
     4
370
    25
  0
POLYLINE
  5
9E
330
91
100
AcDbEntity
  8
0
  6
AI-Linetype-6
 62
     4
370
    25
100
AcDb2dPolyline
 66
     1
 10
0.0
 20
0.0
 30
0.0
  0
VERTEX
  5
9F
330
9E
100
AcDbEntity
  8
0
  6
AI-Linetype-6
 62
     4
370
    25
100
AcDbVertex
100
AcDb2dVertex
 10
117.8592465423939
 20
-52.06686925646028
 30
0.0
  0
VERTEX
  5
A0
330
9E
100
AcDbEntity
  8
0
  6
AI-Linetype-6
 62
     4
370
    25
100
AcDbVertex
100
AcDb2dVertex
 10
77.13033725081833
 20
-52.06686925646028
 30
0.0
  0
SEQEND
  5
A2
330
9E
100
AcDbEntity
  8
0
  6
AI-Linetype-6
 62
     4
370
    25
  0
POLYLINE
  5
A3
330
91
100
AcDbEntity
  8
0
 62
     4
370
    25
100
AcDb2dPolyline
 66
     1
 10
0.0
 20
0.0
 30
0.0
  0
VERTEX
  5
A4
330
A3
100
AcDbEntity
  8
0
 62
     4
370
    25
100
AcDbVertex
100
AcDb2dVertex
 10
74.73453172298846
 20
-52.06686925646028
 30
0.0
  0
VERTEX
  5
A5
330
A3
100
AcDbEntity
  8
0
 62
     4
370
    25
100
AcDbVertex
100
AcDb2dVertex
 10
63.48444860778612
 20
-52.06686925646028
 30
0.0
  0
SEQEND
  5
A6
330
A3
100
AcDbEntity
  8
0
 62
     4
370
    25
  0
ENDBLK
  5
94
330
91
100
AcDbEntity
  8
0
100
AcDbBlockEnd
  0
BLOCK
  5
A9
330
A7
100
AcDbEntity
  8
0
100
AcDbBlockBegin
  2
block 9
 70
     0
 10
0.0
 20
0.0
 30
0.0
  3
block 9
  1

  0
POLYLINE
  5
AB
330
A7
100
AcDbEntity
  8
0
 62
     4
370
    25
100
AcDb2dPolyline
 66
     1
 10
0.0
 20
0.0
 30
0.0
  0
VERTEX
  5
AC
330
AB
100
AcDbEntity
  8
0
 62
     4
370
    25
100
AcDbVertex
100
AcDb2dVertex
 10
103.4847363531164
 20
-12.06755448145645
 30
0.0
  0
VERTEX
  5
AD
330
AB
100
AcDbEntity
  8
0
 62
     4
370
    25
100
AcDbVertex
100
AcDb2dVertex
 10
103.4847363531164
 20
-23.31763625091837
 30
0.0
  0
SEQEND
  5
AE
330
AB
100
AcDbEntity
  8
0
 62
     4
370
    25
  0
POLYLINE
  5
AF
330
A7
100
AcDbEntity
  8
0
  6
AI-Linetype-7
 62
     4
370
    25
100
AcDb2dPolyline
 66
     1
 10
0.0
 20
0.0
 30
0.0
  0
VERTEX
  5
B0
330
AF
100
AcDbEntity
  8
0
  6
AI-Linetype-7
 62
     4
370
    25
100
AcDbVertex
100
AcDb2dVertex
 10
103.4847363531164
 20
-28.1092473065781
 30
0.0
  0
VERTEX
  5
B1
330
AF
100
AcDbEntity
  8
0
  6
AI-Linetype-7
 62
     4
370
    25
100
AcDbVertex
100
AcDb2dVertex
 10
103.4847363531164
 20
-35.29666389006771
 30
0.0
  0
SEQEND
  5
B3
330
AF
100
AcDbEntity
  8
0
  6
AI-Linetype-7
 62
     4
370
    25
  0
POLYLINE
  5
B4
330
A7
100
AcDbEntity
  8
0
  6
AI-Linetype-8
 62
     4
370
    25
100
AcDb2dPolyline
 66
     1
 10
0.0
 20
0.0
 30
0.0
  0
VERTEX
  5
B5
330
B4
100
AcDbEntity
  8
0
  6
AI-Linetype-8
 62
     4
370
    25
100
AcDbVertex
100
AcDb2dVertex
 10
103.4847363531164
 20
-37.69246941789758
 30
0.0
  0
VERTEX
  5
B6
330
B4
100
AcDbEntity
  8
0
  6
AI-Linetype-8
 62
     4
370
    25
100
AcDbVertex
100
AcDb2dVertex
 10
103.4847363531164
 20
-78.42137601799232
 30
0.0
  0
SEQEND
  5
B8
330
B4
100
AcDbEntity
  8
0
  6
AI-Linetype-8
 62
     4
370
    25
  0
POLYLINE
  5
B9
330
A7
100
AcDbEntity
  8
0
 62
     4
370
    25
100
AcDb2dPolyline
 66
     1
 10
0.0
 20
0.0
 30
0.0
  0
VERTEX
  5
BA
330
B9
100
AcDbEntity
  8
0
 62
     4
370
    25
100
AcDbVertex
100
AcDb2dVertex
 10
103.4847363531164
 20
-80.81718154582218
 30
0.0
  0
VERTEX
  5
BB
330
B9
100
AcDbEntity
  8
0
 62
     4
370
    25
100
AcDbVertex
100
AcDb2dVertex
 10
103.4847363531164
 20
-92.06725927806283
 30
0.0
  0
SEQEND
  5
BC
330
B9
100
AcDbEntity
  8
0
 62
     4
370
    25
  0
ENDBLK
  5
AA
330
A7
100
AcDbEntity
  8
0
100
AcDbBlockEnd
  0
ENDSEC
  0
SECTION
  2
ENTITIES
  0
SPLINE
  5
40
330
1F
100
AcDbEntity
  8
0
 62
   250
370
    25
100
AcDbSpline
210
0.0
220
0.0
230
1.0
 70
    11
 71
     3
 72
    83
 73
    79
 74
     0
 42
0.0000000001
 43
0.0000000001
 12
1.0
 22
0.0
 32
0.0
 13
1.0
 23
0.0
 33
0.0
 40
0.0
 40
0.0
 40
0.0
 40
0.0
 40
1.0
 40
1.0
 40
1.0
 40
2.0
 40
2.0
 40
2.0
 40
3.0
 40
3.0
 40
3.0
 40
4.0
 40
4.0
 40
4.0
 40
5.0
 40
5.0
 40
5.0
 40
6.0
 40
6.0
 40
6.0
 40
7.0
 40
7.0
 40
7.0
 40
8.0
 40
8.0
 40
8.0
 40
9.0
 40
9.0
 40
9.0
 40
10.0
 40
10.0
 40
10.0
 40
11.0
 40
11.0
 40
11.0
 40
12.0
 40
12.0
 40
12.0
 40
13.0
 40
13.0
 40
13.0
 40
14.0
 40
14.0
 40
14.0
 40
15.0
 40
15.0
 40
15.0
 40
16.0
 40
16.0
 40
16.0
 40
17.0
 40
17.0
 40
17.0
 40
18.0
 40
18.0
 40
18.0
 40
19.0
 40
19.0
 40
19.0
 40
20.0
 40
20.0
 40
20.0
 40
21.0
 40
21.0
 40
21.0
 40
22.0
 40
22.0
 40
22.0
 40
23.0
 40
23.0
 40
23.0
 40
24.0
 40
24.0
 40
24.0
 40
25.0
 40
25.0
 40
25.0
 40
26.0
 40
26.0
 40
26.0
 40
26.0
 10
577.2804470810775
 20
14.70615587499908
 30
0.0
 10
577.2830223740665
 20
-129.6058634217459
 30
0.0
 10
577.2829165401083
 20
-273.9178353124119
 30
0.0
 10
577.2804118030843
 20
-418.2298424810601
 30
0.0
 10
577.2803412471161
 20
-422.7410501268579
 30
0.0
 10
577.2803765251022
 20
-427.2522577726339
 30
0.0
 10
577.2805529150312
 20
-431.7634645691045
 30
0.0
 10
577.2807998609363
 20
-436.6192324197931
 30
0.0
 10
577.1421220972959
 20
-440.406535903293
 30
0.0
 10
575.3198377215733
 20
-445.0575503222416
 30
0.0
 10
572.0387733396428
 20
-453.4318739577739
 30
0.0
 10
564.6312429151616
 20
-460.1417469277173
 30
0.0
 10
555.9382532305386
 20
-462.512039540635
 30
0.0
 10
551.4725893509367
 20
-463.7296592333711
 30
0.0
 10
547.0408981720174
 20
-463.676742254107
 30
0.0
 10
542.5218234213482
 20
-463.717664718074
 30
0.0
 10
538.0108273295191
 20
-463.7585519040408
 30
0.0
 10
533.4998312376836
 20
-463.7992627000855
 30
0.0
 10
528.9888351458544
 20
-463.8389151565462
 30
0.0
 10
519.966913518158
 20
-463.9181495134839
 30
0.0
 10
510.9449566124787
 20
-463.99434996362
 30
0.0
 10
501.9229644288101
 20
-464.067516506936
 30
0.0
 10
465.8349251381745
 20
-464.3601121242537
 30
0.0
 10
429.7466741796232
 20
-464.6039182866905
 30
0.0
 10
393.6579998852416
 20
-464.798934994249
 30
0.0
 10
321.5026294818484
 20
-465.1888978533952
 30
0.0
 10
249.3475060243623
 20
-465.383844004979
 30
0.0
 10
177.1910772813915
 20
-465.383844004979
 30
0.0
 10
105.0346132604308
 20
-465.383844004979
 30
0.0
 10
32.87945452495956
 20
-465.1888978533952
 30
0.0
 10
-39.27595115641547
 20
-464.798934994249
 30
0.0
 10
-75.36843547331048
 20
-464.6038830086974
 30
0.0
 10
-111.4604611763811
 20
-464.3600415682783
 30
0.0
 10
-147.5522752115385
 20
-464.0674106729817
 30
0.0
 10
-156.5752199008301
 20
-463.9942441296624
 30
0.0
 10
-165.5981293121372
 20
-463.9180436795295
 30
0.0
 10
-174.6210387234446
 20
-463.8387740446096
 30
0.0
 10
-179.1324581511101
 20
-463.7991568661279
 30
0.0
 10
-183.643912856764
 20
-463.7587635719597
 30
0.0
 10
-188.1553322844298
 20
-463.7175941620986
 30
0.0
 10
-192.6749714828764
 20
-463.6763541962653
 30
0.0
 10
-197.1067332177618
 20
-463.7309645188493
 30
0.0
 10
-201.572714599239
 20
-462.5081236841709
 30
0.0
 10
-210.2557911697527
 20
-460.1306696400613
 30
0.0
 10
-217.6648385476427
 20
-453.4243244687334
 30
0.0
 10
-220.9418812391453
 20
-445.0522586243277
 30
0.0
 10
-222.7519594316508
 20
-440.4278438069335
 30
0.0
 10
-222.8998094717
 20
-436.5930914320415
 30
0.0
 10
-222.8991039119747
 20
-431.7655106923012
 30
0.0
 10
-222.8984689082251
 20
-427.2536336140631
 30
0.0
 10
-222.8980808503767
 20
-422.7417204085689
 30
0.0
 10
-222.8980808503767
 20
-418.2298424810601
 30
0.0
 10
-222.8984336302374
 20
-273.9178353124119
 30
0.0
 10
-222.9000916955886
 20
-129.6058634217459
 30
0.0
 10
-222.8972694566948
 20
14.70615587499908
 30
0.0
 10
-222.8972694566948
 20
14.70615587499908
 30
0.0
 10
-222.8953997234269
 20
14.70615587499908
 30
0.0
 10
-222.8953997234269
 20
14.70615587499908
 30
0.0
 10
-222.8709873569986
 20
14.70615587499908
 30
0.0
 10
-222.8474569402208
 20
14.70615587499908
 30
0.0
 10
-222.8238912454585
 20
14.70615587499908
 30
0.0
 10
-222.7577802993706
 20
14.70615587499908
 30
0.0
 10
-222.691457685366
 20
14.70615587499908
 30
0.0
 10
-222.6251703493493
 20
14.70615587499908
 30
0.0
 10
-222.3743791456527
 20
14.70615587499908
 30
0.0
 10
-222.1236584979253
 20
14.70615587499908
 30
0.0
 10
-221.8729378501976
 20
14.70615587499908
 30
0.0
 10
-220.2247856142236
 20
14.70615587499908
 30
0.0
 10
-218.5765981002616
 20
14.70615587499908
 30
0.0
 10
-216.9284458642844
 20
14.70615587499908
 30
0.0
 10
-110.5554044411393
 20
14.70615587499908
 30
0.0
 10
-4.182327740000153
 20
14.70615587499908
 30
0.0
 10
102.1907136831478
 20
14.70615587499908
 30
0.0
 10
258.5640563017686
 20
14.70615587499908
 30
0.0
 10
414.9374341983735
 20
14.70615587499908
 30
0.0
 10
571.3107768169949
 20
14.70615587499908
 30
0.0
 10
573.3006669050245
 20
14.70615587499908
 30
0.0
 10
575.2905569930472
 20
14.70615587499908
 30
0.0
 10
577.2804470810775
 20
14.70615587499908
 30
0.0
  0
SPLINE
  5
41
330
1F
100
AcDbEntity
  8
0
 62
   250
370
    25
100
AcDbSpline
210
0.0
220
0.0
230
1.0
 70
     8
 71
     3
 72
    53
 73
    49
 74
     0
 42
0.0000000001
 43
0.0000000001
 12
1.0
 22
0.0
 32
0.0
 13
1.0
 23
0.0
 33
0.0
 40
0.0
 40
0.0
 40
0.0
 40
0.0
 40
1.0
 40
1.0
 40
1.0
 40
2.0
 40
2.0
 40
2.0
 40
3.0
 40
3.0
 40
3.0
 40
4.0
 40
4.0
 40
4.0
 40
5.0
 40
5.0
 40
5.0
 40
6.0
 40
6.0
 40
6.0
 40
7.0
 40
7.0
 40
7.0
 40
8.0
 40
8.0
 40
8.0
 40
9.0
 40
9.0
 40
9.0
 40
10.0
 40
10.0
 40
10.0
 40
11.0
 40
11.0
 40
11.0
 40
12.0
 40
12.0
 40
12.0
 40
13.0
 40
13.0
 40
13.0
 40
14.0
 40
14.0
 40
14.0
 40
15.0
 40
15.0
 40
15.0
 40
16.0
 40
16.0
 40
16.0
 40
16.0
 10
89.69062956478227
 20
-121.9182259812574
 30
0.0
 10
89.68978289311592
 20
-121.9800682894575
 30
0.0
 10
89.71627666073176
 20
-122.0375714054658
 30
0.0
 10
89.75162520287856
 20
-122.0872428087413
 30
0.0
 10
89.79967382003777
 20
-122.1548354285383
 30
0.0
 10
89.86412670078127
 20
-122.2080346303459
 30
0.0
 10
89.93217793610889
 20
-122.2553424086057
 30
0.0
 10
90.02598210133394
 20
-122.3205361254091
 30
0.0
 10
90.12673602984334
 20
-122.3745467208694
 30
0.0
 10
90.23017108530222
 20
-122.422418946897
 30
0.0
 10
90.36472132456356
 20
-122.4847198689019
 30
0.0
 10
90.50382242404227
 20
-122.5366843412163
 30
0.0
 10
90.64426408698945
 20
-122.5843448993374
 30
0.0
 10
91.02254993271256
 20
-122.712686209789
 30
0.0
 10
91.41039611268772
 20
-122.8099828931942
 30
0.0
 10
91.80092341961267
 20
-122.8939092201759
 30
0.0
 10
92.31527645800686
 20
-123.0044351480627
 30
0.0
 10
92.83425091258769
 20
-123.0917481616322
 30
0.0
 10
93.35470704258094
 20
-123.1678780538686
 30
0.0
 10
94.69788108809632
 20
-123.3643411538976
 30
0.0
 10
96.05093296974995
 20
-123.4862971490131
 30
0.0
 10
97.40585458465831
 20
-123.5706820898054
 30
0.0
 10
98.99890260623792
 20
-123.6699190624024
 30
0.0
 10
100.5944906428166
 20
-123.7172621186431
 30
0.0
 10
102.1907136831478
 20
-123.71800295634
 30
0.0
 10
103.7872189473679
 20
-123.7172268406621
 30
0.0
 10
105.383124485826
 20
-123.6698837844182
 30
0.0
 10
106.9764194533036
 20
-123.5706115338364
 30
0.0
 10
108.3310588443295
 20
-123.4862265930403
 30
0.0
 10
109.6838637800726
 20
-123.3643058759096
 30
0.0
 10
111.0267203237147
 20
-123.1678780538686
 30
0.0
 10
111.5472117316988
 20
-123.0917481616322
 30
0.0
 10
112.0661861862799
 20
-123.0044351480627
 30
0.0
 10
112.5805392246677
 20
-122.8939092201759
 30
0.0
 10
112.9710665315923
 20
-122.8099828931942
 30
0.0
 10
113.3589127115678
 20
-122.712686209789
 30
0.0
 10
113.7371632793061
 20
-122.5843096213497
 30
0.0
 10
113.8776049422598
 20
-122.5366490632354
 30
0.0
 10
114.0167413197229
 20
-122.4847198689019
 30
0.0
 10
114.1512915589782
 20
-122.422418946897
 30
0.0
 10
114.2547266144431
 20
-122.3745467208694
 30
0.0
 10
114.355445264962
 20
-122.3205361254091
 30
0.0
 10
114.4492847081776
 20
-122.2553424086057
 30
0.0
 10
114.5173359435055
 20
-122.2080346303459
 30
0.0
 10
114.5817535462578
 20
-122.1548354285383
 30
0.0
 10
114.629802163417
 20
-122.0872428087413
 30
0.0
 10
114.6651507055699
 20
-122.0375714054658
 30
0.0
 10
114.6916444731803
 20
-121.9800682894575
 30
0.0
 10
114.6907978015133
 20
-121.9182259812574
 30
0.0
  0
SPLINE
  5
42
330
1F
100
AcDbEntity
  8
0
 62
   250
370
    25
100
AcDbSpline
210
0.0
220
0.0
230
1.0
 70
     8
 71
     3
 72
   134
 73
   130
 74
     0
 42
0.0000000001
 43
0.0000000001
 12
1.0
 22
0.0
 32
0.0
 13
1.0
 23
0.0
 33
0.0
 40
0.0
 40
0.0
 40
0.0
 40
0.0
 40
1.0
 40
1.0
 40
1.0
 40
2.0
 40
2.0
 40
2.0
 40
3.0
 40
3.0
 40
3.0
 40
4.0
 40
4.0
 40
4.0
 40
5.0
 40
5.0
 40
5.0
 40
6.0
 40
6.0
 40
6.0
 40
7.0
 40
7.0
 40
7.0
 40
8.0
 40
8.0
 40
8.0
 40
9.0
 40
9.0
 40
9.0
 40
10.0
 40
10.0
 40
10.0
 40
11.0
 40
11.0
 40
11.0
 40
12.0
 40
12.0
 40
12.0
 40
13.0
 40
13.0
 40
13.0
 40
14.0
 40
14.0
 40
14.0
 40
15.0
 40
15.0
 40
15.0
 40
16.0
 40
16.0
 40
16.0
 40
17.0
 40
17.0
 40
17.0
 40
18.0
 40
18.0
 40
18.0
 40
19.0
 40
19.0
 40
19.0
 40
20.0
 40
20.0
 40
20.0
 40
21.0
 40
21.0
 40
21.0
 40
22.0
 40
22.0
 40
22.0
 40
23.0
 40
23.0
 40
23.0
 40
24.0
 40
24.0
 40
24.0
 40
25.0
 40
25.0
 40
25.0
 40
26.0
 40
26.0
 40
26.0
 40
27.0
 40
27.0
 40
27.0
 40
28.0
 40
28.0
 40
28.0
 40
29.0
 40
29.0
 40
29.0
 40
30.0
 40
30.0
 40
30.0
 40
31.0
 40
31.0
 40
31.0
 40
32.0
 40
32.0
 40
32.0
 40
33.0
 40
33.0
 40
33.0
 40
34.0
 40
34.0
 40
34.0
 40
35.0
 40
35.0
 40
35.0
 40
36.0
 40
36.0
 40
36.0
 40
37.0
 40
37.0
 40
37.0
 40
38.0
 40
38.0
 40
38.0
 40
39.0
 40
39.0
 40
39.0
 40
40.0
 40
40.0
 40
40.0
 40
41.0
 40
41.0
 40
41.0
 40
42.0
 40
42.0
 40
42.0
 40
43.0
 40
43.0
 40
43.0
 40
43.0
 10
-203.2009347730302
 20
6.002935574386142
 30
0.0
 10
-101.4037303802998
 20
5.998490548121863
 30
0.0
 10
0.3935092904180033
 20
5.995668309234526
 30
0.0
 10
102.1907136831478
 20
5.994751081596021
 30
0.0
 10
253.9882192713536
 20
5.993445796109125
 30
0.0
 10
405.786815082437
 20
5.436966694429731
 30
0.0
 10
557.5832657257442
 20
6.002935574386142
 30
0.0
 10
560.6376635119088
 20
6.01432381229731
 30
0.0
 10
570.185839176838
 20
4.783895299824257
 30
0.0
 10
571.3107768169949
 20
-4.783732033583836
 30
0.0
 10
571.3050265052531
 20
-79.72190054220195
 30
0.0
 10
571.2994525834338
 20
-135.1701542061535
 30
0.0
 10
571.2947253332867
 20
-210.1082855436915
 30
0.0
 10
571.2901744730693
 20
-282.3076457719304
 30
0.0
 10
571.2863997285488
 20
-354.5069707221747
 30
0.0
 10
571.2821310922226
 20
-426.7063662284009
 30
0.0
 10
571.2820252582682
 20
-428.4033784323524
 30
0.0
 10
571.2819547022929
 20
-430.1003906363085
 30
0.0
 10
571.2824133161092
 20
-431.7973667138156
 30
0.0
 10
571.282589706046
 20
-432.4852168881973
 30
0.0
 10
571.2828719299333
 20
-433.1730317845935
 30
0.0
 10
571.2722885340797
 20
-433.860881958979
 30
0.0
 10
571.2581420616252
 20
-434.7792737730005
 30
0.0
 10
571.22459269678
 20
-435.6977008650042
 30
0.0
 10
571.1480747447672
 20
-436.6129176602696
 30
0.0
 10
571.0831279722308
 20
-437.3893155799472
 30
0.0
 10
570.9872424058103
 20
-438.1634557085084
 30
0.0
 10
570.8490232559894
 20
-438.930187459976
 30
0.0
 10
570.5927286864467
 20
-440.3520666926424
 30
0.0
 10
570.1908065899856
 20
-441.7485810532541
 30
0.0
 10
569.6496422821097
 20
-443.087945076257
 30
0.0
 10
569.0879461862758
 20
-444.4782152333308
 30
0.0
 10
568.3762128152549
 20
-445.8068900265233
 30
0.0
 10
567.545134017011
 20
-447.0555896250763
 30
0.0
 10
566.674367484321
 20
-448.3639442982446
 30
0.0
 10
565.672649066964
 20
-449.5845273418107
 30
0.0
 10
564.5647791892134
 20
-450.6989236470071
 30
0.0
 10
563.3688554579736
 20
-451.9019382534645
 30
0.0
 10
562.0492471072196
 20
-452.9812329624041
 30
0.0
 10
560.6268739827475
 20
-453.9059748139423
 30
0.0
 10
559.267754287477
 20
-454.7895825335938
 30
0.0
 10
557.8148304269789
 20
-455.5320783085666
 30
0.0
 10
556.2976300756702
 20
-456.1001244419024
 30
0.0
 10
554.7929886874435
 20
-456.6634433251052
 30
0.0
 10
553.2251644259828
 20
-457.0551348055683
 30
0.0
 10
551.6359264269137
 20
-457.2981295743255
 30
0.0
 10
550.8495095591649
 20
-457.4183569512023
 30
0.0
 10
550.0578715494627
 20
-457.5021774463472
 30
0.0
 10
549.2646107523941
 20
-457.5597511197759
 30
0.0
 10
548.3219124058987
 20
-457.6281551349659
 30
0.0
 10
547.3769562682908
 20
-457.6595172646747
 30
0.0
 10
546.4318942967253
 20
-457.677473759632
 30
0.0
 10
545.7766409815695
 20
-457.6898916107633
 30
0.0
 10
545.1213171104345
 20
-457.6958535904312
 30
0.0
 10
544.4659932392995
 20
-457.701815570085
 30
0.0
 10
537.6070707777773
 20
-457.7642576056179
 30
0.0
 10
530.7481130382689
 20
-457.8258529694755
 30
0.0
 10
523.8891552987612
 20
-457.8856138780516
 30
0.0
 10
513.5825858046097
 20
-457.9753963528568
 30
0.0
 10
503.27594575449
 20
-458.0610513032871
 30
0.0
 10
492.9692704263778
 20
-458.1426845632847
 30
0.0
 10
473.8076089011401
 20
-458.2944857377822
 30
0.0
 10
454.6458415419411
 20
-458.4324932196834
 30
0.0
 10
435.4840036267744
 20
-458.5566717310175
 30
0.0
 10
398.3215732672651
 20
-458.7975145426166
 30
0.0
 10
361.1587901278963
 20
-458.9863576025921
 30
0.0
 10
323.9958305985953
 20
-459.1232009109555
 30
0.0
 10
250.061179684628
 20
-459.3955116862139
 30
0.0
 10
176.1257526549639
 20
-459.4620812461159
 30
0.0
 10
102.1907136831478
 20
-459.3229801466439
 30
0.0
 10
51.9568369412349
 20
-459.228470421691
 30
0.0
 10
1.72310131125922
 20
-459.0389923579618
 30
0.0
 10
-48.51006987093513
 20
-458.7545106774701
 30
0.0
 10
-75.34441116472414
 20
-458.6025683910257
 30
0.0
 10
-102.1786113465721
 20
-458.4234620552311
 30
0.0
 10
-129.0125998605004
 20
-458.2173680600088
 30
0.0
 10
-146.3011414319436
 20
-458.0845817200636
 30
0.0
 10
-163.589612447411
 20
-457.9405769805052
 30
0.0
 10
-180.877977628922
 20
-457.7850010614839
 30
0.0
 10
-183.6050717939893
 20
-457.7604828610909
 30
0.0
 10
-186.3322012370409
 20
-457.7356471588284
 30
0.0
 10
-189.0592954021041
 20
-457.7110584024704
 30
0.0
 10
-189.4714128365703
 20
-457.7073189359359
 30
0.0
 10
-189.8835302710327
 20
-457.7036147473843
 30
0.0
 10
-190.2956477054951
 20
-457.6996283349517
 30
0.0
 10
-190.5850683040499
 20
-457.6968413740406
 30
0.0
 10
-190.8744889026077
 20
-457.6938780232028
 30
0.0
 10
-191.1639095011625
 20
-457.6904560585417
 30
0.0
 10
-191.9283481835312
 20
-457.6813543381172
 30
0.0
 10
-192.6926810319341
 20
-457.6687248190567
 30
0.0
 10
-193.456590544507
 20
-457.6384210289397
 30
0.0
 10
-194.4840618917681
 20
-457.5976749549127
 30
0.0
 10
-195.5107571233382
 20
-457.5248964694377
 30
0.0
 10
-196.5310670394076
 20
-457.3975429393577
 30
0.0
 10
-197.4973663586501
 20
-457.2769275046361
 30
0.0
 10
-198.4579153661446
 20
-457.1073815030925
 30
0.0
 10
-199.4035770634755
 20
-456.8752170760908
 30
0.0
 10
-201.1699811091002
 20
-456.441580070066
 30
0.0
 10
-202.8843854031096
 20
-455.7895017736592
 30
0.0
 10
-204.4918973990168
 20
-454.9388789710777
 30
0.0
 10
-206.1968471927308
 20
-454.036679752708
 30
0.0
 10
-207.7815696095699
 20
-452.9111356038866
 30
0.0
 10
-209.2150905776756
 20
-451.6192557502644
 30
0.0
 10
-210.6632871880288
 20
-450.3141113738389
 30
0.0
 10
-211.9572131648505
 20
-448.8392093279476
 30
0.0
 10
-213.0503721223702
 20
-447.2248181247465
 30
0.0
 10
-214.3682871297839
 20
-445.2784963496405
 30
0.0
 10
-215.3944179135733
 20
-443.1293967100164
 30
0.0
 10
-216.0243416346655
 20
-440.8667019549181
 30
0.0
 10
-216.3384568235405
 20
-439.7384061231787
 30
0.0
 10
-216.5540405970381
 20
-438.5818526245079
 30
0.0
 10
-216.6869327709483
 20
-437.4176790808322
 30
0.0
 10
-216.8440256433733
 20
-436.0416259521986
 30
0.0
 10
-216.8855478330977
 20
-434.6549188717366
 30
0.0
 10
-216.8965545647848
 20
-433.2696934667077
 30
0.0
 10
-216.9001881973604
 20
-432.8144310551593
 30
0.0
 10
-216.900505699237
 20
-432.3593450335362
 30
0.0
 10
-216.9006115331936
 20
-431.9041884559351
 30
0.0
 10
-216.9007173671567
 20
-431.1099045972757
 30
0.0
 10
-216.9001176413851
 20
-430.3154443486794
 30
0.0
 10
-216.8999059734716
 20
-429.5210202840411
 30
0.0
 10
-216.8997648615273
 20
-429.025435146813
 30
0.0
 10
-216.8998001395117
 20
-428.5298500095849
 30
0.0
 10
-216.8998354174994
 20
-428.034300150343
 30
0.0
 10
-216.9019168186837
 20
-390.7654017700635
 30
0.0
 10
-216.9039276638959
 20
-353.4965386677656
 30
0.0
 10
-216.906044343065
 20
-316.2276755654607
 30
0.0
 10
-216.907596574456
 20
-288.6456886075017
 30
0.0
 10
-216.9092546398046
 20
-36.2521536161819
 30
0.0
 10
-216.9109479831399
 20
-8.670131380239106
 30
0.0
  0
SPLINE
  5
43
330
1F
100
AcDbEntity
  8
0
 62
   250
370
    25
100
AcDbSpline
210
0.0
220
0.0
230
1.0
 70
     8
 71
     3
 72
     8
 73
     4
 74
     0
 42
0.0000000001
 43
0.0000000001
 12
1.0
 22
0.0
 32
0.0
 13
1.0
 23
0.0
 33
0.0
 40
0.0
 40
0.0
 40
0.0
 40
0.0
 40
1.0
 40
1.0
 40
1.0
 40
1.0
 10
102.1907136831478
 20
-1.714300290702721
 30
0.0
 10
0.5655953069635414
 20
-1.636300663276909
 30
0.0
 10
-101.0588527874834
 20
-1.401490387317899
 30
0.0
 10
-202.6832656039459
 20
-1.009904740803742
 30
0.0
  0
SPLINE
  5
44
330
1F
100
AcDbEntity
  8
0
 62
   250
370
    25
100
AcDbSpline
210
0.0
220
0.0
230
1.0
 70
     8
 71
     3
 72
    38
 73
    34
 74
     0
 42
0.0000000001
 43
0.0000000001
 12
1.0
 22
0.0
 32
0.0
 13
1.0
 23
0.0
 33
0.0
 40
0.0
 40
0.0
 40
0.0
 40
0.0
 40
1.0
 40
1.0
 40
1.0
 40
2.0
 40
2.0
 40
2.0
 40
3.0
 40
3.0
 40
3.0
 40
4.0
 40
4.0
 40
4.0
 40
5.0
 40
5.0
 40
5.0
 40
6.0
 40
6.0
 40
6.0
 40
7.0
 40
7.0
 40
7.0
 40
8.0
 40
8.0
 40
8.0
 40
9.0
 40
9.0
 40
9.0
 40
10.0
 40
10.0
 40
10.0
 40
11.0
 40
11.0
 40
11.0
 40
11.0
 10
-211.5557144042233
 20
-8.670131380239106
 30
0.0
 10
-211.5551146784582
 20
-128.3129958171691
 30
0.0
 10
-211.555220512418
 20
-247.9558487165388
 30
0.0
 10
-211.5551146784582
 20
-367.5987016159097
 30
0.0
 10
-211.5551146784582
 20
-386.0124340911397
 30
0.0
 10
-211.5550794004737
 20
-404.426131288388
 30
0.0
 10
-211.5540563388751
 20
-422.8397579296674
 30
0.0
 10
-211.5539505049152
 20
-424.7880199447929
 30
0.0
 10
-211.5538446709554
 20
-426.7363172379
 30
0.0
 10
-211.5552557904057
 20
-428.6847556429547
 30
0.0
 10
-211.5560319060995
 20
-429.7685659067577
 30
0.0
 10
-211.5573019136026
 20
-430.8523752982114
 30
0.0
 10
-211.5553616243623
 20
-431.9357269755833
 30
0.0
 10
-211.554691342625
 20
-432.3199395229742
 30
0.0
 10
-211.5535977250548
 20
-432.704081514414
 30
0.0
 10
-211.5510224320645
 20
-433.088435173755
 30
0.0
 10
-211.5429437732285
 20
-434.2862991942337
 30
0.0
 10
-211.5202600281202
 20
-435.4861387819312
 30
0.0
 10
-211.3913542666499
 20
-436.6770530391301
 30
0.0
 10
-211.2899300564032
 20
-437.6144596876969
 30
0.0
 10
-211.1226418459763
 20
-438.5463276924343
 30
0.0
 10
-210.869204793314
 20
-439.4541008326167
 30
0.0
 10
-210.6220472221933
 20
-440.3392960616486
 30
0.0
 10
-210.2929388891914
 20
-441.2015605996677
 30
0.0
 10
-209.8936979196837
 20
-442.030099382908
 30
0.0
 10
-209.4843674461274
 20
-442.8796285679187
 30
0.0
 10
-209.0012707034895
 20
-443.693703376828
 30
0.0
 10
-208.4597536157412
 20
-444.4655151582982
 30
0.0
 10
-207.5822489876952
 20
-445.7161197681049
 30
0.0
 10
-206.5803621270217
 20
-446.8900921090111
 30
0.0
 10
-205.399494149267
 20
-447.8601393777199
 30
0.0
 10
-204.4885712355598
 20
-448.6084349544328
 30
0.0
 10
-203.4194394246261
 20
-449.3676319545718
 30
0.0
 10
-203.2006813665429
 20
-449.519092632036
 30
0.0
  0
SPLINE
  5
45
330
1F
100
AcDbEntity
  8
0
 62
   250
370
    25
100
AcDbSpline
210
0.0
220
0.0
230
1.0
 70
     8
 71
     3
 72
    11
 73
     7
 74
     0
 42
0.0000000001
 43
0.0000000001
 12
1.0
 22
0.0
 32
0.0
 13
1.0
 23
0.0
 33
0.0
 40
0.0
 40
0.0
 40
0.0
 40
0.0
 40
1.0
 40
1.0
 40
1.0
 40
2.0
 40
2.0
 40
2.0
 40
2.0
 10
-211.5557144042233
 20
-8.670131380239106
 30
0.0
 10
-211.5544091187361
 20
-7.273863965528991
 30
0.0
 10
-211.2693629904638
 20
-6.039275561448892
 30
0.0
 10
-210.6584893819074
 20
-4.783732033583836
 30
0.0
 10
-208.6561108867743
 20
-2.533984299413697
 30
0.0
 10
-205.6056939784442
 20
-1.256956477968117
 30
0.0
 10
-202.6832656039459
 20
-1.009904740803742
 30
0.0
  0
SPLINE
  5
46
330
1F
100
AcDbEntity
  8
0
 62
   250
370
    25
100
AcDbSpline
210
0.0
220
0.0
230
1.0
 70
     8
 71
     3
 72
    23
 73
    19
 74
     0
 42
0.0000000001
 43
0.0000000001
 12
1.0
 22
0.0
 32
0.0
 13
1.0
 23
0.0
 33
0.0
 40
0.0
 40
0.0
 40
0.0
 40
0.0
 40
1.0
 40
1.0
 40
1.0
 40
2.0
 40
2.0
 40
2.0
 40
3.0
 40
3.0
 40
3.0
 40
4.0
 40
4.0
 40
4.0
 40
5.0
 40
5.0
 40
5.0
 40
6.0
 40
6.0
 40
6.0
 40
6.0
 10
-203.2009347730302
 20
6.002935574386142
 30
0.0
 10
-203.8659953683489
 20
6.003394188206999
 30
0.0
 10
-204.5305620718594
 20
5.949383591376327
 30
0.0
 10
-205.1866267807036
 20
5.841891567508624
 30
0.0
 10
-205.7814489055534
 20
5.744418491713827
 30
0.0
 10
-206.3692859891408
 20
5.603024323137578
 30
0.0
 10
-206.9430471562395
 20
5.418661567402207
 30
0.0
 10
-208.1251771948867
 20
5.038752934312419
 30
0.0
 10
-209.2476168809251
 20
4.47638655674283
 30
0.0
 10
-210.2697965302623
 20
3.771708782955278
 30
0.0
 10
-211.3854981209421
 20
3.002542850443292
 30
0.0
 10
-212.3818190064163
 20
2.06383091638742
 30
0.0
 10
-213.2430604828394
 20
1.017097788674053
 30
0.0
 10
-214.1165786984456
 20
-0.0444873712184737
 30
0.0
 10
-214.851136926524
 20
-1.217162909566995
 30
0.0
 10
-215.4539318762472
 20
-2.45242159538438
 30
0.0
 10
-216.4337426641908
 20
-4.461150128020589
 30
0.0
 10
-216.8894636895651
 20
-6.435623736093951
 30
0.0
 10
-216.8891461876889
 20
-8.670554716072285
 30
0.0
  0
SPLINE
  5
47
330
1F
100
AcDbEntity
  8
0
 62
   250
370
    25
100
AcDbSpline
210
0.0
220
0.0
230
1.0
 70
     8
 71
     3
 72
    38
 73
    34
 74
     0
 42
0.0000000001
 43
0.0000000001
 12
1.0
 22
0.0
 32
0.0
 13
1.0
 23
0.0
 33
0.0
 40
0.0
 40
0.0
 40
0.0
 40
0.0
 40
1.0
 40
1.0
 40
1.0
 40
2.0
 40
2.0
 40
2.0
 40
3.0
 40
3.0
 40
3.0
 40
4.0
 40
4.0
 40
4.0
 40
5.0
 40
5.0
 40
5.0
 40
6.0
 40
6.0
 40
6.0
 40
7.0
 40
7.0
 40
7.0
 40
8.0
 40
8.0
 40
8.0
 40
9.0
 40
9.0
 40
9.0
 40
10.0
 40
10.0
 40
10.0
 40
11.0
 40
11.0
 40
11.0
 40
11.0
 10
102.1907136831478
 20
-120.0108864290567
 30
0.0
 10
101.4972190309729
 20
-120.0113450428737
 30
0.0
 10
100.8035479888753
 20
-120.0225281642043
 30
0.0
 10
100.1103708385737
 20
-120.0455294106084
 30
0.0
 10
99.43589102095014
 20
-120.0679309312602
 30
0.0
 10
98.76190509513476
 20
-120.1015155732483
 30
0.0
 10
98.08855417306644
 20
-120.1457541667901
 30
0.0
 10
96.73740730267127
 20
-120.2345135777526
 30
0.0
 10
95.38876516929713
 20
-120.3661710188241
 30
0.0
 10
94.04809586079637
 20
-120.5560018576212
 30
0.0
 10
93.4955014853991
 20
-120.634248428975
 30
0.0
 10
92.94428295145416
 20
-120.7224081141948
 30
0.0
 10
92.39606304633875
 20
-120.8274659543609
 30
0.0
 10
91.93064057476776
 20
-120.9166487011502
 30
0.0
 10
91.46744061632857
 20
-121.0180376308453
 30
0.0
 10
91.01154320102548
 20
-121.147331446898
 30
0.0
 10
90.82456987431567
 20
-121.2003542587798
 30
0.0
 10
90.63883127711485
 20
-121.2580690426981
 30
0.0
 10
90.45707909236
 20
-121.3267905580211
 30
0.0
 10
90.33801588902776
 20
-121.3718052672442
 30
0.0
 10
90.22061075104985
 20
-121.4215825044761
 30
0.0
 10
90.107474249394
 20
-121.4800381260884
 30
0.0
 10
90.02121957320304
 20
-121.5245942214965
 30
0.0
 10
89.9374343560419
 20
-121.5742303467872
 30
0.0
 10
89.86215113355355
 20
-121.635755153114
 30
0.0
 10
89.80725858706917
 20
-121.6806287503922
 30
0.0
 10
89.75691690080214
 20
-121.7318171070361
 30
0.0
 10
89.7232264240036
 20
-121.7946824768085
 30
0.0
 10
78.87894986462172
 20
-121.7946824768085
 30
0.0
 10
68.03470858321789
 20
-121.7946824768085
 30
0.0
 10
57.19046730181373
 20
-121.7946824768085
 30
0.0
 10
53.04417503103063
 20
-121.7946824768085
 30
0.0
 10
-90.96419815626952
 20
-121.7946824768085
 30
0.0
 10
-95.11045514906493
 20
-121.7946824768085
 30
0.0
  0
SPLINE
  5
48
330
1F
100
AcDbEntity
  8
0
 62
   250
370
    25
100
AcDbSpline
210
0.0
220
0.0
230
1.0
 70
     8
 71
     3
 72
    74
 73
    70
 74
     0
 42
0.0000000001
 43
0.0000000001
 12
1.0
 22
0.0
 32
0.0
 13
1.0
 23
0.0
 33
0.0
 40
0.0
 40
0.0
 40
0.0
 40
0.0
 40
1.0
 40
1.0
 40
1.0
 40
2.0
 40
2.0
 40
2.0
 40
3.0
 40
3.0
 40
3.0
 40
4.0
 40
4.0
 40
4.0
 40
5.0
 40
5.0
 40
5.0
 40
6.0
 40
6.0
 40
6.0
 40
7.0
 40
7.0
 40
7.0
 40
8.0
 40
8.0
 40
8.0
 40
9.0
 40
9.0
 40
9.0
 40
10.0
 40
10.0
 40
10.0
 40
11.0
 40
11.0
 40
11.0
 40
12.0
 40
12.0
 40
12.0
 40
13.0
 40
13.0
 40
13.0
 40
14.0
 40
14.0
 40
14.0
 40
15.0
 40
15.0
 40
15.0
 40
16.0
 40
16.0
 40
16.0
 40
17.0
 40
17.0
 40
17.0
 40
18.0
 40
18.0
 40
18.0
 40
19.0
 40
19.0
 40
19.0
 40
20.0
 40
20.0
 40
20.0
 40
21.0
 40
21.0
 40
21.0
 40
22.0
 40
22.0
 40
22.0
 40
23.0
 40
23.0
 40
23.0
 40
23.0
 10
-185.1109831897178
 20
-157.2948837870463
 30
0.0
 10
-185.1109831897178
 20
-172.2949772945504
 30
0.0
 10
-185.1109831897178
 20
-187.2950708020552
 30
0.0
 10
-185.1109831897178
 20
-202.2951290315778
 30
0.0
 10
-185.1109831897178
 20
-244.1960974352189
 30
0.0
 10
-185.1109479117331
 20
-286.0970305608824
 30
0.0
 10
-185.1110184677052
 20
-327.9979636865323
 30
0.0
 10
-185.1110184677052
 20
-334.2830895441885
 30
0.0
 10
-185.1110184677052
 20
-340.5682154018453
 30
0.0
 10
-185.1109479117331
 20
-346.8533765374985
 30
0.0
 10
-185.1108420777697
 20
-358.3761190358476
 30
0.0
 10
-185.1104892979122
 20
-369.8988615342109
 30
0.0
 10
-185.1101012400635
 20
-381.4216393105635
 30
0.0
 10
-185.1099601281192
 20
-385.1534504275345
 30
0.0
 10
-185.1098190161746
 20
-388.8852262665233
 30
0.0
 10
-185.1115476374982
 20
-392.6168962715608
 30
0.0
 10
-185.1117945833991
 20
-393.2061091817234
 30
0.0
 10
-185.1121120852757
 20
-393.795322091886
 30
0.0
 10
-185.1110184677052
 20
-394.3846055580169
 30
0.0
 10
-185.1080903948513
 20
-395.9560986903381
 30
0.0
 10
-185.0951433739277
 20
-397.5281562704345
 30
0.0
 10
-184.9948480592388
 20
-399.0960863262464
 30
0.0
 10
-184.911309787985
 20
-400.402677067099
 30
0.0
 10
-184.7671286584995
 20
-401.7064102911426
 30
0.0
 10
-184.5495693177738
 20
-402.997760942344
 30
0.0
 10
-184.3537764945185
 20
-404.1600294454154
 30
0.0
 10
-184.0985402645646
 20
-405.3122437226804
 30
0.0
 10
-183.7815322808203
 20
-406.4470306752064
 30
0.0
 10
-183.1123441611203
 20
-408.8426880996668
 30
0.0
 10
-182.1679524712921
 20
-411.1604870106149
 30
0.0
 10
-181.0009566887191
 20
-413.3577410458501
 30
0.0
 10
-179.7725419322166
 20
-415.6706715948276
 30
0.0
 10
-178.2974634964052
 20
-417.8500044135426
 30
0.0
 10
-176.6336831125514
 20
-419.8728088115647
 30
0.0
 10
-174.8868583492491
 20
-421.9965788034662
 30
0.0
 10
-172.9320345794802
 20
-423.947804169355
 30
0.0
 10
-170.8039958976041
 20
-425.6891255228243
 30
0.0
 10
-169.1824432631997
 20
-427.0160363831966
 30
0.0
 10
-167.460277812233
 20
-428.221061804416
 30
0.0
 10
-165.6494940599993
 20
-429.275273838582
 30
0.0
 10
-163.9520231993598
 20
-430.2635504310172
 30
0.0
 10
-162.1766585452447
 20
-431.1193238195799
 30
0.0
 10
-160.3398396392188
 20
-431.8144765371079
 30
0.0
 10
-158.5030207331933
 20
-432.5096292546256
 30
0.0
 10
-156.6047828532448
 20
-433.0441613011086
 30
0.0
 10
-154.6743361719165
 20
-433.4057959373559
 30
0.0
 10
-153.644748145483
 20
-433.5986606877608
 30
0.0
 10
-152.6060231206307
 20
-433.7423832034326
 30
0.0
 10
-151.5636291852183
 20
-433.8456418689498
 30
0.0
 10
-150.9121153365854
 20
-433.9101653056591
 30
0.0
 10
-150.2591903685148
 20
-433.9588842045645
 30
0.0
 10
-149.6054187287714
 20
-433.9941621907331
 30
0.0
 10
-149.2131628005229
 20
-434.015328982437
 30
0.0
 10
-148.8206246483861
 20
-434.0316274120535
 30
0.0
 10
-148.4279806622924
 20
-434.0446449889518
 30
0.0
 10
-147.9699665678169
 20
-434.0598850789771
 30
0.0
 10
-147.5118466393846
 20
-434.0706448647675
 30
0.0
 10
-147.0536561549807
 20
-434.0773476821358
 30
0.0
 10
-146.529919172269
 20
-434.08503828312
 30
0.0
 10
-146.0061116335855
 20
-434.0874371861793
 30
0.0
 10
-145.4823040949019
 20
-434.0898360892424
 30
0.0
 10
-131.537268940913
 20
-434.1534070203206
 30
0.0
 10
-117.5922337869214
 20
-434.2106984698653
 30
0.0
 10
-103.6471633549448
 20
-434.262733499464
 30
0.0
 10
-79.03057266186656
 20
-434.3545973754526
 30
0.0
 10
-54.41391141281262
 20
-434.4301980998281
 30
0.0
 10
-29.79721488577743
 20
-434.489288726665
 30
0.0
 10
14.19866722923372
 20
-434.594840461291
 30
0.0
 10
58.19469045619236
 20
-434.6475810506183
 30
0.0
 10
102.1907136831478
 20
-434.6475810506183
 30
0.0
  0
SPLINE
  5
49
330
1F
100
AcDbEntity
  8
0
 62
   250
370
    25
100
AcDbSpline
210
0.0
220
0.0
230
1.0
 70
     8
 71
     3
 72
    11
 73
     7
 74
     0
 42
0.0000000001
 43
0.0000000001
 12
1.0
 22
0.0
 32
0.0
 13
1.0
 23
0.0
 33
0.0
 40
0.0
 40
0.0
 40
0.0
 40
0.0
 40
1.0
 40
1.0
 40
1.0
 40
2.0
 40
2.0
 40
2.0
 40
2.0
 10
565.293622383527
 20
-4.783732033583836
 30
0.0
 10
564.2613372594608
 20
-1.851043484537094
 30
0.0
 10
559.9880249311586
 20
-1.256956477968117
 30
0.0
 10
557.0655965566516
 20
-1.009940018791418
 30
0.0
 10
405.4407767107626
 20
-1.594743195564824
 30
0.0
 10
253.8166271466134
 20
-1.829553471527042
 30
0.0
 10
102.1907136831478
 20
-1.714300290702721
 30
0.0
  0
SPLINE
  5
4A
330
1F
100
AcDbEntity
  8
0
 62
   250
370
    25
100
AcDbSpline
210
0.0
220
0.0
230
1.0
 70
     8
 71
     3
 72
   155
 73
   151
 74
     0
 42
0.0000000001
 43
0.0000000001
 12
1.0
 22
0.0
 32
0.0
 13
1.0
 23
0.0
 33
0.0
 40
0.0
 40
0.0
 40
0.0
 40
0.0
 40
1.0
 40
1.0
 40
1.0
 40
2.0
 40
2.0
 40
2.0
 40
3.0
 40
3.0
 40
3.0
 40
4.0
 40
4.0
 40
4.0
 40
5.0
 40
5.0
 40
5.0
 40
6.0
 40
6.0
 40
6.0
 40
7.0
 40
7.0
 40
7.0
 40
8.0
 40
8.0
 40
8.0
 40
9.0
 40
9.0
 40
9.0
 40
10.0
 40
10.0
 40
10.0
 40
11.0
 40
11.0
 40
11.0
 40
12.0
 40
12.0
 40
12.0
 40
13.0
 40
13.0
 40
13.0
 40
14.0
 40
14.0
 40
14.0
 40
15.0
 40
15.0
 40
15.0
 40
16.0
 40
16.0
 40
16.0
 40
17.0
 40
17.0
 40
17.0
 40
18.0
 40
18.0
 40
18.0
 40
19.0
 40
19.0
 40
19.0
 40
20.0
 40
20.0
 40
20.0
 40
21.0
 40
21.0
 40
21.0
 40
22.0
 40
22.0
 40
22.0
 40
23.0
 40
23.0
 40
23.0
 40
24.0
 40
24.0
 40
24.0
 40
25.0
 40
25.0
 40
25.0
 40
26.0
 40
26.0
 40
26.0
 40
27.0
 40
27.0
 40
27.0
 40
28.0
 40
28.0
 40
28.0
 40
29.0
 40
29.0
 40
29.0
 40
30.0
 40
30.0
 40
30.0
 40
31.0
 40
31.0
 40
31.0
 40
32.0
 40
32.0
 40
32.0
 40
33.0
 40
33.0
 40
33.0
 40
34.0
 40
34.0
 40
34.0
 40
35.0
 40
35.0
 40
35.0
 40
36.0
 40
36.0
 40
36.0
 40
37.0
 40
37.0
 40
37.0
 40
38.0
 40
38.0
 40
38.0
 40
39.0
 40
39.0
 40
39.0
 40
40.0
 40
40.0
 40
40.0
 40
41.0
 40
41.0
 40
41.0
 40
42.0
 40
42.0
 40
42.0
 40
43.0
 40
43.0
 40
43.0
 40
44.0
 40
44.0
 40
44.0
 40
45.0
 40
45.0
 40
45.0
 40
46.0
 40
46.0
 40
46.0
 40
47.0
 40
47.0
 40
47.0
 40
48.0
 40
48.0
 40
48.0
 40
49.0
 40
49.0
 40
49.0
 40
50.0
 40
50.0
 40
50.0
 40
50.0
 10
-154.9430133146057
 20
-157.2948837870463
 30
0.0
 10
-154.9429780366148
 20
-203.5189928969423
 30
0.0
 10
-154.9430133146057
 20
-294.7433472513699
 30
0.0
 10
-154.9427663687019
 20
-340.9674563612749
 30
0.0
 10
-154.9427663687019
 20
-342.5034598404101
 30
0.0
 10
-154.9427663687019
 20
-344.0394985975294
 30
0.0
 10
-154.9433660944667
 20
-345.5755020766576
 30
0.0
 10
-154.9438952642565
 20
-347.0203472418243
 30
0.0
 10
-154.9449888818302
 20
-348.4651924069838
 30
0.0
 10
-154.9407908014739
 20
-349.9101081281252
 30
0.0
 10
-154.9364516091765
 20
-351.3883262673693
 30
0.0
 10
-154.9265737730475
 20
-352.8666149625818
 30
0.0
 10
-154.875244303167
 20
-354.3438453182371
 30
0.0
 10
-154.8389079774095
 20
-355.3893436900244
 30
0.0
 10
-154.7818281957813
 20
-356.4343128920269
 30
0.0
 10
-154.6998421559217
 20
-357.4773418048508
 30
0.0
 10
-154.5773922659179
 20
-359.0357468046371
 30
0.0
 10
-154.3993089917171
 20
-360.5898126122232
 30
0.0
 10
-154.1481650081594
 20
-362.1323425186437
 30
0.0
 10
-153.9193872678337
 20
-363.5375705063342
 30
0.0
 10
-153.6299313912916
 20
-364.933238160024
 30
0.0
 10
-153.2741176227571
 20
-366.3122193266714
 30
0.0
 10
-152.5885252394898
 20
-368.969180788109
 30
0.0
 10
-151.6565161228045
 20
-371.5641588294034
 30
0.0
 10
-150.4507498334293
 20
-374.0285377691881
 30
0.0
 10
-149.2752167781991
 20
-376.4311096787631
 30
0.0
 10
-147.83943801898
 20
-378.7095030801503
 30
0.0
 10
-146.1464121845912
 20
-380.7799327583012
 30
0.0
 10
-144.5492366386339
 20
-382.7331689693551
 30
0.0
 10
-142.7231422404033
 20
-384.5013015916344
 30
0.0
 10
-140.710780075188
 20
-386.023017486725
 30
0.0
 10
-139.0631570090037
 20
-387.2689653708782
 30
0.0
 10
-137.2906851497548
 20
-388.349777005932
 30
0.0
 10
-135.4394375473862
 20
-389.2668987892799
 30
0.0
 10
-133.4070374860218
 20
-390.2737677671863
 30
0.0
 10
-131.2797043638672
 20
-391.0833975293816
 30
0.0
 10
-129.106368747747
 20
-391.7322302346666
 30
0.0
 10
-126.6320766315917
 20
-392.4708806904849
 30
0.0
 10
-124.0981294408191
 20
-393.001144087243
 30
0.0
 10
-121.5453085274418
 20
-393.3905424887761
 30
0.0
 10
-120.1113289455152
 20
-393.6093012754993
 30
0.0
 10
-118.6713873839274
 20
-393.7836098007727
 30
0.0
 10
-117.2274594099029
 20
-393.9211233874005
 30
0.0
 10
-115.7346714250271
 20
-394.0633289460687
 30
0.0
 10
-114.2375795258386
 20
-394.1662348291276
 30
0.0
 10
-112.7396762329712
 20
-394.234709398561
 30
0.0
 10
-112.1525094311216
 20
-394.2615559453577
 30
0.0
 10
-111.5652015173272
 20
-394.2831107943662
 30
0.0
 10
-110.9776819356163
 20
-394.3014553467134
 30
0.0
 10
-110.6146009019309
 20
-394.3128148579679
 30
0.0
 10
-110.251414034291
 20
-394.3229396397472
 30
0.0
 10
-109.8882271666483
 20
-394.3331349774909
 30
0.0
 10
-108.587915874329
 20
-394.3695771362918
 30
0.0
 10
-107.287745693954
 20
-394.4065837428454
 30
0.0
 10
-105.9875402355913
 20
-394.443202291569
 30
0.0
 10
-100.4924294415018
 20
-394.5981079249349
 30
0.0
 10
-94.99707170150819
 20
-394.7468046328977
 30
0.0
 10
-89.50153757158229
 20
-394.8893629714183
 30
0.0
 10
-80.16557131098307
 20
-395.1315816183581
 30
0.0
 10
-70.82918171455034
 20
-395.3561965506435
 30
0.0
 10
-61.49240406027244
 20
-395.5630666563308
 30
0.0
 10
-43.3183144799379
 20
-395.9657648583113
 30
0.0
 10
-25.14274322418385
 20
-396.3013643322908
 30
0.0
 10
-6.966184184815954
 20
-396.5698650782624
 30
0.0
 10
29.41677907021925
 20
-397.1073251840187
 30
0.0
 10
65.80372873769144
 20
-397.376143431856
 30
0.0
 10
102.1907136831478
 20
-397.376143431856
 30
0.0
 10
138.5776986286048
 20
-397.376143431856
 30
0.0
 10
174.9646482960763
 20
-397.1073251840187
 30
0.0
 10
211.3476115511154
 20
-396.5698650782624
 30
0.0
 10
229.5242058684707
 20
-396.3013643322908
 30
0.0
 10
247.6997771242183
 20
-395.9657648583113
 30
0.0
 10
265.8738314265687
 20
-395.5630666563308
 30
0.0
 10
275.2106443588372
 20
-395.3561965506435
 30
0.0
 10
284.5470339552663
 20
-395.1315816183581
 30
0.0
 10
293.8829649378779
 20
-394.8893629714183
 30
0.0
 10
299.3784637898193
 20
-394.7468046328977
 30
0.0
 10
304.87382152981
 20
-394.5981079249349
 30
0.0
 10
310.3690028798781
 20
-394.4432728475373
 30
0.0
 10
311.6692083382376
 20
-394.4066190208315
 30
0.0
 10
312.9694137965971
 20
-394.3696476922601
 30
0.0
 10
314.2696192549565
 20
-394.3329938655472
 30
0.0
 10
314.6327708446145
 20
-394.3227632498206
 30
0.0
 10
314.995922434273
 20
-394.3125326340877
 30
0.0
 10
315.3590387459398
 20
-394.3012436787982
 30
0.0
 10
315.9465936056354
 20
-394.2829344044403
 30
0.0
 10
316.5340426313774
 20
-394.2617676132696
 30
0.0
 10
317.121279989199
 20
-394.2350974563994
 30
0.0
 10
318.6193596720017
 20
-394.1670109448071
 30
0.0
 10
320.1158165674341
 20
-394.0629408882238
 30
0.0
 10
321.6086045523131
 20
-393.9206294956045
 30
0.0
 10
323.0524972483468
 20
-393.7829747970369
 30
0.0
 10
324.4928974237618
 20
-393.6095482213973
 30
0.0
 10
325.9270181176298
 20
-393.3910716585434
 30
0.0
 10
328.4800506989197
 20
-393.0020965928413
 30
0.0
 10
331.0130453840703
 20
-392.4703162427212
 30
0.0
 10
333.4874433341851
 20
-391.7317010648916
 30
0.0
 10
335.6608847842622
 20
-391.0828683595963
 30
0.0
 10
337.7890998560734
 20
-390.2744733268866
 30
0.0
 10
339.821429361459
 20
-389.2675337930157
 30
0.0
 10
341.672606407859
 20
-388.3503767316778
 30
0.0
 10
343.4442315954351
 20
-387.2685067570721
 30
0.0
 10
345.0917841056507
 20
-386.0223824829969
 30
0.0
 10
347.1040051589215
 20
-384.5003843640145
 30
0.0
 10
348.931193174726
 20
-382.7333453592701
 30
0.0
 10
350.5284392766526
 20
-380.7803560941213
 30
0.0
 10
352.2215003890283
 20
-378.7101380838829
 30
0.0
 10
353.6562208086666
 20
-376.4309332888334
 30
0.0
 10
354.8317538638895
 20
-374.0282555453078
 30
0.0
 10
356.0375907092404
 20
-371.5637354935757
 30
0.0
 10
356.9707287214841
 20
-368.9692513440772
 30
0.0
 10
357.6557566569684
 20
-366.3124309945802
 30
0.0
 10
358.0112882016112
 20
-364.9334851059214
 30
0.0
 10
358.2999679624652
 20
-363.5377821742494
 30
0.0
 10
358.5290984826545
 20
-362.1324483525981
 30
0.0
 10
358.7806305240616
 20
-360.5898126122232
 30
0.0
 10
358.9604071415915
 20
-359.0356056926934
 30
0.0
 10
359.0822573058276
 20
-357.4772359708932
 30
0.0
 10
359.163820009857
 20
-356.4342423360516
 30
0.0
 10
359.2194533940536
 20
-355.3893789680104
 30
0.0
 10
359.2554722179336
 20
-354.3439158742054
 30
0.0
 10
359.3063430739933
 20
-352.8667207965432
 30
0.0
 10
359.3179848094316
 20
-351.3883262673693
 30
0.0
 10
359.3228884495077
 20
-349.910072850141
 30
0.0
 10
359.3276509776441
 20
-348.4651571290061
 30
0.0
 10
359.3259929122891
 20
-347.0203472418243
 30
0.0
 10
359.3251109626373
 20
-345.5755020766576
 30
0.0
 10
359.3241937349969
 20
-344.0394985975294
 30
0.0
 10
359.3241937349969
 20
-342.5034598404101
 30
0.0
 10
359.3242290129829
 20
-340.9674563612749
 30
0.0
 10
359.3245112368703
 20
-294.7433472513699
 30
0.0
 10
359.3244054029159
 20
-248.519238141477
 30
0.0
 10
359.3244406809019
 20
-202.2951290315778
 30
0.0
 10
359.3247581827746
 20
-200.5303125399141
 30
0.0
 10
359.3250051286797
 20
-198.7654607702606
 30
0.0
 10
359.32659263806
 20
-197.000644278597
 30
0.0
 10
359.3281801474365
 20
-195.2489159194713
 30
0.0
 10
359.3311082202842
 20
-193.4972228383267
 30
0.0
 10
359.3345654629314
 20
-191.7454944792081
 30
0.0
 10
359.3406332765537
 20
-188.6881631628195
 30
0.0
 10
359.3483591555272
 20
-185.6307965684396
 30
0.0
 10
359.3592953312395
 20
-182.5734652520516
 30
0.0
 10
359.3862124346886
 20
-175.0560440905484
 30
0.0
 10
359.4326029865069
 20
-167.5387287629957
 30
0.0
 10
359.4870369191682
 20
-160.0214487134336
 30
0.0
 10
359.489929714037
 20
-159.6224899779023
 30
0.0
 10
359.4928577868925
 20
-159.2235312423543
 30
0.0
 10
359.4926813969557
 20
-158.8245372288291
 30
0.0
 10
359.4924697290399
 20
-158.3146292295711
 30
0.0
 10
359.4872485870872
 20
-157.8047212303258
 30
0.0
 10
359.4863313594468
 20
-157.2948837870463
 30
0.0
  0
SPLINE
  5
4B
330
1F
100
AcDbEntity
  8
0
 62
   250
370
    25
100
AcDbSpline
210
0.0
220
0.0
230
1.0
 70
    24
 71
     3
 72
     8
 73
     4
 74
     0
 42
0.0000000001
 43
0.0000000001
 12
1.0
 22
0.0
 32
0.0
 13
1.0
 23
0.0
 33
0.0
 40
0.0
 40
0.0
 40
0.0
 40
0.0
 40
1.0
 40
1.0
 40
1.0
 40
1.0
 10
116.8781816207514
 20
-121.7946824768085
 30
0.0
 10
140.1876523701767
 20
-121.7946824768085
 30
0.0
 10
276.6462224210033
 20
-121.7946824768085
 30
0.0
 10
299.955693170435
 20
-121.7946824768085
 30
0.0
  0
SPLINE
  5
4C
330
1F
100
AcDbEntity
  8
0
 62
   250
370
    25
100
AcDbSpline
210
0.0
220
0.0
230
1.0
 70
     8
 71
     3
 72
    68
 73
    64
 74
     0
 42
0.0000000001
 43
0.0000000001
 12
1.0
 22
0.0
 32
0.0
 13
1.0
 23
0.0
 33
0.0
 40
0.0
 40
0.0
 40
0.0
 40
0.0
 40
1.0
 40
1.0
 40
1.0
 40
2.0
 40
2.0
 40
2.0
 40
3.0
 40
3.0
 40
3.0
 40
4.0
 40
4.0
 40
4.0
 40
5.0
 40
5.0
 40
5.0
 40
6.0
 40
6.0
 40
6.0
 40
7.0
 40
7.0
 40
7.0
 40
8.0
 40
8.0
 40
8.0
 40
9.0
 40
9.0
 40
9.0
 40
10.0
 40
10.0
 40
10.0
 40
11.0
 40
11.0
 40
11.0
 40
12.0
 40
12.0
 40
12.0
 40
13.0
 40
13.0
 40
13.0
 40
14.0
 40
14.0
 40
14.0
 40
15.0
 40
15.0
 40
15.0
 40
16.0
 40
16.0
 40
16.0
 40
17.0
 40
17.0
 40
17.0
 40
18.0
 40
18.0
 40
18.0
 40
19.0
 40
19.0
 40
19.0
 40
20.0
 40
20.0
 40
20.0
 40
21.0
 40
21.0
 40
21.0
 40
21.0
 10
102.1907136831478
 20
-434.6475810506183
 30
0.0
 10
175.5175954513446
 20
-434.6475810506183
 30
0.0
 10
248.8437716598129
 20
-434.5010715740495
 30
0.0
 10
322.1700537022407
 20
-434.2079820649333
 30
0.0
 10
327.6193736702776
 20
-434.1862155474623
 30
0.0
 10
333.0686583603363
 20
-434.1636376363116
 30
0.0
 10
338.5179430503884
 20
-434.1402483314787
 30
0.0
 10
340.3487294207774
 20
-434.1323813405642
 30
0.0
 10
342.1795157911664
 20
-434.1244085156825
 30
0.0
 10
344.010302161556
 20
-434.1163651348427
 30
0.0
 10
344.5801827501816
 20
-434.113860397822
 30
0.0
 10
345.1500280608219
 20
-434.1113556608045
 30
0.0
 10
345.7199086494475
 20
-434.1087450898262
 30
0.0
 10
346.6856082429213
 20
-434.1043706195418
 30
0.0
 10
347.6513078364015
 20
-434.0997844813351
 30
0.0
 10
348.6169721518906
 20
-434.0961508487582
 30
0.0
 10
349.260865955505
 20
-434.0937166677128
 30
0.0
 10
349.9047597591195
 20
-434.0917411004916
 30
0.0
 10
350.5487241187029
 20
-434.0861671786723
 30
0.0
 10
351.9652058194856
 20
-434.073925717467
 30
0.0
 10
353.3820050221482
 20
-434.0445038770081
 30
0.0
 10
354.7947825343863
 20
-433.9442085623177
 30
0.0
 10
355.8468779159935
 20
-433.8695250655896
 30
0.0
 10
356.8967155064921
 20
-433.7555771702606
 30
0.0
 10
357.9392858318336
 20
-433.5952034451207
 30
0.0
 10
358.8348175108146
 20
-433.4574781870991
 30
0.0
 10
359.7249516579124
 20
-433.2854980045108
 30
0.0
 10
360.6064779763813
 20
-433.0766876043629
 30
0.0
 10
362.4219184227886
 20
-432.6466489529219
 30
0.0
 10
364.2005992076002
 20
-432.0603641007274
 30
0.0
 10
365.9192721379353
 20
-431.3346606471773
 30
0.0
 10
368.4170593928836
 20
-430.279989972567
 30
0.0
 10
370.7880222875405
 20
-428.9308901462631
 30
0.0
 10
372.9983292331735
 20
-427.3594675699064
 30
0.0
 10
375.4122607149876
 20
-425.6433346979275
 30
0.0
 10
377.6345974538999
 20
-423.6620172105953
 30
0.0
 10
379.6294617379746
 20
-421.4726301660731
 30
0.0
 10
381.5760657369711
 20
-419.3361953774561
 30
0.0
 10
383.3061334568426
 20
-417.001639423505
 30
0.0
 10
384.7500261528807
 20
-414.498278309984
 30
0.0
 10
386.1836529549462
 20
-412.0127678570141
 30
0.0
 10
387.3352322575578
 20
-409.3608864254592
 30
0.0
 10
388.1200263379441
 20
-406.6014071388011
 30
0.0
 10
388.5790987720061
 20
-404.9872276442829
 30
0.0
 10
388.9126521312659
 20
-403.3362532111115
 30
0.0
 10
389.1287297965638
 20
-401.6720495334782
 30
0.0
 10
389.2471227181597
 20
-400.7600430579952
 30
0.0
 10
389.3302376535833
 20
-399.8440854481574
 30
0.0
 10
389.3856593698603
 20
-398.9261522711478
 30
0.0
 10
389.4529344894914
 20
-397.8116854381344
 30
0.0
 10
389.4793929791164
 20
-396.6943610883192
 30
0.0
 10
389.4881066417024
 20
-395.5776364642466
 30
0.0
 10
389.4925163899762
 20
-395.017280946045
 30
0.0
 10
389.4924105560148
 20
-394.4571018177733
 30
0.0
 10
389.4923400000394
 20
-393.8968874115083
 30
0.0
 10
389.4921283321274
 20
-391.8705199369733
 30
0.0
 10
389.4921988880957
 20
-389.8437996825788
 30
0.0
 10
389.4922694440711
 20
-387.8171147061781
 30
0.0
 10
389.4923400000394
 20
-385.098981218263
 30
0.0
 10
389.4923400000394
 20
-382.3809182863232
 30
0.0
 10
389.4923400000394
 20
-379.6628553543763
 30
0.0
 10
389.4925516679622
 20
-320.540303432103
 30
0.0
 10
389.4923047220572
 20
-261.4177162318372
 30
0.0
 10
389.4924105560148
 20
-202.2951290315778
 30
0.0
  0
SPLINE
  5
4D
330
1F
100
AcDbEntity
  8
0
 62
   250
370
    25
100
AcDbSpline
210
0.0
220
0.0
230
1.0
 70
     8
 71
     3
 72
    35
 73
    31
 74
     0
 42
0.0000000001
 43
0.0000000001
 12
1.0
 22
0.0
 32
0.0
 13
1.0
 23
0.0
 33
0.0
 40
0.0
 40
0.0
 40
0.0
 40
0.0
 40
1.0
 40
1.0
 40
1.0
 40
2.0
 40
2.0
 40
2.0
 40
3.0
 40
3.0
 40
3.0
 40
4.0
 40
4.0
 40
4.0
 40
5.0
 40
5.0
 40
5.0
 40
6.0
 40
6.0
 40
6.0
 40
7.0
 40
7.0
 40
7.0
 40
8.0
 40
8.0
 40
8.0
 40
9.0
 40
9.0
 40
9.0
 40
10.0
 40
10.0
 40
10.0
 40
10.0
 10
102.1907136831478
 20
-120.0108864290567
 30
0.0
 10
102.8842083353227
 20
-120.0113450428737
 30
0.0
 10
103.5778793774203
 20
-120.0225281642043
 30
0.0
 10
104.2710918057067
 20
-120.0455294106084
 30
0.0
 10
104.9455363453458
 20
-120.0679309312602
 30
0.0
 10
105.6195222711608
 20
-120.1015155732483
 30
0.0
 10
106.2929084712139
 20
-120.1457541667901
 30
0.0
 10
107.6440200636243
 20
-120.2345135777526
 30
0.0
 10
108.9926621970052
 20
-120.3661710188241
 30
0.0
 10
110.3333315054992
 20
-120.5560018576212
 30
0.0
 10
110.8859258809029
 20
-120.634248428975
 30
0.0
 10
111.437179692832
 20
-120.7224081141948
 30
0.0
 10
111.9853643199568
 20
-120.8274659543609
 30
0.0
 10
112.4507867915278
 20
-120.9166487011502
 30
0.0
 10
112.9139867499673
 20
-121.0180376308453
 30
0.0
 10
113.3699194432549
 20
-121.147331446898
 30
0.0
 10
113.5568574919863
 20
-121.2003542587798
 30
0.0
 10
113.7425960891811
 20
-121.2580690426981
 30
0.0
 10
113.9243835519204
 20
-121.3267905580211
 30
0.0
 10
114.0434467552523
 20
-121.3718052672442
 30
0.0
 10
114.1608166152522
 20
-121.4215825044761
 30
0.0
 10
114.2739531169016
 20
-121.4800381260884
 30
0.0
 10
114.3602077930926
 20
-121.5245942214965
 30
0.0
 10
114.4440282882382
 20
-121.5742303467872
 30
0.0
 10
114.5192762327485
 20
-121.635755153114
 30
0.0
 10
114.5741687792268
 20
-121.6806287503922
 30
0.0
 10
114.6245457434847
 20
-121.7318171070361
 30
0.0
 10
114.6582362202768
 20
-121.7946824768085
 30
0.0
 10
125.5024775016742
 20
-121.7946824768085
 30
0.0
 10
288.6476059559815
 20
-121.7946824768085
 30
0.0
 10
299.4918825153637
 20
-121.7946824768085
 30
0.0
  0
SPLINE
  5
4E
330
1F
100
AcDbEntity
  8
0
 62
   250
370
    25
100
AcDbSpline
210
0.0
220
0.0
230
1.0
 70
     8
 71
     3
 72
     8
 73
     4
 74
     0
 42
0.0000000001
 43
0.0000000001
 12
1.0
 22
0.0
 32
0.0
 13
1.0
 23
0.0
 33
0.0
 40
0.0
 40
0.0
 40
0.0
 40
0.0
 40
1.0
 40
1.0
 40
1.0
 40
1.0
 10
102.1907136831478
 20
-465.3099719019416
 30
0.0
 10
87.41290638757967
 20
-465.282313960778
 30
0.0
 10
72.63513436999632
 20
-465.2464715268278
 30
0.0
 10
57.85736235241298
 20
-465.2024446000827
 30
0.0
  0
SPLINE
  5
4F
330
1F
100
AcDbEntity
  8
0
 62
   250
370
    25
100
AcDbSpline
210
0.0
220
0.0
230
1.0
 70
     8
 71
     3
 72
    56
 73
    52
 74
     0
 42
0.0000000001
 43
0.0000000001
 12
1.0
 22
0.0
 32
0.0
 13
1.0
 23
0.0
 33
0.0
 40
0.0
 40
0.0
 40
0.0
 40
0.0
 40
1.0
 40
1.0
 40
1.0
 40
2.0
 40
2.0
 40
2.0
 40
3.0
 40
3.0
 40
3.0
 40
4.0
 40
4.0
 40
4.0
 40
5.0
 40
5.0
 40
5.0
 40
6.0
 40
6.0
 40
6.0
 40
7.0
 40
7.0
 40
7.0
 40
8.0
 40
8.0
 40
8.0
 40
9.0
 40
9.0
 40
9.0
 40
10.0
 40
10.0
 40
10.0
 40
11.0
 40
11.0
 40
11.0
 40
12.0
 40
12.0
 40
12.0
 40
13.0
 40
13.0
 40
13.0
 40
14.0
 40
14.0
 40
14.0
 40
15.0
 40
15.0
 40
15.0
 40
16.0
 40
16.0
 40
16.0
 40
17.0
 40
17.0
 40
17.0
 40
17.0
 10
389.4924105560148
 20
-202.2951290315778
 30
0.0
 10
389.4924105560148
 20
-190.3956176504159
 30
0.0
 10
389.4924458340008
 20
-133.4958610247187
 30
0.0
 10
389.4921283321274
 20
-121.5963496435562
 30
0.0
 10
389.4921283321274
 20
-121.1180507191169
 30
0.0
 10
389.4921283321274
 20
-120.6397165166897
 30
0.0
 10
389.4926575019198
 20
-120.161452870241
 30
0.0
 10
389.493327783659
 20
-119.5748858089735
 30
0.0
 10
389.4948094590779
 20
-118.9883187477085
 30
0.0
 10
389.489517761146
 20
-118.4017164084562
 30
0.0
 10
389.482850221763
 20
-117.6592912082187
 30
0.0
 10
389.4652465066645
 20
-116.9167601740238
 30
0.0
 10
389.4095425664963
 20
-116.176486930888
 30
0.0
 10
389.3655861957239
 20
-115.5923187726232
 30
0.0
 10
389.2978877402618
 20
-115.0095264557762
 30
0.0
 10
389.2040482970449
 20
-114.4311438870989
 30
0.0
 10
389.1113024713989
 20
-113.859534691592
 30
0.0
 10
388.9930153837643
 20
-113.292229410289
 30
0.0
 10
388.847035076984
 20
-112.7319797260412
 30
0.0
 10
388.6658473399996
 20
-112.0366417098514
 30
0.0
 10
388.4419732397561
 20
-111.3521782221422
 30
0.0
 10
388.1797872465202
 20
-110.6831312143836
 30
0.0
 10
387.629627052167
 20
-109.2791379207043
 30
0.0
 10
386.9106969719638
 20
-107.9429136384636
 30
0.0
 10
386.0621555705689
 20
-106.6962248851263
 30
0.0
 10
385.2150605666036
 20
-105.4516528109609
 30
0.0
 10
384.238812855259
 20
-104.2962634858337
 30
0.0
 10
383.1619170493678
 20
-103.2443092161657
 30
0.0
 10
382.2544614110657
 20
-102.3578792576201
 30
0.0
 10
381.2755678507575
 20
-101.544898066283
 30
0.0
 10
380.2326094675672
 20
-100.8225107434377
 30
0.0
 10
378.7041907166512
 20
-99.7639242123677
 30
0.0
 10
377.0382230976613
 20
-98.89993105302591
 30
0.0
 10
375.2770754719792
 20
-98.30560281998461
 30
0.0
 10
374.4318502012808
 20
-98.0203803017829
 30
0.0
 10
373.5646820231785
 20
-97.79724703924248
 30
0.0
 10
372.6867893372898
 20
-97.63895471528978
 30
0.0
 10
371.6936787485504
 20
-97.45991893546599
 30
0.0
 10
370.6868450231983
 20
-97.36382170113023
 30
0.0
 10
369.6784943444412
 20
-97.32438091258726
 30
0.0
 10
369.0541092671803
 20
-97.2999332681748
 30
0.0
 10
368.4291244641522
 20
-97.29721686324022
 30
0.0
 10
367.8041749391134
 20
-97.29559407587386
 30
0.0
 10
366.6009486647441
 20
-97.29248961308801
 30
0.0
 10
365.3978987803019
 20
-97.29354795267722
 30
0.0
 10
364.194848895852
 20
-97.29411240045437
 30
0.0
 10
362.7280607867899
 20
-97.29481796017964
 30
0.0
 10
361.2612726777239
 20
-97.29478268218523
 30
0.0
 10
359.7944492906725
 20
-97.29478268218523
 30
0.0
 10
339.6935819395721
 20
-97.29446518031828
 30
0.0
 10
-135.3121192952917
 20
-97.29464157024415
 30
0.0
 10
-155.4129866463877
 20
-97.29464157024415
 30
0.0
  0
SPLINE
  5
50
330
1F
100
AcDbEntity
  8
0
 62
   250
370
    25
100
AcDbSpline
210
0.0
220
0.0
230
1.0
 70
     8
 71
     3
 72
    89
 73
    85
 74
     0
 42
0.0000000001
 43
0.0000000001
 12
1.0
 22
0.0
 32
0.0
 13
1.0
 23
0.0
 33
0.0
 40
0.0
 40
0.0
 40
0.0
 40
0.0
 40
1.0
 40
1.0
 40
1.0
 40
2.0
 40
2.0
 40
2.0
 40
3.0
 40
3.0
 40
3.0
 40
4.0
 40
4.0
 40
4.0
 40
5.0
 40
5.0
 40
5.0
 40
6.0
 40
6.0
 40
6.0
 40
7.0
 40
7.0
 40
7.0
 40
8.0
 40
8.0
 40
8.0
 40
9.0
 40
9.0
 40
9.0
 40
10.0
 40
10.0
 40
10.0
 40
11.0
 40
11.0
 40
11.0
 40
12.0
 40
12.0
 40
12.0
 40
13.0
 40
13.0
 40
13.0
 40
14.0
 40
14.0
 40
14.0
 40
15.0
 40
15.0
 40
15.0
 40
16.0
 40
16.0
 40
16.0
 40
17.0
 40
17.0
 40
17.0
 40
18.0
 40
18.0
 40
18.0
 40
19.0
 40
19.0
 40
19.0
 40
20.0
 40
20.0
 40
20.0
 40
21.0
 40
21.0
 40
21.0
 40
22.0
 40
22.0
 40
22.0
 40
23.0
 40
23.0
 40
23.0
 40
24.0
 40
24.0
 40
24.0
 40
25.0
 40
25.0
 40
25.0
 40
26.0
 40
26.0
 40
26.0
 40
27.0
 40
27.0
 40
27.0
 40
28.0
 40
28.0
 40
28.0
 40
28.0
 10
-203.2964675595879
 20
-449.4500123805383
 30
0.0
 10
-202.4862380511755
 20
-450.0408480929469
 30
0.0
 10
-201.624326293012
 20
-450.5624331185031
 30
0.0
 10
-200.7195517816559
 20
-450.9953645647995
 30
0.0
 10
-199.8955991366225
 20
-451.3896666162549
 30
0.0
 10
-199.0360862815195
 20
-451.7104140665315
 30
0.0
 10
-198.1553713567339
 20
-451.9516096579933
 30
0.0
 10
-197.2366267628524
 20
-452.2032475333572
 30
0.0
 10
-196.2948103660141
 20
-452.3682779526688
 30
0.0
 10
-195.3477728272207
 20
-452.4734416294507
 30
0.0
 10
-194.1267311698331
 20
-452.6090502082932
 30
0.0
 10
-192.8969758498558
 20
-452.6451043101624
 30
0.0
 10
-191.6682083134958
 20
-452.6598152303915
 30
0.0
 10
-191.2211303947353
 20
-452.6651774842924
 30
0.0
 10
-190.7741583099346
 20
-452.6676822213125
 30
0.0
 10
-190.3272215031184
 20
-452.6701869583331
 30
0.0
 10
-186.2520849304427
 20
-452.6929412594129
 30
0.0
 10
-182.1763486320019
 20
-452.7137552712504
 30
0.0
 10
-178.1006828895328
 20
-452.7343223371898
 30
0.0
 10
-170.6566397493603
 20
-452.7718581144785
 30
0.0
 10
-163.212914111064
 20
-452.8085472201008
 30
0.0
 10
-155.7691179167958
 20
-452.8435429823828
 30
0.0
 10
-142.3632009474911
 20
-452.9066200216585
 30
0.0
 10
-128.9570370322816
 20
-452.9643348070309
 30
0.0
 10
-115.5509083950569
 20
-453.0172517862949
 30
0.0
 10
-89.62247050817922
 20
-453.1195579461928
 30
0.0
 10
-63.69417373324909
 20
-453.2039428891162
 30
0.0
 10
-37.76577112435881
 20
-453.2699480012469
 30
0.0
 10
14.09110464939387
 20
-453.4019582255017
 30
0.0
 10
65.94826264703835
 20
-453.4604138485855
 30
0.0
 10
117.805385366698
 20
-453.4456676503626
 30
0.0
 10
253.2003207281853
 20
-453.4071440894658
 30
0.0
 10
388.5949385877985
 20
-452.8694017462439
 30
0.0
 10
523.9858875368469
 20
-451.8324406207006
 30
0.0
 10
531.0831833509304
 20
-451.7780772440108
 30
0.0
 10
538.1804791650171
 20
-451.7223733038426
 30
0.0
 10
545.2777397011178
 20
-451.663564900893
 30
0.0
 10
545.5570707956314
 20
-451.6612365538091
 30
0.0
 10
545.8364018901417
 20
-451.6589082067181
 30
0.0
 10
546.1157329846553
 20
-451.6550276282431
 30
0.0
 10
547.0464368158473
 20
-451.6420453293271
 30
0.0
 10
547.9770700910709
 20
-451.6116004272593
 30
0.0
 10
548.9050222393404
 20
-451.5397744474146
 30
0.0
 10
549.1959950692884
 20
-451.5172670922393
 30
0.0
 10
549.4866856753459
 20
-451.4906674906637
 30
0.0
 10
549.7767412776568
 20
-451.4582117433853
 30
0.0
 10
550.3963991047636
 20
-451.3888552225753
 30
0.0
 10
551.0130583030544
 20
-451.2926521542813
 30
0.0
 10
551.6229441279976
 20
-451.1632877789838
 30
0.0
 10
552.0476558035239
 20
-451.0732230802906
 30
0.0
 10
552.4690513483542
 20
-450.9670716198968
 30
0.0
 10
552.8851904732381
 20
-450.8431047764888
 30
0.0
 10
553.3108546543947
 20
-450.7163156941866
 30
0.0
 10
553.7310507476903
 20
-450.5708998351847
 30
0.0
 10
554.1439090198598
 20
-450.4071394233729
 30
0.0
 10
554.9610177355784
 20
-450.0831111203821
 30
0.0
 10
555.7496571164605
 20
-449.6872568375471
 30
0.0
 10
556.501042943942
 20
-449.2315005341886
 30
0.0
 10
557.8428411479981
 20
-448.4176021152053
 30
0.0
 10
559.0659642065773
 20
-447.4125675671518
 30
0.0
 10
560.1509033933122
 20
-446.2771808601921
 30
0.0
 10
561.2905234586166
 20
-445.0845379816628
 30
0.0
 10
562.2776720676874
 20
-443.7481020315038
 30
0.0
 10
563.0699803591289
 20
-442.3021632122684
 30
0.0
 10
563.8141694774292
 20
-440.9441018565859
 30
0.0
 10
564.3864842470983
 20
-439.4894140967714
 30
0.0
 10
564.7425449615334
 20
-437.9825501954151
 30
0.0
 10
564.9184057226031
 20
-437.2382905211464
 30
0.0
 10
565.0414906163529
 20
-436.4812954938666
 30
0.0
 10
565.1237941580968
 20
-435.7207726679644
 30
0.0
 10
565.2210908439571
 20
-434.8218895802983
 30
0.0
 10
565.2613430261816
 20
-433.9181028525483
 30
0.0
 10
565.2796170230193
 20
-433.0141397348789
 30
0.0
 10
565.29552739478
 20
-432.2262764696934
 30
0.0
 10
565.2947512790832
 20
-431.4383073705433
 30
0.0
 10
565.2941515533225
 20
-430.6503029934212
 30
0.0
 10
565.2921407081081
 20
-427.8868028938872
 30
0.0
 10
565.2928109898473
 20
-425.1233724728745
 30
0.0
 10
565.2931990476961
 20
-422.3599420518617
 30
0.0
 10
565.2939046074182
 20
-417.7449112953934
 30
0.0
 10
565.2938693294321
 20
-413.1298805389212
 30
0.0
 10
565.2938693294321
 20
-408.5148497824491
 30
0.0
 10
565.293622383527
 20
-267.441185272667
 30
0.0
 10
565.2936576615131
 20
-145.8574086714643
 30
0.0
 10
565.293622383527
 20
-4.783732033583836
 30
0.0
  0
SPLINE
  5
51
330
1F
100
AcDbEntity
  8
0
 62
   250
370
    25
100
AcDbSpline
210
0.0
220
0.0
230
1.0
 70
     8
 71
     3
 72
    50
 73
    46
 74
     0
 42
0.0000000001
 43
0.0000000001
 12
1.0
 22
0.0
 32
0.0
 13
1.0
 23
0.0
 33
0.0
 40
0.0
 40
0.0
 40
0.0
 40
0.0
 40
1.0
 40
1.0
 40
1.0
 40
2.0
 40
2.0
 40
2.0
 40
3.0
 40
3.0
 40
3.0
 40
4.0
 40
4.0
 40
4.0
 40
5.0
 40
5.0
 40
5.0
 40
6.0
 40
6.0
 40
6.0
 40
7.0
 40
7.0
 40
7.0
 40
8.0
 40
8.0
 40
8.0
 40
9.0
 40
9.0
 40
9.0
 40
10.0
 40
10.0
 40
10.0
 40
11.0
 40
11.0
 40
11.0
 40
12.0
 40
12.0
 40
12.0
 40
13.0
 40
13.0
 40
13.0
 40
14.0
 40
14.0
 40
14.0
 40
15.0
 40
15.0
 40
15.0
 40
15.0
 10
-155.4129866463877
 20
-97.29464157024415
 30
0.0
 10
-156.8798100334403
 20
-97.29464157024415
 30
0.0
 10
-158.346633420493
 20
-97.29467684823247
 30
0.0
 10
-159.813421529558
 20
-97.29418295642651
 30
0.0
 10
-161.0165066919869
 20
-97.29375962059365
 30
0.0
 10
-162.2195918544158
 20
-97.29301878288422
 30
0.0
 10
-163.4227122948327
 20
-97.29577046580293
 30
0.0
 10
-164.0476265418835
 20
-97.29718158525286
 30
0.0
 10
-164.672505510953
 20
-97.29958048831344
 30
0.0
 10
-165.2969611441861
 20
-97.32392229876962
 30
0.0
 10
-166.3053823789147
 20
-97.36329253134076
 30
0.0
 10
-167.3125688841313
 20
-97.45998949143525
 30
0.0
 10
-168.3056089168909
 20
-97.6392016611878
 30
0.0
 10
-169.1834310468136
 20
-97.79759981910641
 30
0.0
 10
-170.0502111670611
 20
-98.02045085775568
 30
0.0
 10
-170.8953658817902
 20
-98.30560281998461
 30
0.0
 10
-172.6562665615714
 20
-98.89971938511269
 30
0.0
 10
-174.3232925201492
 20
-99.76424171424426
 30
0.0
 10
-175.8516407150877
 20
-100.8227224113574
 30
0.0
 10
-176.8945638202934
 20
-101.5450391782273
 30
0.0
 10
-177.8729282108055
 20
-102.3576323117157
 30
0.0
 10
-178.780172181195
 20
-103.2440622702645
 30
0.0
 10
-179.8568210411834
 20
-104.2959812619452
 30
0.0
 10
-180.8333509764156
 20
-105.45182920089
 30
0.0
 10
-181.6807987602419
 20
-106.6964012750554
 30
0.0
 10
-182.529692941503
 20
-107.9430900283927
 30
0.0
 10
-183.2491169135106
 20
-109.2788204188309
 30
0.0
 10
-183.7982187682797
 20
-110.6829548244578
 30
0.0
 10
-184.2707673930577
 20
-111.8912964068229
 30
0.0
 10
-184.6171972172657
 20
-113.1502707975157
 30
0.0
 10
-184.8244553860321
 20
-114.4311791650808
 30
0.0
 10
-184.918012605356
 20
-115.0094911777946
 30
0.0
 10
-184.9832063238022
 20
-115.5922834946352
 30
0.0
 10
-185.0266688027666
 20
-116.176486930888
 30
0.0
 10
-185.081737739183
 20
-116.9167601740238
 30
0.0
 10
-185.1018814692857
 20
-117.6592912082187
 30
0.0
 10
-185.1091134564529
 20
-118.4017516864409
 30
0.0
 10
-185.1148284902096
 20
-118.9883540256936
 30
0.0
 10
-185.1124648651367
 20
-119.5748858089735
 30
0.0
 10
-185.1114065255539
 20
-120.161452870241
 30
0.0
 10
-185.1105598538844
 20
-120.6397165166897
 30
0.0
 10
-185.110595131872
 20
-121.1180154411289
 30
0.0
 10
-185.110595131872
 20
-121.596314365572
 30
0.0
 10
-185.1110890236774
 20
-133.4958610247187
 30
0.0
 10
-185.1109126337451
 20
-145.3953724058838
 30
0.0
 10
-185.1109831897178
 20
-157.2948837870463
 30
0.0
  0
INSERT
  5
53
330
1F
100
AcDbEntity
  8
0
100
AcDbBlockReference
  2
block 2
 10
0.0
 20
0.0
 30
0.0
  0
INSERT
  5
6D
330
1F
100
AcDbEntity
  8
0
100
AcDbBlockReference
  2
block 4
 10
0.0
 20
0.0
 30
0.0
  0
SPLINE
  5
86
330
1F
100
AcDbEntity
  8
0
 62
   250
370
    25
100
AcDbSpline
210
0.0
220
0.0
230
1.0
 70
    11
 71
     3
 72
    17
 73
    13
 74
     0
 42
0.0000000001
 43
0.0000000001
 12
1.0
 22
0.0
 32
0.0
 13
1.0
 23
0.0
 33
0.0
 40
0.0
 40
0.0
 40
0.0
 40
0.0
 40
1.0
 40
1.0
 40
1.0
 40
2.0
 40
2.0
 40
2.0
 40
3.0
 40
3.0
 40
3.0
 40
4.0
 40
4.0
 40
4.0
 40
4.0
 10
128.823582015034
 20
-202.2607480132795
 30
0.0
 10
128.823582015034
 20
-188.0194955599863
 30
0.0
 10
117.2802868226984
 20
-176.4947178715964
 30
0.0
 10
103.0545373959642
 20
-176.4947178715964
 30
0.0
 10
88.82017517669692
 20
-176.4947178715964
 30
0.0
 10
77.26955911070849
 20
-188.0194955599863
 30
0.0
 10
77.26955911070849
 20
-202.2607480132795
 30
0.0
 10
77.26955911070849
 20
-216.5054455835863
 30
0.0
 10
88.82017517669692
 20
-228.0371135059996
 30
0.0
 10
103.0545373959642
 20
-228.0371135059996
 30
0.0
 10
117.2802868226984
 20
-228.0371135059996
 30
0.0
 10
128.823582015034
 20
-216.5054455835863
 30
0.0
 10
128.823582015034
 20
-202.2607480132795
 30
0.0
  0
SPLINE
  5
87
330
1F
100
AcDbEntity
  8
0
 62
   250
370
    25
100
AcDbSpline
210
0.0
220
0.0
230
1.0
 70
    11
 71
     3
 72
    17
 73
    13
 74
     0
 42
0.0000000001
 43
0.0000000001
 12
1.0
 22
0.0
 32
0.0
 13
1.0
 23
0.0
 33
0.0
 40
0.0
 40
0.0
 40
0.0
 40
0.0
 40
1.0
 40
1.0
 40
1.0
 40
2.0
 40
2.0
 40
2.0
 40
3.0
 40
3.0
 40
3.0
 40
4.0
 40
4.0
 40
4.0
 40
4.0
 10
140.005139920984
 20
-202.2607480132795
 30
0.0
 10
140.005139920984
 20
-181.8424007553282
 30
0.0
 10
123.462549302876
 20
-165.3161744430336
 30
0.0
 10
103.0605663507369
 20
-165.3161744430336
 30
0.0
 10
82.65858339859818
 20
-165.3161744430336
 30
0.0
 10
66.10221231243789
 20
-181.8424007553282
 30
0.0
 10
66.10221231243789
 20
-202.2607480132795
 30
0.0
 10
66.10221231243789
 20
-222.6799565504853
 30
0.0
 10
82.65858339859818
 20
-239.2096279797896
 30
0.0
 10
103.0605663507369
 20
-239.2096279797896
 30
0.0
 10
123.462549302876
 20
-239.2096279797896
 30
0.0
 10
140.005139920984
 20
-222.6799565504853
 30
0.0
 10
140.005139920984
 20
-202.2607480132795
 30
0.0
  0
SPLINE
  5
88
330
1F
100
AcDbEntity
  8
0
 62
   250
370
    25
100
AcDbSpline
210
0.0
220
0.0
230
1.0
 70
    11
 71
     3
 72
    20
 73
    16
 74
     0
 42
0.0000000001
 43
0.0000000001
 12
1.0
 22
0.0
 32
0.0
 13
1.0
 23
0.0
 33
0.0
 40
0.0
 40
0.0
 40
0.0
 40
0.0
 40
1.0
 40
1.0
 40
1.0
 40
2.0
 40
2.0
 40
2.0
 40
3.0
 40
3.0
 40
3.0
 40
4.0
 40
4.0
 40
4.0
 40
5.0
 40
5.0
 40
5.0
 40
5.0
 10
85.98407867755714
 20
-52.06686989297311
 30
0.0
 10
85.98407867755714
 20
-42.40310135114893
 30
0.0
 10
93.81913604481541
 20
-34.56804398389033
 30
0.0
 10
103.4847348050531
 20
-34.56804398389033
 30
0.0
 10
113.1494722860373
 20
-34.56804398389033
 30
0.0
 10
120.9845296532959
 20
-42.40310135114893
 30
0.0
 10
120.9845296532959
 20
-52.06686989297311
 30
0.0
 10
120.9845296532959
 20
-61.73257631311083
 30
0.0
 10
113.1494722860373
 20
-69.56763368036943
 30
0.0
 10
103.4847348050531
 20
-69.56763368036943
 30
0.0
 10
93.81913604481541
 20
-69.56763368036943
 30
0.0
 10
85.98407867755714
 20
-61.73257631311083
 30
0.0
 10
85.98407867755714
 20
-52.06686989297311
 30
0.0
 10
85.98407867755714
 20
-52.06686989297311
 30
0.0
 10
85.98407867755714
 20
-52.06686989297311
 30
0.0
 10
85.98407867755714
 20
-52.06686989297311
 30
0.0
  0
INSERT
  5
8A
330
1F
100
AcDbEntity
  8
0
100
AcDbBlockReference
  2
block 6
 10
0.0
 20
0.0
 30
0.0
  0
SPLINE
  5
BD
330
1F
100
AcDbEntity
  8
0
  6
AI-Linetype-9
 62
     6
370
    25
100
AcDbSpline
210
0.0
220
0.0
230
1.0
 70
    11
 71
     3
 72
    17
 73
    13
 74
     0
 42
0.0000000001
 43
0.0000000001
 12
1.0
 22
0.0
 32
0.0
 13
1.0
 23
0.0
 33
0.0
 40
0.0
 40
0.0
 40
0.0
 40
0.0
 40
1.0
 40
1.0
 40
1.0
 40
2.0
 40
2.0
 40
2.0
 40
3.0
 40
3.0
 40
3.0
 40
4.0
 40
4.0
 40
4.0
 40
4.0
 10
203.568320323594
 20
-69.44567853795908
 30
0.0
 10
213.2323728883151
 20
-69.44567853795908
 30
0.0
 10
221.0700172419068
 20
-61.61120931936984
 30
0.0
 10
221.0700172419068
 20
-51.94715675466089
 30
0.0
 10
221.0700172419068
 20
-42.2799290549309
 30
0.0
 10
213.2323728883151
 20
-34.44545983635129
 30
0.0
 10
203.568320323594
 20
-34.44545983635129
 30
0.0
 10
193.904267758885
 20
-34.44545983635129
 30
0.0
 10
186.0666234052934
 20
-42.2799290549309
 30
0.0
 10
186.0666234052934
 20
-51.94715675466089
 30
0.0
 10
186.0666234052934
 20
-61.61120931936984
 30
0.0
 10
193.904267758885
 20
-69.44567853795908
 30
0.0
 10
203.568320323594
 20
-69.44567853795908
 30
0.0
  0
SPLINE
  5
BF
330
1F
100
AcDbEntity
  8
0
  6
AI-Linetype-10
 62
     6
370
    25
100
AcDbSpline
210
0.0
220
0.0
230
1.0
 70
    11
 71
     3
 72
    17
 73
    13
 74
     0
 42
0.0000000001
 43
0.0000000001
 12
1.0
 22
0.0
 32
0.0
 13
1.0
 23
0.0
 33
0.0
 40
0.0
 40
0.0
 40
0.0
 40
0.0
 40
1.0
 40
1.0
 40
1.0
 40
2.0
 40
2.0
 40
2.0
 40
3.0
 40
3.0
 40
3.0
 40
4.0
 40
4.0
 40
4.0
 40
4.0
 10
3.502704526309987
 20
-68.4854194531277
 30
0.0
 10
13.16675709102472
 20
-68.4854194531277
 30
0.0
 10
21.00440144462311
 20
-60.6509502345513
 30
0.0
 10
21.00440144462311
 20
-50.98689766983016
 30
0.0
 10
21.00440144462311
 20
-41.31966997010595
 30
0.0
 10
13.16675709102472
 20
-33.48520075152955
 30
0.0
 10
3.502704526309987
 20
-33.48520075152955
 30
0.0
 10
-6.16134803839191
 20
-33.48520075152955
 30
0.0
 10
-13.99899239198998
 20
-41.31966997010595
 30
0.0
 10
-13.99899239198998
 20
-50.98689766983016
 30
0.0
 10
-13.99899239198998
 20
-60.6509502345513
 30
0.0
 10
-6.16134803839191
 20
-68.4854194531277
 30
0.0
 10
3.502704526309987
 20
-68.4854194531277
 30
0.0
  0
ENDSEC
  0
SECTION
  2
OBJECTS
  0
DICTIONARY
  5
C
330
0
100
AcDbDictionary
281
     1
  3
ACAD_GROUP
350
D
  3
ACAD_LAYOUT
350
1A
  3
ACAD_MATERIAL
350
3B
  3
ACAD_MLEADERSTYLE
350
E2
  3
ACAD_MLINESTYLE
350
17
  3
ACAD_PLOTSETTINGS
350
19
  3
ACAD_PLOTSTYLENAME
350
E
  3
ACAD_TABLESTYLE
350
E1
  3
ACAD_VISUALSTYLE
350
2A
  0
SUN
  5
3F
330
29
100
AcDbSun
 90
        1
290
     0
 63
     7
421
 16777215
 40
1.0
291
     1
 91
  2455826
 92
 54000000
292
     0
 70
     2
 71
   256
280
     1
  0
DICTIONARY
  5
D
102
{ACAD_REACTORS
330
C
102
}
330
C
100
AcDbDictionary
281
     1
  0
DICTIONARY
  5
1A
102
{ACAD_REACTORS
330
C
102
}
330
C
100
AcDbDictionary
281
     1
  3
Layout1
350
1E
  3
Layout2
350
26
  3
Model
350
22
  0
DICTIONARY
  5
3B
102
{ACAD_REACTORS
330
C
102
}
330
C
100
AcDbDictionary
281
     1
  3
ByBlock
350
3D
  3
ByLayer
350
3C
  3
Global
350
3E
  0
DICTIONARY
  5
E2
102
{ACAD_REACTORS
330
C
102
}
330
C
100
AcDbDictionary
281
     1
  0
DICTIONARY
  5
17
102
{ACAD_REACTORS
330
C
102
}
330
C
100
AcDbDictionary
281
     1
  3
Standard
350
18
  0
DICTIONARY
  5
19
102
{ACAD_REACTORS
330
C
102
}
330
C
100
AcDbDictionary
281
     1
  0
ACDBDICTIONARYWDFLT
  5
E
102
{ACAD_REACTORS
330
C
102
}
330
C
100
AcDbDictionary
281
     1
  3
Normal
350
F
100
AcDbDictionaryWithDefault
340
F
  0
DICTIONARY
  5
E1
102
{ACAD_REACTORS
330
C
102
}
330
C
100
AcDbDictionary
281
     1
  0
DICTIONARY
  5
2A
102
{ACAD_REACTORS
330
C
102
}
330
C
100
AcDbDictionary
281
     1
  3
2dWireframe
350
2F
  3
3D Hidden
350
31
  3
3dWireframe
350
30
  3
Basic
350
32
  3
Brighten
350
36
  3
ColorChange
350
3A
  3
Conceptual
350
34
  3
Dim
350
35
  3
Facepattern
350
39
  3
Flat
350
2B
  3
FlatWithEdges
350
2C
  3
Gouraud
350
2D
  3
GouraudWithEdges
350
2E
  3
Linepattern
350
38
  3
Realistic
350
33
  3
Thicken
350
37
  0
LAYOUT
  5
1E
102
{ACAD_REACTORS
330
1A
102
}
330
1A
100
AcDbPlotSettings
  1

  2
none_device
  4

  6

 40
0.0
 41
0.0
 42
0.0
 43
0.0
 44
0.0
 45
0.0
 46
0.0
 47
0.0
 48
0.0
 49
0.0
140
0.0
141
0.0
142
1.0
143
1.0
 70
   688
 72
     0
 73
     0
 74
     5
  7

 75
    16
 76
     0
 77
     2
 78
   300
147
1.0
148
0.0
149
0.0
100
AcDbLayout
  1
Layout1
 70
     1
 71
     1
 10
0.0
 20
0.0
 11
12.0
 21
9.0
 12
0.0
 22
0.0
 32
0.0
 14
1.000000000000000E+20
 24
1.000000000000000E+20
 34
1.000000000000000E+20
 15
-1.000000000000000E+20
 25
-1.000000000000000E+20
 35
-1.000000000000000E+20
146
0.0
 13
0.0
 23
0.0
 33
0.0
 16
1.0
 26
0.0
 36
0.0
 17
0.0
 27
1.0
 37
0.0
 76
     0
330
1B
  0
LAYOUT
  5
26
102
{ACAD_REACTORS
330
1A
102
}
330
1A
100
AcDbPlotSettings
  1

  2
none_device
  4

  6

 40
0.0
 41
0.0
 42
0.0
 43
0.0
 44
0.0
 45
0.0
 46
0.0
 47
0.0
 48
0.0
 49
0.0
140
0.0
141
0.0
142
1.0
143
1.0
 70
   688
 72
     0
 73
     0
 74
     5
  7

 75
    16
 76
     0
 77
     2
 78
   300
147
1.0
148
0.0
149
0.0
100
AcDbLayout
  1
Layout2
 70
     1
 71
     2
 10
0.0
 20
0.0
 11
0.0
 21
0.0
 12
0.0
 22
0.0
 32
0.0
 14
0.0
 24
0.0
 34
0.0
 15
0.0
 25
0.0
 35
0.0
146
0.0
 13
0.0
 23
0.0
 33
0.0
 16
1.0
 26
0.0
 36
0.0
 17
0.0
 27
1.0
 37
0.0
 76
     0
330
23
  0
LAYOUT
  5
22
102
{ACAD_REACTORS
330
1A
102
}
330
1A
100
AcDbPlotSettings
  1

  2
none_device
  4

  6

 40
0.0
 41
0.0
 42
0.0
 43
0.0
 44
0.0
 45
0.0
 46
0.0
 47
0.0
 48
0.0
 49
0.0
140
0.0
141
0.0
142
1.0
143
1.0
 70
  1712
 72
     0
 73
     0
 74
     0
  7

 75
     0
 76
     0
 77
     2
 78
   300
147
1.0
148
0.0
149
0.0
100
AcDbLayout
  1
Model
 70
     1
 71
     0
 10
0.0
 20
0.0
 11
12.0
 21
9.0
 12
0.0
 22
0.0
 32
0.0
 14
1.000000000000000E+20
 24
1.000000000000000E+20
 34
1.000000000000000E+20
 15
-1.000000000000000E+20
 25
-1.000000000000000E+20
 35
-1.000000000000000E+20
146
0.0
 13
0.0
 23
0.0
 33
0.0
 16
1.0
 26
0.0
 36
0.0
 17
0.0
 27
1.0
 37
0.0
 76
     0
330
1F
331
29
  0
MATERIAL
  5
3D
102
{ACAD_REACTORS
330
3B
102
}
330
3B
100
AcDbMaterial
  1
ByBlock
 72
     1
 94
      127
  0
MATERIAL
  5
3C
102
{ACAD_REACTORS
330
3B
102
}
330
3B
100
AcDbMaterial
  1
ByLayer
 72
     1
 94
      127
  0
MATERIAL
  5
3E
102
{ACAD_REACTORS
330
3B
102
}
330
3B
100
AcDbMaterial
  1
Global
 72
     1
 94
      127
  0
MLINESTYLE
  5
18
102
{ACAD_REACTORS
330
17
102
}
330
17
100
AcDbMlineStyle
  2
Standard
 70
     0
  3

 62
   256
 51
90.0
 52
90.0
 71
     2
 49
0.5
 62
   256
  6
BYLAYER
 49
-0.5
 62
   256
  6
BYLAYER
  0
ACDBPLACEHOLDER
  5
F
102
{ACAD_REACTORS
330
E
102
}
330
E
  0
VISUALSTYLE
  5
2F
102
{ACAD_REACTORS
330
2A
102
}
102
{ACAD_XDICTIONARY
360
C9
102
}
330
2A
100
AcDbVisualStyle
  2
2dWireframe
 70
     4
 71
     0
 72
     2
 73
     0
 90
        0
 40
-0.6
 41
-30.0
 62
     5
 63
     7
421
 16777215
 74
     1
 91
        4
 64
     7
 65
   257
 75
     1
175
     1
 42
1.0
 92
        0
 66
   257
 43
1.0
 76
     1
 77
     6
 78
     2
 67
     7
 79
     5
170
     0
171
     0
290
     0
174
     0
 93
        1
 44
0.0
173
     0
291
     0
 45
0.0
  0
VISUALSTYLE
  5
31
102
{ACAD_REACTORS
330
2A
102
}
102
{ACAD_XDICTIONARY
360
CD
102
}
330
2A
100
AcDbVisualStyle
  2
3D Hidden
 70
     6
 71
     1
 72
     2
 73
     2
 90
        0
 40
-0.6
 41
-30.0
 62
     5
 63
     7
421
 16777215
 74
     2
 91
        2
 64
     7
 65
   257
 75
     2
175
     1
 42
40.0
 92
        0
 66
   257
 43
1.0
 76
     1
 77
     6
 78
     2
 67
     7
 79
     3
170
     0
171
     0
290
     0
174
     0
 93
        1
 44
0.0
173
     0
291
     0
 45
0.0
  0
VISUALSTYLE
  5
30
102
{ACAD_REACTORS
330
2A
102
}
102
{ACAD_XDICTIONARY
360
CB
102
}
330
2A
100
AcDbVisualStyle
  2
3dWireframe
 70
     5
 71
     0
 72
     2
 73
     0
 90
        0
 40
-0.6
 41
-30.0
 62
     5
 63
     7
421
 16777215
 74
     1
 91
        4
 64
     7
 65
   257
 75
     1
175
     1
 42
1.0
 92
        0
 66
   257
 43
1.0
 76
     1
 77
     6
 78
     2
 67
     7
 79
     5
170
     0
171
     0
290
     0
174
     0
 93
        1
 44
0.0
173
     0
291
     0
 45
0.0
  0
VISUALSTYLE
  5
32
102
{ACAD_REACTORS
330
2A
102
}
102
{ACAD_XDICTIONARY
360
CF
102
}
330
2A
100
AcDbVisualStyle
  2
Basic
 70
     7
 71
     1
 72
     0
 73
     1
 90
        0
 40
-0.6
 41
-30.0
 62
     5
 63
     7
421
 16777215
 74
     0
 91
        4
 64
     7
 65
   257
 75
     1
175
     1
 42
1.0
 92
        8
 66
     7
 43
1.0
 76
     1
 77
     6
 78
     2
 67
     7
 79
     5
170
     0
171
     0
290
     0
174
     0
 93
        1
 44
0.0
173
     0
291
     1
 45
0.0
  0
VISUALSTYLE
  5
36
102
{ACAD_REACTORS
330
2A
102
}
102
{ACAD_XDICTIONARY
360
D7
102
}
330
2A
100
AcDbVisualStyle
  2
Brighten
 70
    12
 71
     2
 72
     2
 73
     0
 90
        0
 40
-0.6
 41
-30.0
 62
     5
 63
     7
421
 16777215
 74
     1
 91
        4
 64
     7
 65
   257
 75
     1
175
     1
 42
1.0
 92
        8
 66
     7
 43
1.0
 76
     1
 77
     6
 78
     2
 67
     7
 79
     5
170
     0
171
     0
290
     0
174
     0
 93
        1
 44
50.0
173
     0
291
     1
 45
0.0
  0
VISUALSTYLE
  5
3A
102
{ACAD_REACTORS
330
2A
102
}
102
{ACAD_XDICTIONARY
360
DF
102
}
330
2A
100
AcDbVisualStyle
  2
ColorChange
 70
    16
 71
     2
 72
     2
 73
     3
 90
        0
 40
-0.6
 41
-30.0
 62
     5
 63
     8
421
  8421504
 74
     1
 91
        4
 64
     7
 65
   257
 75
     1
175
     1
 42
1.0
 92
        8
 66
     8
424
  8421504
 43
1.0
 76
     1
 77
     6
 78
     2
 67
     7
 79
     5
170
     0
171
     0
290
     0
174
     0
 93
        1
 44
0.0
173
     0
291
     1
 45
0.0
  0
VISUALSTYLE
  5
34
102
{ACAD_REACTORS
330
2A
102
}
102
{ACAD_XDICTIONARY
360
D3
102
}
330
2A
100
AcDbVisualStyle
  2
Conceptual
 70
     9
 71
     3
 72
     2
 73
     0
 90
        0
 40
-0.6
 41
-30.0
 62
     5
 63
     7
421
 16777215
 74
     2
 91
        2
 64
     7
 65
   257
 75
     1
175
     1
 42
40.0
 92
        8
 66
     7
 43
1.0
 76
     1
 77
     6
 78
     2
 67
     7
 79
     3
170
     0
171
     0
290
     0
174
     0
 93
        1
 44
0.0
173
     0
291
     0
 45
0.0
  0
VISUALSTYLE
  5
35
102
{ACAD_REACTORS
330
2A
102
}
102
{ACAD_XDICTIONARY
360
D5
102
}
330
2A
100
AcDbVisualStyle
  2
Dim
 70
    11
 71
     2
 72
     2
 73
     0
 90
        0
 40
-0.6
 41
-30.0
 62
     5
 63
     7
421
 16777215
 74
     1
 91
        4
 64
     7
 65
   257
 75
     1
175
     1
 42
1.0
 92
        8
 66
     7
 43
1.0
 76
     1
 77
     6
 78
     2
 67
     7
 79
     5
170
     0
171
     0
290
     0
174
     0
 93
        1
 44
-50.0
173
     0
291
     1
 45
0.0
  0
VISUALSTYLE
  5
39
102
{ACAD_REACTORS
330
2A
102
}
102
{ACAD_XDICTIONARY
360
DD
102
}
330
2A
100
AcDbVisualStyle
  2
Facepattern
 70
    15
 71
     2
 72
     2
 73
     0
 90
        0
 40
-0.6
 41
-30.0
 62
     5
 63
     7
421
 16777215
 74
     1
 91
        4
 64
     7
 65
   257
 75
     1
175
     1
 42
1.0
 92
        8
 66
     7
 43
1.0
 76
     1
 77
     6
 78
     2
 67
     7
 79
     5
170
     0
171
     0
290
     0
174
     0
 93
        1
 44
0.0
173
     0
291
     1
 45
0.0
  0
VISUALSTYLE
  5
2B
102
{ACAD_REACTORS
330
2A
102
}
102
{ACAD_XDICTIONARY
360
C1
102
}
330
2A
100
AcDbVisualStyle
  2
Flat
 70
     0
 71
     2
 72
     1
 73
     1
 90
        2
 40
-0.6
 41
30.0
 62
     5
 63
     7
421
 16777215
 74
     0
 91
        4
 64
     7
 65
   257
 75
     1
175
     1
 42
1.0
 92
        8
 66
     7
 43
1.0
 76
     1
 77
     6
 78
     2
 67
     7
 79
     5
170
     0
171
     0
290
     0
174
     0
 93
       13
 44
0.0
173
     0
291
     1
 45
0.0
  0
VISUALSTYLE
  5
2C
102
{ACAD_REACTORS
330
2A
102
}
102
{ACAD_XDICTIONARY
360
C3
102
}
330
2A
100
AcDbVisualStyle
  2
FlatWithEdges
 70
     1
 71
     2
 72
     1
 73
     1
 90
        2
 40
-0.6
 41
30.0
 62
     5
 63
     7
421
 16777215
 74
     1
 91
        4
 64
     7
 65
   257
 75
     1
175
     1
 42
1.0
 92
        0
 66
   257
 43
1.0
 76
     1
 77
     6
 78
     2
 67
     7
 79
     5
170
     0
171
     0
290
     0
174
     0
 93
       13
 44
0.0
173
     0
291
     1
 45
0.0
  0
VISUALSTYLE
  5
2D
102
{ACAD_REACTORS
330
2A
102
}
102
{ACAD_XDICTIONARY
360
C5
102
}
330
2A
100
AcDbVisualStyle
  2
Gouraud
 70
     2
 71
     2
 72
     2
 73
     1
 90
        2
 40
-0.6
 41
30.0
 62
     5
 63
     7
421
 16777215
 74
     0
 91
        4
 64
     7
 65
   257
 75
     1
175
     1
 42
1.0
 92
        0
 66
     7
 43
1.0
 76
     1
 77
     6
 78
     2
 67
     7
 79
     5
170
     0
171
     0
290
     0
174
     0
 93
       13
 44
0.0
173
     0
291
     1
 45
0.0
  0
VISUALSTYLE
  5
2E
102
{ACAD_REACTORS
330
2A
102
}
102
{ACAD_XDICTIONARY
360
C7
102
}
330
2A
100
AcDbVisualStyle
  2
GouraudWithEdges
 70
     3
 71
     2
 72
     2
 73
     1
 90
        2
 40
-0.6
 41
30.0
 62
     5
 63
     7
421
 16777215
 74
     1
 91
        4
 64
     7
 65
   257
 75
     1
175
     1
 42
1.0
 92
        0
 66
   257
 43
1.0
 76
     1
 77
     6
 78
     2
 67
     7
 79
     5
170
     0
171
     0
290
     0
174
     0
 93
       13
 44
0.0
173
     0
291
     1
 45
0.0
  0
VISUALSTYLE
  5
38
102
{ACAD_REACTORS
330
2A
102
}
102
{ACAD_XDICTIONARY
360
DB
102
}
330
2A
100
AcDbVisualStyle
  2
Linepattern
 70
    14
 71
     2
 72
     2
 73
     0
 90
        0
 40
-0.6
 41
-30.0
 62
     5
 63
     7
421
 16777215
 74
     1
 91
        4
 64
     7
 65
   257
 75
     7
175
     7
 42
1.0
 92
        8
 66
     7
 43
1.0
 76
     1
 77
     6
 78
     2
 67
     7
 79
     5
170
     0
171
     0
290
     0
174
     0
 93
        1
 44
0.0
173
     0
291
     1
 45
0.0
  0
VISUALSTYLE
  5
33
102
{ACAD_REACTORS
330
2A
102
}
102
{ACAD_XDICTIONARY
360
D1
102
}
330
2A
100
AcDbVisualStyle
  2
Realistic
 70
     8
 71
     2
 72
     2
 73
     0
 90
        0
 40
-0.6
 41
-30.0
 62
     5
 63
     7
421
 16777215
 74
     1
 91
        0
 64
     7
 65
   257
 75
     1
175
     1
 42
1.0
 92
        8
 66
     8
424
  7895160
 43
1.0
 76
     1
 77
     6
 78
     2
 67
     7
 79
     5
170
     0
171
     0
290
     0
174
     0
 93
       13
 44
0.0
173
     0
291
     0
 45
0.0
  0
VISUALSTYLE
  5
37
102
{ACAD_REACTORS
330
2A
102
}
102
{ACAD_XDICTIONARY
360
D9
102
}
330
2A
100
AcDbVisualStyle
  2
Thicken
 70
    13
 71
     2
 72
     2
 73
     0
 90
        0
 40
-0.6
 41
-30.0
 62
     5
 63
     7
421
 16777215
 74
     1
 91
        4
 64
     7
 65
   257
 75
     1
175
     1
 42
1.0
 92
       12
 66
     7
 43
1.0
 76
     1
 77
     6
 78
     2
 67
     7
 79
     5
170
     0
171
     0
290
     0
174
     0
 93
        1
 44
0.0
173
     0
291
     1
 45
0.0
  0
DICTIONARY
  5
C9
330
2F
100
AcDbDictionary
280
     1
281
     1
  3
ACAD_XREC_ROUNDTRIP
360
CA
  0
DICTIONARY
  5
CD
330
31
100
AcDbDictionary
280
     1
281
     1
  3
ACAD_XREC_ROUNDTRIP
360
CE
  0
DICTIONARY
  5
CB
330
30
100
AcDbDictionary
280
     1
281
     1
  3
ACAD_XREC_ROUNDTRIP
360
CC
  0
DICTIONARY
  5
CF
330
32
100
AcDbDictionary
280
     1
281
     1
  3
ACAD_XREC_ROUNDTRIP
360
D0
  0
DICTIONARY
  5
D7
330
36
100
AcDbDictionary
280
     1
281
     1
  3
ACAD_XREC_ROUNDTRIP
360
D8
  0
DICTIONARY
  5
DF
330
3A
100
AcDbDictionary
280
     1
281
     1
  3
ACAD_XREC_ROUNDTRIP
360
E0
  0
DICTIONARY
  5
D3
330
34
100
AcDbDictionary
280
     1
281
     1
  3
ACAD_XREC_ROUNDTRIP
360
D4
  0
DICTIONARY
  5
D5
330
35
100
AcDbDictionary
280
     1
281
     1
  3
ACAD_XREC_ROUNDTRIP
360
D6
  0
DICTIONARY
  5
DD
330
39
100
AcDbDictionary
280
     1
281
     1
  3
ACAD_XREC_ROUNDTRIP
360
DE
  0
DICTIONARY
  5
C1
330
2B
100
AcDbDictionary
280
     1
281
     1
  3
ACAD_XREC_ROUNDTRIP
360
C2
  0
DICTIONARY
  5
C3
330
2C
100
AcDbDictionary
280
     1
281
     1
  3
ACAD_XREC_ROUNDTRIP
360
C4
  0
DICTIONARY
  5
C5
330
2D
100
AcDbDictionary
280
     1
281
     1
  3
ACAD_XREC_ROUNDTRIP
360
C6
  0
DICTIONARY
  5
C7
330
2E
100
AcDbDictionary
280
     1
281
     1
  3
ACAD_XREC_ROUNDTRIP
360
C8
  0
DICTIONARY
  5
DB
330
38
100
AcDbDictionary
280
     1
281
     1
  3
ACAD_XREC_ROUNDTRIP
360
DC
  0
DICTIONARY
  5
D1
330
33
100
AcDbDictionary
280
     1
281
     1
  3
ACAD_XREC_ROUNDTRIP
360
D2
  0
DICTIONARY
  5
D9
330
37
100
AcDbDictionary
280
     1
281
     1
  3
ACAD_XREC_ROUNDTRIP
360
DA
  0
XRECORD
  5
CA
102
{ACAD_REACTORS
330
C9
102
}
330
C9
100
AcDbXrecord
280
     1
102
RTVSPropertyOp0
 70
     1
102
RTVSPropertyOp1
 70
     1
102
RTVSPropertyOp2
 70
     1
102
RTVSPropertyOp3
 70
     1
102
RTVSPropertyOp4
 70
     1
102
RTVSPropertyOp5
 70
     1
102
RTVSPropertyOp6
 70
     1
102
RTVSPropertyOp7
 70
     1
102
RTVSPropertyOp8
 70
     1
102
RTVSPropertyOp9
 70
     1
102
RTVSPropertyOp10
 70
     1
102
RTVSPropertyOp11
 70
     1
102
RTVSPropertyOp12
 70
     1
102
RTVSPropertyOp13
 70
     1
102
RTVSPropertyOp14
 70
     1
102
RTVSPropertyOp15
 70
     1
102
RTVSPropertyOp16
 70
     1
102
RTVSPropertyOp17
 70
     1
102
RTVSPropertyOp18
 70
     1
102
RTVSPropertyOp19
 70
     1
102
RTVSPropertyOp20
 70
     1
102
RTVSPropertyOp21
 70
     1
102
RTVSPropertyOp22
 70
     1
102
RTVSPropertyOp23
 70
     1
102
RTVSPropertyOp24
 70
     1
102
RTVSPropertyOp25
 70
     1
102
RTVSPropertyOp26
 70
     1
102
RTVSPropertyOp27
 70
     1
102
RTVSPropertyOp28
 70
     1
102
RTVSPropertyOp29
 70
     1
102
RTVSPropertyOp30
 70
     1
102
RTVSPropertyOp31
 70
     1
102
RTVSPropertyOp32
 70
     1
  0
XRECORD
  5
CE
102
{ACAD_REACTORS
330
CD
102
}
330
CD
100
AcDbXrecord
280
     1
102
RTVSPropertyOp0
 70
     1
102
RTVSPropertyOp1
 70
     1
102
RTVSPropertyOp2
 70
     1
102
RTVSPropertyOp3
 70
     1
102
RTVSPropertyOp4
 70
     1
102
RTVSPropertyOp5
 70
     1
102
RTVSPropertyOp6
 70
     1
102
RTVSPropertyOp7
 70
     1
102
RTVSPropertyOp8
 70
     1
102
RTVSPropertyOp9
 70
     1
102
RTVSPropertyOp10
 70
     1
102
RTVSPropertyOp11
 70
     1
102
RTVSPropertyOp12
 70
     1
102
RTVSPropertyOp13
 70
     1
102
RTVSPropertyOp14
 70
     1
102
RTVSPropertyOp15
 70
     1
102
RTVSPropertyOp16
 70
     1
102
RTVSPropertyOp17
 70
     1
102
RTVSPropertyOp18
 70
     1
102
RTVSPropertyOp19
 70
     1
102
RTVSPropertyOp20
 70
     1
102
RTVSPropertyOp21
 70
     1
102
RTVSPropertyOp22
 70
     1
102
RTVSPropertyOp23
 70
     1
102
RTVSPropertyOp24
 70
     1
102
RTVSPropertyOp25
 70
     1
102
RTVSPropertyOp26
 70
     1
102
RTVSPropertyOp27
 70
     1
102
RTVSPropertyOp28
 70
     1
102
RTVSPropertyOp29
 70
     1
102
RTVSPropertyOp30
 70
     1
102
RTVSPropertyOp31
 70
     1
102
RTVSPropertyOp32
 70
     1
  0
XRECORD
  5
CC
102
{ACAD_REACTORS
330
CB
102
}
330
CB
100
AcDbXrecord
280
     1
102
RTVSPropertyOp0
 70
     1
102
RTVSPropertyOp1
 70
     1
102
RTVSPropertyOp2
 70
     1
102
RTVSPropertyOp3
 70
     1
102
RTVSPropertyOp4
 70
     1
102
RTVSPropertyOp5
 70
     1
102
RTVSPropertyOp6
 70
     1
102
RTVSPropertyOp7
 70
     1
102
RTVSPropertyOp8
 70
     1
102
RTVSPropertyOp9
 70
     1
102
RTVSPropertyOp10
 70
     1
102
RTVSPropertyOp11
 70
     1
102
RTVSPropertyOp12
 70
     1
102
RTVSPropertyOp13
 70
     1
102
RTVSPropertyOp14
 70
     1
102
RTVSPropertyOp15
 70
     1
102
RTVSPropertyOp16
 70
     1
102
RTVSPropertyOp17
 70
     1
102
RTVSPropertyOp18
 70
     1
102
RTVSPropertyOp19
 70
     1
102
RTVSPropertyOp20
 70
     1
102
RTVSPropertyOp21
 70
     1
102
RTVSPropertyOp22
 70
     1
102
RTVSPropertyOp23
 70
     1
102
RTVSPropertyOp24
 70
     1
102
RTVSPropertyOp25
 70
     1
102
RTVSPropertyOp26
 70
     1
102
RTVSPropertyOp27
 70
     1
102
RTVSPropertyOp28
 70
     1
102
RTVSPropertyOp29
 70
     1
102
RTVSPropertyOp30
 70
     1
102
RTVSPropertyOp31
 70
     1
102
RTVSPropertyOp32
 70
     1
  0
XRECORD
  5
D0
102
{ACAD_REACTORS
330
CF
102
}
330
CF
100
AcDbXrecord
280
     1
102
RTVSPropertyOp0
 70
     1
102
RTVSPropertyOp1
 70
     1
102
RTVSPropertyOp2
 70
     1
102
RTVSPropertyOp3
 70
     1
102
RTVSPropertyOp4
 70
     1
102
RTVSPropertyOp5
 70
     1
102
RTVSPropertyOp6
 70
     1
102
RTVSPropertyOp7
 70
     1
102
RTVSPropertyOp8
 70
     1
102
RTVSPropertyOp9
 70
     1
102
RTVSPropertyOp10
 70
     1
102
RTVSPropertyOp11
 70
     1
102
RTVSPropertyOp12
 70
     1
102
RTVSPropertyOp13
 70
     1
102
RTVSPropertyOp14
 70
     1
102
RTVSPropertyOp15
 70
     1
102
RTVSPropertyOp16
 70
     1
102
RTVSPropertyOp17
 70
     1
102
RTVSPropertyOp18
 70
     1
102
RTVSPropertyOp19
 70
     1
102
RTVSPropertyOp20
 70
     1
102
RTVSPropertyOp21
 70
     1
102
RTVSPropertyOp22
 70
     1
102
RTVSPropertyOp23
 70
     1
102
RTVSPropertyOp24
 70
     1
102
RTVSPropertyOp25
 70
     1
102
RTVSPropertyOp26
 70
     1
102
RTVSPropertyOp27
 70
     1
102
RTVSPropertyOp28
 70
     1
102
RTVSPropertyOp29
 70
     1
102
RTVSPropertyOp30
 70
     1
102
RTVSPropertyOp31
 70
     1
102
RTVSPropertyOp32
 70
     1
  0
XRECORD
  5
D8
102
{ACAD_REACTORS
330
D7
102
}
330
D7
100
AcDbXrecord
280
     1
102
RTVSPropertyOp0
 70
     1
102
RTVSPropertyOp1
 70
     1
102
RTVSPropertyOp2
 70
     1
102
RTVSPropertyOp3
 70
     1
102
RTVSPropertyOp4
 70
     1
102
RTVSPropertyOp5
 70
     1
102
RTVSPropertyOp6
 70
     1
102
RTVSPropertyOp7
 70
     1
102
RTVSPropertyOp8
 70
     1
102
RTVSPropertyOp9
 70
     1
102
RTVSPropertyOp10
 70
     1
102
RTVSPropertyOp11
 70
     1
102
RTVSPropertyOp12
 70
     1
102
RTVSPropertyOp13
 70
     1
102
RTVSPropertyOp14
 70
     1
102
RTVSPropertyOp15
 70
     1
102
RTVSPropertyOp16
 70
     1
102
RTVSPropertyOp17
 70
     1
102
RTVSPropertyOp18
 70
     1
102
RTVSPropertyOp19
 70
     1
102
RTVSPropertyOp20
 70
     1
102
RTVSPropertyOp21
 70
     1
102
RTVSPropertyOp22
 70
     1
102
RTVSPropertyOp23
 70
     1
102
RTVSPropertyOp24
 70
     1
102
RTVSPropertyOp25
 70
     1
102
RTVSPropertyOp26
 70
     1
102
RTVSPropertyOp27
 70
     1
102
RTVSPropertyOp28
 70
     1
102
RTVSPropertyOp29
 70
     1
102
RTVSPropertyOp30
 70
     1
102
RTVSPropertyOp31
 70
     1
102
RTVSPropertyOp32
 70
     1
  0
XRECORD
  5
E0
102
{ACAD_REACTORS
330
DF
102
}
330
DF
100
AcDbXrecord
280
     1
102
RTVSPropertyOp0
 70
     1
102
RTVSPropertyOp1
 70
     1
102
RTVSPropertyOp2
 70
     1
102
RTVSPropertyOp3
 70
     1
102
RTVSPropertyOp4
 70
     1
102
RTVSPropertyOp5
 70
     1
102
RTVSPropertyOp6
 70
     1
102
RTVSPropertyOp7
 70
     1
102
RTVSPropertyOp8
 70
     1
102
RTVSPropertyOp9
 70
     1
102
RTVSPropertyOp10
 70
     1
102
RTVSPropertyOp11
 70
     1
102
RTVSPropertyOp12
 70
     1
102
RTVSPropertyOp13
 70
     1
102
RTVSPropertyOp14
 70
     1
102
RTVSPropertyOp15
 70
     1
102
RTVSPropertyOp16
 70
     1
102
RTVSPropertyOp17
 70
     1
102
RTVSPropertyOp18
 70
     1
102
RTVSPropertyOp19
 70
     1
102
RTVSPropertyOp20
 70
     1
102
RTVSPropertyOp21
 70
     1
102
RTVSPropertyOp22
 70
     1
102
RTVSPropertyOp23
 70
     1
102
RTVSPropertyOp24
 70
     1
102
RTVSPropertyOp25
 70
     1
102
RTVSPropertyOp26
 70
     1
102
RTVSPropertyOp27
 70
     1
102
RTVSPropertyOp28
 70
     1
102
RTVSPropertyOp29
 70
     1
102
RTVSPropertyOp30
 70
     1
102
RTVSPropertyOp31
 70
     1
102
RTVSPropertyOp32
 70
     1
  0
XRECORD
  5
D4
102
{ACAD_REACTORS
330
D3
102
}
330
D3
100
AcDbXrecord
280
     1
102
RTVSPropertyOp0
 70
     1
102
RTVSPropertyOp1
 70
     1
102
RTVSPropertyOp2
 70
     1
102
RTVSPropertyOp3
 70
     1
102
RTVSPropertyOp4
 70
     1
102
RTVSPropertyOp5
 70
     1
102
RTVSPropertyOp6
 70
     1
102
RTVSPropertyOp7
 70
     1
102
RTVSPropertyOp8
 70
     1
102
RTVSPropertyOp9
 70
     1
102
RTVSPropertyOp10
 70
     1
102
RTVSPropertyOp11
 70
     1
102
RTVSPropertyOp12
 70
     1
102
RTVSPropertyOp13
 70
     1
102
RTVSPropertyOp14
 70
     1
102
RTVSPropertyOp15
 70
     1
102
RTVSPropertyOp16
 70
     1
102
RTVSPropertyOp17
 70
     1
102
RTVSPropertyOp18
 70
     1
102
RTVSPropertyOp19
 70
     1
102
RTVSPropertyOp20
 70
     1
102
RTVSPropertyOp21
 70
     1
102
RTVSPropertyOp22
 70
     1
102
RTVSPropertyOp23
 70
     1
102
RTVSPropertyOp24
 70
     1
102
RTVSPropertyOp25
 70
     1
102
RTVSPropertyOp26
 70
     1
102
RTVSPropertyOp27
 70
     1
102
RTVSPropertyOp28
 70
     1
102
RTVSPropertyOp29
 70
     1
102
RTVSPropertyOp30
 70
     1
102
RTVSPropertyOp31
 70
     1
102
RTVSPropertyOp32
 70
     1
  0
XRECORD
  5
D6
102
{ACAD_REACTORS
330
D5
102
}
330
D5
100
AcDbXrecord
280
     1
102
RTVSPropertyOp0
 70
     1
102
RTVSPropertyOp1
 70
     1
102
RTVSPropertyOp2
 70
     1
102
RTVSPropertyOp3
 70
     1
102
RTVSPropertyOp4
 70
     1
102
RTVSPropertyOp5
 70
     1
102
RTVSPropertyOp6
 70
     1
102
RTVSPropertyOp7
 70
     1
102
RTVSPropertyOp8
 70
     1
102
RTVSPropertyOp9
 70
     1
102
RTVSPropertyOp10
 70
     1
102
RTVSPropertyOp11
 70
     1
102
RTVSPropertyOp12
 70
     1
102
RTVSPropertyOp13
 70
     1
102
RTVSPropertyOp14
 70
     1
102
RTVSPropertyOp15
 70
     1
102
RTVSPropertyOp16
 70
     1
102
RTVSPropertyOp17
 70
     1
102
RTVSPropertyOp18
 70
     1
102
RTVSPropertyOp19
 70
     1
102
RTVSPropertyOp20
 70
     1
102
RTVSPropertyOp21
 70
     1
102
RTVSPropertyOp22
 70
     1
102
RTVSPropertyOp23
 70
     1
102
RTVSPropertyOp24
 70
     1
102
RTVSPropertyOp25
 70
     1
102
RTVSPropertyOp26
 70
     1
102
RTVSPropertyOp27
 70
     1
102
RTVSPropertyOp28
 70
     1
102
RTVSPropertyOp29
 70
     1
102
RTVSPropertyOp30
 70
     1
102
RTVSPropertyOp31
 70
     1
102
RTVSPropertyOp32
 70
     1
  0
XRECORD
  5
DE
102
{ACAD_REACTORS
330
DD
102
}
330
DD
100
AcDbXrecord
280
     1
102
RTVSPropertyOp0
 70
     1
102
RTVSPropertyOp1
 70
     1
102
RTVSPropertyOp2
 70
     1
102
RTVSPropertyOp3
 70
     1
102
RTVSPropertyOp4
 70
     1
102
RTVSPropertyOp5
 70
     1
102
RTVSPropertyOp6
 70
     1
102
RTVSPropertyOp7
 70
     1
102
RTVSPropertyOp8
 70
     1
102
RTVSPropertyOp9
 70
     1
102
RTVSPropertyOp10
 70
     1
102
RTVSPropertyOp11
 70
     1
102
RTVSPropertyOp12
 70
     1
102
RTVSPropertyOp13
 70
     1
102
RTVSPropertyOp14
 70
     1
102
RTVSPropertyOp15
 70
     1
102
RTVSPropertyOp16
 70
     1
102
RTVSPropertyOp17
 70
     1
102
RTVSPropertyOp18
 70
     1
102
RTVSPropertyOp19
 70
     1
102
RTVSPropertyOp20
 70
     1
102
RTVSPropertyOp21
 70
     1
102
RTVSPropertyOp22
 70
     1
102
RTVSPropertyOp23
 70
     1
102
RTVSPropertyOp24
 70
     1
102
RTVSPropertyOp25
 70
     1
102
RTVSPropertyOp26
 70
     1
102
RTVSPropertyOp27
 70
     1
102
RTVSPropertyOp28
 70
     1
102
RTVSPropertyOp29
 70
     1
102
RTVSPropertyOp30
 70
     1
102
RTVSPropertyOp31
 70
     1
102
RTVSPropertyOp32
 70
     1
  0
XRECORD
  5
C2
102
{ACAD_REACTORS
330
C1
102
}
330
C1
100
AcDbXrecord
280
     1
102
RTVSPropertyOp0
 70
     1
102
RTVSPropertyOp1
 70
     1
102
RTVSPropertyOp2
 70
     1
102
RTVSPropertyOp3
 70
     1
102
RTVSPropertyOp4
 70
     1
102
RTVSPropertyOp5
 70
     1
102
RTVSPropertyOp6
 70
     1
102
RTVSPropertyOp7
 70
     1
102
RTVSPropertyOp8
 70
     1
102
RTVSPropertyOp9
 70
     1
102
RTVSPropertyOp10
 70
     1
102
RTVSPropertyOp11
 70
     1
102
RTVSPropertyOp12
 70
     1
102
RTVSPropertyOp13
 70
     1
102
RTVSPropertyOp14
 70
     1
102
RTVSPropertyOp15
 70
     1
102
RTVSPropertyOp16
 70
     1
102
RTVSPropertyOp17
 70
     1
102
RTVSPropertyOp18
 70
     1
102
RTVSPropertyOp19
 70
     1
102
RTVSPropertyOp20
 70
     1
102
RTVSPropertyOp21
 70
     1
102
RTVSPropertyOp22
 70
     1
102
RTVSPropertyOp23
 70
     1
102
RTVSPropertyOp24
 70
     1
102
RTVSPropertyOp25
 70
     1
102
RTVSPropertyOp26
 70
     1
102
RTVSPropertyOp27
 70
     1
102
RTVSPropertyOp28
 70
     1
102
RTVSPropertyOp29
 70
     1
102
RTVSPropertyOp30
 70
     1
102
RTVSPropertyOp31
 70
     1
102
RTVSPropertyOp32
 70
     1
  0
XRECORD
  5
C4
102
{ACAD_REACTORS
330
C3
102
}
330
C3
100
AcDbXrecord
280
     1
102
RTVSPropertyOp0
 70
     1
102
RTVSPropertyOp1
 70
     1
102
RTVSPropertyOp2
 70
     1
102
RTVSPropertyOp3
 70
     1
102
RTVSPropertyOp4
 70
     1
102
RTVSPropertyOp5
 70
     1
102
RTVSPropertyOp6
 70
     1
102
RTVSPropertyOp7
 70
     1
102
RTVSPropertyOp8
 70
     1
102
RTVSPropertyOp9
 70
     1
102
RTVSPropertyOp10
 70
     1
102
RTVSPropertyOp11
 70
     1
102
RTVSPropertyOp12
 70
     1
102
RTVSPropertyOp13
 70
     1
102
RTVSPropertyOp14
 70
     1
102
RTVSPropertyOp15
 70
     1
102
RTVSPropertyOp16
 70
     1
102
RTVSPropertyOp17
 70
     1
102
RTVSPropertyOp18
 70
     1
102
RTVSPropertyOp19
 70
     1
102
RTVSPropertyOp20
 70
     1
102
RTVSPropertyOp21
 70
     1
102
RTVSPropertyOp22
 70
     1
102
RTVSPropertyOp23
 70
     1
102
RTVSPropertyOp24
 70
     1
102
RTVSPropertyOp25
 70
     1
102
RTVSPropertyOp26
 70
     1
102
RTVSPropertyOp27
 70
     1
102
RTVSPropertyOp28
 70
     1
102
RTVSPropertyOp29
 70
     1
102
RTVSPropertyOp30
 70
     1
102
RTVSPropertyOp31
 70
     1
102
RTVSPropertyOp32
 70
     1
  0
XRECORD
  5
C6
102
{ACAD_REACTORS
330
C5
102
}
330
C5
100
AcDbXrecord
280
     1
102
RTVSPropertyOp0
 70
     1
102
RTVSPropertyOp1
 70
     1
102
RTVSPropertyOp2
 70
     1
102
RTVSPropertyOp3
 70
     1
102
RTVSPropertyOp4
 70
     1
102
RTVSPropertyOp5
 70
     1
102
RTVSPropertyOp6
 70
     1
102
RTVSPropertyOp7
 70
     1
102
RTVSPropertyOp8
 70
     1
102
RTVSPropertyOp9
 70
     1
102
RTVSPropertyOp10
 70
     1
102
RTVSPropertyOp11
 70
     1
102
RTVSPropertyOp12
 70
     1
102
RTVSPropertyOp13
 70
     1
102
RTVSPropertyOp14
 70
     1
102
RTVSPropertyOp15
 70
     1
102
RTVSPropertyOp16
 70
     1
102
RTVSPropertyOp17
 70
     1
102
RTVSPropertyOp18
 70
     1
102
RTVSPropertyOp19
 70
     1
102
RTVSPropertyOp20
 70
     1
102
RTVSPropertyOp21
 70
     1
102
RTVSPropertyOp22
 70
     1
102
RTVSPropertyOp23
 70
     1
102
RTVSPropertyOp24
 70
     1
102
RTVSPropertyOp25
 70
     1
102
RTVSPropertyOp26
 70
     1
102
RTVSPropertyOp27
 70
     1
102
RTVSPropertyOp28
 70
     1
102
RTVSPropertyOp29
 70
     1
102
RTVSPropertyOp30
 70
     1
102
RTVSPropertyOp31
 70
     1
102
RTVSPropertyOp32
 70
     1
  0
XRECORD
  5
C8
102
{ACAD_REACTORS
330
C7
102
}
330
C7
100
AcDbXrecord
280
     1
102
RTVSPropertyOp0
 70
     1
102
RTVSPropertyOp1
 70
     1
102
RTVSPropertyOp2
 70
     1
102
RTVSPropertyOp3
 70
     1
102
RTVSPropertyOp4
 70
     1
102
RTVSPropertyOp5
 70
     1
102
RTVSPropertyOp6
 70
     1
102
RTVSPropertyOp7
 70
     1
102
RTVSPropertyOp8
 70
     1
102
RTVSPropertyOp9
 70
     1
102
RTVSPropertyOp10
 70
     1
102
RTVSPropertyOp11
 70
     1
102
RTVSPropertyOp12
 70
     1
102
RTVSPropertyOp13
 70
     1
102
RTVSPropertyOp14
 70
     1
102
RTVSPropertyOp15
 70
     1
102
RTVSPropertyOp16
 70
     1
102
RTVSPropertyOp17
 70
     1
102
RTVSPropertyOp18
 70
     1
102
RTVSPropertyOp19
 70
     1
102
RTVSPropertyOp20
 70
     1
102
RTVSPropertyOp21
 70
     1
102
RTVSPropertyOp22
 70
     1
102
RTVSPropertyOp23
 70
     1
102
RTVSPropertyOp24
 70
     1
102
RTVSPropertyOp25
 70
     1
102
RTVSPropertyOp26
 70
     1
102
RTVSPropertyOp27
 70
     1
102
RTVSPropertyOp28
 70
     1
102
RTVSPropertyOp29
 70
     1
102
RTVSPropertyOp30
 70
     1
102
RTVSPropertyOp31
 70
     1
102
RTVSPropertyOp32
 70
     1
  0
XRECORD
  5
DC
102
{ACAD_REACTORS
330
DB
102
}
330
DB
100
AcDbXrecord
280
     1
102
RTVSPropertyOp0
 70
     1
102
RTVSPropertyOp1
 70
     1
102
RTVSPropertyOp2
 70
     1
102
RTVSPropertyOp3
 70
     1
102
RTVSPropertyOp4
 70
     1
102
RTVSPropertyOp5
 70
     1
102
RTVSPropertyOp6
 70
     1
102
RTVSPropertyOp7
 70
     1
102
RTVSPropertyOp8
 70
     1
102
RTVSPropertyOp9
 70
     1
102
RTVSPropertyOp10
 70
     1
102
RTVSPropertyOp11
 70
     1
102
RTVSPropertyOp12
 70
     1
102
RTVSPropertyOp13
 70
     1
102
RTVSPropertyOp14
 70
     1
102
RTVSPropertyOp15
 70
     1
102
RTVSPropertyOp16
 70
     1
102
RTVSPropertyOp17
 70
     1
102
RTVSPropertyOp18
 70
     1
102
RTVSPropertyOp19
 70
     1
102
RTVSPropertyOp20
 70
     1
102
RTVSPropertyOp21
 70
     1
102
RTVSPropertyOp22
 70
     1
102
RTVSPropertyOp23
 70
     1
102
RTVSPropertyOp24
 70
     1
102
RTVSPropertyOp25
 70
     1
102
RTVSPropertyOp26
 70
     1
102
RTVSPropertyOp27
 70
     1
102
RTVSPropertyOp28
 70
     1
102
RTVSPropertyOp29
 70
     1
102
RTVSPropertyOp30
 70
     1
102
RTVSPropertyOp31
 70
     1
102
RTVSPropertyOp32
 70
     1
  0
XRECORD
  5
D2
102
{ACAD_REACTORS
330
D1
102
}
330
D1
100
AcDbXrecord
280
     1
102
RTVSPropertyOp0
 70
     1
102
RTVSPropertyOp1
 70
     1
102
RTVSPropertyOp2
 70
     1
102
RTVSPropertyOp3
 70
     1
102
RTVSPropertyOp4
 70
     1
102
RTVSPropertyOp5
 70
     1
102
RTVSPropertyOp6
 70
     1
102
RTVSPropertyOp7
 70
     1
102
RTVSPropertyOp8
 70
     1
102
RTVSPropertyOp9
 70
     1
102
RTVSPropertyOp10
 70
     1
102
RTVSPropertyOp11
 70
     1
102
RTVSPropertyOp12
 70
     1
102
RTVSPropertyOp13
 70
     1
102
RTVSPropertyOp14
 70
     1
102
RTVSPropertyOp15
 70
     1
102
RTVSPropertyOp16
 70
     1
102
RTVSPropertyOp17
 70
     1
102
RTVSPropertyOp18
 70
     1
102
RTVSPropertyOp19
 70
     1
102
RTVSPropertyOp20
 70
     1
102
RTVSPropertyOp21
 70
     1
102
RTVSPropertyOp22
 70
     1
102
RTVSPropertyOp23
 70
     1
102
RTVSPropertyOp24
 70
     1
102
RTVSPropertyOp25
 70
     1
102
RTVSPropertyOp26
 70
     1
102
RTVSPropertyOp27
 70
     1
102
RTVSPropertyOp28
 70
     1
102
RTVSPropertyOp29
 70
     1
102
RTVSPropertyOp30
 70
     1
102
RTVSPropertyOp31
 70
     1
102
RTVSPropertyOp32
 70
     1
  0
XRECORD
  5
DA
102
{ACAD_REACTORS
330
D9
102
}
330
D9
100
AcDbXrecord
280
     1
102
RTVSPropertyOp0
 70
     1
102
RTVSPropertyOp1
 70
     1
102
RTVSPropertyOp2
 70
     1
102
RTVSPropertyOp3
 70
     1
102
RTVSPropertyOp4
 70
     1
102
RTVSPropertyOp5
 70
     1
102
RTVSPropertyOp6
 70
     1
102
RTVSPropertyOp7
 70
     1
102
RTVSPropertyOp8
 70
     1
102
RTVSPropertyOp9
 70
     1
102
RTVSPropertyOp10
 70
     1
102
RTVSPropertyOp11
 70
     1
102
RTVSPropertyOp12
 70
     1
102
RTVSPropertyOp13
 70
     1
102
RTVSPropertyOp14
 70
     1
102
RTVSPropertyOp15
 70
     1
102
RTVSPropertyOp16
 70
     1
102
RTVSPropertyOp17
 70
     1
102
RTVSPropertyOp18
 70
     1
102
RTVSPropertyOp19
 70
     1
102
RTVSPropertyOp20
 70
     1
102
RTVSPropertyOp21
 70
     1
102
RTVSPropertyOp22
 70
     1
102
RTVSPropertyOp23
 70
     1
102
RTVSPropertyOp24
 70
     1
102
RTVSPropertyOp25
 70
     1
102
RTVSPropertyOp26
 70
     1
102
RTVSPropertyOp27
 70
     1
102
RTVSPropertyOp28
 70
     1
102
RTVSPropertyOp29
 70
     1
102
RTVSPropertyOp30
 70
     1
102
RTVSPropertyOp31
 70
     1
102
RTVSPropertyOp32
 70
     1
  0
ENDSEC
  0
EOF
