  0
SECTION
  2
HEADER
  9
$ACADVER
  1
AC1021
  9
$ACADMAINTVER
 70
    25
  9
$DWGCODEPAGE
  3
UNDEFINED
  9
$INSBASE
 10
0.0
 20
0.0
 30
0.0
  9
$EXTMIN
 10
1.000000000000000E+20
 20
1.000000000000000E+20
 30
1.000000000000000E+20
  9
$EXTMAX
 10
-1.000000000000000E+20
 20
-1.000000000000000E+20
 30
-1.000000000000000E+20
  9
$LIMMIN
 10
0.0
 20
0.0
  9
$LIMMAX
 10
12.0
 20
9.0
  9
$ORTHOMODE
 70
     0
  9
$REGENMODE
 70
     1
  9
$FILLMODE
 70
     1
  9
$QTEXTMODE
 70
     0
  9
$MIRRTEXT
 70
     1
  9
$LTSCALE
 40
1.0
  9
$ATTMODE
 70
     1
  9
$TEXTSIZE
 40
0.2
  9
$TRACEWID
 40
0.05
  9
$TEXTSTYLE
  7
Standard
  9
$CLAYER
  8
0
  9
$CELTYPE
  6
ByLayer
  9
$CECOLOR
 62
   256
  9
$CELTSCALE
 40
1.0
  9
$DISPSILH
 70
     0
  9
$DIMSCALE
 40
1.0
  9
$DIMASZ
 40
0.18
  9
$DIMEXO
 40
0.0625
  9
$DIMDLI
 40
0.38
  9
$DIMRND
 40
0.0
  9
$DIMDLE
 40
0.0
  9
$DIMEXE
 40
0.18
  9
$DIMTP
 40
0.0
  9
$DIMTM
 40
0.0
  9
$DIMTXT
 40
0.18
  9
$DIMCEN
 40
0.09
  9
$DIMTSZ
 40
0.0
  9
$DIMTOL
 70
     0
  9
$DIMLIM
 70
     0
  9
$DIMTIH
 70
     1
  9
$DIMTOH
 70
     1
  9
$DIMSE1
 70
     0
  9
$DIMSE2
 70
     0
  9
$DIMTAD
 70
     0
  9
$DIMZIN
 70
     0
  9
$DIMBLK
  1

  9
$DIMASO
 70
     1
  9
$DIMSHO
 70
     1
  9
$DIMPOST
  1

  9
$DIMAPOST
  1

  9
$DIMALT
 70
     0
  9
$DIMALTD
 70
     2
  9
$DIMALTF
 40
25.4
  9
$DIMLFAC
 40
1.0
  9
$DIMTOFL
 70
     0
  9
$DIMTVP
 40
0.0
  9
$DIMTIX
 70
     0
  9
$DIMSOXD
 70
     0
  9
$DIMSAH
 70
     0
  9
$DIMBLK1
  1

  9
$DIMBLK2
  1

  9
$DIMSTYLE
  2
Standard
  9
$DIMCLRD
 70
     0
  9
$DIMCLRE
 70
     0
  9
$DIMCLRT
 70
     0
  9
$DIMTFAC
 40
1.0
  9
$DIMGAP
 40
0.09
  9
$DIMJUST
 70
     0
  9
$DIMSD1
 70
     0
  9
$DIMSD2
 70
     0
  9
$DIMTOLJ
 70
     1
  9
$DIMTZIN
 70
     0
  9
$DIMALTZ
 70
     0
  9
$DIMALTTZ
 70
     0
  9
$DIMUPT
 70
     0
  9
$DIMDEC
 70
     4
  9
$DIMTDEC
 70
     4
  9
$DIMALTU
 70
     2
  9
$DIMALTTD
 70
     2
  9
$DIMTXSTY
  7
Standard
  9
$DIMAUNIT
 70
     0
  9
$DIMADEC
 70
     0
  9
$DIMALTRND
 40
0.0
  9
$DIMAZIN
 70
     0
  9
$DIMDSEP
 70
    46
  9
$DIMATFIT
 70
     3
  9
$DIMFRAC
 70
     0
  9
$DIMLDRBLK
  1

  9
$DIMLUNIT
 70
     2
  9
$DIMLWD
 70
    -2
  9
$DIMLWE
 70
    -2
  9
$DIMTMOVE
 70
     0
  9
$DIMFXL
 40
1.0
  9
$DIMFXLON
 70
     0
  9
$DIMJOGANG
 40
0.7853981633974483
  9
$DIMTFILL
 70
     0
  9
$DIMTFILLCLR
 70
     0
  9
$DIMARCSYM
 70
     0
  9
$DIMLTYPE
  6

  9
$DIMLTEX1
  6

  9
$DIMLTEX2
  6

  9
$LUNITS
 70
     2
  9
$LUPREC
 70
     4
  9
$SKETCHINC
 40
0.1
  9
$FILLETRAD
 40
0.5
  9
$AUNITS
 70
     0
  9
$AUPREC
 70
     0
  9
$MENU
  1
.
  9
$ELEVATION
 40
0.0
  9
$PELEVATION
 40
0.0
  9
$THICKNESS
 40
0.0
  9
$LIMCHECK
 70
     0
  9
$CHAMFERA
 40
0.5
  9
$CHAMFERB
 40
0.5
  9
$CHAMFERC
 40
1.0
  9
$CHAMFERD
 40
0.0
  9
$SKPOLY
 70
     0
  9
$TDCREATE
 40
2459380.402349526
  9
$TDUCREATE
 40
2459380.36068287
  9
$TDUPDATE
 40
2459380.402349526
  9
$TDUUPDATE
 40
2459380.36068287
  9
$TDINDWG
 40
0.0000000116
  9
$TDUSRTIMER
 40
0.0000000116
  9
$USRTIMER
 70
     1
  9
$ANGBASE
 50
0.0
  9
$ANGDIR
 70
     0
  9
$PDMODE
 70
     0
  9
$PDSIZE
 40
0.0
  9
$PLINEWID
 40
0.0
  9
$SPLFRAME
 70
     0
  9
$SPLINETYPE
 70
     6
  9
$SPLINESEGS
 70
     8
  9
$HANDSEED
  5
27A
  9
$SURFTAB1
 70
     6
  9
$SURFTAB2
 70
     6
  9
$SURFTYPE
 70
     6
  9
$SURFU
 70
     6
  9
$SURFV
 70
     6
  9
$UCSBASE
  2

  9
$UCSNAME
  2

  9
$UCSORG
 10
0.0
 20
0.0
 30
0.0
  9
$UCSXDIR
 10
1.0
 20
0.0
 30
0.0
  9
$UCSYDIR
 10
0.0
 20
1.0
 30
0.0
  9
$UCSORTHOREF
  2

  9
$UCSORTHOVIEW
 70
     0
  9
$UCSORGTOP
 10
0.0
 20
0.0
 30
0.0
  9
$UCSORGBOTTOM
 10
0.0
 20
0.0
 30
0.0
  9
$UCSORGLEFT
 10
0.0
 20
0.0
 30
0.0
  9
$UCSORGRIGHT
 10
0.0
 20
0.0
 30
0.0
  9
$UCSORGFRONT
 10
0.0
 20
0.0
 30
0.0
  9
$UCSORGBACK
 10
0.0
 20
0.0
 30
0.0
  9
$PUCSBASE
  2

  9
$PUCSNAME
  2

  9
$PUCSORG
 10
0.0
 20
0.0
 30
0.0
  9
$PUCSXDIR
 10
1.0
 20
0.0
 30
0.0
  9
$PUCSYDIR
 10
0.0
 20
1.0
 30
0.0
  9
$PUCSORTHOREF
  2

  9
$PUCSORTHOVIEW
 70
     0
  9
$PUCSORGTOP
 10
0.0
 20
0.0
 30
0.0
  9
$PUCSORGBOTTOM
 10
0.0
 20
0.0
 30
0.0
  9
$PUCSORGLEFT
 10
0.0
 20
0.0
 30
0.0
  9
$PUCSORGRIGHT
 10
0.0
 20
0.0
 30
0.0
  9
$PUCSORGFRONT
 10
0.0
 20
0.0
 30
0.0
  9
$PUCSORGBACK
 10
0.0
 20
0.0
 30
0.0
  9
$USERI1
 70
     0
  9
$USERI2
 70
     0
  9
$USERI3
 70
     0
  9
$USERI4
 70
     0
  9
$USERI5
 70
     0
  9
$USERR1
 40
0.0
  9
$USERR2
 40
0.0
  9
$USERR3
 40
0.0
  9
$USERR4
 40
0.0
  9
$USERR5
 40
0.0
  9
$WORLDVIEW
 70
     1
  9
$SHADEDGE
 70
     3
  9
$SHADEDIF
 70
    70
  9
$TILEMODE
 70
     1
  9
$MAXACTVP
 70
    64
  9
$PINSBASE
 10
0.0
 20
0.0
 30
0.0
  9
$PLIMCHECK
 70
     0
  9
$PEXTMIN
 10
1.000000000000000E+20
 20
1.000000000000000E+20
 30
1.000000000000000E+20
  9
$PEXTMAX
 10
-1.000000000000000E+20
 20
-1.000000000000000E+20
 30
-1.000000000000000E+20
  9
$PLIMMIN
 10
0.0
 20
0.0
  9
$PLIMMAX
 10
12.0
 20
9.0
  9
$UNITMODE
 70
     0
  9
$VISRETAIN
 70
     1
  9
$PLINEGEN
 70
     0
  9
$PSLTSCALE
 70
     1
  9
$TREEDEPTH
 70
  3020
  9
$CMLSTYLE
  2
Standard
  9
$CMLJUST
 70
     0
  9
$CMLSCALE
 40
1.0
  9
$PROXYGRAPHICS
 70
     1
  9
$MEASUREMENT
 70
     0
  9
$CELWEIGHT
370
    -1
  9
$ENDCAPS
280
     0
  9
$JOINSTYLE
280
     0
  9
$LWDISPLAY
290
     1
  9
$INSUNITS
 70
     1
  9
$HYPERLINKBASE
  1

  9
$STYLESHEET
  1

  9
$XEDIT
290
     1
  9
$CEPSNTYPE
380
     0
  9
$PSTYLEMODE
290
     1
  9
$FINGERPRINTGUID
  2
{1FE3C339-A1FB-1008-3494-D9A5DA7674D6}
  9
$VERSIONGUID
  2
{FAEB1C32-E019-11D5-929B-00C0DF256EC4}
  9
$EXTNAMES
290
     1
  9
$PSVPSCALE
 40
0.0
  9
$OLESTARTUP
290
     0
  9
$SORTENTS
280
   127
  9
$INDEXCTL
280
     0
  9
$HIDETEXT
280
     1
  9
$XCLIPFRAME
290
     0
  9
$HALOGAP
280
     0
  9
$OBSCOLOR
 70
   257
  9
$OBSLTYPE
280
     0
  9
$INTERSECTIONDISPLAY
280
     0
  9
$INTERSECTIONCOLOR
 70
   257
  9
$DIMASSOC
280
     2
  9
$PROJECTNAME
  1

  9
$CAMERADISPLAY
290
     0
  9
$LENSLENGTH
 40
50.0
  9
$CAMERAHEIGHT
 40
0.0
  9
$STEPSPERSEC
 40
2.0
  9
$STEPSIZE
 40
6.0
  9
$3DDWFPREC
 40
2.0
  9
$PSOLWIDTH
 40
0.25
  9
$PSOLHEIGHT
 40
4.0
  9
$LOFTANG1
 40
1.570796326794897
  9
$LOFTANG2
 40
1.570796326794897
  9
$LOFTMAG1
 40
0.0
  9
$LOFTMAG2
 40
0.0
  9
$LOFTPARAM
 70
     7
  9
$LOFTNORMALS
280
     1
  9
$LATITUDE
 40
37.795
  9
$LONGITUDE
 40
-122.394
  9
$NORTHDIRECTION
 40
0.0
  9
$TIMEZONE
 70
 -8000
  9
$LIGHTGLYPHDISPLAY
280
     1
  9
$TILEMODELIGHTSYNCH
280
     1
  9
$CMATERIAL
347
3C
  9
$SOLIDHIST
280
     1
  9
$SHOWHIST
280
     1
  9
$DWFFRAME
280
     2
  9
$DGNFRAME
280
     2
  9
$REALWORLDSCALE
290
     1
  9
$INTERFERECOLOR
 62
   256
  9
$CSHADOW
280
     0
  9
$SHADOWPLANELOCATION
 40
0.0
  0
ENDSEC
  0
SECTION
  2
CLASSES
  0
CLASS
  1
ACDBDICTIONARYWDFLT
  2
AcDbDictionaryWithDefault
  3
ObjectDBX Classes
 90
        0
 91
        4
280
     0
281
     0
  0
CLASS
  1
VISUALSTYLE
  2
AcDbVisualStyle
  3
ObjectDBX Classes
 90
     4095
 91
        4
280
     0
281
     0
  0
CLASS
  1
MATERIAL
  2
AcDbMaterial
  3
ObjectDBX Classes
 90
     1153
 91
        4
280
     0
281
     0
  0
CLASS
  1
SUN
  2
AcDbSun
  3
SCENEOE
 90
     1024
 91
        4
280
     0
281
     0
  0
ENDSEC
  0
SECTION
  2
TABLES
  0
TABLE
  2
VPORT
  5
8
330
0
100
AcDbSymbolTable
 70
     1
  0
VPORT
  5
29
330
8
100
AcDbSymbolTableRecord
100
AcDbViewportTableRecord
  2
*Active
 70
     0
 10
0.0
 20
0.0
 11
1.0
 21
1.0
 12
0.0
 22
0.0
 13
0.0
 23
0.0
 14
0.5
 24
0.5
 15
0.5
 25
0.5
 16
0.0
 26
0.0
 36
1.0
 17
105.0007777515277
 27
148.5000416295417
 37
0.0
 40
297.0000832590835
 41
0.7070757462376325
 42
50.0
 43
0.0
 44
0.0
 50
0.0
 51
0.0
 71
     0
 72
   100
 73
     1
 74
     3
 75
     0
 76
     0
 77
     0
 78
     0
281
     0
 65
     1
110
0.0
120
0.0
130
0.0
111
1.0
121
0.0
131
0.0
112
0.0
122
1.0
132
0.0
 79
     0
146
0.0
 60
     3
 61
     5
292
     1
282
     1
141
0.0
142
0.0
 63
   250
361
3F
  0
ENDTAB
  0
TABLE
  2
LTYPE
  5
5
330
0
100
AcDbSymbolTable
 70
    44
  0
LTYPE
  5
14
330
5
100
AcDbSymbolTableRecord
100
AcDbLinetypeTableRecord
  2
ByBlock
 70
     0
  3

 72
    65
 73
     0
 40
0.0
  0
LTYPE
  5
15
330
5
100
AcDbSymbolTableRecord
100
AcDbLinetypeTableRecord
  2
ByLayer
 70
     0
  3

 72
    65
 73
     0
 40
0.0
  0
LTYPE
  5
16
330
5
100
AcDbSymbolTableRecord
100
AcDbLinetypeTableRecord
  2
Continuous
 70
     0
  3
Solid line
 72
    65
 73
     0
 40
0.0
  0
LTYPE
  5
4A
330
5
100
AcDbSymbolTableRecord
100
AcDbLinetypeTableRecord
  2
AI-Linetype-1
 70
     0
  3
Adobe Illustrator Linetype No. 1
 72
    65
 73
     2
 40
7.270862246391072
 49
3.635375106750391
 74
     0
 49
-3.635487139640682
 74
     0
  0
LTYPE
  5
55
330
5
100
AcDbSymbolTableRecord
100
AcDbLinetypeTableRecord
  2
AI-Linetype-2
 70
     0
  3
Adobe Illustrator Linetype No. 2
 72
    65
 73
     2
 40
7.270862246391072
 49
3.635375106750391
 74
     0
 49
-3.635487139640682
 74
     0
  0
LTYPE
  5
5B
330
5
100
AcDbSymbolTableRecord
100
AcDbLinetypeTableRecord
  2
AI-Linetype-3
 70
     0
  3
Adobe Illustrator Linetype No. 3
 72
    65
 73
     2
 40
7.270862246391072
 49
3.635375106750391
 74
     0
 49
-3.635487139640682
 74
     0
  0
LTYPE
  5
66
330
5
100
AcDbSymbolTableRecord
100
AcDbLinetypeTableRecord
  2
AI-Linetype-4
 70
     0
  3
Adobe Illustrator Linetype No. 4
 72
    65
 73
     2
 40
7.270862246391072
 49
3.635375106750391
 74
     0
 49
-3.635487139640682
 74
     0
  0
LTYPE
  5
6C
330
5
100
AcDbSymbolTableRecord
100
AcDbLinetypeTableRecord
  2
AI-Linetype-5
 70
     0
  3
Adobe Illustrator Linetype No. 5
 72
    65
 73
     2
 40
7.270862246391072
 49
3.635375106750391
 74
     0
 49
-3.635487139640682
 74
     0
  0
LTYPE
  5
72
330
5
100
AcDbSymbolTableRecord
100
AcDbLinetypeTableRecord
  2
AI-Linetype-6
 70
     0
  3
Adobe Illustrator Linetype No. 6
 72
    65
 73
     2
 40
7.270862246391072
 49
3.635375106750391
 74
     0
 49
-3.635487139640682
 74
     0
  0
LTYPE
  5
78
330
5
100
AcDbSymbolTableRecord
100
AcDbLinetypeTableRecord
  2
AI-Linetype-7
 70
     0
  3
Adobe Illustrator Linetype No. 7
 72
    65
 73
     2
 40
7.270862246391072
 49
3.635375106750391
 74
     0
 49
-3.635487139640682
 74
     0
  0
LTYPE
  5
83
330
5
100
AcDbSymbolTableRecord
100
AcDbLinetypeTableRecord
  2
AI-Linetype-8
 70
     0
  3
Adobe Illustrator Linetype No. 8
 72
    65
 73
     2
 40
7.270862246391072
 49
3.635375106750391
 74
     0
 49
-3.635487139640682
 74
     0
  0
LTYPE
  5
89
330
5
100
AcDbSymbolTableRecord
100
AcDbLinetypeTableRecord
  2
AI-Linetype-9
 70
     0
  3
Adobe Illustrator Linetype No. 9
 72
    65
 73
     2
 40
7.270862246391072
 49
3.635375106750391
 74
     0
 49
-3.635487139640682
 74
     0
  0
LTYPE
  5
99
330
5
100
AcDbSymbolTableRecord
100
AcDbLinetypeTableRecord
  2
AI-Linetype-10
 70
     0
  3
Adobe Illustrator Linetype No. 10
 72
    65
 73
     2
 40
7.270862246391072
 49
3.635375106750391
 74
     0
 49
-3.635487139640682
 74
     0
  0
LTYPE
  5
9F
330
5
100
AcDbSymbolTableRecord
100
AcDbLinetypeTableRecord
  2
AI-Linetype-11
 70
     0
  3
Adobe Illustrator Linetype No. 11
 72
    65
 73
     2
 40
7.270862246391072
 49
3.635375106750391
 74
     0
 49
-3.635487139640682
 74
     0
  0
LTYPE
  5
A5
330
5
100
AcDbSymbolTableRecord
100
AcDbLinetypeTableRecord
  2
AI-Linetype-12
 70
     0
  3
Adobe Illustrator Linetype No. 12
 72
    65
 73
     2
 40
7.270862246391072
 49
3.635375106750391
 74
     0
 49
-3.635487139640682
 74
     0
  0
LTYPE
  5
AB
330
5
100
AcDbSymbolTableRecord
100
AcDbLinetypeTableRecord
  2
AI-Linetype-13
 70
     0
  3
Adobe Illustrator Linetype No. 13
 72
    65
 73
     2
 40
7.270862246391072
 49
3.635375106750391
 74
     0
 49
-3.635487139640682
 74
     0
  0
LTYPE
  5
BB
330
5
100
AcDbSymbolTableRecord
100
AcDbLinetypeTableRecord
  2
AI-Linetype-14
 70
     0
  3
Adobe Illustrator Linetype No. 14
 72
    65
 73
     2
 40
7.270862246391072
 49
3.635375106750391
 74
     0
 49
-3.635487139640682
 74
     0
  0
LTYPE
  5
C1
330
5
100
AcDbSymbolTableRecord
100
AcDbLinetypeTableRecord
  2
AI-Linetype-15
 70
     0
  3
Adobe Illustrator Linetype No. 15
 72
    65
 73
     2
 40
7.270862246391072
 49
3.635375106750391
 74
     0
 49
-3.635487139640682
 74
     0
  0
LTYPE
  5
EA
330
5
100
AcDbSymbolTableRecord
100
AcDbLinetypeTableRecord
  2
AI-Linetype-16
 70
     0
  3
Adobe Illustrator Linetype No. 16
 72
    65
 73
     2
 40
7.270862246391072
 49
3.635375106750391
 74
     0
 49
-3.635487139640682
 74
     0
  0
LTYPE
  5
F0
330
5
100
AcDbSymbolTableRecord
100
AcDbLinetypeTableRecord
  2
AI-Linetype-17
 70
     0
  3
Adobe Illustrator Linetype No. 17
 72
    65
 73
     2
 40
7.270862246391072
 49
3.635375106750391
 74
     0
 49
-3.635487139640682
 74
     0
  0
LTYPE
  5
103
330
5
100
AcDbSymbolTableRecord
100
AcDbLinetypeTableRecord
  2
AI-Linetype-18
 70
     0
  3
Adobe Illustrator Linetype No. 18
 72
    65
 73
     2
 40
7.270862246391072
 49
3.635375106750391
 74
     0
 49
-3.635487139640682
 74
     0
  0
LTYPE
  5
10E
330
5
100
AcDbSymbolTableRecord
100
AcDbLinetypeTableRecord
  2
AI-Linetype-19
 70
     0
  3
Adobe Illustrator Linetype No. 19
 72
    65
 73
     2
 40
7.270862246391072
 49
3.635375106750391
 74
     0
 49
-3.635487139640682
 74
     0
  0
LTYPE
  5
114
330
5
100
AcDbSymbolTableRecord
100
AcDbLinetypeTableRecord
  2
AI-Linetype-20
 70
     0
  3
Adobe Illustrator Linetype No. 20
 72
    65
 73
     2
 40
7.270862246391072
 49
3.635375106750391
 74
     0
 49
-3.635487139640682
 74
     0
  0
LTYPE
  5
124
330
5
100
AcDbSymbolTableRecord
100
AcDbLinetypeTableRecord
  2
AI-Linetype-21
 70
     0
  3
Adobe Illustrator Linetype No. 21
 72
    65
 73
     2
 40
7.270862246391072
 49
3.635375106750391
 74
     0
 49
-3.635487139640682
 74
     0
  0
LTYPE
  5
134
330
5
100
AcDbSymbolTableRecord
100
AcDbLinetypeTableRecord
  2
AI-Linetype-22
 70
     0
  3
Adobe Illustrator Linetype No. 22
 72
    65
 73
     2
 40
7.270862246391072
 49
3.635375106750391
 74
     0
 49
-3.635487139640682
 74
     0
  0
LTYPE
  5
13F
330
5
100
AcDbSymbolTableRecord
100
AcDbLinetypeTableRecord
  2
AI-Linetype-23
 70
     0
  3
Adobe Illustrator Linetype No. 23
 72
    65
 73
     2
 40
7.270862246391072
 49
3.635375106750391
 74
     0
 49
-3.635487139640682
 74
     0
  0
LTYPE
  5
15E
330
5
100
AcDbSymbolTableRecord
100
AcDbLinetypeTableRecord
  2
AI-Linetype-24
 70
     0
  3
Adobe Illustrator Linetype No. 24
 72
    65
 73
     2
 40
7.270862246391072
 49
3.635375106750391
 74
     0
 49
-3.635487139640682
 74
     0
  0
LTYPE
  5
173
330
5
100
AcDbSymbolTableRecord
100
AcDbLinetypeTableRecord
  2
AI-Linetype-25
 70
     0
  3
Adobe Illustrator Linetype No. 25
 72
    65
 73
     2
 40
7.270862246391072
 49
3.635375106750391
 74
     0
 49
-3.635487139640682
 74
     0
  0
LTYPE
  5
183
330
5
100
AcDbSymbolTableRecord
100
AcDbLinetypeTableRecord
  2
AI-Linetype-26
 70
     0
  3
Adobe Illustrator Linetype No. 26
 72
    65
 73
     2
 40
7.270862246391072
 49
3.635375106750391
 74
     0
 49
-3.635487139640682
 74
     0
  0
LTYPE
  5
189
330
5
100
AcDbSymbolTableRecord
100
AcDbLinetypeTableRecord
  2
AI-Linetype-27
 70
     0
  3
Adobe Illustrator Linetype No. 27
 72
    65
 73
     2
 40
7.270862246391072
 49
3.635375106750391
 74
     0
 49
-3.635487139640682
 74
     0
  0
LTYPE
  5
18F
330
5
100
AcDbSymbolTableRecord
100
AcDbLinetypeTableRecord
  2
AI-Linetype-28
 70
     0
  3
Adobe Illustrator Linetype No. 28
 72
    65
 73
     2
 40
7.270862246391072
 49
3.635375106750391
 74
     0
 49
-3.635487139640682
 74
     0
  0
LTYPE
  5
195
330
5
100
AcDbSymbolTableRecord
100
AcDbLinetypeTableRecord
  2
AI-Linetype-29
 70
     0
  3
Adobe Illustrator Linetype No. 29
 72
    65
 73
     2
 40
7.270862246391072
 49
3.635375106750391
 74
     0
 49
-3.635487139640682
 74
     0
  0
LTYPE
  5
1B3
330
5
100
AcDbSymbolTableRecord
100
AcDbLinetypeTableRecord
  2
AI-Linetype-30
 70
     0
  3
Adobe Illustrator Linetype No. 30
 72
    65
 73
     2
 40
6.249974477053161
 49
3.124987238526581
 74
     0
 49
-3.124987238526581
 74
     0
  0
LTYPE
  5
1B8
330
5
100
AcDbSymbolTableRecord
100
AcDbLinetypeTableRecord
  2
AI-Linetype-31
 70
     0
  3
Adobe Illustrator Linetype No. 31
 72
    65
 73
     4
 40
28.1250244308731
 49
18.75006271529336
 74
     0
 49
-3.124987238526581
 74
     0
 49
3.124987238526581
 74
     0
 49
-3.124987238526581
 74
     0
  0
LTYPE
  5
1D1
330
5
100
AcDbSymbolTableRecord
100
AcDbLinetypeTableRecord
  2
AI-Linetype-32
 70
     0
  3
Adobe Illustrator Linetype No. 32
 72
    65
 73
     2
 40
6.249903152810694
 49
3.124951576405347
 74
     0
 49
-3.124951576405347
 74
     0
  0
LTYPE
  5
1D6
330
5
100
AcDbSymbolTableRecord
100
AcDbLinetypeTableRecord
  2
AI-Linetype-33
 70
     0
  3
Adobe Illustrator Linetype No. 33
 72
    65
 73
     4
 40
28.12470212604158
 49
18.74984739682553
 74
     0
 49
-3.124951576405347
 74
     0
 49
3.124951576405347
 74
     0
 49
-3.124951576405347
 74
     0
  0
LTYPE
  5
1E1
330
5
100
AcDbSymbolTableRecord
100
AcDbLinetypeTableRecord
  2
AI-Linetype-34
 70
     0
  3
Adobe Illustrator Linetype No. 34
 72
    65
 73
     2
 40
7.270862246391072
 49
3.635375106750391
 74
     0
 49
-3.635487139640682
 74
     0
  0
LTYPE
  5
1F5
330
5
100
AcDbSymbolTableRecord
100
AcDbLinetypeTableRecord
  2
AI-Linetype-35
 70
     0
  3
Adobe Illustrator Linetype No. 35
 72
    65
 73
     2
 40
6.249831155698013
 49
3.124915577849007
 74
     0
 49
-3.124915577849007
 74
     0
  0
LTYPE
  5
1FA
330
5
100
AcDbSymbolTableRecord
100
AcDbLinetypeTableRecord
  2
AI-Linetype-36
 70
     0
  3
Adobe Illustrator Linetype No. 36
 72
    65
 73
     4
 40
28.12437881190472
 49
18.74963207835771
 74
     0
 49
-3.124915577849007
 74
     0
 49
3.124915577849007
 74
     0
 49
-3.124915577849007
 74
     0
  0
LTYPE
  5
213
330
5
100
AcDbSymbolTableRecord
100
AcDbLinetypeTableRecord
  2
AI-Linetype-37
 70
     0
  3
Adobe Illustrator Linetype No. 37
 72
    65
 73
     2
 40
6.249903152810694
 49
3.124951576405347
 74
     0
 49
-3.124951576405347
 74
     0
  0
LTYPE
  5
218
330
5
100
AcDbSymbolTableRecord
100
AcDbLinetypeTableRecord
  2
AI-Linetype-38
 70
     0
  3
Adobe Illustrator Linetype No. 38
 72
    65
 73
     4
 40
28.12470212604158
 49
18.74984739682553
 74
     0
 49
-3.124951576405347
 74
     0
 49
3.124951576405347
 74
     0
 49
-3.124951576405347
 74
     0
  0
LTYPE
  5
231
330
5
100
AcDbSymbolTableRecord
100
AcDbLinetypeTableRecord
  2
AI-Linetype-39
 70
     0
  3
Adobe Illustrator Linetype No. 39
 72
    65
 73
     2
 40
6.927237185759714
 49
3.463618592879857
 74
     0
 49
-3.463618592879857
 74
     0
  0
LTYPE
  5
236
330
5
100
AcDbSymbolTableRecord
100
AcDbLinetypeTableRecord
  2
AI-Linetype-40
 70
     0
  3
Adobe Illustrator Linetype No. 40
 72
    65
 73
     4
 40
31.17272142319725
 49
20.78186564455768
 74
     0
 49
-3.463618592879857
 74
     0
 49
3.463618592879857
 74
     0
 49
-3.463618592879857
 74
     0
  0
LTYPE
  5
241
330
5
100
AcDbSymbolTableRecord
100
AcDbLinetypeTableRecord
  2
AI-Linetype-41
 70
     0
  3
Adobe Illustrator Linetype No. 41
 72
    65
 73
     2
 40
7.270862246391072
 49
3.635375106750391
 74
     0
 49
-3.635487139640682
 74
     0
  0
LTYPE
  5
24C
330
5
100
AcDbSymbolTableRecord
100
AcDbLinetypeTableRecord
  2
AI-Linetype-42
 70
     0
  3
Adobe Illustrator Linetype No. 42
 72
    65
 73
     2
 40
7.270862246391072
 49
3.635375106750391
 74
     0
 49
-3.635487139640682
 74
     0
  0
LTYPE
  5
257
330
5
100
AcDbSymbolTableRecord
100
AcDbLinetypeTableRecord
  2
AI-Linetype-43
 70
     0
  3
Adobe Illustrator Linetype No. 43
 72
    65
 73
     2
 40
7.270862246391072
 49
3.635375106750391
 74
     0
 49
-3.635487139640682
 74
     0
  0
ENDTAB
  0
TABLE
  2
LAYER
  5
2
330
0
100
AcDbSymbolTable
 70
     1
  0
LAYER
  5
10
330
2
100
AcDbSymbolTableRecord
100
AcDbLayerTableRecord
  2
0
 70
     0
 62
     7
  6
Continuous
370
    -3
390
F
347
3E
  0
ENDTAB
  0
TABLE
  2
STYLE
  5
3
330
0
100
AcDbSymbolTable
 70
     1
  0
STYLE
  5
11
330
3
100
AcDbSymbolTableRecord
100
AcDbTextStyleTableRecord
  2
Standard
 70
     0
 40
0.0
 41
1.0
 50
0.0
 71
     0
 42
0.2
  3
txt
  4

  0
ENDTAB
  0
TABLE
  2
VIEW
  5
6
330
0
100
AcDbSymbolTable
 70
     0
  0
ENDTAB
  0
TABLE
  2
UCS
  5
7
330
0
100
AcDbSymbolTable
 70
     0
  0
ENDTAB
  0
TABLE
  2
APPID
  5
9
330
0
100
AcDbSymbolTable
 70
     1
  0
APPID
  5
12
330
9
100
AcDbSymbolTableRecord
100
AcDbRegAppTableRecord
  2
ACAD
 70
     0
  0
ENDTAB
  0
TABLE
  2
DIMSTYLE
  5
A
330
0
100
AcDbSymbolTable
 70
     1
100
AcDbDimStyleTable
  0
DIMSTYLE
105
27
330
A
100
AcDbSymbolTableRecord
100
AcDbDimStyleTableRecord
  2
Standard
 70
     0
178
     0
340
11
  0
ENDTAB
  0
TABLE
  2
BLOCK_RECORD
  5
1
330
0
100
AcDbSymbolTable
 70
    86
  0
BLOCK_RECORD
  5
1F
330
1
100
AcDbSymbolTableRecord
100
AcDbBlockTableRecord
  2
*Model_Space
340
22
 70
     0
280
     1
281
     0
  0
BLOCK_RECORD
  5
1B
330
1
100
AcDbSymbolTableRecord
100
AcDbBlockTableRecord
  2
*Paper_Space
340
1E
 70
     0
280
     1
281
     0
  0
BLOCK_RECORD
  5
23
330
1
100
AcDbSymbolTableRecord
100
AcDbBlockTableRecord
  2
*Paper_Space0
340
26
 70
     0
280
     1
281
     0
  0
BLOCK_RECORD
  5
40
330
1
100
AcDbSymbolTableRecord
100
AcDbBlockTableRecord
  2
block 2
340
0
102
{BLKREFS
331
41
102
}
 70
     0
280
     1
281
     0
  0
BLOCK_RECORD
  5
45
330
1
100
AcDbSymbolTableRecord
100
AcDbBlockTableRecord
  2
block 3
340
0
102
{BLKREFS
331
46
102
}
 70
     0
280
     1
281
     0
  0
BLOCK_RECORD
  5
4B
330
1
100
AcDbSymbolTableRecord
100
AcDbBlockTableRecord
  2
block 4
340
0
102
{BLKREFS
331
4C
102
}
 70
     0
280
     1
281
     0
  0
BLOCK_RECORD
  5
50
330
1
100
AcDbSymbolTableRecord
100
AcDbBlockTableRecord
  2
block 5
340
0
102
{BLKREFS
331
51
102
}
 70
     0
280
     1
281
     0
  0
BLOCK_RECORD
  5
56
330
1
100
AcDbSymbolTableRecord
100
AcDbBlockTableRecord
  2
block 6
340
0
102
{BLKREFS
331
57
102
}
 70
     0
280
     1
281
     0
  0
BLOCK_RECORD
  5
5C
330
1
100
AcDbSymbolTableRecord
100
AcDbBlockTableRecord
  2
block 7
340
0
102
{BLKREFS
331
5D
102
}
 70
     0
280
     1
281
     0
  0
BLOCK_RECORD
  5
61
330
1
100
AcDbSymbolTableRecord
100
AcDbBlockTableRecord
  2
block 8
340
0
102
{BLKREFS
331
62
102
}
 70
     0
280
     1
281
     0
  0
BLOCK_RECORD
  5
67
330
1
100
AcDbSymbolTableRecord
100
AcDbBlockTableRecord
  2
block 9
340
0
102
{BLKREFS
331
68
102
}
 70
     0
280
     1
281
     0
  0
BLOCK_RECORD
  5
6D
330
1
100
AcDbSymbolTableRecord
100
AcDbBlockTableRecord
  2
block 10
340
0
102
{BLKREFS
331
6E
102
}
 70
     0
280
     1
281
     0
  0
BLOCK_RECORD
  5
73
330
1
100
AcDbSymbolTableRecord
100
AcDbBlockTableRecord
  2
block 11
340
0
102
{BLKREFS
331
74
102
}
 70
     0
280
     1
281
     0
  0
BLOCK_RECORD
  5
79
330
1
100
AcDbSymbolTableRecord
100
AcDbBlockTableRecord
  2
block 12
340
0
102
{BLKREFS
331
7A
102
}
 70
     0
280
     1
281
     0
  0
BLOCK_RECORD
  5
7E
330
1
100
AcDbSymbolTableRecord
100
AcDbBlockTableRecord
  2
block 13
340
0
102
{BLKREFS
331
7F
102
}
 70
     0
280
     1
281
     0
  0
BLOCK_RECORD
  5
84
330
1
100
AcDbSymbolTableRecord
100
AcDbBlockTableRecord
  2
block 14
340
0
102
{BLKREFS
331
85
102
}
 70
     0
280
     1
281
     0
  0
BLOCK_RECORD
  5
8A
330
1
100
AcDbSymbolTableRecord
100
AcDbBlockTableRecord
  2
block 15
340
0
102
{BLKREFS
331
8B
102
}
 70
     0
280
     1
281
     0
  0
BLOCK_RECORD
  5
8F
330
1
100
AcDbSymbolTableRecord
100
AcDbBlockTableRecord
  2
block 16
340
0
102
{BLKREFS
331
90
102
}
 70
     0
280
     1
281
     0
  0
BLOCK_RECORD
  5
94
330
1
100
AcDbSymbolTableRecord
100
AcDbBlockTableRecord
  2
block 17
340
0
102
{BLKREFS
331
95
102
}
 70
     0
280
     1
281
     0
  0
BLOCK_RECORD
  5
9A
330
1
100
AcDbSymbolTableRecord
100
AcDbBlockTableRecord
  2
block 18
340
0
102
{BLKREFS
331
9B
102
}
 70
     0
280
     1
281
     0
  0
BLOCK_RECORD
  5
A0
330
1
100
AcDbSymbolTableRecord
100
AcDbBlockTableRecord
  2
block 19
340
0
102
{BLKREFS
331
A1
102
}
 70
     0
280
     1
281
     0
  0
BLOCK_RECORD
  5
A6
330
1
100
AcDbSymbolTableRecord
100
AcDbBlockTableRecord
  2
block 20
340
0
102
{BLKREFS
331
A7
102
}
 70
     0
280
     1
281
     0
  0
BLOCK_RECORD
  5
AC
330
1
100
AcDbSymbolTableRecord
100
AcDbBlockTableRecord
  2
block 21
340
0
102
{BLKREFS
331
AD
102
}
 70
     0
280
     1
281
     0
  0
BLOCK_RECORD
  5
B1
330
1
100
AcDbSymbolTableRecord
100
AcDbBlockTableRecord
  2
block 22
340
0
102
{BLKREFS
331
B2
102
}
 70
     0
280
     1
281
     0
  0
BLOCK_RECORD
  5
B6
330
1
100
AcDbSymbolTableRecord
100
AcDbBlockTableRecord
  2
block 23
340
0
102
{BLKREFS
331
B7
102
}
 70
     0
280
     1
281
     0
  0
BLOCK_RECORD
  5
BC
330
1
100
AcDbSymbolTableRecord
100
AcDbBlockTableRecord
  2
block 24
340
0
102
{BLKREFS
331
BD
102
}
 70
     0
280
     1
281
     0
  0
BLOCK_RECORD
  5
C2
330
1
100
AcDbSymbolTableRecord
100
AcDbBlockTableRecord
  2
block 25
340
0
102
{BLKREFS
331
C3
102
}
 70
     0
280
     1
281
     0
  0
BLOCK_RECORD
  5
C7
330
1
100
AcDbSymbolTableRecord
100
AcDbBlockTableRecord
  2
block 26
340
0
102
{BLKREFS
331
C8
102
}
 70
     0
280
     1
281
     0
  0
BLOCK_RECORD
  5
CC
330
1
100
AcDbSymbolTableRecord
100
AcDbBlockTableRecord
  2
block 27
340
0
102
{BLKREFS
331
CD
102
}
 70
     0
280
     1
281
     0
  0
BLOCK_RECORD
  5
D1
330
1
100
AcDbSymbolTableRecord
100
AcDbBlockTableRecord
  2
block 28
340
0
102
{BLKREFS
331
D2
102
}
 70
     0
280
     1
281
     0
  0
BLOCK_RECORD
  5
D6
330
1
100
AcDbSymbolTableRecord
100
AcDbBlockTableRecord
  2
block 29
340
0
102
{BLKREFS
331
D7
102
}
 70
     0
280
     1
281
     0
  0
BLOCK_RECORD
  5
DB
330
1
100
AcDbSymbolTableRecord
100
AcDbBlockTableRecord
  2
block 30
340
0
102
{BLKREFS
331
DC
102
}
 70
     0
280
     1
281
     0
  0
BLOCK_RECORD
  5
E0
330
1
100
AcDbSymbolTableRecord
100
AcDbBlockTableRecord
  2
block 31
340
0
102
{BLKREFS
331
E1
102
}
 70
     0
280
     1
281
     0
  0
BLOCK_RECORD
  5
E5
330
1
100
AcDbSymbolTableRecord
100
AcDbBlockTableRecord
  2
block 32
340
0
102
{BLKREFS
331
E6
102
}
 70
     0
280
     1
281
     0
  0
BLOCK_RECORD
  5
EB
330
1
100
AcDbSymbolTableRecord
100
AcDbBlockTableRecord
  2
block 33
340
0
102
{BLKREFS
331
EC
102
}
 70
     0
280
     1
281
     0
  0
BLOCK_RECORD
  5
F1
330
1
100
AcDbSymbolTableRecord
100
AcDbBlockTableRecord
  2
block 34
340
0
102
{BLKREFS
331
F2
102
}
 70
     0
280
     1
281
     0
  0
BLOCK_RECORD
  5
F6
330
1
100
AcDbSymbolTableRecord
100
AcDbBlockTableRecord
  2
block 35
340
0
102
{BLKREFS
331
F7
102
}
 70
     0
280
     1
281
     0
  0
BLOCK_RECORD
  5
FE
330
1
100
AcDbSymbolTableRecord
100
AcDbBlockTableRecord
  2
block 36
340
0
102
{BLKREFS
331
FF
102
}
 70
     0
280
     1
281
     0
  0
BLOCK_RECORD
  5
104
330
1
100
AcDbSymbolTableRecord
100
AcDbBlockTableRecord
  2
block 37
340
0
102
{BLKREFS
331
105
102
}
 70
     0
280
     1
281
     0
  0
BLOCK_RECORD
  5
109
330
1
100
AcDbSymbolTableRecord
100
AcDbBlockTableRecord
  2
block 38
340
0
102
{BLKREFS
331
10A
102
}
 70
     0
280
     1
281
     0
  0
BLOCK_RECORD
  5
10F
330
1
100
AcDbSymbolTableRecord
100
AcDbBlockTableRecord
  2
block 39
340
0
102
{BLKREFS
331
110
102
}
 70
     0
280
     1
281
     0
  0
BLOCK_RECORD
  5
115
330
1
100
AcDbSymbolTableRecord
100
AcDbBlockTableRecord
  2
block 40
340
0
102
{BLKREFS
331
116
102
}
 70
     0
280
     1
281
     0
  0
BLOCK_RECORD
  5
11A
330
1
100
AcDbSymbolTableRecord
100
AcDbBlockTableRecord
  2
block 41
340
0
102
{BLKREFS
331
11B
102
}
 70
     0
280
     1
281
     0
  0
BLOCK_RECORD
  5
11F
330
1
100
AcDbSymbolTableRecord
100
AcDbBlockTableRecord
  2
block 42
340
0
102
{BLKREFS
331
120
102
}
 70
     0
280
     1
281
     0
  0
BLOCK_RECORD
  5
125
330
1
100
AcDbSymbolTableRecord
100
AcDbBlockTableRecord
  2
block 43
340
0
102
{BLKREFS
331
126
102
}
 70
     0
280
     1
281
     0
  0
BLOCK_RECORD
  5
12A
330
1
100
AcDbSymbolTableRecord
100
AcDbBlockTableRecord
  2
block 44
340
0
102
{BLKREFS
331
12B
102
}
 70
     0
280
     1
281
     0
  0
BLOCK_RECORD
  5
12F
330
1
100
AcDbSymbolTableRecord
100
AcDbBlockTableRecord
  2
block 45
340
0
102
{BLKREFS
331
130
102
}
 70
     0
280
     1
281
     0
  0
BLOCK_RECORD
  5
135
330
1
100
AcDbSymbolTableRecord
100
AcDbBlockTableRecord
  2
block 46
340
0
102
{BLKREFS
331
136
102
}
 70
     0
280
     1
281
     0
  0
BLOCK_RECORD
  5
13A
330
1
100
AcDbSymbolTableRecord
100
AcDbBlockTableRecord
  2
block 47
340
0
102
{BLKREFS
331
13B
102
}
 70
     0
280
     1
281
     0
  0
BLOCK_RECORD
  5
140
330
1
100
AcDbSymbolTableRecord
100
AcDbBlockTableRecord
  2
block 48
340
0
102
{BLKREFS
331
141
102
}
 70
     0
280
     1
281
     0
  0
BLOCK_RECORD
  5
145
330
1
100
AcDbSymbolTableRecord
100
AcDbBlockTableRecord
  2
block 49
340
0
102
{BLKREFS
331
146
102
}
 70
     0
280
     1
281
     0
  0
BLOCK_RECORD
  5
14A
330
1
100
AcDbSymbolTableRecord
100
AcDbBlockTableRecord
  2
block 50
340
0
102
{BLKREFS
331
14B
102
}
 70
     0
280
     1
281
     0
  0
BLOCK_RECORD
  5
14F
330
1
100
AcDbSymbolTableRecord
100
AcDbBlockTableRecord
  2
block 51
340
0
102
{BLKREFS
331
150
102
}
 70
     0
280
     1
281
     0
  0
BLOCK_RECORD
  5
154
330
1
100
AcDbSymbolTableRecord
100
AcDbBlockTableRecord
  2
block 52
340
0
102
{BLKREFS
331
155
102
}
 70
     0
280
     1
281
     0
  0
BLOCK_RECORD
  5
159
330
1
100
AcDbSymbolTableRecord
100
AcDbBlockTableRecord
  2
block 53
340
0
102
{BLKREFS
331
15A
102
}
 70
     0
280
     1
281
     0
  0
BLOCK_RECORD
  5
15F
330
1
100
AcDbSymbolTableRecord
100
AcDbBlockTableRecord
  2
block 54
340
0
102
{BLKREFS
331
160
102
}
 70
     0
280
     1
281
     0
  0
BLOCK_RECORD
  5
164
330
1
100
AcDbSymbolTableRecord
100
AcDbBlockTableRecord
  2
block 55
340
0
102
{BLKREFS
331
165
102
}
 70
     0
280
     1
281
     0
  0
BLOCK_RECORD
  5
169
330
1
100
AcDbSymbolTableRecord
100
AcDbBlockTableRecord
  2
block 56
340
0
102
{BLKREFS
331
16A
102
}
 70
     0
280
     1
281
     0
  0
BLOCK_RECORD
  5
16E
330
1
100
AcDbSymbolTableRecord
100
AcDbBlockTableRecord
  2
block 57
340
0
102
{BLKREFS
331
16F
102
}
 70
     0
280
     1
281
     0
  0
BLOCK_RECORD
  5
174
330
1
100
AcDbSymbolTableRecord
100
AcDbBlockTableRecord
  2
block 58
340
0
102
{BLKREFS
331
175
102
}
 70
     0
280
     1
281
     0
  0
BLOCK_RECORD
  5
179
330
1
100
AcDbSymbolTableRecord
100
AcDbBlockTableRecord
  2
block 59
340
0
102
{BLKREFS
331
17A
102
}
 70
     0
280
     1
281
     0
  0
BLOCK_RECORD
  5
17E
330
1
100
AcDbSymbolTableRecord
100
AcDbBlockTableRecord
  2
block 60
340
0
102
{BLKREFS
331
17F
102
}
 70
     0
280
     1
281
     0
  0
BLOCK_RECORD
  5
184
330
1
100
AcDbSymbolTableRecord
100
AcDbBlockTableRecord
  2
block 61
340
0
102
{BLKREFS
331
185
102
}
 70
     0
280
     1
281
     0
  0
BLOCK_RECORD
  5
18A
330
1
100
AcDbSymbolTableRecord
100
AcDbBlockTableRecord
  2
block 62
340
0
102
{BLKREFS
331
18B
102
}
 70
     0
280
     1
281
     0
  0
BLOCK_RECORD
  5
190
330
1
100
AcDbSymbolTableRecord
100
AcDbBlockTableRecord
  2
block 63
340
0
102
{BLKREFS
331
191
102
}
 70
     0
280
     1
281
     0
  0
BLOCK_RECORD
  5
196
330
1
100
AcDbSymbolTableRecord
100
AcDbBlockTableRecord
  2
block 64
340
0
102
{BLKREFS
331
197
102
}
 70
     0
280
     1
281
     0
  0
BLOCK_RECORD
  5
19B
330
1
100
AcDbSymbolTableRecord
100
AcDbBlockTableRecord
  2
block 65
340
0
102
{BLKREFS
331
19C
102
}
 70
     0
280
     1
281
     0
  0
BLOCK_RECORD
  5
1A0
330
1
100
AcDbSymbolTableRecord
100
AcDbBlockTableRecord
  2
block 66
340
0
102
{BLKREFS
331
1A1
102
}
 70
     0
280
     1
281
     0
  0
BLOCK_RECORD
  5
1A4
330
1
100
AcDbSymbolTableRecord
100
AcDbBlockTableRecord
  2
block 67
340
0
102
{BLKREFS
331
1A5
102
}
 70
     0
280
     1
281
     0
  0
BLOCK_RECORD
  5
1A8
330
1
100
AcDbSymbolTableRecord
100
AcDbBlockTableRecord
  2
block 68
340
0
102
{BLKREFS
331
1A9
102
}
 70
     0
280
     1
281
     0
  0
BLOCK_RECORD
  5
1BE
330
1
100
AcDbSymbolTableRecord
100
AcDbBlockTableRecord
  2
block 69
340
0
102
{BLKREFS
331
1BF
102
}
 70
     0
280
     1
281
     0
  0
BLOCK_RECORD
  5
1C2
330
1
100
AcDbSymbolTableRecord
100
AcDbBlockTableRecord
  2
block 70
340
0
102
{BLKREFS
331
1C3
102
}
 70
     0
280
     1
281
     0
  0
BLOCK_RECORD
  5
1C6
330
1
100
AcDbSymbolTableRecord
100
AcDbBlockTableRecord
  2
block 71
340
0
102
{BLKREFS
331
1C7
102
}
 70
     0
280
     1
281
     0
  0
BLOCK_RECORD
  5
1DC
330
1
100
AcDbSymbolTableRecord
100
AcDbBlockTableRecord
  2
block 72
340
0
102
{BLKREFS
331
1DD
102
}
 70
     0
280
     1
281
     0
  0
BLOCK_RECORD
  5
1E2
330
1
100
AcDbSymbolTableRecord
100
AcDbBlockTableRecord
  2
block 73
340
0
102
{BLKREFS
331
1E3
102
}
 70
     0
280
     1
281
     0
  0
BLOCK_RECORD
  5
1E6
330
1
100
AcDbSymbolTableRecord
100
AcDbBlockTableRecord
  2
block 74
340
0
102
{BLKREFS
331
1E7
102
}
 70
     0
280
     1
281
     0
  0
BLOCK_RECORD
  5
1EA
330
1
100
AcDbSymbolTableRecord
100
AcDbBlockTableRecord
  2
block 75
340
0
102
{BLKREFS
331
1EB
102
}
 70
     0
280
     1
281
     0
  0
BLOCK_RECORD
  5
200
330
1
100
AcDbSymbolTableRecord
100
AcDbBlockTableRecord
  2
block 76
340
0
102
{BLKREFS
331
201
102
}
 70
     0
280
     1
281
     0
  0
BLOCK_RECORD
  5
204
330
1
100
AcDbSymbolTableRecord
100
AcDbBlockTableRecord
  2
block 77
340
0
102
{BLKREFS
331
205
102
}
 70
     0
280
     1
281
     0
  0
BLOCK_RECORD
  5
208
330
1
100
AcDbSymbolTableRecord
100
AcDbBlockTableRecord
  2
block 78
340
0
102
{BLKREFS
331
209
102
}
 70
     0
280
     1
281
     0
  0
BLOCK_RECORD
  5
21E
330
1
100
AcDbSymbolTableRecord
100
AcDbBlockTableRecord
  2
block 79
340
0
102
{BLKREFS
331
21F
102
}
 70
     0
280
     1
281
     0
  0
BLOCK_RECORD
  5
222
330
1
100
AcDbSymbolTableRecord
100
AcDbBlockTableRecord
  2
block 80
340
0
102
{BLKREFS
331
223
102
}
 70
     0
280
     1
281
     0
  0
BLOCK_RECORD
  5
226
330
1
100
AcDbSymbolTableRecord
100
AcDbBlockTableRecord
  2
block 81
340
0
102
{BLKREFS
331
227
102
}
 70
     0
280
     1
281
     0
  0
BLOCK_RECORD
  5
23C
330
1
100
AcDbSymbolTableRecord
100
AcDbBlockTableRecord
  2
block 82
340
0
102
{BLKREFS
331
23D
102
}
 70
     0
280
     1
281
     0
  0
BLOCK_RECORD
  5
242
330
1
100
AcDbSymbolTableRecord
100
AcDbBlockTableRecord
  2
block 83
340
0
102
{BLKREFS
331
243
102
}
 70
     0
280
     1
281
     0
  0
BLOCK_RECORD
  5
247
330
1
100
AcDbSymbolTableRecord
100
AcDbBlockTableRecord
  2
block 84
340
0
102
{BLKREFS
331
248
102
}
 70
     0
280
     1
281
     0
  0
BLOCK_RECORD
  5
24D
330
1
100
AcDbSymbolTableRecord
100
AcDbBlockTableRecord
  2
block 85
340
0
102
{BLKREFS
331
24E
102
}
 70
     0
280
     1
281
     0
  0
BLOCK_RECORD
  5
252
330
1
100
AcDbSymbolTableRecord
100
AcDbBlockTableRecord
  2
block 86
340
0
102
{BLKREFS
331
253
102
}
 70
     0
280
     1
281
     0
  0
ENDTAB
  0
ENDSEC
  0
SECTION
  2
BLOCKS
  0
BLOCK
  5
20
330
1F
100
AcDbEntity
  8
0
100
AcDbBlockBegin
  2
*Model_Space
 70
     0
 10
0.0
 20
0.0
 30
0.0
  3
*Model_Space
  1

  0
ENDBLK
  5
21
330
1F
100
AcDbEntity
  8
0
100
AcDbBlockEnd
  0
BLOCK
  5
1C
330
1B
100
AcDbEntity
 67
     1
  8
0
100
AcDbBlockBegin
  2
*Paper_Space
 70
     0
 10
0.0
 20
0.0
 30
0.0
  3
*Paper_Space
  1

  0
ENDBLK
  5
1D
330
1B
100
AcDbEntity
 67
     1
  8
0
100
AcDbBlockEnd
  0
BLOCK
  5
24
330
23
100
AcDbEntity
  8
0
100
AcDbBlockBegin
  2
*Paper_Space0
 70
     0
 10
0.0
 20
0.0
 30
0.0
  3
*Paper_Space0
  1

  0
ENDBLK
  5
25
330
23
100
AcDbEntity
  8
0
100
AcDbBlockEnd
  0
BLOCK
  5
42
330
40
100
AcDbEntity
  8
0
100
AcDbBlockBegin
  2
block 2
 70
     0
 10
0.0
 20
0.0
 30
0.0
  3
block 2
  1

  0
SPLINE
  5
44
330
40
100
AcDbEntity
  8
0
 62
   250
370
    25
100
AcDbSpline
210
0.0
220
0.0
230
1.0
 70
     8
 71
     3
 72
    11
 73
     7
 74
     0
 42
0.0000000001
 43
0.0000000001
 12
1.0
 22
0.0
 32
0.0
 13
1.0
 23
0.0
 33
0.0
 40
0.0
 40
0.0
 40
0.0
 40
0.0
 40
1.0
 40
1.0
 40
1.0
 40
2.0
 40
2.0
 40
2.0
 40
2.0
 10
505.1581773810129
 20
354.0309839272575
 30
0.0
 10
505.1335889545132
 20
354.1202713124282
 30
0.0
 10
505.1069191547531
 20
354.2088531473352
 30
0.0
 10
505.0782385367548
 20
354.2969058195589
 30
0.0
 10
504.9530033659375
 20
354.6804076623764
 30
0.0
 10
504.7936548401339
 20
355.0424960548634
 30
0.0
 10
504.5948660548995
 20
355.3936131408373
 30
0.0
  0
ENDBLK
  5
43
330
40
100
AcDbEntity
  8
0
100
AcDbBlockEnd
  0
BLOCK
  5
47
330
45
100
AcDbEntity
  8
0
100
AcDbBlockBegin
  2
block 3
 70
     0
 10
0.0
 20
0.0
 30
0.0
  3
block 3
  1

  0
SPLINE
  5
49
330
45
100
AcDbEntity
  8
0
  6
AI-Linetype-1
 62
     6
370
    25
100
AcDbSpline
210
0.0
220
0.0
230
1.0
 70
     8
 71
     3
 72
     8
 73
     4
 74
     0
 42
0.0000000001
 43
0.0000000001
 12
1.0
 22
0.0
 32
0.0
 13
1.0
 23
0.0
 33
0.0
 40
0.0
 40
0.0
 40
0.0
 40
0.0
 40
1.0
 40
1.0
 40
1.0
 40
1.0
 10
91.81021986622203
 20
240.624330942771
 30
0.0
 10
85.90776279404716
 20
240.3155821498009
 30
0.0
 10
75.8328913882156
 20
239.7942480261544
 30
0.0
 10
69.93039903852053
 20
239.485499233184
 30
0.0
  0
ENDBLK
  5
48
330
45
100
AcDbEntity
  8
0
100
AcDbBlockEnd
  0
BLOCK
  5
4D
330
4B
100
AcDbEntity
  8
0
100
AcDbBlockBegin
  2
block 4
 70
     0
 10
0.0
 20
0.0
 30
0.0
  3
block 4
  1

  0
SPLINE
  5
4F
330
4B
100
AcDbEntity
  8
0
 62
   250
370
    25
100
AcDbSpline
210
0.0
220
0.0
230
1.0
 70
     8
 71
     3
 72
    11
 73
     7
 74
     0
 42
0.0000000001
 43
0.0000000001
 12
1.0
 22
0.0
 32
0.0
 13
1.0
 23
0.0
 33
0.0
 40
0.0
 40
0.0
 40
0.0
 40
0.0
 40
1.0
 40
1.0
 40
1.0
 40
2.0
 40
2.0
 40
2.0
 40
2.0
 10
503.6903153464256
 20
356.5867691824073
 30
0.0
 10
503.6903153464256
 20
356.5867691824073
 30
0.0
 10
503.6913736718141
 20
356.5902263786747
 30
0.0
 10
503.6913736718141
 20
356.5902263786747
 30
0.0
 10
503.0386691279975
 20
357.2666726886821
 30
0.0
 10
502.3239467164796
 20
357.7326533566787
 30
0.0
 10
501.4415150086004
 20
358.0567125902548
 30
0.0
  0
ENDBLK
  5
4E
330
4B
100
AcDbEntity
  8
0
100
AcDbBlockEnd
  0
BLOCK
  5
52
330
50
100
AcDbEntity
  8
0
100
AcDbBlockBegin
  2
block 5
 70
     0
 10
0.0
 20
0.0
 30
0.0
  3
block 5
  1

  0
SPLINE
  5
54
330
50
100
AcDbEntity
  8
0
  6
AI-Linetype-2
 62
     6
370
    25
100
AcDbSpline
210
0.0
220
0.0
230
1.0
 70
     8
 71
     3
 72
     8
 73
     4
 74
     0
 42
0.0000000001
 43
0.0000000001
 12
1.0
 22
0.0
 32
0.0
 13
1.0
 23
0.0
 33
0.0
 40
0.0
 40
0.0
 40
0.0
 40
0.0
 40
1.0
 40
1.0
 40
1.0
 40
1.0
 10
-287.616613378491
 20
313.4211691108474
 30
0.0
 10
-285.6654494170737
 20
313.4923591318931
 30
0.0
 10
-283.8708117804236
 20
314.508351503644
 30
0.0
 10
-282.8054661681208
 20
316.1444519972797
 30
0.0
  0
ENDBLK
  5
53
330
50
100
AcDbEntity
  8
0
100
AcDbBlockEnd
  0
BLOCK
  5
58
330
56
100
AcDbEntity
  8
0
100
AcDbBlockBegin
  2
block 6
 70
     0
 10
0.0
 20
0.0
 30
0.0
  3
block 6
  1

  0
SPLINE
  5
5A
330
56
100
AcDbEntity
  8
0
  6
AI-Linetype-3
 62
     6
370
    25
100
AcDbSpline
210
0.0
220
0.0
230
1.0
 70
     8
 71
     3
 72
    29
 73
    25
 74
     0
 42
0.0000000001
 43
0.0000000001
 12
1.0
 22
0.0
 32
0.0
 13
1.0
 23
0.0
 33
0.0
 40
0.0
 40
0.0
 40
0.0
 40
0.0
 40
1.0
 40
1.0
 40
1.0
 40
2.0
 40
2.0
 40
2.0
 40
3.0
 40
3.0
 40
3.0
 40
4.0
 40
4.0
 40
4.0
 40
5.0
 40
5.0
 40
5.0
 40
6.0
 40
6.0
 40
6.0
 40
7.0
 40
7.0
 40
7.0
 40
8.0
 40
8.0
 40
8.0
 40
8.0
 10
0.495152037536197
 20
192.0562589515849
 30
0.0
 10
-0.8902311718620575
 20
192.0562589515849
 30
0.0
 10
-2.275614381264162
 20
192.0562589515849
 30
0.0
 10
-3.660997590672363
 20
192.0562589515849
 30
0.0
 10
-3.742488645489663
 20
192.062220851266
 30
0.0
 10
-3.824544140515269
 20
192.0643727795511
 30
0.0
 10
-3.905894085279049
 20
192.0729804927039
 30
0.0
 10
-3.954224277962791
 20
192.0780957320758
 30
0.0
 10
-4.002342805567696
 20
192.0855040097831
 30
0.0
 10
-4.050073280531596
 20
192.0947467181656
 30
0.0
 10
-4.173368188146116
 20
192.1186295944054
 30
0.0
 10
-4.29422894736845
 20
192.1548596001583
 30
0.0
 10
-4.410644739963447
 20
192.202025634921
 30
0.0
 10
-4.642276889718249
 20
192.2958990967665
 30
0.0
 10
-4.856235005504725
 20
192.4332344545143
 30
0.0
 10
-5.037526144338066
 20
192.6051770524311
 30
0.0
 10
-5.222944752172789
 20
192.7810001767593
 30
0.0
 10
-5.374179450016652
 20
192.9930533068481
 30
0.0
 10
-5.480329486357048
 20
193.2255321169157
 30
0.0
 10
-5.586373690158347
 20
193.4577287068749
 30
0.0
 10
-5.647474342514191
 20
193.7103156992934
 30
0.0
 10
-5.658904256696618
 20
193.9654426726464
 30
0.0
 10
-5.949167632900337
 20
200.3571635713401
 30
0.0
 10
-6.219629411816914
 20
206.3135873117967
 30
0.0
 10
-6.509892788023841
 20
212.7052729329824
 30
0.0
  0
ENDBLK
  5
59
330
56
100
AcDbEntity
  8
0
100
AcDbBlockEnd
  0
BLOCK
  5
5E
330
5C
100
AcDbEntity
  8
0
100
AcDbBlockBegin
  2
block 7
 70
     0
 10
0.0
 20
0.0
 30
0.0
  3
block 7
  1

  0
SPLINE
  5
60
330
5C
100
AcDbEntity
  8
0
 62
   250
370
    25
100
AcDbSpline
210
0.0
220
0.0
230
1.0
 70
     8
 71
     3
 72
    17
 73
    13
 74
     0
 42
0.0000000001
 43
0.0000000001
 12
1.0
 22
0.0
 32
0.0
 13
1.0
 23
0.0
 33
0.0
 40
0.0
 40
0.0
 40
0.0
 40
0.0
 40
1.0
 40
1.0
 40
1.0
 40
2.0
 40
2.0
 40
2.0
 40
3.0
 40
3.0
 40
3.0
 40
4.0
 40
4.0
 40
4.0
 40
4.0
 10
-294.7517020291858
 20
353.1426961522353
 30
0.0
 10
-294.3563116645124
 20
341.8208017146154
 30
0.0
 10
-294.0012082195848
 20
329.5645470701259
 30
0.0
 10
-293.6058178549114
 20
318.2426526325001
 30
0.0
 10
-293.5605215283394
 20
316.9475798561405
 30
0.0
 10
-293.0142492409619
 20
315.7206632347184
 30
0.0
 10
-292.0820762398844
 20
314.8204869378526
 30
0.0
 10
-291.1497974062639
 20
313.9201695309299
 30
0.0
 10
-289.9043600905703
 20
313.4171827518867
 30
0.0
 10
-288.6084053763873
 20
313.4171827518867
 30
0.0
 10
-288.2786664632359
 20
313.4171827518867
 30
0.0
 10
-287.9470931194151
 20
313.4171827518867
 30
0.0
 10
-287.616613378491
 20
313.4171827518867
 30
0.0
  0
ENDBLK
  5
5F
330
5C
100
AcDbEntity
  8
0
100
AcDbBlockEnd
  0
BLOCK
  5
63
330
61
100
AcDbEntity
  8
0
100
AcDbBlockBegin
  2
block 8
 70
     0
 10
0.0
 20
0.0
 30
0.0
  3
block 8
  1

  0
SPLINE
  5
65
330
61
100
AcDbEntity
  8
0
  6
AI-Linetype-4
 62
     6
370
    25
100
AcDbSpline
210
0.0
220
0.0
230
1.0
 70
     8
 71
     3
 72
     8
 73
     4
 74
     0
 42
0.0000000001
 43
0.0000000001
 12
1.0
 22
0.0
 32
0.0
 13
1.0
 23
0.0
 33
0.0
 40
0.0
 40
0.0
 40
0.0
 40
0.0
 40
1.0
 40
1.0
 40
1.0
 40
1.0
 10
-256.3459909417394
 20
349.9118051325733
 30
0.0
 10
-245.9057521067178
 20
349.7509043962014
 30
0.0
 10
-236.4177591776113
 20
345.7435200399202
 30
0.0
 10
-227.9686537261281
 20
340.1740121345635
 30
0.0
  0
ENDBLK
  5
64
330
61
100
AcDbEntity
  8
0
100
AcDbBlockEnd
  0
BLOCK
  5
69
330
67
100
AcDbEntity
  8
0
100
AcDbBlockBegin
  2
block 9
 70
     0
 10
0.0
 20
0.0
 30
0.0
  3
block 9
  1

  0
SPLINE
  5
6B
330
67
100
AcDbEntity
  8
0
  6
AI-Linetype-5
 62
     6
370
    25
100
AcDbSpline
210
0.0
220
0.0
230
1.0
 70
     8
 71
     3
 72
    11
 73
     7
 74
     0
 42
0.0000000001
 43
0.0000000001
 12
1.0
 22
0.0
 32
0.0
 13
1.0
 23
0.0
 33
0.0
 40
0.0
 40
0.0
 40
0.0
 40
0.0
 40
1.0
 40
1.0
 40
1.0
 40
2.0
 40
2.0
 40
2.0
 40
2.0
 10
65.15957402539794
 20
237.4281499579151
 30
0.0
 10
61.20288345516794
 20
233.4707538374251
 30
0.0
 10
57.24619288493699
 20
229.5133929944439
 30
0.0
 10
53.28953759222077
 20
225.555996873954
 30
0.0
 10
53.28953759222077
 20
214.3894293256693
 30
0.0
 10
53.28953759222077
 20
203.2228264998702
 30
0.0
 10
53.28953759222077
 20
192.0562589515849
 30
0.0
  0
ENDBLK
  5
6A
330
67
100
AcDbEntity
  8
0
100
AcDbBlockEnd
  0
BLOCK
  5
6F
330
6D
100
AcDbEntity
  8
0
100
AcDbBlockBegin
  2
block 10
 70
     0
 10
0.0
 20
0.0
 30
0.0
  3
block 10
  1

  0
SPLINE
  5
71
330
6D
100
AcDbEntity
  8
0
  6
AI-Linetype-6
 62
     6
370
    25
100
AcDbSpline
210
0.0
220
0.0
230
1.0
 70
     8
 71
     3
 72
    11
 73
     7
 74
     0
 42
0.0000000001
 43
0.0000000001
 12
1.0
 22
0.0
 32
0.0
 13
1.0
 23
0.0
 33
0.0
 40
0.0
 40
0.0
 40
0.0
 40
0.0
 40
1.0
 40
1.0
 40
1.0
 40
2.0
 40
2.0
 40
2.0
 40
2.0
 10
-4.57994152441215
 20
237.4279382928362
 30
0.0
 10
-0.6233215092036177
 20
233.4706480048825
 30
0.0
 10
3.333263228490492
 20
229.5133224394215
 30
0.0
 10
7.289883243695815
 20
225.555996873954
 30
0.0
 10
7.289883243695815
 20
214.3894293256693
 30
0.0
 10
7.289883243695815
 20
203.2228264998702
 30
0.0
 10
7.289883243695815
 20
192.0562589515849
 30
0.0
  0
ENDBLK
  5
70
330
6D
100
AcDbEntity
  8
0
100
AcDbBlockEnd
  0
BLOCK
  5
75
330
73
100
AcDbEntity
  8
0
100
AcDbBlockBegin
  2
block 11
 70
     0
 10
0.0
 20
0.0
 30
0.0
  3
block 11
  1

  0
SPLINE
  5
77
330
73
100
AcDbEntity
  8
0
  6
AI-Linetype-7
 62
     6
370
    25
100
AcDbSpline
210
0.0
220
0.0
230
1.0
 70
    24
 71
     3
 72
    11
 73
     7
 74
     0
 42
0.0000000001
 43
0.0000000001
 12
1.0
 22
0.0
 32
0.0
 13
1.0
 23
0.0
 33
0.0
 40
0.0
 40
0.0
 40
0.0
 40
0.0
 40
1.0
 40
1.0
 40
1.0
 40
2.0
 40
2.0
 40
2.0
 40
2.0
 10
52.33795716230056
 20
225.555996873954
 30
0.0
 10
45.6099004555433
 20
225.555996873954
 30
0.0
 10
37.01778476347035
 20
225.555996873954
 30
0.0
 10
30.28969277920573
 20
225.555996873954
 30
0.0
 10
23.5616007949286
 20
225.555996873954
 30
0.0
 10
14.54355225228133
 20
225.555996873954
 30
0.0
 10
7.81546026801029
 20
225.555996873954
 30
0.0
  0
ENDBLK
  5
76
330
73
100
AcDbEntity
  8
0
100
AcDbBlockEnd
  0
BLOCK
  5
7B
330
79
100
AcDbEntity
  8
0
100
AcDbBlockBegin
  2
block 12
 70
     0
 10
0.0
 20
0.0
 30
0.0
  3
block 12
  1

  0
SPLINE
  5
7D
330
79
100
AcDbEntity
  8
0
 62
   250
370
    25
100
AcDbSpline
210
0.0
220
0.0
230
1.0
 70
    24
 71
     3
 72
     8
 73
     4
 74
     0
 42
0.0000000001
 43
0.0000000001
 12
1.0
 22
0.0
 32
0.0
 13
1.0
 23
0.0
 33
0.0
 40
0.0
 40
0.0
 40
0.0
 40
0.0
 40
1.0
 40
1.0
 40
1.0
 40
1.0
 10
-288.607840936179
 20
358.4490338112981
 30
0.0
 10
-288.5776081076181
 20
358.449174921351
 30
0.0
 10
-288.5473752790568
 20
358.4493160314
 30
0.0
 10
-288.5171424504923
 20
358.4494571414564
 30
0.0
  0
ENDBLK
  5
7C
330
79
100
AcDbEntity
  8
0
100
AcDbBlockEnd
  0
BLOCK
  5
80
330
7E
100
AcDbEntity
  8
0
100
AcDbBlockBegin
  2
block 13
 70
     0
 10
0.0
 20
0.0
 30
0.0
  3
block 13
  1

  0
SPLINE
  5
82
330
7E
100
AcDbEntity
  8
0
  6
AI-Linetype-8
 62
     6
370
    25
100
AcDbSpline
210
0.0
220
0.0
230
1.0
 70
     8
 71
     3
 72
     8
 73
     4
 74
     0
 42
0.0000000001
 43
0.0000000001
 12
1.0
 22
0.0
 32
0.0
 13
1.0
 23
0.0
 33
0.0
 40
0.0
 40
0.0
 40
0.0
 40
0.0
 40
1.0
 40
1.0
 40
1.0
 40
1.0
 10
-227.9686537261281
 20
340.1740121345635
 30
0.0
 10
-219.316878962987
 20
334.1114657088128
 30
0.0
 10
-205.5440793160989
 20
320.9004604549758
 30
0.0
 10
-198.0369187367704
 20
313.6423943942902
 30
0.0
  0
ENDBLK
  5
81
330
7E
100
AcDbEntity
  8
0
100
AcDbBlockEnd
  0
BLOCK
  5
86
330
84
100
AcDbEntity
  8
0
100
AcDbBlockBegin
  2
block 14
 70
     0
 10
0.0
 20
0.0
 30
0.0
  3
block 14
  1

  0
SPLINE
  5
88
330
84
100
AcDbEntity
  8
0
  6
AI-Linetype-9
 62
     6
370
    25
100
AcDbSpline
210
0.0
220
0.0
230
1.0
 70
     8
 71
     3
 72
     8
 73
     4
 74
     0
 42
0.0000000001
 43
0.0000000001
 12
1.0
 22
0.0
 32
0.0
 13
1.0
 23
0.0
 33
0.0
 40
0.0
 40
0.0
 40
0.0
 40
0.0
 40
1.0
 40
1.0
 40
1.0
 40
1.0
 10
-283.5896526300581
 20
355.7953358190727
 30
0.0
 10
-284.5847607141581
 20
357.6706531277401
 30
0.0
 10
-286.3568181150421
 20
358.3152967598627
 30
0.0
 10
-288.4776316360341
 20
358.4115690925949
 30
0.0
  0
ENDBLK
  5
87
330
84
100
AcDbEntity
  8
0
100
AcDbBlockEnd
  0
BLOCK
  5
8C
330
8A
100
AcDbEntity
  8
0
100
AcDbBlockBegin
  2
block 15
 70
     0
 10
0.0
 20
0.0
 30
0.0
  3
block 15
  1

  0
SPLINE
  5
8E
330
8A
100
AcDbEntity
  8
0
 62
   250
370
    25
100
AcDbSpline
210
0.0
220
0.0
230
1.0
 70
     8
 71
     3
 72
    14
 73
    10
 74
     0
 42
0.0000000001
 43
0.0000000001
 12
1.0
 22
0.0
 32
0.0
 13
1.0
 23
0.0
 33
0.0
 40
0.0
 40
0.0
 40
0.0
 40
0.0
 40
1.0
 40
1.0
 40
1.0
 40
2.0
 40
2.0
 40
2.0
 40
3.0
 40
3.0
 40
3.0
 40
3.0
 10
499.3537212396888
 20
358.5116866742222
 30
0.0
 10
347.5584284461095
 20
359.2156494442989
 30
0.0
 10
182.0865377833468
 20
359.4983634327389
 30
0.0
 10
30.28969277920573
 20
359.3598991945826
 30
0.0
 10
-71.50685152510415
 20
359.2659904552198
 30
0.0
 10
-173.3023375040192
 20
358.9832764667762
 30
0.0
 10
-275.0978587604522
 20
358.5116866742222
 30
0.0
 10
-279.114450547599
 20
358.4930954249247
 30
0.0
 10
-284.412145216001
 20
358.4390149976346
 30
0.0
 10
-288.4287370031481
 20
358.4194007004586
 30
0.0
  0
ENDBLK
  5
8D
330
8A
100
AcDbEntity
  8
0
100
AcDbBlockEnd
  0
BLOCK
  5
91
330
8F
100
AcDbEntity
  8
0
100
AcDbBlockBegin
  2
block 16
 70
     0
 10
0.0
 20
0.0
 30
0.0
  3
block 16
  1

  0
SPLINE
  5
93
330
8F
100
AcDbEntity
  8
0
 62
   250
370
    25
100
AcDbSpline
210
0.0
220
0.0
230
1.0
 70
     8
 71
     3
 72
     8
 73
     4
 74
     0
 42
0.0000000001
 43
0.0000000001
 12
1.0
 22
0.0
 32
0.0
 13
1.0
 23
0.0
 33
0.0
 40
0.0
 40
0.0
 40
0.0
 40
0.0
 40
1.0
 40
1.0
 40
1.0
 40
1.0
 10
499.3844479534331
 20
358.428713963862
 30
0.0
 10
499.390762628244
 20
358.4351697487257
 30
0.0
 10
499.3980297959006
 20
358.4405319306909
 30
0.0
 10
499.403462532885
 20
358.4479754859097
 30
0.0
  0
ENDBLK
  5
92
330
8F
100
AcDbEntity
  8
0
100
AcDbBlockEnd
  0
BLOCK
  5
96
330
94
100
AcDbEntity
  8
0
100
AcDbBlockBegin
  2
block 17
 70
     0
 10
0.0
 20
0.0
 30
0.0
  3
block 17
  1

  0
SPLINE
  5
98
330
94
100
AcDbEntity
  8
0
  6
AI-Linetype-10
 62
     6
370
    25
100
AcDbSpline
210
0.0
220
0.0
230
1.0
 70
     8
 71
     3
 72
    41
 73
    37
 74
     0
 42
0.0000000001
 43
0.0000000001
 12
1.0
 22
0.0
 32
0.0
 13
1.0
 23
0.0
 33
0.0
 40
0.0
 40
0.0
 40
0.0
 40
0.0
 40
1.0
 40
1.0
 40
1.0
 40
2.0
 40
2.0
 40
2.0
 40
3.0
 40
3.0
 40
3.0
 40
4.0
 40
4.0
 40
4.0
 40
5.0
 40
5.0
 40
5.0
 40
6.0
 40
6.0
 40
6.0
 40
7.0
 40
7.0
 40
7.0
 40
8.0
 40
8.0
 40
8.0
 40
9.0
 40
9.0
 40
9.0
 40
10.0
 40
10.0
 40
10.0
 40
11.0
 40
11.0
 40
11.0
 40
12.0
 40
12.0
 40
12.0
 40
12.0
 10
157.6555195491657
 20
254.41762378677
 30
0.0
 10
165.5158433102188
 20
257.0124612487086
 30
0.0
 10
173.2246501533268
 20
259.9390484420256
 30
0.0
 10
180.8266014098386
 20
263.2143538504476
 30
0.0
 10
180.8367260560455
 20
263.2187282620461
 30
0.0
 10
180.8468154247385
 20
263.2230673961308
 30
0.0
 10
180.8569047934316
 20
263.2274065302213
 30
0.0
 10
180.8888662201229
 20
263.2411647602533
 30
0.0
 10
180.9207923693056
 20
263.2549582677997
 30
0.0
 10
180.9527185184895
 20
263.2687164978381
 30
0.0
 10
180.962807887182
 20
263.2730556319221
 30
0.0
 10
180.9728972558686
 20
263.2774300435271
 30
0.0
 10
180.9829866245617
 20
263.2817691776111
 30
0.0
 10
181.0149127737444
 20
263.2955626851576
 30
0.0
 10
181.0468389229283
 20
263.3093561927039
 30
0.0
 10
181.0787650721045
 20
263.3231497002507
 30
0.0
 10
181.0888544407983
 20
263.3274888343408
 30
0.0
 10
181.0989438094907
 20
263.3318632459394
 30
0.0
 10
181.1090331781831
 20
263.3362023800305
 30
0.0
 10
181.1409593273607
 20
263.3499958875763
 30
0.0
 10
181.1728854765433
 20
263.3637893951233
 30
0.0
 10
181.2047763482135
 20
263.3776181801835
 30
0.0
 10
181.2148657169059
 20
263.3819573142675
 30
0.0
 10
181.2249550855983
 20
263.3863317258725
 30
0.0
 10
181.2350444542856
 20
263.3907061374709
 30
0.0
 10
181.2669353259609
 20
263.4044996450174
 30
0.0
 10
181.2988614751372
 20
263.4183284300782
 30
0.0
 10
181.3307876243211
 20
263.4321219376246
 30
0.0
 10
189.0111255145123
 20
266.7575919693966
 30
0.0
 10
196.2124794217067
 20
270.9986841830174
 30
0.0
 10
203.8530807451071
 20
274.4144703135072
 30
0.0
 10
210.4779314439258
 20
277.3761577744541
 30
0.0
 10
241.6899238346168
 20
298.4083095680388
 30
0.0
 10
248.3609358020846
 20
303.9553599388101
 30
0.0
 10
255.0319477695512
 20
309.5024103095815
 30
0.0
 10
261.1597253303364
 20
316.131716923504
 30
0.0
 10
263.481390822782
 20
318.2712626954669
 30
0.0
  0
ENDBLK
  5
97
330
94
100
AcDbEntity
  8
0
100
AcDbBlockEnd
  0
BLOCK
  5
9C
330
9A
100
AcDbEntity
  8
0
100
AcDbBlockBegin
  2
block 18
 70
     0
 10
0.0
 20
0.0
 30
0.0
  3
block 18
  1

  0
SPLINE
  5
9E
330
9A
100
AcDbEntity
  8
0
  6
AI-Linetype-11
 62
     6
370
    25
100
AcDbSpline
210
0.0
220
0.0
230
1.0
 70
     8
 71
     3
 72
    20
 73
    16
 74
     0
 42
0.0000000001
 43
0.0000000001
 12
1.0
 22
0.0
 32
0.0
 13
1.0
 23
0.0
 33
0.0
 40
0.0
 40
0.0
 40
0.0
 40
0.0
 40
1.0
 40
1.0
 40
1.0
 40
2.0
 40
2.0
 40
2.0
 40
3.0
 40
3.0
 40
3.0
 40
4.0
 40
4.0
 40
4.0
 40
5.0
 40
5.0
 40
5.0
 40
5.0
 10
499.1048736636387
 20
358.4137562983913
 30
0.0
 10
496.9634227975943
 20
358.3362516025363
 30
0.0
 10
495.0264403963618
 20
357.1223876608853
 30
0.0
 10
494.0229362641824
 20
355.2290435431211
 30
0.0
 10
492.2893992798898
 20
351.9618166851632
 30
0.0
 10
488.8942914376419
 20
349.9186489700784
 30
0.0
 10
485.195620596817
 20
349.9169203719448
 30
0.0
 10
333.5630276927703
 20
349.9169203719448
 30
0.0
 10
181.9241201139154
 20
349.9169203719448
 30
0.0
 10
30.28969277920573
 20
349.9169203719448
 30
0.0
 10
-71.3460213437579
 20
349.9169203719448
 30
0.0
 10
-172.981770744226
 20
349.9169203719448
 30
0.0
 10
-274.6175201446973
 20
349.9169203719448
 30
0.0
 10
-278.3170376458293
 20
349.9185078600278
 30
0.0
 10
-280.9337471839232
 20
350.897476481981
 30
0.0
 10
-282.6679897184729
 20
354.1653383351684
 30
0.0
  0
ENDBLK
  5
9D
330
9A
100
AcDbEntity
  8
0
100
AcDbBlockEnd
  0
BLOCK
  5
A2
330
A0
100
AcDbEntity
  8
0
100
AcDbBlockBegin
  2
block 19
 70
     0
 10
0.0
 20
0.0
 30
0.0
  3
block 19
  1

  0
SPLINE
  5
A4
330
A0
100
AcDbEntity
  8
0
  6
AI-Linetype-12
 62
     6
370
    25
100
AcDbSpline
210
0.0
220
0.0
230
1.0
 70
    24
 71
     3
 72
    17
 73
    13
 74
     0
 42
0.0000000001
 43
0.0000000001
 12
1.0
 22
0.0
 32
0.0
 13
1.0
 23
0.0
 33
0.0
 40
0.0
 40
0.0
 40
0.0
 40
0.0
 40
1.0
 40
1.0
 40
1.0
 40
2.0
 40
2.0
 40
2.0
 40
3.0
 40
3.0
 40
3.0
 40
4.0
 40
4.0
 40
4.0
 40
4.0
 10
-278.5612036766398
 20
318.417135211346
 30
0.0
 10
-278.5460696236009
 20
318.417135211346
 30
0.0
 10
-269.459806647518
 20
318.417135211346
 30
0.0
 10
-269.4446725944793
 20
318.417135211346
 30
0.0
 10
-269.3837130521766
 20
318.417135211346
 30
0.0
 10
-269.3227535098715
 20
318.417135211346
 30
0.0
 10
-269.2617586900518
 20
318.417135211346
 30
0.0
 10
-267.6478124745188
 20
318.417135211346
 30
0.0
 10
-266.0338662589854
 20
318.417135211346
 30
0.0
 10
-264.4198847659348
 20
318.417135211346
 30
0.0
 10
-264.3474953094504
 20
318.417135211346
 30
0.0
 10
-256.2059392155011
 20
318.417135211346
 30
0.0
 10
-256.1335144814961
 20
318.417135211346
 30
0.0
  0
ENDBLK
  5
A3
330
A0
100
AcDbEntity
  8
0
100
AcDbBlockEnd
  0
BLOCK
  5
A8
330
A6
100
AcDbEntity
  8
0
100
AcDbBlockBegin
  2
block 20
 70
     0
 10
0.0
 20
0.0
 30
0.0
  3
block 20
  1

  0
SPLINE
  5
AA
330
A6
100
AcDbEntity
  8
0
  6
AI-Linetype-13
 62
     6
370
    25
100
AcDbSpline
210
0.0
220
0.0
230
1.0
 70
     8
 71
     3
 72
     8
 73
     4
 74
     0
 42
0.0000000001
 43
0.0000000001
 12
1.0
 22
0.0
 32
0.0
 13
1.0
 23
0.0
 33
0.0
 40
0.0
 40
0.0
 40
0.0
 40
0.0
 40
1.0
 40
1.0
 40
1.0
 40
1.0
 10
-282.8067008810711
 20
316.146074762877
 30
0.0
 10
-281.8839116984302
 20
317.562608016175
 30
0.0
 10
-280.3078535317584
 20
318.4168882687524
 30
0.0
 10
-278.6172845581896
 20
318.417135211346
 30
0.0
  0
ENDBLK
  5
A9
330
A6
100
AcDbEntity
  8
0
100
AcDbBlockEnd
  0
BLOCK
  5
AE
330
AC
100
AcDbEntity
  8
0
100
AcDbBlockBegin
  2
block 21
 70
     0
 10
0.0
 20
0.0
 30
0.0
  3
block 21
  1

  0
SPLINE
  5
B0
330
AC
100
AcDbEntity
  8
0
 62
   250
370
    25
100
AcDbSpline
210
0.0
220
0.0
230
1.0
 70
     8
 71
     3
 72
    14
 73
    10
 74
     0
 42
0.0000000001
 43
0.0000000001
 12
1.0
 22
0.0
 32
0.0
 13
1.0
 23
0.0
 33
0.0
 40
0.0
 40
0.0
 40
0.0
 40
0.0
 40
1.0
 40
1.0
 40
1.0
 40
2.0
 40
2.0
 40
2.0
 40
3.0
 40
3.0
 40
3.0
 40
3.0
 10
-294.7517020291858
 20
353.1426961522353
 30
0.0
 10
-294.7408718327232
 20
353.232301035025
 30
0.0
 10
-294.7265844399964
 20
353.3214120326262
 30
0.0
 10
-294.7155778559687
 20
353.4110169154193
 30
0.0
 10
-294.5086752427629
 20
354.6897914808167
 30
0.0
 10
-294.0198347463986
 20
355.671141334885
 30
0.0
 10
-293.1220220428936
 20
356.6054309867307
 30
0.0
 10
-291.9977982615483
 20
357.7753038697849
 30
0.0
 10
-290.4476690668646
 20
358.4400027679966
 30
0.0
 10
-288.8251856932067
 20
358.4479754859097
 30
0.0
  0
ENDBLK
  5
AF
330
AC
100
AcDbEntity
  8
0
100
AcDbBlockEnd
  0
BLOCK
  5
B3
330
B1
100
AcDbEntity
  8
0
100
AcDbBlockBegin
  2
block 22
 70
     0
 10
0.0
 20
0.0
 30
0.0
  3
block 22
  1

  0
SPLINE
  5
B5
330
B1
100
AcDbEntity
  8
0
 62
   250
370
    25
100
AcDbSpline
210
0.0
220
0.0
230
1.0
 70
     8
 71
     3
 72
     8
 73
     4
 74
     0
 42
0.0000000001
 43
0.0000000001
 12
1.0
 22
0.0
 32
0.0
 13
1.0
 23
0.0
 33
0.0
 40
0.0
 40
0.0
 40
0.0
 40
0.0
 40
1.0
 40
1.0
 40
1.0
 40
1.0
 10
264.9815670591881
 20
234.4782443285604
 30
0.0
 10
268.4686786551044
 20
235.2194248747526
 30
0.0
 10
271.9557902510219
 20
235.9606406984591
 30
0.0
 10
275.442901846933
 20
236.7018565221657
 30
0.0
  0
ENDBLK
  5
B4
330
B1
100
AcDbEntity
  8
0
100
AcDbBlockEnd
  0
BLOCK
  5
B8
330
B6
100
AcDbEntity
  8
0
100
AcDbBlockBegin
  2
block 23
 70
     0
 10
0.0
 20
0.0
 30
0.0
  3
block 23
  1

  0
SPLINE
  5
BA
330
B6
100
AcDbEntity
  8
0
  6
AI-Linetype-14
 62
     6
370
    25
100
AcDbSpline
210
0.0
220
0.0
230
1.0
 70
     8
 71
     3
 72
     8
 73
     4
 74
     0
 42
0.0000000001
 43
0.0000000001
 12
1.0
 22
0.0
 32
0.0
 13
1.0
 23
0.0
 33
0.0
 40
0.0
 40
0.0
 40
0.0
 40
0.0
 40
1.0
 40
1.0
 40
1.0
 40
1.0
 10
299.1730264546577
 20
345.9600886916639
 30
0.0
 10
304.2929224580018
 20
348.2240230825264
 30
0.0
 10
309.3946858197065
 20
349.5267158016715
 30
0.0
 10
314.9998592906078
 20
349.8441781403306
 30
0.0
  0
ENDBLK
  5
B9
330
B6
100
AcDbEntity
  8
0
100
AcDbBlockEnd
  0
BLOCK
  5
BE
330
BC
100
AcDbEntity
  8
0
100
AcDbBlockBegin
  2
block 24
 70
     0
 10
0.0
 20
0.0
 30
0.0
  3
block 24
  1

  0
SPLINE
  5
C0
330
BC
100
AcDbEntity
  8
0
  6
AI-Linetype-15
 62
     6
370
    25
100
AcDbSpline
210
0.0
220
0.0
230
1.0
 70
     8
 71
     3
 72
     8
 73
     4
 74
     0
 42
0.0000000001
 43
0.0000000001
 12
1.0
 22
0.0
 32
0.0
 13
1.0
 23
0.0
 33
0.0
 40
0.0
 40
0.0
 40
0.0
 40
0.0
 40
1.0
 40
1.0
 40
1.0
 40
1.0
 10
-9.1474622306397
 20
239.4686365820144
 30
0.0
 10
-9.170322059004235
 20
239.4699065724823
 30
0.0
 10
-9.193181887372619
 20
239.4710707304075
 30
0.0
 10
-9.216076993245482
 20
239.4721996108174
 30
0.0
  0
ENDBLK
  5
BF
330
BC
100
AcDbEntity
  8
0
100
AcDbBlockEnd
  0
BLOCK
  5
C4
330
C2
100
AcDbEntity
  8
0
100
AcDbBlockBegin
  2
block 25
 70
     0
 10
0.0
 20
0.0
 30
0.0
  3
block 25
  1

  0
SPLINE
  5
C6
330
C2
100
AcDbEntity
  8
0
 62
   250
370
    25
100
AcDbSpline
210
0.0
220
0.0
230
1.0
 70
     8
 71
     3
 72
    14
 73
    10
 74
     0
 42
0.0000000001
 43
0.0000000001
 12
1.0
 22
0.0
 32
0.0
 13
1.0
 23
0.0
 33
0.0
 40
0.0
 40
0.0
 40
0.0
 40
0.0
 40
1.0
 40
1.0
 40
1.0
 40
2.0
 40
2.0
 40
2.0
 40
3.0
 40
3.0
 40
3.0
 40
3.0
 10
-288.2061358966977
 20
358.4204237483339
 30
0.0
 10
-288.3992097248432
 20
358.4382741698612
 30
0.0
 10
-288.5920013328837
 20
358.4467407729659
 30
0.0
 10
-288.7858865438273
 20
358.4458235576195
 30
0.0
 10
-288.7771024431101
 20
358.4374627870686
 30
0.0
 10
-288.7671541844715
 20
358.4305836720469
 30
0.0
 10
-288.7581936961922
 20
358.4225051215944
 30
0.0
 10
-288.7388616191191
 20
358.4267737006509
 30
0.0
 10
-288.7198823171755
 20
358.4249745474962
 30
0.0
 10
-288.7006207951313
 20
358.4247981599302
 30
0.0
  0
ENDBLK
  5
C5
330
C2
100
AcDbEntity
  8
0
100
AcDbBlockEnd
  0
BLOCK
  5
C9
330
C7
100
AcDbEntity
  8
0
100
AcDbBlockBegin
  2
block 26
 70
     0
 10
0.0
 20
0.0
 30
0.0
  3
block 26
  1

  0
SPLINE
  5
CB
330
C7
100
AcDbEntity
  8
0
 62
   250
370
    25
100
AcDbSpline
210
0.0
220
0.0
230
1.0
 70
     8
 71
     3
 72
     8
 73
     4
 74
     0
 42
0.0000000001
 43
0.0000000001
 12
1.0
 22
0.0
 32
0.0
 13
1.0
 23
0.0
 33
0.0
 40
0.0
 40
0.0
 40
0.0
 40
0.0
 40
1.0
 40
1.0
 40
1.0
 40
1.0
 10
-117.5786836650344
 20
212.2420871149671
 30
0.0
 10
-121.3802237335021
 20
212.1367837389392
 30
0.0
 10
-151.2770692625924
 20
211.2945683957743
 30
0.0
 10
-155.1195665235449
 20
210.0771414253284
 30
0.0
  0
ENDBLK
  5
CA
330
C7
100
AcDbEntity
  8
0
100
AcDbBlockEnd
  0
BLOCK
  5
CE
330
CC
100
AcDbEntity
  8
0
100
AcDbBlockBegin
  2
block 27
 70
     0
 10
0.0
 20
0.0
 30
0.0
  3
block 27
  1

  0
SPLINE
  5
D0
330
CC
100
AcDbEntity
  8
0
 62
   250
370
    25
100
AcDbSpline
210
0.0
220
0.0
230
1.0
 70
     8
 71
     3
 72
    11
 73
     7
 74
     0
 42
0.0000000001
 43
0.0000000001
 12
1.0
 22
0.0
 32
0.0
 13
1.0
 23
0.0
 33
0.0
 40
0.0
 40
0.0
 40
0.0
 40
0.0
 40
1.0
 40
1.0
 40
1.0
 40
2.0
 40
2.0
 40
2.0
 40
2.0
 10
293.9652625806564
 20
312.6389539863279
 30
0.0
 10
283.5861596754955
 20
283.1497753963931
 30
0.0
 10
270.4093651951921
 20
254.3149309466923
 30
0.0
 10
254.7664693115422
 20
227.247659450426
 30
0.0
 10
254.9939387147677
 20
227.2695667859451
 30
0.0
 10
255.2214081179997
 20
227.2913330114071
 30
0.0
 10
255.4489127987389
 20
227.3129228493041
 30
0.0
  0
ENDBLK
  5
CF
330
CC
100
AcDbEntity
  8
0
100
AcDbBlockEnd
  0
BLOCK
  5
D3
330
D1
100
AcDbEntity
  8
0
100
AcDbBlockBegin
  2
block 28
 70
     0
 10
0.0
 20
0.0
 30
0.0
  3
block 28
  1

  0
SPLINE
  5
D5
330
D1
100
AcDbEntity
  8
0
 62
   250
370
    25
100
AcDbSpline
210
0.0
220
0.0
230
1.0
 70
     8
 71
     3
 72
     8
 73
     4
 74
     0
 42
0.0000000001
 43
0.0000000001
 12
1.0
 22
0.0
 32
0.0
 13
1.0
 23
0.0
 33
0.0
 40
0.0
 40
0.0
 40
0.0
 40
0.0
 40
1.0
 40
1.0
 40
1.0
 40
1.0
 10
499.3448665839492
 20
358.4333000405409
 30
0.0
 10
499.2165269919891
 20
358.4335469831332
 30
0.0
 10
499.0885048976473
 20
358.4296664567145
 30
0.0
 10
498.9603769707699
 20
358.4216937387944
 30
0.0
  0
ENDBLK
  5
D4
330
D1
100
AcDbEntity
  8
0
100
AcDbBlockEnd
  0
BLOCK
  5
D8
330
D6
100
AcDbEntity
  8
0
100
AcDbBlockBegin
  2
block 29
 70
     0
 10
0.0
 20
0.0
 30
0.0
  3
block 29
  1

  0
SPLINE
  5
DA
330
D6
100
AcDbEntity
  8
0
 62
   250
370
    25
100
AcDbSpline
210
0.0
220
0.0
230
1.0
 70
     8
 71
     3
 72
     8
 73
     4
 74
     0
 42
0.0000000001
 43
0.0000000001
 12
1.0
 22
0.0
 32
0.0
 13
1.0
 23
0.0
 33
0.0
 40
0.0
 40
0.0
 40
0.0
 40
0.0
 40
1.0
 40
1.0
 40
1.0
 40
1.0
 10
505.3506162139233
 20
352.962780836407
 30
0.0
 10
505.3459948597315
 20
353.0153090531277
 30
0.0
 10
505.3407032327959
 20
353.0677314373052
 30
0.0
 10
505.3347060556001
 20
353.1201185439766
 30
0.0
  0
ENDBLK
  5
D9
330
D6
100
AcDbEntity
  8
0
100
AcDbBlockEnd
  0
BLOCK
  5
DD
330
DB
100
AcDbEntity
  8
0
100
AcDbBlockBegin
  2
block 30
 70
     0
 10
0.0
 20
0.0
 30
0.0
  3
block 30
  1

  0
SPLINE
  5
DF
330
DB
100
AcDbEntity
  8
0
 62
   250
370
    25
100
AcDbSpline
210
0.0
220
0.0
230
1.0
 70
     8
 71
     3
 72
     8
 73
     4
 74
     0
 42
0.0000000001
 43
0.0000000001
 12
1.0
 22
0.0
 32
0.0
 13
1.0
 23
0.0
 33
0.0
 40
0.0
 40
0.0
 40
0.0
 40
0.0
 40
1.0
 40
1.0
 40
1.0
 40
1.0
 10
505.2349059715811
 20
353.7202595935667
 30
0.0
 10
505.213986406428
 20
353.815967486088
 30
0.0
 10
505.1907032479126
 20
353.9110403833755
 30
0.0
 10
505.165091773537
 20
354.0056546729879
 30
0.0
  0
ENDBLK
  5
DE
330
DB
100
AcDbEntity
  8
0
100
AcDbBlockEnd
  0
BLOCK
  5
E2
330
E0
100
AcDbEntity
  8
0
100
AcDbBlockBegin
  2
block 31
 70
     0
 10
0.0
 20
0.0
 30
0.0
  3
block 31
  1

  0
SPLINE
  5
E4
330
E0
100
AcDbEntity
  8
0
 62
   250
370
    25
100
AcDbSpline
210
0.0
220
0.0
230
1.0
 70
     8
 71
     3
 72
     8
 73
     4
 74
     0
 42
0.0000000001
 43
0.0000000001
 12
1.0
 22
0.0
 32
0.0
 13
1.0
 23
0.0
 33
0.0
 40
0.0
 40
0.0
 40
0.0
 40
0.0
 40
1.0
 40
1.0
 40
1.0
 40
1.0
 10
501.7253931549722
 20
357.9485517356779
 30
0.0
 10
501.2583188840742
 20
358.1475521859879
 30
0.0
 10
500.7849299383616
 20
358.2824181178349
 30
0.0
 10
500.2830720397342
 20
358.3593936510027
 30
0.0
  0
ENDBLK
  5
E3
330
E0
100
AcDbEntity
  8
0
100
AcDbBlockEnd
  0
BLOCK
  5
E7
330
E5
100
AcDbEntity
  8
0
100
AcDbBlockBegin
  2
block 32
 70
     0
 10
0.0
 20
0.0
 30
0.0
  3
block 32
  1

  0
SPLINE
  5
E9
330
E5
100
AcDbEntity
  8
0
  6
AI-Linetype-16
 62
     6
370
    25
100
AcDbSpline
210
0.0
220
0.0
230
1.0
 70
     8
 71
     3
 72
     8
 73
     4
 74
     0
 42
0.0000000001
 43
0.0000000001
 12
1.0
 22
0.0
 32
0.0
 13
1.0
 23
0.0
 33
0.0
 40
0.0
 40
0.0
 40
0.0
 40
0.0
 40
1.0
 40
1.0
 40
1.0
 40
1.0
 10
69.79937835558302
 20
239.4723759983828
 30
0.0
 10
69.7757776994448
 20
239.4712471179716
 30
0.0
 10
69.75221232082166
 20
239.4700124050181
 30
0.0
 10
69.72861166468985
 20
239.4687424145573
 30
0.0
  0
ENDBLK
  5
E8
330
E5
100
AcDbEntity
  8
0
100
AcDbBlockEnd
  0
BLOCK
  5
ED
330
EB
100
AcDbEntity
  8
0
100
AcDbBlockBegin
  2
block 33
 70
     0
 10
0.0
 20
0.0
 30
0.0
  3
block 33
  1

  0
SPLINE
  5
EF
330
EB
100
AcDbEntity
  8
0
  6
AI-Linetype-17
 62
     6
370
    25
100
AcDbSpline
210
0.0
220
0.0
230
1.0
 70
     8
 71
     3
 72
     8
 73
     4
 74
     0
 42
0.0000000001
 43
0.0000000001
 12
1.0
 22
0.0
 32
0.0
 13
1.0
 23
0.0
 33
0.0
 40
0.0
 40
0.0
 40
0.0
 40
0.0
 40
1.0
 40
1.0
 40
1.0
 40
1.0
 10
153.7515760680405
 20
252.9089965694191
 30
0.0
 10
136.4795999158186
 20
247.9166287752383
 30
0.0
 10
112.5599573014492
 20
242.8608163906977
 30
0.0
 10
94.67641018545446
 20
241.0506919258817
 30
0.0
  0
ENDBLK
  5
EE
330
EB
100
AcDbEntity
  8
0
100
AcDbBlockEnd
  0
BLOCK
  5
F3
330
F1
100
AcDbEntity
  8
0
100
AcDbBlockBegin
  2
block 34
 70
     0
 10
0.0
 20
0.0
 30
0.0
  3
block 34
  1

  0
SPLINE
  5
F5
330
F1
100
AcDbEntity
  8
0
 62
   250
370
    25
100
AcDbSpline
210
0.0
220
0.0
230
1.0
 70
     8
 71
     3
 72
    17
 73
    13
 74
     0
 42
0.0000000001
 43
0.0000000001
 12
1.0
 22
0.0
 32
0.0
 13
1.0
 23
0.0
 33
0.0
 40
0.0
 40
0.0
 40
0.0
 40
0.0
 40
1.0
 40
1.0
 40
1.0
 40
2.0
 40
2.0
 40
2.0
 40
3.0
 40
3.0
 40
3.0
 40
4.0
 40
4.0
 40
4.0
 40
4.0
 10
213.3907796898986
 20
210.4499894592519
 30
0.0
 10
212.5960478791111
 20
210.5454151316659
 30
0.0
 10
211.7999755228346
 20
210.62517758835
 30
0.0
 10
211.0028801186764
 20
210.6974964898123
 30
0.0
 10
209.4283036075513
 20
210.8404056945976
 30
0.0
 10
207.8522454408795
 20
210.9582325877108
 30
0.0
 10
206.2744939535885
 20
211.0593026621909
 30
0.0
 10
203.1193084766216
 20
211.2614428111578
 30
0.0
 10
199.9628882867083
 20
211.4338440167339
 30
0.0
 10
196.8044572785531
 20
211.5765415564468
 30
0.0
 10
190.4875599847367
 20
211.8619366358719
 30
0.0
 10
184.1688635377584
 20
212.0751186463773
 30
0.0
 10
177.8481915500598
 20
212.250765383142
 30
0.0
  0
ENDBLK
  5
F4
330
F1
100
AcDbEntity
  8
0
100
AcDbBlockEnd
  0
BLOCK
  5
F8
330
F6
100
AcDbEntity
  8
0
100
AcDbBlockBegin
  2
block 35
 70
     0
 10
0.0
 20
0.0
 30
0.0
  3
block 35
  1

  0
POLYLINE
  5
FA
330
F6
100
AcDbEntity
  8
0
 62
   250
370
    25
100
AcDb2dPolyline
 66
     1
 10
0.0
 20
0.0
 30
0.0
  0
VERTEX
  5
FB
330
FA
100
AcDbEntity
  8
0
 62
   250
370
    25
100
AcDbVertex
100
AcDb2dVertex
 10
275.442901846933
 20
236.7018565221657
 30
0.0
  0
VERTEX
  5
FC
330
FA
100
AcDbEntity
  8
0
 62
   250
370
    25
100
AcDbVertex
100
AcDb2dVertex
 10
423.3248954111541
 20
268.1351435709333
 30
0.0
  0
SEQEND
  5
FD
330
FA
100
AcDbEntity
  8
0
 62
   250
370
    25
  0
ENDBLK
  5
F9
330
F6
100
AcDbEntity
  8
0
100
AcDbBlockEnd
  0
BLOCK
  5
100
330
FE
100
AcDbEntity
  8
0
100
AcDbBlockBegin
  2
block 36
 70
     0
 10
0.0
 20
0.0
 30
0.0
  3
block 36
  1

  0
SPLINE
  5
102
330
FE
100
AcDbEntity
  8
0
  6
AI-Linetype-18
 62
     6
370
    25
100
AcDbSpline
210
0.0
220
0.0
230
1.0
 70
     8
 71
     3
 72
    74
 73
    70
 74
     0
 42
0.0000000001
 43
0.0000000001
 12
1.0
 22
0.0
 32
0.0
 13
1.0
 23
0.0
 33
0.0
 40
0.0
 40
0.0
 40
0.0
 40
0.0
 40
1.0
 40
1.0
 40
1.0
 40
2.0
 40
2.0
 40
2.0
 40
3.0
 40
3.0
 40
3.0
 40
4.0
 40
4.0
 40
4.0
 40
5.0
 40
5.0
 40
5.0
 40
6.0
 40
6.0
 40
6.0
 40
7.0
 40
7.0
 40
7.0
 40
8.0
 40
8.0
 40
8.0
 40
9.0
 40
9.0
 40
9.0
 40
10.0
 40
10.0
 40
10.0
 40
11.0
 40
11.0
 40
11.0
 40
12.0
 40
12.0
 40
12.0
 40
13.0
 40
13.0
 40
13.0
 40
14.0
 40
14.0
 40
14.0
 40
15.0
 40
15.0
 40
15.0
 40
16.0
 40
16.0
 40
16.0
 40
17.0
 40
17.0
 40
17.0
 40
18.0
 40
18.0
 40
18.0
 40
19.0
 40
19.0
 40
19.0
 40
20.0
 40
20.0
 40
20.0
 40
21.0
 40
21.0
 40
21.0
 40
22.0
 40
22.0
 40
22.0
 40
23.0
 40
23.0
 40
23.0
 40
23.0
 10
42.7896092053516
 20
316.3283889495812
 30
0.0
 10
42.7896092053516
 20
316.5602680419261
 30
0.0
 10
42.7896092053516
 20
316.7921118567558
 30
0.0
 10
42.7896092053516
 20
317.0239909491007
 30
0.0
 10
42.7896092053516
 20
317.3222975982488
 30
0.0
 10
42.77877900888645
 20
317.6196164770362
 30
0.0
 10
42.75704806093756
 20
317.917147020903
 30
0.0
 10
42.6465941680272
 20
319.4534474305265
 30
0.0
 10
42.24062054948389
 20
320.9674171744791
 30
0.0
 10
41.57161779469797
 20
322.3545642595286
 30
0.0
 10
40.89224345111675
 20
323.7631953499388
 30
0.0
 10
39.9416555883007
 20
325.0410174224849
 30
0.0
 10
38.78818674875819
 20
326.0968733838205
 30
0.0
 10
37.63761066526104
 20
327.1500835316855
 30
0.0
 10
36.28517665291654
 20
327.9824211712303
 30
0.0
 10
34.82849758992706
 20
328.5406878130017
 30
0.0
 10
34.10647273323937
 20
328.8174046242459
 30
0.0
 10
33.35883640218568
 20
329.0267766633551
 30
0.0
 10
32.59839433393937
 20
329.1671811647257
 30
0.0
 10
31.83738782549054
 20
329.3076562211249
 30
0.0
 10
31.06354030234814
 20
329.3790579072553
 30
0.0
 10
30.28969277920573
 20
329.378669854612
 30
0.0
 10
29.51584525605049
 20
329.3790579072553
 30
0.0
 10
28.74199773290777
 20
329.3076562211249
 30
0.0
 10
27.9809912244599
 20
329.1671811647257
 30
0.0
 10
27.22054915622001
 20
329.0267766633551
 30
0.0
 10
26.47291282515958
 20
328.8174046242459
 30
0.0
 10
25.75088796847863
 20
328.5406878130017
 30
0.0
 10
24.29420890548241
 20
327.9824211712303
 30
0.0
 10
22.94177489313823
 20
327.1500835316855
 30
0.0
 10
21.79119880964717
 20
326.0968733838205
 30
0.0
 10
20.63776524761203
 20
325.0410174224849
 30
0.0
 10
19.68714210728862
 20
323.7631953499388
 30
0.0
 10
19.00776776370162
 20
322.3545642595286
 30
0.0
 10
18.33876500892115
 20
320.9674171744791
 30
0.0
 10
17.93279139037496
 20
319.4534474305265
 30
0.0
 10
17.82237277497485
 20
317.917147020903
 30
0.0
 10
17.80064182702725
 20
317.6196164770362
 30
0.0
 10
17.78977635305345
 20
317.3222975982488
 30
0.0
 10
17.78977635305345
 20
317.0239909491007
 30
0.0
 10
17.7897057980246
 20
316.2126787072448
 30
0.0
 10
17.87126740787075
 20
315.4018250730556
 30
0.0
 10
18.0311803738821
 20
314.6065640995739
 30
0.0
 10
18.19116389491589
 20
313.8109503509694
 30
0.0
 10
18.42960460465784
 20
313.0309645405741
 30
0.0
 10
18.74311586187031
 20
312.2825168267189
 30
0.0
 10
19.37056170644649
 20
310.7845983511402
 30
0.0
 10
20.29878362608421
 20
309.4130792043066
 30
0.0
 10
21.45362828863723
 20
308.271287221533
 30
0.0
 10
22.61171848237181
 20
307.1262497075718
 30
0.0
 10
23.99777196452485
 20
306.2122799031533
 30
0.0
 10
25.50486259345854
 20
305.5949234272631
 30
0.0
 10
27.01840900725279
 20
304.9748858604006
 30
0.0
 10
28.65405089322926
 20
304.6540368805026
 30
0.0
 10
30.28969277920573
 20
304.6541779905533
 30
0.0
 10
31.9256521627918
 20
304.6540368805026
 30
0.0
 10
33.56161154637658
 20
304.9750269704506
 30
0.0
 10
35.07540490276473
 20
305.5952762023925
 30
0.0
 10
36.58217803408883
 20
306.2126326782827
 30
0.0
 10
37.96791401862008
 20
307.1264966501587
 30
0.0
 10
39.12579254728192
 20
308.271287221533
 30
0.0
 10
40.28063720983558
 20
309.4130792043066
 30
0.0
 10
41.20885912946623
 20
310.7846336286546
 30
0.0
 10
41.83630497404243
 20
312.2825521042327
 30
0.0
 10
42.14981623125489
 20
313.0309998180886
 30
0.0
 10
42.38825694100326
 20
313.8109856284768
 30
0.0
 10
42.54824046203768
 20
314.6065993770883
 30
0.0
 10
42.70815342804904
 20
315.4018250730556
 30
0.0
 10
42.78967976038044
 20
316.2126787072448
 30
0.0
 10
42.7896092053516
 20
317.0239909491007
 30
0.0
  0
ENDBLK
  5
101
330
FE
100
AcDbEntity
  8
0
100
AcDbBlockEnd
  0
BLOCK
  5
106
330
104
100
AcDbEntity
  8
0
100
AcDbBlockBegin
  2
block 37
 70
     0
 10
0.0
 20
0.0
 30
0.0
  3
block 37
  1

  0
SPLINE
  5
108
330
104
100
AcDbEntity
  8
0
 62
   250
370
    25
100
AcDbSpline
210
0.0
220
0.0
230
1.0
 70
     8
 71
     3
 72
    14
 73
    10
 74
     0
 42
0.0000000001
 43
0.0000000001
 12
1.0
 22
0.0
 32
0.0
 13
1.0
 23
0.0
 33
0.0
 40
0.0
 40
0.0
 40
0.0
 40
0.0
 40
1.0
 40
1.0
 40
1.0
 40
2.0
 40
2.0
 40
2.0
 40
3.0
 40
3.0
 40
3.0
 40
3.0
 10
-291.9448467146728
 20
357.530372097667
 30
0.0
 10
-290.9489978027963
 20
358.1446594299352
 30
0.0
 10
-289.971528475147
 20
358.4224345665677
 30
0.0
 10
-288.8014439270149
 20
358.4237045570286
 30
0.0
 10
-288.8089933147822
 20
358.4321711601294
 30
0.0
 10
-288.8183418557019
 20
358.4386975000124
 30
0.0
 10
-288.8251856932067
 20
358.4479754859097
 30
0.0
 10
-288.7755855100586
 20
358.4482224284985
 30
0.0
 10
-288.725985326904
 20
358.4484340935847
 30
0.0
 10
-288.6763851437591
 20
358.4486810361699
 30
0.0
  0
ENDBLK
  5
107
330
104
100
AcDbEntity
  8
0
100
AcDbBlockEnd
  0
BLOCK
  5
10B
330
109
100
AcDbEntity
  8
0
100
AcDbBlockBegin
  2
block 38
 70
     0
 10
0.0
 20
0.0
 30
0.0
  3
block 38
  1

  0
SPLINE
  5
10D
330
109
100
AcDbEntity
  8
0
  6
AI-Linetype-19
 62
     6
370
    25
100
AcDbSpline
210
0.0
220
0.0
230
1.0
 70
     8
 71
     3
 72
     8
 73
     4
 74
     0
 42
0.0000000001
 43
0.0000000001
 12
1.0
 22
0.0
 32
0.0
 13
1.0
 23
0.0
 33
0.0
 40
0.0
 40
0.0
 40
0.0
 40
0.0
 40
1.0
 40
1.0
 40
1.0
 40
1.0
 10
299.9371726617567
 20
346.2819254419214
 30
0.0
 10
299.8940282634734
 20
346.2637575227701
 30
0.0
 10
299.8508838651823
 20
346.2455190486034
 30
0.0
 10
299.8078100219175
 20
346.227210019395
 30
0.0
  0
ENDBLK
  5
10C
330
109
100
AcDbEntity
  8
0
100
AcDbBlockEnd
  0
BLOCK
  5
111
330
10F
100
AcDbEntity
  8
0
100
AcDbBlockBegin
  2
block 39
 70
     0
 10
0.0
 20
0.0
 30
0.0
  3
block 39
  1

  0
SPLINE
  5
113
330
10F
100
AcDbEntity
  8
0
  6
AI-Linetype-20
 62
     6
370
    25
100
AcDbSpline
210
0.0
220
0.0
230
1.0
 70
     8
 71
     3
 72
     8
 73
     4
 74
     0
 42
0.0000000001
 43
0.0000000001
 12
1.0
 22
0.0
 32
0.0
 13
1.0
 23
0.0
 33
0.0
 40
0.0
 40
0.0
 40
0.0
 40
0.0
 40
1.0
 40
1.0
 40
1.0
 40
1.0
 10
316.5971897975635
 20
349.9054904577627
 30
0.0
 10
316.6637584644226
 20
349.9070426683312
 30
0.0
 10
316.7303624087916
 20
349.9084184913347
 30
0.0
 10
316.7969310756501
 20
349.9096532042881
 30
0.0
  0
ENDBLK
  5
112
330
10F
100
AcDbEntity
  8
0
100
AcDbBlockEnd
  0
BLOCK
  5
117
330
115
100
AcDbEntity
  8
0
100
AcDbBlockBegin
  2
block 40
 70
     0
 10
0.0
 20
0.0
 30
0.0
  3
block 40
  1

  0
SPLINE
  5
119
330
115
100
AcDbEntity
  8
0
 62
   250
370
    25
100
AcDbSpline
210
0.0
220
0.0
230
1.0
 70
     8
 71
     3
 72
    11
 73
     7
 74
     0
 42
0.0000000001
 43
0.0000000001
 12
1.0
 22
0.0
 32
0.0
 13
1.0
 23
0.0
 33
0.0
 40
0.0
 40
0.0
 40
0.0
 40
0.0
 40
1.0
 40
1.0
 40
1.0
 40
2.0
 40
2.0
 40
2.0
 40
2.0
 10
499.3316727941236
 20
358.417742657353
 30
0.0
 10
499.3415504977385
 20
358.4277261935034
 30
0.0
 10
499.3534742971
 20
358.4366866817786
 30
0.0
 10
499.3641633835101
 20
358.4458235576195
 30
0.0
 10
499.1705251151581
 20
358.4467407729659
 30
0.0
 10
498.9779451721985
 20
358.4383094473778
 30
0.0
 10
498.785118286643
 20
358.4204943033605
 30
0.0
  0
ENDBLK
  5
118
330
115
100
AcDbEntity
  8
0
100
AcDbBlockEnd
  0
BLOCK
  5
11C
330
11A
100
AcDbEntity
  8
0
100
AcDbBlockBegin
  2
block 41
 70
     0
 10
0.0
 20
0.0
 30
0.0
  3
block 41
  1

  0
SPLINE
  5
11E
330
11A
100
AcDbEntity
  8
0
 62
   250
370
    25
100
AcDbSpline
210
0.0
220
0.0
230
1.0
 70
     8
 71
     3
 72
    11
 73
     7
 74
     0
 42
0.0000000001
 43
0.0000000001
 12
1.0
 22
0.0
 32
0.0
 13
1.0
 23
0.0
 33
0.0
 40
0.0
 40
0.0
 40
0.0
 40
0.0
 40
1.0
 40
1.0
 40
1.0
 40
2.0
 40
2.0
 40
2.0
 40
2.0
 10
499.3641633835101
 20
358.4481518734758
 30
0.0
 10
499.3772866183132
 20
358.4481165959697
 30
0.0
 10
499.3903745755988
 20
358.4480460409395
 30
0.0
 10
499.403462532885
 20
358.4479754859097
 30
0.0
 10
501.6641161150525
 20
358.4369336243709
 30
0.0
 10
503.7266511847212
 20
357.1561482407394
 30
0.0
 10
504.7389041401001
 20
355.1347820286301
 30
0.0
  0
ENDBLK
  5
11D
330
11A
100
AcDbEntity
  8
0
100
AcDbBlockEnd
  0
BLOCK
  5
121
330
11F
100
AcDbEntity
  8
0
100
AcDbBlockBegin
  2
block 42
 70
     0
 10
0.0
 20
0.0
 30
0.0
  3
block 42
  1

  0
SPLINE
  5
123
330
11F
100
AcDbEntity
  8
0
  6
AI-Linetype-21
 62
     6
370
    25
100
AcDbSpline
210
0.0
220
0.0
230
1.0
 70
     8
 71
     3
 72
   758
 73
   754
 74
     0
 42
0.0000000001
 43
0.0000000001
 12
1.0
 22
0.0
 32
0.0
 13
1.0
 23
0.0
 33
0.0
 40
0.0
 40
0.0
 40
0.0
 40
0.0
 40
1.0
 40
1.0
 40
1.0
 40
2.0
 40
2.0
 40
2.0
 40
3.0
 40
3.0
 40
3.0
 40
4.0
 40
4.0
 40
4.0
 40
5.0
 40
5.0
 40
5.0
 40
6.0
 40
6.0
 40
6.0
 40
7.0
 40
7.0
 40
7.0
 40
8.0
 40
8.0
 40
8.0
 40
9.0
 40
9.0
 40
9.0
 40
10.0
 40
10.0
 40
10.0
 40
11.0
 40
11.0
 40
11.0
 40
12.0
 40
12.0
 40
12.0
 40
13.0
 40
13.0
 40
13.0
 40
14.0
 40
14.0
 40
14.0
 40
15.0
 40
15.0
 40
15.0
 40
16.0
 40
16.0
 40
16.0
 40
17.0
 40
17.0
 40
17.0
 40
18.0
 40
18.0
 40
18.0
 40
19.0
 40
19.0
 40
19.0
 40
20.0
 40
20.0
 40
20.0
 40
21.0
 40
21.0
 40
21.0
 40
22.0
 40
22.0
 40
22.0
 40
23.0
 40
23.0
 40
23.0
 40
24.0
 40
24.0
 40
24.0
 40
25.0
 40
25.0
 40
25.0
 40
26.0
 40
26.0
 40
26.0
 40
27.0
 40
27.0
 40
27.0
 40
28.0
 40
28.0
 40
28.0
 40
29.0
 40
29.0
 40
29.0
 40
30.0
 40
30.0
 40
30.0
 40
31.0
 40
31.0
 40
31.0
 40
32.0
 40
32.0
 40
32.0
 40
33.0
 40
33.0
 40
33.0
 40
34.0
 40
34.0
 40
34.0
 40
35.0
 40
35.0
 40
35.0
 40
36.0
 40
36.0
 40
36.0
 40
37.0
 40
37.0
 40
37.0
 40
38.0
 40
38.0
 40
38.0
 40
39.0
 40
39.0
 40
39.0
 40
40.0
 40
40.0
 40
40.0
 40
41.0
 40
41.0
 40
41.0
 40
42.0
 40
42.0
 40
42.0
 40
43.0
 40
43.0
 40
43.0
 40
44.0
 40
44.0
 40
44.0
 40
45.0
 40
45.0
 40
45.0
 40
46.0
 40
46.0
 40
46.0
 40
47.0
 40
47.0
 40
47.0
 40
48.0
 40
48.0
 40
48.0
 40
49.0
 40
49.0
 40
49.0
 40
50.0
 40
50.0
 40
50.0
 40
51.0
 40
51.0
 40
51.0
 40
52.0
 40
52.0
 40
52.0
 40
53.0
 40
53.0
 40
53.0
 40
54.0
 40
54.0
 40
54.0
 40
55.0
 40
55.0
 40
55.0
 40
56.0
 40
56.0
 40
56.0
 40
57.0
 40
57.0
 40
57.0
 40
58.0
 40
58.0
 40
58.0
 40
59.0
 40
59.0
 40
59.0
 40
60.0
 40
60.0
 40
60.0
 40
61.0
 40
61.0
 40
61.0
 40
62.0
 40
62.0
 40
62.0
 40
63.0
 40
63.0
 40
63.0
 40
64.0
 40
64.0
 40
64.0
 40
65.0
 40
65.0
 40
65.0
 40
66.0
 40
66.0
 40
66.0
 40
67.0
 40
67.0
 40
67.0
 40
68.0
 40
68.0
 40
68.0
 40
69.0
 40
69.0
 40
69.0
 40
70.0
 40
70.0
 40
70.0
 40
71.0
 40
71.0
 40
71.0
 40
72.0
 40
72.0
 40
72.0
 40
73.0
 40
73.0
 40
73.0
 40
74.0
 40
74.0
 40
74.0
 40
75.0
 40
75.0
 40
75.0
 40
76.0
 40
76.0
 40
76.0
 40
77.0
 40
77.0
 40
77.0
 40
78.0
 40
78.0
 40
78.0
 40
79.0
 40
79.0
 40
79.0
 40
80.0
 40
80.0
 40
80.0
 40
81.0
 40
81.0
 40
81.0
 40
82.0
 40
82.0
 40
82.0
 40
83.0
 40
83.0
 40
83.0
 40
84.0
 40
84.0
 40
84.0
 40
85.0
 40
85.0
 40
85.0
 40
86.0
 40
86.0
 40
86.0
 40
87.0
 40
87.0
 40
87.0
 40
88.0
 40
88.0
 40
88.0
 40
89.0
 40
89.0
 40
89.0
 40
90.0
 40
90.0
 40
90.0
 40
91.0
 40
91.0
 40
91.0
 40
92.0
 40
92.0
 40
92.0
 40
93.0
 40
93.0
 40
93.0
 40
94.0
 40
94.0
 40
94.0
 40
95.0
 40
95.0
 40
95.0
 40
96.0
 40
96.0
 40
96.0
 40
97.0
 40
97.0
 40
97.0
 40
98.0
 40
98.0
 40
98.0
 40
99.0
 40
99.0
 40
99.0
 40
100.0
 40
100.0
 40
100.0
 40
101.0
 40
101.0
 40
101.0
 40
102.0
 40
102.0
 40
102.0
 40
103.0
 40
103.0
 40
103.0
 40
104.0
 40
104.0
 40
104.0
 40
105.0
 40
105.0
 40
105.0
 40
106.0
 40
106.0
 40
106.0
 40
107.0
 40
107.0
 40
107.0
 40
108.0
 40
108.0
 40
108.0
 40
109.0
 40
109.0
 40
109.0
 40
110.0
 40
110.0
 40
110.0
 40
111.0
 40
111.0
 40
111.0
 40
112.0
 40
112.0
 40
112.0
 40
113.0
 40
113.0
 40
113.0
 40
114.0
 40
114.0
 40
114.0
 40
115.0
 40
115.0
 40
115.0
 40
116.0
 40
116.0
 40
116.0
 40
117.0
 40
117.0
 40
117.0
 40
118.0
 40
118.0
 40
118.0
 40
119.0
 40
119.0
 40
119.0
 40
120.0
 40
120.0
 40
120.0
 40
121.0
 40
121.0
 40
121.0
 40
122.0
 40
122.0
 40
122.0
 40
123.0
 40
123.0
 40
123.0
 40
124.0
 40
124.0
 40
124.0
 40
125.0
 40
125.0
 40
125.0
 40
126.0
 40
126.0
 40
126.0
 40
127.0
 40
127.0
 40
127.0
 40
128.0
 40
128.0
 40
128.0
 40
129.0
 40
129.0
 40
129.0
 40
130.0
 40
130.0
 40
130.0
 40
131.0
 40
131.0
 40
131.0
 40
132.0
 40
132.0
 40
132.0
 40
133.0
 40
133.0
 40
133.0
 40
134.0
 40
134.0
 40
134.0
 40
135.0
 40
135.0
 40
135.0
 40
136.0
 40
136.0
 40
136.0
 40
137.0
 40
137.0
 40
137.0
 40
138.0
 40
138.0
 40
138.0
 40
139.0
 40
139.0
 40
139.0
 40
140.0
 40
140.0
 40
140.0
 40
141.0
 40
141.0
 40
141.0
 40
142.0
 40
142.0
 40
142.0
 40
143.0
 40
143.0
 40
143.0
 40
144.0
 40
144.0
 40
144.0
 40
145.0
 40
145.0
 40
145.0
 40
146.0
 40
146.0
 40
146.0
 40
147.0
 40
147.0
 40
147.0
 40
148.0
 40
148.0
 40
148.0
 40
149.0
 40
149.0
 40
149.0
 40
150.0
 40
150.0
 40
150.0
 40
151.0
 40
151.0
 40
151.0
 40
152.0
 40
152.0
 40
152.0
 40
153.0
 40
153.0
 40
153.0
 40
154.0
 40
154.0
 40
154.0
 40
155.0
 40
155.0
 40
155.0
 40
156.0
 40
156.0
 40
156.0
 40
157.0
 40
157.0
 40
157.0
 40
158.0
 40
158.0
 40
158.0
 40
159.0
 40
159.0
 40
159.0
 40
160.0
 40
160.0
 40
160.0
 40
161.0
 40
161.0
 40
161.0
 40
162.0
 40
162.0
 40
162.0
 40
163.0
 40
163.0
 40
163.0
 40
164.0
 40
164.0
 40
164.0
 40
165.0
 40
165.0
 40
165.0
 40
166.0
 40
166.0
 40
166.0
 40
167.0
 40
167.0
 40
167.0
 40
168.0
 40
168.0
 40
168.0
 40
169.0
 40
169.0
 40
169.0
 40
170.0
 40
170.0
 40
170.0
 40
171.0
 40
171.0
 40
171.0
 40
172.0
 40
172.0
 40
172.0
 40
173.0
 40
173.0
 40
173.0
 40
174.0
 40
174.0
 40
174.0
 40
175.0
 40
175.0
 40
175.0
 40
176.0
 40
176.0
 40
176.0
 40
177.0
 40
177.0
 40
177.0
 40
178.0
 40
178.0
 40
178.0
 40
179.0
 40
179.0
 40
179.0
 40
180.0
 40
180.0
 40
180.0
 40
181.0
 40
181.0
 40
181.0
 40
182.0
 40
182.0
 40
182.0
 40
183.0
 40
183.0
 40
183.0
 40
184.0
 40
184.0
 40
184.0
 40
185.0
 40
185.0
 40
185.0
 40
186.0
 40
186.0
 40
186.0
 40
187.0
 40
187.0
 40
187.0
 40
188.0
 40
188.0
 40
188.0
 40
189.0
 40
189.0
 40
189.0
 40
190.0
 40
190.0
 40
190.0
 40
191.0
 40
191.0
 40
191.0
 40
192.0
 40
192.0
 40
192.0
 40
193.0
 40
193.0
 40
193.0
 40
194.0
 40
194.0
 40
194.0
 40
195.0
 40
195.0
 40
195.0
 40
196.0
 40
196.0
 40
196.0
 40
197.0
 40
197.0
 40
197.0
 40
198.0
 40
198.0
 40
198.0
 40
199.0
 40
199.0
 40
199.0
 40
200.0
 40
200.0
 40
200.0
 40
201.0
 40
201.0
 40
201.0
 40
202.0
 40
202.0
 40
202.0
 40
203.0
 40
203.0
 40
203.0
 40
204.0
 40
204.0
 40
204.0
 40
205.0
 40
205.0
 40
205.0
 40
206.0
 40
206.0
 40
206.0
 40
207.0
 40
207.0
 40
207.0
 40
208.0
 40
208.0
 40
208.0
 40
209.0
 40
209.0
 40
209.0
 40
210.0
 40
210.0
 40
210.0
 40
211.0
 40
211.0
 40
211.0
 40
212.0
 40
212.0
 40
212.0
 40
213.0
 40
213.0
 40
213.0
 40
214.0
 40
214.0
 40
214.0
 40
215.0
 40
215.0
 40
215.0
 40
216.0
 40
216.0
 40
216.0
 40
217.0
 40
217.0
 40
217.0
 40
218.0
 40
218.0
 40
218.0
 40
219.0
 40
219.0
 40
219.0
 40
220.0
 40
220.0
 40
220.0
 40
221.0
 40
221.0
 40
221.0
 40
222.0
 40
222.0
 40
222.0
 40
223.0
 40
223.0
 40
223.0
 40
224.0
 40
224.0
 40
224.0
 40
225.0
 40
225.0
 40
225.0
 40
226.0
 40
226.0
 40
226.0
 40
227.0
 40
227.0
 40
227.0
 40
228.0
 40
228.0
 40
228.0
 40
229.0
 40
229.0
 40
229.0
 40
230.0
 40
230.0
 40
230.0
 40
231.0
 40
231.0
 40
231.0
 40
232.0
 40
232.0
 40
232.0
 40
233.0
 40
233.0
 40
233.0
 40
234.0
 40
234.0
 40
234.0
 40
235.0
 40
235.0
 40
235.0
 40
236.0
 40
236.0
 40
236.0
 40
237.0
 40
237.0
 40
237.0
 40
238.0
 40
238.0
 40
238.0
 40
239.0
 40
239.0
 40
239.0
 40
240.0
 40
240.0
 40
240.0
 40
241.0
 40
241.0
 40
241.0
 40
242.0
 40
242.0
 40
242.0
 40
243.0
 40
243.0
 40
243.0
 40
244.0
 40
244.0
 40
244.0
 40
245.0
 40
245.0
 40
245.0
 40
246.0
 40
246.0
 40
246.0
 40
247.0
 40
247.0
 40
247.0
 40
248.0
 40
248.0
 40
248.0
 40
249.0
 40
249.0
 40
249.0
 40
250.0
 40
250.0
 40
250.0
 40
251.0
 40
251.0
 40
251.0
 40
251.0
 10
67.10904466620225
 20
213.1405348137057
 30
0.0
 10
66.81881656751295
 20
206.74884919252
 30
0.0
 10
66.52855319130218
 20
200.3571635713401
 30
0.0
 10
66.23832509261256
 20
193.9654779501544
 30
0.0
 10
66.2325748580042
 20
193.8374205783039
 30
0.0
 10
66.2143011063234
 20
193.7098923691415
 30
0.0
 10
66.18413883278103
 20
193.5853274710597
 30
0.0
 10
66.15418822432392
 20
193.4617856208584
 30
0.0
 10
66.11256075909144
 20
193.3411718042232
 30
0.0
 10
66.0597503222701
 20
193.2255673944294
 30
0.0
 10
65.9535650084185
 20
192.9930885843625
 30
0.0
 10
65.80233031058104
 20
192.7810001767593
 30
0.0
 10
65.61691170274055
 20
192.6051770524311
 30
0.0
 10
65.43562056390978
 20
192.4332344545143
 30
0.0
 10
65.2216624481172
 20
192.2959343742809
 30
0.0
 10
64.99003029836561
 20
192.202025634921
 30
0.0
 10
64.87361450577029
 20
192.1548596001583
 30
0.0
 10
64.75275374654892
 20
192.1186295944054
 30
0.0
 10
64.6294588389344
 20
192.0947467181656
 30
0.0
 10
64.58172836396953
 20
192.0855040097831
 30
0.0
 10
64.53360983636142
 20
192.0780957320758
 30
0.0
 10
64.48527964368121
 20
192.0729804927039
 30
0.0
 10
64.40392969891423
 20
192.0643727795511
 30
0.0
 10
64.32190948140335
 20
192.062220851266
 30
0.0
 10
64.24038314907132
 20
192.0562589515849
 30
0.0
 10
64.23618512503788
 20
192.0562589515849
 30
0.0
 10
64.23198710100444
 20
192.0562589515849
 30
0.0
 10
64.22778907696458
 20
192.0562589515849
 30
0.0
 10
64.20369453565301
 20
192.0562589515849
 30
0.0
 10
64.17963527184816
 20
192.0562589515849
 30
0.0
 10
64.15554073052984
 20
192.0562589515849
 30
0.0
 10
64.14404026132594
 20
192.0562589515849
 30
0.0
 10
64.13253979211434
 20
192.0562589515849
 30
0.0
 10
64.12103932290402
 20
192.0562589515849
 30
0.0
 10
64.11655907876933
 20
192.0562589515849
 30
0.0
 10
64.11207883462853
 20
192.0562589515849
 30
0.0
 10
64.10756331297844
 20
192.0562589515849
 30
0.0
 10
64.09486340832942
 20
192.0562589515849
 30
0.0
 10
64.0821282261711
 20
192.0562589515849
 30
0.0
 10
64.06942832152751
 20
192.0562589515849
 30
0.0
 10
64.06254920650767
 20
192.0562589515849
 30
0.0
 10
64.05567009148847
 20
192.0562589515849
 30
0.0
 10
64.04882625398433
 20
192.0562589515849
 30
0.0
 10
64.03542079908118
 20
192.0562589515849
 30
0.0
 10
64.02201534417802
 20
192.0562589515849
 30
0.0
 10
64.00860988926974
 20
192.0562589515849
 30
0.0
 10
63.99883801819908
 20
192.0562589515849
 30
0.0
 10
63.98903086960631
 20
192.0562589515849
 30
0.0
 10
63.97922372101515
 20
192.0562589515849
 30
0.0
 10
63.96571243357577
 20
192.0562589515849
 30
0.0
 10
63.95220114612999
 20
192.0562589515849
 30
0.0
 10
63.93868985868549
 20
192.0562589515849
 30
0.0
 10
63.92539023631854
 20
192.0562589515849
 30
0.0
 10
63.91212589146666
 20
192.0562589515849
 30
0.0
 10
63.89882626910035
 20
192.0562589515849
 30
0.0
 10
63.88577358932667
 20
192.0562589515849
 30
0.0
 10
63.87272090955362
 20
192.0562589515849
 30
0.0
 10
63.85966822977416
 20
192.0562589515849
 30
0.0
 10
63.84231169342505
 20
192.0562589515849
 30
0.0
 10
63.82495515707561
 20
192.0562589515849
 30
0.0
 10
63.80756334321176
 20
192.0562589515849
 30
0.0
 10
63.79560426633513
 20
192.0562589515849
 30
0.0
 10
63.78360991194472
 20
192.0562589515849
 30
0.0
 10
63.77161555755302
 20
192.0562589515849
 30
0.0
 10
63.74455770515473
 20
192.0562589515849
 30
0.0
 10
63.71746457524202
 20
192.0562589515849
 30
0.0
 10
63.69037144532899
 20
192.0562589515849
 30
0.0
 10
63.68511509590746
 20
192.0562589515849
 30
0.0
 10
63.67989402399233
 20
192.0562589515849
 30
0.0
 10
63.67463767457049
 20
192.0562589515849
 30
0.0
 10
63.60111933766849
 20
192.0562589515849
 30
0.0
 10
63.52756572325976
 20
192.0562589515849
 30
0.0
 10
63.45404738635775
 20
192.0562589515849
 30
0.0
 10
63.36892274770891
 20
192.0562589515849
 30
0.0
 10
63.28379810906615
 20
192.0562589515849
 30
0.0
 10
63.19867347041731
 20
192.0562589515849
 30
0.0
 10
63.19867347041731
 20
192.0562589515849
 30
0.0
 10
63.19239407312084
 20
192.0562589515849
 30
0.0
 10
63.18928965198381
 20
192.0562589515849
 30
0.0
 10
63.14558081348829
 20
192.0562589515849
 30
0.0
 10
63.10183669749183
 20
192.0562589515849
 30
0.0
 10
63.05812785899631
 20
192.0562589515849
 30
0.0
 10
63.04990819848808
 20
192.0562589515849
 30
0.0
 10
63.04168853797888
 20
192.0562589515849
 30
0.0
 10
63.03346887746968
 20
192.0562589515849
 30
0.0
 10
62.99205307731668
 20
192.0562589515849
 30
0.0
 10
62.95063727716303
 20
192.0562589515849
 30
0.0
 10
62.90918619950202
 20
192.0562589515849
 30
0.0
 10
62.80903334035298
 20
192.0562589515849
 30
0.0
 10
62.70888048120393
 20
192.0562589515849
 30
0.0
 10
62.60876289957638
 20
192.0562589515849
 30
0.0
 10
62.57510815226336
 20
192.0562589515849
 30
0.0
 10
62.54145340494264
 20
192.0562589515849
 30
0.0
 10
62.50783393515015
 20
192.0562589515849
 30
0.0
 10
62.48783158532616
 20
192.0562589515849
 30
0.0
 10
62.46786451301917
 20
192.0562589515849
 30
0.0
 10
62.44786216320482
 20
192.0562589515849
 30
0.0
 10
62.43625586145765
 20
192.0562589515849
 30
0.0
 10
62.42464955971049
 20
192.0562589515849
 30
0.0
 10
62.41307853547711
 20
192.0562589515849
 30
0.0
 10
62.23182267415498
 20
192.0562589515849
 30
0.0
 10
62.05056681283286
 20
192.0562589515849
 30
0.0
 10
61.86931095151041
 20
192.0562589515849
 30
0.0
 10
61.84458141496232
 20
192.0562589515849
 30
0.0
 10
61.81988715592769
 20
192.0562589515849
 30
0.0
 10
61.79515761937927
 20
192.0562589515849
 30
0.0
 10
61.75924511124458
 20
192.0562589515849
 30
0.0
 10
61.7232973255884
 20
192.0562589515849
 30
0.0
 10
61.68738481744473
 20
192.0562589515849
 30
0.0
 10
61.65863364442665
 20
192.0562589515849
 30
0.0
 10
61.62988247140858
 20
192.0562589515849
 30
0.0
 10
61.60113129838569
 20
192.0562589515849
 30
0.0
 10
61.56035049346823
 20
192.0562589515849
 30
0.0
 10
61.51956968854596
 20
192.0562589515849
 30
0.0
 10
61.47878888362241
 20
192.0562589515849
 30
0.0
 10
61.46238484011908
 20
192.0562589515849
 30
0.0
 10
61.44594551910068
 20
192.0562589515849
 30
0.0
 10
61.4295414756041
 20
192.0562589515849
 30
0.0
 10
61.28656171579026
 20
192.0562589515849
 30
0.0
 10
61.1435819559697
 20
192.0562589515849
 30
0.0
 10
61.00060219615651
 20
192.0562589515849
 30
0.0
 10
60.9952752917055
 20
192.0562589515849
 30
0.0
 10
60.98994838726188
 20
192.0562589515849
 30
0.0
 10
60.98458620529676
 20
192.0562589515849
 30
0.0
 10
60.92680163915421
 20
192.0562589515849
 30
0.0
 10
60.86901707301102
 20
192.0562589515849
 30
0.0
 10
60.81119722935404
 20
192.0562589515849
 30
0.0
 10
60.791371267098
 20
192.0562589515849
 30
0.0
 10
60.77154530484196
 20
192.0562589515849
 30
0.0
 10
60.75168406507728
 20
192.0562589515849
 30
0.0
 10
60.69287645106074
 20
192.0562589515849
 30
0.0
 10
60.63406883704709
 20
192.0562589515849
 30
0.0
 10
60.57526122302638
 20
192.0562589515849
 30
0.0
 10
60.5542005478233
 20
192.0562589515849
 30
0.0
 10
60.53313987261379
 20
192.0562589515849
 30
0.0
 10
60.51207919741135
 20
192.0562589515849
 30
0.0
 10
60.45235436805576
 20
192.0562589515849
 30
0.0
 10
60.39259426119279
 20
192.0562589515849
 30
0.0
 10
60.3328694318372
 20
192.0562589515849
 30
0.0
 10
60.31053876616686
 20
192.0562589515849
 30
0.0
 10
60.28820810049654
 20
192.0562589515849
 30
0.0
 10
60.26587743482556
 20
192.0562589515849
 30
0.0
 10
60.10970388518132
 20
192.0562589515849
 30
0.0
 10
59.95356561305278
 20
192.0562589515849
 30
0.0
 10
59.79739206340854
 20
192.0562589515849
 30
0.0
 10
59.78306939316825
 20
192.0562589515849
 30
0.0
 10
59.76874672292731
 20
192.0562589515849
 30
0.0
 10
59.75442405268638
 20
192.0562589515849
 30
0.0
 10
59.68556234749119
 20
192.0562589515849
 30
0.0
 10
59.61666536478094
 20
192.0562589515849
 30
0.0
 10
59.54780365958447
 20
192.0562589515849
 30
0.0
 10
59.52836574997232
 20
192.0562589515849
 30
0.0
 10
59.50896311787395
 20
192.0562589515849
 30
0.0
 10
59.48952520826181
 20
192.0562589515849
 30
0.0
 10
59.44623969992524
 20
192.0562589515849
 30
0.0
 10
59.40291891407362
 20
192.0562589515849
 30
0.0
 10
59.35963340573577
 20
192.0562589515849
 30
0.0
 10
59.31229098340935
 20
192.0562589515849
 30
0.0
 10
59.26494856108805
 20
192.0562589515849
 30
0.0
 10
59.21760613877093
 20
192.0562589515849
 30
0.0
 10
59.18980745859639
 20
192.0562589515849
 30
0.0
 10
59.16200877842474
 20
192.0562589515849
 30
0.0
 10
59.13421009825245
 20
192.0562589515849
 30
0.0
 10
59.06866447927279
 20
192.0562589515849
 30
0.0
 10
59.00315413780179
 20
192.0562589515849
 30
0.0
 10
58.9376085188154
 20
192.0562589515849
 30
0.0
 10
58.84860335374849
 20
192.0562589515849
 30
0.0
 10
58.75963346619535
 20
192.0562589515849
 30
0.0
 10
58.67062830112844
 20
192.0562589515849
 30
0.0
 10
58.66360807606438
 20
192.0562589515849
 30
0.0
 10
58.65658785099519
 20
192.0562589515849
 30
0.0
 10
58.64956762592471
 20
192.0562589515849
 30
0.0
 10
58.57724872446239
 20
192.0562589515849
 30
0.0
 10
58.50492982300006
 20
192.0562589515849
 30
0.0
 10
58.43261092154416
 20
192.0562589515849
 30
0.0
 10
58.40625861940416
 20
192.0562589515849
 30
0.0
 10
58.37987103974397
 20
192.0562589515849
 30
0.0
 10
58.3534834600902
 20
192.0562589515849
 30
0.0
 10
58.29919136772856
 20
192.0562589515849
 30
0.0
 10
58.2448992753605
 20
192.0562589515849
 30
0.0
 10
58.19060718299245
 20
192.0562589515849
 30
0.0
 10
58.14354698077243
 20
192.0562589515849
 30
0.0
 10
58.09645150104247
 20
192.0562589515849
 30
0.0
 10
58.04939129882629
 20
192.0562589515849
 30
0.0
 10
58.01446656104795
 20
192.0562589515849
 30
0.0
 10
57.9795418232648
 20
192.0562589515849
 30
0.0
 10
57.94465236299992
 20
192.0562589515849
 30
0.0
 10
57.87310956682538
 20
192.0562589515849
 30
0.0
 10
57.80160204815821
 20
192.0562589515849
 30
0.0
 10
57.73009452949746
 20
192.0562589515849
 30
0.0
 10
57.63382219676681
 20
192.0562589515849
 30
0.0
 10
57.53751458653521
 20
192.0562589515849
 30
0.0
 10
57.44124225380584
 20
192.0562589515849
 30
0.0
 10
57.42649625340724
 20
192.0562589515849
 30
0.0
 10
57.41178553052497
 20
192.0562589515849
 30
0.0
 10
57.39703953013664
 20
192.0562589515849
 30
0.0
 10
57.32602589664989
 20
192.0562589515849
 30
0.0
 10
57.25497698565385
 20
192.0562589515849
 30
0.0
 10
57.18396335217319
 20
192.0562589515849
 30
0.0
 10
57.14113645149525
 20
192.0562589515849
 30
0.0
 10
57.09830955083014
 20
192.0562589515849
 30
0.0
 10
57.05551792767625
 20
192.0562589515849
 30
0.0
 10
57.01135048151184
 20
192.0562589515849
 30
0.0
 10
56.96721831286506
 20
192.0562589515849
 30
0.0
 10
56.92308614421829
 20
192.0562589515849
 30
0.0
 10
56.86660684605098
 20
192.0562589515849
 30
0.0
 10
56.81009227036862
 20
192.0562589515849
 30
0.0
 10
56.75361297220741
 20
192.0562589515849
 30
0.0
 10
56.72196904313243
 20
192.0562589515849
 30
0.0
 10
56.69036039156386
 20
192.0562589515849
 30
0.0
 10
56.65871646248118
 20
192.0562589515849
 30
0.0
 10
56.57581430714632
 20
192.0562589515849
 30
0.0
 10
56.49294742933166
 20
192.0562589515849
 30
0.0
 10
56.41008055151059
 20
192.0562589515849
 30
0.0
 10
56.31331433359983
 20
192.0562589515849
 30
0.0
 10
56.2165481156971
 20
192.0562589515849
 30
0.0
 10
56.11978189779245
 20
192.0562589515849
 30
0.0
 10
56.07342724583297
 20
192.0562589515849
 30
0.0
 10
56.02707259387156
 20
192.0562589515849
 30
0.0
 10
55.98071794191144
 20
192.0562589515849
 30
0.0
 10
55.93563328041213
 20
192.0562589515849
 30
0.0
 10
55.89051334139874
 20
192.0562589515849
 30
0.0
 10
55.84542867990554
 20
192.0562589515849
 30
0.0
 10
55.79692209966027
 20
192.0562589515849
 30
0.0
 10
55.74841551940858
 20
192.0562589515849
 30
0.0
 10
55.69990893916331
 20
192.0562589515849
 30
0.0
 10
55.65591788056685
 20
192.0562589515849
 30
0.0
 10
55.61192682197102
 20
192.0562589515849
 30
0.0
 10
55.56793576337424
 20
192.0562589515849
 30
0.0
 10
55.48976079477312
 20
192.0562589515849
 30
0.0
 10
55.41162110368001
 20
192.0562589515849
 30
0.0
 10
55.33344613507247
 20
192.0562589515849
 30
0.0
 10
55.2235919598813
 20
192.0562589515849
 30
0.0
 10
55.11370250717572
 20
192.0562589515849
 30
0.0
 10
55.00384833197846
 20
192.0562589515849
 30
0.0
 10
54.94669876106568
 20
192.0562589515849
 30
0.0
 10
54.88954919015323
 20
192.0562589515849
 30
0.0
 10
54.83243489676224
 20
192.0562589515849
 30
0.0
 10
54.79408824022542
 20
192.0562589515849
 30
0.0
 10
54.75577686120879
 20
192.0562589515849
 30
0.0
 10
54.71746548219281
 20
192.0562589515849
 30
0.0
 10
54.67104027520352
 20
192.0562589515849
 30
0.0
 10
54.62461506821487
 20
192.0562589515849
 30
0.0
 10
54.57822513873744
 20
192.0562589515849
 30
0.0
 10
54.52823690295507
 20
192.0562589515849
 30
0.0
 10
54.47824866716372
 20
192.0562589515849
 30
0.0
 10
54.42829570888551
 20
192.0562589515849
 30
0.0
 10
54.34874491727388
 20
192.0562589515849
 30
0.0
 10
54.26919412567572
 20
192.0562589515849
 30
0.0
 10
54.18964333406472
 20
192.0562589515849
 30
0.0
 10
54.17189874507108
 20
192.0562589515849
 30
0.0
 10
54.15415415607743
 20
192.0562589515849
 30
0.0
 10
54.1364448445995
 20
192.0562589515849
 30
0.0
 10
54.02225153531721
 20
192.0562589515849
 30
0.0
 10
53.90805822603492
 20
192.0562589515849
 30
0.0
 10
53.79390019426769
 20
192.0562589515849
 30
0.0
 10
53.71096276141777
 20
192.0562589515849
 30
0.0
 10
53.62802532856913
 20
192.0562589515849
 30
0.0
 10
53.54505261821152
 20
192.0562589515849
 30
0.0
 10
53.35716458446313
 20
192.0562589515849
 30
0.0
 10
53.16927655072084
 20
192.0562589515849
 30
0.0
 10
52.98135323945835
 20
192.0562589515849
 30
0.0
 10
52.95609454021606
 20
192.0562589515849
 30
0.0
 10
52.93083584097248
 20
192.0562589515849
 30
0.0
 10
52.90554186421512
 20
192.0562589515849
 30
0.0
 10
52.78648025815551
 20
192.0562589515849
 30
0.0
 10
52.66738337458085
 20
192.0562589515849
 30
0.0
 10
52.54828649099976
 20
192.0562589515849
 30
0.0
 10
52.47459176653334
 20
192.0562589515849
 30
0.0
 10
52.40093231958135
 20
192.0562589515849
 30
0.0
 10
52.32723759512135
 20
192.0562589515849
 30
0.0
 10
51.96010451828534
 20
192.0562589515849
 30
0.0
 10
51.5929714414564
 20
192.0562589515849
 30
0.0
 10
51.22583836462681
 20
192.0562589515849
 30
0.0
 10
51.18085953567014
 20
192.0562589515849
 30
0.0
 10
51.13591598422212
 20
192.0562589515849
 30
0.0
 10
51.09097243277249
 20
192.0562589515849
 30
0.0
 10
50.96732475003557
 20
192.0562589515849
 30
0.0
 10
50.843712344806
 20
192.0562589515849
 30
0.0
 10
50.72006466206137
 20
192.0562589515849
 30
0.0
 10
50.62873118114425
 20
192.0562589515849
 30
0.0
 10
50.537362422714
 20
192.0562589515849
 30
0.0
 10
50.44599366428214
 20
192.0562589515849
 30
0.0
 10
50.27429800895856
 20
192.0562589515849
 30
0.0
 10
50.10260235363499
 20
192.0562589515849
 30
0.0
 10
49.93087142080661
 20
192.0562589515849
 30
0.0
 10
49.89425336240046
 20
192.0562589515849
 30
0.0
 10
49.85763530400972
 20
192.0562589515849
 30
0.0
 10
49.82101724560646
 20
192.0562589515849
 30
0.0
 10
49.70431923290379
 20
192.0562589515849
 30
0.0
 10
49.58758594269952
 20
192.0562589515849
 30
0.0
 10
49.47088792999651
 20
192.0562589515849
 30
0.0
 10
49.3732044967544
 20
192.0562589515849
 30
0.0
 10
49.2755210635139
 20
192.0562589515849
 30
0.0
 10
49.17787290778524
 20
192.0562589515849
 30
0.0
 10
49.07493312511487
 20
192.0562589515849
 30
0.0
 10
48.97199334245092
 20
192.0562589515849
 30
0.0
 10
48.86905355978632
 20
192.0562589515849
 30
0.0
 10
48.75062694895681
 20
192.0562589515849
 30
0.0
 10
48.63216506061352
 20
192.0562589515849
 30
0.0
 10
48.51373844978016
 20
192.0562589515849
 30
0.0
 10
48.36190403423026
 20
192.0562589515849
 30
0.0
 10
48.21010489618514
 20
192.0562589515849
 30
0.0
 10
48.05830575814003
 20
192.0562589515849
 30
0.0
 10
47.99840454121938
 20
192.0562589515849
 30
0.0
 10
47.93850332430642
 20
192.0562589515849
 30
0.0
 10
47.87860210739219
 20
192.0562589515849
 30
0.0
 10
47.70997559568544
 20
192.0562589515849
 30
0.0
 10
47.54134908399152
 20
192.0562589515849
 30
0.0
 10
47.37275784979855
 20
192.0562589515849
 30
0.0
 10
47.32312238914276
 20
192.0562589515849
 30
0.0
 10
47.27348692847992
 20
192.0562589515849
 30
0.0
 10
47.22385146782125
 20
192.0562589515849
 30
0.0
 10
47.13872682917561
 20
192.0562589515849
 30
0.0
 10
47.05363746803508
 20
192.0562589515849
 30
0.0
 10
46.96854810690964
 20
192.0562589515849
 30
0.0
 10
46.83004859122763
 20
192.0562589515849
 30
0.0
 10
46.69154907554819
 20
192.0562589515849
 30
0.0
 10
46.55304955987901
 20
192.0562589515849
 30
0.0
 10
46.39775794805555
 20
192.0562589515849
 30
0.0
 10
46.24246633623594
 20
192.0562589515849
 30
0.0
 10
46.08721000193011
 20
192.0562589515849
 30
0.0
 10
46.02519213423906
 20
192.0562589515849
 30
0.0
 10
45.96320954405665
 20
192.0562589515849
 30
0.0
 10
45.90119167635918
 20
192.0562589515849
 30
0.0
 10
45.79087889350298
 20
192.0562589515849
 30
0.0
 10
45.6805308331253
 20
192.0562589515849
 30
0.0
 10
45.5702180502614
 20
192.0562589515849
 30
0.0
 10
45.45419031030998
 20
192.0562589515849
 30
0.0
 10
45.33812729284477
 20
192.0562589515849
 30
0.0
 10
45.22209955288692
 20
192.0562589515849
 30
0.0
 10
45.01368000662966
 20
192.0562589515849
 30
0.0
 10
44.80526046037239
 20
192.0562589515849
 30
0.0
 10
44.59684091410934
 20
192.0562589515849
 30
0.0
 10
44.57256998522661
 20
192.0562589515849
 30
0.0
 10
44.54826377883587
 20
192.0562589515849
 30
0.0
 10
44.52395757244513
 20
192.0562589515849
 30
0.0
 10
44.34767584044423
 20
192.0562589515849
 30
0.0
 10
44.1714293859571
 20
192.0562589515849
 30
0.0
 10
43.9951476539562
 20
192.0562589515849
 30
0.0
 10
43.93792752801554
 20
192.0562589515849
 30
0.0
 10
43.88074267958865
 20
192.0562589515849
 30
0.0
 10
43.82352255365505
 20
192.0562589515849
 30
0.0
 10
43.6706650902273
 20
192.0562589515849
 30
0.0
 10
43.51780762679956
 20
192.0562589515849
 30
0.0
 10
43.36495016336283
 20
192.0562589515849
 30
0.0
 10
43.27816748161857
 20
192.0562589515849
 30
0.0
 10
43.19138479985826
 20
192.0562589515849
 30
0.0
 10
43.10460211811079
 20
192.0562589515849
 30
0.0
 10
42.91509131876536
 20
192.0562589515849
 30
0.0
 10
42.72558051942636
 20
192.0562589515849
 30
0.0
 10
42.53606972008222
 20
192.0562589515849
 30
0.0
 10
42.48170707269815
 20
192.0562589515849
 30
0.0
 10
42.42734442530125
 20
192.0562589515849
 30
0.0
 10
42.37298177791077
 20
192.0562589515849
 30
0.0
 10
42.19797003637775
 20
192.0562589515849
 30
0.0
 10
42.02292301732324
 20
192.0562589515849
 30
0.0
 10
41.84787599828222
 20
192.0562589515849
 30
0.0
 10
41.77495737909685
 20
192.0562589515849
 30
0.0
 10
41.7020387599179
 20
192.0562589515849
 30
0.0
 10
41.62908486322548
 20
192.0562589515849
 30
0.0
 10
41.40658958931476
 20
192.0562589515849
 30
0.0
 10
41.1840943154034
 20
192.0562589515849
 30
0.0
 10
40.96156376397826
 20
192.0562589515849
 30
0.0
 10
40.92551014579357
 20
192.0562589515849
 30
0.0
 10
40.88945652760119
 20
192.0562589515849
 30
0.0
 10
40.85340290940624
 20
192.0562589515849
 30
0.0
 10
40.63912729600472
 20
192.0562589515849
 30
0.0
 10
40.42488696010992
 20
192.0562589515849
 30
0.0
 10
40.21064662422891
 20
192.0562589515849
 30
0.0
 10
40.17575716395891
 20
192.0562589515849
 30
0.0
 10
40.14086770368953
 20
192.0562589515849
 30
0.0
 10
40.10597824343139
 20
192.0562589515849
 30
0.0
 10
39.86034092104877
 20
192.0562589515849
 30
0.0
 10
39.61466832116425
 20
192.0562589515849
 30
0.0
 10
39.36903099878132
 20
192.0562589515849
 30
0.0
 10
39.34112648607282
 20
192.0562589515849
 30
0.0
 10
39.31322197336431
 20
192.0562589515849
 30
0.0
 10
39.28531746065003
 20
192.0562589515849
 30
0.0
 10
39.10882406357029
 20
192.0562589515849
 30
0.0
 10
38.93233066649696
 20
192.0562589515849
 30
0.0
 10
38.75580199190857
 20
192.0562589515849
 30
0.0
 10
38.68348309044625
 20
192.0562589515849
 30
0.0
 10
38.61116418898393
 20
192.0562589515849
 30
0.0
 10
38.5388452875216
 20
192.0562589515849
 30
0.0
 10
38.27257062009294
 20
192.0562589515849
 30
0.0
 10
38.00629595266555
 20
192.0562589515849
 30
0.0
 10
37.74002128523689
 20
192.0562589515849
 30
0.0
 10
37.60568451608351
 20
192.0562589515849
 30
0.0
 10
37.47134774693014
 20
192.0562589515849
 30
0.0
 10
37.33701097777676
 20
192.0562589515849
 30
0.0
 10
37.27619254551929
 20
192.0562589515849
 30
0.0
 10
37.21533883576024
 20
192.0562589515849
 30
0.0
 10
37.15452040350181
 20
192.0562589515849
 30
0.0
 10
37.06847854952129
 20
192.0562589515849
 30
0.0
 10
36.98240141802697
 20
192.0562589515849
 30
0.0
 10
36.89635956404645
 20
192.0562589515849
 30
0.0
 10
36.82792118900252
 20
192.0562589515849
 30
0.0
 10
36.75951809147878
 20
192.0562589515849
 30
0.0
 10
36.69107971643485
 20
192.0562589515849
 30
0.0
 10
36.36172885592769
 20
192.0562589515849
 30
0.0
 10
36.03234271790481
 20
192.0562589515849
 30
0.0
 10
35.7029918574015
 20
192.0562589515849
 30
0.0
 10
35.65042836316989
 20
192.0562589515849
 30
0.0
 10
35.59786486893476
 20
192.0562589515849
 30
0.0
 10
35.54526609718585
 20
192.0562589515849
 30
0.0
 10
35.44105632405979
 20
192.0562589515849
 30
0.0
 10
35.33681127341448
 20
192.0562589515849
 30
0.0
 10
35.23256622276854
 20
192.0562589515849
 30
0.0
 10
35.15820122556337
 20
192.0562589515849
 30
0.0
 10
35.08383622835565
 20
192.0562589515849
 30
0.0
 10
35.00950650865529
 20
192.0562589515849
 30
0.0
 10
34.85407378678826
 20
192.0562589515849
 30
0.0
 10
34.69864106490839
 20
192.0562589515849
 30
0.0
 10
34.54320834303751
 20
192.0562589515849
 30
0.0
 10
34.52041906970086
 20
192.0562589515849
 30
0.0
 10
34.49762979636485
 20
192.0562589515849
 30
0.0
 10
34.47480524551377
 20
192.0562589515849
 30
0.0
 10
34.31898447100028
 20
192.0562589515849
 30
0.0
 10
34.16312841897172
 20
192.0562589515849
 30
0.0
 10
34.00727236694317
 20
192.0562589515849
 30
0.0
 10
33.98543558645294
 20
192.0562589515849
 30
0.0
 10
33.96356352844765
 20
192.0562589515849
 30
0.0
 10
33.94172674795742
 20
192.0562589515849
 30
0.0
 10
33.81878461547814
 20
192.0562589515849
 30
0.0
 10
33.69580720548252
 20
192.0562589515849
 30
0.0
 10
33.57286507299427
 20
192.0562589515849
 30
0.0
 10
33.51878464571146
 20
192.0562589515849
 30
0.0
 10
33.46473949592961
 20
192.0562589515849
 30
0.0
 10
33.41065906864681
 20
192.0562589515849
 30
0.0
 10
33.33862238728575
 20
192.0562589515849
 30
0.0
 10
33.26658570593111
 20
192.0562589515849
 30
0.0
 10
33.19454902457584
 20
192.0562589515849
 30
0.0
 10
33.09040980646642
 20
192.0562589515849
 30
0.0
 10
32.98623531085541
 20
192.0562589515849
 30
0.0
 10
32.88206081523158
 20
192.0562589515849
 30
0.0
 10
32.84501942668284
 20
192.0562589515849
 30
0.0
 10
32.80794276062032
 20
192.0562589515849
 30
0.0
 10
32.77090137205874
 20
192.0562589515849
 30
0.0
 10
32.63271935400461
 20
192.0562589515849
 30
0.0
 10
32.49453733594406
 20
192.0562589515849
 30
0.0
 10
32.35632004036588
 20
192.0562589515849
 30
0.0
 10
32.19545458150874
 20
192.0562589515849
 30
0.0
 10
32.03458912265032
 20
192.0562589515849
 30
0.0
 10
31.87372366379318
 20
192.0562589515849
 30
0.0
 10
31.86042404142751
 20
192.0562589515849
 30
0.0
 10
31.84715969656857
 20
192.0562589515849
 30
0.0
 10
31.83386007420226
 20
192.0562589515849
 30
0.0
 10
31.68149649595462
 20
192.0562589515849
 30
0.0
 10
31.52913291770698
 20
192.0562589515849
 30
0.0
 10
31.37673406193914
 20
192.0562589515849
 30
0.0
 10
31.35616727192257
 20
192.0562589515849
 30
0.0
 10
31.33560048189317
 20
192.0562589515849
 30
0.0
 10
31.31503369186377
 20
192.0562589515849
 30
0.0
 10
31.15406240046978
 20
192.0562589515849
 30
0.0
 10
30.99309110907001
 20
192.0562589515849
 30
0.0
 10
30.83211981767666
 20
192.0562589515849
 30
0.0
 10
30.82150128628906
 20
192.0562589515849
 30
0.0
 10
30.81084747738768
 20
192.0562589515849
 30
0.0
 10
30.8001936684863
 20
192.0562589515849
 30
0.0
 10
30.45468570707516
 20
192.0562589515849
 30
0.0
 10
30.10914246813613
 20
192.0562589515849
 30
0.0
 10
29.76359922921121
 20
192.0562589515849
 30
0.0
 10
29.68852868174069
 20
192.0562589515849
 30
0.0
 10
29.61345813427018
 20
192.0562589515849
 30
0.0
 10
29.53835230928588
 20
192.0562589515849
 30
0.0
 10
29.44701882836909
 20
192.0562589515849
 30
0.0
 10
29.35568534745229
 20
192.0562589515849
 30
0.0
 10
29.2643518665355
 20
192.0562589515849
 30
0.0
 10
29.14581942316625
 20
192.0562589515849
 30
0.0
 10
29.02725170227648
 20
192.0562589515849
 30
0.0
 10
28.90871925891044
 20
192.0562589515849
 30
0.0
 10
28.85432133400618
 20
192.0562589515849
 30
0.0
 10
28.79992340910128
 20
192.0562589515849
 30
0.0
 10
28.74552548420631
 20
192.0562589515849
 30
0.0
 10
28.6556736588202
 20
192.0562589515849
 30
0.0
 10
28.56582183344981
 20
192.0562589515849
 30
0.0
 10
28.47593473055858
 20
192.0562589515849
 30
0.0
 10
28.39165675221962
 20
192.0562589515849
 30
0.0
 10
28.30734349637267
 20
192.0562589515849
 30
0.0
 10
28.22306551803307
 20
192.0562589515849
 30
0.0
 10
28.18461302896645
 20
192.0562589515849
 30
0.0
 10
28.14616053989342
 20
192.0562589515849
 30
0.0
 10
28.10770805082712
 20
192.0562589515849
 30
0.0
 10
27.92440609375639
 20
192.0562589515849
 30
0.0
 10
27.741104136685
 20
192.0562589515849
 30
0.0
 10
27.55780217961426
 20
192.0562589515849
 30
0.0
 10
27.43052091304193
 20
192.0562589515849
 30
0.0
 10
27.30323964647603
 20
192.0562589515849
 30
0.0
 10
27.17599365741459
 20
192.0562589515849
 30
0.0
 10
27.11951435925371
 20
192.0562589515849
 30
0.0
 10
27.06299978357231
 20
192.0562589515849
 30
0.0
 10
27.00652048540469
 20
192.0562589515849
 30
0.0
 10
26.91850309069733
 20
192.0562589515849
 30
0.0
 10
26.83048569599704
 20
192.0562589515849
 30
0.0
 10
26.74246830128969
 20
192.0562589515849
 30
0.0
 10
26.68567150550734
 20
192.0562589515849
 30
0.0
 10
26.62890998724551
 20
192.0562589515849
 30
0.0
 10
26.57211319145578
 20
192.0562589515849
 30
0.0
 10
26.48441329437054
 20
192.0562589515849
 30
0.0
 10
26.39671339728529
 20
192.0562589515849
 30
0.0
 10
26.30901350019363
 20
192.0562589515849
 30
0.0
 10
26.21806807192008
 20
192.0562589515849
 30
0.0
 10
26.12712264364108
 20
192.0562589515849
 30
0.0
 10
26.03617721536144
 20
192.0562589515849
 30
0.0
 10
25.99105727635446
 20
192.0562589515849
 30
0.0
 10
25.94593733734716
 20
192.0562589515849
 30
0.0
 10
25.90081739833376
 20
192.0562589515849
 30
0.0
 10
25.71617489577977
 20
192.0562589515849
 30
0.0
 10
25.53149711570525
 20
192.0562589515849
 30
0.0
 10
25.34681933563041
 20
192.0562589515849
 30
0.0
 10
25.24260956250563
 20
192.0562589515849
 30
0.0
 10
25.13836451185936
 20
192.0562589515849
 30
0.0
 10
25.03411946121342
 20
192.0562589515849
 30
0.0
 10
24.95354562173421
 20
192.0562589515849
 30
0.0
 10
24.87297178225501
 20
192.0562589515849
 30
0.0
 10
24.79236266525529
 20
192.0562589515849
 30
0.0
 10
24.72099625664485
 20
192.0562589515849
 30
0.0
 10
24.6496298480344
 20
192.0562589515849
 30
0.0
 10
24.57822816190376
 20
192.0562589515849
 30
0.0
 10
24.52732271078009
 20
192.0562589515849
 30
0.0
 10
24.47638198214231
 20
192.0562589515849
 30
0.0
 10
24.42547653101287
 20
192.0562589515849
 30
0.0
 10
24.33259083953366
 20
192.0562589515849
 30
0.0
 10
24.23970514804129
 20
192.0562589515849
 30
0.0
 10
24.14681945655599
 20
192.0562589515849
 30
0.0
 10
23.80741450486985
 20
192.0562589515849
 30
0.0
 10
23.46800955318371
 20
192.0562589515849
 30
0.0
 10
23.12860460149789
 20
192.0562589515849
 30
0.0
 10
23.04891269984589
 20
192.0562589515849
 30
0.0
 10
22.96922079818074
 20
192.0562589515849
 30
0.0
 10
22.88952889651879
 20
192.0562589515849
 30
0.0
 10
22.78457829562032
 20
192.0562589515849
 30
0.0
 10
22.67962769472154
 20
192.0562589515849
 30
0.0
 10
22.57467709382339
 20
192.0562589515849
 30
0.0
 10
22.52634690113612
 20
192.0562589515849
 30
0.0
 10
22.47801670844917
 20
192.0562589515849
 30
0.0
 10
22.42965123825421
 20
192.0562589515849
 30
0.0
 10
22.37948661489781
 20
192.0562589515849
 30
0.0
 10
22.32928671403372
 20
192.0562589515849
 30
0.0
 10
22.27912209067635
 20
192.0562589515849
 30
0.0
 10
22.19325662426088
 20
192.0562589515849
 30
0.0
 10
22.10735588032457
 20
192.0562589515849
 30
0.0
 10
22.0214904139091
 20
192.0562589515849
 30
0.0
 10
21.65375761936319
 20
192.0562589515849
 30
0.0
 10
21.28602482480446
 20
192.0562589515849
 30
0.0
 10
20.91829203025888
 20
192.0562589515849
 30
0.0
 10
20.86805685187427
 20
192.0562589515849
 30
0.0
 10
20.81782167349512
 20
192.0562589515849
 30
0.0
 10
20.76758649511628
 20
192.0562589515849
 30
0.0
 10
20.63466082648111
 20
192.0562589515849
 30
0.0
 10
20.50169988033183
 20
192.0562589515849
 30
0.0
 10
20.36877421169023
 20
192.0562589515849
 30
0.0
 10
20.34930102457009
 20
192.0562589515849
 30
0.0
 10
20.32982783744352
 20
192.0562589515849
 30
0.0
 10
20.31035465031727
 20
192.0562589515849
 30
0.0
 10
19.96530529656539
 20
192.0562589515849
 30
0.0
 10
19.62022066529877
 20
192.0562589515849
 30
0.0
 10
19.27513603403247
 20
192.0562589515849
 30
0.0
 10
19.21364732903595
 20
192.0562589515849
 30
0.0
 10
19.15219390155384
 20
192.0562589515849
 30
0.0
 10
19.0907051965509
 20
192.0562589515849
 30
0.0
 10
18.97097331773972
 20
192.0562589515849
 30
0.0
 10
18.85124143893464
 20
192.0562589515849
 30
0.0
 10
18.73154483763757
 20
192.0562589515849
 30
0.0
 10
18.70268783207687
 20
192.0562589515849
 30
0.0
 10
18.67383082652322
 20
192.0562589515849
 30
0.0
 10
18.64500909847052
 20
192.0562589515849
 30
0.0
 10
18.49680826674895
 20
192.0562589515849
 30
0.0
 10
18.34864271253507
 20
192.0562589515849
 30
0.0
 10
18.20044188080676
 20
192.0562589515849
 30
0.0
 10
18.19709051708289
 20
192.0562589515849
 30
0.0
 10
18.19373915335903
 20
192.0562589515849
 30
0.0
 10
18.19038778963452
 20
192.0562589515849
 30
0.0
 10
18.02825234030661
 20
192.0562589515849
 30
0.0
 10
17.86611689098479
 20
192.0562589515849
 30
0.0
 10
17.70398144165334
 20
192.0562589515849
 30
0.0
 10
17.64383328215291
 20
192.0562589515849
 30
0.0
 10
17.58372040015406
 20
192.0562589515849
 30
0.0
 10
17.52357224064721
 20
192.0562589515849
 30
0.0
 10
17.42052662544704
 20
192.0562589515849
 30
0.0
 10
17.31748101024334
 20
192.0562589515849
 30
0.0
 10
17.21443539503323
 20
192.0562589515849
 30
0.0
 10
17.14747867553571
 20
192.0562589515849
 30
0.0
 10
17.08048667852375
 20
192.0562589515849
 30
0.0
 10
17.01352995902622
 20
192.0562589515849
 30
0.0
 10
16.69416263466886
 20
192.0562589515849
 30
0.0
 10
16.37479531031792
 20
192.0562589515849
 30
0.0
 10
16.05546326347466
 20
192.0562589515849
 30
0.0
 10
15.97563025176272
 20
192.0562589515849
 30
0.0
 10
15.89579724005688
 20
192.0562589515849
 30
0.0
 10
15.8159642283443
 20
192.0562589515849
 30
0.0
 10
15.7207502210027
 20
192.0562589515849
 30
0.0
 10
15.6255362136672
 20
192.0562589515849
 30
0.0
 10
15.53035748384002
 20
192.0562589515849
 30
0.0
 10
15.51211900966659
 20
192.0562589515849
 30
0.0
 10
15.49391581300759
 20
192.0562589515849
 30
0.0
 10
15.47567733883738
 20
192.0562589515849
 30
0.0
 10
15.3201740619354
 20
192.0562589515849
 30
0.0
 10
15.16470606255074
 20
192.0562589515849
 30
0.0
 10
15.00920278565165
 20
192.0562589515849
 30
0.0
 10
14.99699676618818
 20
192.0562589515849
 30
0.0
 10
14.98479074672085
 20
192.0562589515849
 30
0.0
 10
14.97262000476891
 20
192.0562589515849
 30
0.0
 10
14.81246009616397
 20
192.0562589515849
 30
0.0
 10
14.65233546507987
 20
192.0562589515849
 30
0.0
 10
14.49221083398936
 20
192.0562589515849
 30
0.0
 10
14.4143533630004
 20
192.0562589515849
 30
0.0
 10
14.33649589201143
 20
192.0562589515849
 30
0.0
 10
14.25863842102568
 20
192.0562589515849
 30
0.0
 10
14.18120428019183
 20
192.0562589515849
 30
0.0
 10
14.10380541687143
 20
192.0562589515849
 30
0.0
 10
14.02637127604367
 20
192.0562589515849
 30
0.0
 10
13.97655942781642
 20
192.0562589515849
 30
0.0
 10
13.9267475795898
 20
192.0562589515849
 30
0.0
 10
13.87693573136254
 20
192.0562589515849
 30
0.0
 10
13.58536708717683
 20
192.0562589515849
 30
0.0
 10
13.29379844299113
 20
192.0562589515849
 30
0.0
 10
13.00219452129774
 20
192.0562589515849
 30
0.0
 10
12.93950638086249
 20
192.0562589515849
 30
0.0
 10
12.8768535179346
 20
192.0562589515849
 30
0.0
 10
12.81416537749904
 20
192.0562589515849
 30
0.0
 10
12.71648194425756
 20
192.0562589515849
 30
0.0
 10
12.61879851101545
 20
192.0562589515849
 30
0.0
 10
12.52111507777334
 20
192.0562589515849
 30
0.0
 10
12.49197585211201
 20
192.0562589515849
 30
0.0
 10
12.4628366264539
 20
192.0562589515849
 30
0.0
 10
12.43369740078936
 20
192.0562589515849
 30
0.0
 10
12.11941003829585
 20
192.0562589515849
 30
0.0
 10
11.80512267579592
 20
192.0562589515849
 30
0.0
 10
11.4908000357883
 20
192.0562589515849
 30
0.0
 10
11.44987812081508
 20
192.0562589515849
 30
0.0
 10
11.40895620584121
 20
192.0562589515849
 30
0.0
 10
11.36803429086799
 20
192.0562589515849
 30
0.0
 10
11.28153382921857
 20
192.0562589515849
 30
0.0
 10
11.19503336756884
 20
192.0562589515849
 30
0.0
 10
11.10853290591943
 20
192.0562589515849
 30
0.0
 10
11.05424081355458
 20
192.0562589515849
 30
0.0
 10
10.9999839987003
 20
192.0562589515849
 30
0.0
 10
10.94572718384988
 20
192.0562589515849
 30
0.0
 10
10.65200661137903
 20
192.0562589515849
 30
0.0
 10
10.35828603890882
 20
192.0562589515849
 30
0.0
 10
10.06453018892098
 20
192.0562589515849
 30
0.0
 10
10.0121078047429
 20
192.0562589515849
 30
0.0
 10
9.95968542056161
 20
192.0562589515849
 30
0.0
 10
9.907263036380643
 20
192.0562589515849
 30
0.0
 10
9.853464829195577
 20
192.0562589515849
 30
0.0
 10
9.799666622010832
 20
192.0562589515849
 30
0.0
 10
9.745868414828976
 20
192.0562589515849
 30
0.0
 10
9.686919690758277
 20
192.0562589515849
 30
0.0
 10
9.627935689176041
 20
192.0562589515849
 30
0.0
 10
9.568986965105342
 20
192.0562589515849
 30
0.0
 10
9.427629970885983
 20
192.0562589515849
 30
0.0
 10
9.286308254180085
 20
192.0562589515849
 30
0.0
 10
9.14498653746777
 20
192.0562589515849
 30
0.0
 10
9.06490658316546
 20
192.0562589515849
 30
0.0
 10
8.984826628866358
 20
192.0562589515849
 30
0.0
 10
8.904746674563729
 20
192.0562589515849
 30
0.0
 10
8.837049127296366
 20
192.0562589515849
 30
0.0
 10
8.769386857536368
 20
192.0562589515849
 30
0.0
 10
8.701689310268684
 20
192.0562589515849
 30
0.0
 10
8.660626285244827
 20
192.0562589515849
 30
0.0
 10
8.619563260223858
 20
192.0562589515849
 30
0.0
 10
8.578500235193905
 20
192.0562589515849
 30
0.0
 10
8.32439630971814
 20
192.0562589515849
 30
0.0
 10
8.070292384242373
 20
192.0562589515849
 30
0.0
 10
7.816188458766608
 20
192.0562589515849
 30
0.0
 10
7.76874020390654
 20
192.0562589515849
 30
0.0
 10
7.721291949050001
 20
192.0562589515849
 30
0.0
 10
7.673843694183516
 20
192.0562589515849
 30
0.0
 10
7.299902057360044
 20
192.0562589515849
 30
0.0
 10
6.925925143025678
 20
192.0562589515849
 30
0.0
 10
6.551983506202527
 20
192.0562589515849
 30
0.0
 10
6.506475514551653
 20
192.0562589515849
 30
0.0
 10
6.4609675229011
 20
192.0562589515849
 30
0.0
 10
6.41549480876112
 20
192.0562589515849
 30
0.0
 10
6.406922373125663
 20
192.0562589515849
 30
0.0
 10
6.398349937490527
 20
192.0562589515849
 30
0.0
 10
6.389777501851861
 20
192.0562589515849
 30
0.0
 10
6.301160389428838
 20
192.0562589515849
 30
0.0
 10
6.212578554516388
 20
192.0562589515849
 30
0.0
 10
6.123961442092724
 20
192.0562589515849
 30
0.0
 10
6.083039527119499
 20
192.0562589515849
 30
0.0
 10
6.042117612146275
 20
192.0562589515849
 30
0.0
 10
6.001195697173051
 20
192.0562589515849
 30
0.0
 10
5.874090818165138
 20
192.0562589515849
 30
0.0
 10
5.746985939157546
 20
192.0562589515849
 30
0.0
 10
5.619881060149954
 20
192.0562589515849
 30
0.0
 10
5.53196949798555
 20
192.0562589515849
 30
0.0
 10
5.444093213332038
 20
192.0562589515849
 30
0.0
 10
5.356216928675639
 20
192.0562589515849
 30
0.0
 10
5.238390035568861
 20
192.0562589515849
 30
0.0
 10
5.120598419969767
 20
192.0562589515849
 30
0.0
 10
5.002771526856892
 20
192.0562589515849
 30
0.0
 10
4.992999655778864
 20
192.0562589515849
 30
0.0
 10
4.983192507190264
 20
192.0562589515849
 30
0.0
 10
4.973420636115765
 20
192.0562589515849
 30
0.0
 10
4.805393842138158
 20
192.0562589515849
 30
0.0
 10
4.637402325668235
 20
192.0562589515849
 30
0.0
 10
4.469410809204729
 20
192.0562589515849
 30
0.0
 10
4.390318625259095
 20
192.0562589515849
 30
0.0
 10
4.311226441319878
 20
192.0562589515849
 30
0.0
 10
4.232134257380981
 20
192.0562589515849
 30
0.0
 10
4.139530785999188
 20
192.0562589515849
 30
0.0
 10
4.04696259213278
 20
192.0562589515849
 30
0.0
 10
3.954359120745212
 20
192.0562589515849
 30
0.0
 10
3.92751293341934
 20
192.0562589515849
 30
0.0
 10
3.900666746099565
 20
192.0562589515849
 30
0.0
 10
3.873855836291004
 20
192.0562589515849
 30
0.0
 10
3.735109378022148
 20
192.0562589515849
 30
0.0
 10
3.596398197270281
 20
192.0562589515849
 30
0.0
 10
3.457687016515848
 20
192.0562589515849
 30
0.0
 10
3.365894927929845
 20
192.0562589515849
 30
0.0
 10
3.274138116857944
 20
192.0562589515849
 30
0.0
 10
3.182346028269054
 20
192.0562589515849
 30
0.0
 10
3.114719036026366
 20
192.0562589515849
 30
0.0
 10
3.047092043777583
 20
192.0562589515849
 30
0.0
 10
2.979429774024322
 20
192.0562589515849
 30
0.0
 10
2.936073710662122
 20
192.0562589515849
 30
0.0
 10
2.892682369784857
 20
192.0562589515849
 30
0.0
 10
2.849291028907913
 20
192.0562589515849
 30
0.0
 10
2.739401576199118
 20
192.0562589515849
 30
0.0
 10
2.629512123490965
 20
192.0562589515849
 30
0.0
 10
2.519622670785379
 20
192.0562589515849
 30
0.0
 10
2.421727572467639
 20
192.0562589515849
 30
0.0
 10
2.323797196632268
 20
192.0562589515849
 30
0.0
 10
2.22590209831132
 20
192.0562589515849
 30
0.0
 10
2.176689967803904
 20
192.0562589515849
 30
0.0
 10
2.127442559785274
 20
192.0562589515849
 30
0.0
 10
2.078230429281066
 20
192.0562589515849
 30
0.0
 10
2.028771356183278
 20
192.0562589515849
 30
0.0
 10
1.979277005574918
 20
192.0562589515849
 30
0.0
 10
1.92981793247713
 20
192.0562589515849
 30
0.0
 10
1.838272786481179
 20
192.0562589515849
 30
0.0
 10
1.746727640488756
 20
192.0562589515849
 30
0.0
 10
1.655182494492484
 20
192.0562589515849
 30
0.0
 10
1.637755403114529
 20
192.0562589515849
 30
0.0
 10
1.620293034222472
 20
192.0562589515849
 30
0.0
 10
1.602865942854464
 20
192.0562589515849
 30
0.0
 10
1.485391824863999
 20
192.0562589515849
 30
0.0
 10
1.367882429362963
 20
192.0562589515849
 30
0.0
 10
1.250408311385653
 20
192.0562589515849
 30
0.0
 10
1.196892324304741
 20
192.0562589515849
 30
0.0
 10
1.143376337220621
 20
192.0562589515849
 30
0.0
 10
1.089895627660549
 20
192.0562589515849
 30
0.0
 10
1.014507582565682
 20
192.0562589515849
 30
0.0
 10
0.9391548149974293
 20
192.0562589515849
 30
0.0
 10
0.8637667699150751
 20
192.0562589515849
 30
0.0
 10
0.8288773096482717
 20
192.0562589515849
 30
0.0
 10
0.7939525718766709
 20
192.0562589515849
 30
0.0
 10
0.7590278340925569
 20
192.0562589515849
 30
0.0
 10
0.6710809944108418
 20
192.0562589515849
 30
0.0
 10
0.5831341547323351
 20
192.0562589515849
 30
0.0
 10
0.495152037536197
 20
192.0562589515849
 30
0.0
  0
ENDBLK
  5
122
330
11F
100
AcDbEntity
  8
0
100
AcDbBlockEnd
  0
BLOCK
  5
127
330
125
100
AcDbEntity
  8
0
100
AcDbBlockBegin
  2
block 43
 70
     0
 10
0.0
 20
0.0
 30
0.0
  3
block 43
  1

  0
SPLINE
  5
129
330
125
100
AcDbEntity
  8
0
 62
   250
370
    25
100
AcDbSpline
210
0.0
220
0.0
230
1.0
 70
     8
 71
     3
 72
    11
 73
     7
 74
     0
 42
0.0000000001
 43
0.0000000001
 12
1.0
 22
0.0
 32
0.0
 13
1.0
 23
0.0
 33
0.0
 40
0.0
 40
0.0
 40
0.0
 40
0.0
 40
1.0
 40
1.0
 40
1.0
 40
2.0
 40
2.0
 40
2.0
 40
2.0
 10
-149.0096423979585
 20
202.4180053203896
 30
0.0
 10
-157.9705187291899
 20
202.4180053203896
 30
0.0
 10
-166.9313950604308
 20
202.4180053203896
 30
0.0
 10
-175.8922713916618
 20
202.4180053203896
 30
0.0
 10
-178.2812645657831
 20
202.4182522629835
 30
0.0
 10
-180.5051237019816
 20
203.6370197789185
 30
0.0
 10
-181.7907421048824
 20
205.6505896606763
 30
0.0
  0
ENDBLK
  5
128
330
125
100
AcDbEntity
  8
0
100
AcDbBlockEnd
  0
BLOCK
  5
12C
330
12A
100
AcDbEntity
  8
0
100
AcDbBlockBegin
  2
block 44
 70
     0
 10
0.0
 20
0.0
 30
0.0
  3
block 44
  1

  0
SPLINE
  5
12E
330
12A
100
AcDbEntity
  8
0
 62
   250
370
    25
100
AcDbSpline
210
0.0
220
0.0
230
1.0
 70
     8
 71
     3
 72
    11
 73
     7
 74
     0
 42
0.0000000001
 43
0.0000000001
 12
1.0
 22
0.0
 32
0.0
 13
1.0
 23
0.0
 33
0.0
 40
0.0
 40
0.0
 40
0.0
 40
0.0
 40
1.0
 40
1.0
 40
1.0
 40
2.0
 40
2.0
 40
2.0
 40
2.0
 10
-149.0096423979585
 20
202.4180053203896
 30
0.0
 10
-145.9496003733018
 20
202.4183580955201
 30
0.0
 10
-142.962406412802
 20
203.3516599770078
 30
0.0
 10
-140.4464141922161
 20
205.0933813442936
 30
0.0
 10
-140.0698972969495
 20
205.3539763321482
 30
0.0
 10
-139.6927806839669
 20
205.6137246596862
 30
0.0
 10
-139.3150643532612
 20
205.8726263269155
 30
0.0
  0
ENDBLK
  5
12D
330
12A
100
AcDbEntity
  8
0
100
AcDbBlockEnd
  0
BLOCK
  5
131
330
12F
100
AcDbEntity
  8
0
100
AcDbBlockBegin
  2
block 45
 70
     0
 10
0.0
 20
0.0
 30
0.0
  3
block 45
  1

  0
SPLINE
  5
133
330
12F
100
AcDbEntity
  8
0
  6
AI-Linetype-22
 62
     6
370
    25
100
AcDbSpline
210
0.0
220
0.0
230
1.0
 70
     8
 71
     3
 72
    14
 73
    10
 74
     0
 42
0.0000000001
 43
0.0000000001
 12
1.0
 22
0.0
 32
0.0
 13
1.0
 23
0.0
 33
0.0
 40
0.0
 40
0.0
 40
0.0
 40
0.0
 40
1.0
 40
1.0
 40
1.0
 40
2.0
 40
2.0
 40
2.0
 40
3.0
 40
3.0
 40
3.0
 40
3.0
 10
-27.14858929715473
 20
240.4177427892898
 30
0.0
 10
-51.1648850895866
 20
242.3496452286591
 30
0.0
 10
-74.16628211317304
 20
246.8472106267982
 30
0.0
 10
-97.06622100963902
 20
254.414342978068
 30
0.0
 10
-103.0036356889315
 20
256.5384035920083
 30
0.0
 10
-135.1712298322915
 20
269.8355711428382
 30
0.0
 10
-143.2792337562309
 20
274.4174689021016
 30
0.0
 10
-163.1199463659502
 20
285.6296140245595
 30
0.0
 10
-181.3515370691803
 20
298.0650794071354
 30
0.0
 10
-198.0369187367704
 20
313.6423943942902
 30
0.0
  0
ENDBLK
  5
132
330
12F
100
AcDbEntity
  8
0
100
AcDbBlockEnd
  0
BLOCK
  5
137
330
135
100
AcDbEntity
  8
0
100
AcDbBlockBegin
  2
block 46
 70
     0
 10
0.0
 20
0.0
 30
0.0
  3
block 46
  1

  0
SPLINE
  5
139
330
135
100
AcDbEntity
  8
0
 62
   250
370
    25
100
AcDbSpline
210
0.0
220
0.0
230
1.0
 70
     8
 71
     3
 72
     8
 73
     4
 74
     0
 42
0.0000000001
 43
0.0000000001
 12
1.0
 22
0.0
 32
0.0
 13
1.0
 23
0.0
 33
0.0
 40
0.0
 40
0.0
 40
0.0
 40
0.0
 40
1.0
 40
1.0
 40
1.0
 40
1.0
 10
-139.3150643532612
 20
205.8726263269155
 30
0.0
 10
-136.3380303164762
 20
207.9130776735065
 30
0.0
 10
-133.3266359821283
 20
209.8981786023484
 30
0.0
 10
-130.2779885941431
 20
211.8299399316668
 30
0.0
  0
ENDBLK
  5
138
330
135
100
AcDbEntity
  8
0
100
AcDbBlockEnd
  0
BLOCK
  5
13C
330
13A
100
AcDbEntity
  8
0
100
AcDbBlockBegin
  2
block 47
 70
     0
 10
0.0
 20
0.0
 30
0.0
  3
block 47
  1

  0
SPLINE
  5
13E
330
13A
100
AcDbEntity
  8
0
  6
AI-Linetype-23
 62
     6
370
    25
100
AcDbSpline
210
0.0
220
0.0
230
1.0
 70
     8
 71
     3
 72
    20
 73
    16
 74
     0
 42
0.0000000001
 43
0.0000000001
 12
1.0
 22
0.0
 32
0.0
 13
1.0
 23
0.0
 33
0.0
 40
0.0
 40
0.0
 40
0.0
 40
0.0
 40
1.0
 40
1.0
 40
1.0
 40
2.0
 40
2.0
 40
2.0
 40
3.0
 40
3.0
 40
3.0
 40
4.0
 40
4.0
 40
4.0
 40
5.0
 40
5.0
 40
5.0
 40
5.0
 10
-4.518135321794158
 20
239.4626041273115
 30
0.0
 10
-6.128659618578003
 20
239.4593585961232
 30
0.0
 10
-7.739113360330435
 20
239.4642268929018
 30
0.0
 10
-9.349567102088963
 20
239.4771384626242
 30
0.0
 10
-9.349567102088963
 20
239.4771384626242
 30
0.0
 10
-9.351683752859683
 20
239.4774559602463
 30
0.0
 10
-9.351683752859683
 20
239.4774559602463
 30
0.0
 10
-11.13831339408323
 20
239.5234931145847
 30
0.0
 10
-12.92430804006962
 20
239.5838882166848
 30
0.0
 10
-14.70994991091949
 20
239.6586059890258
 30
0.0
 10
-18.83170396405097
 20
239.8307249745006
 30
0.0
 10
-22.94633195956967
 20
240.0816892013282
 30
0.0
 10
-27.05845525167697
 20
240.4117456120946
 30
0.0
 10
-21.15561012685564
 20
240.1029968191245
 30
0.0
 10
-15.2528002795513
 20
239.79421274864
 30
0.0
 10
-9.349990432243748
 20
239.4854639556693
 30
0.0
  0
ENDBLK
  5
13D
330
13A
100
AcDbEntity
  8
0
100
AcDbBlockEnd
  0
BLOCK
  5
142
330
140
100
AcDbEntity
  8
0
100
AcDbBlockBegin
  2
block 48
 70
     0
 10
0.0
 20
0.0
 30
0.0
  3
block 48
  1

  0
SPLINE
  5
144
330
140
100
AcDbEntity
  8
0
 62
   250
370
    25
100
AcDbSpline
210
0.0
220
0.0
230
1.0
 70
     8
 71
     3
 72
    11
 73
     7
 74
     0
 42
0.0000000001
 43
0.0000000001
 12
1.0
 22
0.0
 32
0.0
 13
1.0
 23
0.0
 33
0.0
 40
0.0
 40
0.0
 40
0.0
 40
0.0
 40
1.0
 40
1.0
 40
1.0
 40
2.0
 40
2.0
 40
2.0
 40
2.0
 10
504.4379869549937
 20
355.6549489564599
 30
0.0
 10
504.2213830257414
 20
355.9958708412011
 30
0.0
 10
503.9766981962122
 20
356.3071948926124
 30
0.0
 10
503.6965947437234
 20
356.598199096591
 30
0.0
 10
503.6965947437234
 20
356.598199096591
 30
0.0
 10
503.6992405571947
 20
356.6026793407235
 30
0.0
 10
503.7001577725267
 20
356.6051487666323
 30
0.0
  0
ENDBLK
  5
143
330
140
100
AcDbEntity
  8
0
100
AcDbBlockEnd
  0
BLOCK
  5
147
330
145
100
AcDbEntity
  8
0
100
AcDbBlockBegin
  2
block 49
 70
     0
 10
0.0
 20
0.0
 30
0.0
  3
block 49
  1

  0
SPLINE
  5
149
330
145
100
AcDbEntity
  8
0
 62
   250
370
    25
100
AcDbSpline
210
0.0
220
0.0
230
1.0
 70
     8
 71
     3
 72
    14
 73
    10
 74
     0
 42
0.0000000001
 43
0.0000000001
 12
1.0
 22
0.0
 32
0.0
 13
1.0
 23
0.0
 33
0.0
 40
0.0
 40
0.0
 40
0.0
 40
0.0
 40
1.0
 40
1.0
 40
1.0
 40
2.0
 40
2.0
 40
2.0
 40
3.0
 40
3.0
 40
3.0
 40
3.0
 10
499.3934789967384
 20
358.4373216770086
 30
0.0
 10
501.0176556910161
 20
358.431994772567
 30
0.0
 10
502.5702543116016
 20
357.7683894772535
 30
0.0
 10
503.6965947437234
 20
356.598199096591
 30
0.0
 10
503.6965947437234
 20
356.598199096591
 30
0.0
 10
503.6932433799989
 20
356.5927663595958
 30
0.0
 10
503.6932433799989
 20
356.5927663595958
 30
0.0
 10
504.7576364994533
 20
355.4884743730421
 30
0.0
 10
505.2578363549723
 20
354.358888409732
 30
0.0
 10
505.3600353098667
 20
352.8285498997976
 30
0.0
  0
ENDBLK
  5
148
330
145
100
AcDbEntity
  8
0
100
AcDbBlockEnd
  0
BLOCK
  5
14C
330
14A
100
AcDbEntity
  8
0
100
AcDbBlockBegin
  2
block 50
 70
     0
 10
0.0
 20
0.0
 30
0.0
  3
block 50
  1

  0
SPLINE
  5
14E
330
14A
100
AcDbEntity
  8
0
 62
   250
370
    25
100
AcDbSpline
210
0.0
220
0.0
230
1.0
 70
     8
 71
     3
 72
    11
 73
     7
 74
     0
 42
0.0000000001
 43
0.0000000001
 12
1.0
 22
0.0
 32
0.0
 13
1.0
 23
0.0
 33
0.0
 40
0.0
 40
0.0
 40
0.0
 40
0.0
 40
1.0
 40
1.0
 40
1.0
 40
2.0
 40
2.0
 40
2.0
 40
2.0
 10
-293.1132026646681
 20
356.5893444408485
 30
0.0
 10
-293.1132026646681
 20
356.5893444408485
 30
0.0
 10
-293.1148607077731
 20
356.5926252495538
 30
0.0
 10
-293.1158132006189
 20
356.5942480151425
 30
0.0
 10
-293.1859448962823
 20
356.5214705060158
 30
0.0
 10
-293.2541010512224
 20
356.4470349537795
 30
0.0
 10
-293.3204580530001
 20
356.370835525895
 30
0.0
  0
ENDBLK
  5
14D
330
14A
100
AcDbEntity
  8
0
100
AcDbBlockEnd
  0
BLOCK
  5
151
330
14F
100
AcDbEntity
  8
0
100
AcDbBlockBegin
  2
block 51
 70
     0
 10
0.0
 20
0.0
 30
0.0
  3
block 51
  1

  0
SPLINE
  5
153
330
14F
100
AcDbEntity
  8
0
 62
   250
370
    25
100
AcDbSpline
210
0.0
220
0.0
230
1.0
 70
     8
 71
     3
 72
    11
 73
     7
 74
     0
 42
0.0000000001
 43
0.0000000001
 12
1.0
 22
0.0
 32
0.0
 13
1.0
 23
0.0
 33
0.0
 40
0.0
 40
0.0
 40
0.0
 40
0.0
 40
1.0
 40
1.0
 40
1.0
 40
2.0
 40
2.0
 40
2.0
 40
2.0
 10
-293.1219162103574
 20
356.6051134891156
 30
0.0
 10
-293.1203992772998
 20
356.6011624076774
 30
0.0
 10
-293.1179298513961
 20
356.5978110439461
 30
0.0
 10
-293.1158132006189
 20
356.5942480151425
 30
0.0
 10
-291.9880616679853
 20
357.7646147833707
 30
0.0
 10
-290.4337344492644
 20
358.4274086958813
 30
0.0
 10
-288.8084288745742
 20
358.4310070022048
 30
0.0
  0
ENDBLK
  5
152
330
14F
100
AcDbEntity
  8
0
100
AcDbBlockEnd
  0
BLOCK
  5
156
330
154
100
AcDbEntity
  8
0
100
AcDbBlockBegin
  2
block 52
 70
     0
 10
0.0
 20
0.0
 30
0.0
  3
block 52
  1

  0
SPLINE
  5
158
330
154
100
AcDbEntity
  8
0
 62
   250
370
    25
100
AcDbSpline
210
0.0
220
0.0
230
1.0
 70
     8
 71
     3
 72
     8
 73
     4
 74
     0
 42
0.0000000001
 43
0.0000000001
 12
1.0
 22
0.0
 32
0.0
 13
1.0
 23
0.0
 33
0.0
 40
0.0
 40
0.0
 40
0.0
 40
0.0
 40
1.0
 40
1.0
 40
1.0
 40
1.0
 10
447.5318186445399
 20
312.5096243235762
 30
0.0
 10
441.184159359466
 20
298.8970198627973
 30
0.0
 10
435.2597013580363
 20
286.191973830335
 30
0.0
 10
428.9120420729624
 20
272.5793340920416
 30
0.0
  0
ENDBLK
  5
157
330
154
100
AcDbEntity
  8
0
100
AcDbBlockEnd
  0
BLOCK
  5
15B
330
159
100
AcDbEntity
  8
0
100
AcDbBlockBegin
  2
block 53
 70
     0
 10
0.0
 20
0.0
 30
0.0
  3
block 53
  1

  0
SPLINE
  5
15D
330
159
100
AcDbEntity
  8
0
  6
AI-Linetype-24
 62
     6
370
    25
100
AcDbSpline
210
0.0
220
0.0
230
1.0
 70
     8
 71
     3
 72
    35
 73
    31
 74
     0
 42
0.0000000001
 43
0.0000000001
 12
1.0
 22
0.0
 32
0.0
 13
1.0
 23
0.0
 33
0.0
 40
0.0
 40
0.0
 40
0.0
 40
0.0
 40
1.0
 40
1.0
 40
1.0
 40
2.0
 40
2.0
 40
2.0
 40
3.0
 40
3.0
 40
3.0
 40
4.0
 40
4.0
 40
4.0
 40
5.0
 40
5.0
 40
5.0
 40
6.0
 40
6.0
 40
6.0
 40
7.0
 40
7.0
 40
7.0
 40
8.0
 40
8.0
 40
8.0
 40
9.0
 40
9.0
 40
9.0
 40
10.0
 40
10.0
 40
10.0
 40
10.0
 10
299.3085979367652
 20
346.0120171906618
 30
0.0
 10
298.9120434141673
 20
345.8387693247762
 30
0.0
 10
298.5179230399586
 20
345.6598417793036
 30
0.0
 10
298.1259193165229
 20
345.4765398222329
 30
0.0
 10
297.7219565162196
 20
345.2876287406105
 30
0.0
 10
297.3202161992196
 20
345.0940257497742
 30
0.0
 10
296.9209100306218
 20
344.8954839071248
 30
0.0
 10
296.1236029613925
 20
344.4990352170695
 30
0.0
 10
295.3360677632392
 20
344.0828311197853
 30
0.0
 10
294.5579869385406
 20
343.6497996488409
 30
0.0
 10
292.8456164619899
 20
342.696777637633
 30
0.0
 10
291.1789656421753
 20
341.6622645716074
 30
0.0
 10
289.5545772828219
 20
340.5661569680491
 30
0.0
 10
288.8903722697906
 20
340.1178856115321
 30
0.0
 10
288.2329405392384
 20
339.6602657140892
 30
0.0
 10
287.5818587610115
 20
339.1931208881618
 30
0.0
 10
283.9062241361196
 20
336.5573967887702
 30
0.0
 10
280.459081962326
 20
333.6710965151825
 30
0.0
 10
277.0767093022323
 20
330.6792812004948
 30
0.0
 10
276.5588001352322
 20
330.2215554705217
 30
0.0
 10
276.0452653798371
 20
329.7619600323581
 30
0.0
 10
275.5330711699245
 20
329.3009182161628
 30
0.0
 10
274.8564484723515
 20
328.6918872333177
 30
0.0
 10
274.1820835356065
 20
328.080316269551
 30
0.0
 10
273.5094824745083
 20
327.4668050425712
 30
0.0
 10
271.0672555334107
 20
325.2392064900048
 30
0.0
 10
268.6481000857509
 20
322.9864903482456
 30
0.0
 10
266.2109883840245
 20
320.7533179486417
 30
0.0
 10
265.304285747269
 20
319.9224972421455
 30
0.0
 10
264.3951136846066
 20
319.094357626635
 30
0.0
 10
263.481390822782
 20
318.2712626954669
 30
0.0
  0
ENDBLK
  5
15C
330
159
100
AcDbEntity
  8
0
100
AcDbBlockEnd
  0
BLOCK
  5
161
330
15F
100
AcDbEntity
  8
0
100
AcDbBlockBegin
  2
block 54
 70
     0
 10
0.0
 20
0.0
 30
0.0
  3
block 54
  1

  0
SPLINE
  5
163
330
15F
100
AcDbEntity
  8
0
 62
   250
370
    25
100
AcDbSpline
210
0.0
220
0.0
230
1.0
 70
     8
 71
     3
 72
     8
 73
     4
 74
     0
 42
0.0000000001
 43
0.0000000001
 12
1.0
 22
0.0
 32
0.0
 13
1.0
 23
0.0
 33
0.0
 40
0.0
 40
0.0
 40
0.0
 40
0.0
 40
1.0
 40
1.0
 40
1.0
 40
1.0
 10
428.9120420729624
 20
272.5793340920416
 30
0.0
 10
427.8505417095643
 20
270.3030172941512
 30
0.0
 10
425.7816566875709
 20
268.6573565945101
 30
0.0
 10
423.3248954111541
 20
268.1351435709333
 30
0.0
  0
ENDBLK
  5
162
330
15F
100
AcDbEntity
  8
0
100
AcDbBlockEnd
  0
BLOCK
  5
166
330
164
100
AcDbEntity
  8
0
100
AcDbBlockBegin
  2
block 55
 70
     0
 10
0.0
 20
0.0
 30
0.0
  3
block 55
  1

  0
SPLINE
  5
168
330
164
100
AcDbEntity
  8
0
 62
   250
370
    25
100
AcDbSpline
210
0.0
220
0.0
230
1.0
 70
     8
 71
     3
 72
    23
 73
    19
 74
     0
 42
0.0000000001
 43
0.0000000001
 12
1.0
 22
0.0
 32
0.0
 13
1.0
 23
0.0
 33
0.0
 40
0.0
 40
0.0
 40
0.0
 40
0.0
 40
1.0
 40
1.0
 40
1.0
 40
2.0
 40
2.0
 40
2.0
 40
3.0
 40
3.0
 40
3.0
 40
4.0
 40
4.0
 40
4.0
 40
5.0
 40
5.0
 40
5.0
 40
6.0
 40
6.0
 40
6.0
 40
6.0
 10
190.9496601263146
 20
211.8264121803779
 30
0.0
 10
182.9850207595941
 20
212.1330796000849
 30
0.0
 10
175.0171711392003
 20
212.3506712996968
 30
0.0
 10
167.0484043034739
 20
212.5192978113975
 30
0.0
 10
157.7249809720849
 20
212.7166049410932
 30
0.0
 10
148.4003229277417
 20
212.8469200737717
 30
0.0
 10
139.0751709982185
 20
212.9244600471421
 30
0.0
 10
134.0527467630389
 20
212.9662286224317
 30
0.0
 10
129.0301461402994
 20
212.9926867571072
 30
0.0
 10
124.0075807950685
 20
213.0123716093126
 30
0.0
 10
119.842541233604
 20
213.0287050977877
 30
0.0
 10
115.6775016721382
 20
213.0404172320711
 30
0.0
 10
111.5124973881875
 20
213.0515649261526
 30
0.0
 10
106.1938478771221
 20
213.0657817638573
 30
0.0
 10
100.8751983660565
 20
213.0791519412454
 30
0.0
 10
95.5565488549911
 20
213.0910404630938
 30
0.0
 10
73.80097719974212
 20
213.1396175983679
 30
0.0
 10
-95.82307673228381
 20
212.2420165599447
 30
0.0
 10
-117.5786836650344
 20
212.2420871149671
 30
0.0
  0
ENDBLK
  5
167
330
164
100
AcDbEntity
  8
0
100
AcDbBlockEnd
  0
BLOCK
  5
16B
330
169
100
AcDbEntity
  8
0
100
AcDbBlockBegin
  2
block 56
 70
     0
 10
0.0
 20
0.0
 30
0.0
  3
block 56
  1

  0
SPLINE
  5
16D
330
169
100
AcDbEntity
  8
0
 62
   250
370
    25
100
AcDbSpline
210
0.0
220
0.0
230
1.0
 70
     8
 71
     3
 72
    11
 73
     7
 74
     0
 42
0.0000000001
 43
0.0000000001
 12
1.0
 22
0.0
 32
0.0
 13
1.0
 23
0.0
 33
0.0
 40
0.0
 40
0.0
 40
0.0
 40
0.0
 40
1.0
 40
1.0
 40
1.0
 40
2.0
 40
2.0
 40
2.0
 40
2.0
 10
-275.0978587604522
 20
358.5126744445805
 30
0.0
 10
-173.3023727815301
 20
358.9959410939111
 30
0.0
 10
-71.50688680261504
 20
359.2856753074187
 30
0.0
 10
30.28969277920573
 20
359.3819123626375
 30
0.0
 10
174.1616561736759
 20
359.516319686813
 30
0.0
 10
318.0313970848327
 20
359.263379919265
 30
0.0
 10
461.901984656301
 20
358.6230577824741
 30
0.0
  0
ENDBLK
  5
16C
330
169
100
AcDbEntity
  8
0
100
AcDbBlockEnd
  0
BLOCK
  5
170
330
16E
100
AcDbEntity
  8
0
100
AcDbBlockBegin
  2
block 57
 70
     0
 10
0.0
 20
0.0
 30
0.0
  3
block 57
  1

  0
SPLINE
  5
172
330
16E
100
AcDbEntity
  8
0
  6
AI-Linetype-25
 62
     6
370
    25
100
AcDbSpline
210
0.0
220
0.0
230
1.0
 70
     8
 71
     3
 72
     8
 73
     4
 74
     0
 42
0.0000000001
 43
0.0000000001
 12
1.0
 22
0.0
 32
0.0
 13
1.0
 23
0.0
 33
0.0
 40
0.0
 40
0.0
 40
0.0
 40
0.0
 40
1.0
 40
1.0
 40
1.0
 40
1.0
 10
-241.3349989183261
 20
314.2419396804043
 30
0.0
 10
-245.8140006225809
 20
316.8898766291654
 30
0.0
 10
-250.9133236821475
 20
318.3319792914591
 30
0.0
 10
-256.1335144814961
 20
318.4135016275141
 30
0.0
  0
ENDBLK
  5
171
330
16E
100
AcDbEntity
  8
0
100
AcDbBlockEnd
  0
BLOCK
  5
176
330
174
100
AcDbEntity
  8
0
100
AcDbBlockBegin
  2
block 58
 70
     0
 10
0.0
 20
0.0
 30
0.0
  3
block 58
  1

  0
SPLINE
  5
178
330
174
100
AcDbEntity
  8
0
 62
   250
370
    25
100
AcDbSpline
210
0.0
220
0.0
230
1.0
 70
     8
 71
     3
 72
    11
 73
     7
 74
     0
 42
0.0000000001
 43
0.0000000001
 12
1.0
 22
0.0
 32
0.0
 13
1.0
 23
0.0
 33
0.0
 40
0.0
 40
0.0
 40
0.0
 40
0.0
 40
1.0
 40
1.0
 40
1.0
 40
2.0
 40
2.0
 40
2.0
 40
2.0
 10
-181.7907421048824
 20
205.6505896606763
 30
0.0
 10
-200.7224194068809
 20
235.2905796182903
 30
0.0
 10
-216.1343534135205
 20
266.0703154629289
 30
0.0
 10
-228.5251212147377
 20
298.985469718901
 30
0.0
 10
-230.5599812133321
 20
304.391469383585
 30
0.0
 10
-234.1078574588464
 20
309.0842373217522
 30
0.0
 10
-238.7293273008886
 20
312.5121497891091
 30
0.0
  0
ENDBLK
  5
177
330
174
100
AcDbEntity
  8
0
100
AcDbBlockEnd
  0
BLOCK
  5
17B
330
179
100
AcDbEntity
  8
0
100
AcDbBlockBegin
  2
block 59
 70
     0
 10
0.0
 20
0.0
 30
0.0
  3
block 59
  1

  0
SPLINE
  5
17D
330
179
100
AcDbEntity
  8
0
 62
   250
370
    25
100
AcDbSpline
210
0.0
220
0.0
230
1.0
 70
     8
 71
     3
 72
    26
 73
    22
 74
     0
 42
0.0000000001
 43
0.0000000001
 12
1.0
 22
0.0
 32
0.0
 13
1.0
 23
0.0
 33
0.0
 40
0.0
 40
0.0
 40
0.0
 40
0.0
 40
1.0
 40
1.0
 40
1.0
 40
2.0
 40
2.0
 40
2.0
 40
3.0
 40
3.0
 40
3.0
 40
4.0
 40
4.0
 40
4.0
 40
5.0
 40
5.0
 40
5.0
 40
6.0
 40
6.0
 40
6.0
 40
7.0
 40
7.0
 40
7.0
 40
7.0
 10
265.0569198267586
 20
234.4908384006678
 30
0.0
 10
260.9956667082676
 20
233.5379222220025
 30
0.0
 10
257.5144817345235
 20
230.9371934154043
 30
0.0
 10
255.4489127987389
 20
227.3129228493041
 30
0.0
 10
251.2699738971912
 20
219.9799626287146
 30
0.0
 10
246.9131304980458
 20
212.7637709758494
 30
0.0
 10
242.3701276632846
 20
205.6505896606763
 30
0.0
 10
241.0845092603873
 20
203.6370197789185
 30
0.0
 10
238.8606501241894
 20
202.4182522629835
 30
0.0
 10
236.4716569500643
 20
202.4180053203896
 30
0.0
 10
227.5107806188333
 20
202.4180053203896
 30
0.0
 10
218.5499042875959
 20
202.4180053203896
 30
0.0
 10
209.5890279563584
 20
202.4180053203896
 30
0.0
 10
206.5289859317043
 20
202.4183933730335
 30
0.0
 10
203.5417919712077
 20
203.3516599770078
 30
0.0
 10
201.0258350281298
 20
205.0933813442936
 30
0.0
 10
200.6492828553523
 20
205.3539763321482
 30
0.0
 10
200.2721662423659
 20
205.6137246596862
 30
0.0
 10
199.8944499116644
 20
205.8726263269155
 30
0.0
 10
199.9155458643806
 20
205.858162546624
 30
0.0
 10
199.9172744625148
 20
205.886878442134
 30
0.0
 10
199.9269052235409
 20
205.8968267007701
 30
0.0
  0
ENDBLK
  5
17C
330
179
100
AcDbEntity
  8
0
100
AcDbBlockEnd
  0
BLOCK
  5
180
330
17E
100
AcDbEntity
  8
0
100
AcDbBlockBegin
  2
block 60
 70
     0
 10
0.0
 20
0.0
 30
0.0
  3
block 60
  1

  0
SPLINE
  5
182
330
17E
100
AcDbEntity
  8
0
  6
AI-Linetype-26
 62
     6
370
    25
100
AcDbSpline
210
0.0
220
0.0
230
1.0
 70
     8
 71
     3
 72
     8
 73
     4
 74
     0
 42
0.0000000001
 43
0.0000000001
 12
1.0
 22
0.0
 32
0.0
 13
1.0
 23
0.0
 33
0.0
 40
0.0
 40
0.0
 40
0.0
 40
0.0
 40
1.0
 40
1.0
 40
1.0
 40
1.0
 10
-8.489466059883666
 20
239.4762212472928
 30
0.0
 10
-5.677636616050146
 20
239.4730462711266
 30
0.0
 10
66.916782220856
 20
239.4709296203569
 30
0.0
 10
69.72861166468985
 20
239.4699065724823
 30
0.0
  0
ENDBLK
  5
181
330
17E
100
AcDbEntity
  8
0
100
AcDbBlockEnd
  0
BLOCK
  5
186
330
184
100
AcDbEntity
  8
0
100
AcDbBlockBegin
  2
block 61
 70
     0
 10
0.0
 20
0.0
 30
0.0
  3
block 61
  1

  0
SPLINE
  5
188
330
184
100
AcDbEntity
  8
0
  6
AI-Linetype-27
 62
     6
370
    25
100
AcDbSpline
210
0.0
220
0.0
230
1.0
 70
     8
 71
     3
 72
     8
 73
     4
 74
     0
 42
0.0000000001
 43
0.0000000001
 12
1.0
 22
0.0
 32
0.0
 13
1.0
 23
0.0
 33
0.0
 40
0.0
 40
0.0
 40
0.0
 40
0.0
 40
1.0
 40
1.0
 40
1.0
 40
1.0
 10
447.5318186445399
 20
312.5096243235762
 30
0.0
 10
448.6084415008526
 20
315.9726113744986
 30
0.0
 10
451.6978934926814
 20
317.6540619652963
 30
0.0
 10
453.3032319950665
 20
317.7083187801442
 30
0.0
  0
ENDBLK
  5
187
330
184
100
AcDbEntity
  8
0
100
AcDbBlockEnd
  0
BLOCK
  5
18C
330
18A
100
AcDbEntity
  8
0
100
AcDbBlockBegin
  2
block 62
 70
     0
 10
0.0
 20
0.0
 30
0.0
  3
block 62
  1

  0
SPLINE
  5
18E
330
18A
100
AcDbEntity
  8
0
  6
AI-Linetype-28
 62
     6
370
    25
100
AcDbSpline
210
0.0
220
0.0
230
1.0
 70
     8
 71
     3
 72
    29
 73
    25
 74
     0
 42
0.0000000001
 43
0.0000000001
 12
1.0
 22
0.0
 32
0.0
 13
1.0
 23
0.0
 33
0.0
 40
0.0
 40
0.0
 40
0.0
 40
0.0
 40
1.0
 40
1.0
 40
1.0
 40
2.0
 40
2.0
 40
2.0
 40
3.0
 40
3.0
 40
3.0
 40
4.0
 40
4.0
 40
4.0
 40
5.0
 40
5.0
 40
5.0
 40
6.0
 40
6.0
 40
6.0
 40
7.0
 40
7.0
 40
7.0
 40
8.0
 40
8.0
 40
8.0
 40
8.0
 10
487.5380827314088
 20
317.7111409811806
 30
0.0
 10
487.6025700250081
 20
317.7111409811806
 30
0.0
 10
487.6670573186029
 20
317.7111409811806
 30
0.0
 10
487.7315798897083
 20
317.7111409811806
 30
0.0
 10
487.7342609806927
 20
317.7111409811806
 30
0.0
 10
487.7369773491903
 20
317.7111409811806
 30
0.0
 10
487.7396937176809
 20
317.7111409811806
 30
0.0
 10
487.7991363269294
 20
317.7111409811806
 30
0.0
 10
487.858578936178
 20
317.7111409811806
 30
0.0
 10
487.9180215454298
 20
317.7111409811806
 30
0.0
 10
487.9198912536146
 20
317.7111409811806
 30
0.0
 10
487.9217609617995
 20
317.7111409811806
 30
0.0
 10
487.9236659474975
 20
317.7111409811806
 30
0.0
 10
487.9525229530504
 20
317.7111409811806
 30
0.0
 10
487.9813799586105
 20
317.7111409811806
 30
0.0
 10
488.0102369641706
 20
317.7111409811806
 30
0.0
 10
488.4052039986856
 20
317.7111409811806
 30
0.0
 10
488.8002063107169
 20
317.7111409811806
 30
0.0
 10
489.1951733452314
 20
317.7111409811806
 30
0.0
 10
490.8860245389082
 20
317.7106470960005
 30
0.0
 10
492.4619415955223
 20
316.8558376807285
 30
0.0
 10
493.3840252279078
 20
315.4384577671146
 30
0.0
 10
494.4451022611515
 20
313.8074019578222
 30
0.0
 10
496.2312027396779
 20
312.7925031889732
 30
0.0
 10
498.1755228635966
 20
312.7158451534268
 30
0.0
  0
ENDBLK
  5
18D
330
18A
100
AcDbEntity
  8
0
100
AcDbBlockEnd
  0
BLOCK
  5
192
330
190
100
AcDbEntity
  8
0
100
AcDbBlockBegin
  2
block 63
 70
     0
 10
0.0
 20
0.0
 30
0.0
  3
block 63
  1

  0
SPLINE
  5
194
330
190
100
AcDbEntity
  8
0
  6
AI-Linetype-29
 62
     6
370
    25
100
AcDbSpline
210
0.0
220
0.0
230
1.0
 70
    24
 71
     3
 72
    17
 73
    13
 74
     0
 42
0.0000000001
 43
0.0000000001
 12
1.0
 22
0.0
 32
0.0
 13
1.0
 23
0.0
 33
0.0
 40
0.0
 40
0.0
 40
0.0
 40
0.0
 40
1.0
 40
1.0
 40
1.0
 40
2.0
 40
2.0
 40
2.0
 40
3.0
 40
3.0
 40
3.0
 40
4.0
 40
4.0
 40
4.0
 40
4.0
 10
453.048793866776
 20
317.7111409811806
 30
0.0
 10
453.3611056885501
 20
317.7111409811806
 30
0.0
 10
474.5288295738955
 20
317.7111409811806
 30
0.0
 10
474.8411413956689
 20
317.7111409811806
 30
0.0
 10
475.3070515086421
 20
317.7111409811806
 30
0.0
 10
475.7729263441029
 20
317.7111409811806
 30
0.0
 10
476.2388364570838
 20
317.7111409811806
 30
0.0
 10
476.2601440748783
 20
317.7111409811806
 30
0.0
 10
476.2814516926695
 20
317.7111409811806
 30
0.0
 10
476.3027240329585
 20
317.7111409811806
 30
0.0
 10
476.3566986277019
 20
317.7111409811806
 30
0.0
 10
487.2410368942306
 20
317.7111409811806
 30
0.0
 10
487.295011488974
 20
317.7111409811806
 30
0.0
  0
ENDBLK
  5
193
330
190
100
AcDbEntity
  8
0
100
AcDbBlockEnd
  0
BLOCK
  5
198
330
196
100
AcDbEntity
  8
0
100
AcDbBlockBegin
  2
block 64
 70
     0
 10
0.0
 20
0.0
 30
0.0
  3
block 64
  1

  0
SPLINE
  5
19A
330
196
100
AcDbEntity
  8
0
 62
   250
370
    25
100
AcDbSpline
210
0.0
220
0.0
230
1.0
 70
     8
 71
     3
 72
     8
 73
     4
 74
     0
 42
0.0000000001
 43
0.0000000001
 12
1.0
 22
0.0
 32
0.0
 13
1.0
 23
0.0
 33
0.0
 40
0.0
 40
0.0
 40
0.0
 40
0.0
 40
1.0
 40
1.0
 40
1.0
 40
1.0
 10
190.654635479002
 20
211.8264121803779
 30
0.0
 10
192.044000798223
 20
211.7669742376173
 30
0.0
 10
198.6567042002023
 20
206.8292731226839
 30
0.0
 10
199.8944499116644
 20
205.8726263269155
 30
0.0
  0
ENDBLK
  5
199
330
196
100
AcDbEntity
  8
0
100
AcDbBlockEnd
  0
BLOCK
  5
19D
330
19B
100
AcDbEntity
  8
0
100
AcDbBlockBegin
  2
block 65
 70
     0
 10
0.0
 20
0.0
 30
0.0
  3
block 65
  1

  0
SPLINE
  5
19F
330
19B
100
AcDbEntity
  8
0
 62
   250
370
    25
100
AcDbSpline
210
0.0
220
0.0
230
1.0
 70
     8
 71
     3
 72
    17
 73
    13
 74
     0
 42
0.0000000001
 43
0.0000000001
 12
1.0
 22
0.0
 32
0.0
 13
1.0
 23
0.0
 33
0.0
 40
0.0
 40
0.0
 40
0.0
 40
0.0
 40
1.0
 40
1.0
 40
1.0
 40
2.0
 40
2.0
 40
2.0
 40
3.0
 40
3.0
 40
3.0
 40
4.0
 40
4.0
 40
4.0
 40
4.0
 10
505.3506162139233
 20
352.962780836407
 30
0.0
 10
505.3506162139233
 20
352.962780836407
 30
0.0
 10
504.8765217179543
 20
343.0603854173506
 30
0.0
 10
504.8765217179543
 20
343.0603854173506
 30
0.0
 10
504.8765217179543
 20
343.0603854173506
 30
0.0
 10
503.8615807099591
 20
320.7582377507289
 30
0.0
 10
503.6913804739021
 20
318.4669821413829
 30
0.0
 10
503.5211802378497
 20
316.175726532037
 30
0.0
 10
504.1466082469946
 20
312.5096243235762
 30
0.0
 10
498.5719842121537
 20
312.5096243235762
 30
0.0
 10
492.9973601773129
 20
312.5096243235762
 30
0.0
 10
-287.616613378491
 20
313.4171827518867
 30
0.0
 10
-287.616613378491
 20
313.4171827518867
 30
0.0
  0
ENDBLK
  5
19E
330
19B
100
AcDbEntity
  8
0
100
AcDbBlockEnd
  0
BLOCK
  5
1A2
330
1A0
100
AcDbEntity
  8
0
100
AcDbBlockBegin
  2
block 66
 70
     0
 10
0.0
 20
0.0
 30
0.0
  3
block 66
  1

  0
INSERT
  5
1A5
330
1A0
100
AcDbEntity
  8
0
100
AcDbBlockReference
  2
block 67
 10
0.0
 20
0.0
 30
0.0
  0
ENDBLK
  5
1A3
330
1A0
100
AcDbEntity
  8
0
100
AcDbBlockEnd
  0
BLOCK
  5
1A6
330
1A4
100
AcDbEntity
  8
0
100
AcDbBlockBegin
  2
block 67
 70
     0
 10
0.0
 20
0.0
 30
0.0
  3
block 67
  1

  0
INSERT
  5
1A9
330
1A4
100
AcDbEntity
  8
0
100
AcDbBlockReference
  2
block 68
 10
0.0
 20
0.0
 30
0.0
  0
ENDBLK
  5
1A7
330
1A4
100
AcDbEntity
  8
0
100
AcDbBlockEnd
  0
BLOCK
  5
1AA
330
1A8
100
AcDbEntity
  8
0
100
AcDbBlockBegin
  2
block 68
 70
     0
 10
0.0
 20
0.0
 30
0.0
  3
block 68
  1

  0
POLYLINE
  5
1AC
330
1A8
100
AcDbEntity
  8
0
 62
     4
370
    25
100
AcDb2dPolyline
 66
     1
 10
0.0
 20
0.0
 30
0.0
  0
VERTEX
  5
1AD
330
1AC
100
AcDbEntity
  8
0
 62
     4
370
    25
100
AcDbVertex
100
AcDb2dVertex
 10
140.9064616380861
 20
298.4175083685922
 30
0.0
  0
VERTEX
  5
1AE
330
1AC
100
AcDbEntity
  8
0
 62
     4
370
    25
100
AcDbVertex
100
AcDb2dVertex
 10
152.1565393703268
 20
298.4175083685922
 30
0.0
  0
SEQEND
  5
1AF
330
1AC
100
AcDbEntity
  8
0
 62
     4
370
    25
  0
POLYLINE
  5
1B0
330
1A8
100
AcDbEntity
  8
0
  6
AI-Linetype-30
 62
     4
370
    25
100
AcDb2dPolyline
 66
     1
 10
0.0
 20
0.0
 30
0.0
  0
VERTEX
  5
1B1
330
1B0
100
AcDbEntity
  8
0
  6
AI-Linetype-30
 62
     4
370
    25
100
AcDbVertex
100
AcDb2dVertex
 10
155.2815316553799
 20
298.4175083685922
 30
0.0
  0
VERTEX
  5
1B2
330
1B0
100
AcDbEntity
  8
0
  6
AI-Linetype-30
 62
     4
370
    25
100
AcDbVertex
100
AcDb2dVertex
 10
159.9690039340746
 20
298.4175083685922
 30
0.0
  0
SEQEND
  5
1B4
330
1B0
100
AcDbEntity
  8
0
  6
AI-Linetype-30
 62
     4
370
    25
  0
POLYLINE
  5
1B5
330
1A8
100
AcDbEntity
  8
0
  6
AI-Linetype-31
 62
     4
370
    25
100
AcDb2dPolyline
 66
     1
 10
0.0
 20
0.0
 30
0.0
  0
VERTEX
  5
1B6
330
1B5
100
AcDbEntity
  8
0
  6
AI-Linetype-31
 62
     4
370
    25
100
AcDbVertex
100
AcDb2dVertex
 10
161.5315054595629
 20
298.4175083685922
 30
0.0
  0
VERTEX
  5
1B7
330
1B5
100
AcDbEntity
  8
0
  6
AI-Linetype-31
 62
     4
370
    25
100
AcDbVertex
100
AcDb2dVertex
 10
188.0940313928637
 20
298.4175083685922
 30
0.0
  0
SEQEND
  5
1B9
330
1B5
100
AcDbEntity
  8
0
  6
AI-Linetype-31
 62
     4
370
    25
  0
POLYLINE
  5
1BA
330
1A8
100
AcDbEntity
  8
0
 62
     4
370
    25
100
AcDb2dPolyline
 66
     1
 10
0.0
 20
0.0
 30
0.0
  0
VERTEX
  5
1BB
330
1BA
100
AcDbEntity
  8
0
 62
     4
370
    25
100
AcDbVertex
100
AcDb2dVertex
 10
189.6565329183519
 20
298.4175083685922
 30
0.0
  0
VERTEX
  5
1BC
330
1BA
100
AcDbEntity
  8
0
 62
     4
370
    25
100
AcDbVertex
100
AcDb2dVertex
 10
200.9065998846692
 20
298.4175083685922
 30
0.0
  0
SEQEND
  5
1BD
330
1BA
100
AcDbEntity
  8
0
 62
     4
370
    25
  0
ENDBLK
  5
1AB
330
1A8
100
AcDbEntity
  8
0
100
AcDbBlockEnd
  0
BLOCK
  5
1C0
330
1BE
100
AcDbEntity
  8
0
100
AcDbBlockBegin
  2
block 69
 70
     0
 10
0.0
 20
0.0
 30
0.0
  3
block 69
  1

  0
INSERT
  5
1C3
330
1BE
100
AcDbEntity
  8
0
100
AcDbBlockReference
  2
block 70
 10
0.0
 20
0.0
 30
0.0
  0
ENDBLK
  5
1C1
330
1BE
100
AcDbEntity
  8
0
100
AcDbBlockEnd
  0
BLOCK
  5
1C4
330
1C2
100
AcDbEntity
  8
0
100
AcDbBlockBegin
  2
block 70
 70
     0
 10
0.0
 20
0.0
 30
0.0
  3
block 70
  1

  0
INSERT
  5
1C7
330
1C2
100
AcDbEntity
  8
0
100
AcDbBlockReference
  2
block 71
 10
0.0
 20
0.0
 30
0.0
  0
ENDBLK
  5
1C5
330
1C2
100
AcDbEntity
  8
0
100
AcDbBlockEnd
  0
BLOCK
  5
1C8
330
1C6
100
AcDbEntity
  8
0
100
AcDbBlockBegin
  2
block 71
 70
     0
 10
0.0
 20
0.0
 30
0.0
  3
block 71
  1

  0
POLYLINE
  5
1CA
330
1C6
100
AcDbEntity
  8
0
 62
     4
370
    25
100
AcDb2dPolyline
 66
     1
 10
0.0
 20
0.0
 30
0.0
  0
VERTEX
  5
1CB
330
1CA
100
AcDbEntity
  8
0
 62
     4
370
    25
100
AcDbVertex
100
AcDb2dVertex
 10
170.9061055074037
 20
268.4174230964156
 30
0.0
  0
VERTEX
  5
1CC
330
1CA
100
AcDbEntity
  8
0
 62
     4
370
    25
100
AcDbVertex
100
AcDb2dVertex
 10
170.9061055074037
 20
279.6675115945797
 30
0.0
  0
SEQEND
  5
1CD
330
1CA
100
AcDbEntity
  8
0
 62
     4
370
    25
  0
POLYLINE
  5
1CE
330
1C6
100
AcDbEntity
  8
0
  6
AI-Linetype-32
 62
     4
370
    25
100
AcDb2dPolyline
 66
     1
 10
0.0
 20
0.0
 30
0.0
  0
VERTEX
  5
1CF
330
1CE
100
AcDbEntity
  8
0
  6
AI-Linetype-32
 62
     4
370
    25
100
AcDbVertex
100
AcDb2dVertex
 10
170.9061055074037
 20
282.7924715818627
 30
0.0
  0
VERTEX
  5
1D0
330
1CE
100
AcDbEntity
  8
0
  6
AI-Linetype-32
 62
     4
370
    25
100
AcDbVertex
100
AcDb2dVertex
 10
170.9061055074037
 20
287.4798900309404
 30
0.0
  0
SEQEND
  5
1D2
330
1CE
100
AcDbEntity
  8
0
  6
AI-Linetype-32
 62
     4
370
    25
  0
POLYLINE
  5
1D3
330
1C6
100
AcDbEntity
  8
0
  6
AI-Linetype-33
 62
     4
370
    25
100
AcDb2dPolyline
 66
     1
 10
0.0
 20
0.0
 30
0.0
  0
VERTEX
  5
1D4
330
1D3
100
AcDbEntity
  8
0
  6
AI-Linetype-33
 62
     4
370
    25
100
AcDbVertex
100
AcDb2dVertex
 10
170.9061055074037
 20
289.0423700245819
 30
0.0
  0
VERTEX
  5
1D5
330
1D3
100
AcDbEntity
  8
0
  6
AI-Linetype-33
 62
     4
370
    25
100
AcDbVertex
100
AcDb2dVertex
 10
170.9061055074037
 20
315.6045945120277
 30
0.0
  0
SEQEND
  5
1D7
330
1D3
100
AcDbEntity
  8
0
  6
AI-Linetype-33
 62
     4
370
    25
  0
POLYLINE
  5
1D8
330
1C6
100
AcDbEntity
  8
0
 62
     4
370
    25
100
AcDb2dPolyline
 66
     1
 10
0.0
 20
0.0
 30
0.0
  0
VERTEX
  5
1D9
330
1D8
100
AcDbEntity
  8
0
 62
     4
370
    25
100
AcDbVertex
100
AcDb2dVertex
 10
170.9061055074037
 20
317.1670745056692
 30
0.0
  0
VERTEX
  5
1DA
330
1D8
100
AcDbEntity
  8
0
 62
     4
370
    25
100
AcDbVertex
100
AcDb2dVertex
 10
170.9061055074037
 20
328.4171414719864
 30
0.0
  0
SEQEND
  5
1DB
330
1D8
100
AcDbEntity
  8
0
 62
     4
370
    25
  0
ENDBLK
  5
1C9
330
1C6
100
AcDbEntity
  8
0
100
AcDbBlockEnd
  0
BLOCK
  5
1DE
330
1DC
100
AcDbEntity
  8
0
100
AcDbBlockBegin
  2
block 72
 70
     0
 10
0.0
 20
0.0
 30
0.0
  3
block 72
  1

  0
SPLINE
  5
1E0
330
1DC
100
AcDbEntity
  8
0
  6
AI-Linetype-34
 62
     6
370
    25
100
AcDbSpline
210
0.0
220
0.0
230
1.0
 70
    11
 71
     3
 72
    23
 73
    19
 74
     0
 42
0.0000000001
 43
0.0000000001
 12
1.0
 22
0.0
 32
0.0
 13
1.0
 23
0.0
 33
0.0
 40
0.0
 40
0.0
 40
0.0
 40
0.0
 40
1.0
 40
1.0
 40
1.0
 40
2.0
 40
2.0
 40
2.0
 40
3.0
 40
3.0
 40
3.0
 40
4.0
 40
4.0
 40
4.0
 40
5.0
 40
5.0
 40
5.0
 40
6.0
 40
6.0
 40
6.0
 40
6.0
 10
165.9064489612974
 20
288.417336220563
 30
0.0
 10
160.3835753978942
 20
288.417336220563
 30
0.0
 10
155.9071410359769
 20
292.8937705824796
 30
0.0
 10
155.9071410359769
 20
298.417505412716
 30
0.0
 10
155.9071410359769
 20
303.9395177092867
 30
0.0
 10
160.3835753978942
 20
308.4172439714524
 30
0.0
 10
165.9064489612974
 20
308.4172439714524
 30
0.0
 10
165.9064489612974
 20
308.4172439714524
 30
0.0
 10
175.9066181534504
 20
308.4172439714524
 30
0.0
 10
175.9066181534504
 20
308.4172439714524
 30
0.0
 10
181.4290610834384
 20
308.4172439714524
 30
0.0
 10
185.9067873456035
 20
303.9395177092867
 30
0.0
 10
185.9067873456035
 20
298.417505412716
 30
0.0
 10
185.9067873456035
 20
292.8937705824796
 30
0.0
 10
181.4290610834384
 20
288.417336220563
 30
0.0
 10
175.9066181534504
 20
288.417336220563
 30
0.0
 10
170.3841752234625
 20
288.417336220563
 30
0.0
 10
171.4288918912854
 20
288.417336220563
 30
0.0
 10
165.9064489612974
 20
288.417336220563
 30
0.0
  0
ENDBLK
  5
1DF
330
1DC
100
AcDbEntity
  8
0
100
AcDbBlockEnd
  0
BLOCK
  5
1E4
330
1E2
100
AcDbEntity
  8
0
100
AcDbBlockBegin
  2
block 73
 70
     0
 10
0.0
 20
0.0
 30
0.0
  3
block 73
  1

  0
INSERT
  5
1E7
330
1E2
100
AcDbEntity
  8
0
100
AcDbBlockReference
  2
block 74
 10
0.0
 20
0.0
 30
0.0
  0
ENDBLK
  5
1E5
330
1E2
100
AcDbEntity
  8
0
100
AcDbBlockEnd
  0
BLOCK
  5
1E8
330
1E6
100
AcDbEntity
  8
0
100
AcDbBlockBegin
  2
block 74
 70
     0
 10
0.0
 20
0.0
 30
0.0
  3
block 74
  1

  0
INSERT
  5
1EB
330
1E6
100
AcDbEntity
  8
0
100
AcDbBlockReference
  2
block 75
 10
0.0
 20
0.0
 30
0.0
  0
ENDBLK
  5
1E9
330
1E6
100
AcDbEntity
  8
0
100
AcDbBlockEnd
  0
BLOCK
  5
1EC
330
1EA
100
AcDbEntity
  8
0
100
AcDbBlockBegin
  2
block 75
 70
     0
 10
0.0
 20
0.0
 30
0.0
  3
block 75
  1

  0
POLYLINE
  5
1EE
330
1EA
100
AcDbEntity
  8
0
 62
     4
370
    25
100
AcDb2dPolyline
 66
     1
 10
0.0
 20
0.0
 30
0.0
  0
VERTEX
  5
1EF
330
1EE
100
AcDbEntity
  8
0
 62
     4
370
    25
100
AcDbVertex
100
AcDb2dVertex
 10
-139.6674653445862
 20
298.4175083685922
 30
0.0
  0
VERTEX
  5
1F0
330
1EE
100
AcDbEntity
  8
0
 62
     4
370
    25
100
AcDbVertex
100
AcDb2dVertex
 10
-128.4173768464221
 20
298.4175083685922
 30
0.0
  0
SEQEND
  5
1F1
330
1EE
100
AcDbEntity
  8
0
 62
     4
370
    25
  0
POLYLINE
  5
1F2
330
1EA
100
AcDbEntity
  8
0
  6
AI-Linetype-35
 62
     4
370
    25
100
AcDb2dPolyline
 66
     1
 10
0.0
 20
0.0
 30
0.0
  0
VERTEX
  5
1F3
330
1F2
100
AcDbEntity
  8
0
  6
AI-Linetype-35
 62
     4
370
    25
100
AcDbVertex
100
AcDb2dVertex
 10
-125.2924706887561
 20
298.4175083685922
 30
0.0
  0
VERTEX
  5
1F4
330
1F2
100
AcDbEntity
  8
0
  6
AI-Linetype-35
 62
     4
370
    25
100
AcDbVertex
100
AcDb2dVertex
 10
-120.605095303372
 20
298.4175083685922
 30
0.0
  0
SEQEND
  5
1F6
330
1F2
100
AcDbEntity
  8
0
  6
AI-Linetype-35
 62
     4
370
    25
  0
POLYLINE
  5
1F7
330
1EA
100
AcDbEntity
  8
0
  6
AI-Linetype-36
 62
     4
370
    25
100
AcDb2dPolyline
 66
     1
 10
0.0
 20
0.0
 30
0.0
  0
VERTEX
  5
1F8
330
1F7
100
AcDbEntity
  8
0
  6
AI-Linetype-36
 62
     4
370
    25
100
AcDbVertex
100
AcDb2dVertex
 10
-119.0426368415772
 20
298.4175083685922
 30
0.0
  0
VERTEX
  5
1F9
330
1F7
100
AcDbEntity
  8
0
  6
AI-Linetype-36
 62
     4
370
    25
100
AcDbVertex
100
AcDb2dVertex
 10
-92.48071379998638
 20
298.4175083685922
 30
0.0
  0
SEQEND
  5
1FB
330
1F7
100
AcDbEntity
  8
0
  6
AI-Linetype-36
 62
     4
370
    25
  0
POLYLINE
  5
1FC
330
1EA
100
AcDbEntity
  8
0
 62
     4
370
    25
100
AcDb2dPolyline
 66
     1
 10
0.0
 20
0.0
 30
0.0
  0
VERTEX
  5
1FD
330
1FC
100
AcDbEntity
  8
0
 62
     4
370
    25
100
AcDbVertex
100
AcDb2dVertex
 10
-90.91825533819167
 20
298.4175083685922
 30
0.0
  0
VERTEX
  5
1FE
330
1FC
100
AcDbEntity
  8
0
 62
     4
370
    25
100
AcDbVertex
100
AcDb2dVertex
 10
-79.66817222298931
 20
298.4175083685922
 30
0.0
  0
SEQEND
  5
1FF
330
1FC
100
AcDbEntity
  8
0
 62
     4
370
    25
  0
ENDBLK
  5
1ED
330
1EA
100
AcDbEntity
  8
0
100
AcDbBlockEnd
  0
BLOCK
  5
202
330
200
100
AcDbEntity
  8
0
100
AcDbBlockBegin
  2
block 76
 70
     0
 10
0.0
 20
0.0
 30
0.0
  3
block 76
  1

  0
INSERT
  5
205
330
200
100
AcDbEntity
  8
0
100
AcDbBlockReference
  2
block 77
 10
0.0
 20
0.0
 30
0.0
  0
ENDBLK
  5
203
330
200
100
AcDbEntity
  8
0
100
AcDbBlockEnd
  0
BLOCK
  5
206
330
204
100
AcDbEntity
  8
0
100
AcDbBlockBegin
  2
block 77
 70
     0
 10
0.0
 20
0.0
 30
0.0
  3
block 77
  1

  0
INSERT
  5
209
330
204
100
AcDbEntity
  8
0
100
AcDbBlockReference
  2
block 78
 10
0.0
 20
0.0
 30
0.0
  0
ENDBLK
  5
207
330
204
100
AcDbEntity
  8
0
100
AcDbBlockEnd
  0
BLOCK
  5
20A
330
208
100
AcDbEntity
  8
0
100
AcDbBlockBegin
  2
block 78
 70
     0
 10
0.0
 20
0.0
 30
0.0
  3
block 78
  1

  0
POLYLINE
  5
20C
330
208
100
AcDbEntity
  8
0
 62
     4
370
    25
100
AcDb2dPolyline
 66
     1
 10
0.0
 20
0.0
 30
0.0
  0
VERTEX
  5
20D
330
20C
100
AcDbEntity
  8
0
 62
     4
370
    25
100
AcDbVertex
100
AcDb2dVertex
 10
-109.6678214752686
 20
268.4174230964156
 30
0.0
  0
VERTEX
  5
20E
330
20C
100
AcDbEntity
  8
0
 62
     4
370
    25
100
AcDbVertex
100
AcDb2dVertex
 10
-109.6678214752686
 20
279.6675115945797
 30
0.0
  0
SEQEND
  5
20F
330
20C
100
AcDbEntity
  8
0
 62
     4
370
    25
  0
POLYLINE
  5
210
330
208
100
AcDbEntity
  8
0
  6
AI-Linetype-37
 62
     4
370
    25
100
AcDb2dPolyline
 66
     1
 10
0.0
 20
0.0
 30
0.0
  0
VERTEX
  5
211
330
210
100
AcDbEntity
  8
0
  6
AI-Linetype-37
 62
     4
370
    25
100
AcDbVertex
100
AcDb2dVertex
 10
-109.6678214752686
 20
282.7924715818627
 30
0.0
  0
VERTEX
  5
212
330
210
100
AcDbEntity
  8
0
  6
AI-Linetype-37
 62
     4
370
    25
100
AcDbVertex
100
AcDb2dVertex
 10
-109.6678214752686
 20
287.4798900309404
 30
0.0
  0
SEQEND
  5
214
330
210
100
AcDbEntity
  8
0
  6
AI-Linetype-37
 62
     4
370
    25
  0
POLYLINE
  5
215
330
208
100
AcDbEntity
  8
0
  6
AI-Linetype-38
 62
     4
370
    25
100
AcDb2dPolyline
 66
     1
 10
0.0
 20
0.0
 30
0.0
  0
VERTEX
  5
216
330
215
100
AcDbEntity
  8
0
  6
AI-Linetype-38
 62
     4
370
    25
100
AcDbVertex
100
AcDb2dVertex
 10
-109.6678214752686
 20
289.0423700245819
 30
0.0
  0
VERTEX
  5
217
330
215
100
AcDbEntity
  8
0
  6
AI-Linetype-38
 62
     4
370
    25
100
AcDbVertex
100
AcDb2dVertex
 10
-109.6678214752686
 20
315.6045945120277
 30
0.0
  0
SEQEND
  5
219
330
215
100
AcDbEntity
  8
0
  6
AI-Linetype-38
 62
     4
370
    25
  0
POLYLINE
  5
21A
330
208
100
AcDbEntity
  8
0
 62
     4
370
    25
100
AcDb2dPolyline
 66
     1
 10
0.0
 20
0.0
 30
0.0
  0
VERTEX
  5
21B
330
21A
100
AcDbEntity
  8
0
 62
     4
370
    25
100
AcDbVertex
100
AcDb2dVertex
 10
-109.6678214752686
 20
317.1670745056692
 30
0.0
  0
VERTEX
  5
21C
330
21A
100
AcDbEntity
  8
0
 62
     4
370
    25
100
AcDbVertex
100
AcDb2dVertex
 10
-109.6678214752686
 20
328.4171414719864
 30
0.0
  0
SEQEND
  5
21D
330
21A
100
AcDbEntity
  8
0
 62
     4
370
    25
  0
ENDBLK
  5
20B
330
208
100
AcDbEntity
  8
0
100
AcDbBlockEnd
  0
BLOCK
  5
220
330
21E
100
AcDbEntity
  8
0
100
AcDbBlockBegin
  2
block 79
 70
     0
 10
0.0
 20
0.0
 30
0.0
  3
block 79
  1

  0
INSERT
  5
223
330
21E
100
AcDbEntity
  8
0
100
AcDbBlockReference
  2
block 80
 10
0.0
 20
0.0
 30
0.0
  0
ENDBLK
  5
221
330
21E
100
AcDbEntity
  8
0
100
AcDbBlockEnd
  0
BLOCK
  5
224
330
222
100
AcDbEntity
  8
0
100
AcDbBlockBegin
  2
block 80
 70
     0
 10
0.0
 20
0.0
 30
0.0
  3
block 80
  1

  0
INSERT
  5
227
330
222
100
AcDbEntity
  8
0
100
AcDbBlockReference
  2
block 81
 10
0.0
 20
0.0
 30
0.0
  0
ENDBLK
  5
225
330
222
100
AcDbEntity
  8
0
100
AcDbBlockEnd
  0
BLOCK
  5
228
330
226
100
AcDbEntity
  8
0
100
AcDbBlockBegin
  2
block 81
 70
     0
 10
0.0
 20
0.0
 30
0.0
  3
block 81
  1

  0
POLYLINE
  5
22A
330
226
100
AcDbEntity
  8
0
 62
     4
370
    25
100
AcDb2dPolyline
 66
     1
 10
0.0
 20
0.0
 30
0.0
  0
VERTEX
  5
22B
330
22A
100
AcDbEntity
  8
0
 62
     4
370
    25
100
AcDbVertex
100
AcDb2dVertex
 10
30.00754605708687
 20
173.4951378282628
 30
0.0
  0
VERTEX
  5
22C
330
22A
100
AcDbEntity
  8
0
 62
     4
370
    25
100
AcDbVertex
100
AcDb2dVertex
 10
30.00754605708687
 20
184.7452263264265
 30
0.0
  0
SEQEND
  5
22D
330
22A
100
AcDbEntity
  8
0
 62
     4
370
    25
  0
POLYLINE
  5
22E
330
226
100
AcDbEntity
  8
0
  6
AI-Linetype-39
 62
     4
370
    25
100
AcDb2dPolyline
 66
     1
 10
0.0
 20
0.0
 30
0.0
  0
VERTEX
  5
22F
330
22E
100
AcDbEntity
  8
0
  6
AI-Linetype-39
 62
     4
370
    25
100
AcDbVertex
100
AcDb2dVertex
 10
30.00754605708687
 20
188.2088391999096
 30
0.0
  0
VERTEX
  5
230
330
22E
100
AcDbEntity
  8
0
  6
AI-Linetype-39
 62
     4
370
    25
100
AcDbVertex
100
AcDb2dVertex
 10
30.00754605708687
 20
193.404280041981
 30
0.0
  0
SEQEND
  5
232
330
22E
100
AcDbEntity
  8
0
  6
AI-Linetype-39
 62
     4
370
    25
  0
POLYLINE
  5
233
330
226
100
AcDbEntity
  8
0
  6
AI-Linetype-40
 62
     4
370
    25
100
AcDb2dPolyline
 66
     1
 10
0.0
 20
0.0
 30
0.0
  0
VERTEX
  5
234
330
233
100
AcDbEntity
  8
0
  6
AI-Linetype-40
 62
     4
370
    25
100
AcDbVertex
100
AcDb2dVertex
 10
30.00754605708687
 20
195.1360864787225
 30
0.0
  0
VERTEX
  5
235
330
233
100
AcDbEntity
  8
0
  6
AI-Linetype-40
 62
     4
370
    25
100
AcDbVertex
100
AcDb2dVertex
 10
30.00754605708687
 20
380.4406025253345
 30
0.0
  0
SEQEND
  5
237
330
233
100
AcDbEntity
  8
0
  6
AI-Linetype-40
 62
     4
370
    25
  0
POLYLINE
  5
238
330
226
100
AcDbEntity
  8
0
 62
     4
370
    25
100
AcDb2dPolyline
 66
     1
 10
0.0
 20
0.0
 30
0.0
  0
VERTEX
  5
239
330
238
100
AcDbEntity
  8
0
 62
     4
370
    25
100
AcDbVertex
100
AcDb2dVertex
 10
30.00754605708687
 20
382.1724089620731
 30
0.0
  0
VERTEX
  5
23A
330
238
100
AcDbEntity
  8
0
 62
     4
370
    25
100
AcDbVertex
100
AcDb2dVertex
 10
30.00754605708687
 20
393.4224974602382
 30
0.0
  0
SEQEND
  5
23B
330
238
100
AcDbEntity
  8
0
 62
     4
370
    25
  0
ENDBLK
  5
229
330
226
100
AcDbEntity
  8
0
100
AcDbBlockEnd
  0
BLOCK
  5
23E
330
23C
100
AcDbEntity
  8
0
100
AcDbBlockBegin
  2
block 82
 70
     0
 10
0.0
 20
0.0
 30
0.0
  3
block 82
  1

  0
SPLINE
  5
240
330
23C
100
AcDbEntity
  8
0
  6
AI-Linetype-41
 62
     6
370
    25
100
AcDbSpline
210
0.0
220
0.0
230
1.0
 70
    11
 71
     3
 72
    23
 73
    19
 74
     0
 42
0.0000000001
 43
0.0000000001
 12
1.0
 22
0.0
 32
0.0
 13
1.0
 23
0.0
 33
0.0
 40
0.0
 40
0.0
 40
0.0
 40
0.0
 40
1.0
 40
1.0
 40
1.0
 40
2.0
 40
2.0
 40
2.0
 40
3.0
 40
3.0
 40
3.0
 40
4.0
 40
4.0
 40
4.0
 40
5.0
 40
5.0
 40
5.0
 40
6.0
 40
6.0
 40
6.0
 40
6.0
 10
-114.6683338154774
 20
288.417336220563
 30
0.0
 10
-120.1903461120482
 20
288.417336220563
 30
0.0
 10
-124.6680723742135
 20
292.8937705824796
 30
0.0
 10
-124.6680723742135
 20
298.417505412716
 30
0.0
 10
-124.6680723742135
 20
303.9395177092867
 30
0.0
 10
-120.1903461120482
 20
308.4172439714524
 30
0.0
 10
-114.6683338154774
 20
308.4172439714524
 30
0.0
 10
-114.6683338154774
 20
308.4172439714524
 30
0.0
 10
-104.6681646233241
 20
308.4172439714524
 30
0.0
 10
-104.6681646233241
 20
308.4172439714524
 30
0.0
 10
-99.14486042650393
 20
308.4172439714524
 30
0.0
 10
-94.66842606458702
 20
303.9395177092867
 30
0.0
 10
-94.66842606458702
 20
298.417505412716
 30
0.0
 10
-94.66842606458702
 20
292.8937705824796
 30
0.0
 10
-99.14486042650393
 20
288.417336220563
 30
0.0
 10
-104.6681646233241
 20
288.417336220563
 30
0.0
 10
-110.1906075533117
 20
288.417336220563
 30
0.0
 10
-109.1450296186569
 20
288.417336220563
 30
0.0
 10
-114.6683338154774
 20
288.417336220563
 30
0.0
  0
ENDBLK
  5
23F
330
23C
100
AcDbEntity
  8
0
100
AcDbBlockEnd
  0
BLOCK
  5
244
330
242
100
AcDbEntity
  8
0
100
AcDbBlockBegin
  2
block 83
 70
     0
 10
0.0
 20
0.0
 30
0.0
  3
block 83
  1

  0
SPLINE
  5
246
330
242
100
AcDbEntity
  8
0
 62
   250
370
    25
100
AcDbSpline
210
0.0
220
0.0
230
1.0
 70
     8
 71
     3
 72
    14
 73
    10
 74
     0
 42
0.0000000001
 43
0.0000000001
 12
1.0
 22
0.0
 32
0.0
 13
1.0
 23
0.0
 33
0.0
 40
0.0
 40
0.0
 40
0.0
 40
0.0
 40
1.0
 40
1.0
 40
1.0
 40
2.0
 40
2.0
 40
2.0
 40
3.0
 40
3.0
 40
3.0
 40
3.0
 10
-52.47856901131424
 20
212.6722048912308
 30
0.0
 10
-52.47856901131424
 20
212.6722048912308
 30
0.0
 10
-45.36019864070517
 20
-53.37225840106713
 30
0.0
 10
-45.36019864070517
 20
-53.37225840106713
 30
0.0
 10
-45.36019864070517
 20
-60.2210522531036
 30
0.0
 10
-43.2104766267861
 20
-61.99138622730657
 30
0.0
 10
-36.6049906549305
 20
-61.99138622730657
 30
0.0
 10
-5.067552415875761
 20
-61.99138622730657
 30
0.0
 10
-4.859987109243328
 20
-61.9931087609716
 30
0.0
 10
31.57289180573854
 20
-61.9931087609716
 30
0.0
  0
ENDBLK
  5
245
330
242
100
AcDbEntity
  8
0
100
AcDbBlockEnd
  0
BLOCK
  5
249
330
247
100
AcDbEntity
  8
0
100
AcDbBlockBegin
  2
block 84
 70
     0
 10
0.0
 20
0.0
 30
0.0
  3
block 84
  1

  0
SPLINE
  5
24B
330
247
100
AcDbEntity
  8
0
  6
AI-Linetype-42
 62
     6
370
    25
100
AcDbSpline
210
0.0
220
0.0
230
1.0
 70
     8
 71
     3
 72
    14
 73
    10
 74
     0
 42
0.0000000001
 43
0.0000000001
 12
1.0
 22
0.0
 32
0.0
 13
1.0
 23
0.0
 33
0.0
 40
0.0
 40
0.0
 40
0.0
 40
0.0
 40
1.0
 40
1.0
 40
1.0
 40
2.0
 40
2.0
 40
2.0
 40
3.0
 40
3.0
 40
3.0
 40
3.0
 10
-48.94364827506993
 20
212.1652173355127
 30
0.0
 10
-48.94364827506993
 20
212.1652173355127
 30
0.0
 10
-42.05637907123656
 20
-52.04073987802224
 30
0.0
 10
-42.05637907123656
 20
-52.04073987802224
 30
0.0
 10
-42.05637907123656
 20
-57.79012661837393
 30
0.0
 10
-41.71144170482044
 20
-58.88996436347594
 30
0.0
 10
-35.83803254058939
 20
-58.88996436347594
 30
0.0
 10
-35.83803254058939
 20
-58.88996436347594
 30
0.0
 10
31.57289180573854
 20
-58.89125626372439
 30
0.0
 10
31.57289180573854
 20
-58.89125626372439
 30
0.0
  0
ENDBLK
  5
24A
330
247
100
AcDbEntity
  8
0
100
AcDbBlockEnd
  0
BLOCK
  5
24F
330
24D
100
AcDbEntity
  8
0
100
AcDbBlockBegin
  2
block 85
 70
     0
 10
0.0
 20
0.0
 30
0.0
  3
block 85
  1

  0
SPLINE
  5
251
330
24D
100
AcDbEntity
  8
0
 62
   250
370
    25
100
AcDbSpline
210
0.0
220
0.0
230
1.0
 70
     8
 71
     3
 72
    14
 73
    10
 74
     0
 42
0.0000000001
 43
0.0000000001
 12
1.0
 22
0.0
 32
0.0
 13
1.0
 23
0.0
 33
0.0
 40
0.0
 40
0.0
 40
0.0
 40
0.0
 40
1.0
 40
1.0
 40
1.0
 40
2.0
 40
2.0
 40
2.0
 40
3.0
 40
3.0
 40
3.0
 40
3.0
 10
115.6243526227926
 20
212.6734967914792
 30
0.0
 10
115.6243526227926
 20
212.6734967914792
 30
0.0
 10
108.5055516187666
 20
-53.37096650081804
 30
0.0
 10
108.5055516187666
 20
-53.37096650081804
 30
0.0
 10
108.5055516187666
 20
-60.21932971943857
 30
0.0
 10
106.3562602382638
 20
-61.99052496047405
 30
0.0
 10
99.74991299957603
 20
-61.99052496047405
 30
0.0
 10
68.21290539393722
 20
-61.99052496047405
 30
0.0
 10
68.00577072072137
 20
-61.99181686072315
 30
0.0
 10
31.57289180573854
 20
-61.99181686072315
 30
0.0
  0
ENDBLK
  5
250
330
24D
100
AcDbEntity
  8
0
100
AcDbBlockEnd
  0
BLOCK
  5
254
330
252
100
AcDbEntity
  8
0
100
AcDbBlockBegin
  2
block 86
 70
     0
 10
0.0
 20
0.0
 30
0.0
  3
block 86
  1

  0
SPLINE
  5
256
330
252
100
AcDbEntity
  8
0
  6
AI-Linetype-43
 62
     6
370
    25
100
AcDbSpline
210
0.0
220
0.0
230
1.0
 70
     8
 71
     3
 72
    14
 73
    10
 74
     0
 42
0.0000000001
 43
0.0000000001
 12
1.0
 22
0.0
 32
0.0
 13
1.0
 23
0.0
 33
0.0
 40
0.0
 40
0.0
 40
0.0
 40
0.0
 40
1.0
 40
1.0
 40
1.0
 40
2.0
 40
2.0
 40
2.0
 40
3.0
 40
3.0
 40
3.0
 40
3.0
 10
112.3541233045112
 20
213.0380407747959
 30
0.0
 10
112.3541233045112
 20
213.0380407747959
 30
0.0
 10
105.201732049298
 20
-52.03987861118973
 30
0.0
 10
105.201732049298
 20
-52.03987861118973
 30
0.0
 10
105.201732049298
 20
-57.78969598495735
 30
0.0
 10
104.8567946828826
 20
-58.88867246322685
 30
0.0
 10
98.98338551865118
 20
-58.88867246322685
 30
0.0
 10
98.98338551865118
 20
-58.88867246322685
 30
0.0
 10
31.57289180573854
 20
-58.89039499689188
 30
0.0
 10
31.57289180573854
 20
-58.89039499689188
 30
0.0
  0
ENDBLK
  5
255
330
252
100
AcDbEntity
  8
0
100
AcDbBlockEnd
  0
ENDSEC
  0
SECTION
  2
ENTITIES
  0
INSERT
  5
41
330
1F
100
AcDbEntity
  8
0
100
AcDbBlockReference
  2
block 2
 10
0.0
 20
0.0
 30
0.0
  0
INSERT
  5
46
330
1F
100
AcDbEntity
  8
0
100
AcDbBlockReference
  2
block 3
 10
0.0
 20
0.0
 30
0.0
  0
INSERT
  5
4C
330
1F
100
AcDbEntity
  8
0
100
AcDbBlockReference
  2
block 4
 10
0.0
 20
0.0
 30
0.0
  0
INSERT
  5
51
330
1F
100
AcDbEntity
  8
0
100
AcDbBlockReference
  2
block 5
 10
0.0
 20
0.0
 30
0.0
  0
INSERT
  5
57
330
1F
100
AcDbEntity
  8
0
100
AcDbBlockReference
  2
block 6
 10
0.0
 20
0.0
 30
0.0
  0
INSERT
  5
5D
330
1F
100
AcDbEntity
  8
0
100
AcDbBlockReference
  2
block 7
 10
0.0
 20
0.0
 30
0.0
  0
INSERT
  5
62
330
1F
100
AcDbEntity
  8
0
100
AcDbBlockReference
  2
block 8
 10
0.0
 20
0.0
 30
0.0
  0
INSERT
  5
68
330
1F
100
AcDbEntity
  8
0
100
AcDbBlockReference
  2
block 9
 10
0.0
 20
0.0
 30
0.0
  0
INSERT
  5
6E
330
1F
100
AcDbEntity
  8
0
100
AcDbBlockReference
  2
block 10
 10
0.0
 20
0.0
 30
0.0
  0
INSERT
  5
74
330
1F
100
AcDbEntity
  8
0
100
AcDbBlockReference
  2
block 11
 10
0.0
 20
0.0
 30
0.0
  0
INSERT
  5
7A
330
1F
100
AcDbEntity
  8
0
100
AcDbBlockReference
  2
block 12
 10
0.0
 20
0.0
 30
0.0
  0
INSERT
  5
7F
330
1F
100
AcDbEntity
  8
0
100
AcDbBlockReference
  2
block 13
 10
0.0
 20
0.0
 30
0.0
  0
INSERT
  5
85
330
1F
100
AcDbEntity
  8
0
100
AcDbBlockReference
  2
block 14
 10
0.0
 20
0.0
 30
0.0
  0
INSERT
  5
8B
330
1F
100
AcDbEntity
  8
0
100
AcDbBlockReference
  2
block 15
 10
0.0
 20
0.0
 30
0.0
  0
INSERT
  5
90
330
1F
100
AcDbEntity
  8
0
100
AcDbBlockReference
  2
block 16
 10
0.0
 20
0.0
 30
0.0
  0
INSERT
  5
95
330
1F
100
AcDbEntity
  8
0
100
AcDbBlockReference
  2
block 17
 10
0.0
 20
0.0
 30
0.0
  0
INSERT
  5
9B
330
1F
100
AcDbEntity
  8
0
100
AcDbBlockReference
  2
block 18
 10
0.0
 20
0.0
 30
0.0
  0
INSERT
  5
A1
330
1F
100
AcDbEntity
  8
0
100
AcDbBlockReference
  2
block 19
 10
0.0
 20
0.0
 30
0.0
  0
INSERT
  5
A7
330
1F
100
AcDbEntity
  8
0
100
AcDbBlockReference
  2
block 20
 10
0.0
 20
0.0
 30
0.0
  0
INSERT
  5
AD
330
1F
100
AcDbEntity
  8
0
100
AcDbBlockReference
  2
block 21
 10
0.0
 20
0.0
 30
0.0
  0
INSERT
  5
B2
330
1F
100
AcDbEntity
  8
0
100
AcDbBlockReference
  2
block 22
 10
0.0
 20
0.0
 30
0.0
  0
INSERT
  5
B7
330
1F
100
AcDbEntity
  8
0
100
AcDbBlockReference
  2
block 23
 10
0.0
 20
0.0
 30
0.0
  0
INSERT
  5
BD
330
1F
100
AcDbEntity
  8
0
100
AcDbBlockReference
  2
block 24
 10
0.0
 20
0.0
 30
0.0
  0
INSERT
  5
C3
330
1F
100
AcDbEntity
  8
0
100
AcDbBlockReference
  2
block 25
 10
0.0
 20
0.0
 30
0.0
  0
INSERT
  5
C8
330
1F
100
AcDbEntity
  8
0
100
AcDbBlockReference
  2
block 26
 10
0.0
 20
0.0
 30
0.0
  0
INSERT
  5
CD
330
1F
100
AcDbEntity
  8
0
100
AcDbBlockReference
  2
block 27
 10
0.0
 20
0.0
 30
0.0
  0
INSERT
  5
D2
330
1F
100
AcDbEntity
  8
0
100
AcDbBlockReference
  2
block 28
 10
0.0
 20
0.0
 30
0.0
  0
INSERT
  5
D7
330
1F
100
AcDbEntity
  8
0
100
AcDbBlockReference
  2
block 29
 10
0.0
 20
0.0
 30
0.0
  0
INSERT
  5
DC
330
1F
100
AcDbEntity
  8
0
100
AcDbBlockReference
  2
block 30
 10
0.0
 20
0.0
 30
0.0
  0
INSERT
  5
E1
330
1F
100
AcDbEntity
  8
0
100
AcDbBlockReference
  2
block 31
 10
0.0
 20
0.0
 30
0.0
  0
INSERT
  5
E6
330
1F
100
AcDbEntity
  8
0
100
AcDbBlockReference
  2
block 32
 10
0.0
 20
0.0
 30
0.0
  0
INSERT
  5
EC
330
1F
100
AcDbEntity
  8
0
100
AcDbBlockReference
  2
block 33
 10
0.0
 20
0.0
 30
0.0
  0
INSERT
  5
F2
330
1F
100
AcDbEntity
  8
0
100
AcDbBlockReference
  2
block 34
 10
0.0
 20
0.0
 30
0.0
  0
INSERT
  5
F7
330
1F
100
AcDbEntity
  8
0
100
AcDbBlockReference
  2
block 35
 10
0.0
 20
0.0
 30
0.0
  0
INSERT
  5
FF
330
1F
100
AcDbEntity
  8
0
100
AcDbBlockReference
  2
block 36
 10
0.0
 20
0.0
 30
0.0
  0
INSERT
  5
105
330
1F
100
AcDbEntity
  8
0
100
AcDbBlockReference
  2
block 37
 10
0.0
 20
0.0
 30
0.0
  0
INSERT
  5
10A
330
1F
100
AcDbEntity
  8
0
100
AcDbBlockReference
  2
block 38
 10
0.0
 20
0.0
 30
0.0
  0
INSERT
  5
110
330
1F
100
AcDbEntity
  8
0
100
AcDbBlockReference
  2
block 39
 10
0.0
 20
0.0
 30
0.0
  0
INSERT
  5
116
330
1F
100
AcDbEntity
  8
0
100
AcDbBlockReference
  2
block 40
 10
0.0
 20
0.0
 30
0.0
  0
INSERT
  5
11B
330
1F
100
AcDbEntity
  8
0
100
AcDbBlockReference
  2
block 41
 10
0.0
 20
0.0
 30
0.0
  0
INSERT
  5
120
330
1F
100
AcDbEntity
  8
0
100
AcDbBlockReference
  2
block 42
 10
0.0
 20
0.0
 30
0.0
  0
INSERT
  5
126
330
1F
100
AcDbEntity
  8
0
100
AcDbBlockReference
  2
block 43
 10
0.0
 20
0.0
 30
0.0
  0
INSERT
  5
12B
330
1F
100
AcDbEntity
  8
0
100
AcDbBlockReference
  2
block 44
 10
0.0
 20
0.0
 30
0.0
  0
INSERT
  5
130
330
1F
100
AcDbEntity
  8
0
100
AcDbBlockReference
  2
block 45
 10
0.0
 20
0.0
 30
0.0
  0
INSERT
  5
136
330
1F
100
AcDbEntity
  8
0
100
AcDbBlockReference
  2
block 46
 10
0.0
 20
0.0
 30
0.0
  0
INSERT
  5
13B
330
1F
100
AcDbEntity
  8
0
100
AcDbBlockReference
  2
block 47
 10
0.0
 20
0.0
 30
0.0
  0
INSERT
  5
141
330
1F
100
AcDbEntity
  8
0
100
AcDbBlockReference
  2
block 48
 10
0.0
 20
0.0
 30
0.0
  0
INSERT
  5
146
330
1F
100
AcDbEntity
  8
0
100
AcDbBlockReference
  2
block 49
 10
0.0
 20
0.0
 30
0.0
  0
INSERT
  5
14B
330
1F
100
AcDbEntity
  8
0
100
AcDbBlockReference
  2
block 50
 10
0.0
 20
0.0
 30
0.0
  0
INSERT
  5
150
330
1F
100
AcDbEntity
  8
0
100
AcDbBlockReference
  2
block 51
 10
0.0
 20
0.0
 30
0.0
  0
INSERT
  5
155
330
1F
100
AcDbEntity
  8
0
100
AcDbBlockReference
  2
block 52
 10
0.0
 20
0.0
 30
0.0
  0
INSERT
  5
15A
330
1F
100
AcDbEntity
  8
0
100
AcDbBlockReference
  2
block 53
 10
0.0
 20
0.0
 30
0.0
  0
INSERT
  5
160
330
1F
100
AcDbEntity
  8
0
100
AcDbBlockReference
  2
block 54
 10
0.0
 20
0.0
 30
0.0
  0
INSERT
  5
165
330
1F
100
AcDbEntity
  8
0
100
AcDbBlockReference
  2
block 55
 10
0.0
 20
0.0
 30
0.0
  0
INSERT
  5
16A
330
1F
100
AcDbEntity
  8
0
100
AcDbBlockReference
  2
block 56
 10
0.0
 20
0.0
 30
0.0
  0
INSERT
  5
16F
330
1F
100
AcDbEntity
  8
0
100
AcDbBlockReference
  2
block 57
 10
0.0
 20
0.0
 30
0.0
  0
INSERT
  5
175
330
1F
100
AcDbEntity
  8
0
100
AcDbBlockReference
  2
block 58
 10
0.0
 20
0.0
 30
0.0
  0
INSERT
  5
17A
330
1F
100
AcDbEntity
  8
0
100
AcDbBlockReference
  2
block 59
 10
0.0
 20
0.0
 30
0.0
  0
INSERT
  5
17F
330
1F
100
AcDbEntity
  8
0
100
AcDbBlockReference
  2
block 60
 10
0.0
 20
0.0
 30
0.0
  0
INSERT
  5
185
330
1F
100
AcDbEntity
  8
0
100
AcDbBlockReference
  2
block 61
 10
0.0
 20
0.0
 30
0.0
  0
INSERT
  5
18B
330
1F
100
AcDbEntity
  8
0
100
AcDbBlockReference
  2
block 62
 10
0.0
 20
0.0
 30
0.0
  0
INSERT
  5
191
330
1F
100
AcDbEntity
  8
0
100
AcDbBlockReference
  2
block 63
 10
0.0
 20
0.0
 30
0.0
  0
INSERT
  5
197
330
1F
100
AcDbEntity
  8
0
100
AcDbBlockReference
  2
block 64
 10
0.0
 20
0.0
 30
0.0
  0
INSERT
  5
19C
330
1F
100
AcDbEntity
  8
0
100
AcDbBlockReference
  2
block 65
 10
0.0
 20
0.0
 30
0.0
  0
INSERT
  5
1A1
330
1F
100
AcDbEntity
  8
0
100
AcDbBlockReference
  2
block 66
 10
0.0
 20
0.0
 30
0.0
  0
INSERT
  5
1BF
330
1F
100
AcDbEntity
  8
0
100
AcDbBlockReference
  2
block 69
 10
0.0
 20
0.0
 30
0.0
  0
INSERT
  5
1DD
330
1F
100
AcDbEntity
  8
0
100
AcDbBlockReference
  2
block 72
 10
0.0
 20
0.0
 30
0.0
  0
INSERT
  5
1E3
330
1F
100
AcDbEntity
  8
0
100
AcDbBlockReference
  2
block 73
 10
0.0
 20
0.0
 30
0.0
  0
INSERT
  5
201
330
1F
100
AcDbEntity
  8
0
100
AcDbBlockReference
  2
block 76
 10
0.0
 20
0.0
 30
0.0
  0
INSERT
  5
21F
330
1F
100
AcDbEntity
  8
0
100
AcDbBlockReference
  2
block 79
 10
0.0
 20
0.0
 30
0.0
  0
INSERT
  5
23D
330
1F
100
AcDbEntity
  8
0
100
AcDbBlockReference
  2
block 82
 10
0.0
 20
0.0
 30
0.0
  0
INSERT
  5
243
330
1F
100
AcDbEntity
  8
0
100
AcDbBlockReference
  2
block 83
 10
0.0
 20
0.0
 30
0.0
  0
INSERT
  5
248
330
1F
100
AcDbEntity
  8
0
100
AcDbBlockReference
  2
block 84
 10
0.0
 20
0.0
 30
0.0
  0
INSERT
  5
24E
330
1F
100
AcDbEntity
  8
0
100
AcDbBlockReference
  2
block 85
 10
0.0
 20
0.0
 30
0.0
  0
INSERT
  5
253
330
1F
100
AcDbEntity
  8
0
100
AcDbBlockReference
  2
block 86
 10
0.0
 20
0.0
 30
0.0
  0
ENDSEC
  0
SECTION
  2
OBJECTS
  0
DICTIONARY
  5
C
330
0
100
AcDbDictionary
281
     1
  3
ACAD_GROUP
350
D
  3
ACAD_LAYOUT
350
1A
  3
ACAD_MATERIAL
350
3B
  3
ACAD_MLEADERSTYLE
350
279
  3
ACAD_MLINESTYLE
350
17
  3
ACAD_PLOTSETTINGS
350
19
  3
ACAD_PLOTSTYLENAME
350
E
  3
ACAD_TABLESTYLE
350
278
  3
ACAD_VISUALSTYLE
350
2A
  0
SUN
  5
3F
330
29
100
AcDbSun
 90
        1
290
     0
 63
     7
421
 16777215
 40
1.0
291
     1
 91
  2455826
 92
 54000000
292
     0
 70
     2
 71
   256
280
     1
  0
DICTIONARY
  5
D
102
{ACAD_REACTORS
330
C
102
}
330
C
100
AcDbDictionary
281
     1
  0
DICTIONARY
  5
1A
102
{ACAD_REACTORS
330
C
102
}
330
C
100
AcDbDictionary
281
     1
  3
Layout1
350
1E
  3
Layout2
350
26
  3
Model
350
22
  0
DICTIONARY
  5
3B
102
{ACAD_REACTORS
330
C
102
}
330
C
100
AcDbDictionary
281
     1
  3
ByBlock
350
3D
  3
ByLayer
350
3C
  3
Global
350
3E
  0
DICTIONARY
  5
279
102
{ACAD_REACTORS
330
C
102
}
330
C
100
AcDbDictionary
281
     1
  0
DICTIONARY
  5
17
102
{ACAD_REACTORS
330
C
102
}
330
C
100
AcDbDictionary
281
     1
  3
Standard
350
18
  0
DICTIONARY
  5
19
102
{ACAD_REACTORS
330
C
102
}
330
C
100
AcDbDictionary
281
     1
  0
ACDBDICTIONARYWDFLT
  5
E
102
{ACAD_REACTORS
330
C
102
}
330
C
100
AcDbDictionary
281
     1
  3
Normal
350
F
100
AcDbDictionaryWithDefault
340
F
  0
DICTIONARY
  5
278
102
{ACAD_REACTORS
330
C
102
}
330
C
100
AcDbDictionary
281
     1
  0
DICTIONARY
  5
2A
102
{ACAD_REACTORS
330
C
102
}
330
C
100
AcDbDictionary
281
     1
  3
2dWireframe
350
2F
  3
3D Hidden
350
31
  3
3dWireframe
350
30
  3
Basic
350
32
  3
Brighten
350
36
  3
ColorChange
350
3A
  3
Conceptual
350
34
  3
Dim
350
35
  3
Facepattern
350
39
  3
Flat
350
2B
  3
FlatWithEdges
350
2C
  3
Gouraud
350
2D
  3
GouraudWithEdges
350
2E
  3
Linepattern
350
38
  3
Realistic
350
33
  3
Thicken
350
37
  0
LAYOUT
  5
1E
102
{ACAD_REACTORS
330
1A
102
}
330
1A
100
AcDbPlotSettings
  1

  2
none_device
  4

  6

 40
0.0
 41
0.0
 42
0.0
 43
0.0
 44
0.0
 45
0.0
 46
0.0
 47
0.0
 48
0.0
 49
0.0
140
0.0
141
0.0
142
1.0
143
1.0
 70
   688
 72
     0
 73
     0
 74
     5
  7

 75
    16
 76
     0
 77
     2
 78
   300
147
1.0
148
0.0
149
0.0
100
AcDbLayout
  1
Layout1
 70
     1
 71
     1
 10
0.0
 20
0.0
 11
12.0
 21
9.0
 12
0.0
 22
0.0
 32
0.0
 14
1.000000000000000E+20
 24
1.000000000000000E+20
 34
1.000000000000000E+20
 15
-1.000000000000000E+20
 25
-1.000000000000000E+20
 35
-1.000000000000000E+20
146
0.0
 13
0.0
 23
0.0
 33
0.0
 16
1.0
 26
0.0
 36
0.0
 17
0.0
 27
1.0
 37
0.0
 76
     0
330
1B
  0
LAYOUT
  5
26
102
{ACAD_REACTORS
330
1A
102
}
330
1A
100
AcDbPlotSettings
  1

  2
none_device
  4

  6

 40
0.0
 41
0.0
 42
0.0
 43
0.0
 44
0.0
 45
0.0
 46
0.0
 47
0.0
 48
0.0
 49
0.0
140
0.0
141
0.0
142
1.0
143
1.0
 70
   688
 72
     0
 73
     0
 74
     5
  7

 75
    16
 76
     0
 77
     2
 78
   300
147
1.0
148
0.0
149
0.0
100
AcDbLayout
  1
Layout2
 70
     1
 71
     2
 10
0.0
 20
0.0
 11
0.0
 21
0.0
 12
0.0
 22
0.0
 32
0.0
 14
0.0
 24
0.0
 34
0.0
 15
0.0
 25
0.0
 35
0.0
146
0.0
 13
0.0
 23
0.0
 33
0.0
 16
1.0
 26
0.0
 36
0.0
 17
0.0
 27
1.0
 37
0.0
 76
     0
330
23
  0
LAYOUT
  5
22
102
{ACAD_REACTORS
330
1A
102
}
330
1A
100
AcDbPlotSettings
  1

  2
none_device
  4

  6

 40
0.0
 41
0.0
 42
0.0
 43
0.0
 44
0.0
 45
0.0
 46
0.0
 47
0.0
 48
0.0
 49
0.0
140
0.0
141
0.0
142
1.0
143
1.0
 70
  1712
 72
     0
 73
     0
 74
     0
  7

 75
     0
 76
     0
 77
     2
 78
   300
147
1.0
148
0.0
149
0.0
100
AcDbLayout
  1
Model
 70
     1
 71
     0
 10
0.0
 20
0.0
 11
12.0
 21
9.0
 12
0.0
 22
0.0
 32
0.0
 14
1.000000000000000E+20
 24
1.000000000000000E+20
 34
1.000000000000000E+20
 15
-1.000000000000000E+20
 25
-1.000000000000000E+20
 35
-1.000000000000000E+20
146
0.0
 13
0.0
 23
0.0
 33
0.0
 16
1.0
 26
0.0
 36
0.0
 17
0.0
 27
1.0
 37
0.0
 76
     0
330
1F
331
29
  0
MATERIAL
  5
3D
102
{ACAD_REACTORS
330
3B
102
}
330
3B
100
AcDbMaterial
  1
ByBlock
 72
     1
 94
      127
  0
MATERIAL
  5
3C
102
{ACAD_REACTORS
330
3B
102
}
330
3B
100
AcDbMaterial
  1
ByLayer
 72
     1
 94
      127
  0
MATERIAL
  5
3E
102
{ACAD_REACTORS
330
3B
102
}
330
3B
100
AcDbMaterial
  1
Global
 72
     1
 94
      127
  0
MLINESTYLE
  5
18
102
{ACAD_REACTORS
330
17
102
}
330
17
100
AcDbMlineStyle
  2
Standard
 70
     0
  3

 62
   256
 51
90.0
 52
90.0
 71
     2
 49
0.5
 62
   256
  6
BYLAYER
 49
-0.5
 62
   256
  6
BYLAYER
  0
ACDBPLACEHOLDER
  5
F
102
{ACAD_REACTORS
330
E
102
}
330
E
  0
VISUALSTYLE
  5
2F
102
{ACAD_REACTORS
330
2A
102
}
102
{ACAD_XDICTIONARY
360
260
102
}
330
2A
100
AcDbVisualStyle
  2
2dWireframe
 70
     4
 71
     0
 72
     2
 73
     0
 90
        0
 40
-0.6
 41
-30.0
 62
     5
 63
     7
421
 16777215
 74
     1
 91
        4
 64
     7
 65
   257
 75
     1
175
     1
 42
1.0
 92
        0
 66
   257
 43
1.0
 76
     1
 77
     6
 78
     2
 67
     7
 79
     5
170
     0
171
     0
290
     0
174
     0
 93
        1
 44
0.0
173
     0
291
     0
 45
0.0
  0
VISUALSTYLE
  5
31
102
{ACAD_REACTORS
330
2A
102
}
102
{ACAD_XDICTIONARY
360
264
102
}
330
2A
100
AcDbVisualStyle
  2
3D Hidden
 70
     6
 71
     1
 72
     2
 73
     2
 90
        0
 40
-0.6
 41
-30.0
 62
     5
 63
     7
421
 16777215
 74
     2
 91
        2
 64
     7
 65
   257
 75
     2
175
     1
 42
40.0
 92
        0
 66
   257
 43
1.0
 76
     1
 77
     6
 78
     2
 67
     7
 79
     3
170
     0
171
     0
290
     0
174
     0
 93
        1
 44
0.0
173
     0
291
     0
 45
0.0
  0
VISUALSTYLE
  5
30
102
{ACAD_REACTORS
330
2A
102
}
102
{ACAD_XDICTIONARY
360
262
102
}
330
2A
100
AcDbVisualStyle
  2
3dWireframe
 70
     5
 71
     0
 72
     2
 73
     0
 90
        0
 40
-0.6
 41
-30.0
 62
     5
 63
     7
421
 16777215
 74
     1
 91
        4
 64
     7
 65
   257
 75
     1
175
     1
 42
1.0
 92
        0
 66
   257
 43
1.0
 76
     1
 77
     6
 78
     2
 67
     7
 79
     5
170
     0
171
     0
290
     0
174
     0
 93
        1
 44
0.0
173
     0
291
     0
 45
0.0
  0
VISUALSTYLE
  5
32
102
{ACAD_REACTORS
330
2A
102
}
102
{ACAD_XDICTIONARY
360
266
102
}
330
2A
100
AcDbVisualStyle
  2
Basic
 70
     7
 71
     1
 72
     0
 73
     1
 90
        0
 40
-0.6
 41
-30.0
 62
     5
 63
     7
421
 16777215
 74
     0
 91
        4
 64
     7
 65
   257
 75
     1
175
     1
 42
1.0
 92
        8
 66
     7
 43
1.0
 76
     1
 77
     6
 78
     2
 67
     7
 79
     5
170
     0
171
     0
290
     0
174
     0
 93
        1
 44
0.0
173
     0
291
     1
 45
0.0
  0
VISUALSTYLE
  5
36
102
{ACAD_REACTORS
330
2A
102
}
102
{ACAD_XDICTIONARY
360
26E
102
}
330
2A
100
AcDbVisualStyle
  2
Brighten
 70
    12
 71
     2
 72
     2
 73
     0
 90
        0
 40
-0.6
 41
-30.0
 62
     5
 63
     7
421
 16777215
 74
     1
 91
        4
 64
     7
 65
   257
 75
     1
175
     1
 42
1.0
 92
        8
 66
     7
 43
1.0
 76
     1
 77
     6
 78
     2
 67
     7
 79
     5
170
     0
171
     0
290
     0
174
     0
 93
        1
 44
50.0
173
     0
291
     1
 45
0.0
  0
VISUALSTYLE
  5
3A
102
{ACAD_REACTORS
330
2A
102
}
102
{ACAD_XDICTIONARY
360
276
102
}
330
2A
100
AcDbVisualStyle
  2
ColorChange
 70
    16
 71
     2
 72
     2
 73
     3
 90
        0
 40
-0.6
 41
-30.0
 62
     5
 63
     8
421
  8421504
 74
     1
 91
        4
 64
     7
 65
   257
 75
     1
175
     1
 42
1.0
 92
        8
 66
     8
424
  8421504
 43
1.0
 76
     1
 77
     6
 78
     2
 67
     7
 79
     5
170
     0
171
     0
290
     0
174
     0
 93
        1
 44
0.0
173
     0
291
     1
 45
0.0
  0
VISUALSTYLE
  5
34
102
{ACAD_REACTORS
330
2A
102
}
102
{ACAD_XDICTIONARY
360
26A
102
}
330
2A
100
AcDbVisualStyle
  2
Conceptual
 70
     9
 71
     3
 72
     2
 73
     0
 90
        0
 40
-0.6
 41
-30.0
 62
     5
 63
     7
421
 16777215
 74
     2
 91
        2
 64
     7
 65
   257
 75
     1
175
     1
 42
40.0
 92
        8
 66
     7
 43
1.0
 76
     1
 77
     6
 78
     2
 67
     7
 79
     3
170
     0
171
     0
290
     0
174
     0
 93
        1
 44
0.0
173
     0
291
     0
 45
0.0
  0
VISUALSTYLE
  5
35
102
{ACAD_REACTORS
330
2A
102
}
102
{ACAD_XDICTIONARY
360
26C
102
}
330
2A
100
AcDbVisualStyle
  2
Dim
 70
    11
 71
     2
 72
     2
 73
     0
 90
        0
 40
-0.6
 41
-30.0
 62
     5
 63
     7
421
 16777215
 74
     1
 91
        4
 64
     7
 65
   257
 75
     1
175
     1
 42
1.0
 92
        8
 66
     7
 43
1.0
 76
     1
 77
     6
 78
     2
 67
     7
 79
     5
170
     0
171
     0
290
     0
174
     0
 93
        1
 44
-50.0
173
     0
291
     1
 45
0.0
  0
VISUALSTYLE
  5
39
102
{ACAD_REACTORS
330
2A
102
}
102
{ACAD_XDICTIONARY
360
274
102
}
330
2A
100
AcDbVisualStyle
  2
Facepattern
 70
    15
 71
     2
 72
     2
 73
     0
 90
        0
 40
-0.6
 41
-30.0
 62
     5
 63
     7
421
 16777215
 74
     1
 91
        4
 64
     7
 65
   257
 75
     1
175
     1
 42
1.0
 92
        8
 66
     7
 43
1.0
 76
     1
 77
     6
 78
     2
 67
     7
 79
     5
170
     0
171
     0
290
     0
174
     0
 93
        1
 44
0.0
173
     0
291
     1
 45
0.0
  0
VISUALSTYLE
  5
2B
102
{ACAD_REACTORS
330
2A
102
}
102
{ACAD_XDICTIONARY
360
258
102
}
330
2A
100
AcDbVisualStyle
  2
Flat
 70
     0
 71
     2
 72
     1
 73
     1
 90
        2
 40
-0.6
 41
30.0
 62
     5
 63
     7
421
 16777215
 74
     0
 91
        4
 64
     7
 65
   257
 75
     1
175
     1
 42
1.0
 92
        8
 66
     7
 43
1.0
 76
     1
 77
     6
 78
     2
 67
     7
 79
     5
170
     0
171
     0
290
     0
174
     0
 93
       13
 44
0.0
173
     0
291
     1
 45
0.0
  0
VISUALSTYLE
  5
2C
102
{ACAD_REACTORS
330
2A
102
}
102
{ACAD_XDICTIONARY
360
25A
102
}
330
2A
100
AcDbVisualStyle
  2
FlatWithEdges
 70
     1
 71
     2
 72
     1
 73
     1
 90
        2
 40
-0.6
 41
30.0
 62
     5
 63
     7
421
 16777215
 74
     1
 91
        4
 64
     7
 65
   257
 75
     1
175
     1
 42
1.0
 92
        0
 66
   257
 43
1.0
 76
     1
 77
     6
 78
     2
 67
     7
 79
     5
170
     0
171
     0
290
     0
174
     0
 93
       13
 44
0.0
173
     0
291
     1
 45
0.0
  0
VISUALSTYLE
  5
2D
102
{ACAD_REACTORS
330
2A
102
}
102
{ACAD_XDICTIONARY
360
25C
102
}
330
2A
100
AcDbVisualStyle
  2
Gouraud
 70
     2
 71
     2
 72
     2
 73
     1
 90
        2
 40
-0.6
 41
30.0
 62
     5
 63
     7
421
 16777215
 74
     0
 91
        4
 64
     7
 65
   257
 75
     1
175
     1
 42
1.0
 92
        0
 66
     7
 43
1.0
 76
     1
 77
     6
 78
     2
 67
     7
 79
     5
170
     0
171
     0
290
     0
174
     0
 93
       13
 44
0.0
173
     0
291
     1
 45
0.0
  0
VISUALSTYLE
  5
2E
102
{ACAD_REACTORS
330
2A
102
}
102
{ACAD_XDICTIONARY
360
25E
102
}
330
2A
100
AcDbVisualStyle
  2
GouraudWithEdges
 70
     3
 71
     2
 72
     2
 73
     1
 90
        2
 40
-0.6
 41
30.0
 62
     5
 63
     7
421
 16777215
 74
     1
 91
        4
 64
     7
 65
   257
 75
     1
175
     1
 42
1.0
 92
        0
 66
   257
 43
1.0
 76
     1
 77
     6
 78
     2
 67
     7
 79
     5
170
     0
171
     0
290
     0
174
     0
 93
       13
 44
0.0
173
     0
291
     1
 45
0.0
  0
VISUALSTYLE
  5
38
102
{ACAD_REACTORS
330
2A
102
}
102
{ACAD_XDICTIONARY
360
272
102
}
330
2A
100
AcDbVisualStyle
  2
Linepattern
 70
    14
 71
     2
 72
     2
 73
     0
 90
        0
 40
-0.6
 41
-30.0
 62
     5
 63
     7
421
 16777215
 74
     1
 91
        4
 64
     7
 65
   257
 75
     7
175
     7
 42
1.0
 92
        8
 66
     7
 43
1.0
 76
     1
 77
     6
 78
     2
 67
     7
 79
     5
170
     0
171
     0
290
     0
174
     0
 93
        1
 44
0.0
173
     0
291
     1
 45
0.0
  0
VISUALSTYLE
  5
33
102
{ACAD_REACTORS
330
2A
102
}
102
{ACAD_XDICTIONARY
360
268
102
}
330
2A
100
AcDbVisualStyle
  2
Realistic
 70
     8
 71
     2
 72
     2
 73
     0
 90
        0
 40
-0.6
 41
-30.0
 62
     5
 63
     7
421
 16777215
 74
     1
 91
        0
 64
     7
 65
   257
 75
     1
175
     1
 42
1.0
 92
        8
 66
     8
424
  7895160
 43
1.0
 76
     1
 77
     6
 78
     2
 67
     7
 79
     5
170
     0
171
     0
290
     0
174
     0
 93
       13
 44
0.0
173
     0
291
     0
 45
0.0
  0
VISUALSTYLE
  5
37
102
{ACAD_REACTORS
330
2A
102
}
102
{ACAD_XDICTIONARY
360
270
102
}
330
2A
100
AcDbVisualStyle
  2
Thicken
 70
    13
 71
     2
 72
     2
 73
     0
 90
        0
 40
-0.6
 41
-30.0
 62
     5
 63
     7
421
 16777215
 74
     1
 91
        4
 64
     7
 65
   257
 75
     1
175
     1
 42
1.0
 92
       12
 66
     7
 43
1.0
 76
     1
 77
     6
 78
     2
 67
     7
 79
     5
170
     0
171
     0
290
     0
174
     0
 93
        1
 44
0.0
173
     0
291
     1
 45
0.0
  0
DICTIONARY
  5
260
330
2F
100
AcDbDictionary
280
     1
281
     1
  3
ACAD_XREC_ROUNDTRIP
360
261
  0
DICTIONARY
  5
264
330
31
100
AcDbDictionary
280
     1
281
     1
  3
ACAD_XREC_ROUNDTRIP
360
265
  0
DICTIONARY
  5
262
330
30
100
AcDbDictionary
280
     1
281
     1
  3
ACAD_XREC_ROUNDTRIP
360
263
  0
DICTIONARY
  5
266
330
32
100
AcDbDictionary
280
     1
281
     1
  3
ACAD_XREC_ROUNDTRIP
360
267
  0
DICTIONARY
  5
26E
330
36
100
AcDbDictionary
280
     1
281
     1
  3
ACAD_XREC_ROUNDTRIP
360
26F
  0
DICTIONARY
  5
276
330
3A
100
AcDbDictionary
280
     1
281
     1
  3
ACAD_XREC_ROUNDTRIP
360
277
  0
DICTIONARY
  5
26A
330
34
100
AcDbDictionary
280
     1
281
     1
  3
ACAD_XREC_ROUNDTRIP
360
26B
  0
DICTIONARY
  5
26C
330
35
100
AcDbDictionary
280
     1
281
     1
  3
ACAD_XREC_ROUNDTRIP
360
26D
  0
DICTIONARY
  5
274
330
39
100
AcDbDictionary
280
     1
281
     1
  3
ACAD_XREC_ROUNDTRIP
360
275
  0
DICTIONARY
  5
258
330
2B
100
AcDbDictionary
280
     1
281
     1
  3
ACAD_XREC_ROUNDTRIP
360
259
  0
DICTIONARY
  5
25A
330
2C
100
AcDbDictionary
280
     1
281
     1
  3
ACAD_XREC_ROUNDTRIP
360
25B
  0
DICTIONARY
  5
25C
330
2D
100
AcDbDictionary
280
     1
281
     1
  3
ACAD_XREC_ROUNDTRIP
360
25D
  0
DICTIONARY
  5
25E
330
2E
100
AcDbDictionary
280
     1
281
     1
  3
ACAD_XREC_ROUNDTRIP
360
25F
  0
DICTIONARY
  5
272
330
38
100
AcDbDictionary
280
     1
281
     1
  3
ACAD_XREC_ROUNDTRIP
360
273
  0
DICTIONARY
  5
268
330
33
100
AcDbDictionary
280
     1
281
     1
  3
ACAD_XREC_ROUNDTRIP
360
269
  0
DICTIONARY
  5
270
330
37
100
AcDbDictionary
280
     1
281
     1
  3
ACAD_XREC_ROUNDTRIP
360
271
  0
XRECORD
  5
261
102
{ACAD_REACTORS
330
260
102
}
330
260
100
AcDbXrecord
280
     1
102
RTVSPropertyOp0
 70
     1
102
RTVSPropertyOp1
 70
     1
102
RTVSPropertyOp2
 70
     1
102
RTVSPropertyOp3
 70
     1
102
RTVSPropertyOp4
 70
     1
102
RTVSPropertyOp5
 70
     1
102
RTVSPropertyOp6
 70
     1
102
RTVSPropertyOp7
 70
     1
102
RTVSPropertyOp8
 70
     1
102
RTVSPropertyOp9
 70
     1
102
RTVSPropertyOp10
 70
     1
102
RTVSPropertyOp11
 70
     1
102
RTVSPropertyOp12
 70
     1
102
RTVSPropertyOp13
 70
     1
102
RTVSPropertyOp14
 70
     1
102
RTVSPropertyOp15
 70
     1
102
RTVSPropertyOp16
 70
     1
102
RTVSPropertyOp17
 70
     1
102
RTVSPropertyOp18
 70
     1
102
RTVSPropertyOp19
 70
     1
102
RTVSPropertyOp20
 70
     1
102
RTVSPropertyOp21
 70
     1
102
RTVSPropertyOp22
 70
     1
102
RTVSPropertyOp23
 70
     1
102
RTVSPropertyOp24
 70
     1
102
RTVSPropertyOp25
 70
     1
102
RTVSPropertyOp26
 70
     1
102
RTVSPropertyOp27
 70
     1
102
RTVSPropertyOp28
 70
     1
102
RTVSPropertyOp29
 70
     1
102
RTVSPropertyOp30
 70
     1
102
RTVSPropertyOp31
 70
     1
102
RTVSPropertyOp32
 70
     1
  0
XRECORD
  5
265
102
{ACAD_REACTORS
330
264
102
}
330
264
100
AcDbXrecord
280
     1
102
RTVSPropertyOp0
 70
     1
102
RTVSPropertyOp1
 70
     1
102
RTVSPropertyOp2
 70
     1
102
RTVSPropertyOp3
 70
     1
102
RTVSPropertyOp4
 70
     1
102
RTVSPropertyOp5
 70
     1
102
RTVSPropertyOp6
 70
     1
102
RTVSPropertyOp7
 70
     1
102
RTVSPropertyOp8
 70
     1
102
RTVSPropertyOp9
 70
     1
102
RTVSPropertyOp10
 70
     1
102
RTVSPropertyOp11
 70
     1
102
RTVSPropertyOp12
 70
     1
102
RTVSPropertyOp13
 70
     1
102
RTVSPropertyOp14
 70
     1
102
RTVSPropertyOp15
 70
     1
102
RTVSPropertyOp16
 70
     1
102
RTVSPropertyOp17
 70
     1
102
RTVSPropertyOp18
 70
     1
102
RTVSPropertyOp19
 70
     1
102
RTVSPropertyOp20
 70
     1
102
RTVSPropertyOp21
 70
     1
102
RTVSPropertyOp22
 70
     1
102
RTVSPropertyOp23
 70
     1
102
RTVSPropertyOp24
 70
     1
102
RTVSPropertyOp25
 70
     1
102
RTVSPropertyOp26
 70
     1
102
RTVSPropertyOp27
 70
     1
102
RTVSPropertyOp28
 70
     1
102
RTVSPropertyOp29
 70
     1
102
RTVSPropertyOp30
 70
     1
102
RTVSPropertyOp31
 70
     1
102
RTVSPropertyOp32
 70
     1
  0
XRECORD
  5
263
102
{ACAD_REACTORS
330
262
102
}
330
262
100
AcDbXrecord
280
     1
102
RTVSPropertyOp0
 70
     1
102
RTVSPropertyOp1
 70
     1
102
RTVSPropertyOp2
 70
     1
102
RTVSPropertyOp3
 70
     1
102
RTVSPropertyOp4
 70
     1
102
RTVSPropertyOp5
 70
     1
102
RTVSPropertyOp6
 70
     1
102
RTVSPropertyOp7
 70
     1
102
RTVSPropertyOp8
 70
     1
102
RTVSPropertyOp9
 70
     1
102
RTVSPropertyOp10
 70
     1
102
RTVSPropertyOp11
 70
     1
102
RTVSPropertyOp12
 70
     1
102
RTVSPropertyOp13
 70
     1
102
RTVSPropertyOp14
 70
     1
102
RTVSPropertyOp15
 70
     1
102
RTVSPropertyOp16
 70
     1
102
RTVSPropertyOp17
 70
     1
102
RTVSPropertyOp18
 70
     1
102
RTVSPropertyOp19
 70
     1
102
RTVSPropertyOp20
 70
     1
102
RTVSPropertyOp21
 70
     1
102
RTVSPropertyOp22
 70
     1
102
RTVSPropertyOp23
 70
     1
102
RTVSPropertyOp24
 70
     1
102
RTVSPropertyOp25
 70
     1
102
RTVSPropertyOp26
 70
     1
102
RTVSPropertyOp27
 70
     1
102
RTVSPropertyOp28
 70
     1
102
RTVSPropertyOp29
 70
     1
102
RTVSPropertyOp30
 70
     1
102
RTVSPropertyOp31
 70
     1
102
RTVSPropertyOp32
 70
     1
  0
XRECORD
  5
267
102
{ACAD_REACTORS
330
266
102
}
330
266
100
AcDbXrecord
280
     1
102
RTVSPropertyOp0
 70
     1
102
RTVSPropertyOp1
 70
     1
102
RTVSPropertyOp2
 70
     1
102
RTVSPropertyOp3
 70
     1
102
RTVSPropertyOp4
 70
     1
102
RTVSPropertyOp5
 70
     1
102
RTVSPropertyOp6
 70
     1
102
RTVSPropertyOp7
 70
     1
102
RTVSPropertyOp8
 70
     1
102
RTVSPropertyOp9
 70
     1
102
RTVSPropertyOp10
 70
     1
102
RTVSPropertyOp11
 70
     1
102
RTVSPropertyOp12
 70
     1
102
RTVSPropertyOp13
 70
     1
102
RTVSPropertyOp14
 70
     1
102
RTVSPropertyOp15
 70
     1
102
RTVSPropertyOp16
 70
     1
102
RTVSPropertyOp17
 70
     1
102
RTVSPropertyOp18
 70
     1
102
RTVSPropertyOp19
 70
     1
102
RTVSPropertyOp20
 70
     1
102
RTVSPropertyOp21
 70
     1
102
RTVSPropertyOp22
 70
     1
102
RTVSPropertyOp23
 70
     1
102
RTVSPropertyOp24
 70
     1
102
RTVSPropertyOp25
 70
     1
102
RTVSPropertyOp26
 70
     1
102
RTVSPropertyOp27
 70
     1
102
RTVSPropertyOp28
 70
     1
102
RTVSPropertyOp29
 70
     1
102
RTVSPropertyOp30
 70
     1
102
RTVSPropertyOp31
 70
     1
102
RTVSPropertyOp32
 70
     1
  0
XRECORD
  5
26F
102
{ACAD_REACTORS
330
26E
102
}
330
26E
100
AcDbXrecord
280
     1
102
RTVSPropertyOp0
 70
     1
102
RTVSPropertyOp1
 70
     1
102
RTVSPropertyOp2
 70
     1
102
RTVSPropertyOp3
 70
     1
102
RTVSPropertyOp4
 70
     1
102
RTVSPropertyOp5
 70
     1
102
RTVSPropertyOp6
 70
     1
102
RTVSPropertyOp7
 70
     1
102
RTVSPropertyOp8
 70
     1
102
RTVSPropertyOp9
 70
     1
102
RTVSPropertyOp10
 70
     1
102
RTVSPropertyOp11
 70
     1
102
RTVSPropertyOp12
 70
     1
102
RTVSPropertyOp13
 70
     1
102
RTVSPropertyOp14
 70
     1
102
RTVSPropertyOp15
 70
     1
102
RTVSPropertyOp16
 70
     1
102
RTVSPropertyOp17
 70
     1
102
RTVSPropertyOp18
 70
     1
102
RTVSPropertyOp19
 70
     1
102
RTVSPropertyOp20
 70
     1
102
RTVSPropertyOp21
 70
     1
102
RTVSPropertyOp22
 70
     1
102
RTVSPropertyOp23
 70
     1
102
RTVSPropertyOp24
 70
     1
102
RTVSPropertyOp25
 70
     1
102
RTVSPropertyOp26
 70
     1
102
RTVSPropertyOp27
 70
     1
102
RTVSPropertyOp28
 70
     1
102
RTVSPropertyOp29
 70
     1
102
RTVSPropertyOp30
 70
     1
102
RTVSPropertyOp31
 70
     1
102
RTVSPropertyOp32
 70
     1
  0
XRECORD
  5
277
102
{ACAD_REACTORS
330
276
102
}
330
276
100
AcDbXrecord
280
     1
102
RTVSPropertyOp0
 70
     1
102
RTVSPropertyOp1
 70
     1
102
RTVSPropertyOp2
 70
     1
102
RTVSPropertyOp3
 70
     1
102
RTVSPropertyOp4
 70
     1
102
RTVSPropertyOp5
 70
     1
102
RTVSPropertyOp6
 70
     1
102
RTVSPropertyOp7
 70
     1
102
RTVSPropertyOp8
 70
     1
102
RTVSPropertyOp9
 70
     1
102
RTVSPropertyOp10
 70
     1
102
RTVSPropertyOp11
 70
     1
102
RTVSPropertyOp12
 70
     1
102
RTVSPropertyOp13
 70
     1
102
RTVSPropertyOp14
 70
     1
102
RTVSPropertyOp15
 70
     1
102
RTVSPropertyOp16
 70
     1
102
RTVSPropertyOp17
 70
     1
102
RTVSPropertyOp18
 70
     1
102
RTVSPropertyOp19
 70
     1
102
RTVSPropertyOp20
 70
     1
102
RTVSPropertyOp21
 70
     1
102
RTVSPropertyOp22
 70
     1
102
RTVSPropertyOp23
 70
     1
102
RTVSPropertyOp24
 70
     1
102
RTVSPropertyOp25
 70
     1
102
RTVSPropertyOp26
 70
     1
102
RTVSPropertyOp27
 70
     1
102
RTVSPropertyOp28
 70
     1
102
RTVSPropertyOp29
 70
     1
102
RTVSPropertyOp30
 70
     1
102
RTVSPropertyOp31
 70
     1
102
RTVSPropertyOp32
 70
     1
  0
XRECORD
  5
26B
102
{ACAD_REACTORS
330
26A
102
}
330
26A
100
AcDbXrecord
280
     1
102
RTVSPropertyOp0
 70
     1
102
RTVSPropertyOp1
 70
     1
102
RTVSPropertyOp2
 70
     1
102
RTVSPropertyOp3
 70
     1
102
RTVSPropertyOp4
 70
     1
102
RTVSPropertyOp5
 70
     1
102
RTVSPropertyOp6
 70
     1
102
RTVSPropertyOp7
 70
     1
102
RTVSPropertyOp8
 70
     1
102
RTVSPropertyOp9
 70
     1
102
RTVSPropertyOp10
 70
     1
102
RTVSPropertyOp11
 70
     1
102
RTVSPropertyOp12
 70
     1
102
RTVSPropertyOp13
 70
     1
102
RTVSPropertyOp14
 70
     1
102
RTVSPropertyOp15
 70
     1
102
RTVSPropertyOp16
 70
     1
102
RTVSPropertyOp17
 70
     1
102
RTVSPropertyOp18
 70
     1
102
RTVSPropertyOp19
 70
     1
102
RTVSPropertyOp20
 70
     1
102
RTVSPropertyOp21
 70
     1
102
RTVSPropertyOp22
 70
     1
102
RTVSPropertyOp23
 70
     1
102
RTVSPropertyOp24
 70
     1
102
RTVSPropertyOp25
 70
     1
102
RTVSPropertyOp26
 70
     1
102
RTVSPropertyOp27
 70
     1
102
RTVSPropertyOp28
 70
     1
102
RTVSPropertyOp29
 70
     1
102
RTVSPropertyOp30
 70
     1
102
RTVSPropertyOp31
 70
     1
102
RTVSPropertyOp32
 70
     1
  0
XRECORD
  5
26D
102
{ACAD_REACTORS
330
26C
102
}
330
26C
100
AcDbXrecord
280
     1
102
RTVSPropertyOp0
 70
     1
102
RTVSPropertyOp1
 70
     1
102
RTVSPropertyOp2
 70
     1
102
RTVSPropertyOp3
 70
     1
102
RTVSPropertyOp4
 70
     1
102
RTVSPropertyOp5
 70
     1
102
RTVSPropertyOp6
 70
     1
102
RTVSPropertyOp7
 70
     1
102
RTVSPropertyOp8
 70
     1
102
RTVSPropertyOp9
 70
     1
102
RTVSPropertyOp10
 70
     1
102
RTVSPropertyOp11
 70
     1
102
RTVSPropertyOp12
 70
     1
102
RTVSPropertyOp13
 70
     1
102
RTVSPropertyOp14
 70
     1
102
RTVSPropertyOp15
 70
     1
102
RTVSPropertyOp16
 70
     1
102
RTVSPropertyOp17
 70
     1
102
RTVSPropertyOp18
 70
     1
102
RTVSPropertyOp19
 70
     1
102
RTVSPropertyOp20
 70
     1
102
RTVSPropertyOp21
 70
     1
102
RTVSPropertyOp22
 70
     1
102
RTVSPropertyOp23
 70
     1
102
RTVSPropertyOp24
 70
     1
102
RTVSPropertyOp25
 70
     1
102
RTVSPropertyOp26
 70
     1
102
RTVSPropertyOp27
 70
     1
102
RTVSPropertyOp28
 70
     1
102
RTVSPropertyOp29
 70
     1
102
RTVSPropertyOp30
 70
     1
102
RTVSPropertyOp31
 70
     1
102
RTVSPropertyOp32
 70
     1
  0
XRECORD
  5
275
102
{ACAD_REACTORS
330
274
102
}
330
274
100
AcDbXrecord
280
     1
102
RTVSPropertyOp0
 70
     1
102
RTVSPropertyOp1
 70
     1
102
RTVSPropertyOp2
 70
     1
102
RTVSPropertyOp3
 70
     1
102
RTVSPropertyOp4
 70
     1
102
RTVSPropertyOp5
 70
     1
102
RTVSPropertyOp6
 70
     1
102
RTVSPropertyOp7
 70
     1
102
RTVSPropertyOp8
 70
     1
102
RTVSPropertyOp9
 70
     1
102
RTVSPropertyOp10
 70
     1
102
RTVSPropertyOp11
 70
     1
102
RTVSPropertyOp12
 70
     1
102
RTVSPropertyOp13
 70
     1
102
RTVSPropertyOp14
 70
     1
102
RTVSPropertyOp15
 70
     1
102
RTVSPropertyOp16
 70
     1
102
RTVSPropertyOp17
 70
     1
102
RTVSPropertyOp18
 70
     1
102
RTVSPropertyOp19
 70
     1
102
RTVSPropertyOp20
 70
     1
102
RTVSPropertyOp21
 70
     1
102
RTVSPropertyOp22
 70
     1
102
RTVSPropertyOp23
 70
     1
102
RTVSPropertyOp24
 70
     1
102
RTVSPropertyOp25
 70
     1
102
RTVSPropertyOp26
 70
     1
102
RTVSPropertyOp27
 70
     1
102
RTVSPropertyOp28
 70
     1
102
RTVSPropertyOp29
 70
     1
102
RTVSPropertyOp30
 70
     1
102
RTVSPropertyOp31
 70
     1
102
RTVSPropertyOp32
 70
     1
  0
XRECORD
  5
259
102
{ACAD_REACTORS
330
258
102
}
330
258
100
AcDbXrecord
280
     1
102
RTVSPropertyOp0
 70
     1
102
RTVSPropertyOp1
 70
     1
102
RTVSPropertyOp2
 70
     1
102
RTVSPropertyOp3
 70
     1
102
RTVSPropertyOp4
 70
     1
102
RTVSPropertyOp5
 70
     1
102
RTVSPropertyOp6
 70
     1
102
RTVSPropertyOp7
 70
     1
102
RTVSPropertyOp8
 70
     1
102
RTVSPropertyOp9
 70
     1
102
RTVSPropertyOp10
 70
     1
102
RTVSPropertyOp11
 70
     1
102
RTVSPropertyOp12
 70
     1
102
RTVSPropertyOp13
 70
     1
102
RTVSPropertyOp14
 70
     1
102
RTVSPropertyOp15
 70
     1
102
RTVSPropertyOp16
 70
     1
102
RTVSPropertyOp17
 70
     1
102
RTVSPropertyOp18
 70
     1
102
RTVSPropertyOp19
 70
     1
102
RTVSPropertyOp20
 70
     1
102
RTVSPropertyOp21
 70
     1
102
RTVSPropertyOp22
 70
     1
102
RTVSPropertyOp23
 70
     1
102
RTVSPropertyOp24
 70
     1
102
RTVSPropertyOp25
 70
     1
102
RTVSPropertyOp26
 70
     1
102
RTVSPropertyOp27
 70
     1
102
RTVSPropertyOp28
 70
     1
102
RTVSPropertyOp29
 70
     1
102
RTVSPropertyOp30
 70
     1
102
RTVSPropertyOp31
 70
     1
102
RTVSPropertyOp32
 70
     1
  0
XRECORD
  5
25B
102
{ACAD_REACTORS
330
25A
102
}
330
25A
100
AcDbXrecord
280
     1
102
RTVSPropertyOp0
 70
     1
102
RTVSPropertyOp1
 70
     1
102
RTVSPropertyOp2
 70
     1
102
RTVSPropertyOp3
 70
     1
102
RTVSPropertyOp4
 70
     1
102
RTVSPropertyOp5
 70
     1
102
RTVSPropertyOp6
 70
     1
102
RTVSPropertyOp7
 70
     1
102
RTVSPropertyOp8
 70
     1
102
RTVSPropertyOp9
 70
     1
102
RTVSPropertyOp10
 70
     1
102
RTVSPropertyOp11
 70
     1
102
RTVSPropertyOp12
 70
     1
102
RTVSPropertyOp13
 70
     1
102
RTVSPropertyOp14
 70
     1
102
RTVSPropertyOp15
 70
     1
102
RTVSPropertyOp16
 70
     1
102
RTVSPropertyOp17
 70
     1
102
RTVSPropertyOp18
 70
     1
102
RTVSPropertyOp19
 70
     1
102
RTVSPropertyOp20
 70
     1
102
RTVSPropertyOp21
 70
     1
102
RTVSPropertyOp22
 70
     1
102
RTVSPropertyOp23
 70
     1
102
RTVSPropertyOp24
 70
     1
102
RTVSPropertyOp25
 70
     1
102
RTVSPropertyOp26
 70
     1
102
RTVSPropertyOp27
 70
     1
102
RTVSPropertyOp28
 70
     1
102
RTVSPropertyOp29
 70
     1
102
RTVSPropertyOp30
 70
     1
102
RTVSPropertyOp31
 70
     1
102
RTVSPropertyOp32
 70
     1
  0
XRECORD
  5
25D
102
{ACAD_REACTORS
330
25C
102
}
330
25C
100
AcDbXrecord
280
     1
102
RTVSPropertyOp0
 70
     1
102
RTVSPropertyOp1
 70
     1
102
RTVSPropertyOp2
 70
     1
102
RTVSPropertyOp3
 70
     1
102
RTVSPropertyOp4
 70
     1
102
RTVSPropertyOp5
 70
     1
102
RTVSPropertyOp6
 70
     1
102
RTVSPropertyOp7
 70
     1
102
RTVSPropertyOp8
 70
     1
102
RTVSPropertyOp9
 70
     1
102
RTVSPropertyOp10
 70
     1
102
RTVSPropertyOp11
 70
     1
102
RTVSPropertyOp12
 70
     1
102
RTVSPropertyOp13
 70
     1
102
RTVSPropertyOp14
 70
     1
102
RTVSPropertyOp15
 70
     1
102
RTVSPropertyOp16
 70
     1
102
RTVSPropertyOp17
 70
     1
102
RTVSPropertyOp18
 70
     1
102
RTVSPropertyOp19
 70
     1
102
RTVSPropertyOp20
 70
     1
102
RTVSPropertyOp21
 70
     1
102
RTVSPropertyOp22
 70
     1
102
RTVSPropertyOp23
 70
     1
102
RTVSPropertyOp24
 70
     1
102
RTVSPropertyOp25
 70
     1
102
RTVSPropertyOp26
 70
     1
102
RTVSPropertyOp27
 70
     1
102
RTVSPropertyOp28
 70
     1
102
RTVSPropertyOp29
 70
     1
102
RTVSPropertyOp30
 70
     1
102
RTVSPropertyOp31
 70
     1
102
RTVSPropertyOp32
 70
     1
  0
XRECORD
  5
25F
102
{ACAD_REACTORS
330
25E
102
}
330
25E
100
AcDbXrecord
280
     1
102
RTVSPropertyOp0
 70
     1
102
RTVSPropertyOp1
 70
     1
102
RTVSPropertyOp2
 70
     1
102
RTVSPropertyOp3
 70
     1
102
RTVSPropertyOp4
 70
     1
102
RTVSPropertyOp5
 70
     1
102
RTVSPropertyOp6
 70
     1
102
RTVSPropertyOp7
 70
     1
102
RTVSPropertyOp8
 70
     1
102
RTVSPropertyOp9
 70
     1
102
RTVSPropertyOp10
 70
     1
102
RTVSPropertyOp11
 70
     1
102
RTVSPropertyOp12
 70
     1
102
RTVSPropertyOp13
 70
     1
102
RTVSPropertyOp14
 70
     1
102
RTVSPropertyOp15
 70
     1
102
RTVSPropertyOp16
 70
     1
102
RTVSPropertyOp17
 70
     1
102
RTVSPropertyOp18
 70
     1
102
RTVSPropertyOp19
 70
     1
102
RTVSPropertyOp20
 70
     1
102
RTVSPropertyOp21
 70
     1
102
RTVSPropertyOp22
 70
     1
102
RTVSPropertyOp23
 70
     1
102
RTVSPropertyOp24
 70
     1
102
RTVSPropertyOp25
 70
     1
102
RTVSPropertyOp26
 70
     1
102
RTVSPropertyOp27
 70
     1
102
RTVSPropertyOp28
 70
     1
102
RTVSPropertyOp29
 70
     1
102
RTVSPropertyOp30
 70
     1
102
RTVSPropertyOp31
 70
     1
102
RTVSPropertyOp32
 70
     1
  0
XRECORD
  5
273
102
{ACAD_REACTORS
330
272
102
}
330
272
100
AcDbXrecord
280
     1
102
RTVSPropertyOp0
 70
     1
102
RTVSPropertyOp1
 70
     1
102
RTVSPropertyOp2
 70
     1
102
RTVSPropertyOp3
 70
     1
102
RTVSPropertyOp4
 70
     1
102
RTVSPropertyOp5
 70
     1
102
RTVSPropertyOp6
 70
     1
102
RTVSPropertyOp7
 70
     1
102
RTVSPropertyOp8
 70
     1
102
RTVSPropertyOp9
 70
     1
102
RTVSPropertyOp10
 70
     1
102
RTVSPropertyOp11
 70
     1
102
RTVSPropertyOp12
 70
     1
102
RTVSPropertyOp13
 70
     1
102
RTVSPropertyOp14
 70
     1
102
RTVSPropertyOp15
 70
     1
102
RTVSPropertyOp16
 70
     1
102
RTVSPropertyOp17
 70
     1
102
RTVSPropertyOp18
 70
     1
102
RTVSPropertyOp19
 70
     1
102
RTVSPropertyOp20
 70
     1
102
RTVSPropertyOp21
 70
     1
102
RTVSPropertyOp22
 70
     1
102
RTVSPropertyOp23
 70
     1
102
RTVSPropertyOp24
 70
     1
102
RTVSPropertyOp25
 70
     1
102
RTVSPropertyOp26
 70
     1
102
RTVSPropertyOp27
 70
     1
102
RTVSPropertyOp28
 70
     1
102
RTVSPropertyOp29
 70
     1
102
RTVSPropertyOp30
 70
     1
102
RTVSPropertyOp31
 70
     1
102
RTVSPropertyOp32
 70
     1
  0
XRECORD
  5
269
102
{ACAD_REACTORS
330
268
102
}
330
268
100
AcDbXrecord
280
     1
102
RTVSPropertyOp0
 70
     1
102
RTVSPropertyOp1
 70
     1
102
RTVSPropertyOp2
 70
     1
102
RTVSPropertyOp3
 70
     1
102
RTVSPropertyOp4
 70
     1
102
RTVSPropertyOp5
 70
     1
102
RTVSPropertyOp6
 70
     1
102
RTVSPropertyOp7
 70
     1
102
RTVSPropertyOp8
 70
     1
102
RTVSPropertyOp9
 70
     1
102
RTVSPropertyOp10
 70
     1
102
RTVSPropertyOp11
 70
     1
102
RTVSPropertyOp12
 70
     1
102
RTVSPropertyOp13
 70
     1
102
RTVSPropertyOp14
 70
     1
102
RTVSPropertyOp15
 70
     1
102
RTVSPropertyOp16
 70
     1
102
RTVSPropertyOp17
 70
     1
102
RTVSPropertyOp18
 70
     1
102
RTVSPropertyOp19
 70
     1
102
RTVSPropertyOp20
 70
     1
102
RTVSPropertyOp21
 70
     1
102
RTVSPropertyOp22
 70
     1
102
RTVSPropertyOp23
 70
     1
102
RTVSPropertyOp24
 70
     1
102
RTVSPropertyOp25
 70
     1
102
RTVSPropertyOp26
 70
     1
102
RTVSPropertyOp27
 70
     1
102
RTVSPropertyOp28
 70
     1
102
RTVSPropertyOp29
 70
     1
102
RTVSPropertyOp30
 70
     1
102
RTVSPropertyOp31
 70
     1
102
RTVSPropertyOp32
 70
     1
  0
XRECORD
  5
271
102
{ACAD_REACTORS
330
270
102
}
330
270
100
AcDbXrecord
280
     1
102
RTVSPropertyOp0
 70
     1
102
RTVSPropertyOp1
 70
     1
102
RTVSPropertyOp2
 70
     1
102
RTVSPropertyOp3
 70
     1
102
RTVSPropertyOp4
 70
     1
102
RTVSPropertyOp5
 70
     1
102
RTVSPropertyOp6
 70
     1
102
RTVSPropertyOp7
 70
     1
102
RTVSPropertyOp8
 70
     1
102
RTVSPropertyOp9
 70
     1
102
RTVSPropertyOp10
 70
     1
102
RTVSPropertyOp11
 70
     1
102
RTVSPropertyOp12
 70
     1
102
RTVSPropertyOp13
 70
     1
102
RTVSPropertyOp14
 70
     1
102
RTVSPropertyOp15
 70
     1
102
RTVSPropertyOp16
 70
     1
102
RTVSPropertyOp17
 70
     1
102
RTVSPropertyOp18
 70
     1
102
RTVSPropertyOp19
 70
     1
102
RTVSPropertyOp20
 70
     1
102
RTVSPropertyOp21
 70
     1
102
RTVSPropertyOp22
 70
     1
102
RTVSPropertyOp23
 70
     1
102
RTVSPropertyOp24
 70
     1
102
RTVSPropertyOp25
 70
     1
102
RTVSPropertyOp26
 70
     1
102
RTVSPropertyOp27
 70
     1
102
RTVSPropertyOp28
 70
     1
102
RTVSPropertyOp29
 70
     1
102
RTVSPropertyOp30
 70
     1
102
RTVSPropertyOp31
 70
     1
102
RTVSPropertyOp32
 70
     1
  0
ENDSEC
  0
EOF
